  0
SECTION
  2
HEADER
  9
$ACADVER
  1
AC1006
  9
$EXTMIN
 10
-2.134728
 20
-4.331098
  9
$EXTMAX
 10
2.130000
 20
4.331000
  9
$LTSCALE
 40
0.000394
  9
$PDMODE
 70
    35
  9
$PDSIZE
 40
0.000315
  0
ENDSEC
  0
SECTION
  2
TABLES
  0
TABLE
  2
LTYPE
 70
     9
  0
LTYPE
  2
CONTINUOUS
 70
    64
  3
Solid line
 72
    65
 73
     0
 40
0.000000
  0
LTYPE
  2
DASHED
 70
    64
  3
__ __ __ __ __ __ __ __ __ __ __ __ __ __ __
 72
    65
 73
     2
 40
0.000003
 49
0.000002
 49
-0.000001
  0
LTYPE
  2
HIDDEN
 70
    64
  3
 _ _ _ _ _ _ _ _ _ _ _ _ _ _ _ _ _ _ _ _ _ _
 72
    65
 73
     2
 40
0.000001
 49
0.000001
 49
-0.000000
  0
LTYPE
  2
CENTER
 70
    64
  3
____ _ ____ _ ____ _ ____ _ ____ _ ____ _ ____
 72
    65
 73
     4
 40
0.000008
 49
0.000005
 49
-0.000001
 49
0.000001
 49
-0.000001
  0
LTYPE
  2
PHANTOM
 70
    64
  3
_____ _ _ _____ _ _ _____ _ _ _____ _ _ ____
 72
    65
 73
     6
 40
0.000010
 49
0.000005
 49
-0.000001
 49
0.000001
 49
-0.000001
 49
0.000001
 49
-0.000001
  0
LTYPE
  2
DOT
 70
    64
  3
...............................................
 72
    65
 73
     2
 40
0.000001
 49
0.000000
 49
-0.000001
  0
LTYPE
  2
DASHDOT
 70
    64
  3
__ . __ . __ . __ . __ . __ . __ . __ . __ . __
 72
    65
 73
     4
 40
0.000004
 49
0.000002
 49
-0.000001
 49
0.000000
 49
-0.000001
  0
LTYPE
  2
BORDER
 70
    64
  3
__ __ . __ __ . __ __ . __ __ . __ __ . __ __
 72
    65
 73
     6
 40
0.000007
 49
0.000002
 49
-0.000001
 49
0.000002
 49
-0.000001
 49
0.000000
 49
-0.000001
  0
LTYPE
  2
DIVIDE
 70
    64
  3
__ . . __ . . __ . . __ . . __ . . __ . . __
 72
    65
 73
     6
 40
0.000005
 49
0.000002
 49
-0.000001
 49
0.000000
 49
-0.000001
 49
0.000000
 49
-0.000001
  0
LTYPE
  2
DOTDOT
 70
    64
  3
 . .  . .  . .  . .  . .  . . 
 72
    65
 73
     5
 40
0.000002
 49
-0.000001
 49
0.000000
 49
-0.000001
 49
0.000000
 49
-0.000001
  0
ENDTAB
  0
TABLE
  2
STYLE
 70
     0
  0
ENDTAB
  0
TABLE
  2
LAYER
 70
     3
  0
LAYER
  2
FOREGROUND
 70
    64
 62
     7
  6
CONTINUOUS
  0
LAYER
  2
BACKGROUND
 70
    65
 62
    -7
  6
CONTINUOUS
  0
LAYER
  2
PLAN_1
 70
    64
 62
     7
  6
CONTINUOUS
  0
ENDTAB
  0
ENDSEC
  0
SECTION
  2
ENTITIES
  0
POLYLINE
  8
PLAN_1
  6
CONTINUOUS
 66
     1
 40
0.003000
 41
0.003000
  0
VERTEX
  8
PLAN_1
  6
CONTINUOUS
 10
0.254114
 20
-4.296449
  0
VERTEX
  8
PLAN_1
  6
CONTINUOUS
 10
0.097114
 20
-4.296449
  0
VERTEX
  8
PLAN_1
  6
CONTINUOUS
 10
0.097114
 20
-4.273709
  0
VERTEX
  8
PLAN_1
  6
CONTINUOUS
 10
0.219465
 20
-4.121039
  0
VERTEX
  8
PLAN_1
  6
CONTINUOUS
 10
0.106319
 20
-4.121039
  0
VERTEX
  8
PLAN_1
  6
CONTINUOUS
 10
0.106319
 20
-4.097220
  0
VERTEX
  8
PLAN_1
  6
CONTINUOUS
 10
0.254114
 20
-4.097220
  0
VERTEX
  8
PLAN_1
  6
CONTINUOUS
 10
0.254114
 20
-4.120500
  0
VERTEX
  8
PLAN_1
  6
CONTINUOUS
 10
0.131220
 20
-4.272626
  0
VERTEX
  8
PLAN_1
  6
CONTINUOUS
 10
0.254114
 20
-4.272626
  0
VERTEX
  8
PLAN_1
  6
CONTINUOUS
 10
0.254114
 20
-4.296449
  0
SEQEND
  8
0
  0
POLYLINE
  8
PLAN_1
  6
CONTINUOUS
 66
     1
 40
0.003000
 41
0.003000
  0
VERTEX
  8
PLAN_1
  6
CONTINUOUS
 10
0.421402
 20
-4.157315
  0
VERTEX
  8
PLAN_1
  6
CONTINUOUS
 10
0.419776
 20
-4.150819
  0
VERTEX
  8
PLAN_1
  6
CONTINUOUS
 10
0.417610
 20
-4.145402
  0
VERTEX
  8
PLAN_1
  6
CONTINUOUS
 10
0.415445
 20
-4.140531
  0
VERTEX
  8
PLAN_1
  6
CONTINUOUS
 10
0.412197
 20
-4.135657
  0
VERTEX
  8
PLAN_1
  6
CONTINUOUS
 10
0.408949
 20
-4.131870
  0
VERTEX
  8
PLAN_1
  6
CONTINUOUS
 10
0.405701
 20
-4.128622
  0
VERTEX
  8
PLAN_1
  6
CONTINUOUS
 10
0.401913
 20
-4.125913
  0
VERTEX
  8
PLAN_1
  6
CONTINUOUS
 10
0.398122
 20
-4.123205
  0
VERTEX
  8
PLAN_1
  6
CONTINUOUS
 10
0.393791
 20
-4.121039
  0
VERTEX
  8
PLAN_1
  6
CONTINUOUS
 10
0.390000
 20
-4.119417
  0
VERTEX
  8
PLAN_1
  6
CONTINUOUS
 10
0.385669
 20
-4.118335
  0
VERTEX
  8
PLAN_1
  6
CONTINUOUS
 10
0.381339
 20
-4.117252
  0
VERTEX
  8
PLAN_1
  6
CONTINUOUS
 10
0.373217
 20
-4.116169
  0
VERTEX
  8
PLAN_1
  6
CONTINUOUS
 10
0.365638
 20
-4.115626
  0
VERTEX
  8
PLAN_1
  6
CONTINUOUS
 10
0.359142
 20
-4.116169
  0
VERTEX
  8
PLAN_1
  6
CONTINUOUS
 10
0.352646
 20
-4.116709
  0
VERTEX
  8
PLAN_1
  6
CONTINUOUS
 10
0.346150
 20
-4.118335
  0
VERTEX
  8
PLAN_1
  6
CONTINUOUS
 10
0.340193
 20
-4.120500
  0
VERTEX
  8
PLAN_1
  6
CONTINUOUS
 10
0.334780
 20
-4.123748
  0
VERTEX
  8
PLAN_1
  6
CONTINUOUS
 10
0.329366
 20
-4.126996
  0
VERTEX
  8
PLAN_1
  6
CONTINUOUS
 10
0.324496
 20
-4.130787
  0
VERTEX
  8
PLAN_1
  6
CONTINUOUS
 10
0.319622
 20
-4.135657
  0
VERTEX
  8
PLAN_1
  6
CONTINUOUS
 10
0.315291
 20
-4.141071
  0
VERTEX
  8
PLAN_1
  6
CONTINUOUS
 10
0.311500
 20
-4.146484
  0
VERTEX
  8
PLAN_1
  6
CONTINUOUS
 10
0.308252
 20
-4.152984
  0
VERTEX
  8
PLAN_1
  6
CONTINUOUS
 10
0.305547
 20
-4.160563
  0
VERTEX
  8
PLAN_1
  6
CONTINUOUS
 10
0.303382
 20
-4.168142
  0
VERTEX
  8
PLAN_1
  6
CONTINUOUS
 10
0.301756
 20
-4.176264
  0
VERTEX
  8
PLAN_1
  6
CONTINUOUS
 10
0.300673
 20
-4.185465
  0
VERTEX
  8
PLAN_1
  6
CONTINUOUS
 10
0.300673
 20
-4.194669
  0
VERTEX
  8
PLAN_1
  6
CONTINUOUS
 10
0.300673
 20
-4.203331
  0
VERTEX
  8
PLAN_1
  6
CONTINUOUS
 10
0.301217
 20
-4.211992
  0
VERTEX
  8
PLAN_1
  6
CONTINUOUS
 10
0.302299
 20
-4.220114
  0
VERTEX
  8
PLAN_1
  6
CONTINUOUS
 10
0.303921
 20
-4.227693
  0
VERTEX
  8
PLAN_1
  6
CONTINUOUS
 10
0.306087
 20
-4.234732
  0
VERTEX
  8
PLAN_1
  6
CONTINUOUS
 10
0.308252
 20
-4.241768
  0
VERTEX
  8
PLAN_1
  6
CONTINUOUS
 10
0.311500
 20
-4.248264
  0
VERTEX
  8
PLAN_1
  6
CONTINUOUS
 10
0.315291
 20
-4.253681
  0
VERTEX
  8
PLAN_1
  6
CONTINUOUS
 10
0.319079
 20
-4.259094
  0
VERTEX
  8
PLAN_1
  6
CONTINUOUS
 10
0.323953
 20
-4.263965
  0
VERTEX
  8
PLAN_1
  6
CONTINUOUS
 10
0.329366
 20
-4.267756
  0
VERTEX
  8
PLAN_1
  6
CONTINUOUS
 10
0.335323
 20
-4.271543
  0
VERTEX
  8
PLAN_1
  6
CONTINUOUS
 10
0.342358
 20
-4.274252
  0
VERTEX
  8
PLAN_1
  6
CONTINUOUS
 10
0.349398
 20
-4.276417
  0
VERTEX
  8
PLAN_1
  6
CONTINUOUS
 10
0.357520
 20
-4.277500
  0
VERTEX
  8
PLAN_1
  6
CONTINUOUS
 10
0.366720
 20
-4.278043
  0
VERTEX
  8
PLAN_1
  6
CONTINUOUS
 10
0.373760
 20
-4.277500
  0
VERTEX
  8
PLAN_1
  6
CONTINUOUS
 10
0.381339
 20
-4.275878
  0
VERTEX
  8
PLAN_1
  6
CONTINUOUS
 10
0.385669
 20
-4.274252
  0
VERTEX
  8
PLAN_1
  6
CONTINUOUS
 10
0.390000
 20
-4.272626
  0
VERTEX
  8
PLAN_1
  6
CONTINUOUS
 10
0.393791
 20
-4.270461
  0
VERTEX
  8
PLAN_1
  6
CONTINUOUS
 10
0.398122
 20
-4.267756
  0
VERTEX
  8
PLAN_1
  6
CONTINUOUS
 10
0.402453
 20
-4.264508
  0
VERTEX
  8
PLAN_1
  6
CONTINUOUS
 10
0.406244
 20
-4.260717
  0
VERTEX
  8
PLAN_1
  6
CONTINUOUS
 10
0.410031
 20
-4.256386
  0
VERTEX
  8
PLAN_1
  6
CONTINUOUS
 10
0.413280
 20
-4.250972
  0
VERTEX
  8
PLAN_1
  6
CONTINUOUS
 10
0.416528
 20
-4.245559
  0
VERTEX
  8
PLAN_1
  6
CONTINUOUS
 10
0.419236
 20
-4.239063
  0
VERTEX
  8
PLAN_1
  6
CONTINUOUS
 10
0.421402
 20
-4.231484
  0
VERTEX
  8
PLAN_1
  6
CONTINUOUS
 10
0.423567
 20
-4.223362
  0
VERTEX
  8
PLAN_1
  6
CONTINUOUS
 10
0.449555
 20
-4.223362
  0
VERTEX
  8
PLAN_1
  6
CONTINUOUS
 10
0.448469
 20
-4.229858
  0
VERTEX
  8
PLAN_1
  6
CONTINUOUS
 10
0.446846
 20
-4.236354
  0
VERTEX
  8
PLAN_1
  6
CONTINUOUS
 10
0.445220
 20
-4.242311
  0
VERTEX
  8
PLAN_1
  6
CONTINUOUS
 10
0.443055
 20
-4.248264
  0
VERTEX
  8
PLAN_1
  6
CONTINUOUS
 10
0.440890
 20
-4.253138
  0
VERTEX
  8
PLAN_1
  6
CONTINUOUS
 10
0.438724
 20
-4.258551
  0
VERTEX
  8
PLAN_1
  6
CONTINUOUS
 10
0.436020
 20
-4.262882
  0
VERTEX
  8
PLAN_1
  6
CONTINUOUS
 10
0.433311
 20
-4.267213
  0
VERTEX
  8
PLAN_1
  6
CONTINUOUS
 10
0.430606
 20
-4.271004
  0
VERTEX
  8
PLAN_1
  6
CONTINUOUS
 10
0.427358
 20
-4.274795
  0
VERTEX
  8
PLAN_1
  6
CONTINUOUS
 10
0.424110
 20
-4.278043
  0
VERTEX
  8
PLAN_1
  6
CONTINUOUS
 10
0.420858
 20
-4.281291
  0
VERTEX
  8
PLAN_1
  6
CONTINUOUS
 10
0.414362
 20
-4.286161
  0
VERTEX
  8
PLAN_1
  6
CONTINUOUS
 10
0.407327
 20
-4.290492
  0
VERTEX
  8
PLAN_1
  6
CONTINUOUS
 10
0.400287
 20
-4.294283
  0
VERTEX
  8
PLAN_1
  6
CONTINUOUS
 10
0.393791
 20
-4.296449
  0
VERTEX
  8
PLAN_1
  6
CONTINUOUS
 10
0.387295
 20
-4.298614
  0
VERTEX
  8
PLAN_1
  6
CONTINUOUS
 10
0.380799
 20
-4.300240
  0
VERTEX
  8
PLAN_1
  6
CONTINUOUS
 10
0.369969
 20
-4.301323
  0
VERTEX
  8
PLAN_1
  6
CONTINUOUS
 10
0.362390
 20
-4.301862
  0
VERTEX
  8
PLAN_1
  6
CONTINUOUS
 10
0.353728
 20
-4.301323
  0
VERTEX
  8
PLAN_1
  6
CONTINUOUS
 10
0.345606
 20
-4.300240
  0
VERTEX
  8
PLAN_1
  6
CONTINUOUS
 10
0.337488
 20
-4.298614
  0
VERTEX
  8
PLAN_1
  6
CONTINUOUS
 10
0.329366
 20
-4.295906
  0
VERTEX
  8
PLAN_1
  6
CONTINUOUS
 10
0.321787
 20
-4.292657
  0
VERTEX
  8
PLAN_1
  6
CONTINUOUS
 10
0.314209
 20
-4.288327
  0
VERTEX
  8
PLAN_1
  6
CONTINUOUS
 10
0.307169
 20
-4.283457
  0
VERTEX
  8
PLAN_1
  6
CONTINUOUS
 10
0.300673
 20
-4.277500
  0
VERTEX
  8
PLAN_1
  6
CONTINUOUS
 10
0.294717
 20
-4.270461
  0
VERTEX
  8
PLAN_1
  6
CONTINUOUS
 10
0.289303
 20
-4.262882
  0
VERTEX
  8
PLAN_1
  6
CONTINUOUS
 10
0.284433
 20
-4.254220
  0
VERTEX
  8
PLAN_1
  6
CONTINUOUS
 10
0.280642
 20
-4.244476
  0
VERTEX
  8
PLAN_1
  6
CONTINUOUS
 10
0.277394
 20
-4.233650
  0
VERTEX
  8
PLAN_1
  6
CONTINUOUS
 10
0.274689
 20
-4.222280
  0
VERTEX
  8
PLAN_1
  6
CONTINUOUS
 10
0.273063
 20
-4.209287
  0
VERTEX
  8
PLAN_1
  6
CONTINUOUS
 10
0.273063
 20
-4.195752
  0
VERTEX
  8
PLAN_1
  6
CONTINUOUS
 10
0.273063
 20
-4.184382
  0
VERTEX
  8
PLAN_1
  6
CONTINUOUS
 10
0.274146
 20
-4.173555
  0
VERTEX
  8
PLAN_1
  6
CONTINUOUS
 10
0.276311
 20
-4.163268
  0
VERTEX
  8
PLAN_1
  6
CONTINUOUS
 10
0.279020
 20
-4.153524
  0
VERTEX
  8
PLAN_1
  6
CONTINUOUS
 10
0.282807
 20
-4.144319
  0
VERTEX
  8
PLAN_1
  6
CONTINUOUS
 10
0.287138
 20
-4.135657
  0
VERTEX
  8
PLAN_1
  6
CONTINUOUS
 10
0.292012
 20
-4.128079
  0
VERTEX
  8
PLAN_1
  6
CONTINUOUS
 10
0.297425
 20
-4.120500
  0
VERTEX
  8
PLAN_1
  6
CONTINUOUS
 10
0.303921
 20
-4.114004
  0
VERTEX
  8
PLAN_1
  6
CONTINUOUS
 10
0.310961
 20
-4.108591
  0
VERTEX
  8
PLAN_1
  6
CONTINUOUS
 10
0.318539
 20
-4.103717
  0
VERTEX
  8
PLAN_1
  6
CONTINUOUS
 10
0.326661
 20
-4.099386
  0
VERTEX
  8
PLAN_1
  6
CONTINUOUS
 10
0.335862
 20
-4.096138
  0
VERTEX
  8
PLAN_1
  6
CONTINUOUS
 10
0.345067
 20
-4.093972
  0
VERTEX
  8
PLAN_1
  6
CONTINUOUS
 10
0.355354
 20
-4.092346
  0
VERTEX
  8
PLAN_1
  6
CONTINUOUS
 10
0.365638
 20
-4.091807
  0
VERTEX
  8
PLAN_1
  6
CONTINUOUS
 10
0.374843
 20
-4.092346
  0
VERTEX
  8
PLAN_1
  6
CONTINUOUS
 10
0.384047
 20
-4.093429
  0
VERTEX
  8
PLAN_1
  6
CONTINUOUS
 10
0.392165
 20
-4.095055
  0
VERTEX
  8
PLAN_1
  6
CONTINUOUS
 10
0.399748
 20
-4.097220
  0
VERTEX
  8
PLAN_1
  6
CONTINUOUS
 10
0.406783
 20
-4.100469
  0
VERTEX
  8
PLAN_1
  6
CONTINUOUS
 10
0.413280
 20
-4.103717
  0
VERTEX
  8
PLAN_1
  6
CONTINUOUS
 10
0.419236
 20
-4.107508
  0
VERTEX
  8
PLAN_1
  6
CONTINUOUS
 10
0.424650
 20
-4.111839
  0
VERTEX
  8
PLAN_1
  6
CONTINUOUS
 10
0.429524
 20
-4.116709
  0
VERTEX
  8
PLAN_1
  6
CONTINUOUS
 10
0.433311
 20
-4.121583
  0
VERTEX
  8
PLAN_1
  6
CONTINUOUS
 10
0.437102
 20
-4.126996
  0
VERTEX
  8
PLAN_1
  6
CONTINUOUS
 10
0.440350
 20
-4.132953
  0
VERTEX
  8
PLAN_1
  6
CONTINUOUS
 10
0.443055
 20
-4.138906
  0
VERTEX
  8
PLAN_1
  6
CONTINUOUS
 10
0.445220
 20
-4.144862
  0
VERTEX
  8
PLAN_1
  6
CONTINUOUS
 10
0.446846
 20
-4.150819
  0
VERTEX
  8
PLAN_1
  6
CONTINUOUS
 10
0.447386
 20
-4.157315
  0
VERTEX
  8
PLAN_1
  6
CONTINUOUS
 10
0.421402
 20
-4.157315
  0
SEQEND
  8
0
  0
POLYLINE
  8
PLAN_1
  6
CONTINUOUS
 66
     1
 40
0.003000
 41
0.003000
  0
VERTEX
  8
PLAN_1
  6
CONTINUOUS
 10
0.509106
 20
-4.296449
  0
VERTEX
  8
PLAN_1
  6
CONTINUOUS
 10
0.482035
 20
-4.296449
  0
VERTEX
  8
PLAN_1
  6
CONTINUOUS
 10
0.482035
 20
-4.097220
  0
VERTEX
  8
PLAN_1
  6
CONTINUOUS
 10
0.509106
 20
-4.097220
  0
VERTEX
  8
PLAN_1
  6
CONTINUOUS
 10
0.509106
 20
-4.193587
  0
VERTEX
  8
PLAN_1
  6
CONTINUOUS
 10
0.605472
 20
-4.097220
  0
VERTEX
  8
PLAN_1
  6
CONTINUOUS
 10
0.642827
 20
-4.097220
  0
VERTEX
  8
PLAN_1
  6
CONTINUOUS
 10
0.559996
 20
-4.177886
  0
VERTEX
  8
PLAN_1
  6
CONTINUOUS
 10
0.644992
 20
-4.296449
  0
VERTEX
  8
PLAN_1
  6
CONTINUOUS
 10
0.610343
 20
-4.296449
  0
VERTEX
  8
PLAN_1
  6
CONTINUOUS
 10
0.540504
 20
-4.196291
  0
VERTEX
  8
PLAN_1
  6
CONTINUOUS
 10
0.509106
 20
-4.226610
  0
VERTEX
  8
PLAN_1
  6
CONTINUOUS
 10
0.509106
 20
-4.296449
  0
SEQEND
  8
0
  0
POLYLINE
  8
PLAN_1
  6
CONTINUOUS
 66
     1
 40
0.003000
 41
0.003000
  0
VERTEX
  8
PLAN_1
  6
CONTINUOUS
 10
0.668811
 20
-4.097220
  0
VERTEX
  8
PLAN_1
  6
CONTINUOUS
 10
0.749476
 20
-4.097220
  0
VERTEX
  8
PLAN_1
  6
CONTINUOUS
 10
0.759224
 20
-4.097760
  0
VERTEX
  8
PLAN_1
  6
CONTINUOUS
 10
0.767886
 20
-4.098846
  0
VERTEX
  8
PLAN_1
  6
CONTINUOUS
 10
0.776547
 20
-4.101012
  0
VERTEX
  8
PLAN_1
  6
CONTINUOUS
 10
0.784669
 20
-4.104260
  0
VERTEX
  8
PLAN_1
  6
CONTINUOUS
 10
0.791705
 20
-4.108047
  0
VERTEX
  8
PLAN_1
  6
CONTINUOUS
 10
0.798744
 20
-4.112378
  0
VERTEX
  8
PLAN_1
  6
CONTINUOUS
 10
0.805240
 20
-4.117791
  0
VERTEX
  8
PLAN_1
  6
CONTINUOUS
 10
0.810654
 20
-4.123748
  0
VERTEX
  8
PLAN_1
  6
CONTINUOUS
 10
0.816067
 20
-4.130787
  0
VERTEX
  8
PLAN_1
  6
CONTINUOUS
 10
0.820398
 20
-4.138366
  0
VERTEX
  8
PLAN_1
  6
CONTINUOUS
 10
0.824189
 20
-4.145945
  0
VERTEX
  8
PLAN_1
  6
CONTINUOUS
 10
0.827437
 20
-4.154606
  0
VERTEX
  8
PLAN_1
  6
CONTINUOUS
 10
0.830146
 20
-4.163811
  0
VERTEX
  8
PLAN_1
  6
CONTINUOUS
 10
0.831768
 20
-4.173555
  0
VERTEX
  8
PLAN_1
  6
CONTINUOUS
 10
0.832850
 20
-4.183299
  0
VERTEX
  8
PLAN_1
  6
CONTINUOUS
 10
0.833394
 20
-4.194126
  0
VERTEX
  8
PLAN_1
  6
CONTINUOUS
 10
0.832850
 20
-4.202248
  0
VERTEX
  8
PLAN_1
  6
CONTINUOUS
 10
0.832311
 20
-4.211453
  0
VERTEX
  8
PLAN_1
  6
CONTINUOUS
 10
0.831228
 20
-4.220114
  0
VERTEX
  8
PLAN_1
  6
CONTINUOUS
 10
0.829063
 20
-4.228776
  0
VERTEX
  8
PLAN_1
  6
CONTINUOUS
 10
0.826898
 20
-4.237437
  0
VERTEX
  8
PLAN_1
  6
CONTINUOUS
 10
0.823646
 20
-4.246098
  0
VERTEX
  8
PLAN_1
  6
CONTINUOUS
 10
0.819858
 20
-4.254220
  0
VERTEX
  8
PLAN_1
  6
CONTINUOUS
 10
0.815528
 20
-4.261799
  0
VERTEX
  8
PLAN_1
  6
CONTINUOUS
 10
0.810114
 20
-4.269378
  0
VERTEX
  8
PLAN_1
  6
CONTINUOUS
 10
0.804157
 20
-4.275878
  0
VERTEX
  8
PLAN_1
  6
CONTINUOUS
 10
0.800909
 20
-4.278583
  0
VERTEX
  8
PLAN_1
  6
CONTINUOUS
 10
0.797118
 20
-4.281831
  0
VERTEX
  8
PLAN_1
  6
CONTINUOUS
 10
0.793331
 20
-4.284539
  0
VERTEX
  8
PLAN_1
  6
CONTINUOUS
 10
0.789539
 20
-4.286705
  0
VERTEX
  8
PLAN_1
  6
CONTINUOUS
 10
0.785209
 20
-4.288870
  0
VERTEX
  8
PLAN_1
  6
CONTINUOUS
 10
0.780339
 20
-4.291035
  0
VERTEX
  8
PLAN_1
  6
CONTINUOUS
 10
0.776008
 20
-4.292657
  0
VERTEX
  8
PLAN_1
  6
CONTINUOUS
 10
0.771134
 20
-4.293740
  0
VERTEX
  8
PLAN_1
  6
CONTINUOUS
 10
0.765720
 20
-4.294823
  0
VERTEX
  8
PLAN_1
  6
CONTINUOUS
 10
0.760307
 20
-4.295906
  0
VERTEX
  8
PLAN_1
  6
CONTINUOUS
 10
0.754350
 20
-4.296449
  0
VERTEX
  8
PLAN_1
  6
CONTINUOUS
 10
0.748394
 20
-4.296449
  0
VERTEX
  8
PLAN_1
  6
CONTINUOUS
 10
0.668811
 20
-4.296449
  0
VERTEX
  8
PLAN_1
  6
CONTINUOUS
 10
0.668811
 20
-4.097220
  0
SEQEND
  8
0
  0
POLYLINE
  8
PLAN_1
  6
CONTINUOUS
 66
     1
 40
0.003000
 41
0.003000
  0
VERTEX
  8
PLAN_1
  6
CONTINUOUS
 10
0.695882
 20
-4.273169
  0
VERTEX
  8
PLAN_1
  6
CONTINUOUS
 10
0.747854
 20
-4.273169
  0
VERTEX
  8
PLAN_1
  6
CONTINUOUS
 10
0.754350
 20
-4.273169
  0
VERTEX
  8
PLAN_1
  6
CONTINUOUS
 10
0.760307
 20
-4.272087
  0
VERTEX
  8
PLAN_1
  6
CONTINUOUS
 10
0.766260
 20
-4.270461
  0
VERTEX
  8
PLAN_1
  6
CONTINUOUS
 10
0.771673
 20
-4.268295
  0
VERTEX
  8
PLAN_1
  6
CONTINUOUS
 10
0.776547
 20
-4.265591
  0
VERTEX
  8
PLAN_1
  6
CONTINUOUS
 10
0.781421
 20
-4.261799
  0
VERTEX
  8
PLAN_1
  6
CONTINUOUS
 10
0.785752
 20
-4.258012
  0
VERTEX
  8
PLAN_1
  6
CONTINUOUS
 10
0.790083
 20
-4.253138
  0
VERTEX
  8
PLAN_1
  6
CONTINUOUS
 10
0.793331
 20
-4.248264
  0
VERTEX
  8
PLAN_1
  6
CONTINUOUS
 10
0.796579
 20
-4.242311
  0
VERTEX
  8
PLAN_1
  6
CONTINUOUS
 10
0.799283
 20
-4.235815
  0
VERTEX
  8
PLAN_1
  6
CONTINUOUS
 10
0.801453
 20
-4.228776
  0
VERTEX
  8
PLAN_1
  6
CONTINUOUS
 10
0.803075
 20
-4.221736
  0
VERTEX
  8
PLAN_1
  6
CONTINUOUS
 10
0.804701
 20
-4.213618
  0
VERTEX
  8
PLAN_1
  6
CONTINUOUS
 10
0.805240
 20
-4.204957
  0
VERTEX
  8
PLAN_1
  6
CONTINUOUS
 10
0.805783
 20
-4.195752
  0
VERTEX
  8
PLAN_1
  6
CONTINUOUS
 10
0.805240
 20
-4.186547
  0
VERTEX
  8
PLAN_1
  6
CONTINUOUS
 10
0.804701
 20
-4.177886
  0
VERTEX
  8
PLAN_1
  6
CONTINUOUS
 10
0.803075
 20
-4.170307
  0
VERTEX
  8
PLAN_1
  6
CONTINUOUS
 10
0.801453
 20
-4.162728
  0
VERTEX
  8
PLAN_1
  6
CONTINUOUS
 10
0.799283
 20
-4.155689
  0
VERTEX
  8
PLAN_1
  6
CONTINUOUS
 10
0.796579
 20
-4.149736
  0
VERTEX
  8
PLAN_1
  6
CONTINUOUS
 10
0.793331
 20
-4.144319
  0
VERTEX
  8
PLAN_1
  6
CONTINUOUS
 10
0.789539
 20
-4.138906
  0
VERTEX
  8
PLAN_1
  6
CONTINUOUS
 10
0.785209
 20
-4.134575
  0
VERTEX
  8
PLAN_1
  6
CONTINUOUS
 10
0.780878
 20
-4.130787
  0
VERTEX
  8
PLAN_1
  6
CONTINUOUS
 10
0.776008
 20
-4.127539
  0
VERTEX
  8
PLAN_1
  6
CONTINUOUS
 10
0.770591
 20
-4.124831
  0
VERTEX
  8
PLAN_1
  6
CONTINUOUS
 10
0.765177
 20
-4.122665
  0
VERTEX
  8
PLAN_1
  6
CONTINUOUS
 10
0.759224
 20
-4.121583
  0
VERTEX
  8
PLAN_1
  6
CONTINUOUS
 10
0.752728
 20
-4.120500
  0
VERTEX
  8
PLAN_1
  6
CONTINUOUS
 10
0.745689
 20
-4.119957
  0
VERTEX
  8
PLAN_1
  6
CONTINUOUS
 10
0.695882
 20
-4.119957
  0
VERTEX
  8
PLAN_1
  6
CONTINUOUS
 10
0.695882
 20
-4.273169
  0
SEQEND
  8
0
  0
POLYLINE
  8
PLAN_1
  6
CONTINUOUS
 66
     1
 40
0.003000
 41
0.003000
  0
VERTEX
  8
PLAN_1
  6
CONTINUOUS
 10
0.958453
 20
-4.192504
  0
VERTEX
  8
PLAN_1
  6
CONTINUOUS
 10
0.962783
 20
-4.194669
  0
VERTEX
  8
PLAN_1
  6
CONTINUOUS
 10
0.967114
 20
-4.197374
  0
VERTEX
  8
PLAN_1
  6
CONTINUOUS
 10
0.970902
 20
-4.200083
  0
VERTEX
  8
PLAN_1
  6
CONTINUOUS
 10
0.974693
 20
-4.202791
  0
VERTEX
  8
PLAN_1
  6
CONTINUOUS
 10
0.977402
 20
-4.205496
  0
VERTEX
  8
PLAN_1
  6
CONTINUOUS
 10
0.980106
 20
-4.208744
  0
VERTEX
  8
PLAN_1
  6
CONTINUOUS
 10
0.982272
 20
-4.211992
  0
VERTEX
  8
PLAN_1
  6
CONTINUOUS
 10
0.984437
 20
-4.215240
  0
VERTEX
  8
PLAN_1
  6
CONTINUOUS
 10
0.987146
 20
-4.221736
  0
VERTEX
  8
PLAN_1
  6
CONTINUOUS
 10
0.988768
 20
-4.228236
  0
VERTEX
  8
PLAN_1
  6
CONTINUOUS
 10
0.989850
 20
-4.234189
  0
VERTEX
  8
PLAN_1
  6
CONTINUOUS
 10
0.990394
 20
-4.240146
  0
VERTEX
  8
PLAN_1
  6
CONTINUOUS
 10
0.989850
 20
-4.246098
  0
VERTEX
  8
PLAN_1
  6
CONTINUOUS
 10
0.989311
 20
-4.251516
  0
VERTEX
  8
PLAN_1
  6
CONTINUOUS
 10
0.988228
 20
-4.257469
  0
VERTEX
  8
PLAN_1
  6
CONTINUOUS
 10
0.986602
 20
-4.262882
  0
VERTEX
  8
PLAN_1
  6
CONTINUOUS
 10
0.984437
 20
-4.268295
  0
VERTEX
  8
PLAN_1
  6
CONTINUOUS
 10
0.981732
 20
-4.273169
  0
VERTEX
  8
PLAN_1
  6
CONTINUOUS
 10
0.978484
 20
-4.278043
  0
VERTEX
  8
PLAN_1
  6
CONTINUOUS
 10
0.974693
 20
-4.282374
  0
VERTEX
  8
PLAN_1
  6
CONTINUOUS
 10
0.970362
 20
-4.286705
  0
VERTEX
  8
PLAN_1
  6
CONTINUOUS
 10
0.965488
 20
-4.290492
  0
VERTEX
  8
PLAN_1
  6
CONTINUOUS
 10
0.960075
 20
-4.293740
  0
VERTEX
  8
PLAN_1
  6
CONTINUOUS
 10
0.954122
 20
-4.296449
  0
VERTEX
  8
PLAN_1
  6
CONTINUOUS
 10
0.947622
 20
-4.298614
  0
VERTEX
  8
PLAN_1
  6
CONTINUOUS
 10
0.940043
 20
-4.300240
  0
VERTEX
  8
PLAN_1
  6
CONTINUOUS
 10
0.932465
 20
-4.301323
  0
VERTEX
  8
PLAN_1
  6
CONTINUOUS
 10
0.924343
 20
-4.301862
  0
VERTEX
  8
PLAN_1
  6
CONTINUOUS
 10
0.919472
 20
-4.301323
  0
VERTEX
  8
PLAN_1
  6
CONTINUOUS
 10
0.914598
 20
-4.301323
  0
VERTEX
  8
PLAN_1
  6
CONTINUOUS
 10
0.908646
 20
-4.300240
  0
VERTEX
  8
PLAN_1
  6
CONTINUOUS
 10
0.902689
 20
-4.298614
  0
VERTEX
  8
PLAN_1
  6
CONTINUOUS
 10
0.896193
 20
-4.296988
  0
VERTEX
  8
PLAN_1
  6
CONTINUOUS
 10
0.889697
 20
-4.294283
  0
VERTEX
  8
PLAN_1
  6
CONTINUOUS
 10
0.883201
 20
-4.291035
  0
VERTEX
  8
PLAN_1
  6
CONTINUOUS
 10
0.877244
 20
-4.286705
  0
VERTEX
  8
PLAN_1
  6
CONTINUOUS
 10
0.873996
 20
-4.283457
  0
VERTEX
  8
PLAN_1
  6
CONTINUOUS
 10
0.870748
 20
-4.280748
  0
VERTEX
  8
PLAN_1
  6
CONTINUOUS
 10
0.868039
 20
-4.277500
  0
VERTEX
  8
PLAN_1
  6
CONTINUOUS
 10
0.865874
 20
-4.274252
  0
VERTEX
  8
PLAN_1
  6
CONTINUOUS
 10
0.862087
 20
-4.267756
  0
VERTEX
  8
PLAN_1
  6
CONTINUOUS
 10
0.859921
 20
-4.261260
  0
VERTEX
  8
PLAN_1
  6
CONTINUOUS
 10
0.858295
 20
-4.254764
  0
VERTEX
  8
PLAN_1
  6
CONTINUOUS
 10
0.857756
 20
-4.249350
  0
VERTEX
  8
PLAN_1
  6
CONTINUOUS
 10
0.857213
 20
-4.244476
  0
VERTEX
  8
PLAN_1
  6
CONTINUOUS
 10
0.857213
 20
-4.240146
  0
VERTEX
  8
PLAN_1
  6
CONTINUOUS
 10
0.857213
 20
-4.235815
  0
VERTEX
  8
PLAN_1
  6
CONTINUOUS
 10
0.857756
 20
-4.232024
  0
VERTEX
  8
PLAN_1
  6
CONTINUOUS
 10
0.858839
 20
-4.227693
  0
VERTEX
  8
PLAN_1
  6
CONTINUOUS
 10
0.859378
 20
-4.223902
  0
VERTEX
  8
PLAN_1
  6
CONTINUOUS
 10
0.861004
 20
-4.220654
  0
VERTEX
  8
PLAN_1
  6
CONTINUOUS
 10
0.862087
 20
-4.216866
  0
VERTEX
  8
PLAN_1
  6
CONTINUOUS
 10
0.864252
 20
-4.213618
  0
VERTEX
  8
PLAN_1
  6
CONTINUOUS
 10
0.865874
 20
-4.210909
  0
VERTEX
  8
PLAN_1
  6
CONTINUOUS
 10
0.868583
 20
-4.208205
  0
VERTEX
  8
PLAN_1
  6
CONTINUOUS
 10
0.870748
 20
-4.205496
  0
VERTEX
  8
PLAN_1
  6
CONTINUOUS
 10
0.873453
 20
-4.202791
  0
VERTEX
  8
PLAN_1
  6
CONTINUOUS
 10
0.876705
 20
-4.200626
  0
VERTEX
  8
PLAN_1
  6
CONTINUOUS
 10
0.883201
 20
-4.196291
  0
VERTEX
  8
PLAN_1
  6
CONTINUOUS
 10
0.890236
 20
-4.193043
  0
VERTEX
  8
PLAN_1
  6
CONTINUOUS
 10
0.884283
 20
-4.190339
  0
VERTEX
  8
PLAN_1
  6
CONTINUOUS
 10
0.879409
 20
-4.187091
  0
VERTEX
  8
PLAN_1
  6
CONTINUOUS
 10
0.874535
 20
-4.182760
  0
VERTEX
  8
PLAN_1
  6
CONTINUOUS
 10
0.870748
 20
-4.178429
  0
VERTEX
  8
PLAN_1
  6
CONTINUOUS
 10
0.868039
 20
-4.173012
  0
VERTEX
  8
PLAN_1
  6
CONTINUOUS
 10
0.865874
 20
-4.167598
  0
VERTEX
  8
PLAN_1
  6
CONTINUOUS
 10
0.864252
 20
-4.161646
  0
VERTEX
  8
PLAN_1
  6
CONTINUOUS
 10
0.863709
 20
-4.154606
  0
VERTEX
  8
PLAN_1
  6
CONTINUOUS
 10
0.864252
 20
-4.150819
  0
VERTEX
  8
PLAN_1
  6
CONTINUOUS
 10
0.864791
 20
-4.146484
  0
VERTEX
  8
PLAN_1
  6
CONTINUOUS
 10
0.865335
 20
-4.142154
  0
VERTEX
  8
PLAN_1
  6
CONTINUOUS
 10
0.866417
 20
-4.137823
  0
VERTEX
  8
PLAN_1
  6
CONTINUOUS
 10
0.868039
 20
-4.133492
  0
VERTEX
  8
PLAN_1
  6
CONTINUOUS
 10
0.870205
 20
-4.129161
  0
VERTEX
  8
PLAN_1
  6
CONTINUOUS
 10
0.872913
 20
-4.124831
  0
VERTEX
  8
PLAN_1
  6
CONTINUOUS
 10
0.876161
 20
-4.120500
  0
VERTEX
  8
PLAN_1
  6
CONTINUOUS
 10
0.879409
 20
-4.116709
  0
VERTEX
  8
PLAN_1
  6
CONTINUOUS
 10
0.883740
 20
-4.112921
  0
VERTEX
  8
PLAN_1
  6
CONTINUOUS
 10
0.888614
 20
-4.109673
  0
VERTEX
  8
PLAN_1
  6
CONTINUOUS
 10
0.894028
 20
-4.106965
  0
VERTEX
  8
PLAN_1
  6
CONTINUOUS
 10
0.900524
 20
-4.104260
  0
VERTEX
  8
PLAN_1
  6
CONTINUOUS
 10
0.907020
 20
-4.102634
  0
VERTEX
  8
PLAN_1
  6
CONTINUOUS
 10
0.914598
 20
-4.101551
  0
VERTEX
  8
PLAN_1
  6
CONTINUOUS
 10
0.923260
 20
-4.101551
  0
VERTEX
  8
PLAN_1
  6
CONTINUOUS
 10
0.930843
 20
-4.101551
  0
VERTEX
  8
PLAN_1
  6
CONTINUOUS
 10
0.937878
 20
-4.102634
  0
VERTEX
  8
PLAN_1
  6
CONTINUOUS
 10
0.944917
 20
-4.104260
  0
VERTEX
  8
PLAN_1
  6
CONTINUOUS
 10
0.950874
 20
-4.105882
  0
VERTEX
  8
PLAN_1
  6
CONTINUOUS
 10
0.956287
 20
-4.108591
  0
VERTEX
  8
PLAN_1
  6
CONTINUOUS
 10
0.961157
 20
-4.111295
  0
VERTEX
  8
PLAN_1
  6
CONTINUOUS
 10
0.965488
 20
-4.114543
  0
VERTEX
  8
PLAN_1
  6
CONTINUOUS
 10
0.969280
 20
-4.117791
  0
VERTEX
  8
PLAN_1
  6
CONTINUOUS
 10
0.972528
 20
-4.121583
  0
VERTEX
  8
PLAN_1
  6
CONTINUOUS
 10
0.975776
 20
-4.125374
  0
VERTEX
  8
PLAN_1
  6
CONTINUOUS
 10
0.977941
 20
-4.129705
  0
VERTEX
  8
PLAN_1
  6
CONTINUOUS
 10
0.980106
 20
-4.134035
  0
VERTEX
  8
PLAN_1
  6
CONTINUOUS
 10
0.981189
 20
-4.138366
  0
VERTEX
  8
PLAN_1
  6
CONTINUOUS
 10
0.982272
 20
-4.142697
  0
VERTEX
  8
PLAN_1
  6
CONTINUOUS
 10
0.983354
 20
-4.147028
  0
VERTEX
  8
PLAN_1
  6
CONTINUOUS
 10
0.983354
 20
-4.151358
  0
VERTEX
  8
PLAN_1
  6
CONTINUOUS
 10
0.983354
 20
-4.156772
  0
VERTEX
  8
PLAN_1
  6
CONTINUOUS
 10
0.982815
 20
-4.161102
  0
VERTEX
  8
PLAN_1
  6
CONTINUOUS
 10
0.981732
 20
-4.165433
  0
VERTEX
  8
PLAN_1
  6
CONTINUOUS
 10
0.980650
 20
-4.169224
  0
VERTEX
  8
PLAN_1
  6
CONTINUOUS
 10
0.979024
 20
-4.172472
  0
VERTEX
  8
PLAN_1
  6
CONTINUOUS
 10
0.977402
 20
-4.175720
  0
VERTEX
  8
PLAN_1
  6
CONTINUOUS
 10
0.975776
 20
-4.178429
  0
VERTEX
  8
PLAN_1
  6
CONTINUOUS
 10
0.974150
 20
-4.181134
  0
VERTEX
  8
PLAN_1
  6
CONTINUOUS
 10
0.969819
 20
-4.184925
  0
VERTEX
  8
PLAN_1
  6
CONTINUOUS
 10
0.966031
 20
-4.188173
  0
VERTEX
  8
PLAN_1
  6
CONTINUOUS
 10
0.961701
 20
-4.190878
  0
VERTEX
  8
PLAN_1
  6
CONTINUOUS
 10
0.958453
 20
-4.192504
  0
SEQEND
  8
0
  0
POLYLINE
  8
PLAN_1
  6
CONTINUOUS
 66
     1
 40
0.003000
 41
0.003000
  0
VERTEX
  8
PLAN_1
  6
CONTINUOUS
 10
0.883201
 20
-4.240685
  0
VERTEX
  8
PLAN_1
  6
CONTINUOUS
 10
0.883740
 20
-4.247181
  0
VERTEX
  8
PLAN_1
  6
CONTINUOUS
 10
0.885366
 20
-4.253681
  0
VERTEX
  8
PLAN_1
  6
CONTINUOUS
 10
0.886449
 20
-4.256929
  0
VERTEX
  8
PLAN_1
  6
CONTINUOUS
 10
0.887531
 20
-4.260177
  0
VERTEX
  8
PLAN_1
  6
CONTINUOUS
 10
0.889154
 20
-4.263425
  0
VERTEX
  8
PLAN_1
  6
CONTINUOUS
 10
0.891319
 20
-4.266130
  0
VERTEX
  8
PLAN_1
  6
CONTINUOUS
 10
0.894028
 20
-4.268839
  0
VERTEX
  8
PLAN_1
  6
CONTINUOUS
 10
0.896732
 20
-4.271543
  0
VERTEX
  8
PLAN_1
  6
CONTINUOUS
 10
0.900524
 20
-4.273709
  0
VERTEX
  8
PLAN_1
  6
CONTINUOUS
 10
0.904315
 20
-4.275878
  0
VERTEX
  8
PLAN_1
  6
CONTINUOUS
 10
0.908646
 20
-4.277500
  0
VERTEX
  8
PLAN_1
  6
CONTINUOUS
 10
0.913516
 20
-4.278583
  0
VERTEX
  8
PLAN_1
  6
CONTINUOUS
 10
0.918929
 20
-4.279665
  0
VERTEX
  8
PLAN_1
  6
CONTINUOUS
 10
0.924886
 20
-4.279665
  0
VERTEX
  8
PLAN_1
  6
CONTINUOUS
 10
0.931925
 20
-4.279665
  0
VERTEX
  8
PLAN_1
  6
CONTINUOUS
 10
0.938421
 20
-4.278043
  0
VERTEX
  8
PLAN_1
  6
CONTINUOUS
 10
0.942209
 20
-4.277500
  0
VERTEX
  8
PLAN_1
  6
CONTINUOUS
 10
0.945457
 20
-4.275878
  0
VERTEX
  8
PLAN_1
  6
CONTINUOUS
 10
0.948165
 20
-4.274795
  0
VERTEX
  8
PLAN_1
  6
CONTINUOUS
 10
0.951413
 20
-4.272626
  0
VERTEX
  8
PLAN_1
  6
CONTINUOUS
 10
0.954122
 20
-4.270461
  0
VERTEX
  8
PLAN_1
  6
CONTINUOUS
 10
0.956287
 20
-4.267756
  0
VERTEX
  8
PLAN_1
  6
CONTINUOUS
 10
0.958453
 20
-4.265047
  0
VERTEX
  8
PLAN_1
  6
CONTINUOUS
 10
0.960618
 20
-4.261260
  0
VERTEX
  8
PLAN_1
  6
CONTINUOUS
 10
0.962240
 20
-4.257469
  0
VERTEX
  8
PLAN_1
  6
CONTINUOUS
 10
0.963323
 20
-4.253138
  0
VERTEX
  8
PLAN_1
  6
CONTINUOUS
 10
0.963866
 20
-4.248264
  0
VERTEX
  8
PLAN_1
  6
CONTINUOUS
 10
0.964406
 20
-4.242850
  0
VERTEX
  8
PLAN_1
  6
CONTINUOUS
 10
0.963866
 20
-4.237980
  0
VERTEX
  8
PLAN_1
  6
CONTINUOUS
 10
0.963323
 20
-4.233650
  0
VERTEX
  8
PLAN_1
  6
CONTINUOUS
 10
0.962240
 20
-4.229319
  0
VERTEX
  8
PLAN_1
  6
CONTINUOUS
 10
0.961157
 20
-4.225528
  0
VERTEX
  8
PLAN_1
  6
CONTINUOUS
 10
0.958992
 20
-4.222280
  0
VERTEX
  8
PLAN_1
  6
CONTINUOUS
 10
0.957370
 20
-4.219031
  0
VERTEX
  8
PLAN_1
  6
CONTINUOUS
 10
0.954661
 20
-4.216323
  0
VERTEX
  8
PLAN_1
  6
CONTINUOUS
 10
0.951957
 20
-4.214157
  0
VERTEX
  8
PLAN_1
  6
CONTINUOUS
 10
0.949248
 20
-4.211992
  0
VERTEX
  8
PLAN_1
  6
CONTINUOUS
 10
0.946000
 20
-4.209827
  0
VERTEX
  8
PLAN_1
  6
CONTINUOUS
 10
0.942752
 20
-4.208205
  0
VERTEX
  8
PLAN_1
  6
CONTINUOUS
 10
0.939504
 20
-4.207122
  0
VERTEX
  8
PLAN_1
  6
CONTINUOUS
 10
0.935713
 20
-4.206039
  0
VERTEX
  8
PLAN_1
  6
CONTINUOUS
 10
0.931925
 20
-4.205496
  0
VERTEX
  8
PLAN_1
  6
CONTINUOUS
 10
0.927594
 20
-4.204957
  0
VERTEX
  8
PLAN_1
  6
CONTINUOUS
 10
0.923803
 20
-4.204957
  0
VERTEX
  8
PLAN_1
  6
CONTINUOUS
 10
0.918390
 20
-4.204957
  0
VERTEX
  8
PLAN_1
  6
CONTINUOUS
 10
0.914059
 20
-4.205496
  0
VERTEX
  8
PLAN_1
  6
CONTINUOUS
 10
0.909728
 20
-4.206579
  0
VERTEX
  8
PLAN_1
  6
CONTINUOUS
 10
0.905937
 20
-4.207661
  0
VERTEX
  8
PLAN_1
  6
CONTINUOUS
 10
0.902150
 20
-4.209827
  0
VERTEX
  8
PLAN_1
  6
CONTINUOUS
 10
0.898898
 20
-4.211453
  0
VERTEX
  8
PLAN_1
  6
CONTINUOUS
 10
0.895650
 20
-4.213618
  0
VERTEX
  8
PLAN_1
  6
CONTINUOUS
 10
0.892945
 20
-4.216323
  0
VERTEX
  8
PLAN_1
  6
CONTINUOUS
 10
0.890780
 20
-4.218488
  0
VERTEX
  8
PLAN_1
  6
CONTINUOUS
 10
0.888614
 20
-4.221736
  0
VERTEX
  8
PLAN_1
  6
CONTINUOUS
 10
0.886988
 20
-4.224445
  0
VERTEX
  8
PLAN_1
  6
CONTINUOUS
 10
0.885906
 20
-4.227693
  0
VERTEX
  8
PLAN_1
  6
CONTINUOUS
 10
0.884823
 20
-4.230941
  0
VERTEX
  8
PLAN_1
  6
CONTINUOUS
 10
0.883740
 20
-4.234189
  0
VERTEX
  8
PLAN_1
  6
CONTINUOUS
 10
0.883740
 20
-4.237437
  0
VERTEX
  8
PLAN_1
  6
CONTINUOUS
 10
0.883201
 20
-4.240685
  0
SEQEND
  8
0
  0
POLYLINE
  8
PLAN_1
  6
CONTINUOUS
 66
     1
 40
0.003000
 41
0.003000
  0
VERTEX
  8
PLAN_1
  6
CONTINUOUS
 10
0.957909
 20
-4.152441
  0
VERTEX
  8
PLAN_1
  6
CONTINUOUS
 10
0.957909
 20
-4.147567
  0
VERTEX
  8
PLAN_1
  6
CONTINUOUS
 10
0.956287
 20
-4.142697
  0
VERTEX
  8
PLAN_1
  6
CONTINUOUS
 10
0.955205
 20
-4.140531
  0
VERTEX
  8
PLAN_1
  6
CONTINUOUS
 10
0.954122
 20
-4.137823
  0
VERTEX
  8
PLAN_1
  6
CONTINUOUS
 10
0.952496
 20
-4.135657
  0
VERTEX
  8
PLAN_1
  6
CONTINUOUS
 10
0.950331
 20
-4.133492
  0
VERTEX
  8
PLAN_1
  6
CONTINUOUS
 10
0.948165
 20
-4.131327
  0
VERTEX
  8
PLAN_1
  6
CONTINUOUS
 10
0.946000
 20
-4.129161
  0
VERTEX
  8
PLAN_1
  6
CONTINUOUS
 10
0.942752
 20
-4.127539
  0
VERTEX
  8
PLAN_1
  6
CONTINUOUS
 10
0.939504
 20
-4.125913
  0
VERTEX
  8
PLAN_1
  6
CONTINUOUS
 10
0.935713
 20
-4.124831
  0
VERTEX
  8
PLAN_1
  6
CONTINUOUS
 10
0.931382
 20
-4.123748
  0
VERTEX
  8
PLAN_1
  6
CONTINUOUS
 10
0.927051
 20
-4.123205
  0
VERTEX
  8
PLAN_1
  6
CONTINUOUS
 10
0.921638
 20
-4.123205
  0
VERTEX
  8
PLAN_1
  6
CONTINUOUS
 10
0.916764
 20
-4.123205
  0
VERTEX
  8
PLAN_1
  6
CONTINUOUS
 10
0.912976
 20
-4.123748
  0
VERTEX
  8
PLAN_1
  6
CONTINUOUS
 10
0.909185
 20
-4.124831
  0
VERTEX
  8
PLAN_1
  6
CONTINUOUS
 10
0.905398
 20
-4.126457
  0
VERTEX
  8
PLAN_1
  6
CONTINUOUS
 10
0.902689
 20
-4.127539
  0
VERTEX
  8
PLAN_1
  6
CONTINUOUS
 10
0.899980
 20
-4.129705
  0
VERTEX
  8
PLAN_1
  6
CONTINUOUS
 10
0.897815
 20
-4.131870
  0
VERTEX
  8
PLAN_1
  6
CONTINUOUS
 10
0.895650
 20
-4.134035
  0
VERTEX
  8
PLAN_1
  6
CONTINUOUS
 10
0.894028
 20
-4.136201
  0
VERTEX
  8
PLAN_1
  6
CONTINUOUS
 10
0.892402
 20
-4.138366
  0
VERTEX
  8
PLAN_1
  6
CONTINUOUS
 10
0.891319
 20
-4.141071
  0
VERTEX
  8
PLAN_1
  6
CONTINUOUS
 10
0.890780
 20
-4.143780
  0
VERTEX
  8
PLAN_1
  6
CONTINUOUS
 10
0.889697
 20
-4.148650
  0
VERTEX
  8
PLAN_1
  6
CONTINUOUS
 10
0.889154
 20
-4.153524
  0
VERTEX
  8
PLAN_1
  6
CONTINUOUS
 10
0.889154
 20
-4.157315
  0
VERTEX
  8
PLAN_1
  6
CONTINUOUS
 10
0.889697
 20
-4.160563
  0
VERTEX
  8
PLAN_1
  6
CONTINUOUS
 10
0.890780
 20
-4.163268
  0
VERTEX
  8
PLAN_1
  6
CONTINUOUS
 10
0.891862
 20
-4.166516
  0
VERTEX
  8
PLAN_1
  6
CONTINUOUS
 10
0.893484
 20
-4.168681
  0
VERTEX
  8
PLAN_1
  6
CONTINUOUS
 10
0.895110
 20
-4.171390
  0
VERTEX
  8
PLAN_1
  6
CONTINUOUS
 10
0.897276
 20
-4.173555
  0
VERTEX
  8
PLAN_1
  6
CONTINUOUS
 10
0.899441
 20
-4.175720
  0
VERTEX
  8
PLAN_1
  6
CONTINUOUS
 10
0.902150
 20
-4.177346
  0
VERTEX
  8
PLAN_1
  6
CONTINUOUS
 10
0.904854
 20
-4.178969
  0
VERTEX
  8
PLAN_1
  6
CONTINUOUS
 10
0.907563
 20
-4.180594
  0
VERTEX
  8
PLAN_1
  6
CONTINUOUS
 10
0.910268
 20
-4.181677
  0
VERTEX
  8
PLAN_1
  6
CONTINUOUS
 10
0.916764
 20
-4.183299
  0
VERTEX
  8
PLAN_1
  6
CONTINUOUS
 10
0.923260
 20
-4.183843
  0
VERTEX
  8
PLAN_1
  6
CONTINUOUS
 10
0.927051
 20
-4.183299
  0
VERTEX
  8
PLAN_1
  6
CONTINUOUS
 10
0.930843
 20
-4.183299
  0
VERTEX
  8
PLAN_1
  6
CONTINUOUS
 10
0.934630
 20
-4.182217
  0
VERTEX
  8
PLAN_1
  6
CONTINUOUS
 10
0.937878
 20
-4.181134
  0
VERTEX
  8
PLAN_1
  6
CONTINUOUS
 10
0.940587
 20
-4.180051
  0
VERTEX
  8
PLAN_1
  6
CONTINUOUS
 10
0.943835
 20
-4.178429
  0
VERTEX
  8
PLAN_1
  6
CONTINUOUS
 10
0.946000
 20
-4.176803
  0
VERTEX
  8
PLAN_1
  6
CONTINUOUS
 10
0.948705
 20
-4.174638
  0
VERTEX
  8
PLAN_1
  6
CONTINUOUS
 10
0.950874
 20
-4.172472
  0
VERTEX
  8
PLAN_1
  6
CONTINUOUS
 10
0.952496
 20
-4.170307
  0
VERTEX
  8
PLAN_1
  6
CONTINUOUS
 10
0.954122
 20
-4.167598
  0
VERTEX
  8
PLAN_1
  6
CONTINUOUS
 10
0.955744
 20
-4.164894
  0
VERTEX
  8
PLAN_1
  6
CONTINUOUS
 10
0.956827
 20
-4.161646
  0
VERTEX
  8
PLAN_1
  6
CONTINUOUS
 10
0.957370
 20
-4.158937
  0
VERTEX
  8
PLAN_1
  6
CONTINUOUS
 10
0.957909
 20
-4.155689
  0
VERTEX
  8
PLAN_1
  6
CONTINUOUS
 10
0.957909
 20
-4.152441
  0
SEQEND
  8
0
  0
POLYLINE
  8
PLAN_1
  6
CONTINUOUS
 66
     1
 40
0.003000
 41
0.003000
  0
VERTEX
  8
PLAN_1
  6
CONTINUOUS
 10
1.100835
 20
-4.296449
  0
VERTEX
  8
PLAN_1
  6
CONTINUOUS
 10
1.074846
 20
-4.296449
  0
VERTEX
  8
PLAN_1
  6
CONTINUOUS
 10
1.074846
 20
-4.157854
  0
VERTEX
  8
PLAN_1
  6
CONTINUOUS
 10
1.029374
 20
-4.157854
  0
VERTEX
  8
PLAN_1
  6
CONTINUOUS
 10
1.029374
 20
-4.138366
  0
VERTEX
  8
PLAN_1
  6
CONTINUOUS
 10
1.040201
 20
-4.137823
  0
VERTEX
  8
PLAN_1
  6
CONTINUOUS
 10
1.049402
 20
-4.136201
  0
VERTEX
  8
PLAN_1
  6
CONTINUOUS
 10
1.053736
 20
-4.135118
  0
VERTEX
  8
PLAN_1
  6
CONTINUOUS
 10
1.057524
 20
-4.134035
  0
VERTEX
  8
PLAN_1
  6
CONTINUOUS
 10
1.061315
 20
-4.132953
  0
VERTEX
  8
PLAN_1
  6
CONTINUOUS
 10
1.064563
 20
-4.130787
  0
VERTEX
  8
PLAN_1
  6
CONTINUOUS
 10
1.067268
 20
-4.129161
  0
VERTEX
  8
PLAN_1
  6
CONTINUOUS
 10
1.069976
 20
-4.126457
  0
VERTEX
  8
PLAN_1
  6
CONTINUOUS
 10
1.072142
 20
-4.123748
  0
VERTEX
  8
PLAN_1
  6
CONTINUOUS
 10
1.074846
 20
-4.120500
  0
VERTEX
  8
PLAN_1
  6
CONTINUOUS
 10
1.076472
 20
-4.116169
  0
VERTEX
  8
PLAN_1
  6
CONTINUOUS
 10
1.078638
 20
-4.111839
  0
VERTEX
  8
PLAN_1
  6
CONTINUOUS
 10
1.080264
 20
-4.106965
  0
VERTEX
  8
PLAN_1
  6
CONTINUOUS
 10
1.081346
 20
-4.101551
  0
VERTEX
  8
PLAN_1
  6
CONTINUOUS
 10
1.100835
 20
-4.101551
  0
VERTEX
  8
PLAN_1
  6
CONTINUOUS
 10
1.100835
 20
-4.296449
  0
SEQEND
  8
0
  0
SOLID
  8
PLAN_1
 10
1.155516
 20
-4.331098
 11
1.155516
 21
-4.317020
 12
1.309807
 22
-4.331098
 13
1.309807
 23
-4.317020
  0
POLYLINE
  8
PLAN_1
  6
CONTINUOUS
 66
     1
 40
0.003000
 41
0.003000
  0
VERTEX
  8
PLAN_1
  6
CONTINUOUS
 10
1.155516
 20
-4.331098
  0
VERTEX
  8
PLAN_1
  6
CONTINUOUS
 10
1.155516
 20
-4.317020
  0
VERTEX
  8
PLAN_1
  6
CONTINUOUS
 10
1.309807
 20
-4.317020
  0
VERTEX
  8
PLAN_1
  6
CONTINUOUS
 10
1.309807
 20
-4.331098
  0
VERTEX
  8
PLAN_1
  6
CONTINUOUS
 10
1.155516
 20
-4.331098
  0
SEQEND
  8
0
  0
POLYLINE
  8
PLAN_1
  6
CONTINUOUS
 66
     1
 40
0.003000
 41
0.003000
  0
VERTEX
  8
PLAN_1
  6
CONTINUOUS
 10
1.361240
 20
-4.296449
  0
VERTEX
  8
PLAN_1
  6
CONTINUOUS
 10
1.334169
 20
-4.296449
  0
VERTEX
  8
PLAN_1
  6
CONTINUOUS
 10
1.334169
 20
-4.097220
  0
VERTEX
  8
PLAN_1
  6
CONTINUOUS
 10
1.426205
 20
-4.097220
  0
VERTEX
  8
PLAN_1
  6
CONTINUOUS
 10
1.432701
 20
-4.097220
  0
VERTEX
  8
PLAN_1
  6
CONTINUOUS
 10
1.438657
 20
-4.097760
  0
VERTEX
  8
PLAN_1
  6
CONTINUOUS
 10
1.444610
 20
-4.098303
  0
VERTEX
  8
PLAN_1
  6
CONTINUOUS
 10
1.450567
 20
-4.099386
  0
VERTEX
  8
PLAN_1
  6
CONTINUOUS
 10
1.455980
 20
-4.101012
  0
VERTEX
  8
PLAN_1
  6
CONTINUOUS
 10
1.461394
 20
-4.103177
  0
VERTEX
  8
PLAN_1
  6
CONTINUOUS
 10
1.466807
 20
-4.105343
  0
VERTEX
  8
PLAN_1
  6
CONTINUOUS
 10
1.471681
 20
-4.108047
  0
VERTEX
  8
PLAN_1
  6
CONTINUOUS
 10
1.476012
 20
-4.111295
  0
VERTEX
  8
PLAN_1
  6
CONTINUOUS
 10
1.479803
 20
-4.115087
  0
VERTEX
  8
PLAN_1
  6
CONTINUOUS
 10
1.483591
 20
-4.119417
  0
VERTEX
  8
PLAN_1
  6
CONTINUOUS
 10
1.486299
 20
-4.124291
  0
VERTEX
  8
PLAN_1
  6
CONTINUOUS
 10
1.488465
 20
-4.130244
  0
VERTEX
  8
PLAN_1
  6
CONTINUOUS
 10
1.490630
 20
-4.136201
  0
VERTEX
  8
PLAN_1
  6
CONTINUOUS
 10
1.491713
 20
-4.143236
  0
VERTEX
  8
PLAN_1
  6
CONTINUOUS
 10
1.491713
 20
-4.150819
  0
VERTEX
  8
PLAN_1
  6
CONTINUOUS
 10
1.491713
 20
-4.156232
  0
VERTEX
  8
PLAN_1
  6
CONTINUOUS
 10
1.491169
 20
-4.161102
  0
VERTEX
  8
PLAN_1
  6
CONTINUOUS
 10
1.490630
 20
-4.165433
  0
VERTEX
  8
PLAN_1
  6
CONTINUOUS
 10
1.489547
 20
-4.169764
  0
VERTEX
  8
PLAN_1
  6
CONTINUOUS
 10
1.487921
 20
-4.173555
  0
VERTEX
  8
PLAN_1
  6
CONTINUOUS
 10
1.486299
 20
-4.176803
  0
VERTEX
  8
PLAN_1
  6
CONTINUOUS
 10
1.484673
 20
-4.180051
  0
VERTEX
  8
PLAN_1
  6
CONTINUOUS
 10
1.483051
 20
-4.182760
  0
VERTEX
  8
PLAN_1
  6
CONTINUOUS
 10
1.478720
 20
-4.187630
  0
VERTEX
  8
PLAN_1
  6
CONTINUOUS
 10
1.473846
 20
-4.191961
  0
VERTEX
  8
PLAN_1
  6
CONTINUOUS
 10
1.468972
 20
-4.195209
  0
VERTEX
  8
PLAN_1
  6
CONTINUOUS
 10
1.464102
 20
-4.198457
  0
VERTEX
  8
PLAN_1
  6
CONTINUOUS
 10
1.468433
 20
-4.200083
  0
VERTEX
  8
PLAN_1
  6
CONTINUOUS
 10
1.472764
 20
-4.202248
  0
VERTEX
  8
PLAN_1
  6
CONTINUOUS
 10
1.476551
 20
-4.204957
  0
VERTEX
  8
PLAN_1
  6
CONTINUOUS
 10
1.479803
 20
-4.208744
  0
VERTEX
  8
PLAN_1
  6
CONTINUOUS
 10
1.481425
 20
-4.210909
  0
VERTEX
  8
PLAN_1
  6
CONTINUOUS
 10
1.483051
 20
-4.213075
  0
VERTEX
  8
PLAN_1
  6
CONTINUOUS
 10
1.484134
 20
-4.215783
  0
VERTEX
  8
PLAN_1
  6
CONTINUOUS
 10
1.485217
 20
-4.219031
  0
VERTEX
  8
PLAN_1
  6
CONTINUOUS
 10
1.486299
 20
-4.222819
  0
VERTEX
  8
PLAN_1
  6
CONTINUOUS
 10
1.487382
 20
-4.226610
  0
VERTEX
  8
PLAN_1
  6
CONTINUOUS
 10
1.487921
 20
-4.230941
  0
VERTEX
  8
PLAN_1
  6
CONTINUOUS
 10
1.487921
 20
-4.235815
  0
VERTEX
  8
PLAN_1
  6
CONTINUOUS
 10
1.489547
 20
-4.272087
  0
VERTEX
  8
PLAN_1
  6
CONTINUOUS
 10
1.490087
 20
-4.275878
  0
VERTEX
  8
PLAN_1
  6
CONTINUOUS
 10
1.490087
 20
-4.279126
  0
VERTEX
  8
PLAN_1
  6
CONTINUOUS
 10
1.490630
 20
-4.281831
  0
VERTEX
  8
PLAN_1
  6
CONTINUOUS
 10
1.491713
 20
-4.284539
  0
VERTEX
  8
PLAN_1
  6
CONTINUOUS
 10
1.492795
 20
-4.286705
  0
VERTEX
  8
PLAN_1
  6
CONTINUOUS
 10
1.494417
 20
-4.288327
  0
VERTEX
  8
PLAN_1
  6
CONTINUOUS
 10
1.497126
 20
-4.289953
  0
VERTEX
  8
PLAN_1
  6
CONTINUOUS
 10
1.499831
 20
-4.292118
  0
VERTEX
  8
PLAN_1
  6
CONTINUOUS
 10
1.499831
 20
-4.296449
  0
VERTEX
  8
PLAN_1
  6
CONTINUOUS
 10
1.466807
 20
-4.296449
  0
VERTEX
  8
PLAN_1
  6
CONTINUOUS
 10
1.465185
 20
-4.291035
  0
VERTEX
  8
PLAN_1
  6
CONTINUOUS
 10
1.464102
 20
-4.284539
  0
VERTEX
  8
PLAN_1
  6
CONTINUOUS
 10
1.463559
 20
-4.276961
  0
VERTEX
  8
PLAN_1
  6
CONTINUOUS
 10
1.463020
 20
-4.269921
  0
VERTEX
  8
PLAN_1
  6
CONTINUOUS
 10
1.462476
 20
-4.262343
  0
VERTEX
  8
PLAN_1
  6
CONTINUOUS
 10
1.461937
 20
-4.255846
  0
VERTEX
  8
PLAN_1
  6
CONTINUOUS
 10
1.461937
 20
-4.250433
  0
VERTEX
  8
PLAN_1
  6
CONTINUOUS
 10
1.461937
 20
-4.246642
  0
VERTEX
  8
PLAN_1
  6
CONTINUOUS
 10
1.461937
 20
-4.240146
  0
VERTEX
  8
PLAN_1
  6
CONTINUOUS
 10
1.460854
 20
-4.234189
  0
VERTEX
  8
PLAN_1
  6
CONTINUOUS
 10
1.460311
 20
-4.230941
  0
VERTEX
  8
PLAN_1
  6
CONTINUOUS
 10
1.459228
 20
-4.228236
  0
VERTEX
  8
PLAN_1
  6
CONTINUOUS
 10
1.458146
 20
-4.224988
  0
VERTEX
  8
PLAN_1
  6
CONTINUOUS
 10
1.456524
 20
-4.222280
  0
VERTEX
  8
PLAN_1
  6
CONTINUOUS
 10
1.454358
 20
-4.220114
  0
VERTEX
  8
PLAN_1
  6
CONTINUOUS
 10
1.451650
 20
-4.217949
  0
VERTEX
  8
PLAN_1
  6
CONTINUOUS
 10
1.448941
 20
-4.215783
  0
VERTEX
  8
PLAN_1
  6
CONTINUOUS
 10
1.445693
 20
-4.214157
  0
VERTEX
  8
PLAN_1
  6
CONTINUOUS
 10
1.441906
 20
-4.212535
  0
VERTEX
  8
PLAN_1
  6
CONTINUOUS
 10
1.437031
 20
-4.211992
  0
VERTEX
  8
PLAN_1
  6
CONTINUOUS
 10
1.432161
 20
-4.210909
  0
VERTEX
  8
PLAN_1
  6
CONTINUOUS
 10
1.426205
 20
-4.210909
  0
VERTEX
  8
PLAN_1
  6
CONTINUOUS
 10
1.361240
 20
-4.210909
  0
VERTEX
  8
PLAN_1
  6
CONTINUOUS
 10
1.361240
 20
-4.296449
  0
SEQEND
  8
0
  0
POLYLINE
  8
PLAN_1
  6
CONTINUOUS
 66
     1
 40
0.003000
 41
0.003000
  0
VERTEX
  8
PLAN_1
  6
CONTINUOUS
 10
1.361240
 20
-4.187630
  0
VERTEX
  8
PLAN_1
  6
CONTINUOUS
 10
1.423496
 20
-4.187630
  0
VERTEX
  8
PLAN_1
  6
CONTINUOUS
 10
1.431079
 20
-4.187630
  0
VERTEX
  8
PLAN_1
  6
CONTINUOUS
 10
1.438114
 20
-4.186547
  0
VERTEX
  8
PLAN_1
  6
CONTINUOUS
 10
1.441906
 20
-4.186008
  0
VERTEX
  8
PLAN_1
  6
CONTINUOUS
 10
1.445154
 20
-4.184925
  0
VERTEX
  8
PLAN_1
  6
CONTINUOUS
 10
1.448402
 20
-4.183299
  0
VERTEX
  8
PLAN_1
  6
CONTINUOUS
 10
1.451106
 20
-4.181677
  0
VERTEX
  8
PLAN_1
  6
CONTINUOUS
 10
1.453815
 20
-4.179512
  0
VERTEX
  8
PLAN_1
  6
CONTINUOUS
 10
1.456524
 20
-4.177346
  0
VERTEX
  8
PLAN_1
  6
CONTINUOUS
 10
1.458689
 20
-4.174638
  0
VERTEX
  8
PLAN_1
  6
CONTINUOUS
 10
1.460854
 20
-4.171390
  0
VERTEX
  8
PLAN_1
  6
CONTINUOUS
 10
1.461937
 20
-4.167598
  0
VERTEX
  8
PLAN_1
  6
CONTINUOUS
 10
1.463020
 20
-4.163268
  0
VERTEX
  8
PLAN_1
  6
CONTINUOUS
 10
1.464102
 20
-4.158937
  0
VERTEX
  8
PLAN_1
  6
CONTINUOUS
 10
1.464102
 20
-4.153524
  0
VERTEX
  8
PLAN_1
  6
CONTINUOUS
 10
1.464102
 20
-4.148110
  0
VERTEX
  8
PLAN_1
  6
CONTINUOUS
 10
1.463020
 20
-4.143236
  0
VERTEX
  8
PLAN_1
  6
CONTINUOUS
 10
1.461937
 20
-4.138906
  0
VERTEX
  8
PLAN_1
  6
CONTINUOUS
 10
1.460311
 20
-4.135118
  0
VERTEX
  8
PLAN_1
  6
CONTINUOUS
 10
1.458689
 20
-4.131870
  0
VERTEX
  8
PLAN_1
  6
CONTINUOUS
 10
1.456524
 20
-4.129161
  0
VERTEX
  8
PLAN_1
  6
CONTINUOUS
 10
1.453815
 20
-4.126996
  0
VERTEX
  8
PLAN_1
  6
CONTINUOUS
 10
1.451106
 20
-4.125374
  0
VERTEX
  8
PLAN_1
  6
CONTINUOUS
 10
1.448402
 20
-4.123748
  0
VERTEX
  8
PLAN_1
  6
CONTINUOUS
 10
1.445693
 20
-4.122665
  0
VERTEX
  8
PLAN_1
  6
CONTINUOUS
 10
1.442445
 20
-4.121583
  0
VERTEX
  8
PLAN_1
  6
CONTINUOUS
 10
1.439740
 20
-4.121039
  0
VERTEX
  8
PLAN_1
  6
CONTINUOUS
 10
1.433783
 20
-4.120500
  0
VERTEX
  8
PLAN_1
  6
CONTINUOUS
 10
1.428370
 20
-4.119957
  0
VERTEX
  8
PLAN_1
  6
CONTINUOUS
 10
1.361240
 20
-4.119957
  0
VERTEX
  8
PLAN_1
  6
CONTINUOUS
 10
1.361240
 20
-4.187630
  0
SEQEND
  8
0
  0
SOLID
  8
PLAN_1
 10
1.563173
 20
-4.296449
 11
1.534480
 21
-4.296449
 12
1.563173
 22
-4.267213
 13
1.534480
 23
-4.267213
  0
POLYLINE
  8
PLAN_1
  6
CONTINUOUS
 66
     1
 40
0.003000
 41
0.003000
  0
VERTEX
  8
PLAN_1
  6
CONTINUOUS
 10
1.563173
 20
-4.296449
  0
VERTEX
  8
PLAN_1
  6
CONTINUOUS
 10
1.534480
 20
-4.296449
  0
VERTEX
  8
PLAN_1
  6
CONTINUOUS
 10
1.534480
 20
-4.267213
  0
VERTEX
  8
PLAN_1
  6
CONTINUOUS
 10
1.563173
 20
-4.267213
  0
VERTEX
  8
PLAN_1
  6
CONTINUOUS
 10
1.563173
 20
-4.296449
  0
SEQEND
  8
0
  0
POLYLINE
  8
PLAN_1
  6
CONTINUOUS
 66
     1
 40
0.003000
 41
0.003000
  0
VERTEX
  8
PLAN_1
  6
CONTINUOUS
 10
1.758614
 20
-4.296449
  0
VERTEX
  8
PLAN_1
  6
CONTINUOUS
 10
1.611358
 20
-4.296449
  0
VERTEX
  8
PLAN_1
  6
CONTINUOUS
 10
1.611358
 20
-4.097220
  0
VERTEX
  8
PLAN_1
  6
CONTINUOUS
 10
1.756449
 20
-4.097220
  0
VERTEX
  8
PLAN_1
  6
CONTINUOUS
 10
1.756449
 20
-4.121039
  0
VERTEX
  8
PLAN_1
  6
CONTINUOUS
 10
1.638425
 20
-4.121039
  0
VERTEX
  8
PLAN_1
  6
CONTINUOUS
 10
1.638425
 20
-4.182217
  0
VERTEX
  8
PLAN_1
  6
CONTINUOUS
 10
1.747244
 20
-4.182217
  0
VERTEX
  8
PLAN_1
  6
CONTINUOUS
 10
1.747244
 20
-4.206039
  0
VERTEX
  8
PLAN_1
  6
CONTINUOUS
 10
1.638425
 20
-4.206039
  0
VERTEX
  8
PLAN_1
  6
CONTINUOUS
 10
1.638425
 20
-4.272626
  0
VERTEX
  8
PLAN_1
  6
CONTINUOUS
 10
1.758614
 20
-4.272626
  0
VERTEX
  8
PLAN_1
  6
CONTINUOUS
 10
1.758614
 20
-4.296449
  0
SEQEND
  8
0
  0
POLYLINE
  8
PLAN_1
  6
CONTINUOUS
 66
     1
 40
0.003000
 41
0.003000
  0
VERTEX
  8
PLAN_1
  6
CONTINUOUS
 10
1.823579
 20
-4.296449
  0
VERTEX
  8
PLAN_1
  6
CONTINUOUS
 10
1.796508
 20
-4.296449
  0
VERTEX
  8
PLAN_1
  6
CONTINUOUS
 10
1.796508
 20
-4.097220
  0
VERTEX
  8
PLAN_1
  6
CONTINUOUS
 10
1.886378
 20
-4.097220
  0
VERTEX
  8
PLAN_1
  6
CONTINUOUS
 10
1.892874
 20
-4.097220
  0
VERTEX
  8
PLAN_1
  6
CONTINUOUS
 10
1.899370
 20
-4.098303
  0
VERTEX
  8
PLAN_1
  6
CONTINUOUS
 10
1.905327
 20
-4.099386
  0
VERTEX
  8
PLAN_1
  6
CONTINUOUS
 10
1.911283
 20
-4.101551
  0
VERTEX
  8
PLAN_1
  6
CONTINUOUS
 10
1.916154
 20
-4.103717
  0
VERTEX
  8
PLAN_1
  6
CONTINUOUS
 10
1.921028
 20
-4.106425
  0
VERTEX
  8
PLAN_1
  6
CONTINUOUS
 10
1.925358
 20
-4.109673
  0
VERTEX
  8
PLAN_1
  6
CONTINUOUS
 10
1.929689
 20
-4.112921
  0
VERTEX
  8
PLAN_1
  6
CONTINUOUS
 10
1.932937
 20
-4.117252
  0
VERTEX
  8
PLAN_1
  6
CONTINUOUS
 10
1.936185
 20
-4.121039
  0
VERTEX
  8
PLAN_1
  6
CONTINUOUS
 10
1.938894
 20
-4.125913
  0
VERTEX
  8
PLAN_1
  6
CONTINUOUS
 10
1.941059
 20
-4.130787
  0
VERTEX
  8
PLAN_1
  6
CONTINUOUS
 10
1.943224
 20
-4.136201
  0
VERTEX
  8
PLAN_1
  6
CONTINUOUS
 10
1.944307
 20
-4.141614
  0
VERTEX
  8
PLAN_1
  6
CONTINUOUS
 10
1.944846
 20
-4.147028
  0
VERTEX
  8
PLAN_1
  6
CONTINUOUS
 10
1.945390
 20
-4.152984
  0
VERTEX
  8
PLAN_1
  6
CONTINUOUS
 10
1.945390
 20
-4.158398
  0
VERTEX
  8
PLAN_1
  6
CONTINUOUS
 10
1.944307
 20
-4.163811
  0
VERTEX
  8
PLAN_1
  6
CONTINUOUS
 10
1.943764
 20
-4.169224
  0
VERTEX
  8
PLAN_1
  6
CONTINUOUS
 10
1.942142
 20
-4.174098
  0
VERTEX
  8
PLAN_1
  6
CONTINUOUS
 10
1.940516
 20
-4.178969
  0
VERTEX
  8
PLAN_1
  6
CONTINUOUS
 10
1.937811
 20
-4.183843
  0
VERTEX
  8
PLAN_1
  6
CONTINUOUS
 10
1.935102
 20
-4.188713
  0
VERTEX
  8
PLAN_1
  6
CONTINUOUS
 10
1.931854
 20
-4.193043
  0
VERTEX
  8
PLAN_1
  6
CONTINUOUS
 10
1.928063
 20
-4.197374
  0
VERTEX
  8
PLAN_1
  6
CONTINUOUS
 10
1.923732
 20
-4.201165
  0
VERTEX
  8
PLAN_1
  6
CONTINUOUS
 10
1.918862
 20
-4.204413
  0
VERTEX
  8
PLAN_1
  6
CONTINUOUS
 10
1.913988
 20
-4.207122
  0
VERTEX
  8
PLAN_1
  6
CONTINUOUS
 10
1.907492
 20
-4.209287
  0
VERTEX
  8
PLAN_1
  6
CONTINUOUS
 10
1.900996
 20
-4.210909
  0
VERTEX
  8
PLAN_1
  6
CONTINUOUS
 10
1.893957
 20
-4.211992
  0
VERTEX
  8
PLAN_1
  6
CONTINUOUS
 10
1.886378
 20
-4.212535
  0
VERTEX
  8
PLAN_1
  6
CONTINUOUS
 10
1.823579
 20
-4.212535
  0
VERTEX
  8
PLAN_1
  6
CONTINUOUS
 10
1.823579
 20
-4.296449
  0
SEQEND
  8
0
  0
POLYLINE
  8
PLAN_1
  6
CONTINUOUS
 66
     1
 40
0.003000
 41
0.003000
  0
VERTEX
  8
PLAN_1
  6
CONTINUOUS
 10
1.823579
 20
-4.189256
  0
VERTEX
  8
PLAN_1
  6
CONTINUOUS
 10
1.877173
 20
-4.189256
  0
VERTEX
  8
PLAN_1
  6
CONTINUOUS
 10
1.885839
 20
-4.188713
  0
VERTEX
  8
PLAN_1
  6
CONTINUOUS
 10
1.893417
 20
-4.187630
  0
VERTEX
  8
PLAN_1
  6
CONTINUOUS
 10
1.897205
 20
-4.186547
  0
VERTEX
  8
PLAN_1
  6
CONTINUOUS
 10
1.900453
 20
-4.184925
  0
VERTEX
  8
PLAN_1
  6
CONTINUOUS
 10
1.903701
 20
-4.183299
  0
VERTEX
  8
PLAN_1
  6
CONTINUOUS
 10
1.906409
 20
-4.181677
  0
VERTEX
  8
PLAN_1
  6
CONTINUOUS
 10
1.909118
 20
-4.178969
  0
VERTEX
  8
PLAN_1
  6
CONTINUOUS
 10
1.911283
 20
-4.176803
  0
VERTEX
  8
PLAN_1
  6
CONTINUOUS
 10
1.912906
 20
-4.173555
  0
VERTEX
  8
PLAN_1
  6
CONTINUOUS
 10
1.914531
 20
-4.170307
  0
VERTEX
  8
PLAN_1
  6
CONTINUOUS
 10
1.916154
 20
-4.166516
  0
VERTEX
  8
PLAN_1
  6
CONTINUOUS
 10
1.916697
 20
-4.162728
  0
VERTEX
  8
PLAN_1
  6
CONTINUOUS
 10
1.917236
 20
-4.158398
  0
VERTEX
  8
PLAN_1
  6
CONTINUOUS
 10
1.917780
 20
-4.153524
  0
VERTEX
  8
PLAN_1
  6
CONTINUOUS
 10
1.917236
 20
-4.149193
  0
VERTEX
  8
PLAN_1
  6
CONTINUOUS
 10
1.916697
 20
-4.144862
  0
VERTEX
  8
PLAN_1
  6
CONTINUOUS
 10
1.915614
 20
-4.141071
  0
VERTEX
  8
PLAN_1
  6
CONTINUOUS
 10
1.914531
 20
-4.137823
  0
VERTEX
  8
PLAN_1
  6
CONTINUOUS
 10
1.912906
 20
-4.134575
  0
VERTEX
  8
PLAN_1
  6
CONTINUOUS
 10
1.910740
 20
-4.131870
  0
VERTEX
  8
PLAN_1
  6
CONTINUOUS
 10
1.908575
 20
-4.129705
  0
VERTEX
  8
PLAN_1
  6
CONTINUOUS
 10
1.906409
 20
-4.127539
  0
VERTEX
  8
PLAN_1
  6
CONTINUOUS
 10
1.903161
 20
-4.125374
  0
VERTEX
  8
PLAN_1
  6
CONTINUOUS
 10
1.900453
 20
-4.124291
  0
VERTEX
  8
PLAN_1
  6
CONTINUOUS
 10
1.897205
 20
-4.122665
  0
VERTEX
  8
PLAN_1
  6
CONTINUOUS
 10
1.893957
 20
-4.121583
  0
VERTEX
  8
PLAN_1
  6
CONTINUOUS
 10
1.886378
 20
-4.120500
  0
VERTEX
  8
PLAN_1
  6
CONTINUOUS
 10
1.878256
 20
-4.119957
  0
VERTEX
  8
PLAN_1
  6
CONTINUOUS
 10
1.823579
 20
-4.119957
  0
VERTEX
  8
PLAN_1
  6
CONTINUOUS
 10
1.823579
 20
-4.189256
  0
SEQEND
  8
0
  0
POLYLINE
  8
PLAN_1
  6
CONTINUOUS
 66
     1
 40
0.003000
 41
0.003000
  0
VERTEX
  8
PLAN_1
  6
CONTINUOUS
 10
2.099142
 20
-4.155150
  0
VERTEX
  8
PLAN_1
  6
CONTINUOUS
 10
2.098598
 20
-4.149736
  0
VERTEX
  8
PLAN_1
  6
CONTINUOUS
 10
2.097516
 20
-4.144862
  0
VERTEX
  8
PLAN_1
  6
CONTINUOUS
 10
2.095894
 20
-4.139988
  0
VERTEX
  8
PLAN_1
  6
CONTINUOUS
 10
2.094268
 20
-4.136201
  0
VERTEX
  8
PLAN_1
  6
CONTINUOUS
 10
2.091563
 20
-4.132409
  0
VERTEX
  8
PLAN_1
  6
CONTINUOUS
 10
2.088854
 20
-4.129161
  0
VERTEX
  8
PLAN_1
  6
CONTINUOUS
 10
2.085606
 20
-4.125913
  0
VERTEX
  8
PLAN_1
  6
CONTINUOUS
 10
2.082358
 20
-4.123748
  0
VERTEX
  8
PLAN_1
  6
CONTINUOUS
 10
2.078567
 20
-4.121583
  0
VERTEX
  8
PLAN_1
  6
CONTINUOUS
 10
2.074780
 20
-4.119417
  0
VERTEX
  8
PLAN_1
  6
CONTINUOUS
 10
2.070988
 20
-4.118335
  0
VERTEX
  8
PLAN_1
  6
CONTINUOUS
 10
2.066657
 20
-4.116709
  0
VERTEX
  8
PLAN_1
  6
CONTINUOUS
 10
2.058539
 20
-4.115626
  0
VERTEX
  8
PLAN_1
  6
CONTINUOUS
 10
2.049874
 20
-4.115087
  0
VERTEX
  8
PLAN_1
  6
CONTINUOUS
 10
2.042839
 20
-4.115087
  0
VERTEX
  8
PLAN_1
  6
CONTINUOUS
 10
2.035799
 20
-4.116169
  0
VERTEX
  8
PLAN_1
  6
CONTINUOUS
 10
2.031469
 20
-4.116709
  0
VERTEX
  8
PLAN_1
  6
CONTINUOUS
 10
2.027677
 20
-4.117791
  0
VERTEX
  8
PLAN_1
  6
CONTINUOUS
 10
2.024429
 20
-4.119417
  0
VERTEX
  8
PLAN_1
  6
CONTINUOUS
 10
2.020642
 20
-4.121039
  0
VERTEX
  8
PLAN_1
  6
CONTINUOUS
 10
2.017394
 20
-4.123205
  0
VERTEX
  8
PLAN_1
  6
CONTINUOUS
 10
2.014146
 20
-4.125374
  0
VERTEX
  8
PLAN_1
  6
CONTINUOUS
 10
2.011437
 20
-4.128622
  0
VERTEX
  8
PLAN_1
  6
CONTINUOUS
 10
2.009272
 20
-4.131870
  0
VERTEX
  8
PLAN_1
  6
CONTINUOUS
 10
2.007106
 20
-4.135657
  0
VERTEX
  8
PLAN_1
  6
CONTINUOUS
 10
2.005484
 20
-4.139449
  0
VERTEX
  8
PLAN_1
  6
CONTINUOUS
 10
2.004398
 20
-4.144319
  0
VERTEX
  8
PLAN_1
  6
CONTINUOUS
 10
2.004398
 20
-4.149736
  0
VERTEX
  8
PLAN_1
  6
CONTINUOUS
 10
2.004398
 20
-4.152984
  0
VERTEX
  8
PLAN_1
  6
CONTINUOUS
 10
2.004941
 20
-4.155689
  0
VERTEX
  8
PLAN_1
  6
CONTINUOUS
 10
2.005484
 20
-4.158398
  0
VERTEX
  8
PLAN_1
  6
CONTINUOUS
 10
2.006567
 20
-4.160563
  0
VERTEX
  8
PLAN_1
  6
CONTINUOUS
 10
2.008732
 20
-4.164350
  0
VERTEX
  8
PLAN_1
  6
CONTINUOUS
 10
2.011437
 20
-4.167598
  0
VERTEX
  8
PLAN_1
  6
CONTINUOUS
 10
2.015228
 20
-4.170307
  0
VERTEX
  8
PLAN_1
  6
CONTINUOUS
 10
2.019016
 20
-4.172472
  0
VERTEX
  8
PLAN_1
  6
CONTINUOUS
 10
2.023346
 20
-4.174098
  0
VERTEX
  8
PLAN_1
  6
CONTINUOUS
 10
2.027677
 20
-4.175181
  0
VERTEX
  8
PLAN_1
  6
CONTINUOUS
 10
2.084524
 20
-4.188173
  0
VERTEX
  8
PLAN_1
  6
CONTINUOUS
 10
2.089398
 20
-4.189256
  0
VERTEX
  8
PLAN_1
  6
CONTINUOUS
 10
2.094268
 20
-4.190878
  0
VERTEX
  8
PLAN_1
  6
CONTINUOUS
 10
2.098598
 20
-4.192504
  0
VERTEX
  8
PLAN_1
  6
CONTINUOUS
 10
2.102929
 20
-4.194669
  0
VERTEX
  8
PLAN_1
  6
CONTINUOUS
 10
2.106720
 20
-4.196835
  0
VERTEX
  8
PLAN_1
  6
CONTINUOUS
 10
2.110512
 20
-4.199543
  0
VERTEX
  8
PLAN_1
  6
CONTINUOUS
 10
2.113760
 20
-4.202248
  0
VERTEX
  8
PLAN_1
  6
CONTINUOUS
 10
2.117008
 20
-4.205496
  0
VERTEX
  8
PLAN_1
  6
CONTINUOUS
 10
2.119713
 20
-4.208744
  0
VERTEX
  8
PLAN_1
  6
CONTINUOUS
 10
2.122421
 20
-4.212535
  0
VERTEX
  8
PLAN_1
  6
CONTINUOUS
 10
2.124587
 20
-4.216323
  0
VERTEX
  8
PLAN_1
  6
CONTINUOUS
 10
2.126752
 20
-4.220654
  0
VERTEX
  8
PLAN_1
  6
CONTINUOUS
 10
2.127835
 20
-4.225528
  0
VERTEX
  8
PLAN_1
  6
CONTINUOUS
 10
2.128917
 20
-4.230402
  0
VERTEX
  8
PLAN_1
  6
CONTINUOUS
 10
2.130000
 20
-4.235815
  0
VERTEX
  8
PLAN_1
  6
CONTINUOUS
 10
2.130000
 20
-4.241228
  0
VERTEX
  8
PLAN_1
  6
CONTINUOUS
 10
2.129457
 20
-4.249890
  0
VERTEX
  8
PLAN_1
  6
CONTINUOUS
 10
2.127835
 20
-4.257469
  0
VERTEX
  8
PLAN_1
  6
CONTINUOUS
 10
2.125669
 20
-4.264508
  0
VERTEX
  8
PLAN_1
  6
CONTINUOUS
 10
2.122421
 20
-4.271004
  0
VERTEX
  8
PLAN_1
  6
CONTINUOUS
 10
2.118630
 20
-4.276417
  0
VERTEX
  8
PLAN_1
  6
CONTINUOUS
 10
2.114299
 20
-4.281291
  0
VERTEX
  8
PLAN_1
  6
CONTINUOUS
 10
2.109429
 20
-4.285622
  0
VERTEX
  8
PLAN_1
  6
CONTINUOUS
 10
2.104012
 20
-4.289409
  0
VERTEX
  8
PLAN_1
  6
CONTINUOUS
 10
2.098059
 20
-4.292657
  0
VERTEX
  8
PLAN_1
  6
CONTINUOUS
 10
2.091563
 20
-4.294823
  0
VERTEX
  8
PLAN_1
  6
CONTINUOUS
 10
2.085067
 20
-4.296988
  0
VERTEX
  8
PLAN_1
  6
CONTINUOUS
 10
2.078567
 20
-4.299154
  0
VERTEX
  8
PLAN_1
  6
CONTINUOUS
 10
2.072071
 20
-4.300240
  0
VERTEX
  8
PLAN_1
  6
CONTINUOUS
 10
2.065035
 20
-4.300780
  0
VERTEX
  8
PLAN_1
  6
CONTINUOUS
 10
2.058539
 20
-4.301323
  0
VERTEX
  8
PLAN_1
  6
CONTINUOUS
 10
2.052039
 20
-4.301862
  0
VERTEX
  8
PLAN_1
  6
CONTINUOUS
 10
2.039047
 20
-4.301323
  0
VERTEX
  8
PLAN_1
  6
CONTINUOUS
 10
2.028220
 20
-4.299697
  0
VERTEX
  8
PLAN_1
  6
CONTINUOUS
 10
2.019016
 20
-4.297531
  0
VERTEX
  8
PLAN_1
  6
CONTINUOUS
 10
2.011437
 20
-4.295366
  0
VERTEX
  8
PLAN_1
  6
CONTINUOUS
 10
2.004941
 20
-4.292118
  0
VERTEX
  8
PLAN_1
  6
CONTINUOUS
 10
1.999528
 20
-4.288870
  0
VERTEX
  8
PLAN_1
  6
CONTINUOUS
 10
1.995197
 20
-4.285622
  0
VERTEX
  8
PLAN_1
  6
CONTINUOUS
 10
1.991949
 20
-4.282374
  0
VERTEX
  8
PLAN_1
  6
CONTINUOUS
 10
1.985992
 20
-4.276961
  0
VERTEX
  8
PLAN_1
  6
CONTINUOUS
 10
1.981661
 20
-4.271004
  0
VERTEX
  8
PLAN_1
  6
CONTINUOUS
 10
1.977870
 20
-4.264508
  0
VERTEX
  8
PLAN_1
  6
CONTINUOUS
 10
1.975165
 20
-4.258551
  0
VERTEX
  8
PLAN_1
  6
CONTINUOUS
 10
1.973539
 20
-4.252055
  0
VERTEX
  8
PLAN_1
  6
CONTINUOUS
 10
1.972457
 20
-4.245559
  0
VERTEX
  8
PLAN_1
  6
CONTINUOUS
 10
1.971917
 20
-4.239063
  0
VERTEX
  8
PLAN_1
  6
CONTINUOUS
 10
1.971374
 20
-4.232024
  0
VERTEX
  8
PLAN_1
  6
CONTINUOUS
 10
1.996819
 20
-4.232024
  0
VERTEX
  8
PLAN_1
  6
CONTINUOUS
 10
1.997362
 20
-4.238520
  0
VERTEX
  8
PLAN_1
  6
CONTINUOUS
 10
1.997902
 20
-4.244476
  0
VERTEX
  8
PLAN_1
  6
CONTINUOUS
 10
1.999528
 20
-4.249890
  0
VERTEX
  8
PLAN_1
  6
CONTINUOUS
 10
2.001693
 20
-4.254764
  0
VERTEX
  8
PLAN_1
  6
CONTINUOUS
 10
2.004398
 20
-4.259094
  0
VERTEX
  8
PLAN_1
  6
CONTINUOUS
 10
2.007650
 20
-4.262882
  0
VERTEX
  8
PLAN_1
  6
CONTINUOUS
 10
2.010898
 20
-4.266130
  0
VERTEX
  8
PLAN_1
  6
CONTINUOUS
 10
2.014685
 20
-4.268839
  0
VERTEX
  8
PLAN_1
  6
CONTINUOUS
 10
2.019016
 20
-4.271543
  0
VERTEX
  8
PLAN_1
  6
CONTINUOUS
 10
2.023346
 20
-4.273169
  0
VERTEX
  8
PLAN_1
  6
CONTINUOUS
 10
2.027677
 20
-4.275335
  0
VERTEX
  8
PLAN_1
  6
CONTINUOUS
 10
2.032551
 20
-4.276417
  0
VERTEX
  8
PLAN_1
  6
CONTINUOUS
 10
2.037425
 20
-4.277500
  0
VERTEX
  8
PLAN_1
  6
CONTINUOUS
 10
2.042295
 20
-4.278043
  0
VERTEX
  8
PLAN_1
  6
CONTINUOUS
 10
2.047169
 20
-4.278583
  0
VERTEX
  8
PLAN_1
  6
CONTINUOUS
 10
2.051500
 20
-4.278583
  0
VERTEX
  8
PLAN_1
  6
CONTINUOUS
 10
2.059622
 20
-4.278583
  0
VERTEX
  8
PLAN_1
  6
CONTINUOUS
 10
2.068283
 20
-4.277500
  0
VERTEX
  8
PLAN_1
  6
CONTINUOUS
 10
2.072614
 20
-4.276417
  0
VERTEX
  8
PLAN_1
  6
CONTINUOUS
 10
2.076945
 20
-4.275335
  0
VERTEX
  8
PLAN_1
  6
CONTINUOUS
 10
2.081276
 20
-4.274252
  0
VERTEX
  8
PLAN_1
  6
CONTINUOUS
 10
2.085067
 20
-4.272626
  0
VERTEX
  8
PLAN_1
  6
CONTINUOUS
 10
2.088854
 20
-4.270461
  0
VERTEX
  8
PLAN_1
  6
CONTINUOUS
 10
2.092646
 20
-4.268295
  0
VERTEX
  8
PLAN_1
  6
CONTINUOUS
 10
2.095894
 20
-4.265591
  0
VERTEX
  8
PLAN_1
  6
CONTINUOUS
 10
2.098598
 20
-4.262343
  0
VERTEX
  8
PLAN_1
  6
CONTINUOUS
 10
2.100764
 20
-4.258551
  0
VERTEX
  8
PLAN_1
  6
CONTINUOUS
 10
2.102390
 20
-4.254764
  0
VERTEX
  8
PLAN_1
  6
CONTINUOUS
 10
2.103472
 20
-4.249890
  0
VERTEX
  8
PLAN_1
  6
CONTINUOUS
 10
2.104012
 20
-4.245016
  0
VERTEX
  8
PLAN_1
  6
CONTINUOUS
 10
2.104012
 20
-4.241228
  0
VERTEX
  8
PLAN_1
  6
CONTINUOUS
 10
2.103472
 20
-4.237980
  0
VERTEX
  8
PLAN_1
  6
CONTINUOUS
 10
2.102929
 20
-4.234732
  0
VERTEX
  8
PLAN_1
  6
CONTINUOUS
 10
2.101846
 20
-4.232024
  0
VERTEX
  8
PLAN_1
  6
CONTINUOUS
 10
2.100764
 20
-4.229319
  0
VERTEX
  8
PLAN_1
  6
CONTINUOUS
 10
2.099142
 20
-4.226610
  0
VERTEX
  8
PLAN_1
  6
CONTINUOUS
 10
2.096976
 20
-4.224445
  0
VERTEX
  8
PLAN_1
  6
CONTINUOUS
 10
2.094811
 20
-4.222280
  0
VERTEX
  8
PLAN_1
  6
CONTINUOUS
 10
2.092102
 20
-4.220654
  0
VERTEX
  8
PLAN_1
  6
CONTINUOUS
 10
2.089398
 20
-4.219031
  0
VERTEX
  8
PLAN_1
  6
CONTINUOUS
 10
2.085606
 20
-4.217406
  0
VERTEX
  8
PLAN_1
  6
CONTINUOUS
 10
2.081819
 20
-4.215783
  0
VERTEX
  8
PLAN_1
  6
CONTINUOUS
 10
2.072614
 20
-4.212535
  0
VERTEX
  8
PLAN_1
  6
CONTINUOUS
 10
2.061244
 20
-4.209827
  0
VERTEX
  8
PLAN_1
  6
CONTINUOUS
 10
2.020642
 20
-4.200626
  0
VERTEX
  8
PLAN_1
  6
CONTINUOUS
 10
2.015228
 20
-4.199000
  0
VERTEX
  8
PLAN_1
  6
CONTINUOUS
 10
2.008732
 20
-4.196835
  0
VERTEX
  8
PLAN_1
  6
CONTINUOUS
 10
2.004941
 20
-4.195209
  0
VERTEX
  8
PLAN_1
  6
CONTINUOUS
 10
2.001693
 20
-4.193587
  0
VERTEX
  8
PLAN_1
  6
CONTINUOUS
 10
1.997902
 20
-4.191421
  0
VERTEX
  8
PLAN_1
  6
CONTINUOUS
 10
1.994654
 20
-4.188713
  0
VERTEX
  8
PLAN_1
  6
CONTINUOUS
 10
1.991406
 20
-4.186008
  0
VERTEX
  8
PLAN_1
  6
CONTINUOUS
 10
1.988157
 20
-4.182760
  0
VERTEX
  8
PLAN_1
  6
CONTINUOUS
 10
1.985453
 20
-4.178969
  0
VERTEX
  8
PLAN_1
  6
CONTINUOUS
 10
1.982744
 20
-4.175181
  0
VERTEX
  8
PLAN_1
  6
CONTINUOUS
 10
1.981122
 20
-4.170307
  0
VERTEX
  8
PLAN_1
  6
CONTINUOUS
 10
1.979496
 20
-4.165433
  0
VERTEX
  8
PLAN_1
  6
CONTINUOUS
 10
1.978413
 20
-4.159480
  0
VERTEX
  8
PLAN_1
  6
CONTINUOUS
 10
1.978413
 20
-4.153524
  0
VERTEX
  8
PLAN_1
  6
CONTINUOUS
 10
1.978413
 20
-4.147567
  0
VERTEX
  8
PLAN_1
  6
CONTINUOUS
 10
1.978953
 20
-4.142154
  0
VERTEX
  8
PLAN_1
  6
CONTINUOUS
 10
1.980579
 20
-4.136201
  0
VERTEX
  8
PLAN_1
  6
CONTINUOUS
 10
1.982205
 20
-4.130787
  0
VERTEX
  8
PLAN_1
  6
CONTINUOUS
 10
1.984370
 20
-4.125374
  0
VERTEX
  8
PLAN_1
  6
CONTINUOUS
 10
1.987075
 20
-4.120500
  0
VERTEX
  8
PLAN_1
  6
CONTINUOUS
 10
1.990323
 20
-4.115626
  0
VERTEX
  8
PLAN_1
  6
CONTINUOUS
 10
1.994114
 20
-4.110756
  0
VERTEX
  8
PLAN_1
  6
CONTINUOUS
 10
1.998984
 20
-4.106965
  0
VERTEX
  8
PLAN_1
  6
CONTINUOUS
 10
2.003858
 20
-4.103177
  0
VERTEX
  8
PLAN_1
  6
CONTINUOUS
 10
2.009272
 20
-4.099929
  0
VERTEX
  8
PLAN_1
  6
CONTINUOUS
 10
2.015768
 20
-4.097220
  0
VERTEX
  8
PLAN_1
  6
CONTINUOUS
 10
2.022264
 20
-4.095055
  0
VERTEX
  8
PLAN_1
  6
CONTINUOUS
 10
2.029846
 20
-4.093429
  0
VERTEX
  8
PLAN_1
  6
CONTINUOUS
 10
2.037965
 20
-4.092346
  0
VERTEX
  8
PLAN_1
  6
CONTINUOUS
 10
2.046626
 20
-4.091807
  0
VERTEX
  8
PLAN_1
  6
CONTINUOUS
 10
2.059079
 20
-4.092346
  0
VERTEX
  8
PLAN_1
  6
CONTINUOUS
 10
2.069906
 20
-4.093429
  0
VERTEX
  8
PLAN_1
  6
CONTINUOUS
 10
2.079650
 20
-4.095594
  0
VERTEX
  8
PLAN_1
  6
CONTINUOUS
 10
2.088315
 20
-4.098846
  0
VERTEX
  8
PLAN_1
  6
CONTINUOUS
 10
2.095350
 20
-4.102094
  0
VERTEX
  8
PLAN_1
  6
CONTINUOUS
 10
2.101846
 20
-4.106425
  0
VERTEX
  8
PLAN_1
  6
CONTINUOUS
 10
2.106720
 20
-4.110756
  0
VERTEX
  8
PLAN_1
  6
CONTINUOUS
 10
2.111051
 20
-4.115626
  0
VERTEX
  8
PLAN_1
  6
CONTINUOUS
 10
2.114843
 20
-4.120500
  0
VERTEX
  8
PLAN_1
  6
CONTINUOUS
 10
2.117547
 20
-4.125913
  0
VERTEX
  8
PLAN_1
  6
CONTINUOUS
 10
2.119713
 20
-4.130787
  0
VERTEX
  8
PLAN_1
  6
CONTINUOUS
 10
2.121878
 20
-4.136201
  0
VERTEX
  8
PLAN_1
  6
CONTINUOUS
 10
2.123504
 20
-4.146484
  0
VERTEX
  8
PLAN_1
  6
CONTINUOUS
 10
2.124587
 20
-4.155150
  0
VERTEX
  8
PLAN_1
  6
CONTINUOUS
 10
2.099142
 20
-4.155150
  0
SEQEND
  8
0
  0
POLYLINE
  8
PLAN_1
  6
CONTINUOUS
 66
     1
 40
0.007035
 41
0.007035
  0
VERTEX
  8
PLAN_1
  6
CONTINUOUS
 10
-2.031055
 20
-0.317299
  0
VERTEX
  8
PLAN_1
  6
CONTINUOUS
 10
-2.040799
 20
-0.307012
  0
VERTEX
  8
PLAN_1
  6
CONTINUOUS
 10
-2.040799
 20
-0.041736
  0
VERTEX
  8
PLAN_1
  6
CONTINUOUS
 10
-2.031055
 20
-0.030906
  0
VERTEX
  8
PLAN_1
  6
CONTINUOUS
 10
-1.907618
 20
-0.030906
  0
VERTEX
  8
PLAN_1
  6
CONTINUOUS
 10
-1.907618
 20
-0.317299
  0
VERTEX
  8
PLAN_1
  6
CONTINUOUS
 10
-2.031055
 20
-0.317299
  0
SEQEND
  8
0
  0
POLYLINE
  8
PLAN_1
  6
CONTINUOUS
 66
     1
 40
0.008118
 41
0.008118
  0
VERTEX
  8
PLAN_1
  6
CONTINUOUS
 10
-0.024154
 20
-0.787760
  0
VERTEX
  8
PLAN_1
  6
CONTINUOUS
 10
-0.018740
 20
-0.787760
  0
VERTEX
  8
PLAN_1
  6
CONTINUOUS
 10
-0.014409
 20
-0.787217
  0
VERTEX
  8
PLAN_1
  6
CONTINUOUS
 10
-0.010079
 20
-0.786134
  0
VERTEX
  8
PLAN_1
  6
CONTINUOUS
 10
-0.006291
 20
-0.785051
  0
VERTEX
  8
PLAN_1
  6
CONTINUOUS
 10
-0.003043
 20
-0.783425
  0
VERTEX
  8
PLAN_1
  6
CONTINUOUS
 10
0.000209
 20
-0.781803
  0
VERTEX
  8
PLAN_1
  6
CONTINUOUS
 10
0.003457
 20
-0.779638
  0
VERTEX
  8
PLAN_1
  6
CONTINUOUS
 10
0.006161
 20
-0.777472
  0
VERTEX
  8
PLAN_1
  6
CONTINUOUS
 10
0.008327
 20
-0.774764
  0
VERTEX
  8
PLAN_1
  6
CONTINUOUS
 10
0.010492
 20
-0.772059
  0
VERTEX
  8
PLAN_1
  6
CONTINUOUS
 10
0.012118
 20
-0.769350
  0
VERTEX
  8
PLAN_1
  6
CONTINUOUS
 10
0.013740
 20
-0.766646
  0
VERTEX
  8
PLAN_1
  6
CONTINUOUS
 10
0.016449
 20
-0.760146
  0
VERTEX
  8
PLAN_1
  6
CONTINUOUS
 10
0.018614
 20
-0.754193
  0
VERTEX
  8
PLAN_1
  6
CONTINUOUS
 10
0.019697
 20
-0.747697
  0
VERTEX
  8
PLAN_1
  6
CONTINUOUS
 10
0.020236
 20
-0.741740
  0
VERTEX
  8
PLAN_1
  6
CONTINUOUS
 10
0.020780
 20
-0.735783
  0
VERTEX
  8
PLAN_1
  6
CONTINUOUS
 10
0.020780
 20
-0.730913
  0
VERTEX
  8
PLAN_1
  6
CONTINUOUS
 10
0.020236
 20
-0.723335
  0
VERTEX
  8
PLAN_1
  6
CONTINUOUS
 10
0.019697
 20
-0.720087
  0
SEQEND
  8
0
  0
POLYLINE
  8
PLAN_1
  6
CONTINUOUS
 66
     1
 40
0.008118
 41
0.008118
  0
VERTEX
  8
PLAN_1
  6
CONTINUOUS
 10
0.019697
 20
-0.720087
  0
VERTEX
  8
PLAN_1
  6
CONTINUOUS
 10
-1.063067
 20
-0.720087
  0
SEQEND
  8
0
  0
POLYLINE
  8
PLAN_1
  6
CONTINUOUS
 66
     1
 40
0.008118
 41
0.008118
  0
VERTEX
  8
PLAN_1
  6
CONTINUOUS
 10
-1.063067
 20
-0.720087
  0
VERTEX
  8
PLAN_1
  6
CONTINUOUS
 10
-1.064150
 20
-0.723335
  0
VERTEX
  8
PLAN_1
  6
CONTINUOUS
 10
-1.065772
 20
-0.730913
  0
VERTEX
  8
PLAN_1
  6
CONTINUOUS
 10
-1.066854
 20
-0.735783
  0
VERTEX
  8
PLAN_1
  6
CONTINUOUS
 10
-1.067937
 20
-0.741740
  0
VERTEX
  8
PLAN_1
  6
CONTINUOUS
 10
-1.068480
 20
-0.747697
  0
VERTEX
  8
PLAN_1
  6
CONTINUOUS
 10
-1.067937
 20
-0.754193
  0
VERTEX
  8
PLAN_1
  6
CONTINUOUS
 10
-1.067398
 20
-0.760146
  0
VERTEX
  8
PLAN_1
  6
CONTINUOUS
 10
-1.065772
 20
-0.766646
  0
VERTEX
  8
PLAN_1
  6
CONTINUOUS
 10
-1.064689
 20
-0.769350
  0
VERTEX
  8
PLAN_1
  6
CONTINUOUS
 10
-1.063067
 20
-0.772059
  0
VERTEX
  8
PLAN_1
  6
CONTINUOUS
 10
-1.061441
 20
-0.774764
  0
VERTEX
  8
PLAN_1
  6
CONTINUOUS
 10
-1.059276
 20
-0.777472
  0
VERTEX
  8
PLAN_1
  6
CONTINUOUS
 10
-1.057110
 20
-0.779638
  0
VERTEX
  8
PLAN_1
  6
CONTINUOUS
 10
-1.054402
 20
-0.781803
  0
VERTEX
  8
PLAN_1
  6
CONTINUOUS
 10
-1.051154
 20
-0.783425
  0
VERTEX
  8
PLAN_1
  6
CONTINUOUS
 10
-1.047366
 20
-0.785051
  0
VERTEX
  8
PLAN_1
  6
CONTINUOUS
 10
-1.043575
 20
-0.786134
  0
VERTEX
  8
PLAN_1
  6
CONTINUOUS
 10
-1.039244
 20
-0.787217
  0
VERTEX
  8
PLAN_1
  6
CONTINUOUS
 10
-1.034374
 20
-0.787760
  0
VERTEX
  8
PLAN_1
  6
CONTINUOUS
 10
-1.028957
 20
-0.787760
  0
VERTEX
  8
PLAN_1
  6
CONTINUOUS
 10
-0.977528
 20
-0.787760
  0
VERTEX
  8
PLAN_1
  6
CONTINUOUS
 10
-0.866004
 20
-0.787760
  0
VERTEX
  8
PLAN_1
  6
CONTINUOUS
 10
-0.713335
 20
-0.787760
  0
VERTEX
  8
PLAN_1
  6
CONTINUOUS
 10
-0.539551
 20
-0.787760
  0
VERTEX
  8
PLAN_1
  6
CONTINUOUS
 10
-0.364142
 20
-0.787760
  0
VERTEX
  8
PLAN_1
  6
CONTINUOUS
 10
-0.206602
 20
-0.787760
  0
VERTEX
  8
PLAN_1
  6
CONTINUOUS
 10
-0.086413
 20
-0.787760
  0
VERTEX
  8
PLAN_1
  6
CONTINUOUS
 10
-0.024154
 20
-0.787760
  0
SEQEND
  8
0
  0
POLYLINE
  8
PLAN_1
  6
CONTINUOUS
 66
     1
 40
0.008118
 41
0.008118
  0
VERTEX
  8
PLAN_1
  6
CONTINUOUS
 10
-0.976445
 20
-0.787760
  0
VERTEX
  8
PLAN_1
  6
CONTINUOUS
 10
-0.976445
 20
-1.148858
  0
VERTEX
  8
PLAN_1
  6
CONTINUOUS
 10
-0.928260
 20
-1.148858
  0
VERTEX
  8
PLAN_1
  6
CONTINUOUS
 10
-0.928260
 20
-1.198665
  0
VERTEX
  8
PLAN_1
  6
CONTINUOUS
 10
-0.884409
 20
-1.198665
  0
VERTEX
  8
PLAN_1
  6
CONTINUOUS
 10
-0.884409
 20
-1.148858
  0
VERTEX
  8
PLAN_1
  6
CONTINUOUS
 10
-0.185488
 20
-1.148858
  0
VERTEX
  8
PLAN_1
  6
CONTINUOUS
 10
-0.185488
 20
-1.198665
  0
VERTEX
  8
PLAN_1
  6
CONTINUOUS
 10
-0.141634
 20
-1.198665
  0
VERTEX
  8
PLAN_1
  6
CONTINUOUS
 10
-0.141634
 20
-1.148858
  0
VERTEX
  8
PLAN_1
  6
CONTINUOUS
 10
-0.073961
 20
-1.148858
  0
VERTEX
  8
PLAN_1
  6
CONTINUOUS
 10
-0.073961
 20
-0.787760
  0
VERTEX
  8
PLAN_1
  6
CONTINUOUS
 10
-0.976445
 20
-0.787760
  0
SEQEND
  8
0
  0
POLYLINE
  8
PLAN_1
  6
CONTINUOUS
 66
     1
 40
0.007035
 41
0.007035
  0
VERTEX
  8
PLAN_1
  6
CONTINUOUS
 10
-0.662984
 20
-1.148858
  0
VERTEX
  8
PLAN_1
  6
CONTINUOUS
 10
-0.803201
 20
-1.173220
  0
VERTEX
  8
PLAN_1
  6
CONTINUOUS
 10
-0.811866
 20
-1.174846
  0
SEQEND
  8
0
  0
POLYLINE
  8
PLAN_1
  6
CONTINUOUS
 66
     1
 40
0.007035
 41
0.007035
  0
VERTEX
  8
PLAN_1
  6
CONTINUOUS
 10
-0.811866
 20
-1.174846
  0
VERTEX
  8
PLAN_1
  6
CONTINUOUS
 10
-0.816197
 20
-1.176469
  0
VERTEX
  8
PLAN_1
  6
CONTINUOUS
 10
-0.820528
 20
-1.178094
  0
VERTEX
  8
PLAN_1
  6
CONTINUOUS
 10
-0.823776
 20
-1.180799
  0
VERTEX
  8
PLAN_1
  6
CONTINUOUS
 10
-0.826480
 20
-1.184047
  0
VERTEX
  8
PLAN_1
  6
CONTINUOUS
 10
-0.828646
 20
-1.187839
  0
VERTEX
  8
PLAN_1
  6
CONTINUOUS
 10
-0.830272
 20
-1.192169
  0
VERTEX
  8
PLAN_1
  6
CONTINUOUS
 10
-0.830815
 20
-1.196500
  0
VERTEX
  8
PLAN_1
  6
CONTINUOUS
 10
-0.830272
 20
-1.201374
  0
VERTEX
  8
PLAN_1
  6
CONTINUOUS
 10
-0.829189
 20
-1.205705
  0
VERTEX
  8
PLAN_1
  6
CONTINUOUS
 10
-0.827024
 20
-1.209492
  0
VERTEX
  8
PLAN_1
  6
CONTINUOUS
 10
-0.824315
 20
-1.212740
  0
VERTEX
  8
PLAN_1
  6
CONTINUOUS
 10
-0.821067
 20
-1.215449
  0
VERTEX
  8
PLAN_1
  6
CONTINUOUS
 10
-0.817280
 20
-1.217614
  0
VERTEX
  8
PLAN_1
  6
CONTINUOUS
 10
-0.812949
 20
-1.219240
  0
VERTEX
  8
PLAN_1
  6
CONTINUOUS
 10
-0.808618
 20
-1.219780
  0
VERTEX
  8
PLAN_1
  6
CONTINUOUS
 10
-0.804283
 20
-1.219240
  0
SEQEND
  8
0
  0
POLYLINE
  8
PLAN_1
  6
CONTINUOUS
 66
     1
 40
0.007035
 41
0.007035
  0
VERTEX
  8
PLAN_1
  6
CONTINUOUS
 10
-0.804283
 20
-1.219240
  0
VERTEX
  8
PLAN_1
  6
CONTINUOUS
 10
-0.795083
 20
-1.217614
  0
VERTEX
  8
PLAN_1
  6
CONTINUOUS
 10
-0.404205
 20
-1.148858
  0
VERTEX
  8
PLAN_1
  6
CONTINUOUS
 10
-0.662984
 20
-1.148858
  0
SEQEND
  8
0
  0
POLYLINE
  8
PLAN_1
  6
CONTINUOUS
 66
     1
 40
0.007035
 41
0.007035
  0
VERTEX
  8
PLAN_1
  6
CONTINUOUS
 10
-0.250453
 20
-1.317772
  0
VERTEX
  8
PLAN_1
  6
CONTINUOUS
 10
-0.246122
 20
-1.316689
  0
VERTEX
  8
PLAN_1
  6
CONTINUOUS
 10
-0.242331
 20
-1.314524
  0
VERTEX
  8
PLAN_1
  6
CONTINUOUS
 10
-0.238543
 20
-1.311815
  0
VERTEX
  8
PLAN_1
  6
CONTINUOUS
 10
-0.235835
 20
-1.308567
  0
VERTEX
  8
PLAN_1
  6
CONTINUOUS
 10
-0.233669
 20
-1.304776
  0
VERTEX
  8
PLAN_1
  6
CONTINUOUS
 10
-0.232587
 20
-1.300988
  0
VERTEX
  8
PLAN_1
  6
CONTINUOUS
 10
-0.232047
 20
-1.296657
  0
VERTEX
  8
PLAN_1
  6
CONTINUOUS
 10
-0.232047
 20
-1.291783
  0
VERTEX
  8
PLAN_1
  6
CONTINUOUS
 10
-0.233130
 20
-1.287453
  0
VERTEX
  8
PLAN_1
  6
CONTINUOUS
 10
-0.235295
 20
-1.283661
  0
VERTEX
  8
PLAN_1
  6
CONTINUOUS
 10
-0.238000
 20
-1.279874
  0
VERTEX
  8
PLAN_1
  6
CONTINUOUS
 10
-0.241248
 20
-1.277165
  0
VERTEX
  8
PLAN_1
  6
CONTINUOUS
 10
-0.245039
 20
-1.275000
  0
VERTEX
  8
PLAN_1
  6
CONTINUOUS
 10
-0.249370
 20
-1.273917
  0
VERTEX
  8
PLAN_1
  6
CONTINUOUS
 10
-0.253701
 20
-1.273378
  0
VERTEX
  8
PLAN_1
  6
CONTINUOUS
 10
-0.258031
 20
-1.273378
  0
SEQEND
  8
0
  0
POLYLINE
  8
PLAN_1
  6
CONTINUOUS
 66
     1
 40
0.007035
 41
0.007035
  0
VERTEX
  8
PLAN_1
  6
CONTINUOUS
 10
-0.258031
 20
-1.273378
  0
VERTEX
  8
PLAN_1
  6
CONTINUOUS
 10
-0.272106
 20
-1.276083
  0
VERTEX
  8
PLAN_1
  6
CONTINUOUS
 10
-0.802661
 20
-1.369744
  0
VERTEX
  8
PLAN_1
  6
CONTINUOUS
 10
-0.811866
 20
-1.371366
  0
SEQEND
  8
0
  0
POLYLINE
  8
PLAN_1
  6
CONTINUOUS
 66
     1
 40
0.007035
 41
0.007035
  0
VERTEX
  8
PLAN_1
  6
CONTINUOUS
 10
-0.811866
 20
-1.371366
  0
VERTEX
  8
PLAN_1
  6
CONTINUOUS
 10
-0.816197
 20
-1.372449
  0
VERTEX
  8
PLAN_1
  6
CONTINUOUS
 10
-0.819984
 20
-1.374614
  0
VERTEX
  8
PLAN_1
  6
CONTINUOUS
 10
-0.823776
 20
-1.377323
  0
VERTEX
  8
PLAN_1
  6
CONTINUOUS
 10
-0.826480
 20
-1.380571
  0
VERTEX
  8
PLAN_1
  6
CONTINUOUS
 10
-0.828646
 20
-1.384358
  0
VERTEX
  8
PLAN_1
  6
CONTINUOUS
 10
-0.829728
 20
-1.388689
  0
VERTEX
  8
PLAN_1
  6
CONTINUOUS
 10
-0.830272
 20
-1.393024
  0
VERTEX
  8
PLAN_1
  6
CONTINUOUS
 10
-0.830272
 20
-1.397354
  0
VERTEX
  8
PLAN_1
  6
CONTINUOUS
 10
-0.828646
 20
-1.401685
  0
VERTEX
  8
PLAN_1
  6
CONTINUOUS
 10
-0.827024
 20
-1.406016
  0
VERTEX
  8
PLAN_1
  6
CONTINUOUS
 10
-0.824315
 20
-1.409264
  0
VERTEX
  8
PLAN_1
  6
CONTINUOUS
 10
-0.821067
 20
-1.411969
  0
VERTEX
  8
PLAN_1
  6
CONTINUOUS
 10
-0.817280
 20
-1.414134
  0
VERTEX
  8
PLAN_1
  6
CONTINUOUS
 10
-0.812949
 20
-1.415760
  0
VERTEX
  8
PLAN_1
  6
CONTINUOUS
 10
-0.808618
 20
-1.416303
  0
VERTEX
  8
PLAN_1
  6
CONTINUOUS
 10
-0.803744
 20
-1.415760
  0
SEQEND
  8
0
  0
POLYLINE
  8
PLAN_1
  6
CONTINUOUS
 66
     1
 40
0.007035
 41
0.007035
  0
VERTEX
  8
PLAN_1
  6
CONTINUOUS
 10
-0.803744
 20
-1.415760
  0
VERTEX
  8
PLAN_1
  6
CONTINUOUS
 10
-0.795083
 20
-1.414134
  0
VERTEX
  8
PLAN_1
  6
CONTINUOUS
 10
-0.264528
 20
-1.320476
  0
VERTEX
  8
PLAN_1
  6
CONTINUOUS
 10
-0.250453
 20
-1.317772
  0
SEQEND
  8
0
  0
POLYLINE
  8
PLAN_1
  6
CONTINUOUS
 66
     1
 40
0.007035
 41
0.007035
  0
VERTEX
  8
PLAN_1
  6
CONTINUOUS
 10
-0.245579
 20
-1.612280
  0
VERTEX
  8
PLAN_1
  6
CONTINUOUS
 10
-0.240709
 20
-1.611740
  0
VERTEX
  8
PLAN_1
  6
CONTINUOUS
 10
-0.236378
 20
-1.610657
  0
VERTEX
  8
PLAN_1
  6
CONTINUOUS
 10
-0.232587
 20
-1.608492
  0
VERTEX
  8
PLAN_1
  6
CONTINUOUS
 10
-0.229339
 20
-1.605783
  0
VERTEX
  8
PLAN_1
  6
CONTINUOUS
 10
-0.226630
 20
-1.601996
  0
VERTEX
  8
PLAN_1
  6
CONTINUOUS
 10
-0.224465
 20
-1.598205
  0
VERTEX
  8
PLAN_1
  6
CONTINUOUS
 10
-0.223382
 20
-1.594417
  0
VERTEX
  8
PLAN_1
  6
CONTINUOUS
 10
-0.222843
 20
-1.589543
  0
VERTEX
  8
PLAN_1
  6
CONTINUOUS
 10
-0.223382
 20
-1.585213
  0
VERTEX
  8
PLAN_1
  6
CONTINUOUS
 10
-0.224465
 20
-1.580882
  0
VERTEX
  8
PLAN_1
  6
CONTINUOUS
 10
-0.226630
 20
-1.577091
  0
VERTEX
  8
PLAN_1
  6
CONTINUOUS
 10
-0.229339
 20
-1.573843
  0
VERTEX
  8
PLAN_1
  6
CONTINUOUS
 10
-0.232587
 20
-1.571138
  0
VERTEX
  8
PLAN_1
  6
CONTINUOUS
 10
-0.236378
 20
-1.568972
  0
VERTEX
  8
PLAN_1
  6
CONTINUOUS
 10
-0.240709
 20
-1.567346
  0
VERTEX
  8
PLAN_1
  6
CONTINUOUS
 10
-0.245579
 20
-1.566807
  0
SEQEND
  8
0
  0
POLYLINE
  8
PLAN_1
  6
CONTINUOUS
 66
     1
 40
0.007035
 41
0.007035
  0
VERTEX
  8
PLAN_1
  6
CONTINUOUS
 10
-0.245579
 20
-1.566807
  0
VERTEX
  8
PLAN_1
  6
CONTINUOUS
 10
-0.259657
 20
-1.566807
  0
VERTEX
  8
PLAN_1
  6
CONTINUOUS
 10
-0.798331
 20
-1.567346
  0
VERTEX
  8
PLAN_1
  6
CONTINUOUS
 10
-0.807535
 20
-1.567346
  0
SEQEND
  8
0
  0
POLYLINE
  8
PLAN_1
  6
CONTINUOUS
 66
     1
 40
0.007035
 41
0.007035
  0
VERTEX
  8
PLAN_1
  6
CONTINUOUS
 10
-0.807535
 20
-1.567346
  0
VERTEX
  8
PLAN_1
  6
CONTINUOUS
 10
-0.811866
 20
-1.567890
  0
VERTEX
  8
PLAN_1
  6
CONTINUOUS
 10
-0.816197
 20
-1.568972
  0
VERTEX
  8
PLAN_1
  6
CONTINUOUS
 10
-0.819984
 20
-1.571138
  0
VERTEX
  8
PLAN_1
  6
CONTINUOUS
 10
-0.823232
 20
-1.573843
  0
VERTEX
  8
PLAN_1
  6
CONTINUOUS
 10
-0.826480
 20
-1.577091
  0
VERTEX
  8
PLAN_1
  6
CONTINUOUS
 10
-0.828106
 20
-1.580882
  0
VERTEX
  8
PLAN_1
  6
CONTINUOUS
 10
-0.829728
 20
-1.585213
  0
VERTEX
  8
PLAN_1
  6
CONTINUOUS
 10
-0.830272
 20
-1.590087
  0
VERTEX
  8
PLAN_1
  6
CONTINUOUS
 10
-0.829728
 20
-1.594417
  0
VERTEX
  8
PLAN_1
  6
CONTINUOUS
 10
-0.828106
 20
-1.598748
  0
VERTEX
  8
PLAN_1
  6
CONTINUOUS
 10
-0.826480
 20
-1.602535
  0
VERTEX
  8
PLAN_1
  6
CONTINUOUS
 10
-0.823232
 20
-1.605783
  0
VERTEX
  8
PLAN_1
  6
CONTINUOUS
 10
-0.819984
 20
-1.608492
  0
VERTEX
  8
PLAN_1
  6
CONTINUOUS
 10
-0.816197
 20
-1.610657
  0
VERTEX
  8
PLAN_1
  6
CONTINUOUS
 10
-0.811866
 20
-1.611740
  0
VERTEX
  8
PLAN_1
  6
CONTINUOUS
 10
-0.807535
 20
-1.612280
  0
SEQEND
  8
0
  0
POLYLINE
  8
PLAN_1
  6
CONTINUOUS
 66
     1
 40
0.007035
 41
0.007035
  0
VERTEX
  8
PLAN_1
  6
CONTINUOUS
 10
-0.807535
 20
-1.612280
  0
VERTEX
  8
PLAN_1
  6
CONTINUOUS
 10
-0.798331
 20
-1.612280
  0
VERTEX
  8
PLAN_1
  6
CONTINUOUS
 10
-0.259657
 20
-1.612280
  0
VERTEX
  8
PLAN_1
  6
CONTINUOUS
 10
-0.245579
 20
-1.612280
  0
SEQEND
  8
0
  0
POLYLINE
  8
PLAN_1
  6
CONTINUOUS
 66
     1
 40
0.008118
 41
0.008118
  0
VERTEX
  8
PLAN_1
  6
CONTINUOUS
 10
0.082496
 20
0.377295
  0
VERTEX
  8
PLAN_1
  6
CONTINUOUS
 10
-1.135610
 20
0.377295
  0
VERTEX
  8
PLAN_1
  6
CONTINUOUS
 10
-1.135610
 20
-0.720087
  0
VERTEX
  8
PLAN_1
  6
CONTINUOUS
 10
0.082496
 20
-0.720087
  0
VERTEX
  8
PLAN_1
  6
CONTINUOUS
 10
0.082496
 20
0.377295
  0
SEQEND
  8
0
  0
POLYLINE
  8
PLAN_1
  6
CONTINUOUS
 66
     1
 40
0.007035
 41
0.007035
  0
VERTEX
  8
PLAN_1
  6
CONTINUOUS
 10
-0.829189
 20
0.309622
  0
VERTEX
  8
PLAN_1
  6
CONTINUOUS
 10
-0.829189
 20
0.241949
  0
VERTEX
  8
PLAN_1
  6
CONTINUOUS
 10
-1.135610
 20
0.241949
  0
VERTEX
  8
PLAN_1
  6
CONTINUOUS
 10
-1.135610
 20
0.309622
  0
VERTEX
  8
PLAN_1
  6
CONTINUOUS
 10
-0.829189
 20
0.309622
  0
SEQEND
  8
0
  0
POLYLINE
  8
PLAN_1
  6
CONTINUOUS
 66
     1
 40
0.007035
 41
0.007035
  0
VERTEX
  8
PLAN_1
  6
CONTINUOUS
 10
-0.956413
 20
0.283634
  0
VERTEX
  8
PLAN_1
  6
CONTINUOUS
 10
-0.956413
 20
0.309622
  0
VERTEX
  8
PLAN_1
  6
CONTINUOUS
 10
-1.010012
 20
0.309622
  0
VERTEX
  8
PLAN_1
  6
CONTINUOUS
 10
-1.010012
 20
0.283634
  0
VERTEX
  8
PLAN_1
  6
CONTINUOUS
 10
-0.956413
 20
0.283634
  0
SEQEND
  8
0
  0
POLYLINE
  8
PLAN_1
  6
CONTINUOUS
 66
     1
 40
0.007035
 41
0.007035
  0
VERTEX
  8
PLAN_1
  6
CONTINUOUS
 10
0.082496
 20
0.309622
  0
VERTEX
  8
PLAN_1
  6
CONTINUOUS
 10
0.082496
 20
0.241949
  0
VERTEX
  8
PLAN_1
  6
CONTINUOUS
 10
-0.223925
 20
0.241949
  0
VERTEX
  8
PLAN_1
  6
CONTINUOUS
 10
-0.223925
 20
0.309622
  0
VERTEX
  8
PLAN_1
  6
CONTINUOUS
 10
0.082496
 20
0.309622
  0
SEQEND
  8
0
  0
POLYLINE
  8
PLAN_1
  6
CONTINUOUS
 66
     1
 40
0.007035
 41
0.007035
  0
VERTEX
  8
PLAN_1
  6
CONTINUOUS
 10
-0.045268
 20
0.283634
  0
VERTEX
  8
PLAN_1
  6
CONTINUOUS
 10
-0.045268
 20
0.309622
  0
VERTEX
  8
PLAN_1
  6
CONTINUOUS
 10
-0.098866
 20
0.309622
  0
VERTEX
  8
PLAN_1
  6
CONTINUOUS
 10
-0.098866
 20
0.283634
  0
VERTEX
  8
PLAN_1
  6
CONTINUOUS
 10
-0.045268
 20
0.283634
  0
SEQEND
  8
0
  0
POLYLINE
  8
PLAN_1
  6
CONTINUOUS
 66
     1
 40
0.004331
 41
0.004331
  0
VERTEX
  8
PLAN_1
  6
CONTINUOUS
 10
-1.134528
 20
-1.473146
  0
VERTEX
  8
PLAN_1
  6
CONTINUOUS
 10
-1.134528
 20
-0.721709
  0
VERTEX
  8
PLAN_1
  6
CONTINUOUS
 10
0.079248
 20
-0.721169
  0
VERTEX
  8
PLAN_1
  6
CONTINUOUS
 10
0.079248
 20
-1.471524
  0
SEQEND
  8
0
  0
POLYLINE
  8
PLAN_1
  6
CONTINUOUS
 66
     1
 40
0.008118
 41
0.008118
  0
VERTEX
  8
PLAN_1
  6
CONTINUOUS
 10
-1.417130
 20
-0.589071
  0
VERTEX
  8
PLAN_1
  6
CONTINUOUS
 10
-1.417130
 20
0.260898
  0
VERTEX
  8
PLAN_1
  6
CONTINUOUS
 10
-1.133445
 20
0.308539
  0
VERTEX
  8
PLAN_1
  6
CONTINUOUS
 10
-1.133445
 20
-0.622094
  0
VERTEX
  8
PLAN_1
  6
CONTINUOUS
 10
-1.417130
 20
-0.589071
  0
SEQEND
  8
0
  0
POLYLINE
  8
PLAN_1
  6
CONTINUOUS
 66
     1
 40
0.008118
 41
0.008118
  0
VERTEX
  8
PLAN_1
  6
CONTINUOUS
 10
-1.787976
 20
-0.425031
  0
VERTEX
  8
PLAN_1
  6
CONTINUOUS
 10
-1.787976
 20
0.080075
  0
VERTEX
  8
PLAN_1
  6
CONTINUOUS
 10
-1.907618
 20
0.080075
  0
VERTEX
  8
PLAN_1
  6
CONTINUOUS
 10
-1.907618
 20
-0.425031
  0
VERTEX
  8
PLAN_1
  6
CONTINUOUS
 10
-1.787976
 20
-0.425031
  0
SEQEND
  8
0
  0
POLYLINE
  8
PLAN_1
  6
CONTINUOUS
 66
     1
 40
0.004331
 41
0.004331
  0
VERTEX
  8
PLAN_1
  6
CONTINUOUS
 10
-1.893004
 20
0.079535
  0
VERTEX
  8
PLAN_1
  6
CONTINUOUS
 10
-1.894626
 20
0.076827
  0
VERTEX
  8
PLAN_1
  6
CONTINUOUS
 10
-1.897874
 20
0.068709
  0
VERTEX
  8
PLAN_1
  6
CONTINUOUS
 10
-1.900039
 20
0.062752
  0
VERTEX
  8
PLAN_1
  6
CONTINUOUS
 10
-1.902205
 20
0.055713
  0
VERTEX
  8
PLAN_1
  6
CONTINUOUS
 10
-1.903831
 20
0.047594
  0
VERTEX
  8
PLAN_1
  6
CONTINUOUS
 10
-1.905453
 20
0.038929
  0
VERTEX
  8
PLAN_1
  6
CONTINUOUS
 10
-1.907079
 20
0.029728
  0
VERTEX
  8
PLAN_1
  6
CONTINUOUS
 10
-1.907618
 20
0.019441
  0
VERTEX
  8
PLAN_1
  6
CONTINUOUS
 10
-1.907618
 20
0.008614
  0
VERTEX
  8
PLAN_1
  6
CONTINUOUS
 10
-1.906535
 20
-0.002213
  0
VERTEX
  8
PLAN_1
  6
CONTINUOUS
 10
-1.905453
 20
-0.008169
  0
VERTEX
  8
PLAN_1
  6
CONTINUOUS
 10
-1.904370
 20
-0.013583
  0
VERTEX
  8
PLAN_1
  6
CONTINUOUS
 10
-1.902748
 20
-0.019539
  0
VERTEX
  8
PLAN_1
  6
CONTINUOUS
 10
-1.901122
 20
-0.025492
  0
VERTEX
  8
PLAN_1
  6
CONTINUOUS
 10
-1.898957
 20
-0.031449
  0
VERTEX
  8
PLAN_1
  6
CONTINUOUS
 10
-1.896791
 20
-0.037406
  0
VERTEX
  8
PLAN_1
  6
CONTINUOUS
 10
-1.893543
 20
-0.043358
  0
VERTEX
  8
PLAN_1
  6
CONTINUOUS
 10
-1.890295
 20
-0.049315
  0
VERTEX
  8
PLAN_1
  6
CONTINUOUS
 10
-1.891921
 20
-0.053646
  0
VERTEX
  8
PLAN_1
  6
CONTINUOUS
 10
-1.895709
 20
-0.067181
  0
VERTEX
  8
PLAN_1
  6
CONTINUOUS
 10
-1.897874
 20
-0.076925
  0
VERTEX
  8
PLAN_1
  6
CONTINUOUS
 10
-1.900039
 20
-0.088295
  0
VERTEX
  8
PLAN_1
  6
CONTINUOUS
 10
-1.902748
 20
-0.101827
  0
VERTEX
  8
PLAN_1
  6
CONTINUOUS
 10
-1.904370
 20
-0.117528
  0
VERTEX
  8
PLAN_1
  6
CONTINUOUS
 10
-1.905996
 20
-0.134311
  0
VERTEX
  8
PLAN_1
  6
CONTINUOUS
 10
-1.907079
 20
-0.153260
  0
VERTEX
  8
PLAN_1
  6
CONTINUOUS
 10
-1.907618
 20
-0.173831
  0
VERTEX
  8
PLAN_1
  6
CONTINUOUS
 10
-1.907079
 20
-0.195488
  0
VERTEX
  8
PLAN_1
  6
CONTINUOUS
 10
-1.905996
 20
-0.218768
  0
VERTEX
  8
PLAN_1
  6
CONTINUOUS
 10
-1.903287
 20
-0.243130
  0
VERTEX
  8
PLAN_1
  6
CONTINUOUS
 10
-1.901122
 20
-0.256122
  0
VERTEX
  8
PLAN_1
  6
CONTINUOUS
 10
-1.898957
 20
-0.269114
  0
VERTEX
  8
PLAN_1
  6
CONTINUOUS
 10
-1.896791
 20
-0.282650
  0
VERTEX
  8
PLAN_1
  6
CONTINUOUS
 10
-1.893543
 20
-0.296185
  0
VERTEX
  8
PLAN_1
  6
CONTINUOUS
 10
-1.895169
 20
-0.299433
  0
VERTEX
  8
PLAN_1
  6
CONTINUOUS
 10
-1.898417
 20
-0.307551
  0
VERTEX
  8
PLAN_1
  6
CONTINUOUS
 10
-1.900583
 20
-0.312969
  0
VERTEX
  8
PLAN_1
  6
CONTINUOUS
 10
-1.902748
 20
-0.320004
  0
VERTEX
  8
PLAN_1
  6
CONTINUOUS
 10
-1.904370
 20
-0.327583
  0
VERTEX
  8
PLAN_1
  6
CONTINUOUS
 10
-1.905996
 20
-0.336248
  0
VERTEX
  8
PLAN_1
  6
CONTINUOUS
 10
-1.907618
 20
-0.345449
  0
VERTEX
  8
PLAN_1
  6
CONTINUOUS
 10
-1.908161
 20
-0.355193
  0
VERTEX
  8
PLAN_1
  6
CONTINUOUS
 10
-1.908161
 20
-0.366024
  0
VERTEX
  8
PLAN_1
  6
CONTINUOUS
 10
-1.907079
 20
-0.376850
  0
VERTEX
  8
PLAN_1
  6
CONTINUOUS
 10
-1.905996
 20
-0.382264
  0
VERTEX
  8
PLAN_1
  6
CONTINUOUS
 10
-1.904913
 20
-0.388220
  0
VERTEX
  8
PLAN_1
  6
CONTINUOUS
 10
-1.903287
 20
-0.394173
  0
VERTEX
  8
PLAN_1
  6
CONTINUOUS
 10
-1.901665
 20
-0.399587
  0
VERTEX
  8
PLAN_1
  6
CONTINUOUS
 10
-1.899500
 20
-0.405543
  0
VERTEX
  8
PLAN_1
  6
CONTINUOUS
 10
-1.897335
 20
-0.411500
  0
VERTEX
  8
PLAN_1
  6
CONTINUOUS
 10
-1.894087
 20
-0.417453
  0
VERTEX
  8
PLAN_1
  6
CONTINUOUS
 10
-1.890839
 20
-0.423409
  0
SEQEND
  8
0
  0
POLYLINE
  8
PLAN_1
  6
CONTINUOUS
 66
     1
 40
0.004331
 41
0.004331
  0
VERTEX
  8
PLAN_1
  6
CONTINUOUS
 10
-2.031055
 20
-0.030906
  0
VERTEX
  8
PLAN_1
  6
CONTINUOUS
 10
-2.031055
 20
-0.317299
  0
SEQEND
  8
0
  0
POLYLINE
  8
PLAN_1
  6
CONTINUOUS
 66
     1
 40
0.008118
 41
0.008118
  0
VERTEX
  8
PLAN_1
  6
CONTINUOUS
 10
-1.618524
 20
-0.670280
  0
VERTEX
  8
PLAN_1
  6
CONTINUOUS
 10
-1.540563
 20
-0.671362
  0
VERTEX
  8
PLAN_1
  6
CONTINUOUS
 10
-1.541646
 20
0.323697
  0
SEQEND
  8
0
  0
POLYLINE
  8
PLAN_1
  6
CONTINUOUS
 66
     1
 40
0.008118
 41
0.008118
  0
VERTEX
  8
PLAN_1
  6
CONTINUOUS
 10
-1.541646
 20
0.323697
  0
VERTEX
  8
PLAN_1
  6
CONTINUOUS
 10
-1.547059
 20
0.323697
  0
VERTEX
  8
PLAN_1
  6
CONTINUOUS
 10
-1.556803
 20
0.323697
  0
VERTEX
  8
PLAN_1
  6
CONTINUOUS
 10
-1.569799
 20
0.323697
  0
VERTEX
  8
PLAN_1
  6
CONTINUOUS
 10
-1.583335
 20
0.323697
  0
VERTEX
  8
PLAN_1
  6
CONTINUOUS
 10
-1.597409
 20
0.323697
  0
VERTEX
  8
PLAN_1
  6
CONTINUOUS
 10
-1.608780
 20
0.323697
  0
VERTEX
  8
PLAN_1
  6
CONTINUOUS
 10
-1.616898
 20
0.323697
  0
VERTEX
  8
PLAN_1
  6
CONTINUOUS
 10
-1.620146
 20
0.323697
  0
SEQEND
  8
0
  0
POLYLINE
  8
PLAN_1
  6
CONTINUOUS
 66
     1
 40
0.008118
 41
0.008118
  0
VERTEX
  8
PLAN_1
  6
CONTINUOUS
 10
-1.620146
 20
0.323697
  0
VERTEX
  8
PLAN_1
  6
CONTINUOUS
 10
-1.620146
 20
-0.671362
  0
SEQEND
  8
0
  0
POLYLINE
  8
PLAN_1
  6
CONTINUOUS
 66
     1
 40
0.008118
 41
0.008118
  0
VERTEX
  8
PLAN_1
  6
CONTINUOUS
 10
-1.417130
 20
-0.564169
  0
VERTEX
  8
PLAN_1
  6
CONTINUOUS
 10
-1.417130
 20
0.215961
  0
VERTEX
  8
PLAN_1
  6
CONTINUOUS
 10
-1.540563
 20
0.215961
  0
VERTEX
  8
PLAN_1
  6
CONTINUOUS
 10
-1.540563
 20
-0.564169
  0
VERTEX
  8
PLAN_1
  6
CONTINUOUS
 10
-1.417130
 20
-0.564169
  0
SEQEND
  8
0
  0
POLYLINE
  8
PLAN_1
  6
CONTINUOUS
 66
     1
 40
0.008118
 41
0.008118
  0
VERTEX
  8
PLAN_1
  6
CONTINUOUS
 10
-1.787433
 20
-0.579866
  0
VERTEX
  8
PLAN_1
  6
CONTINUOUS
 10
-1.787433
 20
0.231661
  0
VERTEX
  8
PLAN_1
  6
CONTINUOUS
 10
-1.699728
 20
0.231661
  0
VERTEX
  8
PLAN_1
  6
CONTINUOUS
 10
-1.699728
 20
-0.579866
  0
VERTEX
  8
PLAN_1
  6
CONTINUOUS
 10
-1.787433
 20
-0.579866
  0
SEQEND
  8
0
  0
POLYLINE
  8
PLAN_1
  6
CONTINUOUS
 66
     1
 40
0.008118
 41
0.008118
  0
VERTEX
  8
PLAN_1
  6
CONTINUOUS
 10
-1.629890
 20
0.358346
  0
VERTEX
  8
PLAN_1
  6
CONTINUOUS
 10
-1.633138
 20
0.365382
  0
VERTEX
  8
PLAN_1
  6
CONTINUOUS
 10
-1.637472
 20
0.371882
  0
VERTEX
  8
PLAN_1
  6
CONTINUOUS
 10
-1.642343
 20
0.378378
  0
VERTEX
  8
PLAN_1
  6
CONTINUOUS
 10
-1.647217
 20
0.384874
  0
VERTEX
  8
PLAN_1
  6
CONTINUOUS
 10
-1.652630
 20
0.390827
  0
VERTEX
  8
PLAN_1
  6
CONTINUOUS
 10
-1.658587
 20
0.396783
  0
VERTEX
  8
PLAN_1
  6
CONTINUOUS
 10
-1.665083
 20
0.402197
  0
VERTEX
  8
PLAN_1
  6
CONTINUOUS
 10
-1.671579
 20
0.407071
  0
VERTEX
  8
PLAN_1
  6
CONTINUOUS
 10
-1.679157
 20
0.411941
  0
VERTEX
  8
PLAN_1
  6
CONTINUOUS
 10
-1.686736
 20
0.416272
  0
VERTEX
  8
PLAN_1
  6
CONTINUOUS
 10
-1.694858
 20
0.420063
  0
VERTEX
  8
PLAN_1
  6
CONTINUOUS
 10
-1.703520
 20
0.422772
  0
VERTEX
  8
PLAN_1
  6
CONTINUOUS
 10
-1.712181
 20
0.425476
  0
VERTEX
  8
PLAN_1
  6
CONTINUOUS
 10
-1.721925
 20
0.427102
  0
VERTEX
  8
PLAN_1
  6
CONTINUOUS
 10
-1.731669
 20
0.428724
  0
VERTEX
  8
PLAN_1
  6
CONTINUOUS
 10
-1.741957
 20
0.428724
  0
SEQEND
  8
0
  0
POLYLINE
  8
PLAN_1
  6
CONTINUOUS
 66
     1
 40
0.008118
 41
0.008118
  0
VERTEX
  8
PLAN_1
  6
CONTINUOUS
 10
-1.741957
 20
0.428724
  0
VERTEX
  8
PLAN_1
  6
CONTINUOUS
 10
-2.130669
 20
0.428724
  0
VERTEX
  8
PLAN_1
  6
CONTINUOUS
 10
-2.130669
 20
0.356181
  0
VERTEX
  8
PLAN_1
  6
CONTINUOUS
 10
-1.890839
 20
0.356181
  0
VERTEX
  8
PLAN_1
  6
CONTINUOUS
 10
-1.768484
 20
0.356181
  0
SEQEND
  8
0
  0
POLYLINE
  8
PLAN_1
  6
CONTINUOUS
 66
     1
 40
0.008118
 41
0.008118
  0
VERTEX
  8
PLAN_1
  6
CONTINUOUS
 10
-1.768484
 20
0.356181
  0
VERTEX
  8
PLAN_1
  6
CONTINUOUS
 10
-1.761988
 20
0.356181
  0
VERTEX
  8
PLAN_1
  6
CONTINUOUS
 10
-1.754949
 20
0.355098
  0
VERTEX
  8
PLAN_1
  6
CONTINUOUS
 10
-1.748996
 20
0.354555
  0
VERTEX
  8
PLAN_1
  6
CONTINUOUS
 10
-1.743583
 20
0.352933
  0
VERTEX
  8
PLAN_1
  6
CONTINUOUS
 10
-1.738169
 20
0.351307
  0
VERTEX
  8
PLAN_1
  6
CONTINUOUS
 10
-1.733839
 20
0.349142
  0
VERTEX
  8
PLAN_1
  6
CONTINUOUS
 10
-1.728965
 20
0.346976
  0
VERTEX
  8
PLAN_1
  6
CONTINUOUS
 10
-1.725173
 20
0.344272
  0
VERTEX
  8
PLAN_1
  6
CONTINUOUS
 10
-1.721386
 20
0.341563
  0
VERTEX
  8
PLAN_1
  6
CONTINUOUS
 10
-1.718138
 20
0.338315
  0
VERTEX
  8
PLAN_1
  6
CONTINUOUS
 10
-1.715429
 20
0.335067
  0
VERTEX
  8
PLAN_1
  6
CONTINUOUS
 10
-1.712724
 20
0.331819
  0
VERTEX
  8
PLAN_1
  6
CONTINUOUS
 10
-1.708390
 20
0.324780
  0
VERTEX
  8
PLAN_1
  6
CONTINUOUS
 10
-1.705142
 20
0.317744
  0
VERTEX
  8
PLAN_1
  6
CONTINUOUS
 10
-1.702437
 20
0.310705
  0
VERTEX
  8
PLAN_1
  6
CONTINUOUS
 10
-1.700811
 20
0.303665
  0
VERTEX
  8
PLAN_1
  6
CONTINUOUS
 10
-1.699728
 20
0.297169
  0
VERTEX
  8
PLAN_1
  6
CONTINUOUS
 10
-1.699189
 20
0.291756
  0
VERTEX
  8
PLAN_1
  6
CONTINUOUS
 10
-1.698646
 20
0.283094
  0
VERTEX
  8
PLAN_1
  6
CONTINUOUS
 10
-1.699189
 20
0.279846
  0
SEQEND
  8
0
  0
POLYLINE
  8
PLAN_1
  6
CONTINUOUS
 66
     1
 40
0.008118
 41
0.008118
  0
VERTEX
  8
PLAN_1
  6
CONTINUOUS
 10
-1.699189
 20
0.279846
  0
VERTEX
  8
PLAN_1
  6
CONTINUOUS
 10
-1.699189
 20
-0.909028
  0
VERTEX
  8
PLAN_1
  6
CONTINUOUS
 10
-1.619606
 20
-0.909028
  0
VERTEX
  8
PLAN_1
  6
CONTINUOUS
 10
-1.619606
 20
0.279846
  0
SEQEND
  8
0
  0
POLYLINE
  8
PLAN_1
  6
CONTINUOUS
 66
     1
 40
0.008118
 41
0.008118
  0
VERTEX
  8
PLAN_1
  6
CONTINUOUS
 10
-1.619606
 20
0.279846
  0
VERTEX
  8
PLAN_1
  6
CONTINUOUS
 10
-1.619606
 20
0.282012
  0
VERTEX
  8
PLAN_1
  6
CONTINUOUS
 10
-1.620146
 20
0.289591
  0
VERTEX
  8
PLAN_1
  6
CONTINUOUS
 10
-1.621228
 20
0.299878
  0
VERTEX
  8
PLAN_1
  6
CONTINUOUS
 10
-1.622311
 20
0.312327
  0
VERTEX
  8
PLAN_1
  6
CONTINUOUS
 10
-1.623937
 20
0.325862
  0
VERTEX
  8
PLAN_1
  6
CONTINUOUS
 10
-1.625559
 20
0.338315
  0
VERTEX
  8
PLAN_1
  6
CONTINUOUS
 10
-1.627724
 20
0.349685
  0
VERTEX
  8
PLAN_1
  6
CONTINUOUS
 10
-1.629890
 20
0.358346
  0
SEQEND
  8
0
  0
POLYLINE
  8
PLAN_1
  6
CONTINUOUS
 66
     1
 40
0.007035
 41
0.007035
  0
VERTEX
  8
PLAN_1
  6
CONTINUOUS
 10
-1.944976
 20
0.284717
  0
VERTEX
  8
PLAN_1
  6
CONTINUOUS
 10
-2.078154
 20
0.284717
  0
VERTEX
  8
PLAN_1
  6
CONTINUOUS
 10
-2.078154
 20
0.355098
  0
VERTEX
  8
PLAN_1
  6
CONTINUOUS
 10
-1.756575
 20
0.355098
  0
VERTEX
  8
PLAN_1
  6
CONTINUOUS
 10
-1.756575
 20
0.284717
  0
VERTEX
  8
PLAN_1
  6
CONTINUOUS
 10
-1.889213
 20
0.284717
  0
SEQEND
  8
0
  0
POLYLINE
  8
PLAN_1
  6
CONTINUOUS
 66
     1
 40
0.007035
 41
0.007035
  0
VERTEX
  8
PLAN_1
  6
CONTINUOUS
 10
-1.889213
 20
0.284717
  0
VERTEX
  8
PLAN_1
  6
CONTINUOUS
 10
-1.889213
 20
0.285799
  0
VERTEX
  8
PLAN_1
  6
CONTINUOUS
 10
-1.889213
 20
0.289047
  0
VERTEX
  8
PLAN_1
  6
CONTINUOUS
 10
-1.889213
 20
0.293382
  0
VERTEX
  8
PLAN_1
  6
CONTINUOUS
 10
-1.889213
 20
0.298252
  0
VERTEX
  8
PLAN_1
  6
CONTINUOUS
 10
-1.889213
 20
0.303126
  0
VERTEX
  8
PLAN_1
  6
CONTINUOUS
 10
-1.889213
 20
0.307457
  0
VERTEX
  8
PLAN_1
  6
CONTINUOUS
 10
-1.889213
 20
0.311244
  0
VERTEX
  8
PLAN_1
  6
CONTINUOUS
 10
-1.889213
 20
0.312327
  0
VERTEX
  8
PLAN_1
  6
CONTINUOUS
 10
-1.891378
 20
0.312870
  0
VERTEX
  8
PLAN_1
  6
CONTINUOUS
 10
-1.897874
 20
0.312870
  0
VERTEX
  8
PLAN_1
  6
CONTINUOUS
 10
-1.906535
 20
0.312870
  0
VERTEX
  8
PLAN_1
  6
CONTINUOUS
 10
-1.916823
 20
0.312870
  0
VERTEX
  8
PLAN_1
  6
CONTINUOUS
 10
-1.927110
 20
0.312870
  0
VERTEX
  8
PLAN_1
  6
CONTINUOUS
 10
-1.936315
 20
0.312870
  0
VERTEX
  8
PLAN_1
  6
CONTINUOUS
 10
-1.942268
 20
0.312327
  0
VERTEX
  8
PLAN_1
  6
CONTINUOUS
 10
-1.944976
 20
0.312327
  0
SEQEND
  8
0
  0
POLYLINE
  8
PLAN_1
  6
CONTINUOUS
 66
     1
 40
0.007035
 41
0.007035
  0
VERTEX
  8
PLAN_1
  6
CONTINUOUS
 10
-1.944976
 20
0.312327
  0
VERTEX
  8
PLAN_1
  6
CONTINUOUS
 10
-1.944976
 20
0.284717
  0
SEQEND
  8
0
  0
POLYLINE
  8
PLAN_1
  6
CONTINUOUS
 66
     1
 40
0.007035
 41
0.007035
  0
VERTEX
  8
PLAN_1
  6
CONTINUOUS
 10
-1.748453
 20
1.119528
  0
VERTEX
  8
PLAN_1
  6
CONTINUOUS
 10
-1.742500
 20
1.124402
  0
VERTEX
  8
PLAN_1
  6
CONTINUOUS
 10
-1.738709
 20
1.129815
  0
VERTEX
  8
PLAN_1
  6
CONTINUOUS
 10
-1.735461
 20
1.134685
  0
VERTEX
  8
PLAN_1
  6
CONTINUOUS
 10
-1.733839
 20
1.139559
  0
VERTEX
  8
PLAN_1
  6
CONTINUOUS
 10
-1.733295
 20
1.143890
  0
VERTEX
  8
PLAN_1
  6
CONTINUOUS
 10
-1.733295
 20
1.148764
  0
VERTEX
  8
PLAN_1
  6
CONTINUOUS
 10
-1.734378
 20
1.152551
  0
VERTEX
  8
PLAN_1
  6
CONTINUOUS
 10
-1.735461
 20
1.156882
  0
VERTEX
  8
PLAN_1
  6
CONTINUOUS
 10
-1.737087
 20
1.160130
  0
VERTEX
  8
PLAN_1
  6
CONTINUOUS
 10
-1.739252
 20
1.163378
  0
VERTEX
  8
PLAN_1
  6
CONTINUOUS
 10
-1.741417
 20
1.166087
  0
VERTEX
  8
PLAN_1
  6
CONTINUOUS
 10
-1.743583
 20
1.168791
  0
VERTEX
  8
PLAN_1
  6
CONTINUOUS
 10
-1.746831
 20
1.172043
  0
VERTEX
  8
PLAN_1
  6
CONTINUOUS
 10
-1.748453
 20
1.173126
  0
SEQEND
  8
0
  0
POLYLINE
  8
PLAN_1
  6
CONTINUOUS
 66
     1
 40
0.007035
 41
0.007035
  0
VERTEX
  8
PLAN_1
  6
CONTINUOUS
 10
-1.748453
 20
1.173126
  0
VERTEX
  8
PLAN_1
  6
CONTINUOUS
 10
-2.078697
 20
1.173126
  0
SEQEND
  8
0
  0
POLYLINE
  8
PLAN_1
  6
CONTINUOUS
 66
     1
 40
0.007035
 41
0.007035
  0
VERTEX
  8
PLAN_1
  6
CONTINUOUS
 10
-2.078697
 20
1.173126
  0
VERTEX
  8
PLAN_1
  6
CONTINUOUS
 10
-2.079780
 20
1.172043
  0
VERTEX
  8
PLAN_1
  6
CONTINUOUS
 10
-2.082484
 20
1.168791
  0
VERTEX
  8
PLAN_1
  6
CONTINUOUS
 10
-2.084650
 20
1.166626
  0
VERTEX
  8
PLAN_1
  6
CONTINUOUS
 10
-2.086276
 20
1.163921
  0
VERTEX
  8
PLAN_1
  6
CONTINUOUS
 10
-2.087902
 20
1.160673
  0
VERTEX
  8
PLAN_1
  6
CONTINUOUS
 10
-2.089524
 20
1.157425
  0
VERTEX
  8
PLAN_1
  6
CONTINUOUS
 10
-2.091150
 20
1.153634
  0
VERTEX
  8
PLAN_1
  6
CONTINUOUS
 10
-2.091689
 20
1.149303
  0
VERTEX
  8
PLAN_1
  6
CONTINUOUS
 10
-2.091689
 20
1.144972
  0
VERTEX
  8
PLAN_1
  6
CONTINUOUS
 10
-2.091150
 20
1.140098
  0
VERTEX
  8
PLAN_1
  6
CONTINUOUS
 10
-2.089524
 20
1.135228
  0
VERTEX
  8
PLAN_1
  6
CONTINUOUS
 10
-2.086819
 20
1.130354
  0
VERTEX
  8
PLAN_1
  6
CONTINUOUS
 10
-2.083567
 20
1.124941
  0
VERTEX
  8
PLAN_1
  6
CONTINUOUS
 10
-2.078697
 20
1.119528
  0
SEQEND
  8
0
  0
POLYLINE
  8
PLAN_1
  6
CONTINUOUS
 66
     1
 40
0.007035
 41
0.007035
  0
VERTEX
  8
PLAN_1
  6
CONTINUOUS
 10
-2.078697
 20
1.119528
  0
VERTEX
  8
PLAN_1
  6
CONTINUOUS
 10
-1.748453
 20
1.119528
  0
SEQEND
  8
0
  0
POLYLINE
  8
PLAN_1
  6
CONTINUOUS
 66
     1
 40
0.007035
 41
0.007035
  0
VERTEX
  8
PLAN_1
  6
CONTINUOUS
 10
-1.747913
 20
1.065929
  0
VERTEX
  8
PLAN_1
  6
CONTINUOUS
 10
-1.741957
 20
1.071346
  0
VERTEX
  8
PLAN_1
  6
CONTINUOUS
 10
-1.738169
 20
1.076217
  0
VERTEX
  8
PLAN_1
  6
CONTINUOUS
 10
-1.734921
 20
1.081630
  0
VERTEX
  8
PLAN_1
  6
CONTINUOUS
 10
-1.733295
 20
1.086504
  0
VERTEX
  8
PLAN_1
  6
CONTINUOUS
 10
-1.732752
 20
1.090835
  0
VERTEX
  8
PLAN_1
  6
CONTINUOUS
 10
-1.732752
 20
1.095165
  0
VERTEX
  8
PLAN_1
  6
CONTINUOUS
 10
-1.733839
 20
1.099496
  0
VERTEX
  8
PLAN_1
  6
CONTINUOUS
 10
-1.734921
 20
1.103287
  0
VERTEX
  8
PLAN_1
  6
CONTINUOUS
 10
-1.736543
 20
1.107075
  0
VERTEX
  8
PLAN_1
  6
CONTINUOUS
 10
-1.738709
 20
1.110323
  0
VERTEX
  8
PLAN_1
  6
CONTINUOUS
 10
-1.740874
 20
1.113031
  0
VERTEX
  8
PLAN_1
  6
CONTINUOUS
 10
-1.743039
 20
1.115197
  0
VERTEX
  8
PLAN_1
  6
CONTINUOUS
 10
-1.746287
 20
1.118445
  0
VERTEX
  8
PLAN_1
  6
CONTINUOUS
 10
-1.747913
 20
1.120071
  0
SEQEND
  8
0
  0
POLYLINE
  8
PLAN_1
  6
CONTINUOUS
 66
     1
 40
0.007035
 41
0.007035
  0
VERTEX
  8
PLAN_1
  6
CONTINUOUS
 10
-1.747913
 20
1.120071
  0
VERTEX
  8
PLAN_1
  6
CONTINUOUS
 10
-2.078154
 20
1.120071
  0
SEQEND
  8
0
  0
POLYLINE
  8
PLAN_1
  6
CONTINUOUS
 66
     1
 40
0.007035
 41
0.007035
  0
VERTEX
  8
PLAN_1
  6
CONTINUOUS
 10
-2.078154
 20
1.120071
  0
VERTEX
  8
PLAN_1
  6
CONTINUOUS
 10
-2.079236
 20
1.118984
  0
VERTEX
  8
PLAN_1
  6
CONTINUOUS
 10
-2.081945
 20
1.115736
  0
VERTEX
  8
PLAN_1
  6
CONTINUOUS
 10
-2.084110
 20
1.113571
  0
VERTEX
  8
PLAN_1
  6
CONTINUOUS
 10
-2.085736
 20
1.110866
  0
VERTEX
  8
PLAN_1
  6
CONTINUOUS
 10
-2.087358
 20
1.107618
  0
VERTEX
  8
PLAN_1
  6
CONTINUOUS
 10
-2.088984
 20
1.104370
  0
VERTEX
  8
PLAN_1
  6
CONTINUOUS
 10
-2.090606
 20
1.100579
  0
VERTEX
  8
PLAN_1
  6
CONTINUOUS
 10
-2.091150
 20
1.096248
  0
VERTEX
  8
PLAN_1
  6
CONTINUOUS
 10
-2.091150
 20
1.091917
  0
VERTEX
  8
PLAN_1
  6
CONTINUOUS
 10
-2.090606
 20
1.087043
  0
VERTEX
  8
PLAN_1
  6
CONTINUOUS
 10
-2.088984
 20
1.082173
  0
VERTEX
  8
PLAN_1
  6
CONTINUOUS
 10
-2.086819
 20
1.076760
  0
VERTEX
  8
PLAN_1
  6
CONTINUOUS
 10
-2.083028
 20
1.071886
  0
VERTEX
  8
PLAN_1
  6
CONTINUOUS
 10
-2.078154
 20
1.065929
  0
SEQEND
  8
0
  0
POLYLINE
  8
PLAN_1
  6
CONTINUOUS
 66
     1
 40
0.007035
 41
0.007035
  0
VERTEX
  8
PLAN_1
  6
CONTINUOUS
 10
-2.078154
 20
1.065929
  0
VERTEX
  8
PLAN_1
  6
CONTINUOUS
 10
-1.747913
 20
1.065929
  0
SEQEND
  8
0
  0
POLYLINE
  8
PLAN_1
  6
CONTINUOUS
 66
     1
 40
0.007035
 41
0.007035
  0
VERTEX
  8
PLAN_1
  6
CONTINUOUS
 10
-1.747913
 20
1.012335
  0
VERTEX
  8
PLAN_1
  6
CONTINUOUS
 10
-1.742500
 20
1.017205
  0
VERTEX
  8
PLAN_1
  6
CONTINUOUS
 10
-1.738169
 20
1.022622
  0
VERTEX
  8
PLAN_1
  6
CONTINUOUS
 10
-1.735461
 20
1.027492
  0
VERTEX
  8
PLAN_1
  6
CONTINUOUS
 10
-1.733839
 20
1.032366
  0
VERTEX
  8
PLAN_1
  6
CONTINUOUS
 10
-1.732752
 20
1.036697
  0
VERTEX
  8
PLAN_1
  6
CONTINUOUS
 10
-1.733295
 20
1.041567
  0
VERTEX
  8
PLAN_1
  6
CONTINUOUS
 10
-1.733839
 20
1.045358
  0
VERTEX
  8
PLAN_1
  6
CONTINUOUS
 10
-1.735461
 20
1.049689
  0
VERTEX
  8
PLAN_1
  6
CONTINUOUS
 10
-1.737087
 20
1.052937
  0
VERTEX
  8
PLAN_1
  6
CONTINUOUS
 10
-1.739252
 20
1.056185
  0
VERTEX
  8
PLAN_1
  6
CONTINUOUS
 10
-1.741417
 20
1.058894
  0
VERTEX
  8
PLAN_1
  6
CONTINUOUS
 10
-1.743039
 20
1.061598
  0
VERTEX
  8
PLAN_1
  6
CONTINUOUS
 10
-1.746831
 20
1.064846
  0
VERTEX
  8
PLAN_1
  6
CONTINUOUS
 10
-1.747913
 20
1.065929
  0
SEQEND
  8
0
  0
POLYLINE
  8
PLAN_1
  6
CONTINUOUS
 66
     1
 40
0.007035
 41
0.007035
  0
VERTEX
  8
PLAN_1
  6
CONTINUOUS
 10
-1.747913
 20
1.065929
  0
VERTEX
  8
PLAN_1
  6
CONTINUOUS
 10
-2.078154
 20
1.065929
  0
SEQEND
  8
0
  0
POLYLINE
  8
PLAN_1
  6
CONTINUOUS
 66
     1
 40
0.007035
 41
0.007035
  0
VERTEX
  8
PLAN_1
  6
CONTINUOUS
 10
-2.078154
 20
1.065929
  0
VERTEX
  8
PLAN_1
  6
CONTINUOUS
 10
-2.079236
 20
1.064846
  0
VERTEX
  8
PLAN_1
  6
CONTINUOUS
 10
-2.082484
 20
1.061598
  0
VERTEX
  8
PLAN_1
  6
CONTINUOUS
 10
-2.084110
 20
1.059433
  0
VERTEX
  8
PLAN_1
  6
CONTINUOUS
 10
-2.086276
 20
1.056728
  0
VERTEX
  8
PLAN_1
  6
CONTINUOUS
 10
-2.087902
 20
1.053480
  0
VERTEX
  8
PLAN_1
  6
CONTINUOUS
 10
-2.089524
 20
1.050232
  0
VERTEX
  8
PLAN_1
  6
CONTINUOUS
 10
-2.090606
 20
1.046441
  0
VERTEX
  8
PLAN_1
  6
CONTINUOUS
 10
-2.091150
 20
1.042110
  0
VERTEX
  8
PLAN_1
  6
CONTINUOUS
 10
-2.091689
 20
1.037780
  0
VERTEX
  8
PLAN_1
  6
CONTINUOUS
 10
-2.090606
 20
1.032906
  0
VERTEX
  8
PLAN_1
  6
CONTINUOUS
 10
-2.089524
 20
1.028035
  0
VERTEX
  8
PLAN_1
  6
CONTINUOUS
 10
-2.086819
 20
1.023161
  0
VERTEX
  8
PLAN_1
  6
CONTINUOUS
 10
-2.083028
 20
1.017748
  0
VERTEX
  8
PLAN_1
  6
CONTINUOUS
 10
-2.078154
 20
1.012335
  0
SEQEND
  8
0
  0
POLYLINE
  8
PLAN_1
  6
CONTINUOUS
 66
     1
 40
0.007035
 41
0.007035
  0
VERTEX
  8
PLAN_1
  6
CONTINUOUS
 10
-2.078154
 20
1.012335
  0
VERTEX
  8
PLAN_1
  6
CONTINUOUS
 10
-1.747913
 20
1.012335
  0
SEQEND
  8
0
  0
POLYLINE
  8
PLAN_1
  6
CONTINUOUS
 66
     1
 40
0.007035
 41
0.007035
  0
VERTEX
  8
PLAN_1
  6
CONTINUOUS
 10
-1.747370
 20
0.958736
  0
VERTEX
  8
PLAN_1
  6
CONTINUOUS
 10
-1.741957
 20
0.964150
  0
VERTEX
  8
PLAN_1
  6
CONTINUOUS
 10
-1.737626
 20
0.969024
  0
VERTEX
  8
PLAN_1
  6
CONTINUOUS
 10
-1.734921
 20
0.974437
  0
VERTEX
  8
PLAN_1
  6
CONTINUOUS
 10
-1.733295
 20
0.979311
  0
VERTEX
  8
PLAN_1
  6
CONTINUOUS
 10
-1.732213
 20
0.983642
  0
VERTEX
  8
PLAN_1
  6
CONTINUOUS
 10
-1.732752
 20
0.987972
  0
VERTEX
  8
PLAN_1
  6
CONTINUOUS
 10
-1.733295
 20
0.992303
  0
VERTEX
  8
PLAN_1
  6
CONTINUOUS
 10
-1.734921
 20
0.996094
  0
VERTEX
  8
PLAN_1
  6
CONTINUOUS
 10
-1.736543
 20
0.999882
  0
VERTEX
  8
PLAN_1
  6
CONTINUOUS
 10
-1.738709
 20
1.003130
  0
VERTEX
  8
PLAN_1
  6
CONTINUOUS
 10
-1.740874
 20
1.005839
  0
VERTEX
  8
PLAN_1
  6
CONTINUOUS
 10
-1.742500
 20
1.008004
  0
VERTEX
  8
PLAN_1
  6
CONTINUOUS
 10
-1.746287
 20
1.011252
  0
VERTEX
  8
PLAN_1
  6
CONTINUOUS
 10
-1.747370
 20
1.012874
  0
SEQEND
  8
0
  0
POLYLINE
  8
PLAN_1
  6
CONTINUOUS
 66
     1
 40
0.007035
 41
0.007035
  0
VERTEX
  8
PLAN_1
  6
CONTINUOUS
 10
-1.747370
 20
1.012874
  0
VERTEX
  8
PLAN_1
  6
CONTINUOUS
 10
-2.077614
 20
1.012874
  0
SEQEND
  8
0
  0
POLYLINE
  8
PLAN_1
  6
CONTINUOUS
 66
     1
 40
0.007035
 41
0.007035
  0
VERTEX
  8
PLAN_1
  6
CONTINUOUS
 10
-2.077614
 20
1.012874
  0
VERTEX
  8
PLAN_1
  6
CONTINUOUS
 10
-2.079236
 20
1.011791
  0
VERTEX
  8
PLAN_1
  6
CONTINUOUS
 10
-2.081945
 20
1.008543
  0
VERTEX
  8
PLAN_1
  6
CONTINUOUS
 10
-2.083567
 20
1.006378
  0
VERTEX
  8
PLAN_1
  6
CONTINUOUS
 10
-2.085736
 20
1.003673
  0
VERTEX
  8
PLAN_1
  6
CONTINUOUS
 10
-2.087358
 20
1.000425
  0
VERTEX
  8
PLAN_1
  6
CONTINUOUS
 10
-2.088984
 20
0.997177
  0
VERTEX
  8
PLAN_1
  6
CONTINUOUS
 10
-2.090067
 20
0.993386
  0
VERTEX
  8
PLAN_1
  6
CONTINUOUS
 10
-2.090606
 20
0.989055
  0
VERTEX
  8
PLAN_1
  6
CONTINUOUS
 10
-2.091150
 20
0.984724
  0
VERTEX
  8
PLAN_1
  6
CONTINUOUS
 10
-2.090606
 20
0.979850
  0
VERTEX
  8
PLAN_1
  6
CONTINUOUS
 10
-2.088984
 20
0.974980
  0
VERTEX
  8
PLAN_1
  6
CONTINUOUS
 10
-2.086276
 20
0.969567
  0
VERTEX
  8
PLAN_1
  6
CONTINUOUS
 10
-2.082484
 20
0.964693
  0
VERTEX
  8
PLAN_1
  6
CONTINUOUS
 10
-2.077614
 20
0.958736
  0
SEQEND
  8
0
  0
POLYLINE
  8
PLAN_1
  6
CONTINUOUS
 66
     1
 40
0.007035
 41
0.007035
  0
VERTEX
  8
PLAN_1
  6
CONTINUOUS
 10
-2.077614
 20
0.958736
  0
VERTEX
  8
PLAN_1
  6
CONTINUOUS
 10
-1.747370
 20
0.958736
  0
SEQEND
  8
0
  0
POLYLINE
  8
PLAN_1
  6
CONTINUOUS
 66
     1
 40
0.007035
 41
0.007035
  0
VERTEX
  8
PLAN_1
  6
CONTINUOUS
 10
-1.747913
 20
0.905681
  0
VERTEX
  8
PLAN_1
  6
CONTINUOUS
 10
-1.742500
 20
0.911094
  0
VERTEX
  8
PLAN_1
  6
CONTINUOUS
 10
-1.738169
 20
0.915969
  0
VERTEX
  8
PLAN_1
  6
CONTINUOUS
 10
-1.735461
 20
0.920843
  0
VERTEX
  8
PLAN_1
  6
CONTINUOUS
 10
-1.733839
 20
0.925713
  0
VERTEX
  8
PLAN_1
  6
CONTINUOUS
 10
-1.732752
 20
0.930587
  0
VERTEX
  8
PLAN_1
  6
CONTINUOUS
 10
-1.733295
 20
0.934917
  0
VERTEX
  8
PLAN_1
  6
CONTINUOUS
 10
-1.733839
 20
0.939248
  0
VERTEX
  8
PLAN_1
  6
CONTINUOUS
 10
-1.735461
 20
0.943035
  0
VERTEX
  8
PLAN_1
  6
CONTINUOUS
 10
-1.737087
 20
0.946827
  0
VERTEX
  8
PLAN_1
  6
CONTINUOUS
 10
-1.739252
 20
0.949535
  0
VERTEX
  8
PLAN_1
  6
CONTINUOUS
 10
-1.741417
 20
0.952783
  0
VERTEX
  8
PLAN_1
  6
CONTINUOUS
 10
-1.743039
 20
0.954949
  0
VERTEX
  8
PLAN_1
  6
CONTINUOUS
 10
-1.746831
 20
0.958197
  0
VERTEX
  8
PLAN_1
  6
CONTINUOUS
 10
-1.747913
 20
0.959280
  0
SEQEND
  8
0
  0
POLYLINE
  8
PLAN_1
  6
CONTINUOUS
 66
     1
 40
0.007035
 41
0.007035
  0
VERTEX
  8
PLAN_1
  6
CONTINUOUS
 10
-1.747913
 20
0.959280
  0
VERTEX
  8
PLAN_1
  6
CONTINUOUS
 10
-2.078154
 20
0.959280
  0
SEQEND
  8
0
  0
POLYLINE
  8
PLAN_1
  6
CONTINUOUS
 66
     1
 40
0.007035
 41
0.007035
  0
VERTEX
  8
PLAN_1
  6
CONTINUOUS
 10
-2.078154
 20
0.959280
  0
VERTEX
  8
PLAN_1
  6
CONTINUOUS
 10
-2.079236
 20
0.958197
  0
VERTEX
  8
PLAN_1
  6
CONTINUOUS
 10
-2.082484
 20
0.955488
  0
VERTEX
  8
PLAN_1
  6
CONTINUOUS
 10
-2.084110
 20
0.952783
  0
VERTEX
  8
PLAN_1
  6
CONTINUOUS
 10
-2.086276
 20
0.950075
  0
VERTEX
  8
PLAN_1
  6
CONTINUOUS
 10
-2.087902
 20
0.947370
  0
VERTEX
  8
PLAN_1
  6
CONTINUOUS
 10
-2.089524
 20
0.943579
  0
VERTEX
  8
PLAN_1
  6
CONTINUOUS
 10
-2.090606
 20
0.939787
  0
VERTEX
  8
PLAN_1
  6
CONTINUOUS
 10
-2.091150
 20
0.936000
  0
VERTEX
  8
PLAN_1
  6
CONTINUOUS
 10
-2.091689
 20
0.931126
  0
VERTEX
  8
PLAN_1
  6
CONTINUOUS
 10
-2.090606
 20
0.926795
  0
VERTEX
  8
PLAN_1
  6
CONTINUOUS
 10
-2.089524
 20
0.921925
  0
VERTEX
  8
PLAN_1
  6
CONTINUOUS
 10
-2.086819
 20
0.916508
  0
VERTEX
  8
PLAN_1
  6
CONTINUOUS
 10
-2.083028
 20
0.911094
  0
VERTEX
  8
PLAN_1
  6
CONTINUOUS
 10
-2.078154
 20
0.905681
  0
SEQEND
  8
0
  0
POLYLINE
  8
PLAN_1
  6
CONTINUOUS
 66
     1
 40
0.007035
 41
0.007035
  0
VERTEX
  8
PLAN_1
  6
CONTINUOUS
 10
-2.078154
 20
0.905681
  0
VERTEX
  8
PLAN_1
  6
CONTINUOUS
 10
-1.747913
 20
0.905681
  0
SEQEND
  8
0
  0
POLYLINE
  8
PLAN_1
  6
CONTINUOUS
 66
     1
 40
0.007035
 41
0.007035
  0
VERTEX
  8
PLAN_1
  6
CONTINUOUS
 10
-1.747370
 20
0.852626
  0
VERTEX
  8
PLAN_1
  6
CONTINUOUS
 10
-1.741957
 20
0.857500
  0
VERTEX
  8
PLAN_1
  6
CONTINUOUS
 10
-1.737626
 20
0.862913
  0
VERTEX
  8
PLAN_1
  6
CONTINUOUS
 10
-1.734921
 20
0.867783
  0
VERTEX
  8
PLAN_1
  6
CONTINUOUS
 10
-1.733295
 20
0.872657
  0
VERTEX
  8
PLAN_1
  6
CONTINUOUS
 10
-1.732213
 20
0.877531
  0
VERTEX
  8
PLAN_1
  6
CONTINUOUS
 10
-1.732752
 20
0.881862
  0
VERTEX
  8
PLAN_1
  6
CONTINUOUS
 10
-1.733295
 20
0.885650
  0
VERTEX
  8
PLAN_1
  6
CONTINUOUS
 10
-1.734921
 20
0.889980
  0
VERTEX
  8
PLAN_1
  6
CONTINUOUS
 10
-1.736543
 20
0.893228
  0
VERTEX
  8
PLAN_1
  6
CONTINUOUS
 10
-1.738709
 20
0.896480
  0
VERTEX
  8
PLAN_1
  6
CONTINUOUS
 10
-1.740874
 20
0.899185
  0
VERTEX
  8
PLAN_1
  6
CONTINUOUS
 10
-1.742500
 20
0.901894
  0
VERTEX
  8
PLAN_1
  6
CONTINUOUS
 10
-1.746287
 20
0.905142
  0
VERTEX
  8
PLAN_1
  6
CONTINUOUS
 10
-1.747370
 20
0.906224
  0
SEQEND
  8
0
  0
POLYLINE
  8
PLAN_1
  6
CONTINUOUS
 66
     1
 40
0.007035
 41
0.007035
  0
VERTEX
  8
PLAN_1
  6
CONTINUOUS
 10
-1.747370
 20
0.906224
  0
VERTEX
  8
PLAN_1
  6
CONTINUOUS
 10
-2.077614
 20
0.906224
  0
SEQEND
  8
0
  0
POLYLINE
  8
PLAN_1
  6
CONTINUOUS
 66
     1
 40
0.007035
 41
0.007035
  0
VERTEX
  8
PLAN_1
  6
CONTINUOUS
 10
-2.077614
 20
0.906224
  0
VERTEX
  8
PLAN_1
  6
CONTINUOUS
 10
-2.079236
 20
0.905142
  0
VERTEX
  8
PLAN_1
  6
CONTINUOUS
 10
-2.081945
 20
0.901894
  0
VERTEX
  8
PLAN_1
  6
CONTINUOUS
 10
-2.083567
 20
0.899728
  0
VERTEX
  8
PLAN_1
  6
CONTINUOUS
 10
-2.085736
 20
0.897020
  0
VERTEX
  8
PLAN_1
  6
CONTINUOUS
 10
-2.087358
 20
0.893772
  0
VERTEX
  8
PLAN_1
  6
CONTINUOUS
 10
-2.088984
 20
0.890524
  0
VERTEX
  8
PLAN_1
  6
CONTINUOUS
 10
-2.090067
 20
0.886732
  0
VERTEX
  8
PLAN_1
  6
CONTINUOUS
 10
-2.090606
 20
0.882402
  0
VERTEX
  8
PLAN_1
  6
CONTINUOUS
 10
-2.091150
 20
0.878071
  0
VERTEX
  8
PLAN_1
  6
CONTINUOUS
 10
-2.090606
 20
0.873740
  0
VERTEX
  8
PLAN_1
  6
CONTINUOUS
 10
-2.088984
 20
0.868327
  0
VERTEX
  8
PLAN_1
  6
CONTINUOUS
 10
-2.086276
 20
0.863453
  0
VERTEX
  8
PLAN_1
  6
CONTINUOUS
 10
-2.082484
 20
0.858039
  0
VERTEX
  8
PLAN_1
  6
CONTINUOUS
 10
-2.077614
 20
0.852626
  0
SEQEND
  8
0
  0
POLYLINE
  8
PLAN_1
  6
CONTINUOUS
 66
     1
 40
0.007035
 41
0.007035
  0
VERTEX
  8
PLAN_1
  6
CONTINUOUS
 10
-2.077614
 20
0.852626
  0
VERTEX
  8
PLAN_1
  6
CONTINUOUS
 10
-1.747370
 20
0.852626
  0
SEQEND
  8
0
  0
POLYLINE
  8
PLAN_1
  6
CONTINUOUS
 66
     1
 40
0.007035
 41
0.007035
  0
VERTEX
  8
PLAN_1
  6
CONTINUOUS
 10
-1.747913
 20
0.799031
  0
VERTEX
  8
PLAN_1
  6
CONTINUOUS
 10
-1.742500
 20
0.804445
  0
VERTEX
  8
PLAN_1
  6
CONTINUOUS
 10
-1.738169
 20
0.809315
  0
VERTEX
  8
PLAN_1
  6
CONTINUOUS
 10
-1.735461
 20
0.814728
  0
VERTEX
  8
PLAN_1
  6
CONTINUOUS
 10
-1.733839
 20
0.819602
  0
VERTEX
  8
PLAN_1
  6
CONTINUOUS
 10
-1.732752
 20
0.823933
  0
VERTEX
  8
PLAN_1
  6
CONTINUOUS
 10
-1.733295
 20
0.828264
  0
VERTEX
  8
PLAN_1
  6
CONTINUOUS
 10
-1.733839
 20
0.832594
  0
VERTEX
  8
PLAN_1
  6
CONTINUOUS
 10
-1.735461
 20
0.836386
  0
VERTEX
  8
PLAN_1
  6
CONTINUOUS
 10
-1.737087
 20
0.840173
  0
VERTEX
  8
PLAN_1
  6
CONTINUOUS
 10
-1.739252
 20
0.843421
  0
VERTEX
  8
PLAN_1
  6
CONTINUOUS
 10
-1.741417
 20
0.846130
  0
VERTEX
  8
PLAN_1
  6
CONTINUOUS
 10
-1.743039
 20
0.848295
  0
VERTEX
  8
PLAN_1
  6
CONTINUOUS
 10
-1.746831
 20
0.852087
  0
VERTEX
  8
PLAN_1
  6
CONTINUOUS
 10
-1.747913
 20
0.853169
  0
SEQEND
  8
0
  0
POLYLINE
  8
PLAN_1
  6
CONTINUOUS
 66
     1
 40
0.007035
 41
0.007035
  0
VERTEX
  8
PLAN_1
  6
CONTINUOUS
 10
-1.747913
 20
0.853169
  0
VERTEX
  8
PLAN_1
  6
CONTINUOUS
 10
-2.078154
 20
0.853169
  0
SEQEND
  8
0
  0
POLYLINE
  8
PLAN_1
  6
CONTINUOUS
 66
     1
 40
0.007035
 41
0.007035
  0
VERTEX
  8
PLAN_1
  6
CONTINUOUS
 10
-2.078154
 20
0.853169
  0
VERTEX
  8
PLAN_1
  6
CONTINUOUS
 10
-2.079236
 20
0.852087
  0
VERTEX
  8
PLAN_1
  6
CONTINUOUS
 10
-2.082484
 20
0.848839
  0
VERTEX
  8
PLAN_1
  6
CONTINUOUS
 10
-2.084110
 20
0.846673
  0
VERTEX
  8
PLAN_1
  6
CONTINUOUS
 10
-2.086276
 20
0.843965
  0
VERTEX
  8
PLAN_1
  6
CONTINUOUS
 10
-2.087902
 20
0.840717
  0
VERTEX
  8
PLAN_1
  6
CONTINUOUS
 10
-2.089524
 20
0.837469
  0
VERTEX
  8
PLAN_1
  6
CONTINUOUS
 10
-2.090606
 20
0.833677
  0
VERTEX
  8
PLAN_1
  6
CONTINUOUS
 10
-2.091150
 20
0.829346
  0
VERTEX
  8
PLAN_1
  6
CONTINUOUS
 10
-2.091689
 20
0.825016
  0
VERTEX
  8
PLAN_1
  6
CONTINUOUS
 10
-2.090606
 20
0.820146
  0
VERTEX
  8
PLAN_1
  6
CONTINUOUS
 10
-2.089524
 20
0.815272
  0
VERTEX
  8
PLAN_1
  6
CONTINUOUS
 10
-2.086819
 20
0.810398
  0
VERTEX
  8
PLAN_1
  6
CONTINUOUS
 10
-2.083028
 20
0.804984
  0
VERTEX
  8
PLAN_1
  6
CONTINUOUS
 10
-2.078154
 20
0.799031
  0
SEQEND
  8
0
  0
POLYLINE
  8
PLAN_1
  6
CONTINUOUS
 66
     1
 40
0.007035
 41
0.007035
  0
VERTEX
  8
PLAN_1
  6
CONTINUOUS
 10
-2.078154
 20
0.799031
  0
VERTEX
  8
PLAN_1
  6
CONTINUOUS
 10
-1.747913
 20
0.799031
  0
SEQEND
  8
0
  0
POLYLINE
  8
PLAN_1
  6
CONTINUOUS
 66
     1
 40
0.007035
 41
0.007035
  0
VERTEX
  8
PLAN_1
  6
CONTINUOUS
 10
-1.747370
 20
0.745976
  0
VERTEX
  8
PLAN_1
  6
CONTINUOUS
 10
-1.741957
 20
0.751390
  0
VERTEX
  8
PLAN_1
  6
CONTINUOUS
 10
-1.737626
 20
0.756260
  0
VERTEX
  8
PLAN_1
  6
CONTINUOUS
 10
-1.734921
 20
0.761134
  0
VERTEX
  8
PLAN_1
  6
CONTINUOUS
 10
-1.733295
 20
0.766004
  0
VERTEX
  8
PLAN_1
  6
CONTINUOUS
 10
-1.732213
 20
0.770878
  0
VERTEX
  8
PLAN_1
  6
CONTINUOUS
 10
-1.732752
 20
0.775209
  0
VERTEX
  8
PLAN_1
  6
CONTINUOUS
 10
-1.733295
 20
0.779539
  0
VERTEX
  8
PLAN_1
  6
CONTINUOUS
 10
-1.734921
 20
0.783331
  0
VERTEX
  8
PLAN_1
  6
CONTINUOUS
 10
-1.736543
 20
0.787118
  0
VERTEX
  8
PLAN_1
  6
CONTINUOUS
 10
-1.738709
 20
0.790366
  0
VERTEX
  8
PLAN_1
  6
CONTINUOUS
 10
-1.740874
 20
0.793075
  0
VERTEX
  8
PLAN_1
  6
CONTINUOUS
 10
-1.742500
 20
0.795240
  0
VERTEX
  8
PLAN_1
  6
CONTINUOUS
 10
-1.746287
 20
0.798488
  0
VERTEX
  8
PLAN_1
  6
CONTINUOUS
 10
-1.747370
 20
0.799571
  0
SEQEND
  8
0
  0
POLYLINE
  8
PLAN_1
  6
CONTINUOUS
 66
     1
 40
0.007035
 41
0.007035
  0
VERTEX
  8
PLAN_1
  6
CONTINUOUS
 10
-1.747370
 20
0.799571
  0
VERTEX
  8
PLAN_1
  6
CONTINUOUS
 10
-2.077614
 20
0.799571
  0
SEQEND
  8
0
  0
POLYLINE
  8
PLAN_1
  6
CONTINUOUS
 66
     1
 40
0.007035
 41
0.007035
  0
VERTEX
  8
PLAN_1
  6
CONTINUOUS
 10
-2.077614
 20
0.799571
  0
VERTEX
  8
PLAN_1
  6
CONTINUOUS
 10
-2.079236
 20
0.798488
  0
VERTEX
  8
PLAN_1
  6
CONTINUOUS
 10
-2.081945
 20
0.795783
  0
VERTEX
  8
PLAN_1
  6
CONTINUOUS
 10
-2.083567
 20
0.793075
  0
VERTEX
  8
PLAN_1
  6
CONTINUOUS
 10
-2.085736
 20
0.790909
  0
VERTEX
  8
PLAN_1
  6
CONTINUOUS
 10
-2.087358
 20
0.787661
  0
VERTEX
  8
PLAN_1
  6
CONTINUOUS
 10
-2.088984
 20
0.783870
  0
VERTEX
  8
PLAN_1
  6
CONTINUOUS
 10
-2.090067
 20
0.780083
  0
VERTEX
  8
PLAN_1
  6
CONTINUOUS
 10
-2.090606
 20
0.776291
  0
VERTEX
  8
PLAN_1
  6
CONTINUOUS
 10
-2.091150
 20
0.771961
  0
VERTEX
  8
PLAN_1
  6
CONTINUOUS
 10
-2.090606
 20
0.767087
  0
VERTEX
  8
PLAN_1
  6
CONTINUOUS
 10
-2.088984
 20
0.762217
  0
VERTEX
  8
PLAN_1
  6
CONTINUOUS
 10
-2.086276
 20
0.756803
  0
VERTEX
  8
PLAN_1
  6
CONTINUOUS
 10
-2.082484
 20
0.751390
  0
VERTEX
  8
PLAN_1
  6
CONTINUOUS
 10
-2.077614
 20
0.745976
  0
SEQEND
  8
0
  0
POLYLINE
  8
PLAN_1
  6
CONTINUOUS
 66
     1
 40
0.007035
 41
0.007035
  0
VERTEX
  8
PLAN_1
  6
CONTINUOUS
 10
-2.077614
 20
0.745976
  0
VERTEX
  8
PLAN_1
  6
CONTINUOUS
 10
-1.747370
 20
0.745976
  0
SEQEND
  8
0
  0
POLYLINE
  8
PLAN_1
  6
CONTINUOUS
 66
     1
 40
0.007035
 41
0.007035
  0
VERTEX
  8
PLAN_1
  6
CONTINUOUS
 10
-1.747913
 20
0.692917
  0
VERTEX
  8
PLAN_1
  6
CONTINUOUS
 10
-1.742500
 20
0.697791
  0
VERTEX
  8
PLAN_1
  6
CONTINUOUS
 10
-1.738169
 20
0.703205
  0
VERTEX
  8
PLAN_1
  6
CONTINUOUS
 10
-1.735461
 20
0.708079
  0
VERTEX
  8
PLAN_1
  6
CONTINUOUS
 10
-1.733839
 20
0.712949
  0
VERTEX
  8
PLAN_1
  6
CONTINUOUS
 10
-1.732752
 20
0.717823
  0
VERTEX
  8
PLAN_1
  6
CONTINUOUS
 10
-1.733295
 20
0.722154
  0
VERTEX
  8
PLAN_1
  6
CONTINUOUS
 10
-1.733839
 20
0.726484
  0
VERTEX
  8
PLAN_1
  6
CONTINUOUS
 10
-1.735461
 20
0.730276
  0
VERTEX
  8
PLAN_1
  6
CONTINUOUS
 10
-1.737087
 20
0.733524
  0
VERTEX
  8
PLAN_1
  6
CONTINUOUS
 10
-1.739252
 20
0.736772
  0
VERTEX
  8
PLAN_1
  6
CONTINUOUS
 10
-1.741417
 20
0.739476
  0
VERTEX
  8
PLAN_1
  6
CONTINUOUS
 10
-1.743039
 20
0.742185
  0
VERTEX
  8
PLAN_1
  6
CONTINUOUS
 10
-1.746831
 20
0.745433
  0
VERTEX
  8
PLAN_1
  6
CONTINUOUS
 10
-1.747913
 20
0.746516
  0
SEQEND
  8
0
  0
POLYLINE
  8
PLAN_1
  6
CONTINUOUS
 66
     1
 40
0.007035
 41
0.007035
  0
VERTEX
  8
PLAN_1
  6
CONTINUOUS
 10
-1.747913
 20
0.746516
  0
VERTEX
  8
PLAN_1
  6
CONTINUOUS
 10
-2.078154
 20
0.746516
  0
SEQEND
  8
0
  0
POLYLINE
  8
PLAN_1
  6
CONTINUOUS
 66
     1
 40
0.007035
 41
0.007035
  0
VERTEX
  8
PLAN_1
  6
CONTINUOUS
 10
-2.078154
 20
0.746516
  0
VERTEX
  8
PLAN_1
  6
CONTINUOUS
 10
-2.079236
 20
0.745433
  0
VERTEX
  8
PLAN_1
  6
CONTINUOUS
 10
-2.082484
 20
0.742185
  0
VERTEX
  8
PLAN_1
  6
CONTINUOUS
 10
-2.084110
 20
0.740020
  0
VERTEX
  8
PLAN_1
  6
CONTINUOUS
 10
-2.086276
 20
0.737311
  0
VERTEX
  8
PLAN_1
  6
CONTINUOUS
 10
-2.087902
 20
0.734063
  0
VERTEX
  8
PLAN_1
  6
CONTINUOUS
 10
-2.089524
 20
0.730815
  0
VERTEX
  8
PLAN_1
  6
CONTINUOUS
 10
-2.090606
 20
0.727028
  0
VERTEX
  8
PLAN_1
  6
CONTINUOUS
 10
-2.091150
 20
0.722697
  0
VERTEX
  8
PLAN_1
  6
CONTINUOUS
 10
-2.091689
 20
0.718366
  0
VERTEX
  8
PLAN_1
  6
CONTINUOUS
 10
-2.090606
 20
0.714031
  0
VERTEX
  8
PLAN_1
  6
CONTINUOUS
 10
-2.089524
 20
0.708618
  0
VERTEX
  8
PLAN_1
  6
CONTINUOUS
 10
-2.086819
 20
0.703748
  0
VERTEX
  8
PLAN_1
  6
CONTINUOUS
 10
-2.083028
 20
0.698335
  0
VERTEX
  8
PLAN_1
  6
CONTINUOUS
 10
-2.078154
 20
0.692917
  0
SEQEND
  8
0
  0
POLYLINE
  8
PLAN_1
  6
CONTINUOUS
 66
     1
 40
0.007035
 41
0.007035
  0
VERTEX
  8
PLAN_1
  6
CONTINUOUS
 10
-2.078154
 20
0.692917
  0
VERTEX
  8
PLAN_1
  6
CONTINUOUS
 10
-1.747913
 20
0.692917
  0
SEQEND
  8
0
  0
POLYLINE
  8
PLAN_1
  6
CONTINUOUS
 66
     1
 40
0.007035
 41
0.007035
  0
VERTEX
  8
PLAN_1
  6
CONTINUOUS
 10
-1.747370
 20
0.639862
  0
VERTEX
  8
PLAN_1
  6
CONTINUOUS
 10
-1.741957
 20
0.644736
  0
VERTEX
  8
PLAN_1
  6
CONTINUOUS
 10
-1.737626
 20
0.650150
  0
VERTEX
  8
PLAN_1
  6
CONTINUOUS
 10
-1.734921
 20
0.655024
  0
VERTEX
  8
PLAN_1
  6
CONTINUOUS
 10
-1.733295
 20
0.659894
  0
VERTEX
  8
PLAN_1
  6
CONTINUOUS
 10
-1.732213
 20
0.664224
  0
VERTEX
  8
PLAN_1
  6
CONTINUOUS
 10
-1.732752
 20
0.669098
  0
VERTEX
  8
PLAN_1
  6
CONTINUOUS
 10
-1.733295
 20
0.672890
  0
VERTEX
  8
PLAN_1
  6
CONTINUOUS
 10
-1.734921
 20
0.676677
  0
VERTEX
  8
PLAN_1
  6
CONTINUOUS
 10
-1.736543
 20
0.680469
  0
VERTEX
  8
PLAN_1
  6
CONTINUOUS
 10
-1.738709
 20
0.683717
  0
VERTEX
  8
PLAN_1
  6
CONTINUOUS
 10
-1.740874
 20
0.686421
  0
VERTEX
  8
PLAN_1
  6
CONTINUOUS
 10
-1.742500
 20
0.688587
  0
VERTEX
  8
PLAN_1
  6
CONTINUOUS
 10
-1.746287
 20
0.692378
  0
VERTEX
  8
PLAN_1
  6
CONTINUOUS
 10
-1.747370
 20
0.693461
  0
SEQEND
  8
0
  0
POLYLINE
  8
PLAN_1
  6
CONTINUOUS
 66
     1
 40
0.007035
 41
0.007035
  0
VERTEX
  8
PLAN_1
  6
CONTINUOUS
 10
-1.747370
 20
0.693461
  0
VERTEX
  8
PLAN_1
  6
CONTINUOUS
 10
-2.077614
 20
0.693461
  0
SEQEND
  8
0
  0
POLYLINE
  8
PLAN_1
  6
CONTINUOUS
 66
     1
 40
0.007035
 41
0.007035
  0
VERTEX
  8
PLAN_1
  6
CONTINUOUS
 10
-2.077614
 20
0.693461
  0
VERTEX
  8
PLAN_1
  6
CONTINUOUS
 10
-2.079236
 20
0.692378
  0
VERTEX
  8
PLAN_1
  6
CONTINUOUS
 10
-2.081945
 20
0.689130
  0
VERTEX
  8
PLAN_1
  6
CONTINUOUS
 10
-2.083567
 20
0.686965
  0
VERTEX
  8
PLAN_1
  6
CONTINUOUS
 10
-2.085736
 20
0.684256
  0
VERTEX
  8
PLAN_1
  6
CONTINUOUS
 10
-2.087358
 20
0.681008
  0
VERTEX
  8
PLAN_1
  6
CONTINUOUS
 10
-2.088984
 20
0.677760
  0
VERTEX
  8
PLAN_1
  6
CONTINUOUS
 10
-2.090067
 20
0.673972
  0
VERTEX
  8
PLAN_1
  6
CONTINUOUS
 10
-2.090606
 20
0.669642
  0
VERTEX
  8
PLAN_1
  6
CONTINUOUS
 10
-2.091150
 20
0.665307
  0
VERTEX
  8
PLAN_1
  6
CONTINUOUS
 10
-2.090606
 20
0.660437
  0
VERTEX
  8
PLAN_1
  6
CONTINUOUS
 10
-2.088984
 20
0.655563
  0
VERTEX
  8
PLAN_1
  6
CONTINUOUS
 10
-2.086276
 20
0.650693
  0
VERTEX
  8
PLAN_1
  6
CONTINUOUS
 10
-2.082484
 20
0.645280
  0
VERTEX
  8
PLAN_1
  6
CONTINUOUS
 10
-2.077614
 20
0.639862
  0
SEQEND
  8
0
  0
POLYLINE
  8
PLAN_1
  6
CONTINUOUS
 66
     1
 40
0.007035
 41
0.007035
  0
VERTEX
  8
PLAN_1
  6
CONTINUOUS
 10
-2.077614
 20
0.639862
  0
VERTEX
  8
PLAN_1
  6
CONTINUOUS
 10
-1.747370
 20
0.639862
  0
SEQEND
  8
0
  0
POLYLINE
  8
PLAN_1
  6
CONTINUOUS
 66
     1
 40
0.007035
 41
0.007035
  0
VERTEX
  8
PLAN_1
  6
CONTINUOUS
 10
-1.747913
 20
0.586268
  0
VERTEX
  8
PLAN_1
  6
CONTINUOUS
 10
-1.742500
 20
0.591681
  0
VERTEX
  8
PLAN_1
  6
CONTINUOUS
 10
-1.738169
 20
0.596555
  0
VERTEX
  8
PLAN_1
  6
CONTINUOUS
 10
-1.735461
 20
0.601425
  0
VERTEX
  8
PLAN_1
  6
CONTINUOUS
 10
-1.733839
 20
0.606299
  0
VERTEX
  8
PLAN_1
  6
CONTINUOUS
 10
-1.732752
 20
0.611169
  0
VERTEX
  8
PLAN_1
  6
CONTINUOUS
 10
-1.733295
 20
0.615500
  0
VERTEX
  8
PLAN_1
  6
CONTINUOUS
 10
-1.733839
 20
0.619835
  0
VERTEX
  8
PLAN_1
  6
CONTINUOUS
 10
-1.735461
 20
0.623622
  0
VERTEX
  8
PLAN_1
  6
CONTINUOUS
 10
-1.737087
 20
0.627413
  0
VERTEX
  8
PLAN_1
  6
CONTINUOUS
 10
-1.739252
 20
0.630661
  0
VERTEX
  8
PLAN_1
  6
CONTINUOUS
 10
-1.741417
 20
0.633366
  0
VERTEX
  8
PLAN_1
  6
CONTINUOUS
 10
-1.743039
 20
0.635531
  0
VERTEX
  8
PLAN_1
  6
CONTINUOUS
 10
-1.746831
 20
0.638780
  0
VERTEX
  8
PLAN_1
  6
CONTINUOUS
 10
-1.747913
 20
0.639862
  0
SEQEND
  8
0
  0
POLYLINE
  8
PLAN_1
  6
CONTINUOUS
 66
     1
 40
0.007035
 41
0.007035
  0
VERTEX
  8
PLAN_1
  6
CONTINUOUS
 10
-1.747913
 20
0.639862
  0
VERTEX
  8
PLAN_1
  6
CONTINUOUS
 10
-2.078154
 20
0.639862
  0
SEQEND
  8
0
  0
POLYLINE
  8
PLAN_1
  6
CONTINUOUS
 66
     1
 40
0.007035
 41
0.007035
  0
VERTEX
  8
PLAN_1
  6
CONTINUOUS
 10
-2.078154
 20
0.639862
  0
VERTEX
  8
PLAN_1
  6
CONTINUOUS
 10
-2.079236
 20
0.638780
  0
VERTEX
  8
PLAN_1
  6
CONTINUOUS
 10
-2.082484
 20
0.636075
  0
VERTEX
  8
PLAN_1
  6
CONTINUOUS
 10
-2.084110
 20
0.633366
  0
VERTEX
  8
PLAN_1
  6
CONTINUOUS
 10
-2.086276
 20
0.631201
  0
VERTEX
  8
PLAN_1
  6
CONTINUOUS
 10
-2.087902
 20
0.627953
  0
VERTEX
  8
PLAN_1
  6
CONTINUOUS
 10
-2.089524
 20
0.624165
  0
VERTEX
  8
PLAN_1
  6
CONTINUOUS
 10
-2.090606
 20
0.620374
  0
VERTEX
  8
PLAN_1
  6
CONTINUOUS
 10
-2.091150
 20
0.616583
  0
VERTEX
  8
PLAN_1
  6
CONTINUOUS
 10
-2.091689
 20
0.612252
  0
VERTEX
  8
PLAN_1
  6
CONTINUOUS
 10
-2.090606
 20
0.607382
  0
VERTEX
  8
PLAN_1
  6
CONTINUOUS
 10
-2.089524
 20
0.602508
  0
VERTEX
  8
PLAN_1
  6
CONTINUOUS
 10
-2.086819
 20
0.597094
  0
VERTEX
  8
PLAN_1
  6
CONTINUOUS
 10
-2.083028
 20
0.591681
  0
VERTEX
  8
PLAN_1
  6
CONTINUOUS
 10
-2.078154
 20
0.586268
  0
SEQEND
  8
0
  0
POLYLINE
  8
PLAN_1
  6
CONTINUOUS
 66
     1
 40
0.007035
 41
0.007035
  0
VERTEX
  8
PLAN_1
  6
CONTINUOUS
 10
-2.078154
 20
0.586268
  0
VERTEX
  8
PLAN_1
  6
CONTINUOUS
 10
-1.747913
 20
0.586268
  0
SEQEND
  8
0
  0
POLYLINE
  8
PLAN_1
  6
CONTINUOUS
 66
     1
 40
0.007035
 41
0.007035
  0
VERTEX
  8
PLAN_1
  6
CONTINUOUS
 10
-1.747370
 20
0.533213
  0
VERTEX
  8
PLAN_1
  6
CONTINUOUS
 10
-1.741957
 20
0.538083
  0
VERTEX
  8
PLAN_1
  6
CONTINUOUS
 10
-1.737626
 20
0.543500
  0
VERTEX
  8
PLAN_1
  6
CONTINUOUS
 10
-1.734921
 20
0.548370
  0
VERTEX
  8
PLAN_1
  6
CONTINUOUS
 10
-1.733295
 20
0.553244
  0
VERTEX
  8
PLAN_1
  6
CONTINUOUS
 10
-1.732213
 20
0.558114
  0
VERTEX
  8
PLAN_1
  6
CONTINUOUS
 10
-1.732752
 20
0.562445
  0
VERTEX
  8
PLAN_1
  6
CONTINUOUS
 10
-1.733295
 20
0.566776
  0
VERTEX
  8
PLAN_1
  6
CONTINUOUS
 10
-1.734921
 20
0.570567
  0
VERTEX
  8
PLAN_1
  6
CONTINUOUS
 10
-1.736543
 20
0.573815
  0
VERTEX
  8
PLAN_1
  6
CONTINUOUS
 10
-1.738709
 20
0.577063
  0
VERTEX
  8
PLAN_1
  6
CONTINUOUS
 10
-1.740874
 20
0.579772
  0
VERTEX
  8
PLAN_1
  6
CONTINUOUS
 10
-1.742500
 20
0.582476
  0
VERTEX
  8
PLAN_1
  6
CONTINUOUS
 10
-1.746287
 20
0.585724
  0
VERTEX
  8
PLAN_1
  6
CONTINUOUS
 10
-1.747370
 20
0.586807
  0
SEQEND
  8
0
  0
POLYLINE
  8
PLAN_1
  6
CONTINUOUS
 66
     1
 40
0.007035
 41
0.007035
  0
VERTEX
  8
PLAN_1
  6
CONTINUOUS
 10
-1.747370
 20
0.586807
  0
VERTEX
  8
PLAN_1
  6
CONTINUOUS
 10
-2.077614
 20
0.586807
  0
SEQEND
  8
0
  0
POLYLINE
  8
PLAN_1
  6
CONTINUOUS
 66
     1
 40
0.007035
 41
0.007035
  0
VERTEX
  8
PLAN_1
  6
CONTINUOUS
 10
-2.077614
 20
0.586807
  0
VERTEX
  8
PLAN_1
  6
CONTINUOUS
 10
-2.079236
 20
0.585724
  0
VERTEX
  8
PLAN_1
  6
CONTINUOUS
 10
-2.081945
 20
0.582476
  0
VERTEX
  8
PLAN_1
  6
CONTINUOUS
 10
-2.083567
 20
0.580311
  0
VERTEX
  8
PLAN_1
  6
CONTINUOUS
 10
-2.085736
 20
0.577606
  0
VERTEX
  8
PLAN_1
  6
CONTINUOUS
 10
-2.087358
 20
0.574898
  0
VERTEX
  8
PLAN_1
  6
CONTINUOUS
 10
-2.088984
 20
0.571110
  0
VERTEX
  8
PLAN_1
  6
CONTINUOUS
 10
-2.090067
 20
0.567319
  0
VERTEX
  8
PLAN_1
  6
CONTINUOUS
 10
-2.090606
 20
0.563528
  0
VERTEX
  8
PLAN_1
  6
CONTINUOUS
 10
-2.091150
 20
0.558657
  0
VERTEX
  8
PLAN_1
  6
CONTINUOUS
 10
-2.090606
 20
0.554327
  0
VERTEX
  8
PLAN_1
  6
CONTINUOUS
 10
-2.088984
 20
0.549453
  0
VERTEX
  8
PLAN_1
  6
CONTINUOUS
 10
-2.086276
 20
0.544039
  0
VERTEX
  8
PLAN_1
  6
CONTINUOUS
 10
-2.082484
 20
0.538626
  0
VERTEX
  8
PLAN_1
  6
CONTINUOUS
 10
-2.077614
 20
0.533213
  0
SEQEND
  8
0
  0
POLYLINE
  8
PLAN_1
  6
CONTINUOUS
 66
     1
 40
0.007035
 41
0.007035
  0
VERTEX
  8
PLAN_1
  6
CONTINUOUS
 10
-2.077614
 20
0.533213
  0
VERTEX
  8
PLAN_1
  6
CONTINUOUS
 10
-1.747370
 20
0.533213
  0
SEQEND
  8
0
  0
POLYLINE
  8
PLAN_1
  6
CONTINUOUS
 66
     1
 40
0.007035
 41
0.007035
  0
VERTEX
  8
PLAN_1
  6
CONTINUOUS
 10
-1.747913
 20
0.480157
  0
VERTEX
  8
PLAN_1
  6
CONTINUOUS
 10
-1.742500
 20
0.485028
  0
VERTEX
  8
PLAN_1
  6
CONTINUOUS
 10
-1.738169
 20
0.490441
  0
VERTEX
  8
PLAN_1
  6
CONTINUOUS
 10
-1.735461
 20
0.495315
  0
VERTEX
  8
PLAN_1
  6
CONTINUOUS
 10
-1.733839
 20
0.500189
  0
VERTEX
  8
PLAN_1
  6
CONTINUOUS
 10
-1.732752
 20
0.504520
  0
VERTEX
  8
PLAN_1
  6
CONTINUOUS
 10
-1.733295
 20
0.509390
  0
VERTEX
  8
PLAN_1
  6
CONTINUOUS
 10
-1.733839
 20
0.513181
  0
VERTEX
  8
PLAN_1
  6
CONTINUOUS
 10
-1.735461
 20
0.516969
  0
VERTEX
  8
PLAN_1
  6
CONTINUOUS
 10
-1.737087
 20
0.520760
  0
VERTEX
  8
PLAN_1
  6
CONTINUOUS
 10
-1.739252
 20
0.524008
  0
VERTEX
  8
PLAN_1
  6
CONTINUOUS
 10
-1.741417
 20
0.526717
  0
VERTEX
  8
PLAN_1
  6
CONTINUOUS
 10
-1.743039
 20
0.529421
  0
VERTEX
  8
PLAN_1
  6
CONTINUOUS
 10
-1.746831
 20
0.532669
  0
VERTEX
  8
PLAN_1
  6
CONTINUOUS
 10
-1.747913
 20
0.533752
  0
SEQEND
  8
0
  0
POLYLINE
  8
PLAN_1
  6
CONTINUOUS
 66
     1
 40
0.007035
 41
0.007035
  0
VERTEX
  8
PLAN_1
  6
CONTINUOUS
 10
-1.747913
 20
0.533752
  0
VERTEX
  8
PLAN_1
  6
CONTINUOUS
 10
-2.078154
 20
0.533752
  0
SEQEND
  8
0
  0
POLYLINE
  8
PLAN_1
  6
CONTINUOUS
 66
     1
 40
0.007035
 41
0.007035
  0
VERTEX
  8
PLAN_1
  6
CONTINUOUS
 10
-2.078154
 20
0.533752
  0
VERTEX
  8
PLAN_1
  6
CONTINUOUS
 10
-2.079236
 20
0.532669
  0
VERTEX
  8
PLAN_1
  6
CONTINUOUS
 10
-2.082484
 20
0.529421
  0
VERTEX
  8
PLAN_1
  6
CONTINUOUS
 10
-2.084110
 20
0.527256
  0
VERTEX
  8
PLAN_1
  6
CONTINUOUS
 10
-2.086276
 20
0.524551
  0
VERTEX
  8
PLAN_1
  6
CONTINUOUS
 10
-2.087902
 20
0.521303
  0
VERTEX
  8
PLAN_1
  6
CONTINUOUS
 10
-2.089524
 20
0.518055
  0
VERTEX
  8
PLAN_1
  6
CONTINUOUS
 10
-2.090606
 20
0.514264
  0
VERTEX
  8
PLAN_1
  6
CONTINUOUS
 10
-2.091150
 20
0.509933
  0
VERTEX
  8
PLAN_1
  6
CONTINUOUS
 10
-2.091689
 20
0.505602
  0
VERTEX
  8
PLAN_1
  6
CONTINUOUS
 10
-2.090606
 20
0.500728
  0
VERTEX
  8
PLAN_1
  6
CONTINUOUS
 10
-2.089524
 20
0.495858
  0
VERTEX
  8
PLAN_1
  6
CONTINUOUS
 10
-2.086819
 20
0.490984
  0
VERTEX
  8
PLAN_1
  6
CONTINUOUS
 10
-2.083028
 20
0.485571
  0
VERTEX
  8
PLAN_1
  6
CONTINUOUS
 10
-2.078154
 20
0.480157
  0
SEQEND
  8
0
  0
POLYLINE
  8
PLAN_1
  6
CONTINUOUS
 66
     1
 40
0.007035
 41
0.007035
  0
VERTEX
  8
PLAN_1
  6
CONTINUOUS
 10
-2.078154
 20
0.480157
  0
VERTEX
  8
PLAN_1
  6
CONTINUOUS
 10
-1.747913
 20
0.480157
  0
SEQEND
  8
0
  0
POLYLINE
  8
PLAN_1
  6
CONTINUOUS
 66
     1
 40
0.007035
 41
0.007035
  0
VERTEX
  8
PLAN_1
  6
CONTINUOUS
 10
-1.747370
 20
0.426559
  0
VERTEX
  8
PLAN_1
  6
CONTINUOUS
 10
-1.741957
 20
0.431972
  0
VERTEX
  8
PLAN_1
  6
CONTINUOUS
 10
-1.737626
 20
0.436846
  0
VERTEX
  8
PLAN_1
  6
CONTINUOUS
 10
-1.734921
 20
0.442260
  0
VERTEX
  8
PLAN_1
  6
CONTINUOUS
 10
-1.733295
 20
0.446591
  0
VERTEX
  8
PLAN_1
  6
CONTINUOUS
 10
-1.732213
 20
0.451465
  0
VERTEX
  8
PLAN_1
  6
CONTINUOUS
 10
-1.732752
 20
0.455795
  0
VERTEX
  8
PLAN_1
  6
CONTINUOUS
 10
-1.733295
 20
0.460126
  0
VERTEX
  8
PLAN_1
  6
CONTINUOUS
 10
-1.734921
 20
0.463913
  0
VERTEX
  8
PLAN_1
  6
CONTINUOUS
 10
-1.736543
 20
0.467705
  0
VERTEX
  8
PLAN_1
  6
CONTINUOUS
 10
-1.738709
 20
0.470953
  0
VERTEX
  8
PLAN_1
  6
CONTINUOUS
 10
-1.740874
 20
0.473661
  0
VERTEX
  8
PLAN_1
  6
CONTINUOUS
 10
-1.742500
 20
0.475827
  0
VERTEX
  8
PLAN_1
  6
CONTINUOUS
 10
-1.746287
 20
0.479075
  0
VERTEX
  8
PLAN_1
  6
CONTINUOUS
 10
-1.747370
 20
0.480157
  0
SEQEND
  8
0
  0
POLYLINE
  8
PLAN_1
  6
CONTINUOUS
 66
     1
 40
0.007035
 41
0.007035
  0
VERTEX
  8
PLAN_1
  6
CONTINUOUS
 10
-1.747370
 20
0.480157
  0
VERTEX
  8
PLAN_1
  6
CONTINUOUS
 10
-2.077614
 20
0.480157
  0
SEQEND
  8
0
  0
POLYLINE
  8
PLAN_1
  6
CONTINUOUS
 66
     1
 40
0.007035
 41
0.007035
  0
VERTEX
  8
PLAN_1
  6
CONTINUOUS
 10
-2.077614
 20
0.480157
  0
VERTEX
  8
PLAN_1
  6
CONTINUOUS
 10
-2.079236
 20
0.479075
  0
VERTEX
  8
PLAN_1
  6
CONTINUOUS
 10
-2.081945
 20
0.476366
  0
VERTEX
  8
PLAN_1
  6
CONTINUOUS
 10
-2.083567
 20
0.474201
  0
VERTEX
  8
PLAN_1
  6
CONTINUOUS
 10
-2.085736
 20
0.471496
  0
VERTEX
  8
PLAN_1
  6
CONTINUOUS
 10
-2.087358
 20
0.468248
  0
VERTEX
  8
PLAN_1
  6
CONTINUOUS
 10
-2.088984
 20
0.464996
  0
VERTEX
  8
PLAN_1
  6
CONTINUOUS
 10
-2.090067
 20
0.461209
  0
VERTEX
  8
PLAN_1
  6
CONTINUOUS
 10
-2.090606
 20
0.456878
  0
VERTEX
  8
PLAN_1
  6
CONTINUOUS
 10
-2.091150
 20
0.452547
  0
VERTEX
  8
PLAN_1
  6
CONTINUOUS
 10
-2.090606
 20
0.447673
  0
VERTEX
  8
PLAN_1
  6
CONTINUOUS
 10
-2.088984
 20
0.442803
  0
VERTEX
  8
PLAN_1
  6
CONTINUOUS
 10
-2.086276
 20
0.437386
  0
VERTEX
  8
PLAN_1
  6
CONTINUOUS
 10
-2.082484
 20
0.431972
  0
VERTEX
  8
PLAN_1
  6
CONTINUOUS
 10
-2.077614
 20
0.426559
  0
SEQEND
  8
0
  0
POLYLINE
  8
PLAN_1
  6
CONTINUOUS
 66
     1
 40
0.007035
 41
0.007035
  0
VERTEX
  8
PLAN_1
  6
CONTINUOUS
 10
-2.077614
 20
0.426559
  0
VERTEX
  8
PLAN_1
  6
CONTINUOUS
 10
-1.747370
 20
0.426559
  0
SEQEND
  8
0
  0
POLYLINE
  8
PLAN_1
  6
CONTINUOUS
 66
     1
 40
0.008118
 41
0.008118
  0
VERTEX
  8
PLAN_1
  6
CONTINUOUS
 10
-1.747370
 20
1.919146
  0
VERTEX
  8
PLAN_1
  6
CONTINUOUS
 10
-1.809630
 20
3.968815
  0
SEQEND
  8
0
  0
POLYLINE
  8
PLAN_1
  6
CONTINUOUS
 66
     1
 40
0.008118
 41
0.008118
  0
VERTEX
  8
PLAN_1
  6
CONTINUOUS
 10
-1.809630
 20
3.968815
  0
VERTEX
  8
PLAN_1
  6
CONTINUOUS
 10
-1.821000
 20
3.989929
  0
VERTEX
  8
PLAN_1
  6
CONTINUOUS
 10
-1.832366
 20
4.008878
  0
VERTEX
  8
PLAN_1
  6
CONTINUOUS
 10
-1.843736
 20
4.025118
  0
VERTEX
  8
PLAN_1
  6
CONTINUOUS
 10
-1.854563
 20
4.038654
  0
VERTEX
  8
PLAN_1
  6
CONTINUOUS
 10
-1.865933
 20
4.050024
  0
VERTEX
  8
PLAN_1
  6
CONTINUOUS
 10
-1.876760
 20
4.059228
  0
VERTEX
  8
PLAN_1
  6
CONTINUOUS
 10
-1.888130
 20
4.066264
  0
VERTEX
  8
PLAN_1
  6
CONTINUOUS
 10
-1.898957
 20
4.071677
  0
VERTEX
  8
PLAN_1
  6
CONTINUOUS
 10
-1.909244
 20
4.074925
  0
VERTEX
  8
PLAN_1
  6
CONTINUOUS
 10
-1.920071
 20
4.076551
  0
VERTEX
  8
PLAN_1
  6
CONTINUOUS
 10
-1.930358
 20
4.076551
  0
VERTEX
  8
PLAN_1
  6
CONTINUOUS
 10
-1.940646
 20
4.075469
  0
VERTEX
  8
PLAN_1
  6
CONTINUOUS
 10
-1.950390
 20
4.072760
  0
VERTEX
  8
PLAN_1
  6
CONTINUOUS
 10
-1.959594
 20
4.069512
  0
VERTEX
  8
PLAN_1
  6
CONTINUOUS
 10
-1.969339
 20
4.064642
  0
VERTEX
  8
PLAN_1
  6
CONTINUOUS
 10
-1.978000
 20
4.059228
  0
VERTEX
  8
PLAN_1
  6
CONTINUOUS
 10
-1.986661
 20
4.053272
  0
VERTEX
  8
PLAN_1
  6
CONTINUOUS
 10
-1.994783
 20
4.046232
  0
VERTEX
  8
PLAN_1
  6
CONTINUOUS
 10
-2.002362
 20
4.039197
  0
VERTEX
  8
PLAN_1
  6
CONTINUOUS
 10
-2.009941
 20
4.031618
  0
VERTEX
  8
PLAN_1
  6
CONTINUOUS
 10
-2.016980
 20
4.024035
  0
VERTEX
  8
PLAN_1
  6
CONTINUOUS
 10
-2.023476
 20
4.016457
  0
VERTEX
  8
PLAN_1
  6
CONTINUOUS
 10
-2.029429
 20
4.008878
  0
VERTEX
  8
PLAN_1
  6
CONTINUOUS
 10
-2.034846
 20
4.001299
  0
VERTEX
  8
PLAN_1
  6
CONTINUOUS
 10
-2.051087
 20
3.976937
  0
VERTEX
  8
PLAN_1
  6
CONTINUOUS
 10
-2.056500
 20
3.966650
  0
SEQEND
  8
0
  0
POLYLINE
  8
PLAN_1
  6
CONTINUOUS
 66
     1
 40
0.008118
 41
0.008118
  0
VERTEX
  8
PLAN_1
  6
CONTINUOUS
 10
-2.056500
 20
3.966650
  0
VERTEX
  8
PLAN_1
  6
CONTINUOUS
 10
-2.079236
 20
1.919146
  0
SEQEND
  8
0
  0
POLYLINE
  8
PLAN_1
  6
CONTINUOUS
 66
     1
 40
0.007035
 41
0.007035
  0
VERTEX
  8
PLAN_1
  6
CONTINUOUS
 10
-1.748453
 20
1.865551
  0
VERTEX
  8
PLAN_1
  6
CONTINUOUS
 10
-1.742500
 20
1.870421
  0
VERTEX
  8
PLAN_1
  6
CONTINUOUS
 10
-1.738709
 20
1.875839
  0
VERTEX
  8
PLAN_1
  6
CONTINUOUS
 10
-1.735461
 20
1.880709
  0
VERTEX
  8
PLAN_1
  6
CONTINUOUS
 10
-1.733839
 20
1.885583
  0
VERTEX
  8
PLAN_1
  6
CONTINUOUS
 10
-1.733295
 20
1.890453
  0
VERTEX
  8
PLAN_1
  6
CONTINUOUS
 10
-1.733295
 20
1.894783
  0
VERTEX
  8
PLAN_1
  6
CONTINUOUS
 10
-1.734378
 20
1.899118
  0
VERTEX
  8
PLAN_1
  6
CONTINUOUS
 10
-1.735461
 20
1.902906
  0
VERTEX
  8
PLAN_1
  6
CONTINUOUS
 10
-1.737087
 20
1.906154
  0
VERTEX
  8
PLAN_1
  6
CONTINUOUS
 10
-1.739252
 20
1.909402
  0
VERTEX
  8
PLAN_1
  6
CONTINUOUS
 10
-1.741417
 20
1.912110
  0
VERTEX
  8
PLAN_1
  6
CONTINUOUS
 10
-1.743583
 20
1.914815
  0
VERTEX
  8
PLAN_1
  6
CONTINUOUS
 10
-1.746831
 20
1.918063
  0
VERTEX
  8
PLAN_1
  6
CONTINUOUS
 10
-1.748453
 20
1.919146
  0
SEQEND
  8
0
  0
POLYLINE
  8
PLAN_1
  6
CONTINUOUS
 66
     1
 40
0.007035
 41
0.007035
  0
VERTEX
  8
PLAN_1
  6
CONTINUOUS
 10
-1.748453
 20
1.919146
  0
VERTEX
  8
PLAN_1
  6
CONTINUOUS
 10
-2.078697
 20
1.919146
  0
SEQEND
  8
0
  0
POLYLINE
  8
PLAN_1
  6
CONTINUOUS
 66
     1
 40
0.007035
 41
0.007035
  0
VERTEX
  8
PLAN_1
  6
CONTINUOUS
 10
-2.078697
 20
1.919146
  0
VERTEX
  8
PLAN_1
  6
CONTINUOUS
 10
-2.079780
 20
1.918063
  0
VERTEX
  8
PLAN_1
  6
CONTINUOUS
 10
-2.082484
 20
1.914815
  0
VERTEX
  8
PLAN_1
  6
CONTINUOUS
 10
-2.084650
 20
1.912650
  0
VERTEX
  8
PLAN_1
  6
CONTINUOUS
 10
-2.086276
 20
1.909945
  0
VERTEX
  8
PLAN_1
  6
CONTINUOUS
 10
-2.087902
 20
1.906697
  0
VERTEX
  8
PLAN_1
  6
CONTINUOUS
 10
-2.089524
 20
1.903449
  0
VERTEX
  8
PLAN_1
  6
CONTINUOUS
 10
-2.091150
 20
1.899657
  0
VERTEX
  8
PLAN_1
  6
CONTINUOUS
 10
-2.091689
 20
1.895327
  0
VERTEX
  8
PLAN_1
  6
CONTINUOUS
 10
-2.091689
 20
1.890996
  0
VERTEX
  8
PLAN_1
  6
CONTINUOUS
 10
-2.091150
 20
1.886665
  0
VERTEX
  8
PLAN_1
  6
CONTINUOUS
 10
-2.089524
 20
1.881252
  0
VERTEX
  8
PLAN_1
  6
CONTINUOUS
 10
-2.086819
 20
1.876378
  0
VERTEX
  8
PLAN_1
  6
CONTINUOUS
 10
-2.083567
 20
1.870965
  0
VERTEX
  8
PLAN_1
  6
CONTINUOUS
 10
-2.078697
 20
1.865551
  0
SEQEND
  8
0
  0
POLYLINE
  8
PLAN_1
  6
CONTINUOUS
 66
     1
 40
0.007035
 41
0.007035
  0
VERTEX
  8
PLAN_1
  6
CONTINUOUS
 10
-2.078697
 20
1.865551
  0
VERTEX
  8
PLAN_1
  6
CONTINUOUS
 10
-1.748453
 20
1.865551
  0
SEQEND
  8
0
  0
POLYLINE
  8
PLAN_1
  6
CONTINUOUS
 66
     1
 40
0.007035
 41
0.007035
  0
VERTEX
  8
PLAN_1
  6
CONTINUOUS
 10
-1.747913
 20
1.812496
  0
VERTEX
  8
PLAN_1
  6
CONTINUOUS
 10
-1.741957
 20
1.817366
  0
VERTEX
  8
PLAN_1
  6
CONTINUOUS
 10
-1.738169
 20
1.822783
  0
VERTEX
  8
PLAN_1
  6
CONTINUOUS
 10
-1.734921
 20
1.827654
  0
VERTEX
  8
PLAN_1
  6
CONTINUOUS
 10
-1.733295
 20
1.832528
  0
VERTEX
  8
PLAN_1
  6
CONTINUOUS
 10
-1.732752
 20
1.836858
  0
VERTEX
  8
PLAN_1
  6
CONTINUOUS
 10
-1.732752
 20
1.841728
  0
VERTEX
  8
PLAN_1
  6
CONTINUOUS
 10
-1.733839
 20
1.845520
  0
VERTEX
  8
PLAN_1
  6
CONTINUOUS
 10
-1.734921
 20
1.849311
  0
VERTEX
  8
PLAN_1
  6
CONTINUOUS
 10
-1.736543
 20
1.853098
  0
VERTEX
  8
PLAN_1
  6
CONTINUOUS
 10
-1.738709
 20
1.856346
  0
VERTEX
  8
PLAN_1
  6
CONTINUOUS
 10
-1.740874
 20
1.859055
  0
VERTEX
  8
PLAN_1
  6
CONTINUOUS
 10
-1.743039
 20
1.861220
  0
VERTEX
  8
PLAN_1
  6
CONTINUOUS
 10
-1.746287
 20
1.865008
  0
VERTEX
  8
PLAN_1
  6
CONTINUOUS
 10
-1.747913
 20
1.866091
  0
SEQEND
  8
0
  0
POLYLINE
  8
PLAN_1
  6
CONTINUOUS
 66
     1
 40
0.007035
 41
0.007035
  0
VERTEX
  8
PLAN_1
  6
CONTINUOUS
 10
-1.747913
 20
1.866091
  0
VERTEX
  8
PLAN_1
  6
CONTINUOUS
 10
-2.078154
 20
1.866091
  0
SEQEND
  8
0
  0
POLYLINE
  8
PLAN_1
  6
CONTINUOUS
 66
     1
 40
0.007035
 41
0.007035
  0
VERTEX
  8
PLAN_1
  6
CONTINUOUS
 10
-2.078154
 20
1.866091
  0
VERTEX
  8
PLAN_1
  6
CONTINUOUS
 10
-2.079236
 20
1.865008
  0
VERTEX
  8
PLAN_1
  6
CONTINUOUS
 10
-2.081945
 20
1.861760
  0
VERTEX
  8
PLAN_1
  6
CONTINUOUS
 10
-2.084110
 20
1.859594
  0
VERTEX
  8
PLAN_1
  6
CONTINUOUS
 10
-2.085736
 20
1.856890
  0
VERTEX
  8
PLAN_1
  6
CONTINUOUS
 10
-2.087358
 20
1.853642
  0
VERTEX
  8
PLAN_1
  6
CONTINUOUS
 10
-2.088984
 20
1.850394
  0
VERTEX
  8
PLAN_1
  6
CONTINUOUS
 10
-2.090606
 20
1.846602
  0
VERTEX
  8
PLAN_1
  6
CONTINUOUS
 10
-2.091150
 20
1.842272
  0
VERTEX
  8
PLAN_1
  6
CONTINUOUS
 10
-2.091150
 20
1.837941
  0
VERTEX
  8
PLAN_1
  6
CONTINUOUS
 10
-2.090606
 20
1.833067
  0
VERTEX
  8
PLAN_1
  6
CONTINUOUS
 10
-2.088984
 20
1.828197
  0
VERTEX
  8
PLAN_1
  6
CONTINUOUS
 10
-2.086819
 20
1.823323
  0
VERTEX
  8
PLAN_1
  6
CONTINUOUS
 10
-2.083028
 20
1.817909
  0
VERTEX
  8
PLAN_1
  6
CONTINUOUS
 10
-2.078154
 20
1.812496
  0
SEQEND
  8
0
  0
POLYLINE
  8
PLAN_1
  6
CONTINUOUS
 66
     1
 40
0.007035
 41
0.007035
  0
VERTEX
  8
PLAN_1
  6
CONTINUOUS
 10
-2.078154
 20
1.812496
  0
VERTEX
  8
PLAN_1
  6
CONTINUOUS
 10
-1.747913
 20
1.812496
  0
SEQEND
  8
0
  0
POLYLINE
  8
PLAN_1
  6
CONTINUOUS
 66
     1
 40
0.007035
 41
0.007035
  0
VERTEX
  8
PLAN_1
  6
CONTINUOUS
 10
-1.747913
 20
1.758358
  0
VERTEX
  8
PLAN_1
  6
CONTINUOUS
 10
-1.742500
 20
1.763228
  0
VERTEX
  8
PLAN_1
  6
CONTINUOUS
 10
-1.738169
 20
1.768642
  0
VERTEX
  8
PLAN_1
  6
CONTINUOUS
 10
-1.735461
 20
1.773516
  0
VERTEX
  8
PLAN_1
  6
CONTINUOUS
 10
-1.733839
 20
1.778390
  0
VERTEX
  8
PLAN_1
  6
CONTINUOUS
 10
-1.732752
 20
1.783260
  0
VERTEX
  8
PLAN_1
  6
CONTINUOUS
 10
-1.733295
 20
1.787591
  0
VERTEX
  8
PLAN_1
  6
CONTINUOUS
 10
-1.733839
 20
1.791921
  0
VERTEX
  8
PLAN_1
  6
CONTINUOUS
 10
-1.735461
 20
1.795713
  0
VERTEX
  8
PLAN_1
  6
CONTINUOUS
 10
-1.737087
 20
1.798961
  0
VERTEX
  8
PLAN_1
  6
CONTINUOUS
 10
-1.739252
 20
1.802209
  0
VERTEX
  8
PLAN_1
  6
CONTINUOUS
 10
-1.741417
 20
1.804917
  0
VERTEX
  8
PLAN_1
  6
CONTINUOUS
 10
-1.743039
 20
1.807622
  0
VERTEX
  8
PLAN_1
  6
CONTINUOUS
 10
-1.746831
 20
1.810870
  0
VERTEX
  8
PLAN_1
  6
CONTINUOUS
 10
-1.747913
 20
1.811953
  0
SEQEND
  8
0
  0
POLYLINE
  8
PLAN_1
  6
CONTINUOUS
 66
     1
 40
0.007035
 41
0.007035
  0
VERTEX
  8
PLAN_1
  6
CONTINUOUS
 10
-1.747913
 20
1.811953
  0
VERTEX
  8
PLAN_1
  6
CONTINUOUS
 10
-2.078154
 20
1.811953
  0
SEQEND
  8
0
  0
POLYLINE
  8
PLAN_1
  6
CONTINUOUS
 66
     1
 40
0.007035
 41
0.007035
  0
VERTEX
  8
PLAN_1
  6
CONTINUOUS
 10
-2.078154
 20
1.811953
  0
VERTEX
  8
PLAN_1
  6
CONTINUOUS
 10
-2.079236
 20
1.810870
  0
VERTEX
  8
PLAN_1
  6
CONTINUOUS
 10
-2.082484
 20
1.807622
  0
VERTEX
  8
PLAN_1
  6
CONTINUOUS
 10
-2.084110
 20
1.805457
  0
VERTEX
  8
PLAN_1
  6
CONTINUOUS
 10
-2.086276
 20
1.802752
  0
VERTEX
  8
PLAN_1
  6
CONTINUOUS
 10
-2.087902
 20
1.799504
  0
VERTEX
  8
PLAN_1
  6
CONTINUOUS
 10
-2.089524
 20
1.796252
  0
VERTEX
  8
PLAN_1
  6
CONTINUOUS
 10
-2.090606
 20
1.792465
  0
VERTEX
  8
PLAN_1
  6
CONTINUOUS
 10
-2.091150
 20
1.788134
  0
VERTEX
  8
PLAN_1
  6
CONTINUOUS
 10
-2.091689
 20
1.783803
  0
VERTEX
  8
PLAN_1
  6
CONTINUOUS
 10
-2.090606
 20
1.779472
  0
VERTEX
  8
PLAN_1
  6
CONTINUOUS
 10
-2.089524
 20
1.774059
  0
VERTEX
  8
PLAN_1
  6
CONTINUOUS
 10
-2.086819
 20
1.769185
  0
VERTEX
  8
PLAN_1
  6
CONTINUOUS
 10
-2.083028
 20
1.763772
  0
VERTEX
  8
PLAN_1
  6
CONTINUOUS
 10
-2.078154
 20
1.758358
  0
SEQEND
  8
0
  0
POLYLINE
  8
PLAN_1
  6
CONTINUOUS
 66
     1
 40
0.007035
 41
0.007035
  0
VERTEX
  8
PLAN_1
  6
CONTINUOUS
 10
-2.078154
 20
1.758358
  0
VERTEX
  8
PLAN_1
  6
CONTINUOUS
 10
-1.747913
 20
1.758358
  0
SEQEND
  8
0
  0
POLYLINE
  8
PLAN_1
  6
CONTINUOUS
 66
     1
 40
0.007035
 41
0.007035
  0
VERTEX
  8
PLAN_1
  6
CONTINUOUS
 10
-1.747370
 20
1.704760
  0
VERTEX
  8
PLAN_1
  6
CONTINUOUS
 10
-1.741957
 20
1.710173
  0
VERTEX
  8
PLAN_1
  6
CONTINUOUS
 10
-1.737626
 20
1.715587
  0
VERTEX
  8
PLAN_1
  6
CONTINUOUS
 10
-1.734921
 20
1.720461
  0
VERTEX
  8
PLAN_1
  6
CONTINUOUS
 10
-1.733295
 20
1.725335
  0
VERTEX
  8
PLAN_1
  6
CONTINUOUS
 10
-1.732213
 20
1.729665
  0
VERTEX
  8
PLAN_1
  6
CONTINUOUS
 10
-1.732752
 20
1.734535
  0
VERTEX
  8
PLAN_1
  6
CONTINUOUS
 10
-1.733295
 20
1.738327
  0
VERTEX
  8
PLAN_1
  6
CONTINUOUS
 10
-1.734921
 20
1.742114
  0
VERTEX
  8
PLAN_1
  6
CONTINUOUS
 10
-1.736543
 20
1.745906
  0
VERTEX
  8
PLAN_1
  6
CONTINUOUS
 10
-1.738709
 20
1.749154
  0
VERTEX
  8
PLAN_1
  6
CONTINUOUS
 10
-1.740874
 20
1.751862
  0
VERTEX
  8
PLAN_1
  6
CONTINUOUS
 10
-1.742500
 20
1.754028
  0
VERTEX
  8
PLAN_1
  6
CONTINUOUS
 10
-1.746287
 20
1.757815
  0
VERTEX
  8
PLAN_1
  6
CONTINUOUS
 10
-1.747370
 20
1.758898
  0
SEQEND
  8
0
  0
POLYLINE
  8
PLAN_1
  6
CONTINUOUS
 66
     1
 40
0.007035
 41
0.007035
  0
VERTEX
  8
PLAN_1
  6
CONTINUOUS
 10
-1.747370
 20
1.758898
  0
VERTEX
  8
PLAN_1
  6
CONTINUOUS
 10
-2.077614
 20
1.758898
  0
SEQEND
  8
0
  0
POLYLINE
  8
PLAN_1
  6
CONTINUOUS
 66
     1
 40
0.007035
 41
0.007035
  0
VERTEX
  8
PLAN_1
  6
CONTINUOUS
 10
-2.077614
 20
1.758898
  0
VERTEX
  8
PLAN_1
  6
CONTINUOUS
 10
-2.079236
 20
1.757815
  0
VERTEX
  8
PLAN_1
  6
CONTINUOUS
 10
-2.081945
 20
1.754567
  0
VERTEX
  8
PLAN_1
  6
CONTINUOUS
 10
-2.083567
 20
1.752402
  0
VERTEX
  8
PLAN_1
  6
CONTINUOUS
 10
-2.085736
 20
1.749697
  0
VERTEX
  8
PLAN_1
  6
CONTINUOUS
 10
-2.087358
 20
1.746445
  0
VERTEX
  8
PLAN_1
  6
CONTINUOUS
 10
-2.088984
 20
1.743197
  0
VERTEX
  8
PLAN_1
  6
CONTINUOUS
 10
-2.090067
 20
1.739409
  0
VERTEX
  8
PLAN_1
  6
CONTINUOUS
 10
-2.090606
 20
1.735079
  0
VERTEX
  8
PLAN_1
  6
CONTINUOUS
 10
-2.091150
 20
1.730748
  0
VERTEX
  8
PLAN_1
  6
CONTINUOUS
 10
-2.090606
 20
1.725874
  0
VERTEX
  8
PLAN_1
  6
CONTINUOUS
 10
-2.088984
 20
1.721000
  0
VERTEX
  8
PLAN_1
  6
CONTINUOUS
 10
-2.086276
 20
1.716130
  0
VERTEX
  8
PLAN_1
  6
CONTINUOUS
 10
-2.082484
 20
1.710717
  0
VERTEX
  8
PLAN_1
  6
CONTINUOUS
 10
-2.077614
 20
1.704760
  0
SEQEND
  8
0
  0
POLYLINE
  8
PLAN_1
  6
CONTINUOUS
 66
     1
 40
0.007035
 41
0.007035
  0
VERTEX
  8
PLAN_1
  6
CONTINUOUS
 10
-2.077614
 20
1.704760
  0
VERTEX
  8
PLAN_1
  6
CONTINUOUS
 10
-1.747370
 20
1.704760
  0
SEQEND
  8
0
  0
POLYLINE
  8
PLAN_1
  6
CONTINUOUS
 66
     1
 40
0.007035
 41
0.007035
  0
VERTEX
  8
PLAN_1
  6
CONTINUOUS
 10
-1.747913
 20
1.651705
  0
VERTEX
  8
PLAN_1
  6
CONTINUOUS
 10
-1.742500
 20
1.657118
  0
VERTEX
  8
PLAN_1
  6
CONTINUOUS
 10
-1.738169
 20
1.661992
  0
VERTEX
  8
PLAN_1
  6
CONTINUOUS
 10
-1.735461
 20
1.666862
  0
VERTEX
  8
PLAN_1
  6
CONTINUOUS
 10
-1.733839
 20
1.671736
  0
VERTEX
  8
PLAN_1
  6
CONTINUOUS
 10
-1.732752
 20
1.676610
  0
VERTEX
  8
PLAN_1
  6
CONTINUOUS
 10
-1.733295
 20
1.680941
  0
VERTEX
  8
PLAN_1
  6
CONTINUOUS
 10
-1.733839
 20
1.685272
  0
VERTEX
  8
PLAN_1
  6
CONTINUOUS
 10
-1.735461
 20
1.689059
  0
VERTEX
  8
PLAN_1
  6
CONTINUOUS
 10
-1.737087
 20
1.692850
  0
VERTEX
  8
PLAN_1
  6
CONTINUOUS
 10
-1.739252
 20
1.696098
  0
VERTEX
  8
PLAN_1
  6
CONTINUOUS
 10
-1.741417
 20
1.698807
  0
VERTEX
  8
PLAN_1
  6
CONTINUOUS
 10
-1.743039
 20
1.700972
  0
VERTEX
  8
PLAN_1
  6
CONTINUOUS
 10
-1.746831
 20
1.704220
  0
VERTEX
  8
PLAN_1
  6
CONTINUOUS
 10
-1.747913
 20
1.705303
  0
SEQEND
  8
0
  0
POLYLINE
  8
PLAN_1
  6
CONTINUOUS
 66
     1
 40
0.007035
 41
0.007035
  0
VERTEX
  8
PLAN_1
  6
CONTINUOUS
 10
-1.747913
 20
1.705303
  0
VERTEX
  8
PLAN_1
  6
CONTINUOUS
 10
-2.078154
 20
1.705303
  0
SEQEND
  8
0
  0
POLYLINE
  8
PLAN_1
  6
CONTINUOUS
 66
     1
 40
0.007035
 41
0.007035
  0
VERTEX
  8
PLAN_1
  6
CONTINUOUS
 10
-2.078154
 20
1.705303
  0
VERTEX
  8
PLAN_1
  6
CONTINUOUS
 10
-2.079236
 20
1.704220
  0
VERTEX
  8
PLAN_1
  6
CONTINUOUS
 10
-2.082484
 20
1.701512
  0
VERTEX
  8
PLAN_1
  6
CONTINUOUS
 10
-2.084110
 20
1.698807
  0
VERTEX
  8
PLAN_1
  6
CONTINUOUS
 10
-2.086276
 20
1.696638
  0
VERTEX
  8
PLAN_1
  6
CONTINUOUS
 10
-2.087902
 20
1.693390
  0
VERTEX
  8
PLAN_1
  6
CONTINUOUS
 10
-2.089524
 20
1.689602
  0
VERTEX
  8
PLAN_1
  6
CONTINUOUS
 10
-2.090606
 20
1.685811
  0
VERTEX
  8
PLAN_1
  6
CONTINUOUS
 10
-2.091150
 20
1.682024
  0
VERTEX
  8
PLAN_1
  6
CONTINUOUS
 10
-2.091689
 20
1.677693
  0
VERTEX
  8
PLAN_1
  6
CONTINUOUS
 10
-2.090606
 20
1.672819
  0
VERTEX
  8
PLAN_1
  6
CONTINUOUS
 10
-2.089524
 20
1.667945
  0
VERTEX
  8
PLAN_1
  6
CONTINUOUS
 10
-2.086819
 20
1.662531
  0
VERTEX
  8
PLAN_1
  6
CONTINUOUS
 10
-2.083028
 20
1.657118
  0
VERTEX
  8
PLAN_1
  6
CONTINUOUS
 10
-2.078154
 20
1.651705
  0
SEQEND
  8
0
  0
POLYLINE
  8
PLAN_1
  6
CONTINUOUS
 66
     1
 40
0.007035
 41
0.007035
  0
VERTEX
  8
PLAN_1
  6
CONTINUOUS
 10
-2.078154
 20
1.651705
  0
VERTEX
  8
PLAN_1
  6
CONTINUOUS
 10
-1.747913
 20
1.651705
  0
SEQEND
  8
0
  0
POLYLINE
  8
PLAN_1
  6
CONTINUOUS
 66
     1
 40
0.007035
 41
0.007035
  0
VERTEX
  8
PLAN_1
  6
CONTINUOUS
 10
-1.747370
 20
1.598650
  0
VERTEX
  8
PLAN_1
  6
CONTINUOUS
 10
-1.741957
 20
1.603524
  0
VERTEX
  8
PLAN_1
  6
CONTINUOUS
 10
-1.737626
 20
1.608937
  0
VERTEX
  8
PLAN_1
  6
CONTINUOUS
 10
-1.734921
 20
1.613807
  0
VERTEX
  8
PLAN_1
  6
CONTINUOUS
 10
-1.733295
 20
1.618681
  0
VERTEX
  8
PLAN_1
  6
CONTINUOUS
 10
-1.732213
 20
1.623555
  0
VERTEX
  8
PLAN_1
  6
CONTINUOUS
 10
-1.732752
 20
1.627886
  0
VERTEX
  8
PLAN_1
  6
CONTINUOUS
 10
-1.733295
 20
1.632217
  0
VERTEX
  8
PLAN_1
  6
CONTINUOUS
 10
-1.734921
 20
1.636004
  0
VERTEX
  8
PLAN_1
  6
CONTINUOUS
 10
-1.736543
 20
1.639252
  0
VERTEX
  8
PLAN_1
  6
CONTINUOUS
 10
-1.738709
 20
1.642500
  0
VERTEX
  8
PLAN_1
  6
CONTINUOUS
 10
-1.740874
 20
1.645209
  0
VERTEX
  8
PLAN_1
  6
CONTINUOUS
 10
-1.742500
 20
1.647917
  0
VERTEX
  8
PLAN_1
  6
CONTINUOUS
 10
-1.746287
 20
1.651165
  0
VERTEX
  8
PLAN_1
  6
CONTINUOUS
 10
-1.747370
 20
1.652248
  0
SEQEND
  8
0
  0
POLYLINE
  8
PLAN_1
  6
CONTINUOUS
 66
     1
 40
0.007035
 41
0.007035
  0
VERTEX
  8
PLAN_1
  6
CONTINUOUS
 10
-1.747370
 20
1.652248
  0
VERTEX
  8
PLAN_1
  6
CONTINUOUS
 10
-2.077614
 20
1.652248
  0
SEQEND
  8
0
  0
POLYLINE
  8
PLAN_1
  6
CONTINUOUS
 66
     1
 40
0.007035
 41
0.007035
  0
VERTEX
  8
PLAN_1
  6
CONTINUOUS
 10
-2.077614
 20
1.652248
  0
VERTEX
  8
PLAN_1
  6
CONTINUOUS
 10
-2.079236
 20
1.651165
  0
VERTEX
  8
PLAN_1
  6
CONTINUOUS
 10
-2.081945
 20
1.647917
  0
VERTEX
  8
PLAN_1
  6
CONTINUOUS
 10
-2.083567
 20
1.645748
  0
VERTEX
  8
PLAN_1
  6
CONTINUOUS
 10
-2.085736
 20
1.643043
  0
VERTEX
  8
PLAN_1
  6
CONTINUOUS
 10
-2.087358
 20
1.640335
  0
VERTEX
  8
PLAN_1
  6
CONTINUOUS
 10
-2.088984
 20
1.636547
  0
VERTEX
  8
PLAN_1
  6
CONTINUOUS
 10
-2.090067
 20
1.632756
  0
VERTEX
  8
PLAN_1
  6
CONTINUOUS
 10
-2.090606
 20
1.628425
  0
VERTEX
  8
PLAN_1
  6
CONTINUOUS
 10
-2.091150
 20
1.624094
  0
VERTEX
  8
PLAN_1
  6
CONTINUOUS
 10
-2.090606
 20
1.619764
  0
VERTEX
  8
PLAN_1
  6
CONTINUOUS
 10
-2.088984
 20
1.614890
  0
VERTEX
  8
PLAN_1
  6
CONTINUOUS
 10
-2.086276
 20
1.609476
  0
VERTEX
  8
PLAN_1
  6
CONTINUOUS
 10
-2.082484
 20
1.604063
  0
VERTEX
  8
PLAN_1
  6
CONTINUOUS
 10
-2.077614
 20
1.598650
  0
SEQEND
  8
0
  0
POLYLINE
  8
PLAN_1
  6
CONTINUOUS
 66
     1
 40
0.007035
 41
0.007035
  0
VERTEX
  8
PLAN_1
  6
CONTINUOUS
 10
-2.077614
 20
1.598650
  0
VERTEX
  8
PLAN_1
  6
CONTINUOUS
 10
-1.747370
 20
1.598650
  0
SEQEND
  8
0
  0
POLYLINE
  8
PLAN_1
  6
CONTINUOUS
 66
     1
 40
0.007035
 41
0.007035
  0
VERTEX
  8
PLAN_1
  6
CONTINUOUS
 10
-1.747913
 20
1.545594
  0
VERTEX
  8
PLAN_1
  6
CONTINUOUS
 10
-1.742500
 20
1.550469
  0
VERTEX
  8
PLAN_1
  6
CONTINUOUS
 10
-1.738169
 20
1.555882
  0
VERTEX
  8
PLAN_1
  6
CONTINUOUS
 10
-1.735461
 20
1.560752
  0
VERTEX
  8
PLAN_1
  6
CONTINUOUS
 10
-1.733839
 20
1.565626
  0
VERTEX
  8
PLAN_1
  6
CONTINUOUS
 10
-1.732752
 20
1.569957
  0
VERTEX
  8
PLAN_1
  6
CONTINUOUS
 10
-1.733295
 20
1.574831
  0
VERTEX
  8
PLAN_1
  6
CONTINUOUS
 10
-1.733839
 20
1.578618
  0
VERTEX
  8
PLAN_1
  6
CONTINUOUS
 10
-1.735461
 20
1.582409
  0
VERTEX
  8
PLAN_1
  6
CONTINUOUS
 10
-1.737087
 20
1.586197
  0
VERTEX
  8
PLAN_1
  6
CONTINUOUS
 10
-1.739252
 20
1.589445
  0
VERTEX
  8
PLAN_1
  6
CONTINUOUS
 10
-1.741417
 20
1.592154
  0
VERTEX
  8
PLAN_1
  6
CONTINUOUS
 10
-1.743039
 20
1.594858
  0
VERTEX
  8
PLAN_1
  6
CONTINUOUS
 10
-1.746831
 20
1.598110
  0
VERTEX
  8
PLAN_1
  6
CONTINUOUS
 10
-1.747913
 20
1.599193
  0
SEQEND
  8
0
  0
POLYLINE
  8
PLAN_1
  6
CONTINUOUS
 66
     1
 40
0.007035
 41
0.007035
  0
VERTEX
  8
PLAN_1
  6
CONTINUOUS
 10
-1.747913
 20
1.599193
  0
VERTEX
  8
PLAN_1
  6
CONTINUOUS
 10
-2.078154
 20
1.599193
  0
SEQEND
  8
0
  0
POLYLINE
  8
PLAN_1
  6
CONTINUOUS
 66
     1
 40
0.007035
 41
0.007035
  0
VERTEX
  8
PLAN_1
  6
CONTINUOUS
 10
-2.078154
 20
1.599193
  0
VERTEX
  8
PLAN_1
  6
CONTINUOUS
 10
-2.079236
 20
1.598110
  0
VERTEX
  8
PLAN_1
  6
CONTINUOUS
 10
-2.082484
 20
1.594858
  0
VERTEX
  8
PLAN_1
  6
CONTINUOUS
 10
-2.084110
 20
1.592693
  0
VERTEX
  8
PLAN_1
  6
CONTINUOUS
 10
-2.086276
 20
1.589988
  0
VERTEX
  8
PLAN_1
  6
CONTINUOUS
 10
-2.087902
 20
1.586740
  0
VERTEX
  8
PLAN_1
  6
CONTINUOUS
 10
-2.089524
 20
1.583492
  0
VERTEX
  8
PLAN_1
  6
CONTINUOUS
 10
-2.090606
 20
1.579701
  0
VERTEX
  8
PLAN_1
  6
CONTINUOUS
 10
-2.091150
 20
1.575370
  0
VERTEX
  8
PLAN_1
  6
CONTINUOUS
 10
-2.091689
 20
1.571039
  0
VERTEX
  8
PLAN_1
  6
CONTINUOUS
 10
-2.090606
 20
1.566165
  0
VERTEX
  8
PLAN_1
  6
CONTINUOUS
 10
-2.089524
 20
1.561295
  0
VERTEX
  8
PLAN_1
  6
CONTINUOUS
 10
-2.086819
 20
1.556421
  0
VERTEX
  8
PLAN_1
  6
CONTINUOUS
 10
-2.083028
 20
1.551008
  0
VERTEX
  8
PLAN_1
  6
CONTINUOUS
 10
-2.078154
 20
1.545594
  0
SEQEND
  8
0
  0
POLYLINE
  8
PLAN_1
  6
CONTINUOUS
 66
     1
 40
0.007035
 41
0.007035
  0
VERTEX
  8
PLAN_1
  6
CONTINUOUS
 10
-2.078154
 20
1.545594
  0
VERTEX
  8
PLAN_1
  6
CONTINUOUS
 10
-1.747913
 20
1.545594
  0
SEQEND
  8
0
  0
POLYLINE
  8
PLAN_1
  6
CONTINUOUS
 66
     1
 40
0.007035
 41
0.007035
  0
VERTEX
  8
PLAN_1
  6
CONTINUOUS
 10
-1.747370
 20
1.491996
  0
VERTEX
  8
PLAN_1
  6
CONTINUOUS
 10
-1.741957
 20
1.497413
  0
VERTEX
  8
PLAN_1
  6
CONTINUOUS
 10
-1.737626
 20
1.502283
  0
VERTEX
  8
PLAN_1
  6
CONTINUOUS
 10
-1.734921
 20
1.507697
  0
VERTEX
  8
PLAN_1
  6
CONTINUOUS
 10
-1.733295
 20
1.512028
  0
VERTEX
  8
PLAN_1
  6
CONTINUOUS
 10
-1.732213
 20
1.516902
  0
VERTEX
  8
PLAN_1
  6
CONTINUOUS
 10
-1.732752
 20
1.521232
  0
VERTEX
  8
PLAN_1
  6
CONTINUOUS
 10
-1.733295
 20
1.525563
  0
VERTEX
  8
PLAN_1
  6
CONTINUOUS
 10
-1.734921
 20
1.529354
  0
VERTEX
  8
PLAN_1
  6
CONTINUOUS
 10
-1.736543
 20
1.533142
  0
VERTEX
  8
PLAN_1
  6
CONTINUOUS
 10
-1.738709
 20
1.536390
  0
VERTEX
  8
PLAN_1
  6
CONTINUOUS
 10
-1.740874
 20
1.539098
  0
VERTEX
  8
PLAN_1
  6
CONTINUOUS
 10
-1.742500
 20
1.541264
  0
VERTEX
  8
PLAN_1
  6
CONTINUOUS
 10
-1.746287
 20
1.544512
  0
VERTEX
  8
PLAN_1
  6
CONTINUOUS
 10
-1.747370
 20
1.546134
  0
SEQEND
  8
0
  0
POLYLINE
  8
PLAN_1
  6
CONTINUOUS
 66
     1
 40
0.007035
 41
0.007035
  0
VERTEX
  8
PLAN_1
  6
CONTINUOUS
 10
-1.747370
 20
1.546134
  0
VERTEX
  8
PLAN_1
  6
CONTINUOUS
 10
-2.077614
 20
1.546134
  0
SEQEND
  8
0
  0
POLYLINE
  8
PLAN_1
  6
CONTINUOUS
 66
     1
 40
0.007035
 41
0.007035
  0
VERTEX
  8
PLAN_1
  6
CONTINUOUS
 10
-2.077614
 20
1.546134
  0
VERTEX
  8
PLAN_1
  6
CONTINUOUS
 10
-2.079236
 20
1.544512
  0
VERTEX
  8
PLAN_1
  6
CONTINUOUS
 10
-2.081945
 20
1.541803
  0
VERTEX
  8
PLAN_1
  6
CONTINUOUS
 10
-2.083567
 20
1.539638
  0
VERTEX
  8
PLAN_1
  6
CONTINUOUS
 10
-2.085736
 20
1.536933
  0
VERTEX
  8
PLAN_1
  6
CONTINUOUS
 10
-2.087358
 20
1.533685
  0
VERTEX
  8
PLAN_1
  6
CONTINUOUS
 10
-2.088984
 20
1.530437
  0
VERTEX
  8
PLAN_1
  6
CONTINUOUS
 10
-2.090067
 20
1.526646
  0
VERTEX
  8
PLAN_1
  6
CONTINUOUS
 10
-2.090606
 20
1.522315
  0
VERTEX
  8
PLAN_1
  6
CONTINUOUS
 10
-2.091150
 20
1.517984
  0
VERTEX
  8
PLAN_1
  6
CONTINUOUS
 10
-2.090606
 20
1.513110
  0
VERTEX
  8
PLAN_1
  6
CONTINUOUS
 10
-2.088984
 20
1.508240
  0
VERTEX
  8
PLAN_1
  6
CONTINUOUS
 10
-2.086276
 20
1.502827
  0
VERTEX
  8
PLAN_1
  6
CONTINUOUS
 10
-2.082484
 20
1.497413
  0
VERTEX
  8
PLAN_1
  6
CONTINUOUS
 10
-2.077614
 20
1.491996
  0
SEQEND
  8
0
  0
POLYLINE
  8
PLAN_1
  6
CONTINUOUS
 66
     1
 40
0.007035
 41
0.007035
  0
VERTEX
  8
PLAN_1
  6
CONTINUOUS
 10
-2.077614
 20
1.491996
  0
VERTEX
  8
PLAN_1
  6
CONTINUOUS
 10
-1.747370
 20
1.491996
  0
SEQEND
  8
0
  0
POLYLINE
  8
PLAN_1
  6
CONTINUOUS
 66
     1
 40
0.007035
 41
0.007035
  0
VERTEX
  8
PLAN_1
  6
CONTINUOUS
 10
-1.747913
 20
1.438941
  0
VERTEX
  8
PLAN_1
  6
CONTINUOUS
 10
-1.742500
 20
1.444354
  0
VERTEX
  8
PLAN_1
  6
CONTINUOUS
 10
-1.738169
 20
1.449228
  0
VERTEX
  8
PLAN_1
  6
CONTINUOUS
 10
-1.735461
 20
1.454102
  0
VERTEX
  8
PLAN_1
  6
CONTINUOUS
 10
-1.733839
 20
1.458972
  0
VERTEX
  8
PLAN_1
  6
CONTINUOUS
 10
-1.732752
 20
1.463846
  0
VERTEX
  8
PLAN_1
  6
CONTINUOUS
 10
-1.733295
 20
1.468177
  0
VERTEX
  8
PLAN_1
  6
CONTINUOUS
 10
-1.733839
 20
1.472508
  0
VERTEX
  8
PLAN_1
  6
CONTINUOUS
 10
-1.735461
 20
1.476299
  0
VERTEX
  8
PLAN_1
  6
CONTINUOUS
 10
-1.737087
 20
1.479547
  0
VERTEX
  8
PLAN_1
  6
CONTINUOUS
 10
-1.739252
 20
1.482795
  0
VERTEX
  8
PLAN_1
  6
CONTINUOUS
 10
-1.741417
 20
1.486043
  0
VERTEX
  8
PLAN_1
  6
CONTINUOUS
 10
-1.743039
 20
1.488209
  0
VERTEX
  8
PLAN_1
  6
CONTINUOUS
 10
-1.746831
 20
1.491457
  0
VERTEX
  8
PLAN_1
  6
CONTINUOUS
 10
-1.747913
 20
1.492539
  0
SEQEND
  8
0
  0
POLYLINE
  8
PLAN_1
  6
CONTINUOUS
 66
     1
 40
0.007035
 41
0.007035
  0
VERTEX
  8
PLAN_1
  6
CONTINUOUS
 10
-1.747913
 20
1.492539
  0
VERTEX
  8
PLAN_1
  6
CONTINUOUS
 10
-2.078154
 20
1.492539
  0
SEQEND
  8
0
  0
POLYLINE
  8
PLAN_1
  6
CONTINUOUS
 66
     1
 40
0.007035
 41
0.007035
  0
VERTEX
  8
PLAN_1
  6
CONTINUOUS
 10
-2.078154
 20
1.492539
  0
VERTEX
  8
PLAN_1
  6
CONTINUOUS
 10
-2.079236
 20
1.491457
  0
VERTEX
  8
PLAN_1
  6
CONTINUOUS
 10
-2.082484
 20
1.488209
  0
VERTEX
  8
PLAN_1
  6
CONTINUOUS
 10
-2.084110
 20
1.486043
  0
VERTEX
  8
PLAN_1
  6
CONTINUOUS
 10
-2.086276
 20
1.483335
  0
VERTEX
  8
PLAN_1
  6
CONTINUOUS
 10
-2.087902
 20
1.480630
  0
VERTEX
  8
PLAN_1
  6
CONTINUOUS
 10
-2.089524
 20
1.476839
  0
VERTEX
  8
PLAN_1
  6
CONTINUOUS
 10
-2.090606
 20
1.473051
  0
VERTEX
  8
PLAN_1
  6
CONTINUOUS
 10
-2.091150
 20
1.469260
  0
VERTEX
  8
PLAN_1
  6
CONTINUOUS
 10
-2.091689
 20
1.464386
  0
VERTEX
  8
PLAN_1
  6
CONTINUOUS
 10
-2.090606
 20
1.460055
  0
VERTEX
  8
PLAN_1
  6
CONTINUOUS
 10
-2.089524
 20
1.455185
  0
VERTEX
  8
PLAN_1
  6
CONTINUOUS
 10
-2.086819
 20
1.449772
  0
VERTEX
  8
PLAN_1
  6
CONTINUOUS
 10
-2.083028
 20
1.444354
  0
VERTEX
  8
PLAN_1
  6
CONTINUOUS
 10
-2.078154
 20
1.438941
  0
SEQEND
  8
0
  0
POLYLINE
  8
PLAN_1
  6
CONTINUOUS
 66
     1
 40
0.007035
 41
0.007035
  0
VERTEX
  8
PLAN_1
  6
CONTINUOUS
 10
-2.078154
 20
1.438941
  0
VERTEX
  8
PLAN_1
  6
CONTINUOUS
 10
-1.747913
 20
1.438941
  0
SEQEND
  8
0
  0
POLYLINE
  8
PLAN_1
  6
CONTINUOUS
 66
     1
 40
0.007035
 41
0.007035
  0
VERTEX
  8
PLAN_1
  6
CONTINUOUS
 10
-1.747370
 20
1.385886
  0
VERTEX
  8
PLAN_1
  6
CONTINUOUS
 10
-1.741957
 20
1.390760
  0
VERTEX
  8
PLAN_1
  6
CONTINUOUS
 10
-1.737626
 20
1.396173
  0
VERTEX
  8
PLAN_1
  6
CONTINUOUS
 10
-1.734921
 20
1.401047
  0
VERTEX
  8
PLAN_1
  6
CONTINUOUS
 10
-1.733295
 20
1.405917
  0
VERTEX
  8
PLAN_1
  6
CONTINUOUS
 10
-1.732213
 20
1.410248
  0
VERTEX
  8
PLAN_1
  6
CONTINUOUS
 10
-1.732752
 20
1.415122
  0
VERTEX
  8
PLAN_1
  6
CONTINUOUS
 10
-1.733295
 20
1.418909
  0
VERTEX
  8
PLAN_1
  6
CONTINUOUS
 10
-1.734921
 20
1.423244
  0
VERTEX
  8
PLAN_1
  6
CONTINUOUS
 10
-1.736543
 20
1.426492
  0
VERTEX
  8
PLAN_1
  6
CONTINUOUS
 10
-1.738709
 20
1.429740
  0
VERTEX
  8
PLAN_1
  6
CONTINUOUS
 10
-1.740874
 20
1.432445
  0
VERTEX
  8
PLAN_1
  6
CONTINUOUS
 10
-1.742500
 20
1.435154
  0
VERTEX
  8
PLAN_1
  6
CONTINUOUS
 10
-1.746287
 20
1.438402
  0
VERTEX
  8
PLAN_1
  6
CONTINUOUS
 10
-1.747370
 20
1.439484
  0
SEQEND
  8
0
  0
POLYLINE
  8
PLAN_1
  6
CONTINUOUS
 66
     1
 40
0.007035
 41
0.007035
  0
VERTEX
  8
PLAN_1
  6
CONTINUOUS
 10
-1.747370
 20
1.439484
  0
VERTEX
  8
PLAN_1
  6
CONTINUOUS
 10
-2.077614
 20
1.439484
  0
SEQEND
  8
0
  0
POLYLINE
  8
PLAN_1
  6
CONTINUOUS
 66
     1
 40
0.007035
 41
0.007035
  0
VERTEX
  8
PLAN_1
  6
CONTINUOUS
 10
-2.077614
 20
1.439484
  0
VERTEX
  8
PLAN_1
  6
CONTINUOUS
 10
-2.079236
 20
1.438402
  0
VERTEX
  8
PLAN_1
  6
CONTINUOUS
 10
-2.081945
 20
1.435154
  0
VERTEX
  8
PLAN_1
  6
CONTINUOUS
 10
-2.083567
 20
1.432988
  0
VERTEX
  8
PLAN_1
  6
CONTINUOUS
 10
-2.085736
 20
1.430280
  0
VERTEX
  8
PLAN_1
  6
CONTINUOUS
 10
-2.087358
 20
1.427031
  0
VERTEX
  8
PLAN_1
  6
CONTINUOUS
 10
-2.088984
 20
1.423783
  0
VERTEX
  8
PLAN_1
  6
CONTINUOUS
 10
-2.090067
 20
1.419992
  0
VERTEX
  8
PLAN_1
  6
CONTINUOUS
 10
-2.090606
 20
1.415661
  0
VERTEX
  8
PLAN_1
  6
CONTINUOUS
 10
-2.091150
 20
1.411331
  0
VERTEX
  8
PLAN_1
  6
CONTINUOUS
 10
-2.090606
 20
1.406461
  0
VERTEX
  8
PLAN_1
  6
CONTINUOUS
 10
-2.088984
 20
1.401587
  0
VERTEX
  8
PLAN_1
  6
CONTINUOUS
 10
-2.086276
 20
1.396717
  0
VERTEX
  8
PLAN_1
  6
CONTINUOUS
 10
-2.082484
 20
1.391299
  0
VERTEX
  8
PLAN_1
  6
CONTINUOUS
 10
-2.077614
 20
1.385886
  0
SEQEND
  8
0
  0
POLYLINE
  8
PLAN_1
  6
CONTINUOUS
 66
     1
 40
0.007035
 41
0.007035
  0
VERTEX
  8
PLAN_1
  6
CONTINUOUS
 10
-2.077614
 20
1.385886
  0
VERTEX
  8
PLAN_1
  6
CONTINUOUS
 10
-1.747370
 20
1.385886
  0
SEQEND
  8
0
  0
POLYLINE
  8
PLAN_1
  6
CONTINUOUS
 66
     1
 40
0.007035
 41
0.007035
  0
VERTEX
  8
PLAN_1
  6
CONTINUOUS
 10
-1.747913
 20
1.332291
  0
VERTEX
  8
PLAN_1
  6
CONTINUOUS
 10
-1.742500
 20
1.337705
  0
VERTEX
  8
PLAN_1
  6
CONTINUOUS
 10
-1.738169
 20
1.342575
  0
VERTEX
  8
PLAN_1
  6
CONTINUOUS
 10
-1.735461
 20
1.347992
  0
VERTEX
  8
PLAN_1
  6
CONTINUOUS
 10
-1.733839
 20
1.352862
  0
VERTEX
  8
PLAN_1
  6
CONTINUOUS
 10
-1.732752
 20
1.357193
  0
VERTEX
  8
PLAN_1
  6
CONTINUOUS
 10
-1.733295
 20
1.361524
  0
VERTEX
  8
PLAN_1
  6
CONTINUOUS
 10
-1.733839
 20
1.365854
  0
VERTEX
  8
PLAN_1
  6
CONTINUOUS
 10
-1.735461
 20
1.369646
  0
VERTEX
  8
PLAN_1
  6
CONTINUOUS
 10
-1.737087
 20
1.373437
  0
VERTEX
  8
PLAN_1
  6
CONTINUOUS
 10
-1.739252
 20
1.376685
  0
VERTEX
  8
PLAN_1
  6
CONTINUOUS
 10
-1.741417
 20
1.379390
  0
VERTEX
  8
PLAN_1
  6
CONTINUOUS
 10
-1.743039
 20
1.381555
  0
VERTEX
  8
PLAN_1
  6
CONTINUOUS
 10
-1.746831
 20
1.384803
  0
VERTEX
  8
PLAN_1
  6
CONTINUOUS
 10
-1.747913
 20
1.386429
  0
SEQEND
  8
0
  0
POLYLINE
  8
PLAN_1
  6
CONTINUOUS
 66
     1
 40
0.007035
 41
0.007035
  0
VERTEX
  8
PLAN_1
  6
CONTINUOUS
 10
-1.747913
 20
1.386429
  0
VERTEX
  8
PLAN_1
  6
CONTINUOUS
 10
-2.078154
 20
1.386429
  0
SEQEND
  8
0
  0
POLYLINE
  8
PLAN_1
  6
CONTINUOUS
 66
     1
 40
0.007035
 41
0.007035
  0
VERTEX
  8
PLAN_1
  6
CONTINUOUS
 10
-2.078154
 20
1.386429
  0
VERTEX
  8
PLAN_1
  6
CONTINUOUS
 10
-2.079236
 20
1.385346
  0
VERTEX
  8
PLAN_1
  6
CONTINUOUS
 10
-2.082484
 20
1.382098
  0
VERTEX
  8
PLAN_1
  6
CONTINUOUS
 10
-2.084110
 20
1.379933
  0
VERTEX
  8
PLAN_1
  6
CONTINUOUS
 10
-2.086276
 20
1.377224
  0
VERTEX
  8
PLAN_1
  6
CONTINUOUS
 10
-2.087902
 20
1.373976
  0
VERTEX
  8
PLAN_1
  6
CONTINUOUS
 10
-2.089524
 20
1.370728
  0
VERTEX
  8
PLAN_1
  6
CONTINUOUS
 10
-2.090606
 20
1.366937
  0
VERTEX
  8
PLAN_1
  6
CONTINUOUS
 10
-2.091150
 20
1.362606
  0
VERTEX
  8
PLAN_1
  6
CONTINUOUS
 10
-2.091689
 20
1.358276
  0
VERTEX
  8
PLAN_1
  6
CONTINUOUS
 10
-2.090606
 20
1.353406
  0
VERTEX
  8
PLAN_1
  6
CONTINUOUS
 10
-2.089524
 20
1.348531
  0
VERTEX
  8
PLAN_1
  6
CONTINUOUS
 10
-2.086819
 20
1.343118
  0
VERTEX
  8
PLAN_1
  6
CONTINUOUS
 10
-2.083028
 20
1.338244
  0
VERTEX
  8
PLAN_1
  6
CONTINUOUS
 10
-2.078154
 20
1.332291
  0
SEQEND
  8
0
  0
POLYLINE
  8
PLAN_1
  6
CONTINUOUS
 66
     1
 40
0.007035
 41
0.007035
  0
VERTEX
  8
PLAN_1
  6
CONTINUOUS
 10
-2.078154
 20
1.332291
  0
VERTEX
  8
PLAN_1
  6
CONTINUOUS
 10
-1.747913
 20
1.332291
  0
SEQEND
  8
0
  0
POLYLINE
  8
PLAN_1
  6
CONTINUOUS
 66
     1
 40
0.007035
 41
0.007035
  0
VERTEX
  8
PLAN_1
  6
CONTINUOUS
 10
-1.747370
 20
1.279236
  0
VERTEX
  8
PLAN_1
  6
CONTINUOUS
 10
-1.741957
 20
1.284650
  0
VERTEX
  8
PLAN_1
  6
CONTINUOUS
 10
-1.737626
 20
1.289520
  0
VERTEX
  8
PLAN_1
  6
CONTINUOUS
 10
-1.734921
 20
1.294394
  0
VERTEX
  8
PLAN_1
  6
CONTINUOUS
 10
-1.733295
 20
1.299268
  0
VERTEX
  8
PLAN_1
  6
CONTINUOUS
 10
-1.732213
 20
1.304138
  0
VERTEX
  8
PLAN_1
  6
CONTINUOUS
 10
-1.732752
 20
1.308469
  0
VERTEX
  8
PLAN_1
  6
CONTINUOUS
 10
-1.733295
 20
1.312799
  0
VERTEX
  8
PLAN_1
  6
CONTINUOUS
 10
-1.734921
 20
1.316591
  0
VERTEX
  8
PLAN_1
  6
CONTINUOUS
 10
-1.736543
 20
1.319839
  0
VERTEX
  8
PLAN_1
  6
CONTINUOUS
 10
-1.738709
 20
1.323087
  0
VERTEX
  8
PLAN_1
  6
CONTINUOUS
 10
-1.740874
 20
1.326335
  0
VERTEX
  8
PLAN_1
  6
CONTINUOUS
 10
-1.742500
 20
1.328500
  0
VERTEX
  8
PLAN_1
  6
CONTINUOUS
 10
-1.746287
 20
1.331748
  0
VERTEX
  8
PLAN_1
  6
CONTINUOUS
 10
-1.747370
 20
1.332831
  0
SEQEND
  8
0
  0
POLYLINE
  8
PLAN_1
  6
CONTINUOUS
 66
     1
 40
0.007035
 41
0.007035
  0
VERTEX
  8
PLAN_1
  6
CONTINUOUS
 10
-1.747370
 20
1.332831
  0
VERTEX
  8
PLAN_1
  6
CONTINUOUS
 10
-2.077614
 20
1.332831
  0
SEQEND
  8
0
  0
POLYLINE
  8
PLAN_1
  6
CONTINUOUS
 66
     1
 40
0.007035
 41
0.007035
  0
VERTEX
  8
PLAN_1
  6
CONTINUOUS
 10
-2.077614
 20
1.332831
  0
VERTEX
  8
PLAN_1
  6
CONTINUOUS
 10
-2.079236
 20
1.331748
  0
VERTEX
  8
PLAN_1
  6
CONTINUOUS
 10
-2.081945
 20
1.328500
  0
VERTEX
  8
PLAN_1
  6
CONTINUOUS
 10
-2.083567
 20
1.326335
  0
VERTEX
  8
PLAN_1
  6
CONTINUOUS
 10
-2.085736
 20
1.323630
  0
VERTEX
  8
PLAN_1
  6
CONTINUOUS
 10
-2.087358
 20
1.320921
  0
VERTEX
  8
PLAN_1
  6
CONTINUOUS
 10
-2.088984
 20
1.317130
  0
VERTEX
  8
PLAN_1
  6
CONTINUOUS
 10
-2.090067
 20
1.313343
  0
VERTEX
  8
PLAN_1
  6
CONTINUOUS
 10
-2.090606
 20
1.309551
  0
VERTEX
  8
PLAN_1
  6
CONTINUOUS
 10
-2.091150
 20
1.304681
  0
VERTEX
  8
PLAN_1
  6
CONTINUOUS
 10
-2.090606
 20
1.300350
  0
VERTEX
  8
PLAN_1
  6
CONTINUOUS
 10
-2.088984
 20
1.295476
  0
VERTEX
  8
PLAN_1
  6
CONTINUOUS
 10
-2.086276
 20
1.290063
  0
VERTEX
  8
PLAN_1
  6
CONTINUOUS
 10
-2.082484
 20
1.284650
  0
VERTEX
  8
PLAN_1
  6
CONTINUOUS
 10
-2.077614
 20
1.279236
  0
SEQEND
  8
0
  0
POLYLINE
  8
PLAN_1
  6
CONTINUOUS
 66
     1
 40
0.007035
 41
0.007035
  0
VERTEX
  8
PLAN_1
  6
CONTINUOUS
 10
-2.077614
 20
1.279236
  0
VERTEX
  8
PLAN_1
  6
CONTINUOUS
 10
-1.747370
 20
1.279236
  0
SEQEND
  8
0
  0
POLYLINE
  8
PLAN_1
  6
CONTINUOUS
 66
     1
 40
0.007035
 41
0.007035
  0
VERTEX
  8
PLAN_1
  6
CONTINUOUS
 10
-1.747913
 20
1.226181
  0
VERTEX
  8
PLAN_1
  6
CONTINUOUS
 10
-1.742500
 20
1.231051
  0
VERTEX
  8
PLAN_1
  6
CONTINUOUS
 10
-1.738169
 20
1.236465
  0
VERTEX
  8
PLAN_1
  6
CONTINUOUS
 10
-1.735461
 20
1.241339
  0
VERTEX
  8
PLAN_1
  6
CONTINUOUS
 10
-1.733839
 20
1.246213
  0
VERTEX
  8
PLAN_1
  6
CONTINUOUS
 10
-1.732752
 20
1.251083
  0
VERTEX
  8
PLAN_1
  6
CONTINUOUS
 10
-1.733295
 20
1.255413
  0
VERTEX
  8
PLAN_1
  6
CONTINUOUS
 10
-1.733839
 20
1.259205
  0
VERTEX
  8
PLAN_1
  6
CONTINUOUS
 10
-1.735461
 20
1.263535
  0
VERTEX
  8
PLAN_1
  6
CONTINUOUS
 10
-1.737087
 20
1.266783
  0
VERTEX
  8
PLAN_1
  6
CONTINUOUS
 10
-1.739252
 20
1.270031
  0
VERTEX
  8
PLAN_1
  6
CONTINUOUS
 10
-1.741417
 20
1.272740
  0
VERTEX
  8
PLAN_1
  6
CONTINUOUS
 10
-1.743039
 20
1.275445
  0
VERTEX
  8
PLAN_1
  6
CONTINUOUS
 10
-1.746831
 20
1.278693
  0
VERTEX
  8
PLAN_1
  6
CONTINUOUS
 10
-1.747913
 20
1.279776
  0
SEQEND
  8
0
  0
POLYLINE
  8
PLAN_1
  6
CONTINUOUS
 66
     1
 40
0.007035
 41
0.007035
  0
VERTEX
  8
PLAN_1
  6
CONTINUOUS
 10
-1.747913
 20
1.279776
  0
VERTEX
  8
PLAN_1
  6
CONTINUOUS
 10
-2.078154
 20
1.279776
  0
SEQEND
  8
0
  0
POLYLINE
  8
PLAN_1
  6
CONTINUOUS
 66
     1
 40
0.007035
 41
0.007035
  0
VERTEX
  8
PLAN_1
  6
CONTINUOUS
 10
-2.078154
 20
1.279776
  0
VERTEX
  8
PLAN_1
  6
CONTINUOUS
 10
-2.079236
 20
1.278693
  0
VERTEX
  8
PLAN_1
  6
CONTINUOUS
 10
-2.082484
 20
1.275445
  0
VERTEX
  8
PLAN_1
  6
CONTINUOUS
 10
-2.084110
 20
1.273280
  0
VERTEX
  8
PLAN_1
  6
CONTINUOUS
 10
-2.086276
 20
1.270575
  0
VERTEX
  8
PLAN_1
  6
CONTINUOUS
 10
-2.087902
 20
1.267323
  0
VERTEX
  8
PLAN_1
  6
CONTINUOUS
 10
-2.089524
 20
1.264075
  0
VERTEX
  8
PLAN_1
  6
CONTINUOUS
 10
-2.090606
 20
1.260287
  0
VERTEX
  8
PLAN_1
  6
CONTINUOUS
 10
-2.091150
 20
1.255957
  0
VERTEX
  8
PLAN_1
  6
CONTINUOUS
 10
-2.091689
 20
1.251626
  0
VERTEX
  8
PLAN_1
  6
CONTINUOUS
 10
-2.090606
 20
1.246752
  0
VERTEX
  8
PLAN_1
  6
CONTINUOUS
 10
-2.089524
 20
1.241878
  0
VERTEX
  8
PLAN_1
  6
CONTINUOUS
 10
-2.086819
 20
1.237008
  0
VERTEX
  8
PLAN_1
  6
CONTINUOUS
 10
-2.083028
 20
1.231594
  0
VERTEX
  8
PLAN_1
  6
CONTINUOUS
 10
-2.078154
 20
1.226181
  0
SEQEND
  8
0
  0
POLYLINE
  8
PLAN_1
  6
CONTINUOUS
 66
     1
 40
0.007035
 41
0.007035
  0
VERTEX
  8
PLAN_1
  6
CONTINUOUS
 10
-2.078154
 20
1.226181
  0
VERTEX
  8
PLAN_1
  6
CONTINUOUS
 10
-1.747913
 20
1.226181
  0
SEQEND
  8
0
  0
POLYLINE
  8
PLAN_1
  6
CONTINUOUS
 66
     1
 40
0.007035
 41
0.007035
  0
VERTEX
  8
PLAN_1
  6
CONTINUOUS
 10
-1.747370
 20
1.172583
  0
VERTEX
  8
PLAN_1
  6
CONTINUOUS
 10
-1.741957
 20
1.177996
  0
VERTEX
  8
PLAN_1
  6
CONTINUOUS
 10
-1.737626
 20
1.182870
  0
VERTEX
  8
PLAN_1
  6
CONTINUOUS
 10
-1.734921
 20
1.188283
  0
VERTEX
  8
PLAN_1
  6
CONTINUOUS
 10
-1.733295
 20
1.193154
  0
VERTEX
  8
PLAN_1
  6
CONTINUOUS
 10
-1.732213
 20
1.197488
  0
VERTEX
  8
PLAN_1
  6
CONTINUOUS
 10
-1.732752
 20
1.201819
  0
VERTEX
  8
PLAN_1
  6
CONTINUOUS
 10
-1.733295
 20
1.206150
  0
VERTEX
  8
PLAN_1
  6
CONTINUOUS
 10
-1.734921
 20
1.209937
  0
VERTEX
  8
PLAN_1
  6
CONTINUOUS
 10
-1.736543
 20
1.213728
  0
VERTEX
  8
PLAN_1
  6
CONTINUOUS
 10
-1.738709
 20
1.216976
  0
VERTEX
  8
PLAN_1
  6
CONTINUOUS
 10
-1.740874
 20
1.219681
  0
VERTEX
  8
PLAN_1
  6
CONTINUOUS
 10
-1.742500
 20
1.221850
  0
VERTEX
  8
PLAN_1
  6
CONTINUOUS
 10
-1.746287
 20
1.225098
  0
VERTEX
  8
PLAN_1
  6
CONTINUOUS
 10
-1.747370
 20
1.226720
  0
SEQEND
  8
0
  0
POLYLINE
  8
PLAN_1
  6
CONTINUOUS
 66
     1
 40
0.007035
 41
0.007035
  0
VERTEX
  8
PLAN_1
  6
CONTINUOUS
 10
-1.747370
 20
1.226720
  0
VERTEX
  8
PLAN_1
  6
CONTINUOUS
 10
-2.077614
 20
1.226720
  0
SEQEND
  8
0
  0
POLYLINE
  8
PLAN_1
  6
CONTINUOUS
 66
     1
 40
0.007035
 41
0.007035
  0
VERTEX
  8
PLAN_1
  6
CONTINUOUS
 10
-2.077614
 20
1.226720
  0
VERTEX
  8
PLAN_1
  6
CONTINUOUS
 10
-2.079236
 20
1.225638
  0
VERTEX
  8
PLAN_1
  6
CONTINUOUS
 10
-2.081945
 20
1.222390
  0
VERTEX
  8
PLAN_1
  6
CONTINUOUS
 10
-2.083567
 20
1.220224
  0
VERTEX
  8
PLAN_1
  6
CONTINUOUS
 10
-2.085736
 20
1.217516
  0
VERTEX
  8
PLAN_1
  6
CONTINUOUS
 10
-2.087358
 20
1.214268
  0
VERTEX
  8
PLAN_1
  6
CONTINUOUS
 10
-2.088984
 20
1.211020
  0
VERTEX
  8
PLAN_1
  6
CONTINUOUS
 10
-2.090067
 20
1.207232
  0
VERTEX
  8
PLAN_1
  6
CONTINUOUS
 10
-2.090606
 20
1.202902
  0
VERTEX
  8
PLAN_1
  6
CONTINUOUS
 10
-2.091150
 20
1.198571
  0
VERTEX
  8
PLAN_1
  6
CONTINUOUS
 10
-2.090606
 20
1.193697
  0
VERTEX
  8
PLAN_1
  6
CONTINUOUS
 10
-2.088984
 20
1.188823
  0
VERTEX
  8
PLAN_1
  6
CONTINUOUS
 10
-2.086276
 20
1.183409
  0
VERTEX
  8
PLAN_1
  6
CONTINUOUS
 10
-2.082484
 20
1.178539
  0
VERTEX
  8
PLAN_1
  6
CONTINUOUS
 10
-2.077614
 20
1.172583
  0
SEQEND
  8
0
  0
POLYLINE
  8
PLAN_1
  6
CONTINUOUS
 66
     1
 40
0.007035
 41
0.007035
  0
VERTEX
  8
PLAN_1
  6
CONTINUOUS
 10
-2.077614
 20
1.172583
  0
VERTEX
  8
PLAN_1
  6
CONTINUOUS
 10
-1.747370
 20
1.172583
  0
SEQEND
  8
0
  0
POLYLINE
  8
PLAN_1
  6
CONTINUOUS
 66
     1
 40
0.004331
 41
0.004331
  0
VERTEX
  8
PLAN_1
  6
CONTINUOUS
 10
-2.041343
 20
-0.306469
  0
VERTEX
  8
PLAN_1
  6
CONTINUOUS
 10
-1.908161
 20
-0.306469
  0
SEQEND
  8
0
  0
POLYLINE
  8
PLAN_1
  6
CONTINUOUS
 66
     1
 40
0.004331
 41
0.004331
  0
VERTEX
  8
PLAN_1
  6
CONTINUOUS
 10
-2.041882
 20
-0.042276
  0
VERTEX
  8
PLAN_1
  6
CONTINUOUS
 10
-1.908701
 20
-0.042276
  0
SEQEND
  8
0
  0
POLYLINE
  8
PLAN_1
  6
CONTINUOUS
 66
     1
 40
0.004331
 41
0.004331
  0
VERTEX
  8
PLAN_1
  6
CONTINUOUS
 10
-1.887591
 20
-0.048772
  0
VERTEX
  8
PLAN_1
  6
CONTINUOUS
 10
-1.791224
 20
-0.048772
  0
SEQEND
  8
0
  0
POLYLINE
  8
PLAN_1
  6
CONTINUOUS
 66
     1
 40
0.004331
 41
0.004331
  0
VERTEX
  8
PLAN_1
  6
CONTINUOUS
 10
-1.887591
 20
-0.296185
  0
VERTEX
  8
PLAN_1
  6
CONTINUOUS
 10
-1.791224
 20
-0.296185
  0
SEQEND
  8
0
  0
POLYLINE
  8
PLAN_1
  6
CONTINUOUS
 66
     1
 40
0.007035
 41
0.007035
  0
VERTEX
  8
PLAN_1
  6
CONTINUOUS
 10
0.082496
 20
0.241406
  0
VERTEX
  8
PLAN_1
  6
CONTINUOUS
 10
-0.253701
 20
0.241406
  0
VERTEX
  8
PLAN_1
  6
CONTINUOUS
 10
-0.253701
 20
0.377295
  0
SEQEND
  8
0
  0
POLYLINE
  8
PLAN_1
  6
CONTINUOUS
 66
     1
 40
0.007035
 41
0.007035
  0
VERTEX
  8
PLAN_1
  6
CONTINUOUS
 10
-0.795083
 20
0.377295
  0
VERTEX
  8
PLAN_1
  6
CONTINUOUS
 10
-0.795083
 20
0.241406
  0
VERTEX
  8
PLAN_1
  6
CONTINUOUS
 10
-1.135610
 20
0.241406
  0
SEQEND
  8
0
  0
POLYLINE
  8
PLAN_1
  6
CONTINUOUS
 66
     1
 40
0.007035
 41
0.007035
  0
VERTEX
  8
PLAN_1
  6
CONTINUOUS
 10
-0.553083
 20
-1.567890
  0
VERTEX
  8
PLAN_1
  6
CONTINUOUS
 10
-0.263988
 20
-1.517000
  0
VERTEX
  8
PLAN_1
  6
CONTINUOUS
 10
-0.250453
 20
-1.514291
  0
SEQEND
  8
0
  0
POLYLINE
  8
PLAN_1
  6
CONTINUOUS
 66
     1
 40
0.007035
 41
0.007035
  0
VERTEX
  8
PLAN_1
  6
CONTINUOUS
 10
-0.250453
 20
-1.514291
  0
VERTEX
  8
PLAN_1
  6
CONTINUOUS
 10
-0.246122
 20
-1.513209
  0
VERTEX
  8
PLAN_1
  6
CONTINUOUS
 10
-0.241791
 20
-1.511043
  0
VERTEX
  8
PLAN_1
  6
CONTINUOUS
 10
-0.238543
 20
-1.508335
  0
VERTEX
  8
PLAN_1
  6
CONTINUOUS
 10
-0.235835
 20
-1.505087
  0
VERTEX
  8
PLAN_1
  6
CONTINUOUS
 10
-0.233669
 20
-1.501299
  0
VERTEX
  8
PLAN_1
  6
CONTINUOUS
 10
-0.232047
 20
-1.496969
  0
VERTEX
  8
PLAN_1
  6
CONTINUOUS
 10
-0.231504
 20
-1.492638
  0
VERTEX
  8
PLAN_1
  6
CONTINUOUS
 10
-0.232047
 20
-1.488303
  0
VERTEX
  8
PLAN_1
  6
CONTINUOUS
 10
-0.233130
 20
-1.483972
  0
VERTEX
  8
PLAN_1
  6
CONTINUOUS
 10
-0.235295
 20
-1.479642
  0
VERTEX
  8
PLAN_1
  6
CONTINUOUS
 10
-0.238000
 20
-1.476394
  0
VERTEX
  8
PLAN_1
  6
CONTINUOUS
 10
-0.241248
 20
-1.473689
  0
VERTEX
  8
PLAN_1
  6
CONTINUOUS
 10
-0.245039
 20
-1.471524
  0
VERTEX
  8
PLAN_1
  6
CONTINUOUS
 10
-0.249370
 20
-1.469898
  0
VERTEX
  8
PLAN_1
  6
CONTINUOUS
 10
-0.253701
 20
-1.469358
  0
VERTEX
  8
PLAN_1
  6
CONTINUOUS
 10
-0.258031
 20
-1.469898
  0
SEQEND
  8
0
  0
POLYLINE
  8
PLAN_1
  6
CONTINUOUS
 66
     1
 40
0.007035
 41
0.007035
  0
VERTEX
  8
PLAN_1
  6
CONTINUOUS
 10
-0.258031
 20
-1.469898
  0
VERTEX
  8
PLAN_1
  6
CONTINUOUS
 10
-0.272106
 20
-1.472063
  0
VERTEX
  8
PLAN_1
  6
CONTINUOUS
 10
-0.802661
 20
-1.566264
  0
VERTEX
  8
PLAN_1
  6
CONTINUOUS
 10
-0.811866
 20
-1.567890
  0
SEQEND
  8
0
  0
POLYLINE
  8
PLAN_1
  6
CONTINUOUS
 66
     1
 40
0.007035
 41
0.007035
  0
VERTEX
  8
PLAN_1
  6
CONTINUOUS
 10
-0.811866
 20
-1.567890
  0
VERTEX
  8
PLAN_1
  6
CONTINUOUS
 10
-0.816197
 20
-1.568972
  0
VERTEX
  8
PLAN_1
  6
CONTINUOUS
 10
-0.819984
 20
-1.571138
  0
VERTEX
  8
PLAN_1
  6
CONTINUOUS
 10
-0.823232
 20
-1.573843
  0
VERTEX
  8
PLAN_1
  6
CONTINUOUS
 10
-0.826480
 20
-1.577091
  0
VERTEX
  8
PLAN_1
  6
CONTINUOUS
 10
-0.828646
 20
-1.580882
  0
VERTEX
  8
PLAN_1
  6
CONTINUOUS
 10
-0.829728
 20
-1.584669
  0
VERTEX
  8
PLAN_1
  6
CONTINUOUS
 10
-0.830272
 20
-1.589000
  0
VERTEX
  8
PLAN_1
  6
CONTINUOUS
 10
-0.830272
 20
-1.593874
  0
VERTEX
  8
PLAN_1
  6
CONTINUOUS
 10
-0.828646
 20
-1.598205
  0
VERTEX
  8
PLAN_1
  6
CONTINUOUS
 10
-0.826480
 20
-1.601996
  0
VERTEX
  8
PLAN_1
  6
CONTINUOUS
 10
-0.823776
 20
-1.605783
  0
VERTEX
  8
PLAN_1
  6
CONTINUOUS
 10
-0.820528
 20
-1.608492
  0
VERTEX
  8
PLAN_1
  6
CONTINUOUS
 10
-0.816736
 20
-1.610657
  0
VERTEX
  8
PLAN_1
  6
CONTINUOUS
 10
-0.812949
 20
-1.611740
  0
VERTEX
  8
PLAN_1
  6
CONTINUOUS
 10
-0.808618
 20
-1.612280
  0
VERTEX
  8
PLAN_1
  6
CONTINUOUS
 10
-0.803744
 20
-1.612280
  0
SEQEND
  8
0
  0
POLYLINE
  8
PLAN_1
  6
CONTINUOUS
 66
     1
 40
0.007035
 41
0.007035
  0
VERTEX
  8
PLAN_1
  6
CONTINUOUS
 10
-0.681394
 20
-1.197043
  0
VERTEX
  8
PLAN_1
  6
CONTINUOUS
 10
-0.263988
 20
-1.270669
  0
VERTEX
  8
PLAN_1
  6
CONTINUOUS
 10
-0.249909
 20
-1.273378
  0
SEQEND
  8
0
  0
POLYLINE
  8
PLAN_1
  6
CONTINUOUS
 66
     1
 40
0.007035
 41
0.007035
  0
VERTEX
  8
PLAN_1
  6
CONTINUOUS
 10
-0.249909
 20
-1.273378
  0
VERTEX
  8
PLAN_1
  6
CONTINUOUS
 10
-0.245579
 20
-1.274461
  0
VERTEX
  8
PLAN_1
  6
CONTINUOUS
 10
-0.241791
 20
-1.276626
  0
VERTEX
  8
PLAN_1
  6
CONTINUOUS
 10
-0.238543
 20
-1.279331
  0
VERTEX
  8
PLAN_1
  6
CONTINUOUS
 10
-0.235835
 20
-1.282579
  0
VERTEX
  8
PLAN_1
  6
CONTINUOUS
 10
-0.233669
 20
-1.286370
  0
VERTEX
  8
PLAN_1
  6
CONTINUOUS
 10
-0.232047
 20
-1.290161
  0
VERTEX
  8
PLAN_1
  6
CONTINUOUS
 10
-0.231504
 20
-1.294492
  0
VERTEX
  8
PLAN_1
  6
CONTINUOUS
 10
-0.232047
 20
-1.299362
  0
VERTEX
  8
PLAN_1
  6
CONTINUOUS
 10
-0.233130
 20
-1.303693
  0
VERTEX
  8
PLAN_1
  6
CONTINUOUS
 10
-0.235295
 20
-1.307484
  0
VERTEX
  8
PLAN_1
  6
CONTINUOUS
 10
-0.238000
 20
-1.311272
  0
VERTEX
  8
PLAN_1
  6
CONTINUOUS
 10
-0.241248
 20
-1.313980
  0
VERTEX
  8
PLAN_1
  6
CONTINUOUS
 10
-0.245039
 20
-1.316146
  0
VERTEX
  8
PLAN_1
  6
CONTINUOUS
 10
-0.248827
 20
-1.317228
  0
VERTEX
  8
PLAN_1
  6
CONTINUOUS
 10
-0.253157
 20
-1.317772
  0
VERTEX
  8
PLAN_1
  6
CONTINUOUS
 10
-0.258031
 20
-1.317772
  0
SEQEND
  8
0
  0
POLYLINE
  8
PLAN_1
  6
CONTINUOUS
 66
     1
 40
0.007035
 41
0.007035
  0
VERTEX
  8
PLAN_1
  6
CONTINUOUS
 10
-0.386339
 20
-1.295031
  0
VERTEX
  8
PLAN_1
  6
CONTINUOUS
 10
-0.802661
 20
-1.221406
  0
VERTEX
  8
PLAN_1
  6
CONTINUOUS
 10
-0.811323
 20
-1.219780
  0
SEQEND
  8
0
  0
POLYLINE
  8
PLAN_1
  6
CONTINUOUS
 66
     1
 40
0.007035
 41
0.007035
  0
VERTEX
  8
PLAN_1
  6
CONTINUOUS
 10
-0.811323
 20
-1.219780
  0
VERTEX
  8
PLAN_1
  6
CONTINUOUS
 10
-0.815654
 20
-1.218697
  0
VERTEX
  8
PLAN_1
  6
CONTINUOUS
 10
-0.819984
 20
-1.216531
  0
VERTEX
  8
PLAN_1
  6
CONTINUOUS
 10
-0.823232
 20
-1.213827
  0
VERTEX
  8
PLAN_1
  6
CONTINUOUS
 10
-0.825941
 20
-1.210575
  0
VERTEX
  8
PLAN_1
  6
CONTINUOUS
 10
-0.828106
 20
-1.206787
  0
VERTEX
  8
PLAN_1
  6
CONTINUOUS
 10
-0.829728
 20
-1.202457
  0
VERTEX
  8
PLAN_1
  6
CONTINUOUS
 10
-0.830272
 20
-1.198126
  0
VERTEX
  8
PLAN_1
  6
CONTINUOUS
 10
-0.829728
 20
-1.193795
  0
VERTEX
  8
PLAN_1
  6
CONTINUOUS
 10
-0.828646
 20
-1.189465
  0
VERTEX
  8
PLAN_1
  6
CONTINUOUS
 10
-0.826480
 20
-1.185130
  0
VERTEX
  8
PLAN_1
  6
CONTINUOUS
 10
-0.823776
 20
-1.181882
  0
VERTEX
  8
PLAN_1
  6
CONTINUOUS
 10
-0.820528
 20
-1.179177
  0
VERTEX
  8
PLAN_1
  6
CONTINUOUS
 10
-0.816736
 20
-1.177012
  0
VERTEX
  8
PLAN_1
  6
CONTINUOUS
 10
-0.812406
 20
-1.175386
  0
VERTEX
  8
PLAN_1
  6
CONTINUOUS
 10
-0.808075
 20
-1.174846
  0
VERTEX
  8
PLAN_1
  6
CONTINUOUS
 10
-0.803744
 20
-1.175386
  0
SEQEND
  8
0
  0
POLYLINE
  8
PLAN_1
  6
CONTINUOUS
 66
     1
 40
0.007035
 41
0.007035
  0
VERTEX
  8
PLAN_1
  6
CONTINUOUS
 10
-0.681394
 20
-1.393563
  0
VERTEX
  8
PLAN_1
  6
CONTINUOUS
 10
-0.263988
 20
-1.467193
  0
VERTEX
  8
PLAN_1
  6
CONTINUOUS
 10
-0.249909
 20
-1.469898
  0
SEQEND
  8
0
  0
POLYLINE
  8
PLAN_1
  6
CONTINUOUS
 66
     1
 40
0.007035
 41
0.007035
  0
VERTEX
  8
PLAN_1
  6
CONTINUOUS
 10
-0.249909
 20
-1.469898
  0
VERTEX
  8
PLAN_1
  6
CONTINUOUS
 10
-0.245579
 20
-1.470980
  0
VERTEX
  8
PLAN_1
  6
CONTINUOUS
 10
-0.241791
 20
-1.473146
  0
VERTEX
  8
PLAN_1
  6
CONTINUOUS
 10
-0.238543
 20
-1.475854
  0
VERTEX
  8
PLAN_1
  6
CONTINUOUS
 10
-0.235835
 20
-1.479102
  0
VERTEX
  8
PLAN_1
  6
CONTINUOUS
 10
-0.233669
 20
-1.482890
  0
VERTEX
  8
PLAN_1
  6
CONTINUOUS
 10
-0.232047
 20
-1.486681
  0
VERTEX
  8
PLAN_1
  6
CONTINUOUS
 10
-0.231504
 20
-1.491555
  0
VERTEX
  8
PLAN_1
  6
CONTINUOUS
 10
-0.232047
 20
-1.495886
  0
VERTEX
  8
PLAN_1
  6
CONTINUOUS
 10
-0.233130
 20
-1.500217
  0
VERTEX
  8
PLAN_1
  6
CONTINUOUS
 10
-0.235295
 20
-1.504004
  0
VERTEX
  8
PLAN_1
  6
CONTINUOUS
 10
-0.238000
 20
-1.507795
  0
VERTEX
  8
PLAN_1
  6
CONTINUOUS
 10
-0.241248
 20
-1.510500
  0
VERTEX
  8
PLAN_1
  6
CONTINUOUS
 10
-0.245039
 20
-1.512665
  0
VERTEX
  8
PLAN_1
  6
CONTINUOUS
 10
-0.248827
 20
-1.513748
  0
VERTEX
  8
PLAN_1
  6
CONTINUOUS
 10
-0.253701
 20
-1.514291
  0
VERTEX
  8
PLAN_1
  6
CONTINUOUS
 10
-0.258031
 20
-1.514291
  0
SEQEND
  8
0
  0
POLYLINE
  8
PLAN_1
  6
CONTINUOUS
 66
     1
 40
0.007035
 41
0.007035
  0
VERTEX
  8
PLAN_1
  6
CONTINUOUS
 10
-0.389587
 20
-1.491012
  0
VERTEX
  8
PLAN_1
  6
CONTINUOUS
 10
-0.802661
 20
-1.417925
  0
VERTEX
  8
PLAN_1
  6
CONTINUOUS
 10
-0.811323
 20
-1.416303
  0
SEQEND
  8
0
  0
POLYLINE
  8
PLAN_1
  6
CONTINUOUS
 66
     1
 40
0.007035
 41
0.007035
  0
VERTEX
  8
PLAN_1
  6
CONTINUOUS
 10
-0.811323
 20
-1.416303
  0
VERTEX
  8
PLAN_1
  6
CONTINUOUS
 10
-0.816197
 20
-1.415220
  0
VERTEX
  8
PLAN_1
  6
CONTINUOUS
 10
-0.819984
 20
-1.413051
  0
VERTEX
  8
PLAN_1
  6
CONTINUOUS
 10
-0.823232
 20
-1.410346
  0
VERTEX
  8
PLAN_1
  6
CONTINUOUS
 10
-0.825941
 20
-1.407098
  0
VERTEX
  8
PLAN_1
  6
CONTINUOUS
 10
-0.828106
 20
-1.403307
  0
VERTEX
  8
PLAN_1
  6
CONTINUOUS
 10
-0.829728
 20
-1.398976
  0
VERTEX
  8
PLAN_1
  6
CONTINUOUS
 10
-0.830272
 20
-1.394646
  0
VERTEX
  8
PLAN_1
  6
CONTINUOUS
 10
-0.829728
 20
-1.390315
  0
VERTEX
  8
PLAN_1
  6
CONTINUOUS
 10
-0.828646
 20
-1.385984
  0
VERTEX
  8
PLAN_1
  6
CONTINUOUS
 10
-0.826480
 20
-1.381654
  0
VERTEX
  8
PLAN_1
  6
CONTINUOUS
 10
-0.823776
 20
-1.378406
  0
VERTEX
  8
PLAN_1
  6
CONTINUOUS
 10
-0.820528
 20
-1.375697
  0
VERTEX
  8
PLAN_1
  6
CONTINUOUS
 10
-0.816736
 20
-1.373531
  0
VERTEX
  8
PLAN_1
  6
CONTINUOUS
 10
-0.812949
 20
-1.371909
  0
VERTEX
  8
PLAN_1
  6
CONTINUOUS
 10
-0.808075
 20
-1.371366
  0
VERTEX
  8
PLAN_1
  6
CONTINUOUS
 10
-0.803744
 20
-1.371909
  0
SEQEND
  8
0
  0
POLYLINE
  8
PLAN_1
 62
     2
  6
CONTINUOUS
 66
     1
 40
0.004331
 41
0.004331
  0
VERTEX
  8
PLAN_1
 62
     2
  6
CONTINUOUS
 10
-2.101433
 20
-1.769823
  0
VERTEX
  8
PLAN_1
 62
     2
  6
CONTINUOUS
 10
0.049472
 20
-1.769823
  0
SEQEND
  8
0
  0
SOLID
  8
PLAN_1
 62
     2
 10
0.079248
 20
-1.769823
 11
0.019697
 21
-1.754122
 12
0.079248
 22
-1.769823
 13
0.019697
 23
-1.785524
  0
POLYLINE
  8
PLAN_1
 62
     2
  6
CONTINUOUS
 66
     1
 40
0.003000
 41
0.003000
  0
VERTEX
  8
PLAN_1
 62
     2
  6
CONTINUOUS
 10
0.079248
 20
-1.769823
  0
VERTEX
  8
PLAN_1
 62
     2
  6
CONTINUOUS
 10
0.019697
 20
-1.754122
  0
VERTEX
  8
PLAN_1
 62
     2
  6
CONTINUOUS
 10
0.019697
 20
-1.785524
  0
VERTEX
  8
PLAN_1
 62
     2
  6
CONTINUOUS
 10
0.079248
 20
-1.769823
  0
SEQEND
  8
0
  0
SOLID
  8
PLAN_1
 62
     2
 10
-2.130669
 20
-1.769823
 11
-2.071657
 21
-1.754122
 12
-2.130669
 22
-1.769823
 13
-2.071657
 23
-1.785524
  0
POLYLINE
  8
PLAN_1
 62
     2
  6
CONTINUOUS
 66
     1
 40
0.003000
 41
0.003000
  0
VERTEX
  8
PLAN_1
 62
     2
  6
CONTINUOUS
 10
-2.130669
 20
-1.769823
  0
VERTEX
  8
PLAN_1
 62
     2
  6
CONTINUOUS
 10
-2.071657
 20
-1.754122
  0
VERTEX
  8
PLAN_1
 62
     2
  6
CONTINUOUS
 10
-2.071657
 20
-1.785524
  0
VERTEX
  8
PLAN_1
 62
     2
  6
CONTINUOUS
 10
-2.130669
 20
-1.769823
  0
SEQEND
  8
0
  0
POLYLINE
  8
PLAN_1
 62
     2
  6
CONTINUOUS
 66
     1
 40
0.004331
 41
0.004331
  0
VERTEX
  8
PLAN_1
 62
     2
  6
CONTINUOUS
 10
-2.130669
 20
0.332358
  0
VERTEX
  8
PLAN_1
 62
     2
  6
CONTINUOUS
 10
-2.130669
 20
-1.793646
  0
SEQEND
  8
0
  0
POLYLINE
  8
PLAN_1
 62
     2
  6
CONTINUOUS
 66
     1
 40
0.004331
 41
0.004331
  0
VERTEX
  8
PLAN_1
 62
     2
  6
CONTINUOUS
 10
0.079248
 20
-1.494803
  0
VERTEX
  8
PLAN_1
 62
     2
  6
CONTINUOUS
 10
0.079248
 20
-1.793646
  0
SEQEND
  8
0
  0
POLYLINE
  8
PLAN_1
 62
     2
  6
CONTINUOUS
 66
     1
 40
0.004331
 41
0.004331
  0
VERTEX
  8
PLAN_1
 62
     2
  6
CONTINUOUS
 10
-1.897335
 20
4.234094
  0
VERTEX
  8
PLAN_1
 62
     2
  6
CONTINUOUS
 10
0.049472
 20
4.234094
  0
SEQEND
  8
0
  0
SOLID
  8
PLAN_1
 62
     2
 10
0.079248
 20
4.234094
 11
0.019697
 21
4.249791
 12
0.079248
 22
4.234094
 13
0.019697
 23
4.218394
  0
POLYLINE
  8
PLAN_1
 62
     2
  6
CONTINUOUS
 66
     1
 40
0.003000
 41
0.003000
  0
VERTEX
  8
PLAN_1
 62
     2
  6
CONTINUOUS
 10
0.079248
 20
4.234094
  0
VERTEX
  8
PLAN_1
 62
     2
  6
CONTINUOUS
 10
0.019697
 20
4.249791
  0
VERTEX
  8
PLAN_1
 62
     2
  6
CONTINUOUS
 10
0.019697
 20
4.218394
  0
VERTEX
  8
PLAN_1
 62
     2
  6
CONTINUOUS
 10
0.079248
 20
4.234094
  0
SEQEND
  8
0
  0
SOLID
  8
PLAN_1
 62
     2
 10
-1.927110
 20
4.234094
 11
-1.868098
 21
4.249791
 12
-1.927110
 22
4.234094
 13
-1.868098
 23
4.218394
  0
POLYLINE
  8
PLAN_1
 62
     2
  6
CONTINUOUS
 66
     1
 40
0.003000
 41
0.003000
  0
VERTEX
  8
PLAN_1
 62
     2
  6
CONTINUOUS
 10
-1.927110
 20
4.234094
  0
VERTEX
  8
PLAN_1
 62
     2
  6
CONTINUOUS
 10
-1.868098
 20
4.249791
  0
VERTEX
  8
PLAN_1
 62
     2
  6
CONTINUOUS
 10
-1.868098
 20
4.218394
  0
VERTEX
  8
PLAN_1
 62
     2
  6
CONTINUOUS
 10
-1.927110
 20
4.234094
  0
SEQEND
  8
0
  0
POLYLINE
  8
PLAN_1
 62
     2
  6
CONTINUOUS
 66
     1
 40
0.003000
 41
0.003000
  0
VERTEX
  8
PLAN_1
 62
     2
  6
CONTINUOUS
 10
-1.060902
 20
-1.703776
  0
VERTEX
  8
PLAN_1
 62
     2
  6
CONTINUOUS
 10
-1.059819
 20
-1.702693
  0
VERTEX
  8
PLAN_1
 62
     2
  6
CONTINUOUS
 10
-1.058193
 20
-1.702150
  0
VERTEX
  8
PLAN_1
 62
     2
  6
CONTINUOUS
 10
-1.056571
 20
-1.701610
  0
VERTEX
  8
PLAN_1
 62
     2
  6
CONTINUOUS
 10
-1.054945
 20
-1.700528
  0
VERTEX
  8
PLAN_1
 62
     2
  6
CONTINUOUS
 10
-1.053319
 20
-1.699984
  0
VERTEX
  8
PLAN_1
 62
     2
  6
CONTINUOUS
 10
-1.051154
 20
-1.699445
  0
VERTEX
  8
PLAN_1
 62
     2
  6
CONTINUOUS
 10
-1.048988
 20
-1.699445
  0
VERTEX
  8
PLAN_1
 62
     2
  6
CONTINUOUS
 10
-1.046823
 20
-1.699445
  0
VERTEX
  8
PLAN_1
 62
     2
  6
CONTINUOUS
 10
-1.041953
 20
-1.699445
  0
VERTEX
  8
PLAN_1
 62
     2
  6
CONTINUOUS
 10
-1.037622
 20
-1.700528
  0
VERTEX
  8
PLAN_1
 62
     2
  6
CONTINUOUS
 10
-1.033831
 20
-1.702693
  0
VERTEX
  8
PLAN_1
 62
     2
  6
CONTINUOUS
 10
-1.030039
 20
-1.705398
  0
VERTEX
  8
PLAN_1
 62
     2
  6
CONTINUOUS
 10
-1.027335
 20
-1.708646
  0
VERTEX
  8
PLAN_1
 62
     2
  6
CONTINUOUS
 10
-1.024626
 20
-1.712437
  0
VERTEX
  8
PLAN_1
 62
     2
  6
CONTINUOUS
 10
-1.024087
 20
-1.715142
  0
VERTEX
  8
PLAN_1
 62
     2
  6
CONTINUOUS
 10
-1.023004
 20
-1.717311
  0
VERTEX
  8
PLAN_1
 62
     2
  6
CONTINUOUS
 10
-1.023004
 20
-1.720016
  0
VERTEX
  8
PLAN_1
 62
     2
  6
CONTINUOUS
 10
-1.022461
 20
-1.722724
  0
VERTEX
  8
PLAN_1
 62
     2
  6
CONTINUOUS
 10
-1.023004
 20
-1.725972
  0
VERTEX
  8
PLAN_1
 62
     2
  6
CONTINUOUS
 10
-1.023543
 20
-1.730303
  0
VERTEX
  8
PLAN_1
 62
     2
  6
CONTINUOUS
 10
-1.025169
 20
-1.734634
  0
VERTEX
  8
PLAN_1
 62
     2
  6
CONTINUOUS
 10
-1.027335
 20
-1.738421
  0
VERTEX
  8
PLAN_1
 62
     2
  6
CONTINUOUS
 10
-1.028957
 20
-1.740591
  0
VERTEX
  8
PLAN_1
 62
     2
  6
CONTINUOUS
 10
-1.030583
 20
-1.742213
  0
VERTEX
  8
PLAN_1
 62
     2
  6
CONTINUOUS
 10
-1.032748
 20
-1.743839
  0
VERTEX
  8
PLAN_1
 62
     2
  6
CONTINUOUS
 10
-1.035457
 20
-1.745461
  0
VERTEX
  8
PLAN_1
 62
     2
  6
CONTINUOUS
 10
-1.038161
 20
-1.746543
  0
VERTEX
  8
PLAN_1
 62
     2
  6
CONTINUOUS
 10
-1.041409
 20
-1.747626
  0
VERTEX
  8
PLAN_1
 62
     2
  6
CONTINUOUS
 10
-1.045201
 20
-1.748169
  0
VERTEX
  8
PLAN_1
 62
     2
  6
CONTINUOUS
 10
-1.048988
 20
-1.748169
  0
VERTEX
  8
PLAN_1
 62
     2
  6
CONTINUOUS
 10
-1.052780
 20
-1.748169
  0
VERTEX
  8
PLAN_1
 62
     2
  6
CONTINUOUS
 10
-1.056571
 20
-1.747626
  0
VERTEX
  8
PLAN_1
 62
     2
  6
CONTINUOUS
 10
-1.060358
 20
-1.746543
  0
VERTEX
  8
PLAN_1
 62
     2
  6
CONTINUOUS
 10
-1.063606
 20
-1.744378
  0
VERTEX
  8
PLAN_1
 62
     2
  6
CONTINUOUS
 10
-1.066854
 20
-1.741673
  0
VERTEX
  8
PLAN_1
 62
     2
  6
CONTINUOUS
 10
-1.069563
 20
-1.738421
  0
VERTEX
  8
PLAN_1
 62
     2
  6
CONTINUOUS
 10
-1.070646
 20
-1.736256
  0
VERTEX
  8
PLAN_1
 62
     2
  6
CONTINUOUS
 10
-1.071728
 20
-1.733551
  0
VERTEX
  8
PLAN_1
 62
     2
  6
CONTINUOUS
 10
-1.072268
 20
-1.730843
  0
VERTEX
  8
PLAN_1
 62
     2
  6
CONTINUOUS
 10
-1.072811
 20
-1.728138
  0
VERTEX
  8
PLAN_1
 62
     2
  6
CONTINUOUS
 10
-1.063067
 20
-1.728138
  0
VERTEX
  8
PLAN_1
 62
     2
  6
CONTINUOUS
 10
-1.062524
 20
-1.731386
  0
VERTEX
  8
PLAN_1
 62
     2
  6
CONTINUOUS
 10
-1.061441
 20
-1.733551
  0
VERTEX
  8
PLAN_1
 62
     2
  6
CONTINUOUS
 10
-1.060358
 20
-1.735717
  0
VERTEX
  8
PLAN_1
 62
     2
  6
CONTINUOUS
 10
-1.058193
 20
-1.737339
  0
VERTEX
  8
PLAN_1
 62
     2
  6
CONTINUOUS
 10
-1.056028
 20
-1.738965
  0
VERTEX
  8
PLAN_1
 62
     2
  6
CONTINUOUS
 10
-1.053319
 20
-1.739504
  0
VERTEX
  8
PLAN_1
 62
     2
  6
CONTINUOUS
 10
-1.050614
 20
-1.740047
  0
VERTEX
  8
PLAN_1
 62
     2
  6
CONTINUOUS
 10
-1.047906
 20
-1.740591
  0
VERTEX
  8
PLAN_1
 62
     2
  6
CONTINUOUS
 10
-1.044657
 20
-1.740047
  0
VERTEX
  8
PLAN_1
 62
     2
  6
CONTINUOUS
 10
-1.041409
 20
-1.738965
  0
VERTEX
  8
PLAN_1
 62
     2
  6
CONTINUOUS
 10
-1.038705
 20
-1.737339
  0
VERTEX
  8
PLAN_1
 62
     2
  6
CONTINUOUS
 10
-1.036539
 20
-1.735717
  0
VERTEX
  8
PLAN_1
 62
     2
  6
CONTINUOUS
 10
-1.034913
 20
-1.733008
  0
VERTEX
  8
PLAN_1
 62
     2
  6
CONTINUOUS
 10
-1.033291
 20
-1.730303
  0
VERTEX
  8
PLAN_1
 62
     2
  6
CONTINUOUS
 10
-1.032748
 20
-1.727055
  0
VERTEX
  8
PLAN_1
 62
     2
  6
CONTINUOUS
 10
-1.032209
 20
-1.723807
  0
VERTEX
  8
PLAN_1
 62
     2
  6
CONTINUOUS
 10
-1.032748
 20
-1.720016
  0
VERTEX
  8
PLAN_1
 62
     2
  6
CONTINUOUS
 10
-1.033831
 20
-1.716768
  0
VERTEX
  8
PLAN_1
 62
     2
  6
CONTINUOUS
 10
-1.034913
 20
-1.714059
  0
VERTEX
  8
PLAN_1
 62
     2
  6
CONTINUOUS
 10
-1.037079
 20
-1.711894
  0
VERTEX
  8
PLAN_1
 62
     2
  6
CONTINUOUS
 10
-1.039244
 20
-1.709728
  0
VERTEX
  8
PLAN_1
 62
     2
  6
CONTINUOUS
 10
-1.042492
 20
-1.708646
  0
VERTEX
  8
PLAN_1
 62
     2
  6
CONTINUOUS
 10
-1.045201
 20
-1.707563
  0
VERTEX
  8
PLAN_1
 62
     2
  6
CONTINUOUS
 10
-1.048449
 20
-1.707563
  0
VERTEX
  8
PLAN_1
 62
     2
  6
CONTINUOUS
 10
-1.050614
 20
-1.707563
  0
VERTEX
  8
PLAN_1
 62
     2
  6
CONTINUOUS
 10
-1.052236
 20
-1.708106
  0
VERTEX
  8
PLAN_1
 62
     2
  6
CONTINUOUS
 10
-1.054402
 20
-1.708646
  0
VERTEX
  8
PLAN_1
 62
     2
  6
CONTINUOUS
 10
-1.056028
 20
-1.709189
  0
VERTEX
  8
PLAN_1
 62
     2
  6
CONTINUOUS
 10
-1.057654
 20
-1.710272
  0
VERTEX
  8
PLAN_1
 62
     2
  6
CONTINUOUS
 10
-1.059276
 20
-1.711354
  0
VERTEX
  8
PLAN_1
 62
     2
  6
CONTINUOUS
 10
-1.060902
 20
-1.712976
  0
VERTEX
  8
PLAN_1
 62
     2
  6
CONTINUOUS
 10
-1.061984
 20
-1.714602
  0
VERTEX
  8
PLAN_1
 62
     2
  6
CONTINUOUS
 10
-1.070102
 20
-1.714059
  0
VERTEX
  8
PLAN_1
 62
     2
  6
CONTINUOUS
 10
-1.064689
 20
-1.675083
  0
VERTEX
  8
PLAN_1
 62
     2
  6
CONTINUOUS
 10
-1.026791
 20
-1.675083
  0
VERTEX
  8
PLAN_1
 62
     2
  6
CONTINUOUS
 10
-1.026791
 20
-1.683744
  0
VERTEX
  8
PLAN_1
 62
     2
  6
CONTINUOUS
 10
-1.057654
 20
-1.683744
  0
VERTEX
  8
PLAN_1
 62
     2
  6
CONTINUOUS
 10
-1.060902
 20
-1.703776
  0
SEQEND
  8
0
  0
POLYLINE
  8
PLAN_1
 62
     2
  6
CONTINUOUS
 66
     1
 40
0.003000
 41
0.003000
  0
VERTEX
  8
PLAN_1
 62
     2
  6
CONTINUOUS
 10
-1.002972
 20
-1.703776
  0
VERTEX
  8
PLAN_1
 62
     2
  6
CONTINUOUS
 10
-1.001890
 20
-1.702693
  0
VERTEX
  8
PLAN_1
 62
     2
  6
CONTINUOUS
 10
-1.000264
 20
-1.702150
  0
VERTEX
  8
PLAN_1
 62
     2
  6
CONTINUOUS
 10
-0.998642
 20
-1.701610
  0
VERTEX
  8
PLAN_1
 62
     2
  6
CONTINUOUS
 10
-0.997016
 20
-1.700528
  0
VERTEX
  8
PLAN_1
 62
     2
  6
CONTINUOUS
 10
-0.995394
 20
-1.699984
  0
VERTEX
  8
PLAN_1
 62
     2
  6
CONTINUOUS
 10
-0.993228
 20
-1.699445
  0
VERTEX
  8
PLAN_1
 62
     2
  6
CONTINUOUS
 10
-0.991063
 20
-1.699445
  0
VERTEX
  8
PLAN_1
 62
     2
  6
CONTINUOUS
 10
-0.988898
 20
-1.699445
  0
VERTEX
  8
PLAN_1
 62
     2
  6
CONTINUOUS
 10
-0.984567
 20
-1.699445
  0
VERTEX
  8
PLAN_1
 62
     2
  6
CONTINUOUS
 10
-0.980232
 20
-1.700528
  0
VERTEX
  8
PLAN_1
 62
     2
  6
CONTINUOUS
 10
-0.975902
 20
-1.702693
  0
VERTEX
  8
PLAN_1
 62
     2
  6
CONTINUOUS
 10
-0.972114
 20
-1.705398
  0
VERTEX
  8
PLAN_1
 62
     2
  6
CONTINUOUS
 10
-0.969406
 20
-1.708646
  0
VERTEX
  8
PLAN_1
 62
     2
  6
CONTINUOUS
 10
-0.966701
 20
-1.712437
  0
VERTEX
  8
PLAN_1
 62
     2
  6
CONTINUOUS
 10
-0.966157
 20
-1.715142
  0
VERTEX
  8
PLAN_1
 62
     2
  6
CONTINUOUS
 10
-0.965075
 20
-1.717311
  0
VERTEX
  8
PLAN_1
 62
     2
  6
CONTINUOUS
 10
-0.965075
 20
-1.720016
  0
VERTEX
  8
PLAN_1
 62
     2
  6
CONTINUOUS
 10
-0.964535
 20
-1.722724
  0
VERTEX
  8
PLAN_1
 62
     2
  6
CONTINUOUS
 10
-0.965075
 20
-1.725972
  0
VERTEX
  8
PLAN_1
 62
     2
  6
CONTINUOUS
 10
-0.965618
 20
-1.730303
  0
VERTEX
  8
PLAN_1
 62
     2
  6
CONTINUOUS
 10
-0.967240
 20
-1.734634
  0
VERTEX
  8
PLAN_1
 62
     2
  6
CONTINUOUS
 10
-0.969406
 20
-1.738421
  0
VERTEX
  8
PLAN_1
 62
     2
  6
CONTINUOUS
 10
-0.971031
 20
-1.740591
  0
VERTEX
  8
PLAN_1
 62
     2
  6
CONTINUOUS
 10
-0.972654
 20
-1.742213
  0
VERTEX
  8
PLAN_1
 62
     2
  6
CONTINUOUS
 10
-0.974819
 20
-1.743839
  0
VERTEX
  8
PLAN_1
 62
     2
  6
CONTINUOUS
 10
-0.977528
 20
-1.745461
  0
VERTEX
  8
PLAN_1
 62
     2
  6
CONTINUOUS
 10
-0.980232
 20
-1.746543
  0
VERTEX
  8
PLAN_1
 62
     2
  6
CONTINUOUS
 10
-0.983484
 20
-1.747626
  0
VERTEX
  8
PLAN_1
 62
     2
  6
CONTINUOUS
 10
-0.987272
 20
-1.748169
  0
VERTEX
  8
PLAN_1
 62
     2
  6
CONTINUOUS
 10
-0.991063
 20
-1.748169
  0
VERTEX
  8
PLAN_1
 62
     2
  6
CONTINUOUS
 10
-0.994850
 20
-1.748169
  0
VERTEX
  8
PLAN_1
 62
     2
  6
CONTINUOUS
 10
-0.998642
 20
-1.747626
  0
VERTEX
  8
PLAN_1
 62
     2
  6
CONTINUOUS
 10
-1.002429
 20
-1.746543
  0
VERTEX
  8
PLAN_1
 62
     2
  6
CONTINUOUS
 10
-1.006220
 20
-1.744378
  0
VERTEX
  8
PLAN_1
 62
     2
  6
CONTINUOUS
 10
-1.008929
 20
-1.741673
  0
VERTEX
  8
PLAN_1
 62
     2
  6
CONTINUOUS
 10
-1.011634
 20
-1.738421
  0
VERTEX
  8
PLAN_1
 62
     2
  6
CONTINUOUS
 10
-1.012717
 20
-1.736256
  0
VERTEX
  8
PLAN_1
 62
     2
  6
CONTINUOUS
 10
-1.013799
 20
-1.733551
  0
VERTEX
  8
PLAN_1
 62
     2
  6
CONTINUOUS
 10
-1.014343
 20
-1.730843
  0
VERTEX
  8
PLAN_1
 62
     2
  6
CONTINUOUS
 10
-1.014882
 20
-1.728138
  0
VERTEX
  8
PLAN_1
 62
     2
  6
CONTINUOUS
 10
-1.005138
 20
-1.728138
  0
VERTEX
  8
PLAN_1
 62
     2
  6
CONTINUOUS
 10
-1.004594
 20
-1.731386
  0
VERTEX
  8
PLAN_1
 62
     2
  6
CONTINUOUS
 10
-1.003512
 20
-1.733551
  0
VERTEX
  8
PLAN_1
 62
     2
  6
CONTINUOUS
 10
-1.002429
 20
-1.735717
  0
VERTEX
  8
PLAN_1
 62
     2
  6
CONTINUOUS
 10
-1.000264
 20
-1.737339
  0
VERTEX
  8
PLAN_1
 62
     2
  6
CONTINUOUS
 10
-0.998098
 20
-1.738965
  0
VERTEX
  8
PLAN_1
 62
     2
  6
CONTINUOUS
 10
-0.995394
 20
-1.739504
  0
VERTEX
  8
PLAN_1
 62
     2
  6
CONTINUOUS
 10
-0.992685
 20
-1.740047
  0
VERTEX
  8
PLAN_1
 62
     2
  6
CONTINUOUS
 10
-0.989980
 20
-1.740591
  0
VERTEX
  8
PLAN_1
 62
     2
  6
CONTINUOUS
 10
-0.986732
 20
-1.740047
  0
VERTEX
  8
PLAN_1
 62
     2
  6
CONTINUOUS
 10
-0.983484
 20
-1.738965
  0
VERTEX
  8
PLAN_1
 62
     2
  6
CONTINUOUS
 10
-0.980776
 20
-1.737339
  0
VERTEX
  8
PLAN_1
 62
     2
  6
CONTINUOUS
 10
-0.978610
 20
-1.735717
  0
VERTEX
  8
PLAN_1
 62
     2
  6
CONTINUOUS
 10
-0.976984
 20
-1.733008
  0
VERTEX
  8
PLAN_1
 62
     2
  6
CONTINUOUS
 10
-0.975362
 20
-1.730303
  0
VERTEX
  8
PLAN_1
 62
     2
  6
CONTINUOUS
 10
-0.974819
 20
-1.727055
  0
VERTEX
  8
PLAN_1
 62
     2
  6
CONTINUOUS
 10
-0.974280
 20
-1.723807
  0
VERTEX
  8
PLAN_1
 62
     2
  6
CONTINUOUS
 10
-0.974819
 20
-1.720016
  0
VERTEX
  8
PLAN_1
 62
     2
  6
CONTINUOUS
 10
-0.975902
 20
-1.716768
  0
VERTEX
  8
PLAN_1
 62
     2
  6
CONTINUOUS
 10
-0.976984
 20
-1.714059
  0
VERTEX
  8
PLAN_1
 62
     2
  6
CONTINUOUS
 10
-0.979150
 20
-1.711894
  0
VERTEX
  8
PLAN_1
 62
     2
  6
CONTINUOUS
 10
-0.981858
 20
-1.709728
  0
VERTEX
  8
PLAN_1
 62
     2
  6
CONTINUOUS
 10
-0.984567
 20
-1.708646
  0
VERTEX
  8
PLAN_1
 62
     2
  6
CONTINUOUS
 10
-0.987272
 20
-1.707563
  0
VERTEX
  8
PLAN_1
 62
     2
  6
CONTINUOUS
 10
-0.990520
 20
-1.707563
  0
VERTEX
  8
PLAN_1
 62
     2
  6
CONTINUOUS
 10
-0.992685
 20
-1.707563
  0
VERTEX
  8
PLAN_1
 62
     2
  6
CONTINUOUS
 10
-0.994850
 20
-1.708106
  0
VERTEX
  8
PLAN_1
 62
     2
  6
CONTINUOUS
 10
-0.996476
 20
-1.708646
  0
VERTEX
  8
PLAN_1
 62
     2
  6
CONTINUOUS
 10
-0.998098
 20
-1.709189
  0
VERTEX
  8
PLAN_1
 62
     2
  6
CONTINUOUS
 10
-0.999724
 20
-1.710272
  0
VERTEX
  8
PLAN_1
 62
     2
  6
CONTINUOUS
 10
-1.001346
 20
-1.711354
  0
VERTEX
  8
PLAN_1
 62
     2
  6
CONTINUOUS
 10
-1.002972
 20
-1.712976
  0
VERTEX
  8
PLAN_1
 62
     2
  6
CONTINUOUS
 10
-1.004055
 20
-1.714602
  0
VERTEX
  8
PLAN_1
 62
     2
  6
CONTINUOUS
 10
-1.012177
 20
-1.714059
  0
VERTEX
  8
PLAN_1
 62
     2
  6
CONTINUOUS
 10
-1.006764
 20
-1.675083
  0
VERTEX
  8
PLAN_1
 62
     2
  6
CONTINUOUS
 10
-0.968866
 20
-1.675083
  0
VERTEX
  8
PLAN_1
 62
     2
  6
CONTINUOUS
 10
-0.968866
 20
-1.683744
  0
VERTEX
  8
PLAN_1
 62
     2
  6
CONTINUOUS
 10
-0.999724
 20
-1.683744
  0
VERTEX
  8
PLAN_1
 62
     2
  6
CONTINUOUS
 10
-1.002972
 20
-1.703776
  0
SEQEND
  8
0
  0
POLYLINE
  8
PLAN_1
 62
     2
  6
CONTINUOUS
 66
     1
 40
0.003000
 41
0.003000
  0
VERTEX
  8
PLAN_1
 62
     2
  6
CONTINUOUS
 10
-0.969406
 20
4.300681
  0
VERTEX
  8
PLAN_1
 62
     2
  6
CONTINUOUS
 10
-0.968323
 20
4.301224
  0
VERTEX
  8
PLAN_1
 62
     2
  6
CONTINUOUS
 10
-0.967240
 20
4.302307
  0
VERTEX
  8
PLAN_1
 62
     2
  6
CONTINUOUS
 10
-0.965618
 20
4.302846
  0
VERTEX
  8
PLAN_1
 62
     2
  6
CONTINUOUS
 10
-0.963992
 20
4.303390
  0
VERTEX
  8
PLAN_1
 62
     2
  6
CONTINUOUS
 10
-0.961827
 20
4.303929
  0
VERTEX
  8
PLAN_1
 62
     2
  6
CONTINUOUS
 10
-0.960205
 20
4.304472
  0
VERTEX
  8
PLAN_1
 62
     2
  6
CONTINUOUS
 10
-0.958039
 20
4.305012
  0
VERTEX
  8
PLAN_1
 62
     2
  6
CONTINUOUS
 10
-0.955331
 20
4.305012
  0
VERTEX
  8
PLAN_1
 62
     2
  6
CONTINUOUS
 10
-0.951000
 20
4.304472
  0
VERTEX
  8
PLAN_1
 62
     2
  6
CONTINUOUS
 10
-0.946669
 20
4.303390
  0
VERTEX
  8
PLAN_1
 62
     2
  6
CONTINUOUS
 10
-0.942878
 20
4.301764
  0
VERTEX
  8
PLAN_1
 62
     2
  6
CONTINUOUS
 10
-0.939091
 20
4.299059
  0
VERTEX
  8
PLAN_1
 62
     2
  6
CONTINUOUS
 10
-0.935843
 20
4.295811
  0
VERTEX
  8
PLAN_1
 62
     2
  6
CONTINUOUS
 10
-0.933677
 20
4.291480
  0
VERTEX
  8
PLAN_1
 62
     2
  6
CONTINUOUS
 10
-0.932594
 20
4.289315
  0
VERTEX
  8
PLAN_1
 62
     2
  6
CONTINUOUS
 10
-0.932051
 20
4.287150
  0
VERTEX
  8
PLAN_1
 62
     2
  6
CONTINUOUS
 10
-0.931512
 20
4.284441
  0
VERTEX
  8
PLAN_1
 62
     2
  6
CONTINUOUS
 10
-0.931512
 20
4.281736
  0
VERTEX
  8
PLAN_1
 62
     2
  6
CONTINUOUS
 10
-0.931512
 20
4.277945
  0
VERTEX
  8
PLAN_1
 62
     2
  6
CONTINUOUS
 10
-0.932594
 20
4.274154
  0
VERTEX
  8
PLAN_1
 62
     2
  6
CONTINUOUS
 10
-0.933677
 20
4.269823
  0
VERTEX
  8
PLAN_1
 62
     2
  6
CONTINUOUS
 10
-0.936382
 20
4.265492
  0
VERTEX
  8
PLAN_1
 62
     2
  6
CONTINUOUS
 10
-0.937465
 20
4.263870
  0
VERTEX
  8
PLAN_1
 62
     2
  6
CONTINUOUS
 10
-0.939630
 20
4.261705
  0
VERTEX
  8
PLAN_1
 62
     2
  6
CONTINUOUS
 10
-0.941795
 20
4.260079
  0
VERTEX
  8
PLAN_1
 62
     2
  6
CONTINUOUS
 10
-0.943961
 20
4.258996
  0
VERTEX
  8
PLAN_1
 62
     2
  6
CONTINUOUS
 10
-0.947209
 20
4.257374
  0
VERTEX
  8
PLAN_1
 62
     2
  6
CONTINUOUS
 10
-0.950457
 20
4.256831
  0
VERTEX
  8
PLAN_1
 62
     2
  6
CONTINUOUS
 10
-0.953705
 20
4.256291
  0
VERTEX
  8
PLAN_1
 62
     2
  6
CONTINUOUS
 10
-0.958039
 20
4.255748
  0
VERTEX
  8
PLAN_1
 62
     2
  6
CONTINUOUS
 10
-0.961827
 20
4.256291
  0
VERTEX
  8
PLAN_1
 62
     2
  6
CONTINUOUS
 10
-0.965618
 20
4.256831
  0
VERTEX
  8
PLAN_1
 62
     2
  6
CONTINUOUS
 10
-0.969406
 20
4.257913
  0
VERTEX
  8
PLAN_1
 62
     2
  6
CONTINUOUS
 10
-0.972654
 20
4.260079
  0
VERTEX
  8
PLAN_1
 62
     2
  6
CONTINUOUS
 10
-0.975902
 20
4.262244
  0
VERTEX
  8
PLAN_1
 62
     2
  6
CONTINUOUS
 10
-0.978610
 20
4.266035
  0
VERTEX
  8
PLAN_1
 62
     2
  6
CONTINUOUS
 10
-0.979693
 20
4.268201
  0
VERTEX
  8
PLAN_1
 62
     2
  6
CONTINUOUS
 10
-0.980232
 20
4.270366
  0
VERTEX
  8
PLAN_1
 62
     2
  6
CONTINUOUS
 10
-0.981319
 20
4.273071
  0
VERTEX
  8
PLAN_1
 62
     2
  6
CONTINUOUS
 10
-0.981858
 20
4.276319
  0
VERTEX
  8
PLAN_1
 62
     2
  6
CONTINUOUS
 10
-0.972114
 20
4.276319
  0
VERTEX
  8
PLAN_1
 62
     2
  6
CONTINUOUS
 10
-0.971571
 20
4.273071
  0
VERTEX
  8
PLAN_1
 62
     2
  6
CONTINUOUS
 10
-0.970488
 20
4.270366
  0
VERTEX
  8
PLAN_1
 62
     2
  6
CONTINUOUS
 10
-0.968866
 20
4.268201
  0
VERTEX
  8
PLAN_1
 62
     2
  6
CONTINUOUS
 10
-0.967240
 20
4.266575
  0
VERTEX
  8
PLAN_1
 62
     2
  6
CONTINUOUS
 10
-0.965075
 20
4.265492
  0
VERTEX
  8
PLAN_1
 62
     2
  6
CONTINUOUS
 10
-0.962370
 20
4.264409
  0
VERTEX
  8
PLAN_1
 62
     2
  6
CONTINUOUS
 10
-0.959661
 20
4.263870
  0
VERTEX
  8
PLAN_1
 62
     2
  6
CONTINUOUS
 10
-0.956413
 20
4.263870
  0
VERTEX
  8
PLAN_1
 62
     2
  6
CONTINUOUS
 10
-0.953165
 20
4.264409
  0
VERTEX
  8
PLAN_1
 62
     2
  6
CONTINUOUS
 10
-0.950457
 20
4.264953
  0
VERTEX
  8
PLAN_1
 62
     2
  6
CONTINUOUS
 10
-0.947752
 20
4.266575
  0
VERTEX
  8
PLAN_1
 62
     2
  6
CONTINUOUS
 10
-0.945587
 20
4.268740
  0
VERTEX
  8
PLAN_1
 62
     2
  6
CONTINUOUS
 10
-0.943421
 20
4.271449
  0
VERTEX
  8
PLAN_1
 62
     2
  6
CONTINUOUS
 10
-0.942339
 20
4.274154
  0
VERTEX
  8
PLAN_1
 62
     2
  6
CONTINUOUS
 10
-0.941795
 20
4.277402
  0
VERTEX
  8
PLAN_1
 62
     2
  6
CONTINUOUS
 10
-0.941256
 20
4.280650
  0
VERTEX
  8
PLAN_1
 62
     2
  6
CONTINUOUS
 10
-0.941795
 20
4.284441
  0
VERTEX
  8
PLAN_1
 62
     2
  6
CONTINUOUS
 10
-0.942339
 20
4.287689
  0
VERTEX
  8
PLAN_1
 62
     2
  6
CONTINUOUS
 10
-0.943961
 20
4.290398
  0
VERTEX
  8
PLAN_1
 62
     2
  6
CONTINUOUS
 10
-0.946126
 20
4.292563
  0
VERTEX
  8
PLAN_1
 62
     2
  6
CONTINUOUS
 10
-0.948291
 20
4.294185
  0
VERTEX
  8
PLAN_1
 62
     2
  6
CONTINUOUS
 10
-0.951000
 20
4.295811
  0
VERTEX
  8
PLAN_1
 62
     2
  6
CONTINUOUS
 10
-0.954248
 20
4.296350
  0
VERTEX
  8
PLAN_1
 62
     2
  6
CONTINUOUS
 10
-0.957496
 20
4.296894
  0
VERTEX
  8
PLAN_1
 62
     2
  6
CONTINUOUS
 10
-0.959661
 20
4.296894
  0
VERTEX
  8
PLAN_1
 62
     2
  6
CONTINUOUS
 10
-0.961287
 20
4.296350
  0
VERTEX
  8
PLAN_1
 62
     2
  6
CONTINUOUS
 10
-0.963453
 20
4.295811
  0
VERTEX
  8
PLAN_1
 62
     2
  6
CONTINUOUS
 10
-0.965075
 20
4.294728
  0
VERTEX
  8
PLAN_1
 62
     2
  6
CONTINUOUS
 10
-0.966701
 20
4.294185
  0
VERTEX
  8
PLAN_1
 62
     2
  6
CONTINUOUS
 10
-0.968323
 20
4.292563
  0
VERTEX
  8
PLAN_1
 62
     2
  6
CONTINUOUS
 10
-0.969406
 20
4.291480
  0
VERTEX
  8
PLAN_1
 62
     2
  6
CONTINUOUS
 10
-0.971031
 20
4.289854
  0
VERTEX
  8
PLAN_1
 62
     2
  6
CONTINUOUS
 10
-0.979150
 20
4.290398
  0
VERTEX
  8
PLAN_1
 62
     2
  6
CONTINUOUS
 10
-0.973197
 20
4.329374
  0
VERTEX
  8
PLAN_1
 62
     2
  6
CONTINUOUS
 10
-0.935299
 20
4.329374
  0
VERTEX
  8
PLAN_1
 62
     2
  6
CONTINUOUS
 10
-0.935299
 20
4.320713
  0
VERTEX
  8
PLAN_1
 62
     2
  6
CONTINUOUS
 10
-0.966701
 20
4.320713
  0
VERTEX
  8
PLAN_1
 62
     2
  6
CONTINUOUS
 10
-0.969406
 20
4.300681
  0
SEQEND
  8
0
  0
POLYLINE
  8
PLAN_1
 62
     2
  6
CONTINUOUS
 66
     1
 40
0.003000
 41
0.003000
  0
VERTEX
  8
PLAN_1
 62
     2
  6
CONTINUOUS
 10
-0.889823
 20
4.257913
  0
VERTEX
  8
PLAN_1
 62
     2
  6
CONTINUOUS
 10
-0.899567
 20
4.257913
  0
VERTEX
  8
PLAN_1
 62
     2
  6
CONTINUOUS
 10
-0.899567
 20
4.309886
  0
VERTEX
  8
PLAN_1
 62
     2
  6
CONTINUOUS
 10
-0.916350
 20
4.309886
  0
VERTEX
  8
PLAN_1
 62
     2
  6
CONTINUOUS
 10
-0.916350
 20
4.316925
  0
VERTEX
  8
PLAN_1
 62
     2
  6
CONTINUOUS
 10
-0.912563
 20
4.317465
  0
VERTEX
  8
PLAN_1
 62
     2
  6
CONTINUOUS
 10
-0.908772
 20
4.318008
  0
VERTEX
  8
PLAN_1
 62
     2
  6
CONTINUOUS
 10
-0.906067
 20
4.318547
  0
VERTEX
  8
PLAN_1
 62
     2
  6
CONTINUOUS
 10
-0.903358
 20
4.319630
  0
VERTEX
  8
PLAN_1
 62
     2
  6
CONTINUOUS
 10
-0.901193
 20
4.321795
  0
VERTEX
  8
PLAN_1
 62
     2
  6
CONTINUOUS
 10
-0.899567
 20
4.323961
  0
VERTEX
  8
PLAN_1
 62
     2
  6
CONTINUOUS
 10
-0.897945
 20
4.327209
  0
VERTEX
  8
PLAN_1
 62
     2
  6
CONTINUOUS
 10
-0.896862
 20
4.331000
  0
VERTEX
  8
PLAN_1
 62
     2
  6
CONTINUOUS
 10
-0.889823
 20
4.331000
  0
VERTEX
  8
PLAN_1
 62
     2
  6
CONTINUOUS
 10
-0.889823
 20
4.257913
  0
SEQEND
  8
0
  0
POLYLINE
  8
PLAN_1
 62
     2
  6
CONTINUOUS
 66
     1
 40
0.004331
 41
0.004331
  0
VERTEX
  8
PLAN_1
 62
     2
  6
CONTINUOUS
 10
0.079248
 20
0.400575
  0
VERTEX
  8
PLAN_1
 62
     2
  6
CONTINUOUS
 10
0.079248
 20
2.498425
  0
SEQEND
  8
0
  0
POLYLINE
  8
PLAN_1
 62
     2
  6
CONTINUOUS
 66
     1
 40
0.003000
 41
0.003000
  0
VERTEX
  8
PLAN_1
 62
     2
  6
CONTINUOUS
 10
-1.927110
 20
4.257913
  0
VERTEX
  8
PLAN_1
 62
     2
  6
CONTINUOUS
 10
-1.927110
 20
4.249791
  0
SEQEND
  8
0
  0
POLYLINE
  8
PLAN_1
 62
     2
  6
CONTINUOUS
 66
     1
 40
0.003000
 41
0.003000
  0
VERTEX
  8
PLAN_1
 62
     2
  6
CONTINUOUS
 10
-1.927110
 20
4.241130
  0
VERTEX
  8
PLAN_1
 62
     2
  6
CONTINUOUS
 10
-1.927110
 20
4.233012
  0
SEQEND
  8
0
  0
POLYLINE
  8
PLAN_1
 62
     2
  6
CONTINUOUS
 66
     1
 40
0.003000
 41
0.003000
  0
VERTEX
  8
PLAN_1
 62
     2
  6
CONTINUOUS
 10
-1.927110
 20
4.224346
  0
VERTEX
  8
PLAN_1
 62
     2
  6
CONTINUOUS
 10
-1.927110
 20
4.216228
  0
SEQEND
  8
0
  0
POLYLINE
  8
PLAN_1
 62
     2
  6
CONTINUOUS
 66
     1
 40
0.003000
 41
0.003000
  0
VERTEX
  8
PLAN_1
 62
     2
  6
CONTINUOUS
 10
-1.927110
 20
4.208106
  0
VERTEX
  8
PLAN_1
 62
     2
  6
CONTINUOUS
 10
-1.927110
 20
4.199445
  0
SEQEND
  8
0
  0
POLYLINE
  8
PLAN_1
 62
     2
  6
CONTINUOUS
 66
     1
 40
0.003000
 41
0.003000
  0
VERTEX
  8
PLAN_1
 62
     2
  6
CONTINUOUS
 10
-1.927110
 20
4.191323
  0
VERTEX
  8
PLAN_1
 62
     2
  6
CONTINUOUS
 10
-1.927110
 20
4.182661
  0
SEQEND
  8
0
  0
POLYLINE
  8
PLAN_1
 62
     2
  6
CONTINUOUS
 66
     1
 40
0.003000
 41
0.003000
  0
VERTEX
  8
PLAN_1
 62
     2
  6
CONTINUOUS
 10
-1.927110
 20
4.174539
  0
VERTEX
  8
PLAN_1
 62
     2
  6
CONTINUOUS
 10
-1.927110
 20
4.166421
  0
SEQEND
  8
0
  0
POLYLINE
  8
PLAN_1
 62
     2
  6
CONTINUOUS
 66
     1
 40
0.003000
 41
0.003000
  0
VERTEX
  8
PLAN_1
 62
     2
  6
CONTINUOUS
 10
-1.927110
 20
4.157760
  0
VERTEX
  8
PLAN_1
 62
     2
  6
CONTINUOUS
 10
-1.927110
 20
4.149638
  0
SEQEND
  8
0
  0
POLYLINE
  8
PLAN_1
 62
     2
  6
CONTINUOUS
 66
     1
 40
0.003000
 41
0.003000
  0
VERTEX
  8
PLAN_1
 62
     2
  6
CONTINUOUS
 10
-1.927110
 20
4.141516
  0
VERTEX
  8
PLAN_1
 62
     2
  6
CONTINUOUS
 10
-1.927110
 20
4.132854
  0
SEQEND
  8
0
  0
POLYLINE
  8
PLAN_1
 62
     2
  6
CONTINUOUS
 66
     1
 40
0.003000
 41
0.003000
  0
VERTEX
  8
PLAN_1
 62
     2
  6
CONTINUOUS
 10
-1.927110
 20
4.124732
  0
VERTEX
  8
PLAN_1
 62
     2
  6
CONTINUOUS
 10
-1.927110
 20
4.116071
  0
SEQEND
  8
0
  0
POLYLINE
  8
PLAN_1
 62
     2
  6
CONTINUOUS
 66
     1
 40
0.003000
 41
0.003000
  0
VERTEX
  8
PLAN_1
 62
     2
  6
CONTINUOUS
 10
-1.927110
 20
4.107953
  0
VERTEX
  8
PLAN_1
 62
     2
  6
CONTINUOUS
 10
-1.927110
 20
4.101453
  0
SEQEND
  8
0
  0
POLYLINE
  8
PLAN_1
 62
     2
  6
CONTINUOUS
 66
     1
 40
0.003000
 41
0.003000
  0
VERTEX
  8
PLAN_1
 62
     2
  6
CONTINUOUS
 10
-1.927110
 20
4.107953
  0
VERTEX
  8
PLAN_1
 62
     2
  6
CONTINUOUS
 10
-1.927110
 20
4.101453
  0
SEQEND
  8
0
  0
POLYLINE
  8
PLAN_1
 62
     2
  6
CONTINUOUS
 66
     1
 40
0.004331
 41
0.004331
  0
VERTEX
  8
PLAN_1
 62
     2
  6
CONTINUOUS
 10
0.079248
 20
0.546748
  0
VERTEX
  8
PLAN_1
 62
     2
  6
CONTINUOUS
 10
0.079248
 20
4.257913
  0
SEQEND
  8
0
  0
ENDSEC
  0
EOF
