  0
SECTION
  2
HEADER
  9
$ACADVER
  1
AC1006
  9
$EXTMIN
 10
-2.180740
 20
-3.488886
  9
$EXTMAX
 10
2.181000
 20
3.498000
  9
$LTSCALE
 40
0.000394
  9
$PDMODE
 70
    35
  9
$PDSIZE
 40
0.000315
  0
ENDSEC
  0
SECTION
  2
TABLES
  0
TABLE
  2
LTYPE
 70
     9
  0
LTYPE
  2
CONTINUOUS
 70
    64
  3
Solid line
 72
    65
 73
     0
 40
0.000000
  0
LTYPE
  2
DASHED
 70
    64
  3
__ __ __ __ __ __ __ __ __ __ __ __ __ __ __
 72
    65
 73
     2
 40
0.000003
 49
0.000002
 49
-0.000001
  0
LTYPE
  2
HIDDEN
 70
    64
  3
 _ _ _ _ _ _ _ _ _ _ _ _ _ _ _ _ _ _ _ _ _ _
 72
    65
 73
     2
 40
0.000001
 49
0.000001
 49
-0.000000
  0
LTYPE
  2
CENTER
 70
    64
  3
____ _ ____ _ ____ _ ____ _ ____ _ ____ _ ____
 72
    65
 73
     4
 40
0.000008
 49
0.000005
 49
-0.000001
 49
0.000001
 49
-0.000001
  0
LTYPE
  2
PHANTOM
 70
    64
  3
_____ _ _ _____ _ _ _____ _ _ _____ _ _ ____
 72
    65
 73
     6
 40
0.000010
 49
0.000005
 49
-0.000001
 49
0.000001
 49
-0.000001
 49
0.000001
 49
-0.000001
  0
LTYPE
  2
DOT
 70
    64
  3
...............................................
 72
    65
 73
     2
 40
0.000001
 49
0.000000
 49
-0.000001
  0
LTYPE
  2
DASHDOT
 70
    64
  3
__ . __ . __ . __ . __ . __ . __ . __ . __ . __
 72
    65
 73
     4
 40
0.000004
 49
0.000002
 49
-0.000001
 49
0.000000
 49
-0.000001
  0
LTYPE
  2
BORDER
 70
    64
  3
__ __ . __ __ . __ __ . __ __ . __ __ . __ __
 72
    65
 73
     6
 40
0.000007
 49
0.000002
 49
-0.000001
 49
0.000002
 49
-0.000001
 49
0.000000
 49
-0.000001
  0
LTYPE
  2
DIVIDE
 70
    64
  3
__ . . __ . . __ . . __ . . __ . . __ . . __
 72
    65
 73
     6
 40
0.000005
 49
0.000002
 49
-0.000001
 49
0.000000
 49
-0.000001
 49
0.000000
 49
-0.000001
  0
LTYPE
  2
DOTDOT
 70
    64
  3
 . .  . .  . .  . .  . .  . . 
 72
    65
 73
     5
 40
0.000002
 49
-0.000001
 49
0.000000
 49
-0.000001
 49
0.000000
 49
-0.000001
  0
ENDTAB
  0
TABLE
  2
STYLE
 70
     0
  0
ENDTAB
  0
TABLE
  2
LAYER
 70
     3
  0
LAYER
  2
FOREGROUND
 70
    64
 62
     7
  6
CONTINUOUS
  0
LAYER
  2
BACKGROUND
 70
    65
 62
    -7
  6
CONTINUOUS
  0
LAYER
  2
PLAN_1
 70
    64
 62
     7
  6
CONTINUOUS
  0
ENDTAB
  0
ENDSEC
  0
SECTION
  2
ENTITIES
  0
POLYLINE
  8
PLAN_1
  6
CONTINUOUS
 66
     1
 40
0.003000
 41
0.003000
  0
VERTEX
  8
PLAN_1
  6
CONTINUOUS
 10
0.393232
 20
-3.483646
  0
VERTEX
  8
PLAN_1
  6
CONTINUOUS
 10
0.236028
 20
-3.483646
  0
VERTEX
  8
PLAN_1
  6
CONTINUOUS
 10
0.236028
 20
-3.460937
  0
VERTEX
  8
PLAN_1
  6
CONTINUOUS
 10
0.358295
 20
-3.308098
  0
VERTEX
  8
PLAN_1
  6
CONTINUOUS
 10
0.245197
 20
-3.308098
  0
VERTEX
  8
PLAN_1
  6
CONTINUOUS
 10
0.245197
 20
-3.284520
  0
VERTEX
  8
PLAN_1
  6
CONTINUOUS
 10
0.393232
 20
-3.284520
  0
VERTEX
  8
PLAN_1
  6
CONTINUOUS
 10
0.393232
 20
-3.307661
  0
VERTEX
  8
PLAN_1
  6
CONTINUOUS
 10
0.270524
 20
-3.459630
  0
VERTEX
  8
PLAN_1
  6
CONTINUOUS
 10
0.393232
 20
-3.459630
  0
VERTEX
  8
PLAN_1
  6
CONTINUOUS
 10
0.393232
 20
-3.483646
  0
SEQEND
  8
0
  0
POLYLINE
  8
PLAN_1
  6
CONTINUOUS
 66
     1
 40
0.003000
 41
0.003000
  0
VERTEX
  8
PLAN_1
  6
CONTINUOUS
 10
0.560480
 20
-3.344343
  0
VERTEX
  8
PLAN_1
  6
CONTINUOUS
 10
0.558732
 20
-3.338232
  0
VERTEX
  8
PLAN_1
  6
CONTINUOUS
 10
0.556547
 20
-3.332555
  0
VERTEX
  8
PLAN_1
  6
CONTINUOUS
 10
0.553929
 20
-3.327315
  0
VERTEX
  8
PLAN_1
  6
CONTINUOUS
 10
0.551307
 20
-3.322949
  0
VERTEX
  8
PLAN_1
  6
CONTINUOUS
 10
0.547815
 20
-3.319016
  0
VERTEX
  8
PLAN_1
  6
CONTINUOUS
 10
0.544323
 20
-3.315961
  0
VERTEX
  8
PLAN_1
  6
CONTINUOUS
 10
0.540827
 20
-3.312902
  0
VERTEX
  8
PLAN_1
  6
CONTINUOUS
 10
0.536898
 20
-3.310720
  0
VERTEX
  8
PLAN_1
  6
CONTINUOUS
 10
0.532969
 20
-3.308535
  0
VERTEX
  8
PLAN_1
  6
CONTINUOUS
 10
0.528602
 20
-3.306791
  0
VERTEX
  8
PLAN_1
  6
CONTINUOUS
 10
0.524673
 20
-3.305480
  0
VERTEX
  8
PLAN_1
  6
CONTINUOUS
 10
0.520303
 20
-3.304606
  0
VERTEX
  8
PLAN_1
  6
CONTINUOUS
 10
0.512445
 20
-3.303295
  0
VERTEX
  8
PLAN_1
  6
CONTINUOUS
 10
0.504583
 20
-3.302858
  0
VERTEX
  8
PLAN_1
  6
CONTINUOUS
 10
0.498035
 20
-3.303295
  0
VERTEX
  8
PLAN_1
  6
CONTINUOUS
 10
0.491484
 20
-3.304169
  0
VERTEX
  8
PLAN_1
  6
CONTINUOUS
 10
0.485370
 20
-3.305917
  0
VERTEX
  8
PLAN_1
  6
CONTINUOUS
 10
0.479256
 20
-3.308098
  0
VERTEX
  8
PLAN_1
  6
CONTINUOUS
 10
0.473579
 20
-3.310720
  0
VERTEX
  8
PLAN_1
  6
CONTINUOUS
 10
0.468339
 20
-3.314213
  0
VERTEX
  8
PLAN_1
  6
CONTINUOUS
 10
0.463098
 20
-3.318142
  0
VERTEX
  8
PLAN_1
  6
CONTINUOUS
 10
0.458295
 20
-3.322949
  0
VERTEX
  8
PLAN_1
  6
CONTINUOUS
 10
0.454366
 20
-3.328189
  0
VERTEX
  8
PLAN_1
  6
CONTINUOUS
 10
0.450437
 20
-3.333862
  0
VERTEX
  8
PLAN_1
  6
CONTINUOUS
 10
0.447378
 20
-3.340413
  0
VERTEX
  8
PLAN_1
  6
CONTINUOUS
 10
0.444760
 20
-3.347402
  0
VERTEX
  8
PLAN_1
  6
CONTINUOUS
 10
0.442138
 20
-3.355260
  0
VERTEX
  8
PLAN_1
  6
CONTINUOUS
 10
0.440831
 20
-3.363559
  0
VERTEX
  8
PLAN_1
  6
CONTINUOUS
 10
0.439957
 20
-3.372728
  0
VERTEX
  8
PLAN_1
  6
CONTINUOUS
 10
0.439520
 20
-3.381898
  0
VERTEX
  8
PLAN_1
  6
CONTINUOUS
 10
0.439520
 20
-3.390634
  0
VERTEX
  8
PLAN_1
  6
CONTINUOUS
 10
0.440394
 20
-3.398929
  0
VERTEX
  8
PLAN_1
  6
CONTINUOUS
 10
0.441264
 20
-3.407224
  0
VERTEX
  8
PLAN_1
  6
CONTINUOUS
 10
0.443012
 20
-3.414650
  0
VERTEX
  8
PLAN_1
  6
CONTINUOUS
 10
0.444760
 20
-3.422075
  0
VERTEX
  8
PLAN_1
  6
CONTINUOUS
 10
0.447378
 20
-3.429059
  0
VERTEX
  8
PLAN_1
  6
CONTINUOUS
 10
0.450437
 20
-3.435173
  0
VERTEX
  8
PLAN_1
  6
CONTINUOUS
 10
0.453929
 20
-3.441287
  0
VERTEX
  8
PLAN_1
  6
CONTINUOUS
 10
0.458295
 20
-3.446528
  0
VERTEX
  8
PLAN_1
  6
CONTINUOUS
 10
0.462661
 20
-3.451331
  0
VERTEX
  8
PLAN_1
  6
CONTINUOUS
 10
0.465283
 20
-3.453079
  0
VERTEX
  8
PLAN_1
  6
CONTINUOUS
 10
0.468339
 20
-3.455260
  0
VERTEX
  8
PLAN_1
  6
CONTINUOUS
 10
0.471398
 20
-3.457008
  0
VERTEX
  8
PLAN_1
  6
CONTINUOUS
 10
0.474453
 20
-3.458756
  0
VERTEX
  8
PLAN_1
  6
CONTINUOUS
 10
0.477512
 20
-3.460063
  0
VERTEX
  8
PLAN_1
  6
CONTINUOUS
 10
0.481004
 20
-3.461374
  0
VERTEX
  8
PLAN_1
  6
CONTINUOUS
 10
0.484496
 20
-3.462685
  0
VERTEX
  8
PLAN_1
  6
CONTINUOUS
 10
0.488425
 20
-3.463559
  0
VERTEX
  8
PLAN_1
  6
CONTINUOUS
 10
0.492358
 20
-3.463996
  0
VERTEX
  8
PLAN_1
  6
CONTINUOUS
 10
0.496724
 20
-3.464433
  0
VERTEX
  8
PLAN_1
  6
CONTINUOUS
 10
0.501091
 20
-3.464870
  0
VERTEX
  8
PLAN_1
  6
CONTINUOUS
 10
0.505457
 20
-3.464870
  0
VERTEX
  8
PLAN_1
  6
CONTINUOUS
 10
0.508953
 20
-3.464870
  0
VERTEX
  8
PLAN_1
  6
CONTINUOUS
 10
0.512445
 20
-3.464433
  0
VERTEX
  8
PLAN_1
  6
CONTINUOUS
 10
0.516374
 20
-3.463996
  0
VERTEX
  8
PLAN_1
  6
CONTINUOUS
 10
0.520303
 20
-3.463122
  0
VERTEX
  8
PLAN_1
  6
CONTINUOUS
 10
0.524673
 20
-3.461811
  0
VERTEX
  8
PLAN_1
  6
CONTINUOUS
 10
0.528602
 20
-3.460063
  0
VERTEX
  8
PLAN_1
  6
CONTINUOUS
 10
0.532969
 20
-3.457882
  0
VERTEX
  8
PLAN_1
  6
CONTINUOUS
 10
0.536898
 20
-3.455260
  0
VERTEX
  8
PLAN_1
  6
CONTINUOUS
 10
0.541264
 20
-3.451768
  0
VERTEX
  8
PLAN_1
  6
CONTINUOUS
 10
0.544760
 20
-3.447839
  0
VERTEX
  8
PLAN_1
  6
CONTINUOUS
 10
0.548689
 20
-3.443472
  0
VERTEX
  8
PLAN_1
  6
CONTINUOUS
 10
0.552181
 20
-3.438232
  0
VERTEX
  8
PLAN_1
  6
CONTINUOUS
 10
0.555240
 20
-3.432555
  0
VERTEX
  8
PLAN_1
  6
CONTINUOUS
 10
0.557858
 20
-3.426004
  0
VERTEX
  8
PLAN_1
  6
CONTINUOUS
 10
0.560480
 20
-3.418579
  0
VERTEX
  8
PLAN_1
  6
CONTINUOUS
 10
0.562224
 20
-3.410283
  0
VERTEX
  8
PLAN_1
  6
CONTINUOUS
 10
0.588425
 20
-3.410283
  0
VERTEX
  8
PLAN_1
  6
CONTINUOUS
 10
0.587118
 20
-3.417272
  0
VERTEX
  8
PLAN_1
  6
CONTINUOUS
 10
0.585807
 20
-3.423819
  0
VERTEX
  8
PLAN_1
  6
CONTINUOUS
 10
0.584059
 20
-3.429496
  0
VERTEX
  8
PLAN_1
  6
CONTINUOUS
 10
0.582315
 20
-3.435173
  0
VERTEX
  8
PLAN_1
  6
CONTINUOUS
 10
0.580130
 20
-3.440413
  0
VERTEX
  8
PLAN_1
  6
CONTINUOUS
 10
0.577508
 20
-3.445654
  0
VERTEX
  8
PLAN_1
  6
CONTINUOUS
 10
0.574890
 20
-3.450020
  0
VERTEX
  8
PLAN_1
  6
CONTINUOUS
 10
0.572268
 20
-3.454390
  0
VERTEX
  8
PLAN_1
  6
CONTINUOUS
 10
0.569213
 20
-3.458319
  0
VERTEX
  8
PLAN_1
  6
CONTINUOUS
 10
0.566157
 20
-3.461811
  0
VERTEX
  8
PLAN_1
  6
CONTINUOUS
 10
0.563098
 20
-3.465303
  0
VERTEX
  8
PLAN_1
  6
CONTINUOUS
 10
0.560043
 20
-3.468362
  0
VERTEX
  8
PLAN_1
  6
CONTINUOUS
 10
0.556547
 20
-3.470980
  0
VERTEX
  8
PLAN_1
  6
CONTINUOUS
 10
0.553055
 20
-3.473602
  0
VERTEX
  8
PLAN_1
  6
CONTINUOUS
 10
0.550000
 20
-3.475783
  0
VERTEX
  8
PLAN_1
  6
CONTINUOUS
 10
0.546504
 20
-3.477969
  0
VERTEX
  8
PLAN_1
  6
CONTINUOUS
 10
0.539520
 20
-3.481024
  0
VERTEX
  8
PLAN_1
  6
CONTINUOUS
 10
0.532531
 20
-3.484083
  0
VERTEX
  8
PLAN_1
  6
CONTINUOUS
 10
0.525980
 20
-3.485831
  0
VERTEX
  8
PLAN_1
  6
CONTINUOUS
 10
0.519866
 20
-3.487138
  0
VERTEX
  8
PLAN_1
  6
CONTINUOUS
 10
0.508953
 20
-3.488449
  0
VERTEX
  8
PLAN_1
  6
CONTINUOUS
 10
0.501528
 20
-3.488886
  0
VERTEX
  8
PLAN_1
  6
CONTINUOUS
 10
0.492795
 20
-3.488449
  0
VERTEX
  8
PLAN_1
  6
CONTINUOUS
 10
0.484496
 20
-3.487575
  0
VERTEX
  8
PLAN_1
  6
CONTINUOUS
 10
0.476201
 20
-3.485831
  0
VERTEX
  8
PLAN_1
  6
CONTINUOUS
 10
0.468339
 20
-3.483209
  0
VERTEX
  8
PLAN_1
  6
CONTINUOUS
 10
0.464409
 20
-3.481461
  0
VERTEX
  8
PLAN_1
  6
CONTINUOUS
 10
0.460480
 20
-3.479717
  0
VERTEX
  8
PLAN_1
  6
CONTINUOUS
 10
0.456551
 20
-3.477531
  0
VERTEX
  8
PLAN_1
  6
CONTINUOUS
 10
0.453055
 20
-3.475350
  0
VERTEX
  8
PLAN_1
  6
CONTINUOUS
 10
0.449563
 20
-3.473165
  0
VERTEX
  8
PLAN_1
  6
CONTINUOUS
 10
0.446071
 20
-3.470543
  0
VERTEX
  8
PLAN_1
  6
CONTINUOUS
 10
0.442575
 20
-3.467488
  0
VERTEX
  8
PLAN_1
  6
CONTINUOUS
 10
0.439520
 20
-3.464433
  0
VERTEX
  8
PLAN_1
  6
CONTINUOUS
 10
0.436461
 20
-3.461374
  0
VERTEX
  8
PLAN_1
  6
CONTINUOUS
 10
0.433406
 20
-3.457882
  0
VERTEX
  8
PLAN_1
  6
CONTINUOUS
 10
0.430783
 20
-3.453953
  0
VERTEX
  8
PLAN_1
  6
CONTINUOUS
 10
0.428165
 20
-3.450020
  0
VERTEX
  8
PLAN_1
  6
CONTINUOUS
 10
0.425543
 20
-3.446091
  0
VERTEX
  8
PLAN_1
  6
CONTINUOUS
 10
0.423362
 20
-3.441287
  0
VERTEX
  8
PLAN_1
  6
CONTINUOUS
 10
0.421177
 20
-3.436921
  0
VERTEX
  8
PLAN_1
  6
CONTINUOUS
 10
0.419433
 20
-3.431681
  0
VERTEX
  8
PLAN_1
  6
CONTINUOUS
 10
0.417685
 20
-3.426441
  0
VERTEX
  8
PLAN_1
  6
CONTINUOUS
 10
0.415937
 20
-3.421201
  0
VERTEX
  8
PLAN_1
  6
CONTINUOUS
 10
0.414630
 20
-3.415524
  0
VERTEX
  8
PLAN_1
  6
CONTINUOUS
 10
0.413756
 20
-3.409409
  0
VERTEX
  8
PLAN_1
  6
CONTINUOUS
 10
0.412882
 20
-3.403295
  0
VERTEX
  8
PLAN_1
  6
CONTINUOUS
 10
0.412008
 20
-3.396744
  0
VERTEX
  8
PLAN_1
  6
CONTINUOUS
 10
0.412008
 20
-3.389760
  0
VERTEX
  8
PLAN_1
  6
CONTINUOUS
 10
0.411571
 20
-3.382772
  0
VERTEX
  8
PLAN_1
  6
CONTINUOUS
 10
0.412008
 20
-3.371417
  0
VERTEX
  8
PLAN_1
  6
CONTINUOUS
 10
0.413319
 20
-3.360937
  0
VERTEX
  8
PLAN_1
  6
CONTINUOUS
 10
0.414193
 20
-3.355697
  0
VERTEX
  8
PLAN_1
  6
CONTINUOUS
 10
0.415063
 20
-3.350457
  0
VERTEX
  8
PLAN_1
  6
CONTINUOUS
 10
0.416374
 20
-3.345654
  0
VERTEX
  8
PLAN_1
  6
CONTINUOUS
 10
0.418122
 20
-3.340850
  0
VERTEX
  8
PLAN_1
  6
CONTINUOUS
 10
0.419870
 20
-3.336047
  0
VERTEX
  8
PLAN_1
  6
CONTINUOUS
 10
0.421614
 20
-3.331681
  0
VERTEX
  8
PLAN_1
  6
CONTINUOUS
 10
0.423362
 20
-3.327315
  0
VERTEX
  8
PLAN_1
  6
CONTINUOUS
 10
0.425980
 20
-3.322949
  0
VERTEX
  8
PLAN_1
  6
CONTINUOUS
 10
0.428165
 20
-3.319016
  0
VERTEX
  8
PLAN_1
  6
CONTINUOUS
 10
0.430783
 20
-3.315087
  0
VERTEX
  8
PLAN_1
  6
CONTINUOUS
 10
0.433406
 20
-3.311594
  0
VERTEX
  8
PLAN_1
  6
CONTINUOUS
 10
0.436461
 20
-3.308098
  0
VERTEX
  8
PLAN_1
  6
CONTINUOUS
 10
0.439520
 20
-3.304606
  0
VERTEX
  8
PLAN_1
  6
CONTINUOUS
 10
0.442575
 20
-3.301551
  0
VERTEX
  8
PLAN_1
  6
CONTINUOUS
 10
0.446071
 20
-3.298492
  0
VERTEX
  8
PLAN_1
  6
CONTINUOUS
 10
0.449563
 20
-3.295874
  0
VERTEX
  8
PLAN_1
  6
CONTINUOUS
 10
0.453492
 20
-3.293252
  0
VERTEX
  8
PLAN_1
  6
CONTINUOUS
 10
0.457421
 20
-3.290634
  0
VERTEX
  8
PLAN_1
  6
CONTINUOUS
 10
0.461354
 20
-3.288449
  0
VERTEX
  8
PLAN_1
  6
CONTINUOUS
 10
0.465720
 20
-3.286701
  0
VERTEX
  8
PLAN_1
  6
CONTINUOUS
 10
0.470087
 20
-3.284957
  0
VERTEX
  8
PLAN_1
  6
CONTINUOUS
 10
0.474453
 20
-3.283209
  0
VERTEX
  8
PLAN_1
  6
CONTINUOUS
 10
0.479256
 20
-3.282335
  0
VERTEX
  8
PLAN_1
  6
CONTINUOUS
 10
0.484059
 20
-3.281028
  0
VERTEX
  8
PLAN_1
  6
CONTINUOUS
 10
0.488862
 20
-3.280154
  0
VERTEX
  8
PLAN_1
  6
CONTINUOUS
 10
0.494102
 20
-3.279717
  0
VERTEX
  8
PLAN_1
  6
CONTINUOUS
 10
0.499343
 20
-3.279280
  0
VERTEX
  8
PLAN_1
  6
CONTINUOUS
 10
0.504583
 20
-3.279280
  0
VERTEX
  8
PLAN_1
  6
CONTINUOUS
 10
0.514193
 20
-3.279280
  0
VERTEX
  8
PLAN_1
  6
CONTINUOUS
 10
0.522925
 20
-3.280591
  0
VERTEX
  8
PLAN_1
  6
CONTINUOUS
 10
0.530783
 20
-3.282335
  0
VERTEX
  8
PLAN_1
  6
CONTINUOUS
 10
0.538646
 20
-3.284520
  0
VERTEX
  8
PLAN_1
  6
CONTINUOUS
 10
0.545634
 20
-3.287575
  0
VERTEX
  8
PLAN_1
  6
CONTINUOUS
 10
0.552181
 20
-3.291071
  0
VERTEX
  8
PLAN_1
  6
CONTINUOUS
 10
0.557858
 20
-3.295000
  0
VERTEX
  8
PLAN_1
  6
CONTINUOUS
 10
0.563535
 20
-3.299366
  0
VERTEX
  8
PLAN_1
  6
CONTINUOUS
 10
0.568339
 20
-3.304169
  0
VERTEX
  8
PLAN_1
  6
CONTINUOUS
 10
0.572268
 20
-3.308972
  0
VERTEX
  8
PLAN_1
  6
CONTINUOUS
 10
0.576201
 20
-3.314213
  0
VERTEX
  8
PLAN_1
  6
CONTINUOUS
 10
0.579256
 20
-3.319890
  0
VERTEX
  8
PLAN_1
  6
CONTINUOUS
 10
0.581878
 20
-3.326004
  0
VERTEX
  8
PLAN_1
  6
CONTINUOUS
 10
0.584059
 20
-3.332118
  0
VERTEX
  8
PLAN_1
  6
CONTINUOUS
 10
0.585370
 20
-3.338232
  0
VERTEX
  8
PLAN_1
  6
CONTINUOUS
 10
0.586681
 20
-3.344343
  0
VERTEX
  8
PLAN_1
  6
CONTINUOUS
 10
0.560480
 20
-3.344343
  0
SEQEND
  8
0
  0
POLYLINE
  8
PLAN_1
  6
CONTINUOUS
 66
     1
 40
0.003000
 41
0.003000
  0
VERTEX
  8
PLAN_1
  6
CONTINUOUS
 10
0.647815
 20
-3.483646
  0
VERTEX
  8
PLAN_1
  6
CONTINUOUS
 10
0.621177
 20
-3.483646
  0
VERTEX
  8
PLAN_1
  6
CONTINUOUS
 10
0.621177
 20
-3.284520
  0
VERTEX
  8
PLAN_1
  6
CONTINUOUS
 10
0.647815
 20
-3.284520
  0
VERTEX
  8
PLAN_1
  6
CONTINUOUS
 10
0.647815
 20
-3.381024
  0
VERTEX
  8
PLAN_1
  6
CONTINUOUS
 10
0.744323
 20
-3.284520
  0
VERTEX
  8
PLAN_1
  6
CONTINUOUS
 10
0.781878
 20
-3.284520
  0
VERTEX
  8
PLAN_1
  6
CONTINUOUS
 10
0.698906
 20
-3.364870
  0
VERTEX
  8
PLAN_1
  6
CONTINUOUS
 10
0.784059
 20
-3.483646
  0
VERTEX
  8
PLAN_1
  6
CONTINUOUS
 10
0.749126
 20
-3.483646
  0
VERTEX
  8
PLAN_1
  6
CONTINUOUS
 10
0.679256
 20
-3.383646
  0
VERTEX
  8
PLAN_1
  6
CONTINUOUS
 10
0.647815
 20
-3.413776
  0
VERTEX
  8
PLAN_1
  6
CONTINUOUS
 10
0.647815
 20
-3.483646
  0
SEQEND
  8
0
  0
POLYLINE
  8
PLAN_1
  6
CONTINUOUS
 66
     1
 40
0.003000
 41
0.003000
  0
VERTEX
  8
PLAN_1
  6
CONTINUOUS
 10
0.956110
 20
-3.483646
  0
VERTEX
  8
PLAN_1
  6
CONTINUOUS
 10
0.808949
 20
-3.483646
  0
VERTEX
  8
PLAN_1
  6
CONTINUOUS
 10
0.808949
 20
-3.284520
  0
VERTEX
  8
PLAN_1
  6
CONTINUOUS
 10
0.953929
 20
-3.284520
  0
VERTEX
  8
PLAN_1
  6
CONTINUOUS
 10
0.953929
 20
-3.308098
  0
VERTEX
  8
PLAN_1
  6
CONTINUOUS
 10
0.836024
 20
-3.308098
  0
VERTEX
  8
PLAN_1
  6
CONTINUOUS
 10
0.836024
 20
-3.369236
  0
VERTEX
  8
PLAN_1
  6
CONTINUOUS
 10
0.944760
 20
-3.369236
  0
VERTEX
  8
PLAN_1
  6
CONTINUOUS
 10
0.944760
 20
-3.393252
  0
VERTEX
  8
PLAN_1
  6
CONTINUOUS
 10
0.836024
 20
-3.393252
  0
VERTEX
  8
PLAN_1
  6
CONTINUOUS
 10
0.836024
 20
-3.459630
  0
VERTEX
  8
PLAN_1
  6
CONTINUOUS
 10
0.956110
 20
-3.459630
  0
VERTEX
  8
PLAN_1
  6
CONTINUOUS
 10
0.956110
 20
-3.483646
  0
SEQEND
  8
0
  0
POLYLINE
  8
PLAN_1
  6
CONTINUOUS
 66
     1
 40
0.003000
 41
0.003000
  0
VERTEX
  8
PLAN_1
  6
CONTINUOUS
 10
1.086244
 20
-3.340413
  0
VERTEX
  8
PLAN_1
  6
CONTINUOUS
 10
1.084496
 20
-3.334299
  0
VERTEX
  8
PLAN_1
  6
CONTINUOUS
 10
1.082311
 20
-3.328622
  0
VERTEX
  8
PLAN_1
  6
CONTINUOUS
 10
1.081004
 20
-3.326004
  0
VERTEX
  8
PLAN_1
  6
CONTINUOUS
 10
1.079693
 20
-3.323382
  0
VERTEX
  8
PLAN_1
  6
CONTINUOUS
 10
1.077945
 20
-3.321201
  0
VERTEX
  8
PLAN_1
  6
CONTINUOUS
 10
1.076197
 20
-3.319016
  0
VERTEX
  8
PLAN_1
  6
CONTINUOUS
 10
1.074016
 20
-3.317272
  0
VERTEX
  8
PLAN_1
  6
CONTINUOUS
 10
1.071394
 20
-3.315524
  0
VERTEX
  8
PLAN_1
  6
CONTINUOUS
 10
1.068776
 20
-3.313776
  0
VERTEX
  8
PLAN_1
  6
CONTINUOUS
 10
1.066154
 20
-3.312902
  0
VERTEX
  8
PLAN_1
  6
CONTINUOUS
 10
1.063098
 20
-3.311594
  0
VERTEX
  8
PLAN_1
  6
CONTINUOUS
 10
1.060043
 20
-3.311157
  0
VERTEX
  8
PLAN_1
  6
CONTINUOUS
 10
1.056110
 20
-3.310720
  0
VERTEX
  8
PLAN_1
  6
CONTINUOUS
 10
1.052618
 20
-3.310283
  0
VERTEX
  8
PLAN_1
  6
CONTINUOUS
 10
1.049126
 20
-3.310720
  0
VERTEX
  8
PLAN_1
  6
CONTINUOUS
 10
1.045630
 20
-3.311157
  0
VERTEX
  8
PLAN_1
  6
CONTINUOUS
 10
1.042575
 20
-3.311594
  0
VERTEX
  8
PLAN_1
  6
CONTINUOUS
 10
1.039516
 20
-3.312902
  0
VERTEX
  8
PLAN_1
  6
CONTINUOUS
 10
1.036461
 20
-3.313776
  0
VERTEX
  8
PLAN_1
  6
CONTINUOUS
 10
1.033843
 20
-3.315524
  0
VERTEX
  8
PLAN_1
  6
CONTINUOUS
 10
1.031657
 20
-3.316835
  0
VERTEX
  8
PLAN_1
  6
CONTINUOUS
 10
1.029035
 20
-3.319016
  0
VERTEX
  8
PLAN_1
  6
CONTINUOUS
 10
1.024669
 20
-3.322949
  0
VERTEX
  8
PLAN_1
  6
CONTINUOUS
 10
1.021177
 20
-3.327752
  0
VERTEX
  8
PLAN_1
  6
CONTINUOUS
 10
1.017685
 20
-3.332992
  0
VERTEX
  8
PLAN_1
  6
CONTINUOUS
 10
1.015063
 20
-3.338669
  0
VERTEX
  8
PLAN_1
  6
CONTINUOUS
 10
1.012445
 20
-3.344780
  0
VERTEX
  8
PLAN_1
  6
CONTINUOUS
 10
1.010697
 20
-3.350894
  0
VERTEX
  8
PLAN_1
  6
CONTINUOUS
 10
1.008949
 20
-3.356571
  0
VERTEX
  8
PLAN_1
  6
CONTINUOUS
 10
1.008075
 20
-3.362685
  0
VERTEX
  8
PLAN_1
  6
CONTINUOUS
 10
1.006331
 20
-3.373602
  0
VERTEX
  8
PLAN_1
  6
CONTINUOUS
 10
1.006331
 20
-3.382772
  0
VERTEX
  8
PLAN_1
  6
CONTINUOUS
 10
1.006768
 20
-3.383209
  0
VERTEX
  8
PLAN_1
  6
CONTINUOUS
 10
1.009386
 20
-3.379280
  0
VERTEX
  8
PLAN_1
  6
CONTINUOUS
 10
1.012882
 20
-3.374913
  0
VERTEX
  8
PLAN_1
  6
CONTINUOUS
 10
1.016811
 20
-3.370980
  0
VERTEX
  8
PLAN_1
  6
CONTINUOUS
 10
1.022051
 20
-3.367051
  0
VERTEX
  8
PLAN_1
  6
CONTINUOUS
 10
1.025106
 20
-3.365740
  0
VERTEX
  8
PLAN_1
  6
CONTINUOUS
 10
1.028165
 20
-3.363996
  0
VERTEX
  8
PLAN_1
  6
CONTINUOUS
 10
1.031657
 20
-3.362685
  0
VERTEX
  8
PLAN_1
  6
CONTINUOUS
 10
1.035587
 20
-3.361374
  0
VERTEX
  8
PLAN_1
  6
CONTINUOUS
 10
1.039516
 20
-3.360500
  0
VERTEX
  8
PLAN_1
  6
CONTINUOUS
 10
1.043449
 20
-3.360063
  0
VERTEX
  8
PLAN_1
  6
CONTINUOUS
 10
1.048252
 20
-3.359630
  0
VERTEX
  8
PLAN_1
  6
CONTINUOUS
 10
1.053055
 20
-3.359193
  0
VERTEX
  8
PLAN_1
  6
CONTINUOUS
 10
1.057858
 20
-3.359630
  0
VERTEX
  8
PLAN_1
  6
CONTINUOUS
 10
1.062661
 20
-3.360063
  0
VERTEX
  8
PLAN_1
  6
CONTINUOUS
 10
1.067465
 20
-3.360937
  0
VERTEX
  8
PLAN_1
  6
CONTINUOUS
 10
1.072705
 20
-3.362248
  0
VERTEX
  8
PLAN_1
  6
CONTINUOUS
 10
1.077945
 20
-3.364433
  0
VERTEX
  8
PLAN_1
  6
CONTINUOUS
 10
1.082748
 20
-3.366614
  0
VERTEX
  8
PLAN_1
  6
CONTINUOUS
 10
1.087551
 20
-3.369236
  0
VERTEX
  8
PLAN_1
  6
CONTINUOUS
 10
1.092354
 20
-3.372728
  0
VERTEX
  8
PLAN_1
  6
CONTINUOUS
 10
1.097157
 20
-3.376657
  0
VERTEX
  8
PLAN_1
  6
CONTINUOUS
 10
1.101091
 20
-3.381024
  0
VERTEX
  8
PLAN_1
  6
CONTINUOUS
 10
1.104583
 20
-3.386264
  0
VERTEX
  8
PLAN_1
  6
CONTINUOUS
 10
1.108075
 20
-3.391941
  0
VERTEX
  8
PLAN_1
  6
CONTINUOUS
 10
1.110697
 20
-3.398055
  0
VERTEX
  8
PLAN_1
  6
CONTINUOUS
 10
1.112445
 20
-3.405043
  0
VERTEX
  8
PLAN_1
  6
CONTINUOUS
 10
1.113752
 20
-3.412902
  0
VERTEX
  8
PLAN_1
  6
CONTINUOUS
 10
1.114189
 20
-3.421201
  0
VERTEX
  8
PLAN_1
  6
CONTINUOUS
 10
1.113752
 20
-3.428622
  0
VERTEX
  8
PLAN_1
  6
CONTINUOUS
 10
1.112878
 20
-3.435173
  0
VERTEX
  8
PLAN_1
  6
CONTINUOUS
 10
1.111571
 20
-3.441724
  0
VERTEX
  8
PLAN_1
  6
CONTINUOUS
 10
1.109823
 20
-3.447839
  0
VERTEX
  8
PLAN_1
  6
CONTINUOUS
 10
1.107205
 20
-3.453516
  0
VERTEX
  8
PLAN_1
  6
CONTINUOUS
 10
1.104146
 20
-3.459193
  0
VERTEX
  8
PLAN_1
  6
CONTINUOUS
 10
1.100217
 20
-3.464433
  0
VERTEX
  8
PLAN_1
  6
CONTINUOUS
 10
1.095413
 20
-3.470110
  0
VERTEX
  8
PLAN_1
  6
CONTINUOUS
 10
1.091484
 20
-3.474039
  0
VERTEX
  8
PLAN_1
  6
CONTINUOUS
 10
1.087114
 20
-3.477969
  0
VERTEX
  8
PLAN_1
  6
CONTINUOUS
 10
1.082748
 20
-3.481024
  0
VERTEX
  8
PLAN_1
  6
CONTINUOUS
 10
1.077071
 20
-3.483646
  0
VERTEX
  8
PLAN_1
  6
CONTINUOUS
 10
1.070957
 20
-3.485831
  0
VERTEX
  8
PLAN_1
  6
CONTINUOUS
 10
1.063972
 20
-3.487575
  0
VERTEX
  8
PLAN_1
  6
CONTINUOUS
 10
1.055673
 20
-3.488449
  0
VERTEX
  8
PLAN_1
  6
CONTINUOUS
 10
1.046067
 20
-3.488886
  0
VERTEX
  8
PLAN_1
  6
CONTINUOUS
 10
1.040390
 20
-3.488449
  0
VERTEX
  8
PLAN_1
  6
CONTINUOUS
 10
1.033843
 20
-3.487575
  0
VERTEX
  8
PLAN_1
  6
CONTINUOUS
 10
1.027291
 20
-3.485831
  0
VERTEX
  8
PLAN_1
  6
CONTINUOUS
 10
1.020740
 20
-3.482772
  0
VERTEX
  8
PLAN_1
  6
CONTINUOUS
 10
1.017248
 20
-3.481024
  0
VERTEX
  8
PLAN_1
  6
CONTINUOUS
 10
1.013752
 20
-3.478843
  0
VERTEX
  8
PLAN_1
  6
CONTINUOUS
 10
1.010697
 20
-3.476657
  0
VERTEX
  8
PLAN_1
  6
CONTINUOUS
 10
1.007642
 20
-3.474039
  0
VERTEX
  8
PLAN_1
  6
CONTINUOUS
 10
1.004146
 20
-3.471417
  0
VERTEX
  8
PLAN_1
  6
CONTINUOUS
 10
1.001528
 20
-3.467925
  0
VERTEX
  8
PLAN_1
  6
CONTINUOUS
 10
0.998469
 20
-3.464433
  0
VERTEX
  8
PLAN_1
  6
CONTINUOUS
 10
0.995850
 20
-3.460500
  0
VERTEX
  8
PLAN_1
  6
CONTINUOUS
 10
0.991921
 20
-3.453516
  0
VERTEX
  8
PLAN_1
  6
CONTINUOUS
 10
0.988425
 20
-3.445654
  0
VERTEX
  8
PLAN_1
  6
CONTINUOUS
 10
0.985807
 20
-3.437795
  0
VERTEX
  8
PLAN_1
  6
CONTINUOUS
 10
0.984059
 20
-3.429496
  0
VERTEX
  8
PLAN_1
  6
CONTINUOUS
 10
0.982748
 20
-3.420764
  0
VERTEX
  8
PLAN_1
  6
CONTINUOUS
 10
0.981441
 20
-3.411594
  0
VERTEX
  8
PLAN_1
  6
CONTINUOUS
 10
0.981004
 20
-3.402421
  0
VERTEX
  8
PLAN_1
  6
CONTINUOUS
 10
0.981004
 20
-3.392815
  0
VERTEX
  8
PLAN_1
  6
CONTINUOUS
 10
0.981004
 20
-3.384520
  0
VERTEX
  8
PLAN_1
  6
CONTINUOUS
 10
0.981441
 20
-3.376220
  0
VERTEX
  8
PLAN_1
  6
CONTINUOUS
 10
0.982748
 20
-3.367488
  0
VERTEX
  8
PLAN_1
  6
CONTINUOUS
 10
0.984059
 20
-3.358756
  0
VERTEX
  8
PLAN_1
  6
CONTINUOUS
 10
0.985807
 20
-3.349583
  0
VERTEX
  8
PLAN_1
  6
CONTINUOUS
 10
0.988425
 20
-3.341287
  0
VERTEX
  8
PLAN_1
  6
CONTINUOUS
 10
0.991484
 20
-3.332555
  0
VERTEX
  8
PLAN_1
  6
CONTINUOUS
 10
0.994976
 20
-3.324693
  0
VERTEX
  8
PLAN_1
  6
CONTINUOUS
 10
0.997161
 20
-3.320764
  0
VERTEX
  8
PLAN_1
  6
CONTINUOUS
 10
0.999343
 20
-3.317272
  0
VERTEX
  8
PLAN_1
  6
CONTINUOUS
 10
1.001965
 20
-3.313776
  0
VERTEX
  8
PLAN_1
  6
CONTINUOUS
 10
1.004583
 20
-3.310283
  0
VERTEX
  8
PLAN_1
  6
CONTINUOUS
 10
1.007205
 20
-3.307228
  0
VERTEX
  8
PLAN_1
  6
CONTINUOUS
 10
1.010260
 20
-3.304169
  0
VERTEX
  8
PLAN_1
  6
CONTINUOUS
 10
1.013752
 20
-3.301551
  0
VERTEX
  8
PLAN_1
  6
CONTINUOUS
 10
1.017248
 20
-3.298929
  0
VERTEX
  8
PLAN_1
  6
CONTINUOUS
 10
1.020740
 20
-3.296748
  0
VERTEX
  8
PLAN_1
  6
CONTINUOUS
 10
1.024669
 20
-3.294563
  0
VERTEX
  8
PLAN_1
  6
CONTINUOUS
 10
1.029035
 20
-3.292815
  0
VERTEX
  8
PLAN_1
  6
CONTINUOUS
 10
1.033406
 20
-3.291071
  0
VERTEX
  8
PLAN_1
  6
CONTINUOUS
 10
1.037772
 20
-3.290197
  0
VERTEX
  8
PLAN_1
  6
CONTINUOUS
 10
1.042575
 20
-3.289323
  0
VERTEX
  8
PLAN_1
  6
CONTINUOUS
 10
1.047815
 20
-3.288886
  0
VERTEX
  8
PLAN_1
  6
CONTINUOUS
 10
1.053055
 20
-3.288449
  0
VERTEX
  8
PLAN_1
  6
CONTINUOUS
 10
1.057421
 20
-3.288886
  0
VERTEX
  8
PLAN_1
  6
CONTINUOUS
 10
1.061787
 20
-3.289323
  0
VERTEX
  8
PLAN_1
  6
CONTINUOUS
 10
1.066591
 20
-3.289760
  0
VERTEX
  8
PLAN_1
  6
CONTINUOUS
 10
1.070957
 20
-3.291071
  0
VERTEX
  8
PLAN_1
  6
CONTINUOUS
 10
1.075764
 20
-3.292378
  0
VERTEX
  8
PLAN_1
  6
CONTINUOUS
 10
1.080130
 20
-3.294563
  0
VERTEX
  8
PLAN_1
  6
CONTINUOUS
 10
1.084496
 20
-3.296748
  0
VERTEX
  8
PLAN_1
  6
CONTINUOUS
 10
1.088862
 20
-3.299803
  0
VERTEX
  8
PLAN_1
  6
CONTINUOUS
 10
1.092791
 20
-3.302858
  0
VERTEX
  8
PLAN_1
  6
CONTINUOUS
 10
1.096724
 20
-3.306354
  0
VERTEX
  8
PLAN_1
  6
CONTINUOUS
 10
1.100217
 20
-3.310720
  0
VERTEX
  8
PLAN_1
  6
CONTINUOUS
 10
1.103272
 20
-3.315524
  0
VERTEX
  8
PLAN_1
  6
CONTINUOUS
 10
1.105457
 20
-3.320764
  0
VERTEX
  8
PLAN_1
  6
CONTINUOUS
 10
1.107638
 20
-3.326878
  0
VERTEX
  8
PLAN_1
  6
CONTINUOUS
 10
1.108949
 20
-3.333429
  0
VERTEX
  8
PLAN_1
  6
CONTINUOUS
 10
1.109823
 20
-3.340413
  0
VERTEX
  8
PLAN_1
  6
CONTINUOUS
 10
1.086244
 20
-3.340413
  0
SEQEND
  8
0
  0
POLYLINE
  8
PLAN_1
  6
CONTINUOUS
 66
     1
 40
0.003000
 41
0.003000
  0
VERTEX
  8
PLAN_1
  6
CONTINUOUS
 10
1.050433
 20
-3.467051
  0
VERTEX
  8
PLAN_1
  6
CONTINUOUS
 10
1.054803
 20
-3.466614
  0
VERTEX
  8
PLAN_1
  6
CONTINUOUS
 10
1.058732
 20
-3.466177
  0
VERTEX
  8
PLAN_1
  6
CONTINUOUS
 10
1.062661
 20
-3.465303
  0
VERTEX
  8
PLAN_1
  6
CONTINUOUS
 10
1.066154
 20
-3.463559
  0
VERTEX
  8
PLAN_1
  6
CONTINUOUS
 10
1.069650
 20
-3.461811
  0
VERTEX
  8
PLAN_1
  6
CONTINUOUS
 10
1.072705
 20
-3.459630
  0
VERTEX
  8
PLAN_1
  6
CONTINUOUS
 10
1.075764
 20
-3.457445
  0
VERTEX
  8
PLAN_1
  6
CONTINUOUS
 10
1.078382
 20
-3.454390
  0
VERTEX
  8
PLAN_1
  6
CONTINUOUS
 10
1.080567
 20
-3.451331
  0
VERTEX
  8
PLAN_1
  6
CONTINUOUS
 10
1.082748
 20
-3.447839
  0
VERTEX
  8
PLAN_1
  6
CONTINUOUS
 10
1.084496
 20
-3.444343
  0
VERTEX
  8
PLAN_1
  6
CONTINUOUS
 10
1.086244
 20
-3.440413
  0
VERTEX
  8
PLAN_1
  6
CONTINUOUS
 10
1.087114
 20
-3.436047
  0
VERTEX
  8
PLAN_1
  6
CONTINUOUS
 10
1.087988
 20
-3.431681
  0
VERTEX
  8
PLAN_1
  6
CONTINUOUS
 10
1.088862
 20
-3.427315
  0
VERTEX
  8
PLAN_1
  6
CONTINUOUS
 10
1.088862
 20
-3.422075
  0
VERTEX
  8
PLAN_1
  6
CONTINUOUS
 10
1.088862
 20
-3.419016
  0
VERTEX
  8
PLAN_1
  6
CONTINUOUS
 10
1.088425
 20
-3.415524
  0
VERTEX
  8
PLAN_1
  6
CONTINUOUS
 10
1.087551
 20
-3.412031
  0
VERTEX
  8
PLAN_1
  6
CONTINUOUS
 10
1.087114
 20
-3.408535
  0
VERTEX
  8
PLAN_1
  6
CONTINUOUS
 10
1.085807
 20
-3.405043
  0
VERTEX
  8
PLAN_1
  6
CONTINUOUS
 10
1.084496
 20
-3.401551
  0
VERTEX
  8
PLAN_1
  6
CONTINUOUS
 10
1.082748
 20
-3.398492
  0
VERTEX
  8
PLAN_1
  6
CONTINUOUS
 10
1.080567
 20
-3.395437
  0
VERTEX
  8
PLAN_1
  6
CONTINUOUS
 10
1.077945
 20
-3.392378
  0
VERTEX
  8
PLAN_1
  6
CONTINUOUS
 10
1.075327
 20
-3.389760
  0
VERTEX
  8
PLAN_1
  6
CONTINUOUS
 10
1.071831
 20
-3.387138
  0
VERTEX
  8
PLAN_1
  6
CONTINUOUS
 10
1.068339
 20
-3.385394
  0
VERTEX
  8
PLAN_1
  6
CONTINUOUS
 10
1.064409
 20
-3.383646
  0
VERTEX
  8
PLAN_1
  6
CONTINUOUS
 10
1.059606
 20
-3.382335
  0
VERTEX
  8
PLAN_1
  6
CONTINUOUS
 10
1.054803
 20
-3.381461
  0
VERTEX
  8
PLAN_1
  6
CONTINUOUS
 10
1.049563
 20
-3.381024
  0
VERTEX
  8
PLAN_1
  6
CONTINUOUS
 10
1.044323
 20
-3.381461
  0
VERTEX
  8
PLAN_1
  6
CONTINUOUS
 10
1.039953
 20
-3.381898
  0
VERTEX
  8
PLAN_1
  6
CONTINUOUS
 10
1.035587
 20
-3.383209
  0
VERTEX
  8
PLAN_1
  6
CONTINUOUS
 10
1.031657
 20
-3.384520
  0
VERTEX
  8
PLAN_1
  6
CONTINUOUS
 10
1.028165
 20
-3.386264
  0
VERTEX
  8
PLAN_1
  6
CONTINUOUS
 10
1.025106
 20
-3.388449
  0
VERTEX
  8
PLAN_1
  6
CONTINUOUS
 10
1.022051
 20
-3.391071
  0
VERTEX
  8
PLAN_1
  6
CONTINUOUS
 10
1.019429
 20
-3.393689
  0
VERTEX
  8
PLAN_1
  6
CONTINUOUS
 10
1.016811
 20
-3.396744
  0
VERTEX
  8
PLAN_1
  6
CONTINUOUS
 10
1.015063
 20
-3.400240
  0
VERTEX
  8
PLAN_1
  6
CONTINUOUS
 10
1.013315
 20
-3.403732
  0
VERTEX
  8
PLAN_1
  6
CONTINUOUS
 10
1.012008
 20
-3.407224
  0
VERTEX
  8
PLAN_1
  6
CONTINUOUS
 10
1.010697
 20
-3.411157
  0
VERTEX
  8
PLAN_1
  6
CONTINUOUS
 10
1.010260
 20
-3.415087
  0
VERTEX
  8
PLAN_1
  6
CONTINUOUS
 10
1.009823
 20
-3.419453
  0
VERTEX
  8
PLAN_1
  6
CONTINUOUS
 10
1.009386
 20
-3.423819
  0
VERTEX
  8
PLAN_1
  6
CONTINUOUS
 10
1.009386
 20
-3.427752
  0
VERTEX
  8
PLAN_1
  6
CONTINUOUS
 10
1.010260
 20
-3.431681
  0
VERTEX
  8
PLAN_1
  6
CONTINUOUS
 10
1.010697
 20
-3.435610
  0
VERTEX
  8
PLAN_1
  6
CONTINUOUS
 10
1.012008
 20
-3.439102
  0
VERTEX
  8
PLAN_1
  6
CONTINUOUS
 10
1.013315
 20
-3.443035
  0
VERTEX
  8
PLAN_1
  6
CONTINUOUS
 10
1.015063
 20
-3.446528
  0
VERTEX
  8
PLAN_1
  6
CONTINUOUS
 10
1.016811
 20
-3.450020
  0
VERTEX
  8
PLAN_1
  6
CONTINUOUS
 10
1.019429
 20
-3.453079
  0
VERTEX
  8
PLAN_1
  6
CONTINUOUS
 10
1.022051
 20
-3.456134
  0
VERTEX
  8
PLAN_1
  6
CONTINUOUS
 10
1.025106
 20
-3.458756
  0
VERTEX
  8
PLAN_1
  6
CONTINUOUS
 10
1.028165
 20
-3.460937
  0
VERTEX
  8
PLAN_1
  6
CONTINUOUS
 10
1.032094
 20
-3.463122
  0
VERTEX
  8
PLAN_1
  6
CONTINUOUS
 10
1.036024
 20
-3.464870
  0
VERTEX
  8
PLAN_1
  6
CONTINUOUS
 10
1.040390
 20
-3.465740
  0
VERTEX
  8
PLAN_1
  6
CONTINUOUS
 10
1.045193
 20
-3.466614
  0
VERTEX
  8
PLAN_1
  6
CONTINUOUS
 10
1.050433
 20
-3.467051
  0
SEQEND
  8
0
  0
POLYLINE
  8
PLAN_1
  6
CONTINUOUS
 66
     1
 40
0.003000
 41
0.003000
  0
VERTEX
  8
PLAN_1
  6
CONTINUOUS
 10
1.136898
 20
-3.358319
  0
VERTEX
  8
PLAN_1
  6
CONTINUOUS
 10
1.136898
 20
-3.352642
  0
VERTEX
  8
PLAN_1
  6
CONTINUOUS
 10
1.137335
 20
-3.347402
  0
VERTEX
  8
PLAN_1
  6
CONTINUOUS
 10
1.138209
 20
-3.342161
  0
VERTEX
  8
PLAN_1
  6
CONTINUOUS
 10
1.139079
 20
-3.337358
  0
VERTEX
  8
PLAN_1
  6
CONTINUOUS
 10
1.139953
 20
-3.332555
  0
VERTEX
  8
PLAN_1
  6
CONTINUOUS
 10
1.141264
 20
-3.328622
  0
VERTEX
  8
PLAN_1
  6
CONTINUOUS
 10
1.142575
 20
-3.324256
  0
VERTEX
  8
PLAN_1
  6
CONTINUOUS
 10
1.144319
 20
-3.320764
  0
VERTEX
  8
PLAN_1
  6
CONTINUOUS
 10
1.146504
 20
-3.317272
  0
VERTEX
  8
PLAN_1
  6
CONTINUOUS
 10
1.148252
 20
-3.314213
  0
VERTEX
  8
PLAN_1
  6
CONTINUOUS
 10
1.150433
 20
-3.311157
  0
VERTEX
  8
PLAN_1
  6
CONTINUOUS
 10
1.152618
 20
-3.308535
  0
VERTEX
  8
PLAN_1
  6
CONTINUOUS
 10
1.157421
 20
-3.303732
  0
VERTEX
  8
PLAN_1
  6
CONTINUOUS
 10
1.162661
 20
-3.299803
  0
VERTEX
  8
PLAN_1
  6
CONTINUOUS
 10
1.168339
 20
-3.296311
  0
VERTEX
  8
PLAN_1
  6
CONTINUOUS
 10
1.173579
 20
-3.293689
  0
VERTEX
  8
PLAN_1
  6
CONTINUOUS
 10
1.179256
 20
-3.291941
  0
VERTEX
  8
PLAN_1
  6
CONTINUOUS
 10
1.184933
 20
-3.290634
  0
VERTEX
  8
PLAN_1
  6
CONTINUOUS
 10
1.190173
 20
-3.289760
  0
VERTEX
  8
PLAN_1
  6
CONTINUOUS
 10
1.195413
 20
-3.288886
  0
VERTEX
  8
PLAN_1
  6
CONTINUOUS
 10
1.200217
 20
-3.288449
  0
VERTEX
  8
PLAN_1
  6
CONTINUOUS
 10
1.204146
 20
-3.288449
  0
VERTEX
  8
PLAN_1
  6
CONTINUOUS
 10
1.210697
 20
-3.288886
  0
VERTEX
  8
PLAN_1
  6
CONTINUOUS
 10
1.216811
 20
-3.289760
  0
VERTEX
  8
PLAN_1
  6
CONTINUOUS
 10
1.222488
 20
-3.290634
  0
VERTEX
  8
PLAN_1
  6
CONTINUOUS
 10
1.228165
 20
-3.292378
  0
VERTEX
  8
PLAN_1
  6
CONTINUOUS
 10
1.233406
 20
-3.294563
  0
VERTEX
  8
PLAN_1
  6
CONTINUOUS
 10
1.238646
 20
-3.297181
  0
VERTEX
  8
PLAN_1
  6
CONTINUOUS
 10
1.243012
 20
-3.300677
  0
VERTEX
  8
PLAN_1
  6
CONTINUOUS
 10
1.247378
 20
-3.304169
  0
VERTEX
  8
PLAN_1
  6
CONTINUOUS
 10
1.251307
 20
-3.308098
  0
VERTEX
  8
PLAN_1
  6
CONTINUOUS
 10
1.254799
 20
-3.312469
  0
VERTEX
  8
PLAN_1
  6
CONTINUOUS
 10
1.257858
 20
-3.317272
  0
VERTEX
  8
PLAN_1
  6
CONTINUOUS
 10
1.260476
 20
-3.322512
  0
VERTEX
  8
PLAN_1
  6
CONTINUOUS
 10
1.262661
 20
-3.327752
  0
VERTEX
  8
PLAN_1
  6
CONTINUOUS
 10
1.263972
 20
-3.333862
  0
VERTEX
  8
PLAN_1
  6
CONTINUOUS
 10
1.265280
 20
-3.339976
  0
VERTEX
  8
PLAN_1
  6
CONTINUOUS
 10
1.265280
 20
-3.346965
  0
VERTEX
  8
PLAN_1
  6
CONTINUOUS
 10
1.265280
 20
-3.353079
  0
VERTEX
  8
PLAN_1
  6
CONTINUOUS
 10
1.264409
 20
-3.359193
  0
VERTEX
  8
PLAN_1
  6
CONTINUOUS
 10
1.263098
 20
-3.364433
  0
VERTEX
  8
PLAN_1
  6
CONTINUOUS
 10
1.261350
 20
-3.369673
  0
VERTEX
  8
PLAN_1
  6
CONTINUOUS
 10
1.259169
 20
-3.374476
  0
VERTEX
  8
PLAN_1
  6
CONTINUOUS
 10
1.256547
 20
-3.378843
  0
VERTEX
  8
PLAN_1
  6
CONTINUOUS
 10
1.253492
 20
-3.382772
  0
VERTEX
  8
PLAN_1
  6
CONTINUOUS
 10
1.250433
 20
-3.386701
  0
VERTEX
  8
PLAN_1
  6
CONTINUOUS
 10
1.246504
 20
-3.390197
  0
VERTEX
  8
PLAN_1
  6
CONTINUOUS
 10
1.242575
 20
-3.393689
  0
VERTEX
  8
PLAN_1
  6
CONTINUOUS
 10
1.238209
 20
-3.397181
  0
VERTEX
  8
PLAN_1
  6
CONTINUOUS
 10
1.233839
 20
-3.400240
  0
VERTEX
  8
PLAN_1
  6
CONTINUOUS
 10
1.223795
 20
-3.406354
  0
VERTEX
  8
PLAN_1
  6
CONTINUOUS
 10
1.213315
 20
-3.412031
  0
VERTEX
  8
PLAN_1
  6
CONTINUOUS
 10
1.192791
 20
-3.422945
  0
VERTEX
  8
PLAN_1
  6
CONTINUOUS
 10
1.187988
 20
-3.426004
  0
VERTEX
  8
PLAN_1
  6
CONTINUOUS
 10
1.184059
 20
-3.428622
  0
VERTEX
  8
PLAN_1
  6
CONTINUOUS
 10
1.180130
 20
-3.431244
  0
VERTEX
  8
PLAN_1
  6
CONTINUOUS
 10
1.176634
 20
-3.434299
  0
VERTEX
  8
PLAN_1
  6
CONTINUOUS
 10
1.170957
 20
-3.439539
  0
VERTEX
  8
PLAN_1
  6
CONTINUOUS
 10
1.166591
 20
-3.444343
  0
VERTEX
  8
PLAN_1
  6
CONTINUOUS
 10
1.163535
 20
-3.449150
  0
VERTEX
  8
PLAN_1
  6
CONTINUOUS
 10
1.161350
 20
-3.453516
  0
VERTEX
  8
PLAN_1
  6
CONTINUOUS
 10
1.160043
 20
-3.457445
  0
VERTEX
  8
PLAN_1
  6
CONTINUOUS
 10
1.159169
 20
-3.460500
  0
VERTEX
  8
PLAN_1
  6
CONTINUOUS
 10
1.265280
 20
-3.460500
  0
VERTEX
  8
PLAN_1
  6
CONTINUOUS
 10
1.265280
 20
-3.483646
  0
VERTEX
  8
PLAN_1
  6
CONTINUOUS
 10
1.132094
 20
-3.483646
  0
VERTEX
  8
PLAN_1
  6
CONTINUOUS
 10
1.132531
 20
-3.476220
  0
VERTEX
  8
PLAN_1
  6
CONTINUOUS
 10
1.133406
 20
-3.469236
  0
VERTEX
  8
PLAN_1
  6
CONTINUOUS
 10
1.134276
 20
-3.462685
  0
VERTEX
  8
PLAN_1
  6
CONTINUOUS
 10
1.136024
 20
-3.456571
  0
VERTEX
  8
PLAN_1
  6
CONTINUOUS
 10
1.137772
 20
-3.450894
  0
VERTEX
  8
PLAN_1
  6
CONTINUOUS
 10
1.139953
 20
-3.445217
  0
VERTEX
  8
PLAN_1
  6
CONTINUOUS
 10
1.142575
 20
-3.440413
  0
VERTEX
  8
PLAN_1
  6
CONTINUOUS
 10
1.145630
 20
-3.435610
  0
VERTEX
  8
PLAN_1
  6
CONTINUOUS
 10
1.148689
 20
-3.430807
  0
VERTEX
  8
PLAN_1
  6
CONTINUOUS
 10
1.152181
 20
-3.426878
  0
VERTEX
  8
PLAN_1
  6
CONTINUOUS
 10
1.155673
 20
-3.422945
  0
VERTEX
  8
PLAN_1
  6
CONTINUOUS
 10
1.159606
 20
-3.419016
  0
VERTEX
  8
PLAN_1
  6
CONTINUOUS
 10
1.163972
 20
-3.415524
  0
VERTEX
  8
PLAN_1
  6
CONTINUOUS
 10
1.168339
 20
-3.412031
  0
VERTEX
  8
PLAN_1
  6
CONTINUOUS
 10
1.172705
 20
-3.408972
  0
VERTEX
  8
PLAN_1
  6
CONTINUOUS
 10
1.177508
 20
-3.406354
  0
VERTEX
  8
PLAN_1
  6
CONTINUOUS
 10
1.203709
 20
-3.391071
  0
VERTEX
  8
PLAN_1
  6
CONTINUOUS
 10
1.211134
 20
-3.386701
  0
VERTEX
  8
PLAN_1
  6
CONTINUOUS
 10
1.217685
 20
-3.382772
  0
VERTEX
  8
PLAN_1
  6
CONTINUOUS
 10
1.223795
 20
-3.378406
  0
VERTEX
  8
PLAN_1
  6
CONTINUOUS
 10
1.229035
 20
-3.373602
  0
VERTEX
  8
PLAN_1
  6
CONTINUOUS
 10
1.231657
 20
-3.370980
  0
VERTEX
  8
PLAN_1
  6
CONTINUOUS
 10
1.233406
 20
-3.368362
  0
VERTEX
  8
PLAN_1
  6
CONTINUOUS
 10
1.235150
 20
-3.365303
  0
VERTEX
  8
PLAN_1
  6
CONTINUOUS
 10
1.236461
 20
-3.361811
  0
VERTEX
  8
PLAN_1
  6
CONTINUOUS
 10
1.237772
 20
-3.358319
  0
VERTEX
  8
PLAN_1
  6
CONTINUOUS
 10
1.238646
 20
-3.354390
  0
VERTEX
  8
PLAN_1
  6
CONTINUOUS
 10
1.239079
 20
-3.350457
  0
VERTEX
  8
PLAN_1
  6
CONTINUOUS
 10
1.239516
 20
-3.345654
  0
VERTEX
  8
PLAN_1
  6
CONTINUOUS
 10
1.239079
 20
-3.342598
  0
VERTEX
  8
PLAN_1
  6
CONTINUOUS
 10
1.238646
 20
-3.339539
  0
VERTEX
  8
PLAN_1
  6
CONTINUOUS
 10
1.238209
 20
-3.336484
  0
VERTEX
  8
PLAN_1
  6
CONTINUOUS
 10
1.237335
 20
-3.333429
  0
VERTEX
  8
PLAN_1
  6
CONTINUOUS
 10
1.236024
 20
-3.330807
  0
VERTEX
  8
PLAN_1
  6
CONTINUOUS
 10
1.234713
 20
-3.327752
  0
VERTEX
  8
PLAN_1
  6
CONTINUOUS
 10
1.232969
 20
-3.325130
  0
VERTEX
  8
PLAN_1
  6
CONTINUOUS
 10
1.230783
 20
-3.322075
  0
VERTEX
  8
PLAN_1
  6
CONTINUOUS
 10
1.228165
 20
-3.319890
  0
VERTEX
  8
PLAN_1
  6
CONTINUOUS
 10
1.225543
 20
-3.317709
  0
VERTEX
  8
PLAN_1
  6
CONTINUOUS
 10
1.222488
 20
-3.315524
  0
VERTEX
  8
PLAN_1
  6
CONTINUOUS
 10
1.218992
 20
-3.313776
  0
VERTEX
  8
PLAN_1
  6
CONTINUOUS
 10
1.215063
 20
-3.312469
  0
VERTEX
  8
PLAN_1
  6
CONTINUOUS
 10
1.210697
 20
-3.311157
  0
VERTEX
  8
PLAN_1
  6
CONTINUOUS
 10
1.205894
 20
-3.310720
  0
VERTEX
  8
PLAN_1
  6
CONTINUOUS
 10
1.200654
 20
-3.310283
  0
VERTEX
  8
PLAN_1
  6
CONTINUOUS
 10
1.194102
 20
-3.310720
  0
VERTEX
  8
PLAN_1
  6
CONTINUOUS
 10
1.188425
 20
-3.312031
  0
VERTEX
  8
PLAN_1
  6
CONTINUOUS
 10
1.183622
 20
-3.313776
  0
VERTEX
  8
PLAN_1
  6
CONTINUOUS
 10
1.179256
 20
-3.315961
  0
VERTEX
  8
PLAN_1
  6
CONTINUOUS
 10
1.175327
 20
-3.319016
  0
VERTEX
  8
PLAN_1
  6
CONTINUOUS
 10
1.172268
 20
-3.322075
  0
VERTEX
  8
PLAN_1
  6
CONTINUOUS
 10
1.169650
 20
-3.325567
  0
VERTEX
  8
PLAN_1
  6
CONTINUOUS
 10
1.167465
 20
-3.329496
  0
VERTEX
  8
PLAN_1
  6
CONTINUOUS
 10
1.165717
 20
-3.333429
  0
VERTEX
  8
PLAN_1
  6
CONTINUOUS
 10
1.164409
 20
-3.337358
  0
VERTEX
  8
PLAN_1
  6
CONTINUOUS
 10
1.163535
 20
-3.341287
  0
VERTEX
  8
PLAN_1
  6
CONTINUOUS
 10
1.162661
 20
-3.345217
  0
VERTEX
  8
PLAN_1
  6
CONTINUOUS
 10
1.161787
 20
-3.352642
  0
VERTEX
  8
PLAN_1
  6
CONTINUOUS
 10
1.161350
 20
-3.358319
  0
VERTEX
  8
PLAN_1
  6
CONTINUOUS
 10
1.136898
 20
-3.358319
  0
SEQEND
  8
0
  0
POLYLINE
  8
PLAN_1
  6
CONTINUOUS
 66
     1
 40
0.003000
 41
0.003000
  0
VERTEX
  8
PLAN_1
  6
CONTINUOUS
 10
1.290610
 20
-3.355260
  0
VERTEX
  8
PLAN_1
  6
CONTINUOUS
 10
1.291047
 20
-3.348713
  0
VERTEX
  8
PLAN_1
  6
CONTINUOUS
 10
1.291917
 20
-3.342161
  0
VERTEX
  8
PLAN_1
  6
CONTINUOUS
 10
1.292791
 20
-3.336047
  0
VERTEX
  8
PLAN_1
  6
CONTINUOUS
 10
1.294539
 20
-3.329933
  0
VERTEX
  8
PLAN_1
  6
CONTINUOUS
 10
1.297157
 20
-3.324256
  0
VERTEX
  8
PLAN_1
  6
CONTINUOUS
 10
1.299780
 20
-3.318579
  0
VERTEX
  8
PLAN_1
  6
CONTINUOUS
 10
1.302835
 20
-3.313339
  0
VERTEX
  8
PLAN_1
  6
CONTINUOUS
 10
1.306768
 20
-3.308535
  0
VERTEX
  8
PLAN_1
  6
CONTINUOUS
 10
1.310697
 20
-3.304169
  0
VERTEX
  8
PLAN_1
  6
CONTINUOUS
 10
1.315500
 20
-3.300240
  0
VERTEX
  8
PLAN_1
  6
CONTINUOUS
 10
1.320740
 20
-3.296748
  0
VERTEX
  8
PLAN_1
  6
CONTINUOUS
 10
1.326417
 20
-3.294126
  0
VERTEX
  8
PLAN_1
  6
CONTINUOUS
 10
1.332531
 20
-3.291508
  0
VERTEX
  8
PLAN_1
  6
CONTINUOUS
 10
1.339079
 20
-3.289760
  0
VERTEX
  8
PLAN_1
  6
CONTINUOUS
 10
1.346067
 20
-3.288886
  0
VERTEX
  8
PLAN_1
  6
CONTINUOUS
 10
1.353492
 20
-3.288449
  0
VERTEX
  8
PLAN_1
  6
CONTINUOUS
 10
1.359169
 20
-3.288886
  0
VERTEX
  8
PLAN_1
  6
CONTINUOUS
 10
1.364409
 20
-3.289323
  0
VERTEX
  8
PLAN_1
  6
CONTINUOUS
 10
1.369650
 20
-3.290197
  0
VERTEX
  8
PLAN_1
  6
CONTINUOUS
 10
1.374016
 20
-3.291071
  0
VERTEX
  8
PLAN_1
  6
CONTINUOUS
 10
1.378819
 20
-3.292378
  0
VERTEX
  8
PLAN_1
  6
CONTINUOUS
 10
1.382748
 20
-3.294126
  0
VERTEX
  8
PLAN_1
  6
CONTINUOUS
 10
1.386677
 20
-3.295874
  0
VERTEX
  8
PLAN_1
  6
CONTINUOUS
 10
1.390173
 20
-3.298055
  0
VERTEX
  8
PLAN_1
  6
CONTINUOUS
 10
1.393665
 20
-3.300677
  0
VERTEX
  8
PLAN_1
  6
CONTINUOUS
 10
1.396720
 20
-3.303295
  0
VERTEX
  8
PLAN_1
  6
CONTINUOUS
 10
1.399780
 20
-3.305917
  0
VERTEX
  8
PLAN_1
  6
CONTINUOUS
 10
1.402398
 20
-3.308972
  0
VERTEX
  8
PLAN_1
  6
CONTINUOUS
 10
1.404583
 20
-3.312031
  0
VERTEX
  8
PLAN_1
  6
CONTINUOUS
 10
1.407201
 20
-3.315087
  0
VERTEX
  8
PLAN_1
  6
CONTINUOUS
 10
1.408949
 20
-3.318579
  0
VERTEX
  8
PLAN_1
  6
CONTINUOUS
 10
1.410697
 20
-3.322075
  0
VERTEX
  8
PLAN_1
  6
CONTINUOUS
 10
1.414189
 20
-3.329059
  0
VERTEX
  8
PLAN_1
  6
CONTINUOUS
 10
1.416374
 20
-3.336484
  0
VERTEX
  8
PLAN_1
  6
CONTINUOUS
 10
1.418555
 20
-3.343909
  0
VERTEX
  8
PLAN_1
  6
CONTINUOUS
 10
1.419866
 20
-3.351331
  0
VERTEX
  8
PLAN_1
  6
CONTINUOUS
 10
1.420740
 20
-3.358756
  0
VERTEX
  8
PLAN_1
  6
CONTINUOUS
 10
1.421177
 20
-3.366177
  0
VERTEX
  8
PLAN_1
  6
CONTINUOUS
 10
1.421614
 20
-3.372728
  0
VERTEX
  8
PLAN_1
  6
CONTINUOUS
 10
1.421614
 20
-3.378843
  0
VERTEX
  8
PLAN_1
  6
CONTINUOUS
 10
1.421614
 20
-3.389760
  0
VERTEX
  8
PLAN_1
  6
CONTINUOUS
 10
1.419866
 20
-3.405043
  0
VERTEX
  8
PLAN_1
  6
CONTINUOUS
 10
1.418992
 20
-3.413776
  0
VERTEX
  8
PLAN_1
  6
CONTINUOUS
 10
1.416811
 20
-3.422945
  0
VERTEX
  8
PLAN_1
  6
CONTINUOUS
 10
1.414626
 20
-3.432555
  0
VERTEX
  8
PLAN_1
  6
CONTINUOUS
 10
1.411571
 20
-3.441724
  0
VERTEX
  8
PLAN_1
  6
CONTINUOUS
 10
1.409823
 20
-3.446528
  0
VERTEX
  8
PLAN_1
  6
CONTINUOUS
 10
1.407638
 20
-3.450894
  0
VERTEX
  8
PLAN_1
  6
CONTINUOUS
 10
1.405457
 20
-3.455260
  0
VERTEX
  8
PLAN_1
  6
CONTINUOUS
 10
1.402835
 20
-3.459630
  0
VERTEX
  8
PLAN_1
  6
CONTINUOUS
 10
1.400217
 20
-3.463559
  0
VERTEX
  8
PLAN_1
  6
CONTINUOUS
 10
1.397157
 20
-3.467488
  0
VERTEX
  8
PLAN_1
  6
CONTINUOUS
 10
1.393665
 20
-3.471417
  0
VERTEX
  8
PLAN_1
  6
CONTINUOUS
 10
1.390173
 20
-3.474476
  0
VERTEX
  8
PLAN_1
  6
CONTINUOUS
 10
1.386677
 20
-3.477969
  0
VERTEX
  8
PLAN_1
  6
CONTINUOUS
 10
1.382311
 20
-3.480591
  0
VERTEX
  8
PLAN_1
  6
CONTINUOUS
 10
1.377945
 20
-3.482772
  0
VERTEX
  8
PLAN_1
  6
CONTINUOUS
 10
1.373142
 20
-3.484957
  0
VERTEX
  8
PLAN_1
  6
CONTINUOUS
 10
1.368339
 20
-3.486701
  0
VERTEX
  8
PLAN_1
  6
CONTINUOUS
 10
1.362661
 20
-3.488012
  0
VERTEX
  8
PLAN_1
  6
CONTINUOUS
 10
1.356984
 20
-3.488449
  0
VERTEX
  8
PLAN_1
  6
CONTINUOUS
 10
1.350870
 20
-3.488886
  0
VERTEX
  8
PLAN_1
  6
CONTINUOUS
 10
1.342575
 20
-3.488449
  0
VERTEX
  8
PLAN_1
  6
CONTINUOUS
 10
1.335150
 20
-3.487575
  0
VERTEX
  8
PLAN_1
  6
CONTINUOUS
 10
1.328598
 20
-3.485831
  0
VERTEX
  8
PLAN_1
  6
CONTINUOUS
 10
1.322488
 20
-3.483209
  0
VERTEX
  8
PLAN_1
  6
CONTINUOUS
 10
1.317248
 20
-3.480591
  0
VERTEX
  8
PLAN_1
  6
CONTINUOUS
 10
1.312441
 20
-3.477531
  0
VERTEX
  8
PLAN_1
  6
CONTINUOUS
 10
1.308512
 20
-3.473602
  0
VERTEX
  8
PLAN_1
  6
CONTINUOUS
 10
1.304583
 20
-3.469673
  0
VERTEX
  8
PLAN_1
  6
CONTINUOUS
 10
1.301528
 20
-3.465740
  0
VERTEX
  8
PLAN_1
  6
CONTINUOUS
 10
1.299343
 20
-3.461374
  0
VERTEX
  8
PLAN_1
  6
CONTINUOUS
 10
1.297157
 20
-3.457008
  0
VERTEX
  8
PLAN_1
  6
CONTINUOUS
 10
1.295413
 20
-3.452642
  0
VERTEX
  8
PLAN_1
  6
CONTINUOUS
 10
1.294539
 20
-3.448713
  0
VERTEX
  8
PLAN_1
  6
CONTINUOUS
 10
1.293665
 20
-3.444343
  0
VERTEX
  8
PLAN_1
  6
CONTINUOUS
 10
1.293228
 20
-3.440413
  0
VERTEX
  8
PLAN_1
  6
CONTINUOUS
 10
1.292791
 20
-3.436921
  0
VERTEX
  8
PLAN_1
  6
CONTINUOUS
 10
1.317248
 20
-3.436921
  0
VERTEX
  8
PLAN_1
  6
CONTINUOUS
 10
1.317681
 20
-3.440413
  0
VERTEX
  8
PLAN_1
  6
CONTINUOUS
 10
1.318118
 20
-3.443909
  0
VERTEX
  8
PLAN_1
  6
CONTINUOUS
 10
1.318992
 20
-3.446965
  0
VERTEX
  8
PLAN_1
  6
CONTINUOUS
 10
1.320303
 20
-3.450020
  0
VERTEX
  8
PLAN_1
  6
CONTINUOUS
 10
1.321614
 20
-3.452642
  0
VERTEX
  8
PLAN_1
  6
CONTINUOUS
 10
1.322921
 20
-3.455260
  0
VERTEX
  8
PLAN_1
  6
CONTINUOUS
 10
1.325106
 20
-3.457882
  0
VERTEX
  8
PLAN_1
  6
CONTINUOUS
 10
1.326854
 20
-3.460063
  0
VERTEX
  8
PLAN_1
  6
CONTINUOUS
 10
1.329035
 20
-3.461811
  0
VERTEX
  8
PLAN_1
  6
CONTINUOUS
 10
1.331657
 20
-3.463559
  0
VERTEX
  8
PLAN_1
  6
CONTINUOUS
 10
1.334276
 20
-3.465303
  0
VERTEX
  8
PLAN_1
  6
CONTINUOUS
 10
1.336898
 20
-3.466614
  0
VERTEX
  8
PLAN_1
  6
CONTINUOUS
 10
1.339953
 20
-3.467488
  0
VERTEX
  8
PLAN_1
  6
CONTINUOUS
 10
1.343449
 20
-3.467925
  0
VERTEX
  8
PLAN_1
  6
CONTINUOUS
 10
1.346504
 20
-3.468362
  0
VERTEX
  8
PLAN_1
  6
CONTINUOUS
 10
1.350433
 20
-3.468799
  0
VERTEX
  8
PLAN_1
  6
CONTINUOUS
 10
1.355236
 20
-3.468362
  0
VERTEX
  8
PLAN_1
  6
CONTINUOUS
 10
1.359602
 20
-3.467488
  0
VERTEX
  8
PLAN_1
  6
CONTINUOUS
 10
1.363972
 20
-3.466177
  0
VERTEX
  8
PLAN_1
  6
CONTINUOUS
 10
1.367902
 20
-3.464433
  0
VERTEX
  8
PLAN_1
  6
CONTINUOUS
 10
1.371831
 20
-3.461811
  0
VERTEX
  8
PLAN_1
  6
CONTINUOUS
 10
1.375323
 20
-3.458756
  0
VERTEX
  8
PLAN_1
  6
CONTINUOUS
 10
1.378382
 20
-3.455260
  0
VERTEX
  8
PLAN_1
  6
CONTINUOUS
 10
1.381437
 20
-3.450894
  0
VERTEX
  8
PLAN_1
  6
CONTINUOUS
 10
1.384059
 20
-3.446091
  0
VERTEX
  8
PLAN_1
  6
CONTINUOUS
 10
1.386677
 20
-3.440850
  0
VERTEX
  8
PLAN_1
  6
CONTINUOUS
 10
1.388862
 20
-3.434736
  0
VERTEX
  8
PLAN_1
  6
CONTINUOUS
 10
1.391043
 20
-3.428185
  0
VERTEX
  8
PLAN_1
  6
CONTINUOUS
 10
1.392791
 20
-3.421201
  0
VERTEX
  8
PLAN_1
  6
CONTINUOUS
 10
1.394539
 20
-3.413339
  0
VERTEX
  8
PLAN_1
  6
CONTINUOUS
 10
1.395850
 20
-3.404606
  0
VERTEX
  8
PLAN_1
  6
CONTINUOUS
 10
1.397157
 20
-3.395437
  0
VERTEX
  8
PLAN_1
  6
CONTINUOUS
 10
1.396720
 20
-3.395000
  0
VERTEX
  8
PLAN_1
  6
CONTINUOUS
 10
1.395413
 20
-3.397618
  0
VERTEX
  8
PLAN_1
  6
CONTINUOUS
 10
1.393665
 20
-3.400240
  0
VERTEX
  8
PLAN_1
  6
CONTINUOUS
 10
1.391480
 20
-3.402858
  0
VERTEX
  8
PLAN_1
  6
CONTINUOUS
 10
1.389299
 20
-3.405043
  0
VERTEX
  8
PLAN_1
  6
CONTINUOUS
 10
1.386677
 20
-3.407224
  0
VERTEX
  8
PLAN_1
  6
CONTINUOUS
 10
1.384059
 20
-3.408972
  0
VERTEX
  8
PLAN_1
  6
CONTINUOUS
 10
1.381437
 20
-3.410720
  0
VERTEX
  8
PLAN_1
  6
CONTINUOUS
 10
1.378382
 20
-3.412465
  0
VERTEX
  8
PLAN_1
  6
CONTINUOUS
 10
1.372268
 20
-3.415087
  0
VERTEX
  8
PLAN_1
  6
CONTINUOUS
 10
1.365717
 20
-3.416835
  0
VERTEX
  8
PLAN_1
  6
CONTINUOUS
 10
1.358732
 20
-3.418142
  0
VERTEX
  8
PLAN_1
  6
CONTINUOUS
 10
1.352181
 20
-3.418579
  0
VERTEX
  8
PLAN_1
  6
CONTINUOUS
 10
1.345193
 20
-3.418142
  0
VERTEX
  8
PLAN_1
  6
CONTINUOUS
 10
1.339079
 20
-3.417272
  0
VERTEX
  8
PLAN_1
  6
CONTINUOUS
 10
1.332969
 20
-3.415961
  0
VERTEX
  8
PLAN_1
  6
CONTINUOUS
 10
1.327291
 20
-3.414213
  0
VERTEX
  8
PLAN_1
  6
CONTINUOUS
 10
1.321614
 20
-3.411594
  0
VERTEX
  8
PLAN_1
  6
CONTINUOUS
 10
1.316811
 20
-3.408535
  0
VERTEX
  8
PLAN_1
  6
CONTINUOUS
 10
1.312008
 20
-3.405480
  0
VERTEX
  8
PLAN_1
  6
CONTINUOUS
 10
1.307638
 20
-3.401551
  0
VERTEX
  8
PLAN_1
  6
CONTINUOUS
 10
1.304146
 20
-3.397181
  0
VERTEX
  8
PLAN_1
  6
CONTINUOUS
 10
1.300654
 20
-3.392378
  0
VERTEX
  8
PLAN_1
  6
CONTINUOUS
 10
1.297594
 20
-3.387138
  0
VERTEX
  8
PLAN_1
  6
CONTINUOUS
 10
1.295413
 20
-3.381461
  0
VERTEX
  8
PLAN_1
  6
CONTINUOUS
 10
1.293228
 20
-3.375783
  0
VERTEX
  8
PLAN_1
  6
CONTINUOUS
 10
1.291917
 20
-3.369236
  0
VERTEX
  8
PLAN_1
  6
CONTINUOUS
 10
1.291047
 20
-3.362685
  0
VERTEX
  8
PLAN_1
  6
CONTINUOUS
 10
1.290610
 20
-3.355260
  0
SEQEND
  8
0
  0
POLYLINE
  8
PLAN_1
  6
CONTINUOUS
 66
     1
 40
0.003000
 41
0.003000
  0
VERTEX
  8
PLAN_1
  6
CONTINUOUS
 10
1.393228
 20
-3.352205
  0
VERTEX
  8
PLAN_1
  6
CONTINUOUS
 10
1.392791
 20
-3.347839
  0
VERTEX
  8
PLAN_1
  6
CONTINUOUS
 10
1.392354
 20
-3.343909
  0
VERTEX
  8
PLAN_1
  6
CONTINUOUS
 10
1.391917
 20
-3.339976
  0
VERTEX
  8
PLAN_1
  6
CONTINUOUS
 10
1.391043
 20
-3.336047
  0
VERTEX
  8
PLAN_1
  6
CONTINUOUS
 10
1.389736
 20
-3.332555
  0
VERTEX
  8
PLAN_1
  6
CONTINUOUS
 10
1.387988
 20
-3.329059
  0
VERTEX
  8
PLAN_1
  6
CONTINUOUS
 10
1.386240
 20
-3.326004
  0
VERTEX
  8
PLAN_1
  6
CONTINUOUS
 10
1.384059
 20
-3.322949
  0
VERTEX
  8
PLAN_1
  6
CONTINUOUS
 10
1.381437
 20
-3.320327
  0
VERTEX
  8
PLAN_1
  6
CONTINUOUS
 10
1.378382
 20
-3.317709
  0
VERTEX
  8
PLAN_1
  6
CONTINUOUS
 10
1.375323
 20
-3.315524
  0
VERTEX
  8
PLAN_1
  6
CONTINUOUS
 10
1.371831
 20
-3.313776
  0
VERTEX
  8
PLAN_1
  6
CONTINUOUS
 10
1.367902
 20
-3.312469
  0
VERTEX
  8
PLAN_1
  6
CONTINUOUS
 10
1.363535
 20
-3.311157
  0
VERTEX
  8
PLAN_1
  6
CONTINUOUS
 10
1.358732
 20
-3.310720
  0
VERTEX
  8
PLAN_1
  6
CONTINUOUS
 10
1.353492
 20
-3.310283
  0
VERTEX
  8
PLAN_1
  6
CONTINUOUS
 10
1.349559
 20
-3.310720
  0
VERTEX
  8
PLAN_1
  6
CONTINUOUS
 10
1.345630
 20
-3.311157
  0
VERTEX
  8
PLAN_1
  6
CONTINUOUS
 10
1.341701
 20
-3.312469
  0
VERTEX
  8
PLAN_1
  6
CONTINUOUS
 10
1.338209
 20
-3.313776
  0
VERTEX
  8
PLAN_1
  6
CONTINUOUS
 10
1.334713
 20
-3.315524
  0
VERTEX
  8
PLAN_1
  6
CONTINUOUS
 10
1.331657
 20
-3.317272
  0
VERTEX
  8
PLAN_1
  6
CONTINUOUS
 10
1.329035
 20
-3.319890
  0
VERTEX
  8
PLAN_1
  6
CONTINUOUS
 10
1.326417
 20
-3.322512
  0
VERTEX
  8
PLAN_1
  6
CONTINUOUS
 10
1.323795
 20
-3.325567
  0
VERTEX
  8
PLAN_1
  6
CONTINUOUS
 10
1.322051
 20
-3.329059
  0
VERTEX
  8
PLAN_1
  6
CONTINUOUS
 10
1.320303
 20
-3.332555
  0
VERTEX
  8
PLAN_1
  6
CONTINUOUS
 10
1.318555
 20
-3.336484
  0
VERTEX
  8
PLAN_1
  6
CONTINUOUS
 10
1.317681
 20
-3.340413
  0
VERTEX
  8
PLAN_1
  6
CONTINUOUS
 10
1.316811
 20
-3.344780
  0
VERTEX
  8
PLAN_1
  6
CONTINUOUS
 10
1.315937
 20
-3.349583
  0
VERTEX
  8
PLAN_1
  6
CONTINUOUS
 10
1.315937
 20
-3.354390
  0
VERTEX
  8
PLAN_1
  6
CONTINUOUS
 10
1.316374
 20
-3.360937
  0
VERTEX
  8
PLAN_1
  6
CONTINUOUS
 10
1.316811
 20
-3.367051
  0
VERTEX
  8
PLAN_1
  6
CONTINUOUS
 10
1.318118
 20
-3.372291
  0
VERTEX
  8
PLAN_1
  6
CONTINUOUS
 10
1.319866
 20
-3.376657
  0
VERTEX
  8
PLAN_1
  6
CONTINUOUS
 10
1.322051
 20
-3.380591
  0
VERTEX
  8
PLAN_1
  6
CONTINUOUS
 10
1.324232
 20
-3.384083
  0
VERTEX
  8
PLAN_1
  6
CONTINUOUS
 10
1.326854
 20
-3.387138
  0
VERTEX
  8
PLAN_1
  6
CONTINUOUS
 10
1.329472
 20
-3.389323
  0
VERTEX
  8
PLAN_1
  6
CONTINUOUS
 10
1.332531
 20
-3.391504
  0
VERTEX
  8
PLAN_1
  6
CONTINUOUS
 10
1.336024
 20
-3.392815
  0
VERTEX
  8
PLAN_1
  6
CONTINUOUS
 10
1.339079
 20
-3.394126
  0
VERTEX
  8
PLAN_1
  6
CONTINUOUS
 10
1.342575
 20
-3.395000
  0
VERTEX
  8
PLAN_1
  6
CONTINUOUS
 10
1.349122
 20
-3.396311
  0
VERTEX
  8
PLAN_1
  6
CONTINUOUS
 10
1.355673
 20
-3.396311
  0
VERTEX
  8
PLAN_1
  6
CONTINUOUS
 10
1.360913
 20
-3.396311
  0
VERTEX
  8
PLAN_1
  6
CONTINUOUS
 10
1.367028
 20
-3.395000
  0
VERTEX
  8
PLAN_1
  6
CONTINUOUS
 10
1.370083
 20
-3.394126
  0
VERTEX
  8
PLAN_1
  6
CONTINUOUS
 10
1.373142
 20
-3.392815
  0
VERTEX
  8
PLAN_1
  6
CONTINUOUS
 10
1.376197
 20
-3.391071
  0
VERTEX
  8
PLAN_1
  6
CONTINUOUS
 10
1.379256
 20
-3.388886
  0
VERTEX
  8
PLAN_1
  6
CONTINUOUS
 10
1.381874
 20
-3.386264
  0
VERTEX
  8
PLAN_1
  6
CONTINUOUS
 10
1.384496
 20
-3.383209
  0
VERTEX
  8
PLAN_1
  6
CONTINUOUS
 10
1.387114
 20
-3.379280
  0
VERTEX
  8
PLAN_1
  6
CONTINUOUS
 10
1.388862
 20
-3.375350
  0
VERTEX
  8
PLAN_1
  6
CONTINUOUS
 10
1.390610
 20
-3.370543
  0
VERTEX
  8
PLAN_1
  6
CONTINUOUS
 10
1.391917
 20
-3.364870
  0
VERTEX
  8
PLAN_1
  6
CONTINUOUS
 10
1.392791
 20
-3.358756
  0
VERTEX
  8
PLAN_1
  6
CONTINUOUS
 10
1.393228
 20
-3.352205
  0
SEQEND
  8
0
  0
POLYLINE
  8
PLAN_1
  6
CONTINUOUS
 66
     1
 40
0.003000
 41
0.003000
  0
VERTEX
  8
PLAN_1
  6
CONTINUOUS
 10
1.484059
 20
-3.483646
  0
VERTEX
  8
PLAN_1
  6
CONTINUOUS
 10
1.457421
 20
-3.483646
  0
VERTEX
  8
PLAN_1
  6
CONTINUOUS
 10
1.457421
 20
-3.284520
  0
VERTEX
  8
PLAN_1
  6
CONTINUOUS
 10
1.594976
 20
-3.284520
  0
VERTEX
  8
PLAN_1
  6
CONTINUOUS
 10
1.594976
 20
-3.308098
  0
VERTEX
  8
PLAN_1
  6
CONTINUOUS
 10
1.484059
 20
-3.308098
  0
VERTEX
  8
PLAN_1
  6
CONTINUOUS
 10
1.484059
 20
-3.369236
  0
VERTEX
  8
PLAN_1
  6
CONTINUOUS
 10
1.581874
 20
-3.369236
  0
VERTEX
  8
PLAN_1
  6
CONTINUOUS
 10
1.581874
 20
-3.393252
  0
VERTEX
  8
PLAN_1
  6
CONTINUOUS
 10
1.484059
 20
-3.393252
  0
VERTEX
  8
PLAN_1
  6
CONTINUOUS
 10
1.484059
 20
-3.483646
  0
SEQEND
  8
0
  0
SOLID
  8
PLAN_1
 10
1.614189
 20
-3.483646
 11
1.585366
 21
-3.483646
 12
1.614189
 22
-3.454390
 13
1.585366
 23
-3.454390
  0
POLYLINE
  8
PLAN_1
  6
CONTINUOUS
 66
     1
 40
0.003000
 41
0.003000
  0
VERTEX
  8
PLAN_1
  6
CONTINUOUS
 10
1.614189
 20
-3.483646
  0
VERTEX
  8
PLAN_1
  6
CONTINUOUS
 10
1.585366
 20
-3.483646
  0
VERTEX
  8
PLAN_1
  6
CONTINUOUS
 10
1.585366
 20
-3.454390
  0
VERTEX
  8
PLAN_1
  6
CONTINUOUS
 10
1.614189
 20
-3.454390
  0
VERTEX
  8
PLAN_1
  6
CONTINUOUS
 10
1.614189
 20
-3.483646
  0
SEQEND
  8
0
  0
POLYLINE
  8
PLAN_1
  6
CONTINUOUS
 66
     1
 40
0.003000
 41
0.003000
  0
VERTEX
  8
PLAN_1
  6
CONTINUOUS
 10
1.809386
 20
-3.483646
  0
VERTEX
  8
PLAN_1
  6
CONTINUOUS
 10
1.662224
 20
-3.483646
  0
VERTEX
  8
PLAN_1
  6
CONTINUOUS
 10
1.662224
 20
-3.284520
  0
VERTEX
  8
PLAN_1
  6
CONTINUOUS
 10
1.807638
 20
-3.284520
  0
VERTEX
  8
PLAN_1
  6
CONTINUOUS
 10
1.807638
 20
-3.308098
  0
VERTEX
  8
PLAN_1
  6
CONTINUOUS
 10
1.689299
 20
-3.308098
  0
VERTEX
  8
PLAN_1
  6
CONTINUOUS
 10
1.689299
 20
-3.369236
  0
VERTEX
  8
PLAN_1
  6
CONTINUOUS
 10
1.798469
 20
-3.369236
  0
VERTEX
  8
PLAN_1
  6
CONTINUOUS
 10
1.798469
 20
-3.393252
  0
VERTEX
  8
PLAN_1
  6
CONTINUOUS
 10
1.689299
 20
-3.393252
  0
VERTEX
  8
PLAN_1
  6
CONTINUOUS
 10
1.689299
 20
-3.459630
  0
VERTEX
  8
PLAN_1
  6
CONTINUOUS
 10
1.809386
 20
-3.459630
  0
VERTEX
  8
PLAN_1
  6
CONTINUOUS
 10
1.809386
 20
-3.483646
  0
SEQEND
  8
0
  0
POLYLINE
  8
PLAN_1
  6
CONTINUOUS
 66
     1
 40
0.003000
 41
0.003000
  0
VERTEX
  8
PLAN_1
  6
CONTINUOUS
 10
1.874449
 20
-3.483646
  0
VERTEX
  8
PLAN_1
  6
CONTINUOUS
 10
1.847811
 20
-3.483646
  0
VERTEX
  8
PLAN_1
  6
CONTINUOUS
 10
1.847811
 20
-3.284520
  0
VERTEX
  8
PLAN_1
  6
CONTINUOUS
 10
1.937331
 20
-3.284520
  0
VERTEX
  8
PLAN_1
  6
CONTINUOUS
 10
1.943882
 20
-3.284520
  0
VERTEX
  8
PLAN_1
  6
CONTINUOUS
 10
1.950433
 20
-3.285394
  0
VERTEX
  8
PLAN_1
  6
CONTINUOUS
 10
1.956547
 20
-3.286701
  0
VERTEX
  8
PLAN_1
  6
CONTINUOUS
 10
1.962224
 20
-3.288449
  0
VERTEX
  8
PLAN_1
  6
CONTINUOUS
 10
1.967465
 20
-3.291071
  0
VERTEX
  8
PLAN_1
  6
CONTINUOUS
 10
1.972268
 20
-3.293689
  0
VERTEX
  8
PLAN_1
  6
CONTINUOUS
 10
1.976634
 20
-3.296748
  0
VERTEX
  8
PLAN_1
  6
CONTINUOUS
 10
1.980563
 20
-3.300240
  0
VERTEX
  8
PLAN_1
  6
CONTINUOUS
 10
1.984059
 20
-3.304169
  0
VERTEX
  8
PLAN_1
  6
CONTINUOUS
 10
1.987551
 20
-3.308535
  0
VERTEX
  8
PLAN_1
  6
CONTINUOUS
 10
1.990169
 20
-3.313339
  0
VERTEX
  8
PLAN_1
  6
CONTINUOUS
 10
1.992354
 20
-3.318142
  0
VERTEX
  8
PLAN_1
  6
CONTINUOUS
 10
1.994102
 20
-3.323382
  0
VERTEX
  8
PLAN_1
  6
CONTINUOUS
 10
1.995409
 20
-3.328622
  0
VERTEX
  8
PLAN_1
  6
CONTINUOUS
 10
1.996283
 20
-3.334299
  0
VERTEX
  8
PLAN_1
  6
CONTINUOUS
 10
1.996283
 20
-3.340413
  0
VERTEX
  8
PLAN_1
  6
CONTINUOUS
 10
1.996283
 20
-3.345654
  0
VERTEX
  8
PLAN_1
  6
CONTINUOUS
 10
1.995409
 20
-3.350894
  0
VERTEX
  8
PLAN_1
  6
CONTINUOUS
 10
1.994539
 20
-3.356134
  0
VERTEX
  8
PLAN_1
  6
CONTINUOUS
 10
1.993228
 20
-3.361374
  0
VERTEX
  8
PLAN_1
  6
CONTINUOUS
 10
1.991480
 20
-3.366614
  0
VERTEX
  8
PLAN_1
  6
CONTINUOUS
 10
1.988862
 20
-3.371417
  0
VERTEX
  8
PLAN_1
  6
CONTINUOUS
 10
1.986240
 20
-3.375783
  0
VERTEX
  8
PLAN_1
  6
CONTINUOUS
 10
1.983185
 20
-3.380591
  0
VERTEX
  8
PLAN_1
  6
CONTINUOUS
 10
1.979252
 20
-3.384520
  0
VERTEX
  8
PLAN_1
  6
CONTINUOUS
 10
1.974886
 20
-3.388012
  0
VERTEX
  8
PLAN_1
  6
CONTINUOUS
 10
1.970083
 20
-3.391504
  0
VERTEX
  8
PLAN_1
  6
CONTINUOUS
 10
1.964843
 20
-3.394126
  0
VERTEX
  8
PLAN_1
  6
CONTINUOUS
 10
1.958728
 20
-3.396311
  0
VERTEX
  8
PLAN_1
  6
CONTINUOUS
 10
1.952181
 20
-3.398055
  0
VERTEX
  8
PLAN_1
  6
CONTINUOUS
 10
1.945193
 20
-3.399366
  0
VERTEX
  8
PLAN_1
  6
CONTINUOUS
 10
1.937331
 20
-3.399366
  0
VERTEX
  8
PLAN_1
  6
CONTINUOUS
 10
1.874449
 20
-3.399366
  0
VERTEX
  8
PLAN_1
  6
CONTINUOUS
 10
1.874449
 20
-3.483646
  0
SEQEND
  8
0
  0
POLYLINE
  8
PLAN_1
  6
CONTINUOUS
 66
     1
 40
0.003000
 41
0.003000
  0
VERTEX
  8
PLAN_1
  6
CONTINUOUS
 10
1.874449
 20
-3.376657
  0
VERTEX
  8
PLAN_1
  6
CONTINUOUS
 10
1.928161
 20
-3.376657
  0
VERTEX
  8
PLAN_1
  6
CONTINUOUS
 10
1.932528
 20
-3.376220
  0
VERTEX
  8
PLAN_1
  6
CONTINUOUS
 10
1.936898
 20
-3.376220
  0
VERTEX
  8
PLAN_1
  6
CONTINUOUS
 10
1.940827
 20
-3.375350
  0
VERTEX
  8
PLAN_1
  6
CONTINUOUS
 10
1.944756
 20
-3.374476
  0
VERTEX
  8
PLAN_1
  6
CONTINUOUS
 10
1.948248
 20
-3.373602
  0
VERTEX
  8
PLAN_1
  6
CONTINUOUS
 10
1.951307
 20
-3.372291
  0
VERTEX
  8
PLAN_1
  6
CONTINUOUS
 10
1.954799
 20
-3.370543
  0
VERTEX
  8
PLAN_1
  6
CONTINUOUS
 10
1.957421
 20
-3.368799
  0
VERTEX
  8
PLAN_1
  6
CONTINUOUS
 10
1.960039
 20
-3.366614
  0
VERTEX
  8
PLAN_1
  6
CONTINUOUS
 10
1.962224
 20
-3.363996
  0
VERTEX
  8
PLAN_1
  6
CONTINUOUS
 10
1.963969
 20
-3.360937
  0
VERTEX
  8
PLAN_1
  6
CONTINUOUS
 10
1.965717
 20
-3.357445
  0
VERTEX
  8
PLAN_1
  6
CONTINUOUS
 10
1.967028
 20
-3.353953
  0
VERTEX
  8
PLAN_1
  6
CONTINUOUS
 10
1.967902
 20
-3.350020
  0
VERTEX
  8
PLAN_1
  6
CONTINUOUS
 10
1.968339
 20
-3.345654
  0
VERTEX
  8
PLAN_1
  6
CONTINUOUS
 10
1.968772
 20
-3.340850
  0
VERTEX
  8
PLAN_1
  6
CONTINUOUS
 10
1.968339
 20
-3.336047
  0
VERTEX
  8
PLAN_1
  6
CONTINUOUS
 10
1.967902
 20
-3.332118
  0
VERTEX
  8
PLAN_1
  6
CONTINUOUS
 10
1.967028
 20
-3.328189
  0
VERTEX
  8
PLAN_1
  6
CONTINUOUS
 10
1.965717
 20
-3.324693
  0
VERTEX
  8
PLAN_1
  6
CONTINUOUS
 10
1.963969
 20
-3.321638
  0
VERTEX
  8
PLAN_1
  6
CONTINUOUS
 10
1.961787
 20
-3.319016
  0
VERTEX
  8
PLAN_1
  6
CONTINUOUS
 10
1.959602
 20
-3.316835
  0
VERTEX
  8
PLAN_1
  6
CONTINUOUS
 10
1.957421
 20
-3.314650
  0
VERTEX
  8
PLAN_1
  6
CONTINUOUS
 10
1.954362
 20
-3.312902
  0
VERTEX
  8
PLAN_1
  6
CONTINUOUS
 10
1.951307
 20
-3.311157
  0
VERTEX
  8
PLAN_1
  6
CONTINUOUS
 10
1.948248
 20
-3.309846
  0
VERTEX
  8
PLAN_1
  6
CONTINUOUS
 10
1.944756
 20
-3.308972
  0
VERTEX
  8
PLAN_1
  6
CONTINUOUS
 10
1.941264
 20
-3.308098
  0
VERTEX
  8
PLAN_1
  6
CONTINUOUS
 10
1.937331
 20
-3.307661
  0
VERTEX
  8
PLAN_1
  6
CONTINUOUS
 10
1.933402
 20
-3.307661
  0
VERTEX
  8
PLAN_1
  6
CONTINUOUS
 10
1.929035
 20
-3.307228
  0
VERTEX
  8
PLAN_1
  6
CONTINUOUS
 10
1.874449
 20
-3.307228
  0
VERTEX
  8
PLAN_1
  6
CONTINUOUS
 10
1.874449
 20
-3.376657
  0
SEQEND
  8
0
  0
POLYLINE
  8
PLAN_1
  6
CONTINUOUS
 66
     1
 40
0.003000
 41
0.003000
  0
VERTEX
  8
PLAN_1
  6
CONTINUOUS
 10
2.149996
 20
-3.342598
  0
VERTEX
  8
PLAN_1
  6
CONTINUOUS
 10
2.149559
 20
-3.336921
  0
VERTEX
  8
PLAN_1
  6
CONTINUOUS
 10
2.148685
 20
-3.332118
  0
VERTEX
  8
PLAN_1
  6
CONTINUOUS
 10
2.146937
 20
-3.327315
  0
VERTEX
  8
PLAN_1
  6
CONTINUOUS
 10
2.145193
 20
-3.323382
  0
VERTEX
  8
PLAN_1
  6
CONTINUOUS
 10
2.142571
 20
-3.319453
  0
VERTEX
  8
PLAN_1
  6
CONTINUOUS
 10
2.139953
 20
-3.316398
  0
VERTEX
  8
PLAN_1
  6
CONTINUOUS
 10
2.136894
 20
-3.313339
  0
VERTEX
  8
PLAN_1
  6
CONTINUOUS
 10
2.133402
 20
-3.310720
  0
VERTEX
  8
PLAN_1
  6
CONTINUOUS
 10
2.129909
 20
-3.308535
  0
VERTEX
  8
PLAN_1
  6
CONTINUOUS
 10
2.125976
 20
-3.306791
  0
VERTEX
  8
PLAN_1
  6
CONTINUOUS
 10
2.122047
 20
-3.305480
  0
VERTEX
  8
PLAN_1
  6
CONTINUOUS
 10
2.117681
 20
-3.304169
  0
VERTEX
  8
PLAN_1
  6
CONTINUOUS
 10
2.113752
 20
-3.303295
  0
VERTEX
  8
PLAN_1
  6
CONTINUOUS
 10
2.109386
 20
-3.302421
  0
VERTEX
  8
PLAN_1
  6
CONTINUOUS
 10
2.105016
 20
-3.302421
  0
VERTEX
  8
PLAN_1
  6
CONTINUOUS
 10
2.100650
 20
-3.301988
  0
VERTEX
  8
PLAN_1
  6
CONTINUOUS
 10
2.094102
 20
-3.302421
  0
VERTEX
  8
PLAN_1
  6
CONTINUOUS
 10
2.086677
 20
-3.303295
  0
VERTEX
  8
PLAN_1
  6
CONTINUOUS
 10
2.082748
 20
-3.304169
  0
VERTEX
  8
PLAN_1
  6
CONTINUOUS
 10
2.078815
 20
-3.305043
  0
VERTEX
  8
PLAN_1
  6
CONTINUOUS
 10
2.075323
 20
-3.306791
  0
VERTEX
  8
PLAN_1
  6
CONTINUOUS
 10
2.071831
 20
-3.308098
  0
VERTEX
  8
PLAN_1
  6
CONTINUOUS
 10
2.068335
 20
-3.310283
  0
VERTEX
  8
PLAN_1
  6
CONTINUOUS
 10
2.065280
 20
-3.312902
  0
VERTEX
  8
PLAN_1
  6
CONTINUOUS
 10
2.062224
 20
-3.315524
  0
VERTEX
  8
PLAN_1
  6
CONTINUOUS
 10
2.060039
 20
-3.319016
  0
VERTEX
  8
PLAN_1
  6
CONTINUOUS
 10
2.057854
 20
-3.322512
  0
VERTEX
  8
PLAN_1
  6
CONTINUOUS
 10
2.056547
 20
-3.326878
  0
VERTEX
  8
PLAN_1
  6
CONTINUOUS
 10
2.055673
 20
-3.331681
  0
VERTEX
  8
PLAN_1
  6
CONTINUOUS
 10
2.055236
 20
-3.336921
  0
VERTEX
  8
PLAN_1
  6
CONTINUOUS
 10
2.055236
 20
-3.339976
  0
VERTEX
  8
PLAN_1
  6
CONTINUOUS
 10
2.055673
 20
-3.343035
  0
VERTEX
  8
PLAN_1
  6
CONTINUOUS
 10
2.056547
 20
-3.345654
  0
VERTEX
  8
PLAN_1
  6
CONTINUOUS
 10
2.057421
 20
-3.347839
  0
VERTEX
  8
PLAN_1
  6
CONTINUOUS
 10
2.058291
 20
-3.350020
  0
VERTEX
  8
PLAN_1
  6
CONTINUOUS
 10
2.059602
 20
-3.351768
  0
VERTEX
  8
PLAN_1
  6
CONTINUOUS
 10
2.060913
 20
-3.353516
  0
VERTEX
  8
PLAN_1
  6
CONTINUOUS
 10
2.062661
 20
-3.354823
  0
VERTEX
  8
PLAN_1
  6
CONTINUOUS
 10
2.066154
 20
-3.357445
  0
VERTEX
  8
PLAN_1
  6
CONTINUOUS
 10
2.070083
 20
-3.359630
  0
VERTEX
  8
PLAN_1
  6
CONTINUOUS
 10
2.074449
 20
-3.360937
  0
VERTEX
  8
PLAN_1
  6
CONTINUOUS
 10
2.078815
 20
-3.362248
  0
VERTEX
  8
PLAN_1
  6
CONTINUOUS
 10
2.135587
 20
-3.375350
  0
VERTEX
  8
PLAN_1
  6
CONTINUOUS
 10
2.140390
 20
-3.376657
  0
VERTEX
  8
PLAN_1
  6
CONTINUOUS
 10
2.145193
 20
-3.377969
  0
VERTEX
  8
PLAN_1
  6
CONTINUOUS
 10
2.149559
 20
-3.379717
  0
VERTEX
  8
PLAN_1
  6
CONTINUOUS
 10
2.153925
 20
-3.381898
  0
VERTEX
  8
PLAN_1
  6
CONTINUOUS
 10
2.157854
 20
-3.384083
  0
VERTEX
  8
PLAN_1
  6
CONTINUOUS
 10
2.161350
 20
-3.386701
  0
VERTEX
  8
PLAN_1
  6
CONTINUOUS
 10
2.164843
 20
-3.389323
  0
VERTEX
  8
PLAN_1
  6
CONTINUOUS
 10
2.167898
 20
-3.392378
  0
VERTEX
  8
PLAN_1
  6
CONTINUOUS
 10
2.170957
 20
-3.395874
  0
VERTEX
  8
PLAN_1
  6
CONTINUOUS
 10
2.173575
 20
-3.399366
  0
VERTEX
  8
PLAN_1
  6
CONTINUOUS
 10
2.175760
 20
-3.403732
  0
VERTEX
  8
PLAN_1
  6
CONTINUOUS
 10
2.177508
 20
-3.407661
  0
VERTEX
  8
PLAN_1
  6
CONTINUOUS
 10
2.178815
 20
-3.412465
  0
VERTEX
  8
PLAN_1
  6
CONTINUOUS
 10
2.180126
 20
-3.417705
  0
VERTEX
  8
PLAN_1
  6
CONTINUOUS
 10
2.180563
 20
-3.422945
  0
VERTEX
  8
PLAN_1
  6
CONTINUOUS
 10
2.181000
 20
-3.428622
  0
VERTEX
  8
PLAN_1
  6
CONTINUOUS
 10
2.181000
 20
-3.432992
  0
VERTEX
  8
PLAN_1
  6
CONTINUOUS
 10
2.180563
 20
-3.436921
  0
VERTEX
  8
PLAN_1
  6
CONTINUOUS
 10
2.179689
 20
-3.440850
  0
VERTEX
  8
PLAN_1
  6
CONTINUOUS
 10
2.179252
 20
-3.444780
  0
VERTEX
  8
PLAN_1
  6
CONTINUOUS
 10
2.177945
 20
-3.448276
  0
VERTEX
  8
PLAN_1
  6
CONTINUOUS
 10
2.176634
 20
-3.451768
  0
VERTEX
  8
PLAN_1
  6
CONTINUOUS
 10
2.175323
 20
-3.454823
  0
VERTEX
  8
PLAN_1
  6
CONTINUOUS
 10
2.173575
 20
-3.457882
  0
VERTEX
  8
PLAN_1
  6
CONTINUOUS
 10
2.171831
 20
-3.460937
  0
VERTEX
  8
PLAN_1
  6
CONTINUOUS
 10
2.169646
 20
-3.463559
  0
VERTEX
  8
PLAN_1
  6
CONTINUOUS
 10
2.167465
 20
-3.466177
  0
VERTEX
  8
PLAN_1
  6
CONTINUOUS
 10
2.165280
 20
-3.468362
  0
VERTEX
  8
PLAN_1
  6
CONTINUOUS
 10
2.160476
 20
-3.472728
  0
VERTEX
  8
PLAN_1
  6
CONTINUOUS
 10
2.154799
 20
-3.476657
  0
VERTEX
  8
PLAN_1
  6
CONTINUOUS
 10
2.148685
 20
-3.479717
  0
VERTEX
  8
PLAN_1
  6
CONTINUOUS
 10
2.142571
 20
-3.482335
  0
VERTEX
  8
PLAN_1
  6
CONTINUOUS
 10
2.136024
 20
-3.484520
  0
VERTEX
  8
PLAN_1
  6
CONTINUOUS
 10
2.129472
 20
-3.486264
  0
VERTEX
  8
PLAN_1
  6
CONTINUOUS
 10
2.122921
 20
-3.487575
  0
VERTEX
  8
PLAN_1
  6
CONTINUOUS
 10
2.116370
 20
-3.488449
  0
VERTEX
  8
PLAN_1
  6
CONTINUOUS
 10
2.109386
 20
-3.488886
  0
VERTEX
  8
PLAN_1
  6
CONTINUOUS
 10
2.102835
 20
-3.488886
  0
VERTEX
  8
PLAN_1
  6
CONTINUOUS
 10
2.096283
 20
-3.488886
  0
VERTEX
  8
PLAN_1
  6
CONTINUOUS
 10
2.090169
 20
-3.488449
  0
VERTEX
  8
PLAN_1
  6
CONTINUOUS
 10
2.084492
 20
-3.488012
  0
VERTEX
  8
PLAN_1
  6
CONTINUOUS
 10
2.079252
 20
-3.487138
  0
VERTEX
  8
PLAN_1
  6
CONTINUOUS
 10
2.074449
 20
-3.486264
  0
VERTEX
  8
PLAN_1
  6
CONTINUOUS
 10
2.070083
 20
-3.484957
  0
VERTEX
  8
PLAN_1
  6
CONTINUOUS
 10
2.066154
 20
-3.483646
  0
VERTEX
  8
PLAN_1
  6
CONTINUOUS
 10
2.062224
 20
-3.482335
  0
VERTEX
  8
PLAN_1
  6
CONTINUOUS
 10
2.056110
 20
-3.479280
  0
VERTEX
  8
PLAN_1
  6
CONTINUOUS
 10
2.050870
 20
-3.476220
  0
VERTEX
  8
PLAN_1
  6
CONTINUOUS
 10
2.046504
 20
-3.472728
  0
VERTEX
  8
PLAN_1
  6
CONTINUOUS
 10
2.043008
 20
-3.469673
  0
VERTEX
  8
PLAN_1
  6
CONTINUOUS
 10
2.039953
 20
-3.467051
  0
VERTEX
  8
PLAN_1
  6
CONTINUOUS
 10
2.036894
 20
-3.463996
  0
VERTEX
  8
PLAN_1
  6
CONTINUOUS
 10
2.034713
 20
-3.460937
  0
VERTEX
  8
PLAN_1
  6
CONTINUOUS
 10
2.032528
 20
-3.457882
  0
VERTEX
  8
PLAN_1
  6
CONTINUOUS
 10
2.030783
 20
-3.454823
  0
VERTEX
  8
PLAN_1
  6
CONTINUOUS
 10
2.029035
 20
-3.451768
  0
VERTEX
  8
PLAN_1
  6
CONTINUOUS
 10
2.027724
 20
-3.448713
  0
VERTEX
  8
PLAN_1
  6
CONTINUOUS
 10
2.026413
 20
-3.445654
  0
VERTEX
  8
PLAN_1
  6
CONTINUOUS
 10
2.024669
 20
-3.439539
  0
VERTEX
  8
PLAN_1
  6
CONTINUOUS
 10
2.023358
 20
-3.432992
  0
VERTEX
  8
PLAN_1
  6
CONTINUOUS
 10
2.022921
 20
-3.426004
  0
VERTEX
  8
PLAN_1
  6
CONTINUOUS
 10
2.022484
 20
-3.419016
  0
VERTEX
  8
PLAN_1
  6
CONTINUOUS
 10
2.047811
 20
-3.419016
  0
VERTEX
  8
PLAN_1
  6
CONTINUOUS
 10
2.048248
 20
-3.425567
  0
VERTEX
  8
PLAN_1
  6
CONTINUOUS
 10
2.049122
 20
-3.431681
  0
VERTEX
  8
PLAN_1
  6
CONTINUOUS
 10
2.050870
 20
-3.436921
  0
VERTEX
  8
PLAN_1
  6
CONTINUOUS
 10
2.052614
 20
-3.441724
  0
VERTEX
  8
PLAN_1
  6
CONTINUOUS
 10
2.055236
 20
-3.446091
  0
VERTEX
  8
PLAN_1
  6
CONTINUOUS
 10
2.058291
 20
-3.450020
  0
VERTEX
  8
PLAN_1
  6
CONTINUOUS
 10
2.061787
 20
-3.453079
  0
VERTEX
  8
PLAN_1
  6
CONTINUOUS
 10
2.065717
 20
-3.456134
  0
VERTEX
  8
PLAN_1
  6
CONTINUOUS
 10
2.069646
 20
-3.458756
  0
VERTEX
  8
PLAN_1
  6
CONTINUOUS
 10
2.074012
 20
-3.460500
  0
VERTEX
  8
PLAN_1
  6
CONTINUOUS
 10
2.078815
 20
-3.462248
  0
VERTEX
  8
PLAN_1
  6
CONTINUOUS
 10
2.083185
 20
-3.463559
  0
VERTEX
  8
PLAN_1
  6
CONTINUOUS
 10
2.087988
 20
-3.464433
  0
VERTEX
  8
PLAN_1
  6
CONTINUOUS
 10
2.093228
 20
-3.465303
  0
VERTEX
  8
PLAN_1
  6
CONTINUOUS
 10
2.098031
 20
-3.465740
  0
VERTEX
  8
PLAN_1
  6
CONTINUOUS
 10
2.102835
 20
-3.465740
  0
VERTEX
  8
PLAN_1
  6
CONTINUOUS
 10
2.110693
 20
-3.465740
  0
VERTEX
  8
PLAN_1
  6
CONTINUOUS
 10
2.118992
 20
-3.464433
  0
VERTEX
  8
PLAN_1
  6
CONTINUOUS
 10
2.123358
 20
-3.463996
  0
VERTEX
  8
PLAN_1
  6
CONTINUOUS
 10
2.127724
 20
-3.462685
  0
VERTEX
  8
PLAN_1
  6
CONTINUOUS
 10
2.132091
 20
-3.461374
  0
VERTEX
  8
PLAN_1
  6
CONTINUOUS
 10
2.136024
 20
-3.459630
  0
VERTEX
  8
PLAN_1
  6
CONTINUOUS
 10
2.139953
 20
-3.457882
  0
VERTEX
  8
PLAN_1
  6
CONTINUOUS
 10
2.143445
 20
-3.455260
  0
VERTEX
  8
PLAN_1
  6
CONTINUOUS
 10
2.146504
 20
-3.452642
  0
VERTEX
  8
PLAN_1
  6
CONTINUOUS
 10
2.149559
 20
-3.449583
  0
VERTEX
  8
PLAN_1
  6
CONTINUOUS
 10
2.151744
 20
-3.446091
  0
VERTEX
  8
PLAN_1
  6
CONTINUOUS
 10
2.153488
 20
-3.441724
  0
VERTEX
  8
PLAN_1
  6
CONTINUOUS
 10
2.154362
 20
-3.437358
  0
VERTEX
  8
PLAN_1
  6
CONTINUOUS
 10
2.154799
 20
-3.432118
  0
VERTEX
  8
PLAN_1
  6
CONTINUOUS
 10
2.154799
 20
-3.428622
  0
VERTEX
  8
PLAN_1
  6
CONTINUOUS
 10
2.154362
 20
-3.425130
  0
VERTEX
  8
PLAN_1
  6
CONTINUOUS
 10
2.153925
 20
-3.422075
  0
VERTEX
  8
PLAN_1
  6
CONTINUOUS
 10
2.153051
 20
-3.419016
  0
VERTEX
  8
PLAN_1
  6
CONTINUOUS
 10
2.151744
 20
-3.416398
  0
VERTEX
  8
PLAN_1
  6
CONTINUOUS
 10
2.149996
 20
-3.414213
  0
VERTEX
  8
PLAN_1
  6
CONTINUOUS
 10
2.148248
 20
-3.412031
  0
VERTEX
  8
PLAN_1
  6
CONTINUOUS
 10
2.146067
 20
-3.409846
  0
VERTEX
  8
PLAN_1
  6
CONTINUOUS
 10
2.143445
 20
-3.407661
  0
VERTEX
  8
PLAN_1
  6
CONTINUOUS
 10
2.140390
 20
-3.405917
  0
VERTEX
  8
PLAN_1
  6
CONTINUOUS
 10
2.136894
 20
-3.404606
  0
VERTEX
  8
PLAN_1
  6
CONTINUOUS
 10
2.132965
 20
-3.402858
  0
VERTEX
  8
PLAN_1
  6
CONTINUOUS
 10
2.123795
 20
-3.399803
  0
VERTEX
  8
PLAN_1
  6
CONTINUOUS
 10
2.112441
 20
-3.397181
  0
VERTEX
  8
PLAN_1
  6
CONTINUOUS
 10
2.071831
 20
-3.387575
  0
VERTEX
  8
PLAN_1
  6
CONTINUOUS
 10
2.066154
 20
-3.386264
  0
VERTEX
  8
PLAN_1
  6
CONTINUOUS
 10
2.059602
 20
-3.383646
  0
VERTEX
  8
PLAN_1
  6
CONTINUOUS
 10
2.056110
 20
-3.382335
  0
VERTEX
  8
PLAN_1
  6
CONTINUOUS
 10
2.052614
 20
-3.380591
  0
VERTEX
  8
PLAN_1
  6
CONTINUOUS
 10
2.049122
 20
-3.378406
  0
VERTEX
  8
PLAN_1
  6
CONTINUOUS
 10
2.045630
 20
-3.376220
  0
VERTEX
  8
PLAN_1
  6
CONTINUOUS
 10
2.042134
 20
-3.373165
  0
VERTEX
  8
PLAN_1
  6
CONTINUOUS
 10
2.039079
 20
-3.370110
  0
VERTEX
  8
PLAN_1
  6
CONTINUOUS
 10
2.036461
 20
-3.366177
  0
VERTEX
  8
PLAN_1
  6
CONTINUOUS
 10
2.033839
 20
-3.362248
  0
VERTEX
  8
PLAN_1
  6
CONTINUOUS
 10
2.032091
 20
-3.357445
  0
VERTEX
  8
PLAN_1
  6
CONTINUOUS
 10
2.030346
 20
-3.352642
  0
VERTEX
  8
PLAN_1
  6
CONTINUOUS
 10
2.029472
 20
-3.346965
  0
VERTEX
  8
PLAN_1
  6
CONTINUOUS
 10
2.029035
 20
-3.340850
  0
VERTEX
  8
PLAN_1
  6
CONTINUOUS
 10
2.029472
 20
-3.334736
  0
VERTEX
  8
PLAN_1
  6
CONTINUOUS
 10
2.030346
 20
-3.329059
  0
VERTEX
  8
PLAN_1
  6
CONTINUOUS
 10
2.031220
 20
-3.323382
  0
VERTEX
  8
PLAN_1
  6
CONTINUOUS
 10
2.032965
 20
-3.318142
  0
VERTEX
  8
PLAN_1
  6
CONTINUOUS
 10
2.035150
 20
-3.312469
  0
VERTEX
  8
PLAN_1
  6
CONTINUOUS
 10
2.038205
 20
-3.307661
  0
VERTEX
  8
PLAN_1
  6
CONTINUOUS
 10
2.041264
 20
-3.302858
  0
VERTEX
  8
PLAN_1
  6
CONTINUOUS
 10
2.045193
 20
-3.298055
  0
VERTEX
  8
PLAN_1
  6
CONTINUOUS
 10
2.049996
 20
-3.294126
  0
VERTEX
  8
PLAN_1
  6
CONTINUOUS
 10
2.054799
 20
-3.290197
  0
VERTEX
  8
PLAN_1
  6
CONTINUOUS
 10
2.060476
 20
-3.287138
  0
VERTEX
  8
PLAN_1
  6
CONTINUOUS
 10
2.066591
 20
-3.284520
  0
VERTEX
  8
PLAN_1
  6
CONTINUOUS
 10
2.073575
 20
-3.282335
  0
VERTEX
  8
PLAN_1
  6
CONTINUOUS
 10
2.081000
 20
-3.280591
  0
VERTEX
  8
PLAN_1
  6
CONTINUOUS
 10
2.088862
 20
-3.279280
  0
VERTEX
  8
PLAN_1
  6
CONTINUOUS
 10
2.097594
 20
-3.279280
  0
VERTEX
  8
PLAN_1
  6
CONTINUOUS
 10
2.104146
 20
-3.279280
  0
VERTEX
  8
PLAN_1
  6
CONTINUOUS
 10
2.110256
 20
-3.279717
  0
VERTEX
  8
PLAN_1
  6
CONTINUOUS
 10
2.115933
 20
-3.280154
  0
VERTEX
  8
PLAN_1
  6
CONTINUOUS
 10
2.121173
 20
-3.281028
  0
VERTEX
  8
PLAN_1
  6
CONTINUOUS
 10
2.125976
 20
-3.281898
  0
VERTEX
  8
PLAN_1
  6
CONTINUOUS
 10
2.130783
 20
-3.283209
  0
VERTEX
  8
PLAN_1
  6
CONTINUOUS
 10
2.135150
 20
-3.284520
  0
VERTEX
  8
PLAN_1
  6
CONTINUOUS
 10
2.139079
 20
-3.285831
  0
VERTEX
  8
PLAN_1
  6
CONTINUOUS
 10
2.143008
 20
-3.287575
  0
VERTEX
  8
PLAN_1
  6
CONTINUOUS
 10
2.146504
 20
-3.289323
  0
VERTEX
  8
PLAN_1
  6
CONTINUOUS
 10
2.149559
 20
-3.291508
  0
VERTEX
  8
PLAN_1
  6
CONTINUOUS
 10
2.152614
 20
-3.293252
  0
VERTEX
  8
PLAN_1
  6
CONTINUOUS
 10
2.157854
 20
-3.298055
  0
VERTEX
  8
PLAN_1
  6
CONTINUOUS
 10
2.162224
 20
-3.302858
  0
VERTEX
  8
PLAN_1
  6
CONTINUOUS
 10
2.165717
 20
-3.307661
  0
VERTEX
  8
PLAN_1
  6
CONTINUOUS
 10
2.168772
 20
-3.312902
  0
VERTEX
  8
PLAN_1
  6
CONTINUOUS
 10
2.170957
 20
-3.318142
  0
VERTEX
  8
PLAN_1
  6
CONTINUOUS
 10
2.172705
 20
-3.323382
  0
VERTEX
  8
PLAN_1
  6
CONTINUOUS
 10
2.174012
 20
-3.328622
  0
VERTEX
  8
PLAN_1
  6
CONTINUOUS
 10
2.174449
 20
-3.333429
  0
VERTEX
  8
PLAN_1
  6
CONTINUOUS
 10
2.175323
 20
-3.338232
  0
VERTEX
  8
PLAN_1
  6
CONTINUOUS
 10
2.175323
 20
-3.342598
  0
VERTEX
  8
PLAN_1
  6
CONTINUOUS
 10
2.149996
 20
-3.342598
  0
SEQEND
  8
0
  0
POLYLINE
  8
PLAN_1
  6
CONTINUOUS
 66
     1
 40
0.004366
 41
0.004366
  0
VERTEX
  8
PLAN_1
  6
CONTINUOUS
 10
-1.701087
 20
2.498004
  0
VERTEX
  8
PLAN_1
  6
CONTINUOUS
 10
-1.077508
 20
2.498004
  0
SEQEND
  8
0
  0
POLYLINE
  8
PLAN_1
  6
CONTINUOUS
 66
     1
 40
0.008295
 41
0.008295
  0
VERTEX
  8
PLAN_1
  6
CONTINUOUS
 10
-1.226417
 20
2.890142
  0
VERTEX
  8
PLAN_1
  6
CONTINUOUS
 10
-1.217685
 20
2.898437
  0
VERTEX
  8
PLAN_1
  6
CONTINUOUS
 10
-1.209386
 20
2.907173
  0
VERTEX
  8
PLAN_1
  6
CONTINUOUS
 10
-1.201528
 20
2.916343
  0
VERTEX
  8
PLAN_1
  6
CONTINUOUS
 10
-1.194102
 20
2.925949
  0
VERTEX
  8
PLAN_1
  6
CONTINUOUS
 10
-1.187551
 20
2.935992
  0
VERTEX
  8
PLAN_1
  6
CONTINUOUS
 10
-1.181004
 20
2.946035
  0
VERTEX
  8
PLAN_1
  6
CONTINUOUS
 10
-1.175327
 20
2.956516
  0
VERTEX
  8
PLAN_1
  6
CONTINUOUS
 10
-1.169650
 20
2.967433
  0
VERTEX
  8
PLAN_1
  6
CONTINUOUS
 10
-1.165283
 20
2.978787
  0
VERTEX
  8
PLAN_1
  6
CONTINUOUS
 10
-1.160913
 20
2.990579
  0
VERTEX
  8
PLAN_1
  6
CONTINUOUS
 10
-1.157421
 20
3.001933
  0
VERTEX
  8
PLAN_1
  6
CONTINUOUS
 10
-1.154366
 20
3.014157
  0
VERTEX
  8
PLAN_1
  6
CONTINUOUS
 10
-1.152181
 20
3.026386
  0
VERTEX
  8
PLAN_1
  6
CONTINUOUS
 10
-1.150433
 20
3.039047
  0
VERTEX
  8
PLAN_1
  6
CONTINUOUS
 10
-1.149126
 20
3.051713
  0
VERTEX
  8
PLAN_1
  6
CONTINUOUS
 10
-1.148689
 20
3.064378
  0
VERTEX
  8
PLAN_1
  6
CONTINUOUS
 10
-1.149126
 20
3.076602
  0
VERTEX
  8
PLAN_1
  6
CONTINUOUS
 10
-1.149996
 20
3.088831
  0
VERTEX
  8
PLAN_1
  6
CONTINUOUS
 10
-1.151744
 20
3.100622
  0
VERTEX
  8
PLAN_1
  6
CONTINUOUS
 10
-1.153492
 20
3.111976
  0
VERTEX
  8
PLAN_1
  6
CONTINUOUS
 10
-1.156110
 20
3.123327
  0
VERTEX
  8
PLAN_1
  6
CONTINUOUS
 10
-1.159606
 20
3.134681
  0
VERTEX
  8
PLAN_1
  6
CONTINUOUS
 10
-1.163098
 20
3.145598
  0
VERTEX
  8
PLAN_1
  6
CONTINUOUS
 10
-1.167465
 20
3.156079
  0
VERTEX
  8
PLAN_1
  6
CONTINUOUS
 10
-1.172268
 20
3.166559
  0
VERTEX
  8
PLAN_1
  6
CONTINUOUS
 10
-1.177071
 20
3.176602
  0
VERTEX
  8
PLAN_1
  6
CONTINUOUS
 10
-1.182748
 20
3.186646
  0
VERTEX
  8
PLAN_1
  6
CONTINUOUS
 10
-1.188862
 20
3.196252
  0
VERTEX
  8
PLAN_1
  6
CONTINUOUS
 10
-1.195850
 20
3.205425
  0
VERTEX
  8
PLAN_1
  6
CONTINUOUS
 10
-1.202835
 20
3.214157
  0
VERTEX
  8
PLAN_1
  6
CONTINUOUS
 10
-1.209823
 20
3.222890
  0
VERTEX
  8
PLAN_1
  6
CONTINUOUS
 10
-1.217685
 20
3.231189
  0
VERTEX
  8
PLAN_1
  6
CONTINUOUS
 10
-1.225980
 20
3.238610
  0
VERTEX
  8
PLAN_1
  6
CONTINUOUS
 10
-1.234713
 20
3.246035
  0
VERTEX
  8
PLAN_1
  6
CONTINUOUS
 10
-1.243449
 20
3.253024
  0
VERTEX
  8
PLAN_1
  6
CONTINUOUS
 10
-1.252618
 20
3.259571
  0
VERTEX
  8
PLAN_1
  6
CONTINUOUS
 10
-1.262224
 20
3.265685
  0
VERTEX
  8
PLAN_1
  6
CONTINUOUS
 10
-1.271831
 20
3.271362
  0
VERTEX
  8
PLAN_1
  6
CONTINUOUS
 10
-1.282311
 20
3.276602
  0
VERTEX
  8
PLAN_1
  6
CONTINUOUS
 10
-1.292791
 20
3.281406
  0
VERTEX
  8
PLAN_1
  6
CONTINUOUS
 10
-1.303272
 20
3.285772
  0
VERTEX
  8
PLAN_1
  6
CONTINUOUS
 10
-1.314189
 20
3.289268
  0
VERTEX
  8
PLAN_1
  6
CONTINUOUS
 10
-1.325543
 20
3.292323
  0
VERTEX
  8
PLAN_1
  6
CONTINUOUS
 10
-1.336898
 20
3.294945
  0
VERTEX
  8
PLAN_1
  6
CONTINUOUS
 10
-1.348252
 20
3.297126
  0
VERTEX
  8
PLAN_1
  6
CONTINUOUS
 10
-1.360039
 20
3.298874
  0
VERTEX
  8
PLAN_1
  6
CONTINUOUS
 10
-1.372268
 20
3.299748
  0
VERTEX
  8
PLAN_1
  6
CONTINUOUS
 10
-1.384059
 20
3.299748
  0
VERTEX
  8
PLAN_1
  6
CONTINUOUS
 10
-1.396283
 20
3.299748
  0
VERTEX
  8
PLAN_1
  6
CONTINUOUS
 10
-1.408075
 20
3.298874
  0
VERTEX
  8
PLAN_1
  6
CONTINUOUS
 10
-1.419866
 20
3.297126
  0
VERTEX
  8
PLAN_1
  6
CONTINUOUS
 10
-1.431657
 20
3.294945
  0
VERTEX
  8
PLAN_1
  6
CONTINUOUS
 10
-1.443012
 20
3.292323
  0
VERTEX
  8
PLAN_1
  6
CONTINUOUS
 10
-1.454362
 20
3.289268
  0
VERTEX
  8
PLAN_1
  6
CONTINUOUS
 10
-1.465280
 20
3.285772
  0
VERTEX
  8
PLAN_1
  6
CONTINUOUS
 10
-1.475760
 20
3.281406
  0
VERTEX
  8
PLAN_1
  6
CONTINUOUS
 10
-1.486240
 20
3.276602
  0
VERTEX
  8
PLAN_1
  6
CONTINUOUS
 10
-1.496283
 20
3.271362
  0
VERTEX
  8
PLAN_1
  6
CONTINUOUS
 10
-1.506331
 20
3.265685
  0
VERTEX
  8
PLAN_1
  6
CONTINUOUS
 10
-1.515937
 20
3.259571
  0
VERTEX
  8
PLAN_1
  6
CONTINUOUS
 10
-1.525106
 20
3.253024
  0
VERTEX
  8
PLAN_1
  6
CONTINUOUS
 10
-1.533839
 20
3.246035
  0
VERTEX
  8
PLAN_1
  6
CONTINUOUS
 10
-1.542575
 20
3.238610
  0
VERTEX
  8
PLAN_1
  6
CONTINUOUS
 10
-1.550433
 20
3.231189
  0
VERTEX
  8
PLAN_1
  6
CONTINUOUS
 10
-1.558295
 20
3.222890
  0
VERTEX
  8
PLAN_1
  6
CONTINUOUS
 10
-1.565717
 20
3.214157
  0
VERTEX
  8
PLAN_1
  6
CONTINUOUS
 10
-1.572705
 20
3.205425
  0
VERTEX
  8
PLAN_1
  6
CONTINUOUS
 10
-1.579256
 20
3.196252
  0
VERTEX
  8
PLAN_1
  6
CONTINUOUS
 10
-1.585366
 20
3.186646
  0
VERTEX
  8
PLAN_1
  6
CONTINUOUS
 10
-1.591043
 20
3.176602
  0
VERTEX
  8
PLAN_1
  6
CONTINUOUS
 10
-1.596283
 20
3.166559
  0
VERTEX
  8
PLAN_1
  6
CONTINUOUS
 10
-1.601087
 20
3.156079
  0
VERTEX
  8
PLAN_1
  6
CONTINUOUS
 10
-1.605457
 20
3.145598
  0
VERTEX
  8
PLAN_1
  6
CONTINUOUS
 10
-1.608949
 20
3.134681
  0
VERTEX
  8
PLAN_1
  6
CONTINUOUS
 10
-1.612004
 20
3.123327
  0
VERTEX
  8
PLAN_1
  6
CONTINUOUS
 10
-1.614626
 20
3.111976
  0
VERTEX
  8
PLAN_1
  6
CONTINUOUS
 10
-1.616807
 20
3.100622
  0
VERTEX
  8
PLAN_1
  6
CONTINUOUS
 10
-1.618555
 20
3.088831
  0
VERTEX
  8
PLAN_1
  6
CONTINUOUS
 10
-1.619429
 20
3.076602
  0
VERTEX
  8
PLAN_1
  6
CONTINUOUS
 10
-1.619429
 20
3.064378
  0
VERTEX
  8
PLAN_1
  6
CONTINUOUS
 10
-1.619429
 20
3.051713
  0
VERTEX
  8
PLAN_1
  6
CONTINUOUS
 10
-1.618118
 20
3.039047
  0
VERTEX
  8
PLAN_1
  6
CONTINUOUS
 10
-1.616374
 20
3.026386
  0
VERTEX
  8
PLAN_1
  6
CONTINUOUS
 10
-1.614189
 20
3.014157
  0
VERTEX
  8
PLAN_1
  6
CONTINUOUS
 10
-1.611134
 20
3.001933
  0
VERTEX
  8
PLAN_1
  6
CONTINUOUS
 10
-1.607638
 20
2.990142
  0
VERTEX
  8
PLAN_1
  6
CONTINUOUS
 10
-1.603272
 20
2.978787
  0
VERTEX
  8
PLAN_1
  6
CONTINUOUS
 10
-1.598469
 20
2.967433
  0
VERTEX
  8
PLAN_1
  6
CONTINUOUS
 10
-1.593228
 20
2.956516
  0
VERTEX
  8
PLAN_1
  6
CONTINUOUS
 10
-1.587114
 20
2.945598
  0
VERTEX
  8
PLAN_1
  6
CONTINUOUS
 10
-1.581000
 20
2.935555
  0
VERTEX
  8
PLAN_1
  6
CONTINUOUS
 10
-1.574016
 20
2.925512
  0
VERTEX
  8
PLAN_1
  6
CONTINUOUS
 10
-1.566591
 20
2.915906
  0
VERTEX
  8
PLAN_1
  6
CONTINUOUS
 10
-1.558732
 20
2.906736
  0
VERTEX
  8
PLAN_1
  6
CONTINUOUS
 10
-1.550433
 20
2.898000
  0
VERTEX
  8
PLAN_1
  6
CONTINUOUS
 10
-1.541701
 20
2.889705
  0
SEQEND
  8
0
  0
POLYLINE
  8
PLAN_1
  6
CONTINUOUS
 66
     1
 40
0.008295
 41
0.008295
  0
VERTEX
  8
PLAN_1
  6
CONTINUOUS
 10
-1.541701
 20
2.889705
  0
VERTEX
  8
PLAN_1
  6
CONTINUOUS
 10
-1.541701
 20
3.182717
  0
SEQEND
  8
0
  0
POLYLINE
  8
PLAN_1
  6
CONTINUOUS
 66
     1
 40
0.008295
 41
0.008295
  0
VERTEX
  8
PLAN_1
  6
CONTINUOUS
 10
-1.541701
 20
3.182717
  0
VERTEX
  8
PLAN_1
  6
CONTINUOUS
 10
-1.534713
 20
3.191449
  0
VERTEX
  8
PLAN_1
  6
CONTINUOUS
 10
-1.527291
 20
3.199748
  0
VERTEX
  8
PLAN_1
  6
CONTINUOUS
 10
-1.519429
 20
3.208043
  0
VERTEX
  8
PLAN_1
  6
CONTINUOUS
 10
-1.511134
 20
3.215469
  0
VERTEX
  8
PLAN_1
  6
CONTINUOUS
 10
-1.502398
 20
3.222453
  0
VERTEX
  8
PLAN_1
  6
CONTINUOUS
 10
-1.493228
 20
3.229004
  0
VERTEX
  8
PLAN_1
  6
CONTINUOUS
 10
-1.483622
 20
3.234681
  0
VERTEX
  8
PLAN_1
  6
CONTINUOUS
 10
-1.473579
 20
3.240358
  0
VERTEX
  8
PLAN_1
  6
CONTINUOUS
 10
-1.463535
 20
3.245161
  0
VERTEX
  8
PLAN_1
  6
CONTINUOUS
 10
-1.453055
 20
3.249091
  0
VERTEX
  8
PLAN_1
  6
CONTINUOUS
 10
-1.442138
 20
3.253024
  0
VERTEX
  8
PLAN_1
  6
CONTINUOUS
 10
-1.430783
 20
3.256079
  0
VERTEX
  8
PLAN_1
  6
CONTINUOUS
 10
-1.419429
 20
3.258264
  0
VERTEX
  8
PLAN_1
  6
CONTINUOUS
 10
-1.408075
 20
3.260008
  0
VERTEX
  8
PLAN_1
  6
CONTINUOUS
 10
-1.396283
 20
3.261319
  0
VERTEX
  8
PLAN_1
  6
CONTINUOUS
 10
-1.384059
 20
3.261756
  0
VERTEX
  8
PLAN_1
  6
CONTINUOUS
 10
-1.370957
 20
3.261319
  0
VERTEX
  8
PLAN_1
  6
CONTINUOUS
 10
-1.358732
 20
3.260445
  0
VERTEX
  8
PLAN_1
  6
CONTINUOUS
 10
-1.346504
 20
3.259138
  0
VERTEX
  8
PLAN_1
  6
CONTINUOUS
 10
-1.335150
 20
3.257390
  0
VERTEX
  8
PLAN_1
  6
CONTINUOUS
 10
-1.324232
 20
3.254768
  0
VERTEX
  8
PLAN_1
  6
CONTINUOUS
 10
-1.313752
 20
3.251713
  0
VERTEX
  8
PLAN_1
  6
CONTINUOUS
 10
-1.303709
 20
3.247783
  0
VERTEX
  8
PLAN_1
  6
CONTINUOUS
 10
-1.294102
 20
3.243417
  0
VERTEX
  8
PLAN_1
  6
CONTINUOUS
 10
-1.284933
 20
3.238173
  0
VERTEX
  8
PLAN_1
  6
CONTINUOUS
 10
-1.275760
 20
3.232500
  0
VERTEX
  8
PLAN_1
  6
CONTINUOUS
 10
-1.267028
 20
3.225949
  0
VERTEX
  8
PLAN_1
  6
CONTINUOUS
 10
-1.258732
 20
3.218524
  0
VERTEX
  8
PLAN_1
  6
CONTINUOUS
 10
-1.250433
 20
3.210665
  0
VERTEX
  8
PLAN_1
  6
CONTINUOUS
 10
-1.242138
 20
3.201929
  0
VERTEX
  8
PLAN_1
  6
CONTINUOUS
 10
-1.233839
 20
3.192323
  0
VERTEX
  8
PLAN_1
  6
CONTINUOUS
 10
-1.225980
 20
3.181843
  0
SEQEND
  8
0
  0
POLYLINE
  8
PLAN_1
  6
CONTINUOUS
 66
     1
 40
0.008295
 41
0.008295
  0
VERTEX
  8
PLAN_1
  6
CONTINUOUS
 10
-1.225980
 20
3.181843
  0
VERTEX
  8
PLAN_1
  6
CONTINUOUS
 10
-1.226417
 20
2.890142
  0
SEQEND
  8
0
  0
POLYLINE
  8
PLAN_1
  6
CONTINUOUS
 66
     1
 40
0.008295
 41
0.008295
  0
VERTEX
  8
PLAN_1
  6
CONTINUOUS
 10
-1.226417
 20
2.890142
  0
VERTEX
  8
PLAN_1
  6
CONTINUOUS
 10
-1.226854
 20
2.757827
  0
VERTEX
  8
PLAN_1
  6
CONTINUOUS
 10
-1.198031
 20
2.757827
  0
VERTEX
  8
PLAN_1
  6
CONTINUOUS
 10
-1.198031
 20
2.714157
  0
SEQEND
  8
0
  0
POLYLINE
  8
PLAN_1
  6
CONTINUOUS
 66
     1
 40
0.008295
 41
0.008295
  0
VERTEX
  8
PLAN_1
  6
CONTINUOUS
 10
-1.541701
 20
2.889705
  0
VERTEX
  8
PLAN_1
  6
CONTINUOUS
 10
-1.541264
 20
2.757827
  0
VERTEX
  8
PLAN_1
  6
CONTINUOUS
 10
-1.566591
 20
2.757827
  0
VERTEX
  8
PLAN_1
  6
CONTINUOUS
 10
-1.566154
 20
2.714157
  0
SEQEND
  8
0
  0
POLYLINE
  8
PLAN_1
  6
CONTINUOUS
 66
     1
 40
0.008295
 41
0.008295
  0
VERTEX
  8
PLAN_1
  6
CONTINUOUS
 10
-1.381437
 20
2.975728
  0
VERTEX
  8
PLAN_1
  6
CONTINUOUS
 10
-1.386240
 20
2.976165
  0
VERTEX
  8
PLAN_1
  6
CONTINUOUS
 10
-1.390610
 20
2.976602
  0
VERTEX
  8
PLAN_1
  6
CONTINUOUS
 10
-1.394976
 20
2.977476
  0
VERTEX
  8
PLAN_1
  6
CONTINUOUS
 10
-1.399343
 20
2.978350
  0
VERTEX
  8
PLAN_1
  6
CONTINUOUS
 10
-1.403709
 20
2.979661
  0
VERTEX
  8
PLAN_1
  6
CONTINUOUS
 10
-1.407638
 20
2.980969
  0
VERTEX
  8
PLAN_1
  6
CONTINUOUS
 10
-1.412008
 20
2.983154
  0
VERTEX
  8
PLAN_1
  6
CONTINUOUS
 10
-1.415937
 20
2.985339
  0
VERTEX
  8
PLAN_1
  6
CONTINUOUS
 10
-1.419866
 20
2.987520
  0
VERTEX
  8
PLAN_1
  6
CONTINUOUS
 10
-1.423795
 20
2.990142
  0
VERTEX
  8
PLAN_1
  6
CONTINUOUS
 10
-1.427291
 20
2.992760
  0
VERTEX
  8
PLAN_1
  6
CONTINUOUS
 10
-1.430783
 20
2.995819
  0
VERTEX
  8
PLAN_1
  6
CONTINUOUS
 10
-1.434276
 20
2.999311
  0
VERTEX
  8
PLAN_1
  6
CONTINUOUS
 10
-1.437772
 20
3.002803
  0
VERTEX
  8
PLAN_1
  6
CONTINUOUS
 10
-1.440827
 20
3.006299
  0
VERTEX
  8
PLAN_1
  6
CONTINUOUS
 10
-1.443882
 20
3.010228
  0
VERTEX
  8
PLAN_1
  6
CONTINUOUS
 10
-1.446941
 20
3.014157
  0
VERTEX
  8
PLAN_1
  6
CONTINUOUS
 10
-1.449559
 20
3.018524
  0
VERTEX
  8
PLAN_1
  6
CONTINUOUS
 10
-1.452181
 20
3.022894
  0
VERTEX
  8
PLAN_1
  6
CONTINUOUS
 10
-1.454799
 20
3.027697
  0
VERTEX
  8
PLAN_1
  6
CONTINUOUS
 10
-1.456984
 20
3.032500
  0
VERTEX
  8
PLAN_1
  6
CONTINUOUS
 10
-1.459169
 20
3.037303
  0
VERTEX
  8
PLAN_1
  6
CONTINUOUS
 10
-1.460913
 20
3.042543
  0
VERTEX
  8
PLAN_1
  6
CONTINUOUS
 10
-1.462661
 20
3.047783
  0
VERTEX
  8
PLAN_1
  6
CONTINUOUS
 10
-1.464409
 20
3.053024
  0
VERTEX
  8
PLAN_1
  6
CONTINUOUS
 10
-1.465717
 20
3.058264
  0
VERTEX
  8
PLAN_1
  6
CONTINUOUS
 10
-1.467028
 20
3.063941
  0
VERTEX
  8
PLAN_1
  6
CONTINUOUS
 10
-1.467902
 20
3.069618
  0
VERTEX
  8
PLAN_1
  6
CONTINUOUS
 10
-1.468776
 20
3.075295
  0
VERTEX
  8
PLAN_1
  6
CONTINUOUS
 10
-1.469213
 20
3.081406
  0
VERTEX
  8
PLAN_1
  6
CONTINUOUS
 10
-1.469650
 20
3.087083
  0
VERTEX
  8
PLAN_1
  6
CONTINUOUS
 10
-1.469650
 20
3.093197
  0
VERTEX
  8
PLAN_1
  6
CONTINUOUS
 10
-1.469650
 20
3.099311
  0
VERTEX
  8
PLAN_1
  6
CONTINUOUS
 10
-1.469213
 20
3.105425
  0
VERTEX
  8
PLAN_1
  6
CONTINUOUS
 10
-1.468776
 20
3.111102
  0
VERTEX
  8
PLAN_1
  6
CONTINUOUS
 10
-1.467902
 20
3.116780
  0
VERTEX
  8
PLAN_1
  6
CONTINUOUS
 10
-1.467028
 20
3.122457
  0
VERTEX
  8
PLAN_1
  6
CONTINUOUS
 10
-1.465717
 20
3.128130
  0
VERTEX
  8
PLAN_1
  6
CONTINUOUS
 10
-1.464409
 20
3.133807
  0
VERTEX
  8
PLAN_1
  6
CONTINUOUS
 10
-1.462661
 20
3.139047
  0
VERTEX
  8
PLAN_1
  6
CONTINUOUS
 10
-1.460913
 20
3.144287
  0
VERTEX
  8
PLAN_1
  6
CONTINUOUS
 10
-1.459169
 20
3.149091
  0
VERTEX
  8
PLAN_1
  6
CONTINUOUS
 10
-1.456984
 20
3.154331
  0
VERTEX
  8
PLAN_1
  6
CONTINUOUS
 10
-1.454799
 20
3.159138
  0
VERTEX
  8
PLAN_1
  6
CONTINUOUS
 10
-1.452181
 20
3.163504
  0
VERTEX
  8
PLAN_1
  6
CONTINUOUS
 10
-1.449559
 20
3.167870
  0
VERTEX
  8
PLAN_1
  6
CONTINUOUS
 10
-1.446941
 20
3.172236
  0
VERTEX
  8
PLAN_1
  6
CONTINUOUS
 10
-1.443882
 20
3.176165
  0
VERTEX
  8
PLAN_1
  6
CONTINUOUS
 10
-1.440827
 20
3.180098
  0
VERTEX
  8
PLAN_1
  6
CONTINUOUS
 10
-1.437772
 20
3.184028
  0
VERTEX
  8
PLAN_1
  6
CONTINUOUS
 10
-1.434276
 20
3.187520
  0
VERTEX
  8
PLAN_1
  6
CONTINUOUS
 10
-1.430783
 20
3.190579
  0
VERTEX
  8
PLAN_1
  6
CONTINUOUS
 10
-1.427291
 20
3.193634
  0
VERTEX
  8
PLAN_1
  6
CONTINUOUS
 10
-1.423795
 20
3.196689
  0
VERTEX
  8
PLAN_1
  6
CONTINUOUS
 10
-1.419866
 20
3.199311
  0
VERTEX
  8
PLAN_1
  6
CONTINUOUS
 10
-1.415937
 20
3.201492
  0
VERTEX
  8
PLAN_1
  6
CONTINUOUS
 10
-1.412008
 20
3.203677
  0
VERTEX
  8
PLAN_1
  6
CONTINUOUS
 10
-1.407638
 20
3.205425
  0
VERTEX
  8
PLAN_1
  6
CONTINUOUS
 10
-1.403709
 20
3.207169
  0
VERTEX
  8
PLAN_1
  6
CONTINUOUS
 10
-1.399343
 20
3.208480
  0
VERTEX
  8
PLAN_1
  6
CONTINUOUS
 10
-1.394976
 20
3.209354
  0
VERTEX
  8
PLAN_1
  6
CONTINUOUS
 10
-1.390610
 20
3.210228
  0
VERTEX
  8
PLAN_1
  6
CONTINUOUS
 10
-1.386240
 20
3.210665
  0
VERTEX
  8
PLAN_1
  6
CONTINUOUS
 10
-1.381437
 20
3.210665
  0
VERTEX
  8
PLAN_1
  6
CONTINUOUS
 10
-1.377071
 20
3.210665
  0
VERTEX
  8
PLAN_1
  6
CONTINUOUS
 10
-1.372705
 20
3.210228
  0
VERTEX
  8
PLAN_1
  6
CONTINUOUS
 10
-1.368339
 20
3.209354
  0
VERTEX
  8
PLAN_1
  6
CONTINUOUS
 10
-1.363972
 20
3.208480
  0
VERTEX
  8
PLAN_1
  6
CONTINUOUS
 10
-1.359602
 20
3.207169
  0
VERTEX
  8
PLAN_1
  6
CONTINUOUS
 10
-1.355673
 20
3.205425
  0
VERTEX
  8
PLAN_1
  6
CONTINUOUS
 10
-1.351307
 20
3.203677
  0
VERTEX
  8
PLAN_1
  6
CONTINUOUS
 10
-1.347378
 20
3.201492
  0
VERTEX
  8
PLAN_1
  6
CONTINUOUS
 10
-1.343449
 20
3.199311
  0
VERTEX
  8
PLAN_1
  6
CONTINUOUS
 10
-1.339516
 20
3.196689
  0
VERTEX
  8
PLAN_1
  6
CONTINUOUS
 10
-1.336024
 20
3.193634
  0
VERTEX
  8
PLAN_1
  6
CONTINUOUS
 10
-1.332531
 20
3.190579
  0
VERTEX
  8
PLAN_1
  6
CONTINUOUS
 10
-1.329035
 20
3.187520
  0
VERTEX
  8
PLAN_1
  6
CONTINUOUS
 10
-1.325543
 20
3.184028
  0
VERTEX
  8
PLAN_1
  6
CONTINUOUS
 10
-1.322488
 20
3.180098
  0
VERTEX
  8
PLAN_1
  6
CONTINUOUS
 10
-1.319429
 20
3.176165
  0
VERTEX
  8
PLAN_1
  6
CONTINUOUS
 10
-1.316374
 20
3.172236
  0
VERTEX
  8
PLAN_1
  6
CONTINUOUS
 10
-1.313752
 20
3.167870
  0
VERTEX
  8
PLAN_1
  6
CONTINUOUS
 10
-1.311134
 20
3.163504
  0
VERTEX
  8
PLAN_1
  6
CONTINUOUS
 10
-1.308512
 20
3.159138
  0
VERTEX
  8
PLAN_1
  6
CONTINUOUS
 10
-1.304146
 20
3.149091
  0
VERTEX
  8
PLAN_1
  6
CONTINUOUS
 10
-1.300654
 20
3.139047
  0
VERTEX
  8
PLAN_1
  6
CONTINUOUS
 10
-1.297594
 20
3.128130
  0
VERTEX
  8
PLAN_1
  6
CONTINUOUS
 10
-1.295413
 20
3.116780
  0
VERTEX
  8
PLAN_1
  6
CONTINUOUS
 10
-1.294539
 20
3.111102
  0
VERTEX
  8
PLAN_1
  6
CONTINUOUS
 10
-1.294102
 20
3.105425
  0
VERTEX
  8
PLAN_1
  6
CONTINUOUS
 10
-1.293665
 20
3.099311
  0
VERTEX
  8
PLAN_1
  6
CONTINUOUS
 10
-1.293665
 20
3.093197
  0
VERTEX
  8
PLAN_1
  6
CONTINUOUS
 10
-1.293665
 20
3.087083
  0
VERTEX
  8
PLAN_1
  6
CONTINUOUS
 10
-1.294102
 20
3.081406
  0
VERTEX
  8
PLAN_1
  6
CONTINUOUS
 10
-1.294539
 20
3.075295
  0
VERTEX
  8
PLAN_1
  6
CONTINUOUS
 10
-1.295413
 20
3.069618
  0
VERTEX
  8
PLAN_1
  6
CONTINUOUS
 10
-1.296287
 20
3.063941
  0
VERTEX
  8
PLAN_1
  6
CONTINUOUS
 10
-1.297594
 20
3.058264
  0
VERTEX
  8
PLAN_1
  6
CONTINUOUS
 10
-1.298906
 20
3.053024
  0
VERTEX
  8
PLAN_1
  6
CONTINUOUS
 10
-1.300654
 20
3.047783
  0
VERTEX
  8
PLAN_1
  6
CONTINUOUS
 10
-1.304146
 20
3.037303
  0
VERTEX
  8
PLAN_1
  6
CONTINUOUS
 10
-1.308512
 20
3.027697
  0
VERTEX
  8
PLAN_1
  6
CONTINUOUS
 10
-1.311134
 20
3.022894
  0
VERTEX
  8
PLAN_1
  6
CONTINUOUS
 10
-1.313752
 20
3.018524
  0
VERTEX
  8
PLAN_1
  6
CONTINUOUS
 10
-1.316374
 20
3.014157
  0
VERTEX
  8
PLAN_1
  6
CONTINUOUS
 10
-1.319429
 20
3.010228
  0
VERTEX
  8
PLAN_1
  6
CONTINUOUS
 10
-1.322488
 20
3.006299
  0
VERTEX
  8
PLAN_1
  6
CONTINUOUS
 10
-1.325543
 20
3.002803
  0
VERTEX
  8
PLAN_1
  6
CONTINUOUS
 10
-1.329035
 20
2.999311
  0
VERTEX
  8
PLAN_1
  6
CONTINUOUS
 10
-1.332531
 20
2.995819
  0
VERTEX
  8
PLAN_1
  6
CONTINUOUS
 10
-1.336024
 20
2.992760
  0
VERTEX
  8
PLAN_1
  6
CONTINUOUS
 10
-1.339516
 20
2.990142
  0
VERTEX
  8
PLAN_1
  6
CONTINUOUS
 10
-1.343449
 20
2.987520
  0
VERTEX
  8
PLAN_1
  6
CONTINUOUS
 10
-1.347378
 20
2.985339
  0
VERTEX
  8
PLAN_1
  6
CONTINUOUS
 10
-1.351307
 20
2.983154
  0
VERTEX
  8
PLAN_1
  6
CONTINUOUS
 10
-1.355673
 20
2.980969
  0
VERTEX
  8
PLAN_1
  6
CONTINUOUS
 10
-1.359602
 20
2.979661
  0
VERTEX
  8
PLAN_1
  6
CONTINUOUS
 10
-1.363972
 20
2.978350
  0
VERTEX
  8
PLAN_1
  6
CONTINUOUS
 10
-1.368339
 20
2.977476
  0
VERTEX
  8
PLAN_1
  6
CONTINUOUS
 10
-1.372705
 20
2.976602
  0
VERTEX
  8
PLAN_1
  6
CONTINUOUS
 10
-1.377071
 20
2.976165
  0
VERTEX
  8
PLAN_1
  6
CONTINUOUS
 10
-1.381437
 20
2.975728
  0
SEQEND
  8
0
  0
POLYLINE
  8
PLAN_1
  6
CONTINUOUS
 66
     1
 40
0.008295
 41
0.008295
  0
VERTEX
  8
PLAN_1
  6
CONTINUOUS
 10
-1.384933
 20
3.175291
  0
VERTEX
  8
PLAN_1
  6
CONTINUOUS
 10
-1.315937
 20
3.140795
  0
VERTEX
  8
PLAN_1
  6
CONTINUOUS
 10
-1.315937
 20
3.047346
  0
VERTEX
  8
PLAN_1
  6
CONTINUOUS
 10
-1.378382
 20
3.009354
  0
VERTEX
  8
PLAN_1
  6
CONTINUOUS
 10
-1.450870
 20
3.040358
  0
VERTEX
  8
PLAN_1
  6
CONTINUOUS
 10
-1.450870
 20
3.137303
  0
VERTEX
  8
PLAN_1
  6
CONTINUOUS
 10
-1.384933
 20
3.175291
  0
SEQEND
  8
0
  0
POLYLINE
  8
PLAN_1
  6
CONTINUOUS
 66
     1
 40
0.008295
 41
0.008295
  0
VERTEX
  8
PLAN_1
  6
CONTINUOUS
 10
-1.099343
 20
2.394945
  0
VERTEX
  8
PLAN_1
  6
CONTINUOUS
 10
-1.035587
 20
2.428571
  0
SEQEND
  8
0
  0
POLYLINE
  8
PLAN_1
  6
CONTINUOUS
 66
     1
 40
0.008295
 41
0.008295
  0
VERTEX
  8
PLAN_1
  6
CONTINUOUS
 10
-1.035587
 20
2.428571
  0
VERTEX
  8
PLAN_1
  6
CONTINUOUS
 10
-1.028602
 20
2.432500
  0
VERTEX
  8
PLAN_1
  6
CONTINUOUS
 10
-1.022051
 20
2.436866
  0
VERTEX
  8
PLAN_1
  6
CONTINUOUS
 10
-1.015937
 20
2.441669
  0
VERTEX
  8
PLAN_1
  6
CONTINUOUS
 10
-1.009823
 20
2.446909
  0
VERTEX
  8
PLAN_1
  6
CONTINUOUS
 10
-1.004146
 20
2.452587
  0
VERTEX
  8
PLAN_1
  6
CONTINUOUS
 10
-0.998906
 20
2.458701
  0
VERTEX
  8
PLAN_1
  6
CONTINUOUS
 10
-0.994102
 20
2.465252
  0
VERTEX
  8
PLAN_1
  6
CONTINUOUS
 10
-0.989736
 20
2.471803
  0
VERTEX
  8
PLAN_1
  6
CONTINUOUS
 10
-0.985807
 20
2.478787
  0
VERTEX
  8
PLAN_1
  6
CONTINUOUS
 10
-0.982311
 20
2.485776
  0
VERTEX
  8
PLAN_1
  6
CONTINUOUS
 10
-0.979256
 20
2.493634
  0
VERTEX
  8
PLAN_1
  6
CONTINUOUS
 10
-0.977071
 20
2.501059
  0
VERTEX
  8
PLAN_1
  6
CONTINUOUS
 10
-0.974890
 20
2.509354
  0
VERTEX
  8
PLAN_1
  6
CONTINUOUS
 10
-0.973579
 20
2.517217
  0
VERTEX
  8
PLAN_1
  6
CONTINUOUS
 10
-0.972705
 20
2.525512
  0
VERTEX
  8
PLAN_1
  6
CONTINUOUS
 10
-0.972268
 20
2.534248
  0
VERTEX
  8
PLAN_1
  6
CONTINUOUS
 10
-0.972705
 20
2.541669
  0
VERTEX
  8
PLAN_1
  6
CONTINUOUS
 10
-0.973142
 20
2.549094
  0
VERTEX
  8
PLAN_1
  6
CONTINUOUS
 10
-0.974453
 20
2.556079
  0
VERTEX
  8
PLAN_1
  6
CONTINUOUS
 10
-0.976201
 20
2.562630
  0
VERTEX
  8
PLAN_1
  6
CONTINUOUS
 10
-0.977945
 20
2.568744
  0
VERTEX
  8
PLAN_1
  6
CONTINUOUS
 10
-0.980567
 20
2.574858
  0
VERTEX
  8
PLAN_1
  6
CONTINUOUS
 10
-0.983622
 20
2.580535
  0
VERTEX
  8
PLAN_1
  6
CONTINUOUS
 10
-0.986681
 20
2.585776
  0
VERTEX
  8
PLAN_1
  6
CONTINUOUS
 10
-0.990173
 20
2.591016
  0
VERTEX
  8
PLAN_1
  6
CONTINUOUS
 10
-0.994539
 20
2.596256
  0
VERTEX
  8
PLAN_1
  6
CONTINUOUS
 10
-0.998906
 20
2.601059
  0
VERTEX
  8
PLAN_1
  6
CONTINUOUS
 10
-1.003272
 20
2.605425
  0
VERTEX
  8
PLAN_1
  6
CONTINUOUS
 10
-1.008512
 20
2.610228
  0
VERTEX
  8
PLAN_1
  6
CONTINUOUS
 10
-1.013752
 20
2.614594
  0
VERTEX
  8
PLAN_1
  6
CONTINUOUS
 10
-1.019429
 20
2.618528
  0
VERTEX
  8
PLAN_1
  6
CONTINUOUS
 10
-1.025106
 20
2.622894
  0
SEQEND
  8
0
  0
POLYLINE
  8
PLAN_1
  6
CONTINUOUS
 66
     1
 40
0.008295
 41
0.008295
  0
VERTEX
  8
PLAN_1
  6
CONTINUOUS
 10
-1.025106
 20
2.622894
  0
VERTEX
  8
PLAN_1
  6
CONTINUOUS
 10
-1.198469
 20
2.691016
  0
VERTEX
  8
PLAN_1
  6
CONTINUOUS
 10
-1.196724
 20
2.714157
  0
VERTEX
  8
PLAN_1
  6
CONTINUOUS
 10
-1.567902
 20
2.714157
  0
VERTEX
  8
PLAN_1
  6
CONTINUOUS
 10
-1.567902
 20
2.685339
  0
VERTEX
  8
PLAN_1
  6
CONTINUOUS
 10
-1.742575
 20
2.618961
  0
SEQEND
  8
0
  0
POLYLINE
  8
PLAN_1
  6
CONTINUOUS
 66
     1
 40
0.008295
 41
0.008295
  0
VERTEX
  8
PLAN_1
  6
CONTINUOUS
 10
-1.742575
 20
2.618961
  0
VERTEX
  8
PLAN_1
  6
CONTINUOUS
 10
-1.748685
 20
2.615031
  0
VERTEX
  8
PLAN_1
  6
CONTINUOUS
 10
-1.753925
 20
2.611102
  0
VERTEX
  8
PLAN_1
  6
CONTINUOUS
 10
-1.759165
 20
2.606736
  0
VERTEX
  8
PLAN_1
  6
CONTINUOUS
 10
-1.763969
 20
2.602370
  0
VERTEX
  8
PLAN_1
  6
CONTINUOUS
 10
-1.768339
 20
2.598000
  0
VERTEX
  8
PLAN_1
  6
CONTINUOUS
 10
-1.772268
 20
2.593634
  0
VERTEX
  8
PLAN_1
  6
CONTINUOUS
 10
-1.776197
 20
2.588831
  0
VERTEX
  8
PLAN_1
  6
CONTINUOUS
 10
-1.779256
 20
2.584028
  0
VERTEX
  8
PLAN_1
  6
CONTINUOUS
 10
-1.782311
 20
2.578787
  0
VERTEX
  8
PLAN_1
  6
CONTINUOUS
 10
-1.784929
 20
2.573547
  0
VERTEX
  8
PLAN_1
  6
CONTINUOUS
 10
-1.787114
 20
2.567870
  0
VERTEX
  8
PLAN_1
  6
CONTINUOUS
 10
-1.788862
 20
2.561756
  0
VERTEX
  8
PLAN_1
  6
CONTINUOUS
 10
-1.790169
 20
2.555646
  0
VERTEX
  8
PLAN_1
  6
CONTINUOUS
 10
-1.791043
 20
2.548657
  0
VERTEX
  8
PLAN_1
  6
CONTINUOUS
 10
-1.791917
 20
2.541669
  0
VERTEX
  8
PLAN_1
  6
CONTINUOUS
 10
-1.791917
 20
2.534248
  0
VERTEX
  8
PLAN_1
  6
CONTINUOUS
 10
-1.791917
 20
2.525949
  0
VERTEX
  8
PLAN_1
  6
CONTINUOUS
 10
-1.791043
 20
2.517654
  0
VERTEX
  8
PLAN_1
  6
CONTINUOUS
 10
-1.790169
 20
2.509791
  0
VERTEX
  8
PLAN_1
  6
CONTINUOUS
 10
-1.788862
 20
2.502370
  0
VERTEX
  8
PLAN_1
  6
CONTINUOUS
 10
-1.786677
 20
2.495382
  0
VERTEX
  8
PLAN_1
  6
CONTINUOUS
 10
-1.784496
 20
2.488394
  0
VERTEX
  8
PLAN_1
  6
CONTINUOUS
 10
-1.781874
 20
2.482283
  0
VERTEX
  8
PLAN_1
  6
CONTINUOUS
 10
-1.778819
 20
2.475732
  0
VERTEX
  8
PLAN_1
  6
CONTINUOUS
 10
-1.774886
 20
2.470055
  0
VERTEX
  8
PLAN_1
  6
CONTINUOUS
 10
-1.770957
 20
2.464378
  0
VERTEX
  8
PLAN_1
  6
CONTINUOUS
 10
-1.766591
 20
2.459138
  0
VERTEX
  8
PLAN_1
  6
CONTINUOUS
 10
-1.761350
 20
2.454335
  0
VERTEX
  8
PLAN_1
  6
CONTINUOUS
 10
-1.756110
 20
2.449531
  0
VERTEX
  8
PLAN_1
  6
CONTINUOUS
 10
-1.750433
 20
2.445165
  0
VERTEX
  8
PLAN_1
  6
CONTINUOUS
 10
-1.743882
 20
2.440795
  0
VERTEX
  8
PLAN_1
  6
CONTINUOUS
 10
-1.736898
 20
2.436866
  0
SEQEND
  8
0
  0
POLYLINE
  8
PLAN_1
  6
CONTINUOUS
 66
     1
 40
0.008295
 41
0.008295
  0
VERTEX
  8
PLAN_1
  6
CONTINUOUS
 10
-1.736898
 20
2.436866
  0
VERTEX
  8
PLAN_1
  6
CONTINUOUS
 10
-1.664843
 20
2.394945
  0
VERTEX
  8
PLAN_1
  6
CONTINUOUS
 10
-1.099343
 20
2.394945
  0
SEQEND
  8
0
  0
POLYLINE
  8
PLAN_1
  6
CONTINUOUS
 66
     1
 40
0.004366
 41
0.004366
  0
VERTEX
  8
PLAN_1
  6
CONTINUOUS
 10
-1.701087
 20
2.606299
  0
VERTEX
  8
PLAN_1
  6
CONTINUOUS
 10
-1.077508
 20
2.606299
  0
SEQEND
  8
0
  0
POLYLINE
  8
PLAN_1
  6
CONTINUOUS
 66
     1
 40
0.004366
 41
0.004366
  0
VERTEX
  8
PLAN_1
  6
CONTINUOUS
 10
-1.563972
 20
2.685339
  0
VERTEX
  8
PLAN_1
  6
CONTINUOUS
 10
-1.189299
 20
2.685339
  0
SEQEND
  8
0
  0
POLYLINE
  8
PLAN_1
 62
     5
  6
CONTINUOUS
 66
     1
 40
0.003000
 41
0.003000
  0
VERTEX
  8
PLAN_1
 62
     5
  6
CONTINUOUS
 10
-2.178815
 20
0.884906
  0
VERTEX
  8
PLAN_1
 62
     5
  6
CONTINUOUS
 10
-2.178815
 20
0.893201
  0
SEQEND
  8
0
  0
POLYLINE
  8
PLAN_1
 62
     5
  6
CONTINUOUS
 66
     1
 40
0.003000
 41
0.003000
  0
VERTEX
  8
PLAN_1
 62
     5
  6
CONTINUOUS
 10
-2.178815
 20
0.901937
  0
VERTEX
  8
PLAN_1
 62
     5
  6
CONTINUOUS
 10
-2.178815
 20
0.910232
  0
SEQEND
  8
0
  0
POLYLINE
  8
PLAN_1
 62
     5
  6
CONTINUOUS
 66
     1
 40
0.003000
 41
0.003000
  0
VERTEX
  8
PLAN_1
 62
     5
  6
CONTINUOUS
 10
-2.178815
 20
0.918528
  0
VERTEX
  8
PLAN_1
 62
     5
  6
CONTINUOUS
 10
-2.178815
 20
0.926827
  0
SEQEND
  8
0
  0
POLYLINE
  8
PLAN_1
 62
     5
  6
CONTINUOUS
 66
     1
 40
0.003000
 41
0.003000
  0
VERTEX
  8
PLAN_1
 62
     5
  6
CONTINUOUS
 10
-2.178815
 20
0.935122
  0
VERTEX
  8
PLAN_1
 62
     5
  6
CONTINUOUS
 10
-2.178815
 20
0.943421
  0
SEQEND
  8
0
  0
POLYLINE
  8
PLAN_1
 62
     5
  6
CONTINUOUS
 66
     1
 40
0.003000
 41
0.003000
  0
VERTEX
  8
PLAN_1
 62
     5
  6
CONTINUOUS
 10
-2.178815
 20
0.951717
  0
VERTEX
  8
PLAN_1
 62
     5
  6
CONTINUOUS
 10
-2.178815
 20
0.960016
  0
SEQEND
  8
0
  0
POLYLINE
  8
PLAN_1
 62
     5
  6
CONTINUOUS
 66
     1
 40
0.003000
 41
0.003000
  0
VERTEX
  8
PLAN_1
 62
     5
  6
CONTINUOUS
 10
-2.178815
 20
0.968311
  0
VERTEX
  8
PLAN_1
 62
     5
  6
CONTINUOUS
 10
-2.178815
 20
0.976606
  0
SEQEND
  8
0
  0
POLYLINE
  8
PLAN_1
 62
     5
  6
CONTINUOUS
 66
     1
 40
0.003000
 41
0.003000
  0
VERTEX
  8
PLAN_1
 62
     5
  6
CONTINUOUS
 10
-2.178815
 20
0.984906
  0
VERTEX
  8
PLAN_1
 62
     5
  6
CONTINUOUS
 10
-2.178815
 20
0.993201
  0
SEQEND
  8
0
  0
POLYLINE
  8
PLAN_1
 62
     5
  6
CONTINUOUS
 66
     1
 40
0.003000
 41
0.003000
  0
VERTEX
  8
PLAN_1
 62
     5
  6
CONTINUOUS
 10
-2.178815
 20
1.001500
  0
VERTEX
  8
PLAN_1
 62
     5
  6
CONTINUOUS
 10
-2.178815
 20
1.009795
  0
SEQEND
  8
0
  0
POLYLINE
  8
PLAN_1
 62
     5
  6
CONTINUOUS
 66
     1
 40
0.003000
 41
0.003000
  0
VERTEX
  8
PLAN_1
 62
     5
  6
CONTINUOUS
 10
-2.178815
 20
1.018528
  0
VERTEX
  8
PLAN_1
 62
     5
  6
CONTINUOUS
 10
-2.178815
 20
1.026827
  0
SEQEND
  8
0
  0
POLYLINE
  8
PLAN_1
 62
     5
  6
CONTINUOUS
 66
     1
 40
0.003000
 41
0.003000
  0
VERTEX
  8
PLAN_1
 62
     5
  6
CONTINUOUS
 10
-2.178815
 20
1.035122
  0
VERTEX
  8
PLAN_1
 62
     5
  6
CONTINUOUS
 10
-2.178815
 20
1.043421
  0
SEQEND
  8
0
  0
POLYLINE
  8
PLAN_1
 62
     5
  6
CONTINUOUS
 66
     1
 40
0.003000
 41
0.003000
  0
VERTEX
  8
PLAN_1
 62
     5
  6
CONTINUOUS
 10
-2.178815
 20
1.051717
  0
VERTEX
  8
PLAN_1
 62
     5
  6
CONTINUOUS
 10
-2.178815
 20
1.060012
  0
SEQEND
  8
0
  0
POLYLINE
  8
PLAN_1
 62
     5
  6
CONTINUOUS
 66
     1
 40
0.003000
 41
0.003000
  0
VERTEX
  8
PLAN_1
 62
     5
  6
CONTINUOUS
 10
-2.178815
 20
1.068311
  0
VERTEX
  8
PLAN_1
 62
     5
  6
CONTINUOUS
 10
-2.178815
 20
1.076606
  0
SEQEND
  8
0
  0
POLYLINE
  8
PLAN_1
 62
     5
  6
CONTINUOUS
 66
     1
 40
0.003000
 41
0.003000
  0
VERTEX
  8
PLAN_1
 62
     5
  6
CONTINUOUS
 10
-2.178815
 20
1.084906
  0
VERTEX
  8
PLAN_1
 62
     5
  6
CONTINUOUS
 10
-2.178815
 20
1.093201
  0
SEQEND
  8
0
  0
POLYLINE
  8
PLAN_1
 62
     5
  6
CONTINUOUS
 66
     1
 40
0.003000
 41
0.003000
  0
VERTEX
  8
PLAN_1
 62
     5
  6
CONTINUOUS
 10
-2.178815
 20
1.101500
  0
VERTEX
  8
PLAN_1
 62
     5
  6
CONTINUOUS
 10
-2.178815
 20
1.109795
  0
SEQEND
  8
0
  0
POLYLINE
  8
PLAN_1
 62
     5
  6
CONTINUOUS
 66
     1
 40
0.003000
 41
0.003000
  0
VERTEX
  8
PLAN_1
 62
     5
  6
CONTINUOUS
 10
-2.178815
 20
1.118091
  0
VERTEX
  8
PLAN_1
 62
     5
  6
CONTINUOUS
 10
-2.178815
 20
1.126390
  0
SEQEND
  8
0
  0
POLYLINE
  8
PLAN_1
 62
     5
  6
CONTINUOUS
 66
     1
 40
0.003000
 41
0.003000
  0
VERTEX
  8
PLAN_1
 62
     5
  6
CONTINUOUS
 10
-2.178815
 20
1.135122
  0
VERTEX
  8
PLAN_1
 62
     5
  6
CONTINUOUS
 10
-2.178815
 20
1.143421
  0
SEQEND
  8
0
  0
POLYLINE
  8
PLAN_1
 62
     5
  6
CONTINUOUS
 66
     1
 40
0.003000
 41
0.003000
  0
VERTEX
  8
PLAN_1
 62
     5
  6
CONTINUOUS
 10
-2.178815
 20
1.151717
  0
VERTEX
  8
PLAN_1
 62
     5
  6
CONTINUOUS
 10
-2.178815
 20
1.160012
  0
SEQEND
  8
0
  0
POLYLINE
  8
PLAN_1
 62
     5
  6
CONTINUOUS
 66
     1
 40
0.003000
 41
0.003000
  0
VERTEX
  8
PLAN_1
 62
     5
  6
CONTINUOUS
 10
-2.178815
 20
1.168311
  0
VERTEX
  8
PLAN_1
 62
     5
  6
CONTINUOUS
 10
-2.178815
 20
1.176606
  0
SEQEND
  8
0
  0
POLYLINE
  8
PLAN_1
 62
     5
  6
CONTINUOUS
 66
     1
 40
0.003000
 41
0.003000
  0
VERTEX
  8
PLAN_1
 62
     5
  6
CONTINUOUS
 10
-2.178815
 20
1.184906
  0
VERTEX
  8
PLAN_1
 62
     5
  6
CONTINUOUS
 10
-2.178815
 20
1.193201
  0
SEQEND
  8
0
  0
POLYLINE
  8
PLAN_1
 62
     5
  6
CONTINUOUS
 66
     1
 40
0.003000
 41
0.003000
  0
VERTEX
  8
PLAN_1
 62
     5
  6
CONTINUOUS
 10
-2.178815
 20
1.201500
  0
VERTEX
  8
PLAN_1
 62
     5
  6
CONTINUOUS
 10
-2.178815
 20
1.209795
  0
SEQEND
  8
0
  0
POLYLINE
  8
PLAN_1
 62
     5
  6
CONTINUOUS
 66
     1
 40
0.003000
 41
0.003000
  0
VERTEX
  8
PLAN_1
 62
     5
  6
CONTINUOUS
 10
-2.178815
 20
1.218091
  0
VERTEX
  8
PLAN_1
 62
     5
  6
CONTINUOUS
 10
-2.178815
 20
1.226390
  0
SEQEND
  8
0
  0
POLYLINE
  8
PLAN_1
 62
     5
  6
CONTINUOUS
 66
     1
 40
0.003000
 41
0.003000
  0
VERTEX
  8
PLAN_1
 62
     5
  6
CONTINUOUS
 10
-2.178815
 20
1.234685
  0
VERTEX
  8
PLAN_1
 62
     5
  6
CONTINUOUS
 10
-2.178815
 20
1.242984
  0
SEQEND
  8
0
  0
POLYLINE
  8
PLAN_1
 62
     5
  6
CONTINUOUS
 66
     1
 40
0.003000
 41
0.003000
  0
VERTEX
  8
PLAN_1
 62
     5
  6
CONTINUOUS
 10
-2.178815
 20
1.251280
  0
VERTEX
  8
PLAN_1
 62
     5
  6
CONTINUOUS
 10
-2.178815
 20
1.260012
  0
SEQEND
  8
0
  0
POLYLINE
  8
PLAN_1
 62
     5
  6
CONTINUOUS
 66
     1
 40
0.003000
 41
0.003000
  0
VERTEX
  8
PLAN_1
 62
     5
  6
CONTINUOUS
 10
-2.178815
 20
1.268311
  0
VERTEX
  8
PLAN_1
 62
     5
  6
CONTINUOUS
 10
-2.178815
 20
1.276606
  0
SEQEND
  8
0
  0
POLYLINE
  8
PLAN_1
 62
     5
  6
CONTINUOUS
 66
     1
 40
0.003000
 41
0.003000
  0
VERTEX
  8
PLAN_1
 62
     5
  6
CONTINUOUS
 10
-2.178815
 20
1.284906
  0
VERTEX
  8
PLAN_1
 62
     5
  6
CONTINUOUS
 10
-2.178815
 20
1.293201
  0
SEQEND
  8
0
  0
POLYLINE
  8
PLAN_1
 62
     5
  6
CONTINUOUS
 66
     1
 40
0.003000
 41
0.003000
  0
VERTEX
  8
PLAN_1
 62
     5
  6
CONTINUOUS
 10
-2.178815
 20
1.301496
  0
VERTEX
  8
PLAN_1
 62
     5
  6
CONTINUOUS
 10
-2.178815
 20
1.309795
  0
SEQEND
  8
0
  0
POLYLINE
  8
PLAN_1
 62
     5
  6
CONTINUOUS
 66
     1
 40
0.003000
 41
0.003000
  0
VERTEX
  8
PLAN_1
 62
     5
  6
CONTINUOUS
 10
-2.178815
 20
1.318091
  0
VERTEX
  8
PLAN_1
 62
     5
  6
CONTINUOUS
 10
-2.178815
 20
1.326390
  0
SEQEND
  8
0
  0
POLYLINE
  8
PLAN_1
 62
     5
  6
CONTINUOUS
 66
     1
 40
0.003000
 41
0.003000
  0
VERTEX
  8
PLAN_1
 62
     5
  6
CONTINUOUS
 10
-2.178815
 20
1.334685
  0
VERTEX
  8
PLAN_1
 62
     5
  6
CONTINUOUS
 10
-2.178815
 20
1.342984
  0
SEQEND
  8
0
  0
POLYLINE
  8
PLAN_1
 62
     5
  6
CONTINUOUS
 66
     1
 40
0.003000
 41
0.003000
  0
VERTEX
  8
PLAN_1
 62
     5
  6
CONTINUOUS
 10
-2.178815
 20
1.351280
  0
VERTEX
  8
PLAN_1
 62
     5
  6
CONTINUOUS
 10
-2.178815
 20
1.359575
  0
SEQEND
  8
0
  0
POLYLINE
  8
PLAN_1
 62
     5
  6
CONTINUOUS
 66
     1
 40
0.003000
 41
0.003000
  0
VERTEX
  8
PLAN_1
 62
     5
  6
CONTINUOUS
 10
-2.178815
 20
1.367874
  0
VERTEX
  8
PLAN_1
 62
     5
  6
CONTINUOUS
 10
-2.178815
 20
1.376606
  0
SEQEND
  8
0
  0
POLYLINE
  8
PLAN_1
 62
     5
  6
CONTINUOUS
 66
     1
 40
0.003000
 41
0.003000
  0
VERTEX
  8
PLAN_1
 62
     5
  6
CONTINUOUS
 10
-2.178815
 20
1.384906
  0
VERTEX
  8
PLAN_1
 62
     5
  6
CONTINUOUS
 10
-2.178815
 20
1.393201
  0
SEQEND
  8
0
  0
POLYLINE
  8
PLAN_1
 62
     5
  6
CONTINUOUS
 66
     1
 40
0.003000
 41
0.003000
  0
VERTEX
  8
PLAN_1
 62
     5
  6
CONTINUOUS
 10
-2.178815
 20
1.401496
  0
VERTEX
  8
PLAN_1
 62
     5
  6
CONTINUOUS
 10
-2.178815
 20
1.409795
  0
SEQEND
  8
0
  0
POLYLINE
  8
PLAN_1
 62
     5
  6
CONTINUOUS
 66
     1
 40
0.003000
 41
0.003000
  0
VERTEX
  8
PLAN_1
 62
     5
  6
CONTINUOUS
 10
-2.178815
 20
1.418091
  0
VERTEX
  8
PLAN_1
 62
     5
  6
CONTINUOUS
 10
-2.178815
 20
1.426390
  0
SEQEND
  8
0
  0
POLYLINE
  8
PLAN_1
 62
     5
  6
CONTINUOUS
 66
     1
 40
0.003000
 41
0.003000
  0
VERTEX
  8
PLAN_1
 62
     5
  6
CONTINUOUS
 10
-2.178815
 20
1.434685
  0
VERTEX
  8
PLAN_1
 62
     5
  6
CONTINUOUS
 10
-2.178815
 20
1.442980
  0
SEQEND
  8
0
  0
POLYLINE
  8
PLAN_1
 62
     5
  6
CONTINUOUS
 66
     1
 40
0.003000
 41
0.003000
  0
VERTEX
  8
PLAN_1
 62
     5
  6
CONTINUOUS
 10
-2.178815
 20
1.451280
  0
VERTEX
  8
PLAN_1
 62
     5
  6
CONTINUOUS
 10
-2.178815
 20
1.459575
  0
SEQEND
  8
0
  0
POLYLINE
  8
PLAN_1
 62
     5
  6
CONTINUOUS
 66
     1
 40
0.003000
 41
0.003000
  0
VERTEX
  8
PLAN_1
 62
     5
  6
CONTINUOUS
 10
-2.178815
 20
1.467874
  0
VERTEX
  8
PLAN_1
 62
     5
  6
CONTINUOUS
 10
-2.178815
 20
1.476169
  0
SEQEND
  8
0
  0
POLYLINE
  8
PLAN_1
 62
     5
  6
CONTINUOUS
 66
     1
 40
0.003000
 41
0.003000
  0
VERTEX
  8
PLAN_1
 62
     5
  6
CONTINUOUS
 10
-2.178815
 20
1.484469
  0
VERTEX
  8
PLAN_1
 62
     5
  6
CONTINUOUS
 10
-2.178815
 20
1.492764
  0
SEQEND
  8
0
  0
POLYLINE
  8
PLAN_1
 62
     5
  6
CONTINUOUS
 66
     1
 40
0.003000
 41
0.003000
  0
VERTEX
  8
PLAN_1
 62
     5
  6
CONTINUOUS
 10
-2.178815
 20
1.501496
  0
VERTEX
  8
PLAN_1
 62
     5
  6
CONTINUOUS
 10
-2.178815
 20
1.509795
  0
SEQEND
  8
0
  0
POLYLINE
  8
PLAN_1
 62
     5
  6
CONTINUOUS
 66
     1
 40
0.003000
 41
0.003000
  0
VERTEX
  8
PLAN_1
 62
     5
  6
CONTINUOUS
 10
-2.178815
 20
1.518091
  0
VERTEX
  8
PLAN_1
 62
     5
  6
CONTINUOUS
 10
-2.178815
 20
1.526390
  0
SEQEND
  8
0
  0
POLYLINE
  8
PLAN_1
 62
     5
  6
CONTINUOUS
 66
     1
 40
0.003000
 41
0.003000
  0
VERTEX
  8
PLAN_1
 62
     5
  6
CONTINUOUS
 10
-2.178815
 20
1.534685
  0
VERTEX
  8
PLAN_1
 62
     5
  6
CONTINUOUS
 10
-2.178815
 20
1.542980
  0
SEQEND
  8
0
  0
POLYLINE
  8
PLAN_1
 62
     5
  6
CONTINUOUS
 66
     1
 40
0.003000
 41
0.003000
  0
VERTEX
  8
PLAN_1
 62
     5
  6
CONTINUOUS
 10
-2.178815
 20
1.551280
  0
VERTEX
  8
PLAN_1
 62
     5
  6
CONTINUOUS
 10
-2.178815
 20
1.559575
  0
SEQEND
  8
0
  0
POLYLINE
  8
PLAN_1
 62
     5
  6
CONTINUOUS
 66
     1
 40
0.003000
 41
0.003000
  0
VERTEX
  8
PLAN_1
 62
     5
  6
CONTINUOUS
 10
-2.178815
 20
1.567874
  0
VERTEX
  8
PLAN_1
 62
     5
  6
CONTINUOUS
 10
-2.179252
 20
1.572240
  0
VERTEX
  8
PLAN_1
 62
     5
  6
CONTINUOUS
 10
-2.178815
 20
1.576169
  0
SEQEND
  8
0
  0
POLYLINE
  8
PLAN_1
 62
     5
  6
CONTINUOUS
 66
     1
 40
0.003000
 41
0.003000
  0
VERTEX
  8
PLAN_1
 62
     5
  6
CONTINUOUS
 10
-2.177071
 20
1.584469
  0
VERTEX
  8
PLAN_1
 62
     5
  6
CONTINUOUS
 10
-2.175760
 20
1.586650
  0
VERTEX
  8
PLAN_1
 62
     5
  6
CONTINUOUS
 10
-2.174012
 20
1.590142
  0
VERTEX
  8
PLAN_1
 62
     5
  6
CONTINUOUS
 10
-2.173138
 20
1.591890
  0
SEQEND
  8
0
  0
POLYLINE
  8
PLAN_1
 62
     5
  6
CONTINUOUS
 66
     1
 40
0.003000
 41
0.003000
  0
VERTEX
  8
PLAN_1
 62
     5
  6
CONTINUOUS
 10
-2.167465
 20
1.598004
  0
VERTEX
  8
PLAN_1
 62
     5
  6
CONTINUOUS
 10
-2.167028
 20
1.598441
  0
VERTEX
  8
PLAN_1
 62
     5
  6
CONTINUOUS
 10
-2.164406
 20
1.600622
  0
VERTEX
  8
PLAN_1
 62
     5
  6
CONTINUOUS
 10
-2.161350
 20
1.602370
  0
VERTEX
  8
PLAN_1
 62
     5
  6
CONTINUOUS
 10
-2.160476
 20
1.602807
  0
SEQEND
  8
0
  0
POLYLINE
  8
PLAN_1
 62
     5
  6
CONTINUOUS
 66
     1
 40
0.003000
 41
0.003000
  0
VERTEX
  8
PLAN_1
 62
     5
  6
CONTINUOUS
 10
-2.153051
 20
1.605429
  0
VERTEX
  8
PLAN_1
 62
     5
  6
CONTINUOUS
 10
-2.150433
 20
1.606299
  0
VERTEX
  8
PLAN_1
 62
     5
  6
CONTINUOUS
 10
-2.146937
 20
1.606736
  0
VERTEX
  8
PLAN_1
 62
     5
  6
CONTINUOUS
 10
-2.144756
 20
1.606736
  0
SEQEND
  8
0
  0
POLYLINE
  8
PLAN_1
 62
     5
  6
CONTINUOUS
 66
     1
 40
0.003000
 41
0.003000
  0
VERTEX
  8
PLAN_1
 62
     5
  6
CONTINUOUS
 10
-2.143008
 20
1.606736
  0
VERTEX
  8
PLAN_1
 62
     5
  6
CONTINUOUS
 10
-2.134276
 20
1.606736
  0
SEQEND
  8
0
  0
POLYLINE
  8
PLAN_1
 62
     5
  6
CONTINUOUS
 66
     1
 40
0.003000
 41
0.003000
  0
VERTEX
  8
PLAN_1
 62
     5
  6
CONTINUOUS
 10
-2.125976
 20
1.606736
  0
VERTEX
  8
PLAN_1
 62
     5
  6
CONTINUOUS
 10
-2.117681
 20
1.606736
  0
SEQEND
  8
0
  0
POLYLINE
  8
PLAN_1
 62
     5
  6
CONTINUOUS
 66
     1
 40
0.003000
 41
0.003000
  0
VERTEX
  8
PLAN_1
 62
     5
  6
CONTINUOUS
 10
-2.109386
 20
1.606736
  0
VERTEX
  8
PLAN_1
 62
     5
  6
CONTINUOUS
 10
-2.101087
 20
1.606736
  0
SEQEND
  8
0
  0
POLYLINE
  8
PLAN_1
 62
     5
  6
CONTINUOUS
 66
     1
 40
0.003000
 41
0.003000
  0
VERTEX
  8
PLAN_1
 62
     5
  6
CONTINUOUS
 10
-2.092791
 20
1.606736
  0
VERTEX
  8
PLAN_1
 62
     5
  6
CONTINUOUS
 10
-2.084492
 20
1.606736
  0
SEQEND
  8
0
  0
POLYLINE
  8
PLAN_1
 62
     5
  6
CONTINUOUS
 66
     1
 40
0.003000
 41
0.003000
  0
VERTEX
  8
PLAN_1
 62
     5
  6
CONTINUOUS
 10
-2.076197
 20
1.606736
  0
VERTEX
  8
PLAN_1
 62
     5
  6
CONTINUOUS
 10
-2.067902
 20
1.606736
  0
SEQEND
  8
0
  0
POLYLINE
  8
PLAN_1
 62
     5
  6
CONTINUOUS
 66
     1
 40
0.003000
 41
0.003000
  0
VERTEX
  8
PLAN_1
 62
     5
  6
CONTINUOUS
 10
-2.059602
 20
1.606736
  0
VERTEX
  8
PLAN_1
 62
     5
  6
CONTINUOUS
 10
-2.051307
 20
1.606736
  0
SEQEND
  8
0
  0
POLYLINE
  8
PLAN_1
 62
     5
  6
CONTINUOUS
 66
     1
 40
0.003000
 41
0.003000
  0
VERTEX
  8
PLAN_1
 62
     5
  6
CONTINUOUS
 10
-2.043008
 20
1.606736
  0
VERTEX
  8
PLAN_1
 62
     5
  6
CONTINUOUS
 10
-2.034713
 20
1.606736
  0
SEQEND
  8
0
  0
POLYLINE
  8
PLAN_1
 62
     5
  6
CONTINUOUS
 66
     1
 40
0.003000
 41
0.003000
  0
VERTEX
  8
PLAN_1
 62
     5
  6
CONTINUOUS
 10
-2.026413
 20
1.606736
  0
VERTEX
  8
PLAN_1
 62
     5
  6
CONTINUOUS
 10
-2.018118
 20
1.606736
  0
SEQEND
  8
0
  0
POLYLINE
  8
PLAN_1
 62
     5
  6
CONTINUOUS
 66
     1
 40
0.003000
 41
0.003000
  0
VERTEX
  8
PLAN_1
 62
     5
  6
CONTINUOUS
 10
-2.009386
 20
1.606736
  0
VERTEX
  8
PLAN_1
 62
     5
  6
CONTINUOUS
 10
-2.001087
 20
1.606736
  0
SEQEND
  8
0
  0
POLYLINE
  8
PLAN_1
 62
     5
  6
CONTINUOUS
 66
     1
 40
0.003000
 41
0.003000
  0
VERTEX
  8
PLAN_1
 62
     5
  6
CONTINUOUS
 10
-1.992791
 20
1.606736
  0
VERTEX
  8
PLAN_1
 62
     5
  6
CONTINUOUS
 10
-1.984492
 20
1.606736
  0
SEQEND
  8
0
  0
POLYLINE
  8
PLAN_1
 62
     5
  6
CONTINUOUS
 66
     1
 40
0.003000
 41
0.003000
  0
VERTEX
  8
PLAN_1
 62
     5
  6
CONTINUOUS
 10
-1.976197
 20
1.606736
  0
VERTEX
  8
PLAN_1
 62
     5
  6
CONTINUOUS
 10
-1.967902
 20
1.606736
  0
SEQEND
  8
0
  0
POLYLINE
  8
PLAN_1
 62
     5
  6
CONTINUOUS
 66
     1
 40
0.003000
 41
0.003000
  0
VERTEX
  8
PLAN_1
 62
     5
  6
CONTINUOUS
 10
-1.959602
 20
1.606736
  0
VERTEX
  8
PLAN_1
 62
     5
  6
CONTINUOUS
 10
-1.951307
 20
1.606736
  0
SEQEND
  8
0
  0
POLYLINE
  8
PLAN_1
 62
     5
  6
CONTINUOUS
 66
     1
 40
0.003000
 41
0.003000
  0
VERTEX
  8
PLAN_1
 62
     5
  6
CONTINUOUS
 10
-1.943008
 20
1.606736
  0
VERTEX
  8
PLAN_1
 62
     5
  6
CONTINUOUS
 10
-1.934713
 20
1.606736
  0
SEQEND
  8
0
  0
POLYLINE
  8
PLAN_1
 62
     5
  6
CONTINUOUS
 66
     1
 40
0.003000
 41
0.003000
  0
VERTEX
  8
PLAN_1
 62
     5
  6
CONTINUOUS
 10
-1.926417
 20
1.606736
  0
VERTEX
  8
PLAN_1
 62
     5
  6
CONTINUOUS
 10
-1.918118
 20
1.606736
  0
SEQEND
  8
0
  0
POLYLINE
  8
PLAN_1
 62
     5
  6
CONTINUOUS
 66
     1
 40
0.003000
 41
0.003000
  0
VERTEX
  8
PLAN_1
 62
     5
  6
CONTINUOUS
 10
-1.909823
 20
1.606736
  0
VERTEX
  8
PLAN_1
 62
     5
  6
CONTINUOUS
 10
-1.901524
 20
1.606736
  0
SEQEND
  8
0
  0
POLYLINE
  8
PLAN_1
 62
     5
  6
CONTINUOUS
 66
     1
 40
0.003000
 41
0.003000
  0
VERTEX
  8
PLAN_1
 62
     5
  6
CONTINUOUS
 10
-1.892791
 20
1.606736
  0
VERTEX
  8
PLAN_1
 62
     5
  6
CONTINUOUS
 10
-1.884492
 20
1.606736
  0
SEQEND
  8
0
  0
POLYLINE
  8
PLAN_1
 62
     5
  6
CONTINUOUS
 66
     1
 40
0.003000
 41
0.003000
  0
VERTEX
  8
PLAN_1
 62
     5
  6
CONTINUOUS
 10
-1.876197
 20
1.606736
  0
VERTEX
  8
PLAN_1
 62
     5
  6
CONTINUOUS
 10
-1.867902
 20
1.606736
  0
SEQEND
  8
0
  0
POLYLINE
  8
PLAN_1
 62
     5
  6
CONTINUOUS
 66
     1
 40
0.003000
 41
0.003000
  0
VERTEX
  8
PLAN_1
 62
     5
  6
CONTINUOUS
 10
-1.859602
 20
1.606736
  0
VERTEX
  8
PLAN_1
 62
     5
  6
CONTINUOUS
 10
-1.851307
 20
1.606736
  0
SEQEND
  8
0
  0
POLYLINE
  8
PLAN_1
 62
     5
  6
CONTINUOUS
 66
     1
 40
0.003000
 41
0.003000
  0
VERTEX
  8
PLAN_1
 62
     5
  6
CONTINUOUS
 10
-1.843008
 20
1.606736
  0
VERTEX
  8
PLAN_1
 62
     5
  6
CONTINUOUS
 10
-1.834713
 20
1.606736
  0
SEQEND
  8
0
  0
POLYLINE
  8
PLAN_1
 62
     5
  6
CONTINUOUS
 66
     1
 40
0.003000
 41
0.003000
  0
VERTEX
  8
PLAN_1
 62
     5
  6
CONTINUOUS
 10
-1.826417
 20
1.606736
  0
VERTEX
  8
PLAN_1
 62
     5
  6
CONTINUOUS
 10
-1.818118
 20
1.606736
  0
SEQEND
  8
0
  0
POLYLINE
  8
PLAN_1
 62
     5
  6
CONTINUOUS
 66
     1
 40
0.003000
 41
0.003000
  0
VERTEX
  8
PLAN_1
 62
     5
  6
CONTINUOUS
 10
-1.809823
 20
1.606736
  0
VERTEX
  8
PLAN_1
 62
     5
  6
CONTINUOUS
 10
-1.801524
 20
1.606736
  0
SEQEND
  8
0
  0
POLYLINE
  8
PLAN_1
 62
     5
  6
CONTINUOUS
 66
     1
 40
0.003000
 41
0.003000
  0
VERTEX
  8
PLAN_1
 62
     5
  6
CONTINUOUS
 10
-1.793228
 20
1.606736
  0
VERTEX
  8
PLAN_1
 62
     5
  6
CONTINUOUS
 10
-1.784929
 20
1.606736
  0
SEQEND
  8
0
  0
POLYLINE
  8
PLAN_1
 62
     5
  6
CONTINUOUS
 66
     1
 40
0.003000
 41
0.003000
  0
VERTEX
  8
PLAN_1
 62
     5
  6
CONTINUOUS
 10
-1.776197
 20
1.606736
  0
VERTEX
  8
PLAN_1
 62
     5
  6
CONTINUOUS
 10
-1.767902
 20
1.606736
  0
SEQEND
  8
0
  0
POLYLINE
  8
PLAN_1
 62
     5
  6
CONTINUOUS
 66
     1
 40
0.003000
 41
0.003000
  0
VERTEX
  8
PLAN_1
 62
     5
  6
CONTINUOUS
 10
-1.759602
 20
1.606736
  0
VERTEX
  8
PLAN_1
 62
     5
  6
CONTINUOUS
 10
-1.751307
 20
1.606736
  0
SEQEND
  8
0
  0
POLYLINE
  8
PLAN_1
 62
     5
  6
CONTINUOUS
 66
     1
 40
0.003000
 41
0.003000
  0
VERTEX
  8
PLAN_1
 62
     5
  6
CONTINUOUS
 10
-1.743008
 20
1.606736
  0
VERTEX
  8
PLAN_1
 62
     5
  6
CONTINUOUS
 10
-1.734713
 20
1.606736
  0
SEQEND
  8
0
  0
POLYLINE
  8
PLAN_1
 62
     5
  6
CONTINUOUS
 66
     1
 40
0.003000
 41
0.003000
  0
VERTEX
  8
PLAN_1
 62
     5
  6
CONTINUOUS
 10
-1.726417
 20
1.606736
  0
VERTEX
  8
PLAN_1
 62
     5
  6
CONTINUOUS
 10
-1.718118
 20
1.606736
  0
SEQEND
  8
0
  0
POLYLINE
  8
PLAN_1
 62
     5
  6
CONTINUOUS
 66
     1
 40
0.003000
 41
0.003000
  0
VERTEX
  8
PLAN_1
 62
     5
  6
CONTINUOUS
 10
-1.709823
 20
1.606736
  0
VERTEX
  8
PLAN_1
 62
     5
  6
CONTINUOUS
 10
-1.701524
 20
1.606736
  0
SEQEND
  8
0
  0
POLYLINE
  8
PLAN_1
 62
     5
  6
CONTINUOUS
 66
     1
 40
0.003000
 41
0.003000
  0
VERTEX
  8
PLAN_1
 62
     5
  6
CONTINUOUS
 10
-1.693228
 20
1.606736
  0
VERTEX
  8
PLAN_1
 62
     5
  6
CONTINUOUS
 10
-1.684933
 20
1.606736
  0
SEQEND
  8
0
  0
POLYLINE
  8
PLAN_1
 62
     5
  6
CONTINUOUS
 66
     1
 40
0.003000
 41
0.003000
  0
VERTEX
  8
PLAN_1
 62
     5
  6
CONTINUOUS
 10
-1.676634
 20
1.606736
  0
VERTEX
  8
PLAN_1
 62
     5
  6
CONTINUOUS
 10
-1.668339
 20
1.606736
  0
SEQEND
  8
0
  0
POLYLINE
  8
PLAN_1
 62
     5
  6
CONTINUOUS
 66
     1
 40
0.003000
 41
0.003000
  0
VERTEX
  8
PLAN_1
 62
     5
  6
CONTINUOUS
 10
-1.660039
 20
1.606736
  0
VERTEX
  8
PLAN_1
 62
     5
  6
CONTINUOUS
 10
-1.651307
 20
1.606736
  0
SEQEND
  8
0
  0
POLYLINE
  8
PLAN_1
 62
     5
  6
CONTINUOUS
 66
     1
 40
0.003000
 41
0.003000
  0
VERTEX
  8
PLAN_1
 62
     5
  6
CONTINUOUS
 10
-1.643008
 20
1.606736
  0
VERTEX
  8
PLAN_1
 62
     5
  6
CONTINUOUS
 10
-1.634713
 20
1.606736
  0
SEQEND
  8
0
  0
POLYLINE
  8
PLAN_1
 62
     5
  6
CONTINUOUS
 66
     1
 40
0.003000
 41
0.003000
  0
VERTEX
  8
PLAN_1
 62
     5
  6
CONTINUOUS
 10
-1.626417
 20
1.606736
  0
VERTEX
  8
PLAN_1
 62
     5
  6
CONTINUOUS
 10
-1.618118
 20
1.606736
  0
SEQEND
  8
0
  0
POLYLINE
  8
PLAN_1
 62
     5
  6
CONTINUOUS
 66
     1
 40
0.003000
 41
0.003000
  0
VERTEX
  8
PLAN_1
 62
     5
  6
CONTINUOUS
 10
-1.609823
 20
1.606736
  0
VERTEX
  8
PLAN_1
 62
     5
  6
CONTINUOUS
 10
-1.601524
 20
1.606736
  0
SEQEND
  8
0
  0
POLYLINE
  8
PLAN_1
 62
     5
  6
CONTINUOUS
 66
     1
 40
0.003000
 41
0.003000
  0
VERTEX
  8
PLAN_1
 62
     5
  6
CONTINUOUS
 10
-1.593228
 20
1.606736
  0
VERTEX
  8
PLAN_1
 62
     5
  6
CONTINUOUS
 10
-1.584933
 20
1.606736
  0
SEQEND
  8
0
  0
POLYLINE
  8
PLAN_1
 62
     5
  6
CONTINUOUS
 66
     1
 40
0.003000
 41
0.003000
  0
VERTEX
  8
PLAN_1
 62
     5
  6
CONTINUOUS
 10
-1.576634
 20
1.606736
  0
VERTEX
  8
PLAN_1
 62
     5
  6
CONTINUOUS
 10
-1.568339
 20
1.606736
  0
SEQEND
  8
0
  0
POLYLINE
  8
PLAN_1
 62
     5
  6
CONTINUOUS
 66
     1
 40
0.003000
 41
0.003000
  0
VERTEX
  8
PLAN_1
 62
     5
  6
CONTINUOUS
 10
-1.560039
 20
1.606736
  0
VERTEX
  8
PLAN_1
 62
     5
  6
CONTINUOUS
 10
-1.551744
 20
1.606736
  0
SEQEND
  8
0
  0
POLYLINE
  8
PLAN_1
 62
     5
  6
CONTINUOUS
 66
     1
 40
0.003000
 41
0.003000
  0
VERTEX
  8
PLAN_1
 62
     5
  6
CONTINUOUS
 10
-1.543445
 20
1.606736
  0
VERTEX
  8
PLAN_1
 62
     5
  6
CONTINUOUS
 10
-1.534713
 20
1.606736
  0
SEQEND
  8
0
  0
POLYLINE
  8
PLAN_1
 62
     5
  6
CONTINUOUS
 66
     1
 40
0.003000
 41
0.003000
  0
VERTEX
  8
PLAN_1
 62
     5
  6
CONTINUOUS
 10
-1.526417
 20
1.606736
  0
VERTEX
  8
PLAN_1
 62
     5
  6
CONTINUOUS
 10
-1.518118
 20
1.606736
  0
SEQEND
  8
0
  0
POLYLINE
  8
PLAN_1
 62
     5
  6
CONTINUOUS
 66
     1
 40
0.003000
 41
0.003000
  0
VERTEX
  8
PLAN_1
 62
     5
  6
CONTINUOUS
 10
-1.509823
 20
1.606736
  0
VERTEX
  8
PLAN_1
 62
     5
  6
CONTINUOUS
 10
-1.501524
 20
1.606736
  0
SEQEND
  8
0
  0
POLYLINE
  8
PLAN_1
 62
     5
  6
CONTINUOUS
 66
     1
 40
0.003000
 41
0.003000
  0
VERTEX
  8
PLAN_1
 62
     5
  6
CONTINUOUS
 10
-1.493228
 20
1.606736
  0
VERTEX
  8
PLAN_1
 62
     5
  6
CONTINUOUS
 10
-1.484933
 20
1.606736
  0
SEQEND
  8
0
  0
POLYLINE
  8
PLAN_1
 62
     5
  6
CONTINUOUS
 66
     1
 40
0.003000
 41
0.003000
  0
VERTEX
  8
PLAN_1
 62
     5
  6
CONTINUOUS
 10
-1.476634
 20
1.606736
  0
VERTEX
  8
PLAN_1
 62
     5
  6
CONTINUOUS
 10
-1.468339
 20
1.606736
  0
SEQEND
  8
0
  0
POLYLINE
  8
PLAN_1
 62
     5
  6
CONTINUOUS
 66
     1
 40
0.003000
 41
0.003000
  0
VERTEX
  8
PLAN_1
 62
     5
  6
CONTINUOUS
 10
-1.460039
 20
1.606736
  0
VERTEX
  8
PLAN_1
 62
     5
  6
CONTINUOUS
 10
-1.451744
 20
1.606736
  0
SEQEND
  8
0
  0
POLYLINE
  8
PLAN_1
 62
     5
  6
CONTINUOUS
 66
     1
 40
0.003000
 41
0.003000
  0
VERTEX
  8
PLAN_1
 62
     5
  6
CONTINUOUS
 10
-1.443449
 20
1.606736
  0
VERTEX
  8
PLAN_1
 62
     5
  6
CONTINUOUS
 10
-1.435150
 20
1.606736
  0
SEQEND
  8
0
  0
POLYLINE
  8
PLAN_1
 62
     5
  6
CONTINUOUS
 66
     1
 40
0.003000
 41
0.003000
  0
VERTEX
  8
PLAN_1
 62
     5
  6
CONTINUOUS
 10
-1.426854
 20
1.606736
  0
VERTEX
  8
PLAN_1
 62
     5
  6
CONTINUOUS
 10
-1.418118
 20
1.606736
  0
SEQEND
  8
0
  0
POLYLINE
  8
PLAN_1
 62
     5
  6
CONTINUOUS
 66
     1
 40
0.003000
 41
0.003000
  0
VERTEX
  8
PLAN_1
 62
     5
  6
CONTINUOUS
 10
-1.409823
 20
1.606736
  0
VERTEX
  8
PLAN_1
 62
     5
  6
CONTINUOUS
 10
-1.401524
 20
1.606736
  0
SEQEND
  8
0
  0
POLYLINE
  8
PLAN_1
 62
     5
  6
CONTINUOUS
 66
     1
 40
0.003000
 41
0.003000
  0
VERTEX
  8
PLAN_1
 62
     5
  6
CONTINUOUS
 10
-1.393228
 20
1.606736
  0
VERTEX
  8
PLAN_1
 62
     5
  6
CONTINUOUS
 10
-1.384933
 20
1.606736
  0
SEQEND
  8
0
  0
POLYLINE
  8
PLAN_1
 62
     5
  6
CONTINUOUS
 66
     1
 40
0.003000
 41
0.003000
  0
VERTEX
  8
PLAN_1
 62
     5
  6
CONTINUOUS
 10
-1.376634
 20
1.606736
  0
VERTEX
  8
PLAN_1
 62
     5
  6
CONTINUOUS
 10
-1.368339
 20
1.606736
  0
SEQEND
  8
0
  0
POLYLINE
  8
PLAN_1
 62
     5
  6
CONTINUOUS
 66
     1
 40
0.003000
 41
0.003000
  0
VERTEX
  8
PLAN_1
 62
     5
  6
CONTINUOUS
 10
-1.360039
 20
1.606736
  0
VERTEX
  8
PLAN_1
 62
     5
  6
CONTINUOUS
 10
-1.351744
 20
1.606736
  0
SEQEND
  8
0
  0
POLYLINE
  8
PLAN_1
 62
     5
  6
CONTINUOUS
 66
     1
 40
0.003000
 41
0.003000
  0
VERTEX
  8
PLAN_1
 62
     5
  6
CONTINUOUS
 10
-1.343449
 20
1.606736
  0
VERTEX
  8
PLAN_1
 62
     5
  6
CONTINUOUS
 10
-1.335150
 20
1.606736
  0
SEQEND
  8
0
  0
POLYLINE
  8
PLAN_1
 62
     5
  6
CONTINUOUS
 66
     1
 40
0.003000
 41
0.003000
  0
VERTEX
  8
PLAN_1
 62
     5
  6
CONTINUOUS
 10
-1.326854
 20
1.606736
  0
VERTEX
  8
PLAN_1
 62
     5
  6
CONTINUOUS
 10
-1.318555
 20
1.606736
  0
SEQEND
  8
0
  0
POLYLINE
  8
PLAN_1
 62
     5
  6
CONTINUOUS
 66
     1
 40
0.003000
 41
0.003000
  0
VERTEX
  8
PLAN_1
 62
     5
  6
CONTINUOUS
 10
-1.310260
 20
1.606736
  0
VERTEX
  8
PLAN_1
 62
     5
  6
CONTINUOUS
 10
-1.301961
 20
1.606736
  0
SEQEND
  8
0
  0
POLYLINE
  8
PLAN_1
 62
     5
  6
CONTINUOUS
 66
     1
 40
0.003000
 41
0.003000
  0
VERTEX
  8
PLAN_1
 62
     5
  6
CONTINUOUS
 10
-1.293228
 20
1.606736
  0
VERTEX
  8
PLAN_1
 62
     5
  6
CONTINUOUS
 10
-1.284933
 20
1.606736
  0
SEQEND
  8
0
  0
POLYLINE
  8
PLAN_1
 62
     5
  6
CONTINUOUS
 66
     1
 40
0.003000
 41
0.003000
  0
VERTEX
  8
PLAN_1
 62
     5
  6
CONTINUOUS
 10
-1.276634
 20
1.606736
  0
VERTEX
  8
PLAN_1
 62
     5
  6
CONTINUOUS
 10
-1.268339
 20
1.606736
  0
SEQEND
  8
0
  0
POLYLINE
  8
PLAN_1
 62
     5
  6
CONTINUOUS
 66
     1
 40
0.003000
 41
0.003000
  0
VERTEX
  8
PLAN_1
 62
     5
  6
CONTINUOUS
 10
-1.260039
 20
1.606736
  0
VERTEX
  8
PLAN_1
 62
     5
  6
CONTINUOUS
 10
-1.251744
 20
1.606736
  0
SEQEND
  8
0
  0
POLYLINE
  8
PLAN_1
 62
     5
  6
CONTINUOUS
 66
     1
 40
0.003000
 41
0.003000
  0
VERTEX
  8
PLAN_1
 62
     5
  6
CONTINUOUS
 10
-1.243449
 20
1.606736
  0
VERTEX
  8
PLAN_1
 62
     5
  6
CONTINUOUS
 10
-1.235150
 20
1.606736
  0
SEQEND
  8
0
  0
POLYLINE
  8
PLAN_1
 62
     5
  6
CONTINUOUS
 66
     1
 40
0.003000
 41
0.003000
  0
VERTEX
  8
PLAN_1
 62
     5
  6
CONTINUOUS
 10
-1.226854
 20
1.606736
  0
VERTEX
  8
PLAN_1
 62
     5
  6
CONTINUOUS
 10
-1.218555
 20
1.606736
  0
SEQEND
  8
0
  0
POLYLINE
  8
PLAN_1
 62
     5
  6
CONTINUOUS
 66
     1
 40
0.003000
 41
0.003000
  0
VERTEX
  8
PLAN_1
 62
     5
  6
CONTINUOUS
 10
-1.210260
 20
1.606736
  0
VERTEX
  8
PLAN_1
 62
     5
  6
CONTINUOUS
 10
-1.201965
 20
1.606736
  0
SEQEND
  8
0
  0
POLYLINE
  8
PLAN_1
 62
     5
  6
CONTINUOUS
 66
     1
 40
0.003000
 41
0.003000
  0
VERTEX
  8
PLAN_1
 62
     5
  6
CONTINUOUS
 10
-1.193665
 20
1.606736
  0
VERTEX
  8
PLAN_1
 62
     5
  6
CONTINUOUS
 10
-1.185370
 20
1.606736
  0
SEQEND
  8
0
  0
POLYLINE
  8
PLAN_1
 62
     5
  6
CONTINUOUS
 66
     1
 40
0.003000
 41
0.003000
  0
VERTEX
  8
PLAN_1
 62
     5
  6
CONTINUOUS
 10
-1.176634
 20
1.606736
  0
VERTEX
  8
PLAN_1
 62
     5
  6
CONTINUOUS
 10
-1.168339
 20
1.606736
  0
SEQEND
  8
0
  0
POLYLINE
  8
PLAN_1
 62
     5
  6
CONTINUOUS
 66
     1
 40
0.003000
 41
0.003000
  0
VERTEX
  8
PLAN_1
 62
     5
  6
CONTINUOUS
 10
-1.160043
 20
1.606736
  0
VERTEX
  8
PLAN_1
 62
     5
  6
CONTINUOUS
 10
-1.151744
 20
1.606736
  0
SEQEND
  8
0
  0
POLYLINE
  8
PLAN_1
 62
     5
  6
CONTINUOUS
 66
     1
 40
0.003000
 41
0.003000
  0
VERTEX
  8
PLAN_1
 62
     5
  6
CONTINUOUS
 10
-1.143449
 20
1.606736
  0
VERTEX
  8
PLAN_1
 62
     5
  6
CONTINUOUS
 10
-1.135150
 20
1.606736
  0
SEQEND
  8
0
  0
POLYLINE
  8
PLAN_1
 62
     5
  6
CONTINUOUS
 66
     1
 40
0.003000
 41
0.003000
  0
VERTEX
  8
PLAN_1
 62
     5
  6
CONTINUOUS
 10
-1.126854
 20
1.606736
  0
VERTEX
  8
PLAN_1
 62
     5
  6
CONTINUOUS
 10
-1.118555
 20
1.606736
  0
SEQEND
  8
0
  0
POLYLINE
  8
PLAN_1
 62
     5
  6
CONTINUOUS
 66
     1
 40
0.003000
 41
0.003000
  0
VERTEX
  8
PLAN_1
 62
     5
  6
CONTINUOUS
 10
-1.110260
 20
1.606736
  0
VERTEX
  8
PLAN_1
 62
     5
  6
CONTINUOUS
 10
-1.101965
 20
1.606736
  0
SEQEND
  8
0
  0
POLYLINE
  8
PLAN_1
 62
     5
  6
CONTINUOUS
 66
     1
 40
0.003000
 41
0.003000
  0
VERTEX
  8
PLAN_1
 62
     5
  6
CONTINUOUS
 10
-1.093665
 20
1.606736
  0
VERTEX
  8
PLAN_1
 62
     5
  6
CONTINUOUS
 10
-1.085370
 20
1.606736
  0
SEQEND
  8
0
  0
POLYLINE
  8
PLAN_1
 62
     5
  6
CONTINUOUS
 66
     1
 40
0.003000
 41
0.003000
  0
VERTEX
  8
PLAN_1
 62
     5
  6
CONTINUOUS
 10
-1.077071
 20
1.606736
  0
VERTEX
  8
PLAN_1
 62
     5
  6
CONTINUOUS
 10
-1.068776
 20
1.606736
  0
SEQEND
  8
0
  0
POLYLINE
  8
PLAN_1
 62
     5
  6
CONTINUOUS
 66
     1
 40
0.003000
 41
0.003000
  0
VERTEX
  8
PLAN_1
 62
     5
  6
CONTINUOUS
 10
-1.060043
 20
1.606736
  0
VERTEX
  8
PLAN_1
 62
     5
  6
CONTINUOUS
 10
-1.051744
 20
1.606736
  0
SEQEND
  8
0
  0
POLYLINE
  8
PLAN_1
 62
     5
  6
CONTINUOUS
 66
     1
 40
0.003000
 41
0.003000
  0
VERTEX
  8
PLAN_1
 62
     5
  6
CONTINUOUS
 10
-1.043449
 20
1.606736
  0
VERTEX
  8
PLAN_1
 62
     5
  6
CONTINUOUS
 10
-1.035150
 20
1.606736
  0
SEQEND
  8
0
  0
POLYLINE
  8
PLAN_1
 62
     5
  6
CONTINUOUS
 66
     1
 40
0.003000
 41
0.003000
  0
VERTEX
  8
PLAN_1
 62
     5
  6
CONTINUOUS
 10
-1.026854
 20
1.606736
  0
VERTEX
  8
PLAN_1
 62
     5
  6
CONTINUOUS
 10
-1.018555
 20
1.606736
  0
SEQEND
  8
0
  0
POLYLINE
  8
PLAN_1
 62
     5
  6
CONTINUOUS
 66
     1
 40
0.003000
 41
0.003000
  0
VERTEX
  8
PLAN_1
 62
     5
  6
CONTINUOUS
 10
-1.010260
 20
1.606736
  0
VERTEX
  8
PLAN_1
 62
     5
  6
CONTINUOUS
 10
-1.001965
 20
1.606736
  0
SEQEND
  8
0
  0
POLYLINE
  8
PLAN_1
 62
     5
  6
CONTINUOUS
 66
     1
 40
0.003000
 41
0.003000
  0
VERTEX
  8
PLAN_1
 62
     5
  6
CONTINUOUS
 10
-0.993665
 20
1.606736
  0
VERTEX
  8
PLAN_1
 62
     5
  6
CONTINUOUS
 10
-0.985370
 20
1.606736
  0
SEQEND
  8
0
  0
POLYLINE
  8
PLAN_1
 62
     5
  6
CONTINUOUS
 66
     1
 40
0.003000
 41
0.003000
  0
VERTEX
  8
PLAN_1
 62
     5
  6
CONTINUOUS
 10
-0.977071
 20
1.606736
  0
VERTEX
  8
PLAN_1
 62
     5
  6
CONTINUOUS
 10
-0.968776
 20
1.606736
  0
SEQEND
  8
0
  0
POLYLINE
  8
PLAN_1
 62
     5
  6
CONTINUOUS
 66
     1
 40
0.003000
 41
0.003000
  0
VERTEX
  8
PLAN_1
 62
     5
  6
CONTINUOUS
 10
-0.960480
 20
1.606736
  0
VERTEX
  8
PLAN_1
 62
     5
  6
CONTINUOUS
 10
-0.952181
 20
1.606736
  0
SEQEND
  8
0
  0
POLYLINE
  8
PLAN_1
 62
     5
  6
CONTINUOUS
 66
     1
 40
0.003000
 41
0.003000
  0
VERTEX
  8
PLAN_1
 62
     5
  6
CONTINUOUS
 10
-0.943449
 20
1.606736
  0
VERTEX
  8
PLAN_1
 62
     5
  6
CONTINUOUS
 10
-0.935150
 20
1.606736
  0
SEQEND
  8
0
  0
POLYLINE
  8
PLAN_1
 62
     5
  6
CONTINUOUS
 66
     1
 40
0.003000
 41
0.003000
  0
VERTEX
  8
PLAN_1
 62
     5
  6
CONTINUOUS
 10
-0.926854
 20
1.606736
  0
VERTEX
  8
PLAN_1
 62
     5
  6
CONTINUOUS
 10
-0.918559
 20
1.606736
  0
SEQEND
  8
0
  0
POLYLINE
  8
PLAN_1
 62
     5
  6
CONTINUOUS
 66
     1
 40
0.003000
 41
0.003000
  0
VERTEX
  8
PLAN_1
 62
     5
  6
CONTINUOUS
 10
-0.910260
 20
1.606736
  0
VERTEX
  8
PLAN_1
 62
     5
  6
CONTINUOUS
 10
-0.901965
 20
1.606736
  0
SEQEND
  8
0
  0
POLYLINE
  8
PLAN_1
 62
     5
  6
CONTINUOUS
 66
     1
 40
0.003000
 41
0.003000
  0
VERTEX
  8
PLAN_1
 62
     5
  6
CONTINUOUS
 10
-0.893665
 20
1.606736
  0
VERTEX
  8
PLAN_1
 62
     5
  6
CONTINUOUS
 10
-0.885370
 20
1.606736
  0
SEQEND
  8
0
  0
POLYLINE
  8
PLAN_1
 62
     5
  6
CONTINUOUS
 66
     1
 40
0.003000
 41
0.003000
  0
VERTEX
  8
PLAN_1
 62
     5
  6
CONTINUOUS
 10
-0.877071
 20
1.606736
  0
VERTEX
  8
PLAN_1
 62
     5
  6
CONTINUOUS
 10
-0.868776
 20
1.606736
  0
SEQEND
  8
0
  0
POLYLINE
  8
PLAN_1
 62
     5
  6
CONTINUOUS
 66
     1
 40
0.003000
 41
0.003000
  0
VERTEX
  8
PLAN_1
 62
     5
  6
CONTINUOUS
 10
-0.860480
 20
1.606736
  0
VERTEX
  8
PLAN_1
 62
     5
  6
CONTINUOUS
 10
-0.852181
 20
1.606736
  0
SEQEND
  8
0
  0
POLYLINE
  8
PLAN_1
 62
     5
  6
CONTINUOUS
 66
     1
 40
0.003000
 41
0.003000
  0
VERTEX
  8
PLAN_1
 62
     5
  6
CONTINUOUS
 10
-0.843886
 20
1.606736
  0
VERTEX
  8
PLAN_1
 62
     5
  6
CONTINUOUS
 10
-0.835587
 20
1.606736
  0
SEQEND
  8
0
  0
POLYLINE
  8
PLAN_1
 62
     5
  6
CONTINUOUS
 66
     1
 40
0.003000
 41
0.003000
  0
VERTEX
  8
PLAN_1
 62
     5
  6
CONTINUOUS
 10
-0.827291
 20
1.606736
  0
VERTEX
  8
PLAN_1
 62
     5
  6
CONTINUOUS
 10
-0.818559
 20
1.606736
  0
SEQEND
  8
0
  0
POLYLINE
  8
PLAN_1
 62
     5
  6
CONTINUOUS
 66
     1
 40
0.003000
 41
0.003000
  0
VERTEX
  8
PLAN_1
 62
     5
  6
CONTINUOUS
 10
-0.810260
 20
1.606736
  0
VERTEX
  8
PLAN_1
 62
     5
  6
CONTINUOUS
 10
-0.801965
 20
1.606736
  0
SEQEND
  8
0
  0
POLYLINE
  8
PLAN_1
 62
     5
  6
CONTINUOUS
 66
     1
 40
0.003000
 41
0.003000
  0
VERTEX
  8
PLAN_1
 62
     5
  6
CONTINUOUS
 10
-0.793665
 20
1.606736
  0
VERTEX
  8
PLAN_1
 62
     5
  6
CONTINUOUS
 10
-0.785370
 20
1.606736
  0
SEQEND
  8
0
  0
POLYLINE
  8
PLAN_1
 62
     5
  6
CONTINUOUS
 66
     1
 40
0.003000
 41
0.003000
  0
VERTEX
  8
PLAN_1
 62
     5
  6
CONTINUOUS
 10
-0.777071
 20
1.606736
  0
VERTEX
  8
PLAN_1
 62
     5
  6
CONTINUOUS
 10
-0.768776
 20
1.606736
  0
SEQEND
  8
0
  0
POLYLINE
  8
PLAN_1
 62
     5
  6
CONTINUOUS
 66
     1
 40
0.003000
 41
0.003000
  0
VERTEX
  8
PLAN_1
 62
     5
  6
CONTINUOUS
 10
-0.760480
 20
1.606736
  0
VERTEX
  8
PLAN_1
 62
     5
  6
CONTINUOUS
 10
-0.752181
 20
1.606736
  0
SEQEND
  8
0
  0
POLYLINE
  8
PLAN_1
 62
     5
  6
CONTINUOUS
 66
     1
 40
0.003000
 41
0.003000
  0
VERTEX
  8
PLAN_1
 62
     5
  6
CONTINUOUS
 10
-0.743886
 20
1.606736
  0
VERTEX
  8
PLAN_1
 62
     5
  6
CONTINUOUS
 10
-0.735587
 20
1.606736
  0
SEQEND
  8
0
  0
POLYLINE
  8
PLAN_1
 62
     5
  6
CONTINUOUS
 66
     1
 40
0.003000
 41
0.003000
  0
VERTEX
  8
PLAN_1
 62
     5
  6
CONTINUOUS
 10
-0.727291
 20
1.606736
  0
VERTEX
  8
PLAN_1
 62
     5
  6
CONTINUOUS
 10
-0.718996
 20
1.606736
  0
SEQEND
  8
0
  0
POLYLINE
  8
PLAN_1
 62
     5
  6
CONTINUOUS
 66
     1
 40
0.003000
 41
0.003000
  0
VERTEX
  8
PLAN_1
 62
     5
  6
CONTINUOUS
 10
-0.710697
 20
1.606736
  0
VERTEX
  8
PLAN_1
 62
     5
  6
CONTINUOUS
 10
-0.701965
 20
1.606736
  0
SEQEND
  8
0
  0
POLYLINE
  8
PLAN_1
 62
     5
  6
CONTINUOUS
 66
     1
 40
0.003000
 41
0.003000
  0
VERTEX
  8
PLAN_1
 62
     5
  6
CONTINUOUS
 10
-0.693665
 20
1.606736
  0
VERTEX
  8
PLAN_1
 62
     5
  6
CONTINUOUS
 10
-0.685370
 20
1.606736
  0
SEQEND
  8
0
  0
POLYLINE
  8
PLAN_1
 62
     5
  6
CONTINUOUS
 66
     1
 40
0.003000
 41
0.003000
  0
VERTEX
  8
PLAN_1
 62
     5
  6
CONTINUOUS
 10
-0.677075
 20
1.606736
  0
VERTEX
  8
PLAN_1
 62
     5
  6
CONTINUOUS
 10
-0.668776
 20
1.606736
  0
SEQEND
  8
0
  0
POLYLINE
  8
PLAN_1
 62
     5
  6
CONTINUOUS
 66
     1
 40
0.003000
 41
0.003000
  0
VERTEX
  8
PLAN_1
 62
     5
  6
CONTINUOUS
 10
-0.660480
 20
1.606736
  0
VERTEX
  8
PLAN_1
 62
     5
  6
CONTINUOUS
 10
-0.652181
 20
1.606736
  0
SEQEND
  8
0
  0
POLYLINE
  8
PLAN_1
 62
     5
  6
CONTINUOUS
 66
     1
 40
0.003000
 41
0.003000
  0
VERTEX
  8
PLAN_1
 62
     5
  6
CONTINUOUS
 10
-0.643886
 20
1.606736
  0
VERTEX
  8
PLAN_1
 62
     5
  6
CONTINUOUS
 10
-0.635587
 20
1.606736
  0
SEQEND
  8
0
  0
POLYLINE
  8
PLAN_1
 62
     5
  6
CONTINUOUS
 66
     1
 40
0.003000
 41
0.003000
  0
VERTEX
  8
PLAN_1
 62
     5
  6
CONTINUOUS
 10
-0.627291
 20
1.606736
  0
VERTEX
  8
PLAN_1
 62
     5
  6
CONTINUOUS
 10
-0.618996
 20
1.606736
  0
SEQEND
  8
0
  0
POLYLINE
  8
PLAN_1
 62
     5
  6
CONTINUOUS
 66
     1
 40
0.003000
 41
0.003000
  0
VERTEX
  8
PLAN_1
 62
     5
  6
CONTINUOUS
 10
-0.618559
 20
1.606736
  0
VERTEX
  8
PLAN_1
 62
     5
  6
CONTINUOUS
 10
-0.614626
 20
1.606736
  0
VERTEX
  8
PLAN_1
 62
     5
  6
CONTINUOUS
 10
-0.610697
 20
1.606299
  0
VERTEX
  8
PLAN_1
 62
     5
  6
CONTINUOUS
 10
-0.610260
 20
1.605862
  0
SEQEND
  8
0
  0
POLYLINE
  8
PLAN_1
 62
     5
  6
CONTINUOUS
 66
     1
 40
0.003000
 41
0.003000
  0
VERTEX
  8
PLAN_1
 62
     5
  6
CONTINUOUS
 10
-0.602402
 20
1.603244
  0
VERTEX
  8
PLAN_1
 62
     5
  6
CONTINUOUS
 10
-0.600217
 20
1.602370
  0
VERTEX
  8
PLAN_1
 62
     5
  6
CONTINUOUS
 10
-0.597161
 20
1.600189
  0
VERTEX
  8
PLAN_1
 62
     5
  6
CONTINUOUS
 10
-0.595413
 20
1.599315
  0
SEQEND
  8
0
  0
POLYLINE
  8
PLAN_1
 62
     5
  6
CONTINUOUS
 66
     1
 40
0.003000
 41
0.003000
  0
VERTEX
  8
PLAN_1
 62
     5
  6
CONTINUOUS
 10
-0.589299
 20
1.593638
  0
VERTEX
  8
PLAN_1
 62
     5
  6
CONTINUOUS
 10
-0.588425
 20
1.592764
  0
VERTEX
  8
PLAN_1
 62
     5
  6
CONTINUOUS
 10
-0.586244
 20
1.590142
  0
VERTEX
  8
PLAN_1
 62
     5
  6
CONTINUOUS
 10
-0.584059
 20
1.587087
  0
SEQEND
  8
0
  0
POLYLINE
  8
PLAN_1
 62
     5
  6
CONTINUOUS
 66
     1
 40
0.003000
 41
0.003000
  0
VERTEX
  8
PLAN_1
 62
     5
  6
CONTINUOUS
 10
-0.580567
 20
1.579228
  0
VERTEX
  8
PLAN_1
 62
     5
  6
CONTINUOUS
 10
-0.579693
 20
1.576169
  0
VERTEX
  8
PLAN_1
 62
     5
  6
CONTINUOUS
 10
-0.578819
 20
1.572240
  0
VERTEX
  8
PLAN_1
 62
     5
  6
CONTINUOUS
 10
-0.578819
 20
1.571366
  0
SEQEND
  8
0
  0
POLYLINE
  8
PLAN_1
 62
     5
  6
CONTINUOUS
 66
     1
 40
0.003000
 41
0.003000
  0
VERTEX
  8
PLAN_1
 62
     5
  6
CONTINUOUS
 10
-0.578382
 20
1.568311
  0
VERTEX
  8
PLAN_1
 62
     5
  6
CONTINUOUS
 10
-0.578382
 20
1.560012
  0
SEQEND
  8
0
  0
POLYLINE
  8
PLAN_1
 62
     5
  6
CONTINUOUS
 66
     1
 40
0.003000
 41
0.003000
  0
VERTEX
  8
PLAN_1
 62
     5
  6
CONTINUOUS
 10
-0.578382
 20
1.551717
  0
VERTEX
  8
PLAN_1
 62
     5
  6
CONTINUOUS
 10
-0.578382
 20
1.543417
  0
SEQEND
  8
0
  0
POLYLINE
  8
PLAN_1
 62
     5
  6
CONTINUOUS
 66
     1
 40
0.003000
 41
0.003000
  0
VERTEX
  8
PLAN_1
 62
     5
  6
CONTINUOUS
 10
-0.578382
 20
1.535122
  0
VERTEX
  8
PLAN_1
 62
     5
  6
CONTINUOUS
 10
-0.578382
 20
1.526827
  0
SEQEND
  8
0
  0
POLYLINE
  8
PLAN_1
 62
     5
  6
CONTINUOUS
 66
     1
 40
0.003000
 41
0.003000
  0
VERTEX
  8
PLAN_1
 62
     5
  6
CONTINUOUS
 10
-0.578382
 20
1.518528
  0
VERTEX
  8
PLAN_1
 62
     5
  6
CONTINUOUS
 10
-0.578382
 20
1.510232
  0
SEQEND
  8
0
  0
POLYLINE
  8
PLAN_1
 62
     5
  6
CONTINUOUS
 66
     1
 40
0.003000
 41
0.003000
  0
VERTEX
  8
PLAN_1
 62
     5
  6
CONTINUOUS
 10
-0.578382
 20
1.501933
  0
VERTEX
  8
PLAN_1
 62
     5
  6
CONTINUOUS
 10
-0.578382
 20
1.493201
  0
SEQEND
  8
0
  0
POLYLINE
  8
PLAN_1
 62
     5
  6
CONTINUOUS
 66
     1
 40
0.003000
 41
0.003000
  0
VERTEX
  8
PLAN_1
 62
     5
  6
CONTINUOUS
 10
-0.578382
 20
1.484906
  0
VERTEX
  8
PLAN_1
 62
     5
  6
CONTINUOUS
 10
-0.578382
 20
1.476606
  0
SEQEND
  8
0
  0
POLYLINE
  8
PLAN_1
 62
     5
  6
CONTINUOUS
 66
     1
 40
0.003000
 41
0.003000
  0
VERTEX
  8
PLAN_1
 62
     5
  6
CONTINUOUS
 10
-0.578382
 20
1.468311
  0
VERTEX
  8
PLAN_1
 62
     5
  6
CONTINUOUS
 10
-0.578382
 20
1.460012
  0
SEQEND
  8
0
  0
POLYLINE
  8
PLAN_1
 62
     5
  6
CONTINUOUS
 66
     1
 40
0.003000
 41
0.003000
  0
VERTEX
  8
PLAN_1
 62
     5
  6
CONTINUOUS
 10
-0.578382
 20
1.451717
  0
VERTEX
  8
PLAN_1
 62
     5
  6
CONTINUOUS
 10
-0.578382
 20
1.443417
  0
SEQEND
  8
0
  0
POLYLINE
  8
PLAN_1
 62
     5
  6
CONTINUOUS
 66
     1
 40
0.003000
 41
0.003000
  0
VERTEX
  8
PLAN_1
 62
     5
  6
CONTINUOUS
 10
-0.578382
 20
1.435122
  0
VERTEX
  8
PLAN_1
 62
     5
  6
CONTINUOUS
 10
-0.578382
 20
1.426827
  0
SEQEND
  8
0
  0
POLYLINE
  8
PLAN_1
 62
     5
  6
CONTINUOUS
 66
     1
 40
0.003000
 41
0.003000
  0
VERTEX
  8
PLAN_1
 62
     5
  6
CONTINUOUS
 10
-0.578382
 20
1.418528
  0
VERTEX
  8
PLAN_1
 62
     5
  6
CONTINUOUS
 10
-0.578382
 20
1.410232
  0
SEQEND
  8
0
  0
POLYLINE
  8
PLAN_1
 62
     5
  6
CONTINUOUS
 66
     1
 40
0.003000
 41
0.003000
  0
VERTEX
  8
PLAN_1
 62
     5
  6
CONTINUOUS
 10
-0.578382
 20
1.401933
  0
VERTEX
  8
PLAN_1
 62
     5
  6
CONTINUOUS
 10
-0.578382
 20
1.393638
  0
SEQEND
  8
0
  0
POLYLINE
  8
PLAN_1
 62
     5
  6
CONTINUOUS
 66
     1
 40
0.003000
 41
0.003000
  0
VERTEX
  8
PLAN_1
 62
     5
  6
CONTINUOUS
 10
-0.578382
 20
1.385339
  0
VERTEX
  8
PLAN_1
 62
     5
  6
CONTINUOUS
 10
-0.578382
 20
1.377043
  0
SEQEND
  8
0
  0
POLYLINE
  8
PLAN_1
 62
     5
  6
CONTINUOUS
 66
     1
 40
0.003000
 41
0.003000
  0
VERTEX
  8
PLAN_1
 62
     5
  6
CONTINUOUS
 10
-0.578382
 20
1.368311
  0
VERTEX
  8
PLAN_1
 62
     5
  6
CONTINUOUS
 10
-0.578382
 20
1.360012
  0
SEQEND
  8
0
  0
POLYLINE
  8
PLAN_1
 62
     5
  6
CONTINUOUS
 66
     1
 40
0.003000
 41
0.003000
  0
VERTEX
  8
PLAN_1
 62
     5
  6
CONTINUOUS
 10
-0.578382
 20
1.351717
  0
VERTEX
  8
PLAN_1
 62
     5
  6
CONTINUOUS
 10
-0.578382
 20
1.343417
  0
SEQEND
  8
0
  0
POLYLINE
  8
PLAN_1
 62
     5
  6
CONTINUOUS
 66
     1
 40
0.003000
 41
0.003000
  0
VERTEX
  8
PLAN_1
 62
     5
  6
CONTINUOUS
 10
-0.578382
 20
1.335122
  0
VERTEX
  8
PLAN_1
 62
     5
  6
CONTINUOUS
 10
-0.578382
 20
1.326827
  0
SEQEND
  8
0
  0
POLYLINE
  8
PLAN_1
 62
     5
  6
CONTINUOUS
 66
     1
 40
0.003000
 41
0.003000
  0
VERTEX
  8
PLAN_1
 62
     5
  6
CONTINUOUS
 10
-0.578382
 20
1.318528
  0
VERTEX
  8
PLAN_1
 62
     5
  6
CONTINUOUS
 10
-0.578382
 20
1.310232
  0
SEQEND
  8
0
  0
POLYLINE
  8
PLAN_1
 62
     5
  6
CONTINUOUS
 66
     1
 40
0.003000
 41
0.003000
  0
VERTEX
  8
PLAN_1
 62
     5
  6
CONTINUOUS
 10
-0.578382
 20
1.301933
  0
VERTEX
  8
PLAN_1
 62
     5
  6
CONTINUOUS
 10
-0.578382
 20
1.293638
  0
SEQEND
  8
0
  0
POLYLINE
  8
PLAN_1
 62
     5
  6
CONTINUOUS
 66
     1
 40
0.003000
 41
0.003000
  0
VERTEX
  8
PLAN_1
 62
     5
  6
CONTINUOUS
 10
-0.578382
 20
1.285343
  0
VERTEX
  8
PLAN_1
 62
     5
  6
CONTINUOUS
 10
-0.578382
 20
1.277043
  0
SEQEND
  8
0
  0
POLYLINE
  8
PLAN_1
 62
     5
  6
CONTINUOUS
 66
     1
 40
0.003000
 41
0.003000
  0
VERTEX
  8
PLAN_1
 62
     5
  6
CONTINUOUS
 10
-0.578382
 20
1.268748
  0
VERTEX
  8
PLAN_1
 62
     5
  6
CONTINUOUS
 10
-0.578382
 20
1.260449
  0
SEQEND
  8
0
  0
POLYLINE
  8
PLAN_1
 62
     5
  6
CONTINUOUS
 66
     1
 40
0.003000
 41
0.003000
  0
VERTEX
  8
PLAN_1
 62
     5
  6
CONTINUOUS
 10
-0.578382
 20
1.251717
  0
VERTEX
  8
PLAN_1
 62
     5
  6
CONTINUOUS
 10
-0.578382
 20
1.243421
  0
SEQEND
  8
0
  0
POLYLINE
  8
PLAN_1
 62
     5
  6
CONTINUOUS
 66
     1
 40
0.003000
 41
0.003000
  0
VERTEX
  8
PLAN_1
 62
     5
  6
CONTINUOUS
 10
-0.578382
 20
1.235122
  0
VERTEX
  8
PLAN_1
 62
     5
  6
CONTINUOUS
 10
-0.578382
 20
1.226827
  0
SEQEND
  8
0
  0
POLYLINE
  8
PLAN_1
 62
     5
  6
CONTINUOUS
 66
     1
 40
0.003000
 41
0.003000
  0
VERTEX
  8
PLAN_1
 62
     5
  6
CONTINUOUS
 10
-0.578382
 20
1.218528
  0
VERTEX
  8
PLAN_1
 62
     5
  6
CONTINUOUS
 10
-0.578382
 20
1.210232
  0
SEQEND
  8
0
  0
POLYLINE
  8
PLAN_1
 62
     5
  6
CONTINUOUS
 66
     1
 40
0.003000
 41
0.003000
  0
VERTEX
  8
PLAN_1
 62
     5
  6
CONTINUOUS
 10
-0.578382
 20
1.201933
  0
VERTEX
  8
PLAN_1
 62
     5
  6
CONTINUOUS
 10
-0.578382
 20
1.193638
  0
SEQEND
  8
0
  0
POLYLINE
  8
PLAN_1
 62
     5
  6
CONTINUOUS
 66
     1
 40
0.003000
 41
0.003000
  0
VERTEX
  8
PLAN_1
 62
     5
  6
CONTINUOUS
 10
-0.578382
 20
1.185343
  0
VERTEX
  8
PLAN_1
 62
     5
  6
CONTINUOUS
 10
-0.578382
 20
1.177043
  0
SEQEND
  8
0
  0
POLYLINE
  8
PLAN_1
 62
     5
  6
CONTINUOUS
 66
     1
 40
0.003000
 41
0.003000
  0
VERTEX
  8
PLAN_1
 62
     5
  6
CONTINUOUS
 10
-0.578382
 20
1.168748
  0
VERTEX
  8
PLAN_1
 62
     5
  6
CONTINUOUS
 10
-0.578382
 20
1.160449
  0
SEQEND
  8
0
  0
POLYLINE
  8
PLAN_1
 62
     5
  6
CONTINUOUS
 66
     1
 40
0.003000
 41
0.003000
  0
VERTEX
  8
PLAN_1
 62
     5
  6
CONTINUOUS
 10
-0.578382
 20
1.152154
  0
VERTEX
  8
PLAN_1
 62
     5
  6
CONTINUOUS
 10
-0.578382
 20
1.143854
  0
SEQEND
  8
0
  0
POLYLINE
  8
PLAN_1
 62
     5
  6
CONTINUOUS
 66
     1
 40
0.003000
 41
0.003000
  0
VERTEX
  8
PLAN_1
 62
     5
  6
CONTINUOUS
 10
-0.578382
 20
1.135559
  0
VERTEX
  8
PLAN_1
 62
     5
  6
CONTINUOUS
 10
-0.578382
 20
1.126827
  0
SEQEND
  8
0
  0
POLYLINE
  8
PLAN_1
 62
     5
  6
CONTINUOUS
 66
     1
 40
0.003000
 41
0.003000
  0
VERTEX
  8
PLAN_1
 62
     5
  6
CONTINUOUS
 10
-0.578382
 20
1.118528
  0
VERTEX
  8
PLAN_1
 62
     5
  6
CONTINUOUS
 10
-0.578382
 20
1.110232
  0
SEQEND
  8
0
  0
POLYLINE
  8
PLAN_1
 62
     5
  6
CONTINUOUS
 66
     1
 40
0.003000
 41
0.003000
  0
VERTEX
  8
PLAN_1
 62
     5
  6
CONTINUOUS
 10
-0.578382
 20
1.101933
  0
VERTEX
  8
PLAN_1
 62
     5
  6
CONTINUOUS
 10
-0.578382
 20
1.093638
  0
SEQEND
  8
0
  0
POLYLINE
  8
PLAN_1
 62
     5
  6
CONTINUOUS
 66
     1
 40
0.003000
 41
0.003000
  0
VERTEX
  8
PLAN_1
 62
     5
  6
CONTINUOUS
 10
-0.578382
 20
1.085343
  0
VERTEX
  8
PLAN_1
 62
     5
  6
CONTINUOUS
 10
-0.578382
 20
1.077043
  0
SEQEND
  8
0
  0
POLYLINE
  8
PLAN_1
 62
     5
  6
CONTINUOUS
 66
     1
 40
0.003000
 41
0.003000
  0
VERTEX
  8
PLAN_1
 62
     5
  6
CONTINUOUS
 10
-0.578382
 20
1.068748
  0
VERTEX
  8
PLAN_1
 62
     5
  6
CONTINUOUS
 10
-0.578382
 20
1.060449
  0
SEQEND
  8
0
  0
POLYLINE
  8
PLAN_1
 62
     5
  6
CONTINUOUS
 66
     1
 40
0.003000
 41
0.003000
  0
VERTEX
  8
PLAN_1
 62
     5
  6
CONTINUOUS
 10
-0.578382
 20
1.052154
  0
VERTEX
  8
PLAN_1
 62
     5
  6
CONTINUOUS
 10
-0.578382
 20
1.043858
  0
SEQEND
  8
0
  0
POLYLINE
  8
PLAN_1
 62
     5
  6
CONTINUOUS
 66
     1
 40
0.003000
 41
0.003000
  0
VERTEX
  8
PLAN_1
 62
     5
  6
CONTINUOUS
 10
-0.578382
 20
1.035559
  0
VERTEX
  8
PLAN_1
 62
     5
  6
CONTINUOUS
 10
-0.578382
 20
1.027264
  0
SEQEND
  8
0
  0
POLYLINE
  8
PLAN_1
 62
     5
  6
CONTINUOUS
 66
     1
 40
0.003000
 41
0.003000
  0
VERTEX
  8
PLAN_1
 62
     5
  6
CONTINUOUS
 10
-0.578382
 20
1.018965
  0
VERTEX
  8
PLAN_1
 62
     5
  6
CONTINUOUS
 10
-0.578382
 20
1.010232
  0
SEQEND
  8
0
  0
POLYLINE
  8
PLAN_1
 62
     5
  6
CONTINUOUS
 66
     1
 40
0.003000
 41
0.003000
  0
VERTEX
  8
PLAN_1
 62
     5
  6
CONTINUOUS
 10
-0.578382
 20
1.001937
  0
VERTEX
  8
PLAN_1
 62
     5
  6
CONTINUOUS
 10
-0.578382
 20
0.993638
  0
SEQEND
  8
0
  0
POLYLINE
  8
PLAN_1
 62
     5
  6
CONTINUOUS
 66
     1
 40
0.003000
 41
0.003000
  0
VERTEX
  8
PLAN_1
 62
     5
  6
CONTINUOUS
 10
-0.578382
 20
0.985343
  0
VERTEX
  8
PLAN_1
 62
     5
  6
CONTINUOUS
 10
-0.578382
 20
0.977043
  0
SEQEND
  8
0
  0
POLYLINE
  8
PLAN_1
 62
     5
  6
CONTINUOUS
 66
     1
 40
0.003000
 41
0.003000
  0
VERTEX
  8
PLAN_1
 62
     5
  6
CONTINUOUS
 10
-0.578382
 20
0.968748
  0
VERTEX
  8
PLAN_1
 62
     5
  6
CONTINUOUS
 10
-0.578382
 20
0.960449
  0
SEQEND
  8
0
  0
POLYLINE
  8
PLAN_1
 62
     5
  6
CONTINUOUS
 66
     1
 40
0.003000
 41
0.003000
  0
VERTEX
  8
PLAN_1
 62
     5
  6
CONTINUOUS
 10
-0.578382
 20
0.952154
  0
VERTEX
  8
PLAN_1
 62
     5
  6
CONTINUOUS
 10
-0.578382
 20
0.943858
  0
SEQEND
  8
0
  0
POLYLINE
  8
PLAN_1
 62
     5
  6
CONTINUOUS
 66
     1
 40
0.003000
 41
0.003000
  0
VERTEX
  8
PLAN_1
 62
     5
  6
CONTINUOUS
 10
-0.578382
 20
0.935559
  0
VERTEX
  8
PLAN_1
 62
     5
  6
CONTINUOUS
 10
-0.578382
 20
0.927264
  0
SEQEND
  8
0
  0
POLYLINE
  8
PLAN_1
 62
     5
  6
CONTINUOUS
 66
     1
 40
0.003000
 41
0.003000
  0
VERTEX
  8
PLAN_1
 62
     5
  6
CONTINUOUS
 10
-0.578382
 20
0.918965
  0
VERTEX
  8
PLAN_1
 62
     5
  6
CONTINUOUS
 10
-0.578382
 20
0.910669
  0
SEQEND
  8
0
  0
POLYLINE
  8
PLAN_1
 62
     5
  6
CONTINUOUS
 66
     1
 40
0.003000
 41
0.003000
  0
VERTEX
  8
PLAN_1
 62
     5
  6
CONTINUOUS
 10
-0.578382
 20
0.902370
  0
VERTEX
  8
PLAN_1
 62
     5
  6
CONTINUOUS
 10
-0.578382
 20
0.894075
  0
SEQEND
  8
0
  0
POLYLINE
  8
PLAN_1
 62
     5
  6
CONTINUOUS
 66
     1
 40
0.003000
 41
0.003000
  0
VERTEX
  8
PLAN_1
 62
     5
  6
CONTINUOUS
 10
-0.578382
 20
0.885343
  0
VERTEX
  8
PLAN_1
 62
     5
  6
CONTINUOUS
 10
-0.578382
 20
0.877043
  0
SEQEND
  8
0
  0
POLYLINE
  8
PLAN_1
 62
     5
  6
CONTINUOUS
 66
     1
 40
0.003000
 41
0.003000
  0
VERTEX
  8
PLAN_1
 62
     5
  6
CONTINUOUS
 10
-0.578382
 20
0.868748
  0
VERTEX
  8
PLAN_1
 62
     5
  6
CONTINUOUS
 10
-0.578382
 20
0.860449
  0
SEQEND
  8
0
  0
POLYLINE
  8
PLAN_1
 62
     5
  6
CONTINUOUS
 66
     1
 40
0.003000
 41
0.003000
  0
VERTEX
  8
PLAN_1
 62
     5
  6
CONTINUOUS
 10
-0.578382
 20
0.852154
  0
VERTEX
  8
PLAN_1
 62
     5
  6
CONTINUOUS
 10
-0.578382
 20
0.843858
  0
SEQEND
  8
0
  0
POLYLINE
  8
PLAN_1
 62
     5
  6
CONTINUOUS
 66
     1
 40
0.003000
 41
0.003000
  0
VERTEX
  8
PLAN_1
 62
     5
  6
CONTINUOUS
 10
-0.578382
 20
0.835559
  0
VERTEX
  8
PLAN_1
 62
     5
  6
CONTINUOUS
 10
-0.578382
 20
0.827264
  0
SEQEND
  8
0
  0
POLYLINE
  8
PLAN_1
 62
     5
  6
CONTINUOUS
 66
     1
 40
0.003000
 41
0.003000
  0
VERTEX
  8
PLAN_1
 62
     5
  6
CONTINUOUS
 10
-0.578382
 20
0.818965
  0
VERTEX
  8
PLAN_1
 62
     5
  6
CONTINUOUS
 10
-0.578382
 20
0.812854
  0
SEQEND
  8
0
  0
POLYLINE
  8
PLAN_1
 62
     5
  6
CONTINUOUS
 66
     1
 40
0.003000
 41
0.003000
  0
VERTEX
  8
PLAN_1
 62
     5
  6
CONTINUOUS
 10
-0.578382
 20
0.818965
  0
VERTEX
  8
PLAN_1
 62
     5
  6
CONTINUOUS
 10
-0.578382
 20
0.812854
  0
SEQEND
  8
0
  0
POLYLINE
  8
PLAN_1
 62
     5
  6
CONTINUOUS
 66
     1
 40
0.003000
 41
0.003000
  0
VERTEX
  8
PLAN_1
 62
     5
  6
CONTINUOUS
 10
-0.898031
 20
1.340362
  0
VERTEX
  8
PLAN_1
 62
     5
  6
CONTINUOUS
 10
-0.889736
 20
1.340362
  0
SEQEND
  8
0
  0
POLYLINE
  8
PLAN_1
 62
     5
  6
CONTINUOUS
 66
     1
 40
0.003000
 41
0.003000
  0
VERTEX
  8
PLAN_1
 62
     5
  6
CONTINUOUS
 10
-0.881441
 20
1.340362
  0
VERTEX
  8
PLAN_1
 62
     5
  6
CONTINUOUS
 10
-0.873142
 20
1.340362
  0
SEQEND
  8
0
  0
POLYLINE
  8
PLAN_1
 62
     5
  6
CONTINUOUS
 66
     1
 40
0.003000
 41
0.003000
  0
VERTEX
  8
PLAN_1
 62
     5
  6
CONTINUOUS
 10
-0.864846
 20
1.340362
  0
VERTEX
  8
PLAN_1
 62
     5
  6
CONTINUOUS
 10
-0.856547
 20
1.340362
  0
SEQEND
  8
0
  0
POLYLINE
  8
PLAN_1
 62
     5
  6
CONTINUOUS
 66
     1
 40
0.003000
 41
0.003000
  0
VERTEX
  8
PLAN_1
 62
     5
  6
CONTINUOUS
 10
-0.848252
 20
1.340362
  0
VERTEX
  8
PLAN_1
 62
     5
  6
CONTINUOUS
 10
-0.839953
 20
1.340362
  0
SEQEND
  8
0
  0
POLYLINE
  8
PLAN_1
 62
     5
  6
CONTINUOUS
 66
     1
 40
0.003000
 41
0.003000
  0
VERTEX
  8
PLAN_1
 62
     5
  6
CONTINUOUS
 10
-0.831657
 20
1.340362
  0
VERTEX
  8
PLAN_1
 62
     5
  6
CONTINUOUS
 10
-0.823362
 20
1.340362
  0
SEQEND
  8
0
  0
POLYLINE
  8
PLAN_1
 62
     5
  6
CONTINUOUS
 66
     1
 40
0.003000
 41
0.003000
  0
VERTEX
  8
PLAN_1
 62
     5
  6
CONTINUOUS
 10
-0.815063
 20
1.340362
  0
VERTEX
  8
PLAN_1
 62
     5
  6
CONTINUOUS
 10
-0.806768
 20
1.340362
  0
SEQEND
  8
0
  0
POLYLINE
  8
PLAN_1
 62
     5
  6
CONTINUOUS
 66
     1
 40
0.003000
 41
0.003000
  0
VERTEX
  8
PLAN_1
 62
     5
  6
CONTINUOUS
 10
-0.798469
 20
1.340362
  0
VERTEX
  8
PLAN_1
 62
     5
  6
CONTINUOUS
 10
-0.789736
 20
1.340362
  0
SEQEND
  8
0
  0
POLYLINE
  8
PLAN_1
 62
     5
  6
CONTINUOUS
 66
     1
 40
0.003000
 41
0.003000
  0
VERTEX
  8
PLAN_1
 62
     5
  6
CONTINUOUS
 10
-0.781441
 20
1.340362
  0
VERTEX
  8
PLAN_1
 62
     5
  6
CONTINUOUS
 10
-0.773142
 20
1.340362
  0
SEQEND
  8
0
  0
POLYLINE
  8
PLAN_1
 62
     5
  6
CONTINUOUS
 66
     1
 40
0.003000
 41
0.003000
  0
VERTEX
  8
PLAN_1
 62
     5
  6
CONTINUOUS
 10
-0.764846
 20
1.340362
  0
VERTEX
  8
PLAN_1
 62
     5
  6
CONTINUOUS
 10
-0.756547
 20
1.340362
  0
SEQEND
  8
0
  0
POLYLINE
  8
PLAN_1
 62
     5
  6
CONTINUOUS
 66
     1
 40
0.003000
 41
0.003000
  0
VERTEX
  8
PLAN_1
 62
     5
  6
CONTINUOUS
 10
-0.748252
 20
1.340362
  0
VERTEX
  8
PLAN_1
 62
     5
  6
CONTINUOUS
 10
-0.739957
 20
1.340362
  0
SEQEND
  8
0
  0
POLYLINE
  8
PLAN_1
 62
     5
  6
CONTINUOUS
 66
     1
 40
0.003000
 41
0.003000
  0
VERTEX
  8
PLAN_1
 62
     5
  6
CONTINUOUS
 10
-0.731657
 20
1.340362
  0
VERTEX
  8
PLAN_1
 62
     5
  6
CONTINUOUS
 10
-0.723362
 20
1.340362
  0
SEQEND
  8
0
  0
POLYLINE
  8
PLAN_1
 62
     5
  6
CONTINUOUS
 66
     1
 40
0.003000
 41
0.003000
  0
VERTEX
  8
PLAN_1
 62
     5
  6
CONTINUOUS
 10
-0.715063
 20
1.340362
  0
VERTEX
  8
PLAN_1
 62
     5
  6
CONTINUOUS
 10
-0.706768
 20
1.340362
  0
SEQEND
  8
0
  0
POLYLINE
  8
PLAN_1
 62
     5
  6
CONTINUOUS
 66
     1
 40
0.003000
 41
0.003000
  0
VERTEX
  8
PLAN_1
 62
     5
  6
CONTINUOUS
 10
-0.698469
 20
1.340362
  0
VERTEX
  8
PLAN_1
 62
     5
  6
CONTINUOUS
 10
-0.690173
 20
1.340362
  0
SEQEND
  8
0
  0
POLYLINE
  8
PLAN_1
 62
     5
  6
CONTINUOUS
 66
     1
 40
0.003000
 41
0.003000
  0
VERTEX
  8
PLAN_1
 62
     5
  6
CONTINUOUS
 10
-0.681878
 20
1.340362
  0
VERTEX
  8
PLAN_1
 62
     5
  6
CONTINUOUS
 10
-0.673142
 20
1.340362
  0
SEQEND
  8
0
  0
POLYLINE
  8
PLAN_1
 62
     5
  6
CONTINUOUS
 66
     1
 40
0.003000
 41
0.003000
  0
VERTEX
  8
PLAN_1
 62
     5
  6
CONTINUOUS
 10
-0.664846
 20
1.340362
  0
VERTEX
  8
PLAN_1
 62
     5
  6
CONTINUOUS
 10
-0.656547
 20
1.340362
  0
SEQEND
  8
0
  0
POLYLINE
  8
PLAN_1
 62
     5
  6
CONTINUOUS
 66
     1
 40
0.003000
 41
0.003000
  0
VERTEX
  8
PLAN_1
 62
     5
  6
CONTINUOUS
 10
-0.648252
 20
1.340362
  0
VERTEX
  8
PLAN_1
 62
     5
  6
CONTINUOUS
 10
-0.639957
 20
1.340362
  0
SEQEND
  8
0
  0
POLYLINE
  8
PLAN_1
 62
     5
  6
CONTINUOUS
 66
     1
 40
0.003000
 41
0.003000
  0
VERTEX
  8
PLAN_1
 62
     5
  6
CONTINUOUS
 10
-0.631657
 20
1.340362
  0
VERTEX
  8
PLAN_1
 62
     5
  6
CONTINUOUS
 10
-0.623362
 20
1.340362
  0
SEQEND
  8
0
  0
POLYLINE
  8
PLAN_1
 62
     5
  6
CONTINUOUS
 66
     1
 40
0.003000
 41
0.003000
  0
VERTEX
  8
PLAN_1
 62
     5
  6
CONTINUOUS
 10
-0.615063
 20
1.340362
  0
VERTEX
  8
PLAN_1
 62
     5
  6
CONTINUOUS
 10
-0.606768
 20
1.340362
  0
SEQEND
  8
0
  0
POLYLINE
  8
PLAN_1
 62
     5
  6
CONTINUOUS
 66
     1
 40
0.003000
 41
0.003000
  0
VERTEX
  8
PLAN_1
 62
     5
  6
CONTINUOUS
 10
-0.598469
 20
1.340362
  0
VERTEX
  8
PLAN_1
 62
     5
  6
CONTINUOUS
 10
-0.590173
 20
1.340362
  0
SEQEND
  8
0
  0
POLYLINE
  8
PLAN_1
 62
     5
  6
CONTINUOUS
 66
     1
 40
0.003000
 41
0.003000
  0
VERTEX
  8
PLAN_1
 62
     5
  6
CONTINUOUS
 10
-0.763535
 20
1.211543
  0
VERTEX
  8
PLAN_1
 62
     5
  6
CONTINUOUS
 10
-0.763535
 20
1.219839
  0
SEQEND
  8
0
  0
POLYLINE
  8
PLAN_1
 62
     5
  6
CONTINUOUS
 66
     1
 40
0.003000
 41
0.003000
  0
VERTEX
  8
PLAN_1
 62
     5
  6
CONTINUOUS
 10
-0.763535
 20
1.228134
  0
VERTEX
  8
PLAN_1
 62
     5
  6
CONTINUOUS
 10
-0.763535
 20
1.236433
  0
SEQEND
  8
0
  0
POLYLINE
  8
PLAN_1
 62
     5
  6
CONTINUOUS
 66
     1
 40
0.003000
 41
0.003000
  0
VERTEX
  8
PLAN_1
 62
     5
  6
CONTINUOUS
 10
-0.763535
 20
1.244728
  0
VERTEX
  8
PLAN_1
 62
     5
  6
CONTINUOUS
 10
-0.763535
 20
1.253028
  0
SEQEND
  8
0
  0
POLYLINE
  8
PLAN_1
 62
     5
  6
CONTINUOUS
 66
     1
 40
0.003000
 41
0.003000
  0
VERTEX
  8
PLAN_1
 62
     5
  6
CONTINUOUS
 10
-0.763535
 20
1.261323
  0
VERTEX
  8
PLAN_1
 62
     5
  6
CONTINUOUS
 10
-0.763535
 20
1.269622
  0
SEQEND
  8
0
  0
POLYLINE
  8
PLAN_1
 62
     5
  6
CONTINUOUS
 66
     1
 40
0.003000
 41
0.003000
  0
VERTEX
  8
PLAN_1
 62
     5
  6
CONTINUOUS
 10
-0.763535
 20
1.277917
  0
VERTEX
  8
PLAN_1
 62
     5
  6
CONTINUOUS
 10
-0.763535
 20
1.286213
  0
SEQEND
  8
0
  0
POLYLINE
  8
PLAN_1
 62
     5
  6
CONTINUOUS
 66
     1
 40
0.003000
 41
0.003000
  0
VERTEX
  8
PLAN_1
 62
     5
  6
CONTINUOUS
 10
-0.763535
 20
1.294512
  0
VERTEX
  8
PLAN_1
 62
     5
  6
CONTINUOUS
 10
-0.763535
 20
1.302807
  0
SEQEND
  8
0
  0
POLYLINE
  8
PLAN_1
 62
     5
  6
CONTINUOUS
 66
     1
 40
0.003000
 41
0.003000
  0
VERTEX
  8
PLAN_1
 62
     5
  6
CONTINUOUS
 10
-0.763535
 20
1.311106
  0
VERTEX
  8
PLAN_1
 62
     5
  6
CONTINUOUS
 10
-0.763535
 20
1.319839
  0
SEQEND
  8
0
  0
POLYLINE
  8
PLAN_1
 62
     5
  6
CONTINUOUS
 66
     1
 40
0.003000
 41
0.003000
  0
VERTEX
  8
PLAN_1
 62
     5
  6
CONTINUOUS
 10
-0.763535
 20
1.328134
  0
VERTEX
  8
PLAN_1
 62
     5
  6
CONTINUOUS
 10
-0.763535
 20
1.336433
  0
SEQEND
  8
0
  0
POLYLINE
  8
PLAN_1
 62
     5
  6
CONTINUOUS
 66
     1
 40
0.003000
 41
0.003000
  0
VERTEX
  8
PLAN_1
 62
     5
  6
CONTINUOUS
 10
-0.763535
 20
1.344728
  0
VERTEX
  8
PLAN_1
 62
     5
  6
CONTINUOUS
 10
-0.763535
 20
1.353028
  0
SEQEND
  8
0
  0
POLYLINE
  8
PLAN_1
 62
     5
  6
CONTINUOUS
 66
     1
 40
0.003000
 41
0.003000
  0
VERTEX
  8
PLAN_1
 62
     5
  6
CONTINUOUS
 10
-0.763535
 20
1.361323
  0
VERTEX
  8
PLAN_1
 62
     5
  6
CONTINUOUS
 10
-0.763535
 20
1.369618
  0
SEQEND
  8
0
  0
POLYLINE
  8
PLAN_1
 62
     5
  6
CONTINUOUS
 66
     1
 40
0.003000
 41
0.003000
  0
VERTEX
  8
PLAN_1
 62
     5
  6
CONTINUOUS
 10
-0.763535
 20
1.377917
  0
VERTEX
  8
PLAN_1
 62
     5
  6
CONTINUOUS
 10
-0.763535
 20
1.386213
  0
SEQEND
  8
0
  0
POLYLINE
  8
PLAN_1
 62
     5
  6
CONTINUOUS
 66
     1
 40
0.003000
 41
0.003000
  0
VERTEX
  8
PLAN_1
 62
     5
  6
CONTINUOUS
 10
-0.763535
 20
1.394512
  0
VERTEX
  8
PLAN_1
 62
     5
  6
CONTINUOUS
 10
-0.763535
 20
1.402807
  0
SEQEND
  8
0
  0
POLYLINE
  8
PLAN_1
 62
     5
  6
CONTINUOUS
 66
     1
 40
0.003000
 41
0.003000
  0
VERTEX
  8
PLAN_1
 62
     5
  6
CONTINUOUS
 10
-0.763535
 20
1.411106
  0
VERTEX
  8
PLAN_1
 62
     5
  6
CONTINUOUS
 10
-0.763535
 20
1.419402
  0
SEQEND
  8
0
  0
POLYLINE
  8
PLAN_1
 62
     5
  6
CONTINUOUS
 66
     1
 40
0.003000
 41
0.003000
  0
VERTEX
  8
PLAN_1
 62
     5
  6
CONTINUOUS
 10
-0.763535
 20
1.427697
  0
VERTEX
  8
PLAN_1
 62
     5
  6
CONTINUOUS
 10
-0.763535
 20
1.436433
  0
SEQEND
  8
0
  0
POLYLINE
  8
PLAN_1
 62
     5
  6
CONTINUOUS
 66
     1
 40
0.003000
 41
0.003000
  0
VERTEX
  8
PLAN_1
 62
     5
  6
CONTINUOUS
 10
-0.763535
 20
1.444728
  0
VERTEX
  8
PLAN_1
 62
     5
  6
CONTINUOUS
 10
-0.763535
 20
1.453028
  0
SEQEND
  8
0
  0
POLYLINE
  8
PLAN_1
 62
     5
  6
CONTINUOUS
 66
     1
 40
0.003000
 41
0.003000
  0
VERTEX
  8
PLAN_1
 62
     5
  6
CONTINUOUS
 10
-0.763535
 20
1.461323
  0
VERTEX
  8
PLAN_1
 62
     5
  6
CONTINUOUS
 10
-0.763535
 20
1.469618
  0
SEQEND
  8
0
  0
POLYLINE
  8
PLAN_1
 62
     5
  6
CONTINUOUS
 66
     1
 40
0.003000
 41
0.003000
  0
VERTEX
  8
PLAN_1
 62
     5
  6
CONTINUOUS
 10
-2.136894
 20
1.339925
  0
VERTEX
  8
PLAN_1
 62
     5
  6
CONTINUOUS
 10
-2.128598
 20
1.339925
  0
SEQEND
  8
0
  0
POLYLINE
  8
PLAN_1
 62
     5
  6
CONTINUOUS
 66
     1
 40
0.003000
 41
0.003000
  0
VERTEX
  8
PLAN_1
 62
     5
  6
CONTINUOUS
 10
-2.120303
 20
1.339925
  0
VERTEX
  8
PLAN_1
 62
     5
  6
CONTINUOUS
 10
-2.112004
 20
1.339925
  0
SEQEND
  8
0
  0
POLYLINE
  8
PLAN_1
 62
     5
  6
CONTINUOUS
 66
     1
 40
0.003000
 41
0.003000
  0
VERTEX
  8
PLAN_1
 62
     5
  6
CONTINUOUS
 10
-2.103709
 20
1.339925
  0
VERTEX
  8
PLAN_1
 62
     5
  6
CONTINUOUS
 10
-2.095409
 20
1.339925
  0
SEQEND
  8
0
  0
POLYLINE
  8
PLAN_1
 62
     5
  6
CONTINUOUS
 66
     1
 40
0.003000
 41
0.003000
  0
VERTEX
  8
PLAN_1
 62
     5
  6
CONTINUOUS
 10
-2.087114
 20
1.339925
  0
VERTEX
  8
PLAN_1
 62
     5
  6
CONTINUOUS
 10
-2.078815
 20
1.339925
  0
SEQEND
  8
0
  0
POLYLINE
  8
PLAN_1
 62
     5
  6
CONTINUOUS
 66
     1
 40
0.003000
 41
0.003000
  0
VERTEX
  8
PLAN_1
 62
     5
  6
CONTINUOUS
 10
-2.070083
 20
1.339925
  0
VERTEX
  8
PLAN_1
 62
     5
  6
CONTINUOUS
 10
-2.061787
 20
1.339925
  0
SEQEND
  8
0
  0
POLYLINE
  8
PLAN_1
 62
     5
  6
CONTINUOUS
 66
     1
 40
0.003000
 41
0.003000
  0
VERTEX
  8
PLAN_1
 62
     5
  6
CONTINUOUS
 10
-2.053488
 20
1.339925
  0
VERTEX
  8
PLAN_1
 62
     5
  6
CONTINUOUS
 10
-2.045193
 20
1.339925
  0
SEQEND
  8
0
  0
POLYLINE
  8
PLAN_1
 62
     5
  6
CONTINUOUS
 66
     1
 40
0.003000
 41
0.003000
  0
VERTEX
  8
PLAN_1
 62
     5
  6
CONTINUOUS
 10
-2.036894
 20
1.339925
  0
VERTEX
  8
PLAN_1
 62
     5
  6
CONTINUOUS
 10
-2.028598
 20
1.339925
  0
SEQEND
  8
0
  0
POLYLINE
  8
PLAN_1
 62
     5
  6
CONTINUOUS
 66
     1
 40
0.003000
 41
0.003000
  0
VERTEX
  8
PLAN_1
 62
     5
  6
CONTINUOUS
 10
-2.020303
 20
1.339925
  0
VERTEX
  8
PLAN_1
 62
     5
  6
CONTINUOUS
 10
-2.012004
 20
1.339925
  0
SEQEND
  8
0
  0
POLYLINE
  8
PLAN_1
 62
     5
  6
CONTINUOUS
 66
     1
 40
0.003000
 41
0.003000
  0
VERTEX
  8
PLAN_1
 62
     5
  6
CONTINUOUS
 10
-2.003709
 20
1.339925
  0
VERTEX
  8
PLAN_1
 62
     5
  6
CONTINUOUS
 10
-1.995409
 20
1.339925
  0
SEQEND
  8
0
  0
POLYLINE
  8
PLAN_1
 62
     5
  6
CONTINUOUS
 66
     1
 40
0.003000
 41
0.003000
  0
VERTEX
  8
PLAN_1
 62
     5
  6
CONTINUOUS
 10
-1.987114
 20
1.339925
  0
VERTEX
  8
PLAN_1
 62
     5
  6
CONTINUOUS
 10
-1.978819
 20
1.339925
  0
SEQEND
  8
0
  0
POLYLINE
  8
PLAN_1
 62
     5
  6
CONTINUOUS
 66
     1
 40
0.003000
 41
0.003000
  0
VERTEX
  8
PLAN_1
 62
     5
  6
CONTINUOUS
 10
-1.970520
 20
1.339925
  0
VERTEX
  8
PLAN_1
 62
     5
  6
CONTINUOUS
 10
-1.962224
 20
1.339925
  0
SEQEND
  8
0
  0
POLYLINE
  8
PLAN_1
 62
     5
  6
CONTINUOUS
 66
     1
 40
0.003000
 41
0.003000
  0
VERTEX
  8
PLAN_1
 62
     5
  6
CONTINUOUS
 10
-1.953925
 20
1.339925
  0
VERTEX
  8
PLAN_1
 62
     5
  6
CONTINUOUS
 10
-1.945193
 20
1.339925
  0
SEQEND
  8
0
  0
POLYLINE
  8
PLAN_1
 62
     5
  6
CONTINUOUS
 66
     1
 40
0.003000
 41
0.003000
  0
VERTEX
  8
PLAN_1
 62
     5
  6
CONTINUOUS
 10
-1.936898
 20
1.339925
  0
VERTEX
  8
PLAN_1
 62
     5
  6
CONTINUOUS
 10
-1.928598
 20
1.339925
  0
SEQEND
  8
0
  0
POLYLINE
  8
PLAN_1
 62
     5
  6
CONTINUOUS
 66
     1
 40
0.003000
 41
0.003000
  0
VERTEX
  8
PLAN_1
 62
     5
  6
CONTINUOUS
 10
-1.920303
 20
1.339925
  0
VERTEX
  8
PLAN_1
 62
     5
  6
CONTINUOUS
 10
-1.912004
 20
1.339925
  0
SEQEND
  8
0
  0
POLYLINE
  8
PLAN_1
 62
     5
  6
CONTINUOUS
 66
     1
 40
0.003000
 41
0.003000
  0
VERTEX
  8
PLAN_1
 62
     5
  6
CONTINUOUS
 10
-1.903709
 20
1.339925
  0
VERTEX
  8
PLAN_1
 62
     5
  6
CONTINUOUS
 10
-1.895409
 20
1.339925
  0
SEQEND
  8
0
  0
POLYLINE
  8
PLAN_1
 62
     5
  6
CONTINUOUS
 66
     1
 40
0.003000
 41
0.003000
  0
VERTEX
  8
PLAN_1
 62
     5
  6
CONTINUOUS
 10
-1.887114
 20
1.339925
  0
VERTEX
  8
PLAN_1
 62
     5
  6
CONTINUOUS
 10
-1.878819
 20
1.339925
  0
SEQEND
  8
0
  0
POLYLINE
  8
PLAN_1
 62
     5
  6
CONTINUOUS
 66
     1
 40
0.003000
 41
0.003000
  0
VERTEX
  8
PLAN_1
 62
     5
  6
CONTINUOUS
 10
-1.870520
 20
1.339925
  0
VERTEX
  8
PLAN_1
 62
     5
  6
CONTINUOUS
 10
-1.862224
 20
1.339925
  0
SEQEND
  8
0
  0
POLYLINE
  8
PLAN_1
 62
     5
  6
CONTINUOUS
 66
     1
 40
0.003000
 41
0.003000
  0
VERTEX
  8
PLAN_1
 62
     5
  6
CONTINUOUS
 10
-1.870520
 20
1.339925
  0
VERTEX
  8
PLAN_1
 62
     5
  6
CONTINUOUS
 10
-1.862224
 20
1.339925
  0
SEQEND
  8
0
  0
POLYLINE
  8
PLAN_1
 62
     5
  6
CONTINUOUS
 66
     1
 40
0.003000
 41
0.003000
  0
VERTEX
  8
PLAN_1
 62
     5
  6
CONTINUOUS
 10
-2.001961
 20
1.196693
  0
VERTEX
  8
PLAN_1
 62
     5
  6
CONTINUOUS
 10
-2.001961
 20
1.204992
  0
SEQEND
  8
0
  0
POLYLINE
  8
PLAN_1
 62
     5
  6
CONTINUOUS
 66
     1
 40
0.003000
 41
0.003000
  0
VERTEX
  8
PLAN_1
 62
     5
  6
CONTINUOUS
 10
-2.001961
 20
1.213287
  0
VERTEX
  8
PLAN_1
 62
     5
  6
CONTINUOUS
 10
-2.001961
 20
1.221587
  0
SEQEND
  8
0
  0
POLYLINE
  8
PLAN_1
 62
     5
  6
CONTINUOUS
 66
     1
 40
0.003000
 41
0.003000
  0
VERTEX
  8
PLAN_1
 62
     5
  6
CONTINUOUS
 10
-2.001961
 20
1.230319
  0
VERTEX
  8
PLAN_1
 62
     5
  6
CONTINUOUS
 10
-2.001961
 20
1.238614
  0
SEQEND
  8
0
  0
POLYLINE
  8
PLAN_1
 62
     5
  6
CONTINUOUS
 66
     1
 40
0.003000
 41
0.003000
  0
VERTEX
  8
PLAN_1
 62
     5
  6
CONTINUOUS
 10
-2.001961
 20
1.246913
  0
VERTEX
  8
PLAN_1
 62
     5
  6
CONTINUOUS
 10
-2.001961
 20
1.255209
  0
SEQEND
  8
0
  0
POLYLINE
  8
PLAN_1
 62
     5
  6
CONTINUOUS
 66
     1
 40
0.003000
 41
0.003000
  0
VERTEX
  8
PLAN_1
 62
     5
  6
CONTINUOUS
 10
-2.001961
 20
1.263508
  0
VERTEX
  8
PLAN_1
 62
     5
  6
CONTINUOUS
 10
-2.001961
 20
1.271803
  0
SEQEND
  8
0
  0
POLYLINE
  8
PLAN_1
 62
     5
  6
CONTINUOUS
 66
     1
 40
0.003000
 41
0.003000
  0
VERTEX
  8
PLAN_1
 62
     5
  6
CONTINUOUS
 10
-2.001961
 20
1.280102
  0
VERTEX
  8
PLAN_1
 62
     5
  6
CONTINUOUS
 10
-2.001961
 20
1.288398
  0
SEQEND
  8
0
  0
POLYLINE
  8
PLAN_1
 62
     5
  6
CONTINUOUS
 66
     1
 40
0.003000
 41
0.003000
  0
VERTEX
  8
PLAN_1
 62
     5
  6
CONTINUOUS
 10
-2.001961
 20
1.296693
  0
VERTEX
  8
PLAN_1
 62
     5
  6
CONTINUOUS
 10
-2.001961
 20
1.304992
  0
SEQEND
  8
0
  0
POLYLINE
  8
PLAN_1
 62
     5
  6
CONTINUOUS
 66
     1
 40
0.003000
 41
0.003000
  0
VERTEX
  8
PLAN_1
 62
     5
  6
CONTINUOUS
 10
-2.001961
 20
1.313287
  0
VERTEX
  8
PLAN_1
 62
     5
  6
CONTINUOUS
 10
-2.001961
 20
1.321587
  0
SEQEND
  8
0
  0
POLYLINE
  8
PLAN_1
 62
     5
  6
CONTINUOUS
 66
     1
 40
0.003000
 41
0.003000
  0
VERTEX
  8
PLAN_1
 62
     5
  6
CONTINUOUS
 10
-2.001961
 20
1.329882
  0
VERTEX
  8
PLAN_1
 62
     5
  6
CONTINUOUS
 10
-2.001961
 20
1.338177
  0
SEQEND
  8
0
  0
POLYLINE
  8
PLAN_1
 62
     5
  6
CONTINUOUS
 66
     1
 40
0.003000
 41
0.003000
  0
VERTEX
  8
PLAN_1
 62
     5
  6
CONTINUOUS
 10
-2.001961
 20
1.346476
  0
VERTEX
  8
PLAN_1
 62
     5
  6
CONTINUOUS
 10
-2.001961
 20
1.355209
  0
SEQEND
  8
0
  0
POLYLINE
  8
PLAN_1
 62
     5
  6
CONTINUOUS
 66
     1
 40
0.003000
 41
0.003000
  0
VERTEX
  8
PLAN_1
 62
     5
  6
CONTINUOUS
 10
-2.001961
 20
1.363508
  0
VERTEX
  8
PLAN_1
 62
     5
  6
CONTINUOUS
 10
-2.001961
 20
1.371803
  0
SEQEND
  8
0
  0
POLYLINE
  8
PLAN_1
 62
     5
  6
CONTINUOUS
 66
     1
 40
0.003000
 41
0.003000
  0
VERTEX
  8
PLAN_1
 62
     5
  6
CONTINUOUS
 10
-2.001961
 20
1.380098
  0
VERTEX
  8
PLAN_1
 62
     5
  6
CONTINUOUS
 10
-2.001961
 20
1.388398
  0
SEQEND
  8
0
  0
POLYLINE
  8
PLAN_1
 62
     5
  6
CONTINUOUS
 66
     1
 40
0.003000
 41
0.003000
  0
VERTEX
  8
PLAN_1
 62
     5
  6
CONTINUOUS
 10
-2.001961
 20
1.396693
  0
VERTEX
  8
PLAN_1
 62
     5
  6
CONTINUOUS
 10
-2.001961
 20
1.404992
  0
SEQEND
  8
0
  0
POLYLINE
  8
PLAN_1
 62
     5
  6
CONTINUOUS
 66
     1
 40
0.003000
 41
0.003000
  0
VERTEX
  8
PLAN_1
 62
     5
  6
CONTINUOUS
 10
-2.001961
 20
1.413287
  0
VERTEX
  8
PLAN_1
 62
     5
  6
CONTINUOUS
 10
-2.001961
 20
1.421587
  0
SEQEND
  8
0
  0
POLYLINE
  8
PLAN_1
 62
     5
  6
CONTINUOUS
 66
     1
 40
0.003000
 41
0.003000
  0
VERTEX
  8
PLAN_1
 62
     5
  6
CONTINUOUS
 10
-2.001961
 20
1.429882
  0
VERTEX
  8
PLAN_1
 62
     5
  6
CONTINUOUS
 10
-2.001961
 20
1.438177
  0
SEQEND
  8
0
  0
POLYLINE
  8
PLAN_1
 62
     5
  6
CONTINUOUS
 66
     1
 40
0.003000
 41
0.003000
  0
VERTEX
  8
PLAN_1
 62
     5
  6
CONTINUOUS
 10
-2.001961
 20
1.446476
  0
VERTEX
  8
PLAN_1
 62
     5
  6
CONTINUOUS
 10
-2.001961
 20
1.454772
  0
SEQEND
  8
0
  0
POLYLINE
  8
PLAN_1
 62
     5
  6
CONTINUOUS
 66
     1
 40
0.003000
 41
0.003000
  0
VERTEX
  8
PLAN_1
 62
     5
  6
CONTINUOUS
 10
-2.001961
 20
1.463071
  0
VERTEX
  8
PLAN_1
 62
     5
  6
CONTINUOUS
 10
-2.001961
 20
1.471803
  0
SEQEND
  8
0
  0
POLYLINE
  8
PLAN_1
 62
     5
  6
CONTINUOUS
 66
     1
 40
0.003000
 41
0.003000
  0
VERTEX
  8
PLAN_1
 62
     5
  6
CONTINUOUS
 10
-2.001961
 20
1.480098
  0
VERTEX
  8
PLAN_1
 62
     5
  6
CONTINUOUS
 10
-2.001961
 20
1.488398
  0
SEQEND
  8
0
  0
POLYLINE
  8
PLAN_1
 62
     5
  6
CONTINUOUS
 66
     1
 40
0.003000
 41
0.003000
  0
VERTEX
  8
PLAN_1
 62
     5
  6
CONTINUOUS
 10
-2.001961
 20
1.496693
  0
VERTEX
  8
PLAN_1
 62
     5
  6
CONTINUOUS
 10
-2.001961
 20
1.504992
  0
SEQEND
  8
0
  0
POLYLINE
  8
PLAN_1
 62
     5
  6
CONTINUOUS
 66
     1
 40
0.003000
 41
0.003000
  0
VERTEX
  8
PLAN_1
 62
     5
  6
CONTINUOUS
 10
-2.001961
 20
1.513287
  0
VERTEX
  8
PLAN_1
 62
     5
  6
CONTINUOUS
 10
-2.001961
 20
1.514598
  0
SEQEND
  8
0
  0
POLYLINE
  8
PLAN_1
 62
     5
  6
CONTINUOUS
 66
     1
 40
0.003000
 41
0.003000
  0
VERTEX
  8
PLAN_1
 62
     5
  6
CONTINUOUS
 10
-2.001961
 20
1.513287
  0
VERTEX
  8
PLAN_1
 62
     5
  6
CONTINUOUS
 10
-2.001961
 20
1.514598
  0
SEQEND
  8
0
  0
POLYLINE
  8
PLAN_1
  6
CONTINUOUS
 66
     1
 40
0.008295
 41
0.008295
  0
VERTEX
  8
PLAN_1
  6
CONTINUOUS
 10
-2.044319
 20
2.394945
  0
VERTEX
  8
PLAN_1
  6
CONTINUOUS
 10
-2.044319
 20
1.606736
  0
VERTEX
  8
PLAN_1
  6
CONTINUOUS
 10
-0.721177
 20
1.606736
  0
VERTEX
  8
PLAN_1
  6
CONTINUOUS
 10
-0.721177
 20
2.394945
  0
VERTEX
  8
PLAN_1
  6
CONTINUOUS
 10
-2.044319
 20
2.394945
  0
SEQEND
  8
0
  0
POLYLINE
  8
PLAN_1
  6
CONTINUOUS
 66
     1
 40
0.008295
 41
0.008295
  0
VERTEX
  8
PLAN_1
  6
CONTINUOUS
 10
-2.044319
 20
1.800622
  0
VERTEX
  8
PLAN_1
  6
CONTINUOUS
 10
-1.713315
 20
1.800622
  0
VERTEX
  8
PLAN_1
  6
CONTINUOUS
 10
-1.713315
 20
1.606736
  0
SEQEND
  8
0
  0
POLYLINE
  8
PLAN_1
  6
CONTINUOUS
 66
     1
 40
0.008295
 41
0.008295
  0
VERTEX
  8
PLAN_1
  6
CONTINUOUS
 10
-1.056984
 20
1.606736
  0
VERTEX
  8
PLAN_1
  6
CONTINUOUS
 10
-1.056984
 20
1.799752
  0
VERTEX
  8
PLAN_1
  6
CONTINUOUS
 10
-0.720740
 20
1.799752
  0
SEQEND
  8
0
  0
POLYLINE
  8
PLAN_1
  6
CONTINUOUS
 66
     1
 40
0.008295
 41
0.008295
  0
VERTEX
  8
PLAN_1
  6
CONTINUOUS
 10
-1.804146
 20
1.800185
  0
VERTEX
  8
PLAN_1
  6
CONTINUOUS
 10
-1.804146
 20
1.606736
  0
SEQEND
  8
0
  0
POLYLINE
  8
PLAN_1
  6
CONTINUOUS
 66
     1
 40
0.008295
 41
0.008295
  0
VERTEX
  8
PLAN_1
  6
CONTINUOUS
 10
-0.957421
 20
1.800185
  0
VERTEX
  8
PLAN_1
  6
CONTINUOUS
 10
-0.957421
 20
1.606736
  0
SEQEND
  8
0
  0
POLYLINE
  8
PLAN_1
  6
CONTINUOUS
 66
     1
 40
0.008295
 41
0.008295
  0
VERTEX
  8
PLAN_1
  6
CONTINUOUS
 10
-1.181004
 20
1.187524
  0
VERTEX
  8
PLAN_1
  6
CONTINUOUS
 10
-1.181004
 20
1.234248
  0
VERTEX
  8
PLAN_1
  6
CONTINUOUS
 10
-1.584496
 20
1.234248
  0
VERTEX
  8
PLAN_1
  6
CONTINUOUS
 10
-1.584496
 20
1.187524
  0
VERTEX
  8
PLAN_1
  6
CONTINUOUS
 10
-1.181004
 20
1.187524
  0
SEQEND
  8
0
  0
POLYLINE
  8
PLAN_1
  6
CONTINUOUS
 66
     1
 40
0.008295
 41
0.008295
  0
VERTEX
  8
PLAN_1
  6
CONTINUOUS
 10
-0.840390
 20
1.584031
  0
VERTEX
  8
PLAN_1
  6
CONTINUOUS
 10
-0.840390
 20
1.606736
  0
VERTEX
  8
PLAN_1
  6
CONTINUOUS
 10
-1.925106
 20
1.606736
  0
VERTEX
  8
PLAN_1
  6
CONTINUOUS
 10
-1.925106
 20
1.584031
  0
VERTEX
  8
PLAN_1
  6
CONTINUOUS
 10
-0.840390
 20
1.584031
  0
SEQEND
  8
0
  0
POLYLINE
  8
PLAN_1
  6
CONTINUOUS
 66
     1
 40
0.008295
 41
0.008295
  0
VERTEX
  8
PLAN_1
  6
CONTINUOUS
 10
-1.049996
 20
1.234248
  0
VERTEX
  8
PLAN_1
  6
CONTINUOUS
 10
-1.049996
 20
1.584031
  0
VERTEX
  8
PLAN_1
  6
CONTINUOUS
 10
-1.715500
 20
1.584031
  0
VERTEX
  8
PLAN_1
  6
CONTINUOUS
 10
-1.715500
 20
1.234248
  0
VERTEX
  8
PLAN_1
  6
CONTINUOUS
 10
-1.049996
 20
1.234248
  0
SEQEND
  8
0
  0
POLYLINE
  8
PLAN_1
 62
     2
  6
CONTINUOUS
 66
     1
 40
0.004366
 41
0.004366
  0
VERTEX
  8
PLAN_1
 62
     2
  6
CONTINUOUS
 10
-0.421614
 20
1.359575
  0
VERTEX
  8
PLAN_1
 62
     2
  6
CONTINUOUS
 10
-0.421614
 20
3.268307
  0
SEQEND
  8
0
  0
SOLID
  8
PLAN_1
 62
     2
 10
-0.421614
 20
3.297563
 11
-0.437335
 21
3.238610
 12
-0.421614
 22
3.297563
 13
-0.405894
 23
3.238610
  0
POLYLINE
  8
PLAN_1
 62
     2
  6
CONTINUOUS
 66
     1
 40
0.003000
 41
0.003000
  0
VERTEX
  8
PLAN_1
 62
     2
  6
CONTINUOUS
 10
-0.421614
 20
3.297563
  0
VERTEX
  8
PLAN_1
 62
     2
  6
CONTINUOUS
 10
-0.437335
 20
3.238610
  0
VERTEX
  8
PLAN_1
 62
     2
  6
CONTINUOUS
 10
-0.405894
 20
3.238610
  0
VERTEX
  8
PLAN_1
 62
     2
  6
CONTINUOUS
 10
-0.421614
 20
3.297563
  0
SEQEND
  8
0
  0
SOLID
  8
PLAN_1
 62
     2
 10
-0.421614
 20
1.329882
 11
-0.437335
 21
1.388835
 12
-0.421614
 22
1.329882
 13
-0.405894
 23
1.388835
  0
POLYLINE
  8
PLAN_1
 62
     2
  6
CONTINUOUS
 66
     1
 40
0.003000
 41
0.003000
  0
VERTEX
  8
PLAN_1
 62
     2
  6
CONTINUOUS
 10
-0.421614
 20
1.329882
  0
VERTEX
  8
PLAN_1
 62
     2
  6
CONTINUOUS
 10
-0.437335
 20
1.388835
  0
VERTEX
  8
PLAN_1
 62
     2
  6
CONTINUOUS
 10
-0.405894
 20
1.388835
  0
VERTEX
  8
PLAN_1
 62
     2
  6
CONTINUOUS
 10
-0.421614
 20
1.329882
  0
SEQEND
  8
0
  0
POLYLINE
  8
PLAN_1
 62
     2
  6
CONTINUOUS
 66
     1
 40
0.003000
 41
0.003000
  0
VERTEX
  8
PLAN_1
 62
     2
  6
CONTINUOUS
 10
-0.487555
 20
2.284902
  0
VERTEX
  8
PLAN_1
 62
     2
  6
CONTINUOUS
 10
-0.488862
 20
2.285776
  0
VERTEX
  8
PLAN_1
 62
     2
  6
CONTINUOUS
 10
-0.489299
 20
2.287087
  0
VERTEX
  8
PLAN_1
 62
     2
  6
CONTINUOUS
 10
-0.490173
 20
2.288831
  0
VERTEX
  8
PLAN_1
 62
     2
  6
CONTINUOUS
 10
-0.491047
 20
2.290579
  0
VERTEX
  8
PLAN_1
 62
     2
  6
CONTINUOUS
 10
-0.491484
 20
2.292327
  0
VERTEX
  8
PLAN_1
 62
     2
  6
CONTINUOUS
 10
-0.491921
 20
2.294508
  0
VERTEX
  8
PLAN_1
 62
     2
  6
CONTINUOUS
 10
-0.492358
 20
2.296256
  0
VERTEX
  8
PLAN_1
 62
     2
  6
CONTINUOUS
 10
-0.492358
 20
2.298874
  0
VERTEX
  8
PLAN_1
 62
     2
  6
CONTINUOUS
 10
-0.491921
 20
2.303244
  0
VERTEX
  8
PLAN_1
 62
     2
  6
CONTINUOUS
 10
-0.490610
 20
2.307610
  0
VERTEX
  8
PLAN_1
 62
     2
  6
CONTINUOUS
 10
-0.488862
 20
2.311539
  0
VERTEX
  8
PLAN_1
 62
     2
  6
CONTINUOUS
 10
-0.486244
 20
2.315469
  0
VERTEX
  8
PLAN_1
 62
     2
  6
CONTINUOUS
 10
-0.484933
 20
2.316780
  0
VERTEX
  8
PLAN_1
 62
     2
  6
CONTINUOUS
 10
-0.483185
 20
2.318528
  0
VERTEX
  8
PLAN_1
 62
     2
  6
CONTINUOUS
 10
-0.481004
 20
2.319835
  0
VERTEX
  8
PLAN_1
 62
     2
  6
CONTINUOUS
 10
-0.478819
 20
2.320709
  0
VERTEX
  8
PLAN_1
 62
     2
  6
CONTINUOUS
 10
-0.476638
 20
2.321583
  0
VERTEX
  8
PLAN_1
 62
     2
  6
CONTINUOUS
 10
-0.474453
 20
2.322457
  0
VERTEX
  8
PLAN_1
 62
     2
  6
CONTINUOUS
 10
-0.471835
 20
2.322894
  0
VERTEX
  8
PLAN_1
 62
     2
  6
CONTINUOUS
 10
-0.468776
 20
2.322894
  0
VERTEX
  8
PLAN_1
 62
     2
  6
CONTINUOUS
 10
-0.465720
 20
2.322457
  0
VERTEX
  8
PLAN_1
 62
     2
  6
CONTINUOUS
 10
-0.461354
 20
2.322020
  0
VERTEX
  8
PLAN_1
 62
     2
  6
CONTINUOUS
 10
-0.457421
 20
2.320709
  0
VERTEX
  8
PLAN_1
 62
     2
  6
CONTINUOUS
 10
-0.453055
 20
2.318091
  0
VERTEX
  8
PLAN_1
 62
     2
  6
CONTINUOUS
 10
-0.451311
 20
2.316780
  0
VERTEX
  8
PLAN_1
 62
     2
  6
CONTINUOUS
 10
-0.449126
 20
2.314594
  0
VERTEX
  8
PLAN_1
 62
     2
  6
CONTINUOUS
 10
-0.447378
 20
2.312413
  0
VERTEX
  8
PLAN_1
 62
     2
  6
CONTINUOUS
 10
-0.446071
 20
2.310228
  0
VERTEX
  8
PLAN_1
 62
     2
  6
CONTINUOUS
 10
-0.444760
 20
2.307173
  0
VERTEX
  8
PLAN_1
 62
     2
  6
CONTINUOUS
 10
-0.443886
 20
2.304114
  0
VERTEX
  8
PLAN_1
 62
     2
  6
CONTINUOUS
 10
-0.443449
 20
2.300185
  0
VERTEX
  8
PLAN_1
 62
     2
  6
CONTINUOUS
 10
-0.443449
 20
2.296256
  0
VERTEX
  8
PLAN_1
 62
     2
  6
CONTINUOUS
 10
-0.443449
 20
2.292764
  0
VERTEX
  8
PLAN_1
 62
     2
  6
CONTINUOUS
 10
-0.444323
 20
2.288831
  0
VERTEX
  8
PLAN_1
 62
     2
  6
CONTINUOUS
 10
-0.445197
 20
2.285339
  0
VERTEX
  8
PLAN_1
 62
     2
  6
CONTINUOUS
 10
-0.447378
 20
2.281409
  0
VERTEX
  8
PLAN_1
 62
     2
  6
CONTINUOUS
 10
-0.448252
 20
2.280098
  0
VERTEX
  8
PLAN_1
 62
     2
  6
CONTINUOUS
 10
-0.450000
 20
2.278350
  0
VERTEX
  8
PLAN_1
 62
     2
  6
CONTINUOUS
 10
-0.451311
 20
2.277043
  0
VERTEX
  8
PLAN_1
 62
     2
  6
CONTINUOUS
 10
-0.453492
 20
2.275732
  0
VERTEX
  8
PLAN_1
 62
     2
  6
CONTINUOUS
 10
-0.455677
 20
2.274858
  0
VERTEX
  8
PLAN_1
 62
     2
  6
CONTINUOUS
 10
-0.457858
 20
2.273984
  0
VERTEX
  8
PLAN_1
 62
     2
  6
CONTINUOUS
 10
-0.460480
 20
2.273110
  0
VERTEX
  8
PLAN_1
 62
     2
  6
CONTINUOUS
 10
-0.463535
 20
2.272673
  0
VERTEX
  8
PLAN_1
 62
     2
  6
CONTINUOUS
 10
-0.463535
 20
2.282283
  0
VERTEX
  8
PLAN_1
 62
     2
  6
CONTINUOUS
 10
-0.460480
 20
2.282720
  0
VERTEX
  8
PLAN_1
 62
     2
  6
CONTINUOUS
 10
-0.457858
 20
2.284028
  0
VERTEX
  8
PLAN_1
 62
     2
  6
CONTINUOUS
 10
-0.455677
 20
2.285339
  0
VERTEX
  8
PLAN_1
 62
     2
  6
CONTINUOUS
 10
-0.453929
 20
2.287087
  0
VERTEX
  8
PLAN_1
 62
     2
  6
CONTINUOUS
 10
-0.452618
 20
2.289268
  0
VERTEX
  8
PLAN_1
 62
     2
  6
CONTINUOUS
 10
-0.451744
 20
2.291890
  0
VERTEX
  8
PLAN_1
 62
     2
  6
CONTINUOUS
 10
-0.451311
 20
2.294508
  0
VERTEX
  8
PLAN_1
 62
     2
  6
CONTINUOUS
 10
-0.451311
 20
2.297567
  0
VERTEX
  8
PLAN_1
 62
     2
  6
CONTINUOUS
 10
-0.451311
 20
2.301059
  0
VERTEX
  8
PLAN_1
 62
     2
  6
CONTINUOUS
 10
-0.452618
 20
2.304114
  0
VERTEX
  8
PLAN_1
 62
     2
  6
CONTINUOUS
 10
-0.453929
 20
2.306736
  0
VERTEX
  8
PLAN_1
 62
     2
  6
CONTINUOUS
 10
-0.456114
 20
2.308921
  0
VERTEX
  8
PLAN_1
 62
     2
  6
CONTINUOUS
 10
-0.458732
 20
2.310665
  0
VERTEX
  8
PLAN_1
 62
     2
  6
CONTINUOUS
 10
-0.461354
 20
2.311976
  0
VERTEX
  8
PLAN_1
 62
     2
  6
CONTINUOUS
 10
-0.464409
 20
2.312850
  0
VERTEX
  8
PLAN_1
 62
     2
  6
CONTINUOUS
 10
-0.467902
 20
2.313287
  0
VERTEX
  8
PLAN_1
 62
     2
  6
CONTINUOUS
 10
-0.471835
 20
2.312850
  0
VERTEX
  8
PLAN_1
 62
     2
  6
CONTINUOUS
 10
-0.474890
 20
2.311976
  0
VERTEX
  8
PLAN_1
 62
     2
  6
CONTINUOUS
 10
-0.477512
 20
2.310228
  0
VERTEX
  8
PLAN_1
 62
     2
  6
CONTINUOUS
 10
-0.480130
 20
2.308484
  0
VERTEX
  8
PLAN_1
 62
     2
  6
CONTINUOUS
 10
-0.481878
 20
2.305862
  0
VERTEX
  8
PLAN_1
 62
     2
  6
CONTINUOUS
 10
-0.483185
 20
2.303244
  0
VERTEX
  8
PLAN_1
 62
     2
  6
CONTINUOUS
 10
-0.484059
 20
2.300185
  0
VERTEX
  8
PLAN_1
 62
     2
  6
CONTINUOUS
 10
-0.484059
 20
2.296693
  0
VERTEX
  8
PLAN_1
 62
     2
  6
CONTINUOUS
 10
-0.484059
 20
2.294945
  0
VERTEX
  8
PLAN_1
 62
     2
  6
CONTINUOUS
 10
-0.483622
 20
2.293201
  0
VERTEX
  8
PLAN_1
 62
     2
  6
CONTINUOUS
 10
-0.483185
 20
2.291016
  0
VERTEX
  8
PLAN_1
 62
     2
  6
CONTINUOUS
 10
-0.482315
 20
2.289268
  0
VERTEX
  8
PLAN_1
 62
     2
  6
CONTINUOUS
 10
-0.481441
 20
2.287524
  0
VERTEX
  8
PLAN_1
 62
     2
  6
CONTINUOUS
 10
-0.480130
 20
2.286213
  0
VERTEX
  8
PLAN_1
 62
     2
  6
CONTINUOUS
 10
-0.478819
 20
2.284465
  0
VERTEX
  8
PLAN_1
 62
     2
  6
CONTINUOUS
 10
-0.477075
 20
2.283154
  0
VERTEX
  8
PLAN_1
 62
     2
  6
CONTINUOUS
 10
-0.477512
 20
2.275295
  0
VERTEX
  8
PLAN_1
 62
     2
  6
CONTINUOUS
 10
-0.516811
 20
2.280972
  0
VERTEX
  8
PLAN_1
 62
     2
  6
CONTINUOUS
 10
-0.516811
 20
2.318965
  0
VERTEX
  8
PLAN_1
 62
     2
  6
CONTINUOUS
 10
-0.507642
 20
2.318965
  0
VERTEX
  8
PLAN_1
 62
     2
  6
CONTINUOUS
 10
-0.507642
 20
2.287961
  0
VERTEX
  8
PLAN_1
 62
     2
  6
CONTINUOUS
 10
-0.487555
 20
2.284902
  0
SEQEND
  8
0
  0
POLYLINE
  8
PLAN_1
 62
     2
  6
CONTINUOUS
 66
     1
 40
0.003000
 41
0.003000
  0
VERTEX
  8
PLAN_1
 62
     2
  6
CONTINUOUS
 10
-0.443449
 20
2.356083
  0
VERTEX
  8
PLAN_1
 62
     2
  6
CONTINUOUS
 10
-0.443449
 20
2.352587
  0
VERTEX
  8
PLAN_1
 62
     2
  6
CONTINUOUS
 10
-0.444323
 20
2.349094
  0
VERTEX
  8
PLAN_1
 62
     2
  6
CONTINUOUS
 10
-0.445634
 20
2.346035
  0
VERTEX
  8
PLAN_1
 62
     2
  6
CONTINUOUS
 10
-0.446941
 20
2.343417
  0
VERTEX
  8
PLAN_1
 62
     2
  6
CONTINUOUS
 10
-0.449126
 20
2.341232
  0
VERTEX
  8
PLAN_1
 62
     2
  6
CONTINUOUS
 10
-0.451311
 20
2.339051
  0
VERTEX
  8
PLAN_1
 62
     2
  6
CONTINUOUS
 10
-0.453492
 20
2.337303
  0
VERTEX
  8
PLAN_1
 62
     2
  6
CONTINUOUS
 10
-0.456551
 20
2.335992
  0
VERTEX
  8
PLAN_1
 62
     2
  6
CONTINUOUS
 10
-0.459169
 20
2.334685
  0
VERTEX
  8
PLAN_1
 62
     2
  6
CONTINUOUS
 10
-0.462224
 20
2.333374
  0
VERTEX
  8
PLAN_1
 62
     2
  6
CONTINUOUS
 10
-0.465283
 20
2.332500
  0
VERTEX
  8
PLAN_1
 62
     2
  6
CONTINUOUS
 10
-0.468339
 20
2.332063
  0
VERTEX
  8
PLAN_1
 62
     2
  6
CONTINUOUS
 10
-0.474890
 20
2.331189
  0
VERTEX
  8
PLAN_1
 62
     2
  6
CONTINUOUS
 10
-0.481004
 20
2.331189
  0
VERTEX
  8
PLAN_1
 62
     2
  6
CONTINUOUS
 10
-0.486681
 20
2.331189
  0
VERTEX
  8
PLAN_1
 62
     2
  6
CONTINUOUS
 10
-0.493232
 20
2.332063
  0
VERTEX
  8
PLAN_1
 62
     2
  6
CONTINUOUS
 10
-0.496287
 20
2.332500
  0
VERTEX
  8
PLAN_1
 62
     2
  6
CONTINUOUS
 10
-0.499343
 20
2.333374
  0
VERTEX
  8
PLAN_1
 62
     2
  6
CONTINUOUS
 10
-0.502402
 20
2.334685
  0
VERTEX
  8
PLAN_1
 62
     2
  6
CONTINUOUS
 10
-0.505457
 20
2.335992
  0
VERTEX
  8
PLAN_1
 62
     2
  6
CONTINUOUS
 10
-0.508079
 20
2.337303
  0
VERTEX
  8
PLAN_1
 62
     2
  6
CONTINUOUS
 10
-0.510697
 20
2.339051
  0
VERTEX
  8
PLAN_1
 62
     2
  6
CONTINUOUS
 10
-0.512882
 20
2.341232
  0
VERTEX
  8
PLAN_1
 62
     2
  6
CONTINUOUS
 10
-0.514626
 20
2.343417
  0
VERTEX
  8
PLAN_1
 62
     2
  6
CONTINUOUS
 10
-0.516374
 20
2.346035
  0
VERTEX
  8
PLAN_1
 62
     2
  6
CONTINUOUS
 10
-0.517248
 20
2.349094
  0
VERTEX
  8
PLAN_1
 62
     2
  6
CONTINUOUS
 10
-0.518122
 20
2.352587
  0
VERTEX
  8
PLAN_1
 62
     2
  6
CONTINUOUS
 10
-0.518559
 20
2.356083
  0
VERTEX
  8
PLAN_1
 62
     2
  6
CONTINUOUS
 10
-0.518122
 20
2.360012
  0
VERTEX
  8
PLAN_1
 62
     2
  6
CONTINUOUS
 10
-0.517248
 20
2.363504
  0
VERTEX
  8
PLAN_1
 62
     2
  6
CONTINUOUS
 10
-0.516374
 20
2.366126
  0
VERTEX
  8
PLAN_1
 62
     2
  6
CONTINUOUS
 10
-0.514626
 20
2.369181
  0
VERTEX
  8
PLAN_1
 62
     2
  6
CONTINUOUS
 10
-0.512882
 20
2.371366
  0
VERTEX
  8
PLAN_1
 62
     2
  6
CONTINUOUS
 10
-0.510697
 20
2.373547
  0
VERTEX
  8
PLAN_1
 62
     2
  6
CONTINUOUS
 10
-0.508079
 20
2.375295
  0
VERTEX
  8
PLAN_1
 62
     2
  6
CONTINUOUS
 10
-0.505457
 20
2.376606
  0
VERTEX
  8
PLAN_1
 62
     2
  6
CONTINUOUS
 10
-0.502402
 20
2.377913
  0
VERTEX
  8
PLAN_1
 62
     2
  6
CONTINUOUS
 10
-0.499343
 20
2.378787
  0
VERTEX
  8
PLAN_1
 62
     2
  6
CONTINUOUS
 10
-0.496287
 20
2.379661
  0
VERTEX
  8
PLAN_1
 62
     2
  6
CONTINUOUS
 10
-0.493232
 20
2.380098
  0
VERTEX
  8
PLAN_1
 62
     2
  6
CONTINUOUS
 10
-0.486681
 20
2.380972
  0
VERTEX
  8
PLAN_1
 62
     2
  6
CONTINUOUS
 10
-0.481004
 20
2.381409
  0
VERTEX
  8
PLAN_1
 62
     2
  6
CONTINUOUS
 10
-0.474890
 20
2.380972
  0
VERTEX
  8
PLAN_1
 62
     2
  6
CONTINUOUS
 10
-0.468339
 20
2.380098
  0
VERTEX
  8
PLAN_1
 62
     2
  6
CONTINUOUS
 10
-0.465283
 20
2.379661
  0
VERTEX
  8
PLAN_1
 62
     2
  6
CONTINUOUS
 10
-0.462224
 20
2.378787
  0
VERTEX
  8
PLAN_1
 62
     2
  6
CONTINUOUS
 10
-0.459169
 20
2.377913
  0
VERTEX
  8
PLAN_1
 62
     2
  6
CONTINUOUS
 10
-0.456551
 20
2.376606
  0
VERTEX
  8
PLAN_1
 62
     2
  6
CONTINUOUS
 10
-0.453492
 20
2.375295
  0
VERTEX
  8
PLAN_1
 62
     2
  6
CONTINUOUS
 10
-0.451311
 20
2.373547
  0
VERTEX
  8
PLAN_1
 62
     2
  6
CONTINUOUS
 10
-0.449126
 20
2.371366
  0
VERTEX
  8
PLAN_1
 62
     2
  6
CONTINUOUS
 10
-0.446941
 20
2.369181
  0
VERTEX
  8
PLAN_1
 62
     2
  6
CONTINUOUS
 10
-0.445634
 20
2.366126
  0
VERTEX
  8
PLAN_1
 62
     2
  6
CONTINUOUS
 10
-0.444323
 20
2.363504
  0
VERTEX
  8
PLAN_1
 62
     2
  6
CONTINUOUS
 10
-0.443449
 20
2.360012
  0
VERTEX
  8
PLAN_1
 62
     2
  6
CONTINUOUS
 10
-0.443449
 20
2.356083
  0
SEQEND
  8
0
  0
POLYLINE
  8
PLAN_1
 62
     2
  6
CONTINUOUS
 66
     1
 40
0.003000
 41
0.003000
  0
VERTEX
  8
PLAN_1
 62
     2
  6
CONTINUOUS
 10
-0.510260
 20
2.356083
  0
VERTEX
  8
PLAN_1
 62
     2
  6
CONTINUOUS
 10
-0.509823
 20
2.354335
  0
VERTEX
  8
PLAN_1
 62
     2
  6
CONTINUOUS
 10
-0.509823
 20
2.352587
  0
VERTEX
  8
PLAN_1
 62
     2
  6
CONTINUOUS
 10
-0.508953
 20
2.350843
  0
VERTEX
  8
PLAN_1
 62
     2
  6
CONTINUOUS
 10
-0.508079
 20
2.349531
  0
VERTEX
  8
PLAN_1
 62
     2
  6
CONTINUOUS
 10
-0.507205
 20
2.347783
  0
VERTEX
  8
PLAN_1
 62
     2
  6
CONTINUOUS
 10
-0.505894
 20
2.346909
  0
VERTEX
  8
PLAN_1
 62
     2
  6
CONTINUOUS
 10
-0.504146
 20
2.345602
  0
VERTEX
  8
PLAN_1
 62
     2
  6
CONTINUOUS
 10
-0.502402
 20
2.344728
  0
VERTEX
  8
PLAN_1
 62
     2
  6
CONTINUOUS
 10
-0.498035
 20
2.342980
  0
VERTEX
  8
PLAN_1
 62
     2
  6
CONTINUOUS
 10
-0.493232
 20
2.341669
  0
VERTEX
  8
PLAN_1
 62
     2
  6
CONTINUOUS
 10
-0.487118
 20
2.341232
  0
VERTEX
  8
PLAN_1
 62
     2
  6
CONTINUOUS
 10
-0.481004
 20
2.340795
  0
VERTEX
  8
PLAN_1
 62
     2
  6
CONTINUOUS
 10
-0.474453
 20
2.341232
  0
VERTEX
  8
PLAN_1
 62
     2
  6
CONTINUOUS
 10
-0.468339
 20
2.341669
  0
VERTEX
  8
PLAN_1
 62
     2
  6
CONTINUOUS
 10
-0.463535
 20
2.342980
  0
VERTEX
  8
PLAN_1
 62
     2
  6
CONTINUOUS
 10
-0.459169
 20
2.344728
  0
VERTEX
  8
PLAN_1
 62
     2
  6
CONTINUOUS
 10
-0.457421
 20
2.345602
  0
VERTEX
  8
PLAN_1
 62
     2
  6
CONTINUOUS
 10
-0.456114
 20
2.346909
  0
VERTEX
  8
PLAN_1
 62
     2
  6
CONTINUOUS
 10
-0.454803
 20
2.347783
  0
VERTEX
  8
PLAN_1
 62
     2
  6
CONTINUOUS
 10
-0.453492
 20
2.349531
  0
VERTEX
  8
PLAN_1
 62
     2
  6
CONTINUOUS
 10
-0.452618
 20
2.350843
  0
VERTEX
  8
PLAN_1
 62
     2
  6
CONTINUOUS
 10
-0.452181
 20
2.352587
  0
VERTEX
  8
PLAN_1
 62
     2
  6
CONTINUOUS
 10
-0.451744
 20
2.354335
  0
VERTEX
  8
PLAN_1
 62
     2
  6
CONTINUOUS
 10
-0.451311
 20
2.356083
  0
VERTEX
  8
PLAN_1
 62
     2
  6
CONTINUOUS
 10
-0.451744
 20
2.358264
  0
VERTEX
  8
PLAN_1
 62
     2
  6
CONTINUOUS
 10
-0.452181
 20
2.360012
  0
VERTEX
  8
PLAN_1
 62
     2
  6
CONTINUOUS
 10
-0.452618
 20
2.361323
  0
VERTEX
  8
PLAN_1
 62
     2
  6
CONTINUOUS
 10
-0.453492
 20
2.363067
  0
VERTEX
  8
PLAN_1
 62
     2
  6
CONTINUOUS
 10
-0.454803
 20
2.364378
  0
VERTEX
  8
PLAN_1
 62
     2
  6
CONTINUOUS
 10
-0.456114
 20
2.365689
  0
VERTEX
  8
PLAN_1
 62
     2
  6
CONTINUOUS
 10
-0.457421
 20
2.366563
  0
VERTEX
  8
PLAN_1
 62
     2
  6
CONTINUOUS
 10
-0.459169
 20
2.367870
  0
VERTEX
  8
PLAN_1
 62
     2
  6
CONTINUOUS
 10
-0.463535
 20
2.369618
  0
VERTEX
  8
PLAN_1
 62
     2
  6
CONTINUOUS
 10
-0.468339
 20
2.370492
  0
VERTEX
  8
PLAN_1
 62
     2
  6
CONTINUOUS
 10
-0.474453
 20
2.371366
  0
VERTEX
  8
PLAN_1
 62
     2
  6
CONTINUOUS
 10
-0.481004
 20
2.371366
  0
VERTEX
  8
PLAN_1
 62
     2
  6
CONTINUOUS
 10
-0.487118
 20
2.371366
  0
VERTEX
  8
PLAN_1
 62
     2
  6
CONTINUOUS
 10
-0.493232
 20
2.370492
  0
VERTEX
  8
PLAN_1
 62
     2
  6
CONTINUOUS
 10
-0.498035
 20
2.369618
  0
VERTEX
  8
PLAN_1
 62
     2
  6
CONTINUOUS
 10
-0.502402
 20
2.367870
  0
VERTEX
  8
PLAN_1
 62
     2
  6
CONTINUOUS
 10
-0.504146
 20
2.366563
  0
VERTEX
  8
PLAN_1
 62
     2
  6
CONTINUOUS
 10
-0.505894
 20
2.365689
  0
VERTEX
  8
PLAN_1
 62
     2
  6
CONTINUOUS
 10
-0.507205
 20
2.364378
  0
VERTEX
  8
PLAN_1
 62
     2
  6
CONTINUOUS
 10
-0.508079
 20
2.363067
  0
VERTEX
  8
PLAN_1
 62
     2
  6
CONTINUOUS
 10
-0.508953
 20
2.361323
  0
VERTEX
  8
PLAN_1
 62
     2
  6
CONTINUOUS
 10
-0.509823
 20
2.360012
  0
VERTEX
  8
PLAN_1
 62
     2
  6
CONTINUOUS
 10
-0.509823
 20
2.358264
  0
VERTEX
  8
PLAN_1
 62
     2
  6
CONTINUOUS
 10
-0.510260
 20
2.356083
  0
SEQEND
  8
0
  0
SOLID
  8
PLAN_1
 62
     2
 10
-1.540390
 20
3.246909
 11
-1.570957
 21
3.299748
 12
-1.540390
 22
3.246909
 13
-1.593228
 23
3.277476
  0
POLYLINE
  8
PLAN_1
 62
     2
  6
CONTINUOUS
 66
     1
 40
0.003000
 41
0.003000
  0
VERTEX
  8
PLAN_1
 62
     2
  6
CONTINUOUS
 10
-1.540390
 20
3.246909
  0
VERTEX
  8
PLAN_1
 62
     2
  6
CONTINUOUS
 10
-1.570957
 20
3.299748
  0
VERTEX
  8
PLAN_1
 62
     2
  6
CONTINUOUS
 10
-1.593228
 20
3.277476
  0
VERTEX
  8
PLAN_1
 62
     2
  6
CONTINUOUS
 10
-1.540390
 20
3.246909
  0
SEQEND
  8
0
  0
POLYLINE
  8
PLAN_1
 62
     2
  6
CONTINUOUS
 66
     1
 40
0.004366
 41
0.004366
  0
VERTEX
  8
PLAN_1
 62
     2
  6
CONTINUOUS
 10
-1.566591
 20
3.273110
  0
VERTEX
  8
PLAN_1
 62
     2
  6
CONTINUOUS
 10
-1.696283
 20
3.397563
  0
VERTEX
  8
PLAN_1
 62
     2
  6
CONTINUOUS
 10
-1.984492
 20
3.397563
  0
SEQEND
  8
0
  0
POLYLINE
  8
PLAN_1
 62
     2
  6
CONTINUOUS
 66
     1
 40
0.003000
 41
0.003000
  0
VERTEX
  8
PLAN_1
 62
     2
  6
CONTINUOUS
 10
-1.889732
 20
3.485335
  0
VERTEX
  8
PLAN_1
 62
     2
  6
CONTINUOUS
 10
-1.887551
 20
3.482280
  0
VERTEX
  8
PLAN_1
 62
     2
  6
CONTINUOUS
 10
-1.885803
 20
3.479224
  0
VERTEX
  8
PLAN_1
 62
     2
  6
CONTINUOUS
 10
-1.884059
 20
3.475728
  0
VERTEX
  8
PLAN_1
 62
     2
  6
CONTINUOUS
 10
-1.883185
 20
3.472236
  0
VERTEX
  8
PLAN_1
 62
     2
  6
CONTINUOUS
 10
-1.882311
 20
3.468744
  0
VERTEX
  8
PLAN_1
 62
     2
  6
CONTINUOUS
 10
-1.881437
 20
3.465248
  0
VERTEX
  8
PLAN_1
 62
     2
  6
CONTINUOUS
 10
-1.881437
 20
3.461756
  0
VERTEX
  8
PLAN_1
 62
     2
  6
CONTINUOUS
 10
-1.881000
 20
3.458697
  0
VERTEX
  8
PLAN_1
 62
     2
  6
CONTINUOUS
 10
-1.881437
 20
3.452150
  0
VERTEX
  8
PLAN_1
 62
     2
  6
CONTINUOUS
 10
-1.882748
 20
3.445598
  0
VERTEX
  8
PLAN_1
 62
     2
  6
CONTINUOUS
 10
-1.884059
 20
3.442543
  0
VERTEX
  8
PLAN_1
 62
     2
  6
CONTINUOUS
 10
-1.885366
 20
3.439047
  0
VERTEX
  8
PLAN_1
 62
     2
  6
CONTINUOUS
 10
-1.887114
 20
3.435992
  0
VERTEX
  8
PLAN_1
 62
     2
  6
CONTINUOUS
 10
-1.888862
 20
3.432933
  0
VERTEX
  8
PLAN_1
 62
     2
  6
CONTINUOUS
 10
-1.891043
 20
3.430315
  0
VERTEX
  8
PLAN_1
 62
     2
  6
CONTINUOUS
 10
-1.893665
 20
3.427693
  0
VERTEX
  8
PLAN_1
 62
     2
  6
CONTINUOUS
 10
-1.896720
 20
3.425075
  0
VERTEX
  8
PLAN_1
 62
     2
  6
CONTINUOUS
 10
-1.900213
 20
3.423327
  0
VERTEX
  8
PLAN_1
 62
     2
  6
CONTINUOUS
 10
-1.903709
 20
3.421583
  0
VERTEX
  8
PLAN_1
 62
     2
  6
CONTINUOUS
 10
-1.908075
 20
3.420272
  0
VERTEX
  8
PLAN_1
 62
     2
  6
CONTINUOUS
 10
-1.912441
 20
3.419835
  0
VERTEX
  8
PLAN_1
 62
     2
  6
CONTINUOUS
 10
-1.917681
 20
3.419398
  0
VERTEX
  8
PLAN_1
 62
     2
  6
CONTINUOUS
 10
-1.921610
 20
3.419398
  0
VERTEX
  8
PLAN_1
 62
     2
  6
CONTINUOUS
 10
-1.925106
 20
3.419835
  0
VERTEX
  8
PLAN_1
 62
     2
  6
CONTINUOUS
 10
-1.928598
 20
3.420709
  0
VERTEX
  8
PLAN_1
 62
     2
  6
CONTINUOUS
 10
-1.931657
 20
3.422016
  0
VERTEX
  8
PLAN_1
 62
     2
  6
CONTINUOUS
 10
-1.934713
 20
3.423327
  0
VERTEX
  8
PLAN_1
 62
     2
  6
CONTINUOUS
 10
-1.937331
 20
3.424638
  0
VERTEX
  8
PLAN_1
 62
     2
  6
CONTINUOUS
 10
-1.939953
 20
3.426386
  0
VERTEX
  8
PLAN_1
 62
     2
  6
CONTINUOUS
 10
-1.942138
 20
3.428567
  0
VERTEX
  8
PLAN_1
 62
     2
  6
CONTINUOUS
 10
-1.950433
 20
3.419398
  0
VERTEX
  8
PLAN_1
 62
     2
  6
CONTINUOUS
 10
-1.953925
 20
3.422453
  0
VERTEX
  8
PLAN_1
 62
     2
  6
CONTINUOUS
 10
-1.945193
 20
3.431626
  0
VERTEX
  8
PLAN_1
 62
     2
  6
CONTINUOUS
 10
-1.947378
 20
3.434681
  0
VERTEX
  8
PLAN_1
 62
     2
  6
CONTINUOUS
 10
-1.949122
 20
3.438173
  0
VERTEX
  8
PLAN_1
 62
     2
  6
CONTINUOUS
 10
-1.950870
 20
3.441669
  0
VERTEX
  8
PLAN_1
 62
     2
  6
CONTINUOUS
 10
-1.952181
 20
3.445161
  0
VERTEX
  8
PLAN_1
 62
     2
  6
CONTINUOUS
 10
-1.953051
 20
3.448654
  0
VERTEX
  8
PLAN_1
 62
     2
  6
CONTINUOUS
 10
-1.953488
 20
3.452150
  0
VERTEX
  8
PLAN_1
 62
     2
  6
CONTINUOUS
 10
-1.953925
 20
3.455205
  0
VERTEX
  8
PLAN_1
 62
     2
  6
CONTINUOUS
 10
-1.953925
 20
3.458697
  0
VERTEX
  8
PLAN_1
 62
     2
  6
CONTINUOUS
 10
-1.953925
 20
3.461756
  0
VERTEX
  8
PLAN_1
 62
     2
  6
CONTINUOUS
 10
-1.953488
 20
3.464811
  0
VERTEX
  8
PLAN_1
 62
     2
  6
CONTINUOUS
 10
-1.953051
 20
3.468307
  0
VERTEX
  8
PLAN_1
 62
     2
  6
CONTINUOUS
 10
-1.952181
 20
3.471799
  0
VERTEX
  8
PLAN_1
 62
     2
  6
CONTINUOUS
 10
-1.951307
 20
3.474854
  0
VERTEX
  8
PLAN_1
 62
     2
  6
CONTINUOUS
 10
-1.949996
 20
3.478350
  0
VERTEX
  8
PLAN_1
 62
     2
  6
CONTINUOUS
 10
-1.948248
 20
3.481406
  0
VERTEX
  8
PLAN_1
 62
     2
  6
CONTINUOUS
 10
-1.946067
 20
3.484465
  0
VERTEX
  8
PLAN_1
 62
     2
  6
CONTINUOUS
 10
-1.943882
 20
3.487083
  0
VERTEX
  8
PLAN_1
 62
     2
  6
CONTINUOUS
 10
-1.941264
 20
3.489705
  0
VERTEX
  8
PLAN_1
 62
     2
  6
CONTINUOUS
 10
-1.938205
 20
3.492323
  0
VERTEX
  8
PLAN_1
 62
     2
  6
CONTINUOUS
 10
-1.935150
 20
3.494071
  0
VERTEX
  8
PLAN_1
 62
     2
  6
CONTINUOUS
 10
-1.931220
 20
3.495815
  0
VERTEX
  8
PLAN_1
 62
     2
  6
CONTINUOUS
 10
-1.927287
 20
3.497126
  0
VERTEX
  8
PLAN_1
 62
     2
  6
CONTINUOUS
 10
-1.922484
 20
3.497563
  0
VERTEX
  8
PLAN_1
 62
     2
  6
CONTINUOUS
 10
-1.917681
 20
3.498000
  0
VERTEX
  8
PLAN_1
 62
     2
  6
CONTINUOUS
 10
-1.913315
 20
3.498000
  0
VERTEX
  8
PLAN_1
 62
     2
  6
CONTINUOUS
 10
-1.909823
 20
3.497126
  0
VERTEX
  8
PLAN_1
 62
     2
  6
CONTINUOUS
 10
-1.906327
 20
3.496689
  0
VERTEX
  8
PLAN_1
 62
     2
  6
CONTINUOUS
 10
-1.902835
 20
3.495378
  0
VERTEX
  8
PLAN_1
 62
     2
  6
CONTINUOUS
 10
-1.900213
 20
3.494071
  0
VERTEX
  8
PLAN_1
 62
     2
  6
CONTINUOUS
 10
-1.897157
 20
3.492323
  0
VERTEX
  8
PLAN_1
 62
     2
  6
CONTINUOUS
 10
-1.894972
 20
3.490575
  0
VERTEX
  8
PLAN_1
 62
     2
  6
CONTINUOUS
 10
-1.892791
 20
3.488831
  0
VERTEX
  8
PLAN_1
 62
     2
  6
CONTINUOUS
 10
-1.884492
 20
3.498000
  0
VERTEX
  8
PLAN_1
 62
     2
  6
CONTINUOUS
 10
-1.881000
 20
3.494945
  0
VERTEX
  8
PLAN_1
 62
     2
  6
CONTINUOUS
 10
-1.889732
 20
3.485335
  0
SEQEND
  8
0
  0
POLYLINE
  8
PLAN_1
 62
     2
  6
CONTINUOUS
 66
     1
 40
0.003000
 41
0.003000
  0
VERTEX
  8
PLAN_1
 62
     2
  6
CONTINUOUS
 10
-1.935587
 20
3.435555
  0
VERTEX
  8
PLAN_1
 62
     2
  6
CONTINUOUS
 10
-1.933839
 20
3.434244
  0
VERTEX
  8
PLAN_1
 62
     2
  6
CONTINUOUS
 10
-1.932091
 20
3.432496
  0
VERTEX
  8
PLAN_1
 62
     2
  6
CONTINUOUS
 10
-1.929909
 20
3.431189
  0
VERTEX
  8
PLAN_1
 62
     2
  6
CONTINUOUS
 10
-1.927724
 20
3.430315
  0
VERTEX
  8
PLAN_1
 62
     2
  6
CONTINUOUS
 10
-1.925543
 20
3.429441
  0
VERTEX
  8
PLAN_1
 62
     2
  6
CONTINUOUS
 10
-1.922921
 20
3.429004
  0
VERTEX
  8
PLAN_1
 62
     2
  6
CONTINUOUS
 10
-1.920303
 20
3.428567
  0
VERTEX
  8
PLAN_1
 62
     2
  6
CONTINUOUS
 10
-1.917681
 20
3.428130
  0
VERTEX
  8
PLAN_1
 62
     2
  6
CONTINUOUS
 10
-1.914626
 20
3.428567
  0
VERTEX
  8
PLAN_1
 62
     2
  6
CONTINUOUS
 10
-1.912004
 20
3.429004
  0
VERTEX
  8
PLAN_1
 62
     2
  6
CONTINUOUS
 10
-1.908949
 20
3.429441
  0
VERTEX
  8
PLAN_1
 62
     2
  6
CONTINUOUS
 10
-1.906764
 20
3.430752
  0
VERTEX
  8
PLAN_1
 62
     2
  6
CONTINUOUS
 10
-1.904146
 20
3.431626
  0
VERTEX
  8
PLAN_1
 62
     2
  6
CONTINUOUS
 10
-1.902398
 20
3.433370
  0
VERTEX
  8
PLAN_1
 62
     2
  6
CONTINUOUS
 10
-1.900213
 20
3.435118
  0
VERTEX
  8
PLAN_1
 62
     2
  6
CONTINUOUS
 10
-1.898469
 20
3.436866
  0
VERTEX
  8
PLAN_1
 62
     2
  6
CONTINUOUS
 10
-1.896720
 20
3.439047
  0
VERTEX
  8
PLAN_1
 62
     2
  6
CONTINUOUS
 10
-1.895409
 20
3.441232
  0
VERTEX
  8
PLAN_1
 62
     2
  6
CONTINUOUS
 10
-1.894539
 20
3.443850
  0
VERTEX
  8
PLAN_1
 62
     2
  6
CONTINUOUS
 10
-1.893228
 20
3.446472
  0
VERTEX
  8
PLAN_1
 62
     2
  6
CONTINUOUS
 10
-1.892791
 20
3.449528
  0
VERTEX
  8
PLAN_1
 62
     2
  6
CONTINUOUS
 10
-1.891917
 20
3.452150
  0
VERTEX
  8
PLAN_1
 62
     2
  6
CONTINUOUS
 10
-1.891480
 20
3.455642
  0
VERTEX
  8
PLAN_1
 62
     2
  6
CONTINUOUS
 10
-1.891480
 20
3.458697
  0
VERTEX
  8
PLAN_1
 62
     2
  6
CONTINUOUS
 10
-1.891480
 20
3.461319
  0
VERTEX
  8
PLAN_1
 62
     2
  6
CONTINUOUS
 10
-1.891917
 20
3.463937
  0
VERTEX
  8
PLAN_1
 62
     2
  6
CONTINUOUS
 10
-1.892354
 20
3.466559
  0
VERTEX
  8
PLAN_1
 62
     2
  6
CONTINUOUS
 10
-1.892791
 20
3.469177
  0
VERTEX
  8
PLAN_1
 62
     2
  6
CONTINUOUS
 10
-1.893665
 20
3.471362
  0
VERTEX
  8
PLAN_1
 62
     2
  6
CONTINUOUS
 10
-1.894539
 20
3.473984
  0
VERTEX
  8
PLAN_1
 62
     2
  6
CONTINUOUS
 10
-1.895409
 20
3.475728
  0
VERTEX
  8
PLAN_1
 62
     2
  6
CONTINUOUS
 10
-1.896720
 20
3.477913
  0
VERTEX
  8
PLAN_1
 62
     2
  6
CONTINUOUS
 10
-1.935587
 20
3.435555
  0
SEQEND
  8
0
  0
POLYLINE
  8
PLAN_1
 62
     2
  6
CONTINUOUS
 66
     1
 40
0.003000
 41
0.003000
  0
VERTEX
  8
PLAN_1
 62
     2
  6
CONTINUOUS
 10
-1.899343
 20
3.481406
  0
VERTEX
  8
PLAN_1
 62
     2
  6
CONTINUOUS
 10
-1.901087
 20
3.483154
  0
VERTEX
  8
PLAN_1
 62
     2
  6
CONTINUOUS
 10
-1.902835
 20
3.484465
  0
VERTEX
  8
PLAN_1
 62
     2
  6
CONTINUOUS
 10
-1.905020
 20
3.485772
  0
VERTEX
  8
PLAN_1
 62
     2
  6
CONTINUOUS
 10
-1.907201
 20
3.487083
  0
VERTEX
  8
PLAN_1
 62
     2
  6
CONTINUOUS
 10
-1.909823
 20
3.487957
  0
VERTEX
  8
PLAN_1
 62
     2
  6
CONTINUOUS
 10
-1.912004
 20
3.488394
  0
VERTEX
  8
PLAN_1
 62
     2
  6
CONTINUOUS
 10
-1.914626
 20
3.488831
  0
VERTEX
  8
PLAN_1
 62
     2
  6
CONTINUOUS
 10
-1.917681
 20
3.489268
  0
VERTEX
  8
PLAN_1
 62
     2
  6
CONTINUOUS
 10
-1.920740
 20
3.488831
  0
VERTEX
  8
PLAN_1
 62
     2
  6
CONTINUOUS
 10
-1.923358
 20
3.488394
  0
VERTEX
  8
PLAN_1
 62
     2
  6
CONTINUOUS
 10
-1.925980
 20
3.487957
  0
VERTEX
  8
PLAN_1
 62
     2
  6
CONTINUOUS
 10
-1.928598
 20
3.486646
  0
VERTEX
  8
PLAN_1
 62
     2
  6
CONTINUOUS
 10
-1.930783
 20
3.485335
  0
VERTEX
  8
PLAN_1
 62
     2
  6
CONTINUOUS
 10
-1.932965
 20
3.484028
  0
VERTEX
  8
PLAN_1
 62
     2
  6
CONTINUOUS
 10
-1.934713
 20
3.482280
  0
VERTEX
  8
PLAN_1
 62
     2
  6
CONTINUOUS
 10
-1.936461
 20
3.480531
  0
VERTEX
  8
PLAN_1
 62
     2
  6
CONTINUOUS
 10
-1.938205
 20
3.478350
  0
VERTEX
  8
PLAN_1
 62
     2
  6
CONTINUOUS
 10
-1.939516
 20
3.476165
  0
VERTEX
  8
PLAN_1
 62
     2
  6
CONTINUOUS
 10
-1.940827
 20
3.473547
  0
VERTEX
  8
PLAN_1
 62
     2
  6
CONTINUOUS
 10
-1.941701
 20
3.470925
  0
VERTEX
  8
PLAN_1
 62
     2
  6
CONTINUOUS
 10
-1.942571
 20
3.467870
  0
VERTEX
  8
PLAN_1
 62
     2
  6
CONTINUOUS
 10
-1.943008
 20
3.465248
  0
VERTEX
  8
PLAN_1
 62
     2
  6
CONTINUOUS
 10
-1.943445
 20
3.461756
  0
VERTEX
  8
PLAN_1
 62
     2
  6
CONTINUOUS
 10
-1.943445
 20
3.458697
  0
VERTEX
  8
PLAN_1
 62
     2
  6
CONTINUOUS
 10
-1.943445
 20
3.456079
  0
VERTEX
  8
PLAN_1
 62
     2
  6
CONTINUOUS
 10
-1.943445
 20
3.453024
  0
VERTEX
  8
PLAN_1
 62
     2
  6
CONTINUOUS
 10
-1.943008
 20
3.450402
  0
VERTEX
  8
PLAN_1
 62
     2
  6
CONTINUOUS
 10
-1.942138
 20
3.448217
  0
VERTEX
  8
PLAN_1
 62
     2
  6
CONTINUOUS
 10
-1.941264
 20
3.445598
  0
VERTEX
  8
PLAN_1
 62
     2
  6
CONTINUOUS
 10
-1.940390
 20
3.443413
  0
VERTEX
  8
PLAN_1
 62
     2
  6
CONTINUOUS
 10
-1.939516
 20
3.441232
  0
VERTEX
  8
PLAN_1
 62
     2
  6
CONTINUOUS
 10
-1.938205
 20
3.439047
  0
VERTEX
  8
PLAN_1
 62
     2
  6
CONTINUOUS
 10
-1.899343
 20
3.481406
  0
SEQEND
  8
0
  0
POLYLINE
  8
PLAN_1
 62
     2
  6
CONTINUOUS
 66
     1
 40
0.003000
 41
0.003000
  0
VERTEX
  8
PLAN_1
 62
     2
  6
CONTINUOUS
 10
-1.839516
 20
3.421146
  0
VERTEX
  8
PLAN_1
 62
     2
  6
CONTINUOUS
 10
-1.849559
 20
3.421146
  0
VERTEX
  8
PLAN_1
 62
     2
  6
CONTINUOUS
 10
-1.849559
 20
3.473110
  0
VERTEX
  8
PLAN_1
 62
     2
  6
CONTINUOUS
 10
-1.866591
 20
3.473110
  0
VERTEX
  8
PLAN_1
 62
     2
  6
CONTINUOUS
 10
-1.866591
 20
3.480531
  0
VERTEX
  8
PLAN_1
 62
     2
  6
CONTINUOUS
 10
-1.862224
 20
3.480969
  0
VERTEX
  8
PLAN_1
 62
     2
  6
CONTINUOUS
 10
-1.858728
 20
3.481406
  0
VERTEX
  8
PLAN_1
 62
     2
  6
CONTINUOUS
 10
-1.855673
 20
3.482280
  0
VERTEX
  8
PLAN_1
 62
     2
  6
CONTINUOUS
 10
-1.853488
 20
3.483154
  0
VERTEX
  8
PLAN_1
 62
     2
  6
CONTINUOUS
 10
-1.851307
 20
3.484898
  0
VERTEX
  8
PLAN_1
 62
     2
  6
CONTINUOUS
 10
-1.849559
 20
3.487520
  0
VERTEX
  8
PLAN_1
 62
     2
  6
CONTINUOUS
 10
-1.848248
 20
3.490575
  0
VERTEX
  8
PLAN_1
 62
     2
  6
CONTINUOUS
 10
-1.846941
 20
3.494508
  0
VERTEX
  8
PLAN_1
 62
     2
  6
CONTINUOUS
 10
-1.839516
 20
3.494508
  0
VERTEX
  8
PLAN_1
 62
     2
  6
CONTINUOUS
 10
-1.839516
 20
3.421146
  0
SEQEND
  8
0
  0
POLYLINE
  8
PLAN_1
 62
     2
  6
CONTINUOUS
 66
     1
 40
0.003000
 41
0.003000
  0
VERTEX
  8
PLAN_1
 62
     2
  6
CONTINUOUS
 10
-1.814626
 20
3.468307
  0
VERTEX
  8
PLAN_1
 62
     2
  6
CONTINUOUS
 10
-1.814189
 20
3.472673
  0
VERTEX
  8
PLAN_1
 62
     2
  6
CONTINUOUS
 10
-1.813752
 20
3.476165
  0
VERTEX
  8
PLAN_1
 62
     2
  6
CONTINUOUS
 10
-1.812878
 20
3.479657
  0
VERTEX
  8
PLAN_1
 62
     2
  6
CONTINUOUS
 10
-1.811567
 20
3.482280
  0
VERTEX
  8
PLAN_1
 62
     2
  6
CONTINUOUS
 10
-1.810260
 20
3.484898
  0
VERTEX
  8
PLAN_1
 62
     2
  6
CONTINUOUS
 10
-1.808512
 20
3.487083
  0
VERTEX
  8
PLAN_1
 62
     2
  6
CONTINUOUS
 10
-1.806764
 20
3.488831
  0
VERTEX
  8
PLAN_1
 62
     2
  6
CONTINUOUS
 10
-1.805020
 20
3.490138
  0
VERTEX
  8
PLAN_1
 62
     2
  6
CONTINUOUS
 10
-1.800650
 20
3.492323
  0
VERTEX
  8
PLAN_1
 62
     2
  6
CONTINUOUS
 10
-1.796720
 20
3.493634
  0
VERTEX
  8
PLAN_1
 62
     2
  6
CONTINUOUS
 10
-1.792791
 20
3.494508
  0
VERTEX
  8
PLAN_1
 62
     2
  6
CONTINUOUS
 10
-1.789299
 20
3.494508
  0
VERTEX
  8
PLAN_1
 62
     2
  6
CONTINUOUS
 10
-1.784496
 20
3.494071
  0
VERTEX
  8
PLAN_1
 62
     2
  6
CONTINUOUS
 10
-1.780563
 20
3.492760
  0
VERTEX
  8
PLAN_1
 62
     2
  6
CONTINUOUS
 10
-1.776634
 20
3.491012
  0
VERTEX
  8
PLAN_1
 62
     2
  6
CONTINUOUS
 10
-1.773142
 20
3.488831
  0
VERTEX
  8
PLAN_1
 62
     2
  6
CONTINUOUS
 10
-1.771831
 20
3.487083
  0
VERTEX
  8
PLAN_1
 62
     2
  6
CONTINUOUS
 10
-1.770520
 20
3.485335
  0
VERTEX
  8
PLAN_1
 62
     2
  6
CONTINUOUS
 10
-1.769209
 20
3.483591
  0
VERTEX
  8
PLAN_1
 62
     2
  6
CONTINUOUS
 10
-1.768339
 20
3.481843
  0
VERTEX
  8
PLAN_1
 62
     2
  6
CONTINUOUS
 10
-1.767465
 20
3.479657
  0
VERTEX
  8
PLAN_1
 62
     2
  6
CONTINUOUS
 10
-1.767028
 20
3.477476
  0
VERTEX
  8
PLAN_1
 62
     2
  6
CONTINUOUS
 10
-1.766591
 20
3.475291
  0
VERTEX
  8
PLAN_1
 62
     2
  6
CONTINUOUS
 10
-1.766591
 20
3.472673
  0
VERTEX
  8
PLAN_1
 62
     2
  6
CONTINUOUS
 10
-1.767028
 20
3.467870
  0
VERTEX
  8
PLAN_1
 62
     2
  6
CONTINUOUS
 10
-1.767902
 20
3.463937
  0
VERTEX
  8
PLAN_1
 62
     2
  6
CONTINUOUS
 10
-1.769646
 20
3.460445
  0
VERTEX
  8
PLAN_1
 62
     2
  6
CONTINUOUS
 10
-1.772268
 20
3.457827
  0
VERTEX
  8
PLAN_1
 62
     2
  6
CONTINUOUS
 10
-1.774886
 20
3.455205
  0
VERTEX
  8
PLAN_1
 62
     2
  6
CONTINUOUS
 10
-1.778382
 20
3.452587
  0
VERTEX
  8
PLAN_1
 62
     2
  6
CONTINUOUS
 10
-1.781874
 20
3.450402
  0
VERTEX
  8
PLAN_1
 62
     2
  6
CONTINUOUS
 10
-1.785803
 20
3.448217
  0
VERTEX
  8
PLAN_1
 62
     2
  6
CONTINUOUS
 10
-1.793665
 20
3.443850
  0
VERTEX
  8
PLAN_1
 62
     2
  6
CONTINUOUS
 10
-1.797157
 20
3.442106
  0
VERTEX
  8
PLAN_1
 62
     2
  6
CONTINUOUS
 10
-1.799780
 20
3.439921
  0
VERTEX
  8
PLAN_1
 62
     2
  6
CONTINUOUS
 10
-1.801961
 20
3.437736
  0
VERTEX
  8
PLAN_1
 62
     2
  6
CONTINUOUS
 10
-1.803272
 20
3.435992
  0
VERTEX
  8
PLAN_1
 62
     2
  6
CONTINUOUS
 10
-1.804583
 20
3.434244
  0
VERTEX
  8
PLAN_1
 62
     2
  6
CONTINUOUS
 10
-1.805457
 20
3.432496
  0
VERTEX
  8
PLAN_1
 62
     2
  6
CONTINUOUS
 10
-1.805890
 20
3.431189
  0
VERTEX
  8
PLAN_1
 62
     2
  6
CONTINUOUS
 10
-1.806327
 20
3.429878
  0
VERTEX
  8
PLAN_1
 62
     2
  6
CONTINUOUS
 10
-1.766591
 20
3.429878
  0
VERTEX
  8
PLAN_1
 62
     2
  6
CONTINUOUS
 10
-1.766591
 20
3.421146
  0
VERTEX
  8
PLAN_1
 62
     2
  6
CONTINUOUS
 10
-1.816370
 20
3.421146
  0
VERTEX
  8
PLAN_1
 62
     2
  6
CONTINUOUS
 10
-1.815937
 20
3.426823
  0
VERTEX
  8
PLAN_1
 62
     2
  6
CONTINUOUS
 10
-1.815063
 20
3.431626
  0
VERTEX
  8
PLAN_1
 62
     2
  6
CONTINUOUS
 10
-1.813315
 20
3.435555
  0
VERTEX
  8
PLAN_1
 62
     2
  6
CONTINUOUS
 10
-1.811130
 20
3.439484
  0
VERTEX
  8
PLAN_1
 62
     2
  6
CONTINUOUS
 10
-1.808949
 20
3.442543
  0
VERTEX
  8
PLAN_1
 62
     2
  6
CONTINUOUS
 10
-1.805890
 20
3.445598
  0
VERTEX
  8
PLAN_1
 62
     2
  6
CONTINUOUS
 10
-1.802835
 20
3.448217
  0
VERTEX
  8
PLAN_1
 62
     2
  6
CONTINUOUS
 10
-1.799343
 20
3.450402
  0
VERTEX
  8
PLAN_1
 62
     2
  6
CONTINUOUS
 10
-1.789736
 20
3.456079
  0
VERTEX
  8
PLAN_1
 62
     2
  6
CONTINUOUS
 10
-1.786677
 20
3.457390
  0
VERTEX
  8
PLAN_1
 62
     2
  6
CONTINUOUS
 10
-1.784059
 20
3.459134
  0
VERTEX
  8
PLAN_1
 62
     2
  6
CONTINUOUS
 10
-1.781874
 20
3.460882
  0
VERTEX
  8
PLAN_1
 62
     2
  6
CONTINUOUS
 10
-1.780126
 20
3.462630
  0
VERTEX
  8
PLAN_1
 62
     2
  6
CONTINUOUS
 10
-1.778382
 20
3.464811
  0
VERTEX
  8
PLAN_1
 62
     2
  6
CONTINUOUS
 10
-1.777071
 20
3.466996
  0
VERTEX
  8
PLAN_1
 62
     2
  6
CONTINUOUS
 10
-1.776634
 20
3.469614
  0
VERTEX
  8
PLAN_1
 62
     2
  6
CONTINUOUS
 10
-1.776197
 20
3.473110
  0
VERTEX
  8
PLAN_1
 62
     2
  6
CONTINUOUS
 10
-1.776197
 20
3.475291
  0
VERTEX
  8
PLAN_1
 62
     2
  6
CONTINUOUS
 10
-1.777071
 20
3.477476
  0
VERTEX
  8
PLAN_1
 62
     2
  6
CONTINUOUS
 10
-1.777945
 20
3.479657
  0
VERTEX
  8
PLAN_1
 62
     2
  6
CONTINUOUS
 10
-1.779256
 20
3.481843
  0
VERTEX
  8
PLAN_1
 62
     2
  6
CONTINUOUS
 10
-1.781437
 20
3.483591
  0
VERTEX
  8
PLAN_1
 62
     2
  6
CONTINUOUS
 10
-1.784059
 20
3.484898
  0
VERTEX
  8
PLAN_1
 62
     2
  6
CONTINUOUS
 10
-1.787114
 20
3.485772
  0
VERTEX
  8
PLAN_1
 62
     2
  6
CONTINUOUS
 10
-1.790606
 20
3.486209
  0
VERTEX
  8
PLAN_1
 62
     2
  6
CONTINUOUS
 10
-1.793228
 20
3.486209
  0
VERTEX
  8
PLAN_1
 62
     2
  6
CONTINUOUS
 10
-1.795409
 20
3.485772
  0
VERTEX
  8
PLAN_1
 62
     2
  6
CONTINUOUS
 10
-1.797157
 20
3.484898
  0
VERTEX
  8
PLAN_1
 62
     2
  6
CONTINUOUS
 10
-1.798906
 20
3.484028
  0
VERTEX
  8
PLAN_1
 62
     2
  6
CONTINUOUS
 10
-1.800217
 20
3.483154
  0
VERTEX
  8
PLAN_1
 62
     2
  6
CONTINUOUS
 10
-1.801524
 20
3.481843
  0
VERTEX
  8
PLAN_1
 62
     2
  6
CONTINUOUS
 10
-1.802398
 20
3.480531
  0
VERTEX
  8
PLAN_1
 62
     2
  6
CONTINUOUS
 10
-1.803272
 20
3.479224
  0
VERTEX
  8
PLAN_1
 62
     2
  6
CONTINUOUS
 10
-1.804146
 20
3.476165
  0
VERTEX
  8
PLAN_1
 62
     2
  6
CONTINUOUS
 10
-1.805020
 20
3.473110
  0
VERTEX
  8
PLAN_1
 62
     2
  6
CONTINUOUS
 10
-1.805457
 20
3.470488
  0
VERTEX
  8
PLAN_1
 62
     2
  6
CONTINUOUS
 10
-1.805457
 20
3.468307
  0
VERTEX
  8
PLAN_1
 62
     2
  6
CONTINUOUS
 10
-1.814626
 20
3.468307
  0
SEQEND
  8
0
  0
POLYLINE
  8
PLAN_1
 62
     2
  6
CONTINUOUS
 66
     1
 40
0.004366
 41
0.004366
  0
VERTEX
  8
PLAN_1
 62
     2
  6
CONTINUOUS
 10
-1.270957
 20
3.297563
  0
VERTEX
  8
PLAN_1
 62
     2
  6
CONTINUOUS
 10
-0.396724
 20
3.297563
  0
SEQEND
  8
0
  0
POLYLINE
  8
PLAN_1
 62
     2
  6
CONTINUOUS
 66
     1
 40
0.004366
 41
0.004366
  0
VERTEX
  8
PLAN_1
 62
     2
  6
CONTINUOUS
 10
-0.541701
 20
1.329882
  0
VERTEX
  8
PLAN_1
 62
     2
  6
CONTINUOUS
 10
-0.398035
 20
1.329882
  0
SEQEND
  8
0
  0
ENDSEC
  0
EOF
