  0
SECTION
  2
HEADER
  9
$ACADVER
  1
AC1006
  9
$EXTMIN
 10
-2.124244
 20
-3.894185
  9
$EXTMAX
 10
2.113000
 20
3.898000
  9
$LTSCALE
 40
0.000394
  9
$PDMODE
 70
    35
  9
$PDSIZE
 40
0.000315
  0
ENDSEC
  0
SECTION
  2
TABLES
  0
TABLE
  2
LTYPE
 70
     9
  0
LTYPE
  2
CONTINUOUS
 70
    64
  3
Solid line
 72
    65
 73
     0
 40
0.000000
  0
LTYPE
  2
DASHED
 70
    64
  3
__ __ __ __ __ __ __ __ __ __ __ __ __ __ __
 72
    65
 73
     2
 40
0.000003
 49
0.000002
 49
-0.000001
  0
LTYPE
  2
HIDDEN
 70
    64
  3
 _ _ _ _ _ _ _ _ _ _ _ _ _ _ _ _ _ _ _ _ _ _
 72
    65
 73
     2
 40
0.000001
 49
0.000001
 49
-0.000000
  0
LTYPE
  2
CENTER
 70
    64
  3
____ _ ____ _ ____ _ ____ _ ____ _ ____ _ ____
 72
    65
 73
     4
 40
0.000008
 49
0.000005
 49
-0.000001
 49
0.000001
 49
-0.000001
  0
LTYPE
  2
PHANTOM
 70
    64
  3
_____ _ _ _____ _ _ _____ _ _ _____ _ _ ____
 72
    65
 73
     6
 40
0.000010
 49
0.000005
 49
-0.000001
 49
0.000001
 49
-0.000001
 49
0.000001
 49
-0.000001
  0
LTYPE
  2
DOT
 70
    64
  3
...............................................
 72
    65
 73
     2
 40
0.000001
 49
0.000000
 49
-0.000001
  0
LTYPE
  2
DASHDOT
 70
    64
  3
__ . __ . __ . __ . __ . __ . __ . __ . __ . __
 72
    65
 73
     4
 40
0.000004
 49
0.000002
 49
-0.000001
 49
0.000000
 49
-0.000001
  0
LTYPE
  2
BORDER
 70
    64
  3
__ __ . __ __ . __ __ . __ __ . __ __ . __ __
 72
    65
 73
     6
 40
0.000007
 49
0.000002
 49
-0.000001
 49
0.000002
 49
-0.000001
 49
0.000000
 49
-0.000001
  0
LTYPE
  2
DIVIDE
 70
    64
  3
__ . . __ . . __ . . __ . . __ . . __ . . __
 72
    65
 73
     6
 40
0.000005
 49
0.000002
 49
-0.000001
 49
0.000000
 49
-0.000001
 49
0.000000
 49
-0.000001
  0
LTYPE
  2
DOTDOT
 70
    64
  3
 . .  . .  . .  . .  . .  . . 
 72
    65
 73
     5
 40
0.000002
 49
-0.000001
 49
0.000000
 49
-0.000001
 49
0.000000
 49
-0.000001
  0
ENDTAB
  0
TABLE
  2
STYLE
 70
     0
  0
ENDTAB
  0
TABLE
  2
LAYER
 70
     3
  0
LAYER
  2
FOREGROUND
 70
    64
 62
     7
  6
CONTINUOUS
  0
LAYER
  2
BACKGROUND
 70
    65
 62
    -7
  6
CONTINUOUS
  0
LAYER
  2
PLAN_1
 70
    64
 62
     7
  6
CONTINUOUS
  0
ENDTAB
  0
ENDSEC
  0
SECTION
  2
ENTITIES
  0
POLYLINE
  8
PLAN_1
  6
CONTINUOUS
 66
     1
 40
0.003000
 41
0.003000
  0
VERTEX
  8
PLAN_1
  6
CONTINUOUS
 10
0.309594
 20
-3.859606
  0
VERTEX
  8
PLAN_1
  6
CONTINUOUS
 10
0.152780
 20
-3.859606
  0
VERTEX
  8
PLAN_1
  6
CONTINUOUS
 10
0.152780
 20
-3.837205
  0
VERTEX
  8
PLAN_1
  6
CONTINUOUS
 10
0.275020
 20
-3.684283
  0
VERTEX
  8
PLAN_1
  6
CONTINUOUS
 10
0.162031
 20
-3.684283
  0
VERTEX
  8
PLAN_1
  6
CONTINUOUS
 10
0.162031
 20
-3.660417
  0
VERTEX
  8
PLAN_1
  6
CONTINUOUS
 10
0.309594
 20
-3.660417
  0
VERTEX
  8
PLAN_1
  6
CONTINUOUS
 10
0.309594
 20
-3.683307
  0
VERTEX
  8
PLAN_1
  6
CONTINUOUS
 10
0.186870
 20
-3.835744
  0
VERTEX
  8
PLAN_1
  6
CONTINUOUS
 10
0.309594
 20
-3.835744
  0
VERTEX
  8
PLAN_1
  6
CONTINUOUS
 10
0.309594
 20
-3.859606
  0
SEQEND
  8
0
  0
POLYLINE
  8
PLAN_1
  6
CONTINUOUS
 66
     1
 40
0.003000
 41
0.003000
  0
VERTEX
  8
PLAN_1
  6
CONTINUOUS
 10
0.477130
 20
-3.720319
  0
VERTEX
  8
PLAN_1
  6
CONTINUOUS
 10
0.475181
 20
-3.713988
  0
VERTEX
  8
PLAN_1
  6
CONTINUOUS
 10
0.473232
 20
-3.708146
  0
VERTEX
  8
PLAN_1
  6
CONTINUOUS
 10
0.470795
 20
-3.703276
  0
VERTEX
  8
PLAN_1
  6
CONTINUOUS
 10
0.467874
 20
-3.698894
  0
VERTEX
  8
PLAN_1
  6
CONTINUOUS
 10
0.464465
 20
-3.694996
  0
VERTEX
  8
PLAN_1
  6
CONTINUOUS
 10
0.461055
 20
-3.691587
  0
VERTEX
  8
PLAN_1
  6
CONTINUOUS
 10
0.457161
 20
-3.688665
  0
VERTEX
  8
PLAN_1
  6
CONTINUOUS
 10
0.453264
 20
-3.686228
  0
VERTEX
  8
PLAN_1
  6
CONTINUOUS
 10
0.449370
 20
-3.684283
  0
VERTEX
  8
PLAN_1
  6
CONTINUOUS
 10
0.445472
 20
-3.682823
  0
VERTEX
  8
PLAN_1
  6
CONTINUOUS
 10
0.441091
 20
-3.681358
  0
VERTEX
  8
PLAN_1
  6
CONTINUOUS
 10
0.437193
 20
-3.680386
  0
VERTEX
  8
PLAN_1
  6
CONTINUOUS
 10
0.428913
 20
-3.678925
  0
VERTEX
  8
PLAN_1
  6
CONTINUOUS
 10
0.421122
 20
-3.678925
  0
VERTEX
  8
PLAN_1
  6
CONTINUOUS
 10
0.414791
 20
-3.678925
  0
VERTEX
  8
PLAN_1
  6
CONTINUOUS
 10
0.407972
 20
-3.679898
  0
VERTEX
  8
PLAN_1
  6
CONTINUOUS
 10
0.401642
 20
-3.681846
  0
VERTEX
  8
PLAN_1
  6
CONTINUOUS
 10
0.395799
 20
-3.683795
  0
VERTEX
  8
PLAN_1
  6
CONTINUOUS
 10
0.389953
 20
-3.686717
  0
VERTEX
  8
PLAN_1
  6
CONTINUOUS
 10
0.384594
 20
-3.690126
  0
VERTEX
  8
PLAN_1
  6
CONTINUOUS
 10
0.379724
 20
-3.694024
  0
VERTEX
  8
PLAN_1
  6
CONTINUOUS
 10
0.374854
 20
-3.698894
  0
VERTEX
  8
PLAN_1
  6
CONTINUOUS
 10
0.370961
 20
-3.703764
  0
VERTEX
  8
PLAN_1
  6
CONTINUOUS
 10
0.367063
 20
-3.709606
  0
VERTEX
  8
PLAN_1
  6
CONTINUOUS
 10
0.363654
 20
-3.716425
  0
VERTEX
  8
PLAN_1
  6
CONTINUOUS
 10
0.361220
 20
-3.723244
  0
VERTEX
  8
PLAN_1
  6
CONTINUOUS
 10
0.358783
 20
-3.731035
  0
VERTEX
  8
PLAN_1
  6
CONTINUOUS
 10
0.357323
 20
-3.739315
  0
VERTEX
  8
PLAN_1
  6
CONTINUOUS
 10
0.356350
 20
-3.748567
  0
VERTEX
  8
PLAN_1
  6
CONTINUOUS
 10
0.355862
 20
-3.757819
  0
VERTEX
  8
PLAN_1
  6
CONTINUOUS
 10
0.356350
 20
-3.766587
  0
VERTEX
  8
PLAN_1
  6
CONTINUOUS
 10
0.356835
 20
-3.774866
  0
VERTEX
  8
PLAN_1
  6
CONTINUOUS
 10
0.357811
 20
-3.783146
  0
VERTEX
  8
PLAN_1
  6
CONTINUOUS
 10
0.359272
 20
-3.790449
  0
VERTEX
  8
PLAN_1
  6
CONTINUOUS
 10
0.361220
 20
-3.797756
  0
VERTEX
  8
PLAN_1
  6
CONTINUOUS
 10
0.363654
 20
-3.804575
  0
VERTEX
  8
PLAN_1
  6
CONTINUOUS
 10
0.367063
 20
-3.810906
  0
VERTEX
  8
PLAN_1
  6
CONTINUOUS
 10
0.370472
 20
-3.817236
  0
VERTEX
  8
PLAN_1
  6
CONTINUOUS
 10
0.374854
 20
-3.822106
  0
VERTEX
  8
PLAN_1
  6
CONTINUOUS
 10
0.379240
 20
-3.826976
  0
VERTEX
  8
PLAN_1
  6
CONTINUOUS
 10
0.385083
 20
-3.830874
  0
VERTEX
  8
PLAN_1
  6
CONTINUOUS
 10
0.390929
 20
-3.834768
  0
VERTEX
  8
PLAN_1
  6
CONTINUOUS
 10
0.397744
 20
-3.837205
  0
VERTEX
  8
PLAN_1
  6
CONTINUOUS
 10
0.405051
 20
-3.839154
  0
VERTEX
  8
PLAN_1
  6
CONTINUOUS
 10
0.413331
 20
-3.840614
  0
VERTEX
  8
PLAN_1
  6
CONTINUOUS
 10
0.422094
 20
-3.841098
  0
VERTEX
  8
PLAN_1
  6
CONTINUOUS
 10
0.425504
 20
-3.840614
  0
VERTEX
  8
PLAN_1
  6
CONTINUOUS
 10
0.428913
 20
-3.840614
  0
VERTEX
  8
PLAN_1
  6
CONTINUOUS
 10
0.432811
 20
-3.839638
  0
VERTEX
  8
PLAN_1
  6
CONTINUOUS
 10
0.437193
 20
-3.838665
  0
VERTEX
  8
PLAN_1
  6
CONTINUOUS
 10
0.441091
 20
-3.837689
  0
VERTEX
  8
PLAN_1
  6
CONTINUOUS
 10
0.445472
 20
-3.835744
  0
VERTEX
  8
PLAN_1
  6
CONTINUOUS
 10
0.449370
 20
-3.833795
  0
VERTEX
  8
PLAN_1
  6
CONTINUOUS
 10
0.453752
 20
-3.830874
  0
VERTEX
  8
PLAN_1
  6
CONTINUOUS
 10
0.457650
 20
-3.827949
  0
VERTEX
  8
PLAN_1
  6
CONTINUOUS
 10
0.461543
 20
-3.824055
  0
VERTEX
  8
PLAN_1
  6
CONTINUOUS
 10
0.465441
 20
-3.819669
  0
VERTEX
  8
PLAN_1
  6
CONTINUOUS
 10
0.468850
 20
-3.814315
  0
VERTEX
  8
PLAN_1
  6
CONTINUOUS
 10
0.471772
 20
-3.808469
  0
VERTEX
  8
PLAN_1
  6
CONTINUOUS
 10
0.474693
 20
-3.801654
  0
VERTEX
  8
PLAN_1
  6
CONTINUOUS
 10
0.477130
 20
-3.794346
  0
VERTEX
  8
PLAN_1
  6
CONTINUOUS
 10
0.479075
 20
-3.786067
  0
VERTEX
  8
PLAN_1
  6
CONTINUOUS
 10
0.504890
 20
-3.786067
  0
VERTEX
  8
PLAN_1
  6
CONTINUOUS
 10
0.503913
 20
-3.792886
  0
VERTEX
  8
PLAN_1
  6
CONTINUOUS
 10
0.502453
 20
-3.799705
  0
VERTEX
  8
PLAN_1
  6
CONTINUOUS
 10
0.500504
 20
-3.805547
  0
VERTEX
  8
PLAN_1
  6
CONTINUOUS
 10
0.498555
 20
-3.811394
  0
VERTEX
  8
PLAN_1
  6
CONTINUOUS
 10
0.496610
 20
-3.816264
  0
VERTEX
  8
PLAN_1
  6
CONTINUOUS
 10
0.494173
 20
-3.821618
  0
VERTEX
  8
PLAN_1
  6
CONTINUOUS
 10
0.491740
 20
-3.826004
  0
VERTEX
  8
PLAN_1
  6
CONTINUOUS
 10
0.488815
 20
-3.830386
  0
VERTEX
  8
PLAN_1
  6
CONTINUOUS
 10
0.485894
 20
-3.834280
  0
VERTEX
  8
PLAN_1
  6
CONTINUOUS
 10
0.482972
 20
-3.837689
  0
VERTEX
  8
PLAN_1
  6
CONTINUOUS
 10
0.479563
 20
-3.841098
  0
VERTEX
  8
PLAN_1
  6
CONTINUOUS
 10
0.476642
 20
-3.844024
  0
VERTEX
  8
PLAN_1
  6
CONTINUOUS
 10
0.469823
 20
-3.849378
  0
VERTEX
  8
PLAN_1
  6
CONTINUOUS
 10
0.463004
 20
-3.853764
  0
VERTEX
  8
PLAN_1
  6
CONTINUOUS
 10
0.456185
 20
-3.857169
  0
VERTEX
  8
PLAN_1
  6
CONTINUOUS
 10
0.449370
 20
-3.859606
  0
VERTEX
  8
PLAN_1
  6
CONTINUOUS
 10
0.442551
 20
-3.861555
  0
VERTEX
  8
PLAN_1
  6
CONTINUOUS
 10
0.436220
 20
-3.863016
  0
VERTEX
  8
PLAN_1
  6
CONTINUOUS
 10
0.425504
 20
-3.864476
  0
VERTEX
  8
PLAN_1
  6
CONTINUOUS
 10
0.417713
 20
-3.864965
  0
VERTEX
  8
PLAN_1
  6
CONTINUOUS
 10
0.409433
 20
-3.864476
  0
VERTEX
  8
PLAN_1
  6
CONTINUOUS
 10
0.401154
 20
-3.863504
  0
VERTEX
  8
PLAN_1
  6
CONTINUOUS
 10
0.392874
 20
-3.861555
  0
VERTEX
  8
PLAN_1
  6
CONTINUOUS
 10
0.384594
 20
-3.859118
  0
VERTEX
  8
PLAN_1
  6
CONTINUOUS
 10
0.377291
 20
-3.855709
  0
VERTEX
  8
PLAN_1
  6
CONTINUOUS
 10
0.369500
 20
-3.851327
  0
VERTEX
  8
PLAN_1
  6
CONTINUOUS
 10
0.366091
 20
-3.848894
  0
VERTEX
  8
PLAN_1
  6
CONTINUOUS
 10
0.362681
 20
-3.846457
  0
VERTEX
  8
PLAN_1
  6
CONTINUOUS
 10
0.359272
 20
-3.843535
  0
VERTEX
  8
PLAN_1
  6
CONTINUOUS
 10
0.356350
 20
-3.840614
  0
VERTEX
  8
PLAN_1
  6
CONTINUOUS
 10
0.352941
 20
-3.837205
  0
VERTEX
  8
PLAN_1
  6
CONTINUOUS
 10
0.350020
 20
-3.833795
  0
VERTEX
  8
PLAN_1
  6
CONTINUOUS
 10
0.347094
 20
-3.829898
  0
VERTEX
  8
PLAN_1
  6
CONTINUOUS
 10
0.344661
 20
-3.826004
  0
VERTEX
  8
PLAN_1
  6
CONTINUOUS
 10
0.342224
 20
-3.821618
  0
VERTEX
  8
PLAN_1
  6
CONTINUOUS
 10
0.339791
 20
-3.817236
  0
VERTEX
  8
PLAN_1
  6
CONTINUOUS
 10
0.337843
 20
-3.812366
  0
VERTEX
  8
PLAN_1
  6
CONTINUOUS
 10
0.335894
 20
-3.807496
  0
VERTEX
  8
PLAN_1
  6
CONTINUOUS
 10
0.333949
 20
-3.802626
  0
VERTEX
  8
PLAN_1
  6
CONTINUOUS
 10
0.332484
 20
-3.796783
  0
VERTEX
  8
PLAN_1
  6
CONTINUOUS
 10
0.331512
 20
-3.791425
  0
VERTEX
  8
PLAN_1
  6
CONTINUOUS
 10
0.330051
 20
-3.785094
  0
VERTEX
  8
PLAN_1
  6
CONTINUOUS
 10
0.329563
 20
-3.779248
  0
VERTEX
  8
PLAN_1
  6
CONTINUOUS
 10
0.328591
 20
-3.772429
  0
VERTEX
  8
PLAN_1
  6
CONTINUOUS
 10
0.328591
 20
-3.765614
  0
VERTEX
  8
PLAN_1
  6
CONTINUOUS
 10
0.328102
 20
-3.758795
  0
VERTEX
  8
PLAN_1
  6
CONTINUOUS
 10
0.328591
 20
-3.747594
  0
VERTEX
  8
PLAN_1
  6
CONTINUOUS
 10
0.330051
 20
-3.736878
  0
VERTEX
  8
PLAN_1
  6
CONTINUOUS
 10
0.332000
 20
-3.726165
  0
VERTEX
  8
PLAN_1
  6
CONTINUOUS
 10
0.334433
 20
-3.716425
  0
VERTEX
  8
PLAN_1
  6
CONTINUOUS
 10
0.338331
 20
-3.707657
  0
VERTEX
  8
PLAN_1
  6
CONTINUOUS
 10
0.342224
 20
-3.698894
  0
VERTEX
  8
PLAN_1
  6
CONTINUOUS
 10
0.347094
 20
-3.691098
  0
VERTEX
  8
PLAN_1
  6
CONTINUOUS
 10
0.352941
 20
-3.683795
  0
VERTEX
  8
PLAN_1
  6
CONTINUOUS
 10
0.355862
 20
-3.680386
  0
VERTEX
  8
PLAN_1
  6
CONTINUOUS
 10
0.359272
 20
-3.677465
  0
VERTEX
  8
PLAN_1
  6
CONTINUOUS
 10
0.362681
 20
-3.674543
  0
VERTEX
  8
PLAN_1
  6
CONTINUOUS
 10
0.366091
 20
-3.671618
  0
VERTEX
  8
PLAN_1
  6
CONTINUOUS
 10
0.369984
 20
-3.669185
  0
VERTEX
  8
PLAN_1
  6
CONTINUOUS
 10
0.373882
 20
-3.666748
  0
VERTEX
  8
PLAN_1
  6
CONTINUOUS
 10
0.377780
 20
-3.664315
  0
VERTEX
  8
PLAN_1
  6
CONTINUOUS
 10
0.382161
 20
-3.662366
  0
VERTEX
  8
PLAN_1
  6
CONTINUOUS
 10
0.386543
 20
-3.660906
  0
VERTEX
  8
PLAN_1
  6
CONTINUOUS
 10
0.390929
 20
-3.659445
  0
VERTEX
  8
PLAN_1
  6
CONTINUOUS
 10
0.395799
 20
-3.657984
  0
VERTEX
  8
PLAN_1
  6
CONTINUOUS
 10
0.400669
 20
-3.657008
  0
VERTEX
  8
PLAN_1
  6
CONTINUOUS
 10
0.405539
 20
-3.656035
  0
VERTEX
  8
PLAN_1
  6
CONTINUOUS
 10
0.410409
 20
-3.655547
  0
VERTEX
  8
PLAN_1
  6
CONTINUOUS
 10
0.415764
 20
-3.655063
  0
VERTEX
  8
PLAN_1
  6
CONTINUOUS
 10
0.421122
 20
-3.655063
  0
VERTEX
  8
PLAN_1
  6
CONTINUOUS
 10
0.430374
 20
-3.655547
  0
VERTEX
  8
PLAN_1
  6
CONTINUOUS
 10
0.439142
 20
-3.656524
  0
VERTEX
  8
PLAN_1
  6
CONTINUOUS
 10
0.447421
 20
-3.657984
  0
VERTEX
  8
PLAN_1
  6
CONTINUOUS
 10
0.455213
 20
-3.660417
  0
VERTEX
  8
PLAN_1
  6
CONTINUOUS
 10
0.462031
 20
-3.663339
  0
VERTEX
  8
PLAN_1
  6
CONTINUOUS
 10
0.468850
 20
-3.666748
  0
VERTEX
  8
PLAN_1
  6
CONTINUOUS
 10
0.474693
 20
-3.670646
  0
VERTEX
  8
PLAN_1
  6
CONTINUOUS
 10
0.480051
 20
-3.675028
  0
VERTEX
  8
PLAN_1
  6
CONTINUOUS
 10
0.484921
 20
-3.679898
  0
VERTEX
  8
PLAN_1
  6
CONTINUOUS
 10
0.488815
 20
-3.684768
  0
VERTEX
  8
PLAN_1
  6
CONTINUOUS
 10
0.492713
 20
-3.690126
  0
VERTEX
  8
PLAN_1
  6
CONTINUOUS
 10
0.496122
 20
-3.695969
  0
VERTEX
  8
PLAN_1
  6
CONTINUOUS
 10
0.498555
 20
-3.701815
  0
VERTEX
  8
PLAN_1
  6
CONTINUOUS
 10
0.500504
 20
-3.707657
  0
VERTEX
  8
PLAN_1
  6
CONTINUOUS
 10
0.501965
 20
-3.713988
  0
VERTEX
  8
PLAN_1
  6
CONTINUOUS
 10
0.502941
 20
-3.720319
  0
VERTEX
  8
PLAN_1
  6
CONTINUOUS
 10
0.477130
 20
-3.720319
  0
SEQEND
  8
0
  0
POLYLINE
  8
PLAN_1
  6
CONTINUOUS
 66
     1
 40
0.003000
 41
0.003000
  0
VERTEX
  8
PLAN_1
  6
CONTINUOUS
 10
0.564303
 20
-3.859606
  0
VERTEX
  8
PLAN_1
  6
CONTINUOUS
 10
0.537520
 20
-3.859606
  0
VERTEX
  8
PLAN_1
  6
CONTINUOUS
 10
0.537520
 20
-3.660417
  0
VERTEX
  8
PLAN_1
  6
CONTINUOUS
 10
0.564303
 20
-3.660417
  0
VERTEX
  8
PLAN_1
  6
CONTINUOUS
 10
0.564303
 20
-3.756846
  0
VERTEX
  8
PLAN_1
  6
CONTINUOUS
 10
0.661220
 20
-3.660417
  0
VERTEX
  8
PLAN_1
  6
CONTINUOUS
 10
0.698232
 20
-3.660417
  0
VERTEX
  8
PLAN_1
  6
CONTINUOUS
 10
0.615441
 20
-3.740776
  0
VERTEX
  8
PLAN_1
  6
CONTINUOUS
 10
0.700665
 20
-3.859606
  0
VERTEX
  8
PLAN_1
  6
CONTINUOUS
 10
0.665602
 20
-3.859606
  0
VERTEX
  8
PLAN_1
  6
CONTINUOUS
 10
0.595961
 20
-3.759768
  0
VERTEX
  8
PLAN_1
  6
CONTINUOUS
 10
0.564303
 20
-3.789476
  0
VERTEX
  8
PLAN_1
  6
CONTINUOUS
 10
0.564303
 20
-3.859606
  0
SEQEND
  8
0
  0
POLYLINE
  8
PLAN_1
  6
CONTINUOUS
 66
     1
 40
0.003000
 41
0.003000
  0
VERTEX
  8
PLAN_1
  6
CONTINUOUS
 10
0.724043
 20
-3.660417
  0
VERTEX
  8
PLAN_1
  6
CONTINUOUS
 10
0.804886
 20
-3.660417
  0
VERTEX
  8
PLAN_1
  6
CONTINUOUS
 10
0.814626
 20
-3.660906
  0
VERTEX
  8
PLAN_1
  6
CONTINUOUS
 10
0.823394
 20
-3.661878
  0
VERTEX
  8
PLAN_1
  6
CONTINUOUS
 10
0.832161
 20
-3.664315
  0
VERTEX
  8
PLAN_1
  6
CONTINUOUS
 10
0.839953
 20
-3.667236
  0
VERTEX
  8
PLAN_1
  6
CONTINUOUS
 10
0.847256
 20
-3.671134
  0
VERTEX
  8
PLAN_1
  6
CONTINUOUS
 10
0.854075
 20
-3.675516
  0
VERTEX
  8
PLAN_1
  6
CONTINUOUS
 10
0.860406
 20
-3.680874
  0
VERTEX
  8
PLAN_1
  6
CONTINUOUS
 10
0.866252
 20
-3.687205
  0
VERTEX
  8
PLAN_1
  6
CONTINUOUS
 10
0.871606
 20
-3.694024
  0
VERTEX
  8
PLAN_1
  6
CONTINUOUS
 10
0.875992
 20
-3.701327
  0
VERTEX
  8
PLAN_1
  6
CONTINUOUS
 10
0.879886
 20
-3.709118
  0
VERTEX
  8
PLAN_1
  6
CONTINUOUS
 10
0.882807
 20
-3.717886
  0
VERTEX
  8
PLAN_1
  6
CONTINUOUS
 10
0.885732
 20
-3.726654
  0
VERTEX
  8
PLAN_1
  6
CONTINUOUS
 10
0.887193
 20
-3.736394
  0
VERTEX
  8
PLAN_1
  6
CONTINUOUS
 10
0.888654
 20
-3.746618
  0
VERTEX
  8
PLAN_1
  6
CONTINUOUS
 10
0.888654
 20
-3.756846
  0
VERTEX
  8
PLAN_1
  6
CONTINUOUS
 10
0.888654
 20
-3.765614
  0
VERTEX
  8
PLAN_1
  6
CONTINUOUS
 10
0.887677
 20
-3.774378
  0
VERTEX
  8
PLAN_1
  6
CONTINUOUS
 10
0.886705
 20
-3.783146
  0
VERTEX
  8
PLAN_1
  6
CONTINUOUS
 10
0.884756
 20
-3.791913
  0
VERTEX
  8
PLAN_1
  6
CONTINUOUS
 10
0.882323
 20
-3.800677
  0
VERTEX
  8
PLAN_1
  6
CONTINUOUS
 10
0.879402
 20
-3.808957
  0
VERTEX
  8
PLAN_1
  6
CONTINUOUS
 10
0.875504
 20
-3.817236
  0
VERTEX
  8
PLAN_1
  6
CONTINUOUS
 10
0.871122
 20
-3.825028
  0
VERTEX
  8
PLAN_1
  6
CONTINUOUS
 10
0.868197
 20
-3.828925
  0
VERTEX
  8
PLAN_1
  6
CONTINUOUS
 10
0.865764
 20
-3.832335
  0
VERTEX
  8
PLAN_1
  6
CONTINUOUS
 10
0.862843
 20
-3.835744
  0
VERTEX
  8
PLAN_1
  6
CONTINUOUS
 10
0.859433
 20
-3.838665
  0
VERTEX
  8
PLAN_1
  6
CONTINUOUS
 10
0.856024
 20
-3.842075
  0
VERTEX
  8
PLAN_1
  6
CONTINUOUS
 10
0.852614
 20
-3.844508
  0
VERTEX
  8
PLAN_1
  6
CONTINUOUS
 10
0.848717
 20
-3.847429
  0
VERTEX
  8
PLAN_1
  6
CONTINUOUS
 10
0.844823
 20
-3.849866
  0
VERTEX
  8
PLAN_1
  6
CONTINUOUS
 10
0.840437
 20
-3.851815
  0
VERTEX
  8
PLAN_1
  6
CONTINUOUS
 10
0.836055
 20
-3.853764
  0
VERTEX
  8
PLAN_1
  6
CONTINUOUS
 10
0.831185
 20
-3.855709
  0
VERTEX
  8
PLAN_1
  6
CONTINUOUS
 10
0.826315
 20
-3.856685
  0
VERTEX
  8
PLAN_1
  6
CONTINUOUS
 10
0.820957
 20
-3.858146
  0
VERTEX
  8
PLAN_1
  6
CONTINUOUS
 10
0.815602
 20
-3.858634
  0
VERTEX
  8
PLAN_1
  6
CONTINUOUS
 10
0.809756
 20
-3.859118
  0
VERTEX
  8
PLAN_1
  6
CONTINUOUS
 10
0.803913
 20
-3.859606
  0
VERTEX
  8
PLAN_1
  6
CONTINUOUS
 10
0.724043
 20
-3.859606
  0
VERTEX
  8
PLAN_1
  6
CONTINUOUS
 10
0.724043
 20
-3.660417
  0
SEQEND
  8
0
  0
POLYLINE
  8
PLAN_1
  6
CONTINUOUS
 66
     1
 40
0.003000
 41
0.003000
  0
VERTEX
  8
PLAN_1
  6
CONTINUOUS
 10
0.751315
 20
-3.836228
  0
VERTEX
  8
PLAN_1
  6
CONTINUOUS
 10
0.803425
 20
-3.836228
  0
VERTEX
  8
PLAN_1
  6
CONTINUOUS
 10
0.809756
 20
-3.836228
  0
VERTEX
  8
PLAN_1
  6
CONTINUOUS
 10
0.815602
 20
-3.835256
  0
VERTEX
  8
PLAN_1
  6
CONTINUOUS
 10
0.821445
 20
-3.833795
  0
VERTEX
  8
PLAN_1
  6
CONTINUOUS
 10
0.827291
 20
-3.831358
  0
VERTEX
  8
PLAN_1
  6
CONTINUOUS
 10
0.832161
 20
-3.828437
  0
VERTEX
  8
PLAN_1
  6
CONTINUOUS
 10
0.837031
 20
-3.825028
  0
VERTEX
  8
PLAN_1
  6
CONTINUOUS
 10
0.841413
 20
-3.821134
  0
VERTEX
  8
PLAN_1
  6
CONTINUOUS
 10
0.845311
 20
-3.816264
  0
VERTEX
  8
PLAN_1
  6
CONTINUOUS
 10
0.848717
 20
-3.811394
  0
VERTEX
  8
PLAN_1
  6
CONTINUOUS
 10
0.852126
 20
-3.805547
  0
VERTEX
  8
PLAN_1
  6
CONTINUOUS
 10
0.854563
 20
-3.799217
  0
VERTEX
  8
PLAN_1
  6
CONTINUOUS
 10
0.856996
 20
-3.791913
  0
VERTEX
  8
PLAN_1
  6
CONTINUOUS
 10
0.858945
 20
-3.784606
  0
VERTEX
  8
PLAN_1
  6
CONTINUOUS
 10
0.859921
 20
-3.776327
  0
VERTEX
  8
PLAN_1
  6
CONTINUOUS
 10
0.860894
 20
-3.768047
  0
VERTEX
  8
PLAN_1
  6
CONTINUOUS
 10
0.860894
 20
-3.758795
  0
VERTEX
  8
PLAN_1
  6
CONTINUOUS
 10
0.860894
 20
-3.749543
  0
VERTEX
  8
PLAN_1
  6
CONTINUOUS
 10
0.859921
 20
-3.741264
  0
VERTEX
  8
PLAN_1
  6
CONTINUOUS
 10
0.858457
 20
-3.732984
  0
VERTEX
  8
PLAN_1
  6
CONTINUOUS
 10
0.856996
 20
-3.725677
  0
VERTEX
  8
PLAN_1
  6
CONTINUOUS
 10
0.854563
 20
-3.718858
  0
VERTEX
  8
PLAN_1
  6
CONTINUOUS
 10
0.851642
 20
-3.713016
  0
VERTEX
  8
PLAN_1
  6
CONTINUOUS
 10
0.848717
 20
-3.707173
  0
VERTEX
  8
PLAN_1
  6
CONTINUOUS
 10
0.844823
 20
-3.702303
  0
VERTEX
  8
PLAN_1
  6
CONTINUOUS
 10
0.840925
 20
-3.697917
  0
VERTEX
  8
PLAN_1
  6
CONTINUOUS
 10
0.836543
 20
-3.694024
  0
VERTEX
  8
PLAN_1
  6
CONTINUOUS
 10
0.831673
 20
-3.690614
  0
VERTEX
  8
PLAN_1
  6
CONTINUOUS
 10
0.826315
 20
-3.688177
  0
VERTEX
  8
PLAN_1
  6
CONTINUOUS
 10
0.820472
 20
-3.685744
  0
VERTEX
  8
PLAN_1
  6
CONTINUOUS
 10
0.814626
 20
-3.684283
  0
VERTEX
  8
PLAN_1
  6
CONTINUOUS
 10
0.808295
 20
-3.683795
  0
VERTEX
  8
PLAN_1
  6
CONTINUOUS
 10
0.801476
 20
-3.683307
  0
VERTEX
  8
PLAN_1
  6
CONTINUOUS
 10
0.751315
 20
-3.683307
  0
VERTEX
  8
PLAN_1
  6
CONTINUOUS
 10
0.751315
 20
-3.836228
  0
SEQEND
  8
0
  0
POLYLINE
  8
PLAN_1
  6
CONTINUOUS
 66
     1
 40
0.003000
 41
0.003000
  0
VERTEX
  8
PLAN_1
  6
CONTINUOUS
 10
0.943197
 20
-3.746134
  0
VERTEX
  8
PLAN_1
  6
CONTINUOUS
 10
0.946122
 20
-3.743697
  0
VERTEX
  8
PLAN_1
  6
CONTINUOUS
 10
0.950016
 20
-3.741264
  0
VERTEX
  8
PLAN_1
  6
CONTINUOUS
 10
0.953913
 20
-3.739315
  0
VERTEX
  8
PLAN_1
  6
CONTINUOUS
 10
0.958295
 20
-3.737366
  0
VERTEX
  8
PLAN_1
  6
CONTINUOUS
 10
0.963165
 20
-3.735906
  0
VERTEX
  8
PLAN_1
  6
CONTINUOUS
 10
0.968524
 20
-3.734933
  0
VERTEX
  8
PLAN_1
  6
CONTINUOUS
 10
0.974366
 20
-3.733957
  0
VERTEX
  8
PLAN_1
  6
CONTINUOUS
 10
0.980697
 20
-3.733957
  0
VERTEX
  8
PLAN_1
  6
CONTINUOUS
 10
0.986543
 20
-3.733957
  0
VERTEX
  8
PLAN_1
  6
CONTINUOUS
 10
0.992386
 20
-3.734933
  0
VERTEX
  8
PLAN_1
  6
CONTINUOUS
 10
0.998232
 20
-3.735906
  0
VERTEX
  8
PLAN_1
  6
CONTINUOUS
 10
1.004075
 20
-3.737854
  0
VERTEX
  8
PLAN_1
  6
CONTINUOUS
 10
1.009433
 20
-3.740287
  0
VERTEX
  8
PLAN_1
  6
CONTINUOUS
 10
1.014787
 20
-3.742724
  0
VERTEX
  8
PLAN_1
  6
CONTINUOUS
 10
1.020146
 20
-3.746134
  0
VERTEX
  8
PLAN_1
  6
CONTINUOUS
 10
1.024528
 20
-3.750028
  0
VERTEX
  8
PLAN_1
  6
CONTINUOUS
 10
1.028913
 20
-3.753925
  0
VERTEX
  8
PLAN_1
  6
CONTINUOUS
 10
1.032807
 20
-3.758795
  0
VERTEX
  8
PLAN_1
  6
CONTINUOUS
 10
1.036217
 20
-3.763665
  0
VERTEX
  8
PLAN_1
  6
CONTINUOUS
 10
1.039138
 20
-3.769508
  0
VERTEX
  8
PLAN_1
  6
CONTINUOUS
 10
1.041575
 20
-3.775354
  0
VERTEX
  8
PLAN_1
  6
CONTINUOUS
 10
1.043524
 20
-3.782173
  0
VERTEX
  8
PLAN_1
  6
CONTINUOUS
 10
1.044496
 20
-3.788988
  0
VERTEX
  8
PLAN_1
  6
CONTINUOUS
 10
1.044984
 20
-3.796295
  0
VERTEX
  8
PLAN_1
  6
CONTINUOUS
 10
1.044984
 20
-3.800677
  0
VERTEX
  8
PLAN_1
  6
CONTINUOUS
 10
1.044496
 20
-3.805547
  0
VERTEX
  8
PLAN_1
  6
CONTINUOUS
 10
1.043524
 20
-3.810417
  0
VERTEX
  8
PLAN_1
  6
CONTINUOUS
 10
1.042547
 20
-3.816264
  0
VERTEX
  8
PLAN_1
  6
CONTINUOUS
 10
1.040602
 20
-3.821618
  0
VERTEX
  8
PLAN_1
  6
CONTINUOUS
 10
1.038654
 20
-3.827465
  0
VERTEX
  8
PLAN_1
  6
CONTINUOUS
 10
1.035732
 20
-3.833307
  0
VERTEX
  8
PLAN_1
  6
CONTINUOUS
 10
1.032323
 20
-3.838665
  0
VERTEX
  8
PLAN_1
  6
CONTINUOUS
 10
1.028425
 20
-3.844024
  0
VERTEX
  8
PLAN_1
  6
CONTINUOUS
 10
1.023555
 20
-3.848894
  0
VERTEX
  8
PLAN_1
  6
CONTINUOUS
 10
1.020634
 20
-3.850839
  0
VERTEX
  8
PLAN_1
  6
CONTINUOUS
 10
1.017713
 20
-3.853276
  0
VERTEX
  8
PLAN_1
  6
CONTINUOUS
 10
1.014303
 20
-3.855224
  0
VERTEX
  8
PLAN_1
  6
CONTINUOUS
 10
1.010894
 20
-3.857169
  0
VERTEX
  8
PLAN_1
  6
CONTINUOUS
 10
1.006996
 20
-3.858634
  0
VERTEX
  8
PLAN_1
  6
CONTINUOUS
 10
1.003102
 20
-3.860094
  0
VERTEX
  8
PLAN_1
  6
CONTINUOUS
 10
0.999205
 20
-3.861555
  0
VERTEX
  8
PLAN_1
  6
CONTINUOUS
 10
0.994823
 20
-3.862528
  0
VERTEX
  8
PLAN_1
  6
CONTINUOUS
 10
0.989953
 20
-3.863504
  0
VERTEX
  8
PLAN_1
  6
CONTINUOUS
 10
0.985083
 20
-3.864476
  0
VERTEX
  8
PLAN_1
  6
CONTINUOUS
 10
0.979724
 20
-3.864476
  0
VERTEX
  8
PLAN_1
  6
CONTINUOUS
 10
0.973882
 20
-3.864965
  0
VERTEX
  8
PLAN_1
  6
CONTINUOUS
 10
0.969012
 20
-3.864476
  0
VERTEX
  8
PLAN_1
  6
CONTINUOUS
 10
0.964142
 20
-3.864476
  0
VERTEX
  8
PLAN_1
  6
CONTINUOUS
 10
0.959272
 20
-3.863504
  0
VERTEX
  8
PLAN_1
  6
CONTINUOUS
 10
0.953913
 20
-3.862528
  0
VERTEX
  8
PLAN_1
  6
CONTINUOUS
 10
0.949043
 20
-3.861067
  0
VERTEX
  8
PLAN_1
  6
CONTINUOUS
 10
0.944173
 20
-3.859118
  0
VERTEX
  8
PLAN_1
  6
CONTINUOUS
 10
0.939303
 20
-3.857169
  0
VERTEX
  8
PLAN_1
  6
CONTINUOUS
 10
0.934917
 20
-3.854248
  0
VERTEX
  8
PLAN_1
  6
CONTINUOUS
 10
0.930535
 20
-3.850839
  0
VERTEX
  8
PLAN_1
  6
CONTINUOUS
 10
0.926154
 20
-3.846945
  0
VERTEX
  8
PLAN_1
  6
CONTINUOUS
 10
0.922744
 20
-3.842559
  0
VERTEX
  8
PLAN_1
  6
CONTINUOUS
 10
0.919335
 20
-3.837689
  0
VERTEX
  8
PLAN_1
  6
CONTINUOUS
 10
0.916413
 20
-3.831846
  0
VERTEX
  8
PLAN_1
  6
CONTINUOUS
 10
0.913976
 20
-3.825516
  0
VERTEX
  8
PLAN_1
  6
CONTINUOUS
 10
0.912516
 20
-3.818697
  0
VERTEX
  8
PLAN_1
  6
CONTINUOUS
 10
0.911055
 20
-3.810906
  0
VERTEX
  8
PLAN_1
  6
CONTINUOUS
 10
0.936382
 20
-3.810906
  0
VERTEX
  8
PLAN_1
  6
CONTINUOUS
 10
0.936866
 20
-3.815287
  0
VERTEX
  8
PLAN_1
  6
CONTINUOUS
 10
0.937843
 20
-3.818697
  0
VERTEX
  8
PLAN_1
  6
CONTINUOUS
 10
0.939303
 20
-3.822594
  0
VERTEX
  8
PLAN_1
  6
CONTINUOUS
 10
0.940764
 20
-3.825516
  0
VERTEX
  8
PLAN_1
  6
CONTINUOUS
 10
0.942713
 20
-3.828437
  0
VERTEX
  8
PLAN_1
  6
CONTINUOUS
 10
0.944657
 20
-3.831358
  0
VERTEX
  8
PLAN_1
  6
CONTINUOUS
 10
0.947094
 20
-3.833795
  0
VERTEX
  8
PLAN_1
  6
CONTINUOUS
 10
0.949531
 20
-3.835744
  0
VERTEX
  8
PLAN_1
  6
CONTINUOUS
 10
0.952453
 20
-3.837689
  0
VERTEX
  8
PLAN_1
  6
CONTINUOUS
 10
0.955862
 20
-3.839154
  0
VERTEX
  8
PLAN_1
  6
CONTINUOUS
 10
0.958783
 20
-3.840614
  0
VERTEX
  8
PLAN_1
  6
CONTINUOUS
 10
0.962193
 20
-3.841587
  0
VERTEX
  8
PLAN_1
  6
CONTINUOUS
 10
0.966087
 20
-3.842559
  0
VERTEX
  8
PLAN_1
  6
CONTINUOUS
 10
0.969496
 20
-3.843047
  0
VERTEX
  8
PLAN_1
  6
CONTINUOUS
 10
0.973882
 20
-3.843535
  0
VERTEX
  8
PLAN_1
  6
CONTINUOUS
 10
0.977776
 20
-3.843535
  0
VERTEX
  8
PLAN_1
  6
CONTINUOUS
 10
0.982157
 20
-3.843535
  0
VERTEX
  8
PLAN_1
  6
CONTINUOUS
 10
0.986543
 20
-3.842559
  0
VERTEX
  8
PLAN_1
  6
CONTINUOUS
 10
0.990925
 20
-3.841587
  0
VERTEX
  8
PLAN_1
  6
CONTINUOUS
 10
0.994823
 20
-3.840126
  0
VERTEX
  8
PLAN_1
  6
CONTINUOUS
 10
0.998232
 20
-3.838177
  0
VERTEX
  8
PLAN_1
  6
CONTINUOUS
 10
1.001642
 20
-3.835744
  0
VERTEX
  8
PLAN_1
  6
CONTINUOUS
 10
1.005047
 20
-3.833307
  0
VERTEX
  8
PLAN_1
  6
CONTINUOUS
 10
1.007484
 20
-3.830386
  0
VERTEX
  8
PLAN_1
  6
CONTINUOUS
 10
1.010406
 20
-3.827465
  0
VERTEX
  8
PLAN_1
  6
CONTINUOUS
 10
1.012354
 20
-3.824055
  0
VERTEX
  8
PLAN_1
  6
CONTINUOUS
 10
1.014303
 20
-3.820157
  0
VERTEX
  8
PLAN_1
  6
CONTINUOUS
 10
1.015764
 20
-3.816264
  0
VERTEX
  8
PLAN_1
  6
CONTINUOUS
 10
1.017224
 20
-3.812366
  0
VERTEX
  8
PLAN_1
  6
CONTINUOUS
 10
1.018197
 20
-3.807984
  0
VERTEX
  8
PLAN_1
  6
CONTINUOUS
 10
1.018685
 20
-3.803598
  0
VERTEX
  8
PLAN_1
  6
CONTINUOUS
 10
1.018685
 20
-3.799217
  0
VERTEX
  8
PLAN_1
  6
CONTINUOUS
 10
1.018685
 20
-3.793858
  0
VERTEX
  8
PLAN_1
  6
CONTINUOUS
 10
1.017713
 20
-3.788988
  0
VERTEX
  8
PLAN_1
  6
CONTINUOUS
 10
1.016736
 20
-3.784606
  0
VERTEX
  8
PLAN_1
  6
CONTINUOUS
 10
1.015276
 20
-3.780224
  0
VERTEX
  8
PLAN_1
  6
CONTINUOUS
 10
1.013815
 20
-3.776327
  0
VERTEX
  8
PLAN_1
  6
CONTINUOUS
 10
1.011382
 20
-3.772917
  0
VERTEX
  8
PLAN_1
  6
CONTINUOUS
 10
1.008945
 20
-3.769508
  0
VERTEX
  8
PLAN_1
  6
CONTINUOUS
 10
1.006024
 20
-3.766587
  0
VERTEX
  8
PLAN_1
  6
CONTINUOUS
 10
1.003102
 20
-3.764154
  0
VERTEX
  8
PLAN_1
  6
CONTINUOUS
 10
0.999693
 20
-3.762205
  0
VERTEX
  8
PLAN_1
  6
CONTINUOUS
 10
0.996283
 20
-3.760256
  0
VERTEX
  8
PLAN_1
  6
CONTINUOUS
 10
0.992386
 20
-3.758307
  0
VERTEX
  8
PLAN_1
  6
CONTINUOUS
 10
0.988492
 20
-3.757335
  0
VERTEX
  8
PLAN_1
  6
CONTINUOUS
 10
0.984106
 20
-3.756358
  0
VERTEX
  8
PLAN_1
  6
CONTINUOUS
 10
0.979724
 20
-3.755874
  0
VERTEX
  8
PLAN_1
  6
CONTINUOUS
 10
0.975343
 20
-3.755874
  0
VERTEX
  8
PLAN_1
  6
CONTINUOUS
 10
0.970472
 20
-3.755874
  0
VERTEX
  8
PLAN_1
  6
CONTINUOUS
 10
0.965114
 20
-3.756846
  0
VERTEX
  8
PLAN_1
  6
CONTINUOUS
 10
0.960244
 20
-3.758307
  0
VERTEX
  8
PLAN_1
  6
CONTINUOUS
 10
0.955374
 20
-3.760744
  0
VERTEX
  8
PLAN_1
  6
CONTINUOUS
 10
0.950992
 20
-3.763177
  0
VERTEX
  8
PLAN_1
  6
CONTINUOUS
 10
0.947094
 20
-3.766587
  0
VERTEX
  8
PLAN_1
  6
CONTINUOUS
 10
0.943197
 20
-3.769996
  0
VERTEX
  8
PLAN_1
  6
CONTINUOUS
 10
0.939303
 20
-3.774378
  0
VERTEX
  8
PLAN_1
  6
CONTINUOUS
 10
0.918362
 20
-3.773406
  0
VERTEX
  8
PLAN_1
  6
CONTINUOUS
 10
0.932972
 20
-3.668697
  0
VERTEX
  8
PLAN_1
  6
CONTINUOUS
 10
1.034268
 20
-3.668697
  0
VERTEX
  8
PLAN_1
  6
CONTINUOUS
 10
1.034268
 20
-3.692563
  0
VERTEX
  8
PLAN_1
  6
CONTINUOUS
 10
0.951476
 20
-3.692563
  0
VERTEX
  8
PLAN_1
  6
CONTINUOUS
 10
0.943197
 20
-3.746134
  0
SEQEND
  8
0
  0
POLYLINE
  8
PLAN_1
  6
CONTINUOUS
 66
     1
 40
0.003000
 41
0.003000
  0
VERTEX
  8
PLAN_1
  6
CONTINUOUS
 10
1.097583
 20
-3.746134
  0
VERTEX
  8
PLAN_1
  6
CONTINUOUS
 10
1.100504
 20
-3.743697
  0
VERTEX
  8
PLAN_1
  6
CONTINUOUS
 10
1.104398
 20
-3.741264
  0
VERTEX
  8
PLAN_1
  6
CONTINUOUS
 10
1.108295
 20
-3.739315
  0
VERTEX
  8
PLAN_1
  6
CONTINUOUS
 10
1.112677
 20
-3.737366
  0
VERTEX
  8
PLAN_1
  6
CONTINUOUS
 10
1.117547
 20
-3.735906
  0
VERTEX
  8
PLAN_1
  6
CONTINUOUS
 10
1.122906
 20
-3.734933
  0
VERTEX
  8
PLAN_1
  6
CONTINUOUS
 10
1.128748
 20
-3.733957
  0
VERTEX
  8
PLAN_1
  6
CONTINUOUS
 10
1.135083
 20
-3.733957
  0
VERTEX
  8
PLAN_1
  6
CONTINUOUS
 10
1.140925
 20
-3.733957
  0
VERTEX
  8
PLAN_1
  6
CONTINUOUS
 10
1.146768
 20
-3.734933
  0
VERTEX
  8
PLAN_1
  6
CONTINUOUS
 10
1.152614
 20
-3.735906
  0
VERTEX
  8
PLAN_1
  6
CONTINUOUS
 10
1.158457
 20
-3.737854
  0
VERTEX
  8
PLAN_1
  6
CONTINUOUS
 10
1.163815
 20
-3.740287
  0
VERTEX
  8
PLAN_1
  6
CONTINUOUS
 10
1.169173
 20
-3.742724
  0
VERTEX
  8
PLAN_1
  6
CONTINUOUS
 10
1.174528
 20
-3.746134
  0
VERTEX
  8
PLAN_1
  6
CONTINUOUS
 10
1.178913
 20
-3.750028
  0
VERTEX
  8
PLAN_1
  6
CONTINUOUS
 10
1.183295
 20
-3.753925
  0
VERTEX
  8
PLAN_1
  6
CONTINUOUS
 10
1.187193
 20
-3.758795
  0
VERTEX
  8
PLAN_1
  6
CONTINUOUS
 10
1.190598
 20
-3.763665
  0
VERTEX
  8
PLAN_1
  6
CONTINUOUS
 10
1.193524
 20
-3.769508
  0
VERTEX
  8
PLAN_1
  6
CONTINUOUS
 10
1.195957
 20
-3.775354
  0
VERTEX
  8
PLAN_1
  6
CONTINUOUS
 10
1.197906
 20
-3.782173
  0
VERTEX
  8
PLAN_1
  6
CONTINUOUS
 10
1.198878
 20
-3.788988
  0
VERTEX
  8
PLAN_1
  6
CONTINUOUS
 10
1.199366
 20
-3.796295
  0
VERTEX
  8
PLAN_1
  6
CONTINUOUS
 10
1.198878
 20
-3.800677
  0
VERTEX
  8
PLAN_1
  6
CONTINUOUS
 10
1.198878
 20
-3.805547
  0
VERTEX
  8
PLAN_1
  6
CONTINUOUS
 10
1.197906
 20
-3.810417
  0
VERTEX
  8
PLAN_1
  6
CONTINUOUS
 10
1.196933
 20
-3.816264
  0
VERTEX
  8
PLAN_1
  6
CONTINUOUS
 10
1.194984
 20
-3.821618
  0
VERTEX
  8
PLAN_1
  6
CONTINUOUS
 10
1.193035
 20
-3.827465
  0
VERTEX
  8
PLAN_1
  6
CONTINUOUS
 10
1.190114
 20
-3.833307
  0
VERTEX
  8
PLAN_1
  6
CONTINUOUS
 10
1.186705
 20
-3.838665
  0
VERTEX
  8
PLAN_1
  6
CONTINUOUS
 10
1.182807
 20
-3.844024
  0
VERTEX
  8
PLAN_1
  6
CONTINUOUS
 10
1.177453
 20
-3.848894
  0
VERTEX
  8
PLAN_1
  6
CONTINUOUS
 10
1.175016
 20
-3.850839
  0
VERTEX
  8
PLAN_1
  6
CONTINUOUS
 10
1.172094
 20
-3.853276
  0
VERTEX
  8
PLAN_1
  6
CONTINUOUS
 10
1.168685
 20
-3.855224
  0
VERTEX
  8
PLAN_1
  6
CONTINUOUS
 10
1.165276
 20
-3.857169
  0
VERTEX
  8
PLAN_1
  6
CONTINUOUS
 10
1.161378
 20
-3.858634
  0
VERTEX
  8
PLAN_1
  6
CONTINUOUS
 10
1.157484
 20
-3.860094
  0
VERTEX
  8
PLAN_1
  6
CONTINUOUS
 10
1.153587
 20
-3.861555
  0
VERTEX
  8
PLAN_1
  6
CONTINUOUS
 10
1.149205
 20
-3.862528
  0
VERTEX
  8
PLAN_1
  6
CONTINUOUS
 10
1.144335
 20
-3.863504
  0
VERTEX
  8
PLAN_1
  6
CONTINUOUS
 10
1.139465
 20
-3.864476
  0
VERTEX
  8
PLAN_1
  6
CONTINUOUS
 10
1.134106
 20
-3.864476
  0
VERTEX
  8
PLAN_1
  6
CONTINUOUS
 10
1.128264
 20
-3.864965
  0
VERTEX
  8
PLAN_1
  6
CONTINUOUS
 10
1.123394
 20
-3.864476
  0
VERTEX
  8
PLAN_1
  6
CONTINUOUS
 10
1.118524
 20
-3.864476
  0
VERTEX
  8
PLAN_1
  6
CONTINUOUS
 10
1.113654
 20
-3.863504
  0
VERTEX
  8
PLAN_1
  6
CONTINUOUS
 10
1.108295
 20
-3.862528
  0
VERTEX
  8
PLAN_1
  6
CONTINUOUS
 10
1.103425
 20
-3.861067
  0
VERTEX
  8
PLAN_1
  6
CONTINUOUS
 10
1.098555
 20
-3.859118
  0
VERTEX
  8
PLAN_1
  6
CONTINUOUS
 10
1.093685
 20
-3.857169
  0
VERTEX
  8
PLAN_1
  6
CONTINUOUS
 10
1.089303
 20
-3.854248
  0
VERTEX
  8
PLAN_1
  6
CONTINUOUS
 10
1.084917
 20
-3.850839
  0
VERTEX
  8
PLAN_1
  6
CONTINUOUS
 10
1.080535
 20
-3.846945
  0
VERTEX
  8
PLAN_1
  6
CONTINUOUS
 10
1.077126
 20
-3.842559
  0
VERTEX
  8
PLAN_1
  6
CONTINUOUS
 10
1.073717
 20
-3.837689
  0
VERTEX
  8
PLAN_1
  6
CONTINUOUS
 10
1.070795
 20
-3.831846
  0
VERTEX
  8
PLAN_1
  6
CONTINUOUS
 10
1.068362
 20
-3.825516
  0
VERTEX
  8
PLAN_1
  6
CONTINUOUS
 10
1.066898
 20
-3.818697
  0
VERTEX
  8
PLAN_1
  6
CONTINUOUS
 10
1.065437
 20
-3.810906
  0
VERTEX
  8
PLAN_1
  6
CONTINUOUS
 10
1.090764
 20
-3.810906
  0
VERTEX
  8
PLAN_1
  6
CONTINUOUS
 10
1.091248
 20
-3.815287
  0
VERTEX
  8
PLAN_1
  6
CONTINUOUS
 10
1.092224
 20
-3.818697
  0
VERTEX
  8
PLAN_1
  6
CONTINUOUS
 10
1.093685
 20
-3.822594
  0
VERTEX
  8
PLAN_1
  6
CONTINUOUS
 10
1.095146
 20
-3.825516
  0
VERTEX
  8
PLAN_1
  6
CONTINUOUS
 10
1.097094
 20
-3.828437
  0
VERTEX
  8
PLAN_1
  6
CONTINUOUS
 10
1.099043
 20
-3.831358
  0
VERTEX
  8
PLAN_1
  6
CONTINUOUS
 10
1.101476
 20
-3.833795
  0
VERTEX
  8
PLAN_1
  6
CONTINUOUS
 10
1.103913
 20
-3.835744
  0
VERTEX
  8
PLAN_1
  6
CONTINUOUS
 10
1.106835
 20
-3.837689
  0
VERTEX
  8
PLAN_1
  6
CONTINUOUS
 10
1.110244
 20
-3.839154
  0
VERTEX
  8
PLAN_1
  6
CONTINUOUS
 10
1.113165
 20
-3.840614
  0
VERTEX
  8
PLAN_1
  6
CONTINUOUS
 10
1.116575
 20
-3.841587
  0
VERTEX
  8
PLAN_1
  6
CONTINUOUS
 10
1.120472
 20
-3.842559
  0
VERTEX
  8
PLAN_1
  6
CONTINUOUS
 10
1.123878
 20
-3.843047
  0
VERTEX
  8
PLAN_1
  6
CONTINUOUS
 10
1.128264
 20
-3.843535
  0
VERTEX
  8
PLAN_1
  6
CONTINUOUS
 10
1.132157
 20
-3.843535
  0
VERTEX
  8
PLAN_1
  6
CONTINUOUS
 10
1.136543
 20
-3.843535
  0
VERTEX
  8
PLAN_1
  6
CONTINUOUS
 10
1.140925
 20
-3.842559
  0
VERTEX
  8
PLAN_1
  6
CONTINUOUS
 10
1.145307
 20
-3.841587
  0
VERTEX
  8
PLAN_1
  6
CONTINUOUS
 10
1.149205
 20
-3.840126
  0
VERTEX
  8
PLAN_1
  6
CONTINUOUS
 10
1.152614
 20
-3.838177
  0
VERTEX
  8
PLAN_1
  6
CONTINUOUS
 10
1.156024
 20
-3.835744
  0
VERTEX
  8
PLAN_1
  6
CONTINUOUS
 10
1.159433
 20
-3.833307
  0
VERTEX
  8
PLAN_1
  6
CONTINUOUS
 10
1.161866
 20
-3.830386
  0
VERTEX
  8
PLAN_1
  6
CONTINUOUS
 10
1.164787
 20
-3.827465
  0
VERTEX
  8
PLAN_1
  6
CONTINUOUS
 10
1.166736
 20
-3.824055
  0
VERTEX
  8
PLAN_1
  6
CONTINUOUS
 10
1.168685
 20
-3.820157
  0
VERTEX
  8
PLAN_1
  6
CONTINUOUS
 10
1.170146
 20
-3.816264
  0
VERTEX
  8
PLAN_1
  6
CONTINUOUS
 10
1.171606
 20
-3.812366
  0
VERTEX
  8
PLAN_1
  6
CONTINUOUS
 10
1.172583
 20
-3.807984
  0
VERTEX
  8
PLAN_1
  6
CONTINUOUS
 10
1.173067
 20
-3.803598
  0
VERTEX
  8
PLAN_1
  6
CONTINUOUS
 10
1.173067
 20
-3.799217
  0
VERTEX
  8
PLAN_1
  6
CONTINUOUS
 10
1.173067
 20
-3.793858
  0
VERTEX
  8
PLAN_1
  6
CONTINUOUS
 10
1.172094
 20
-3.788988
  0
VERTEX
  8
PLAN_1
  6
CONTINUOUS
 10
1.171118
 20
-3.784606
  0
VERTEX
  8
PLAN_1
  6
CONTINUOUS
 10
1.169657
 20
-3.780224
  0
VERTEX
  8
PLAN_1
  6
CONTINUOUS
 10
1.168197
 20
-3.776327
  0
VERTEX
  8
PLAN_1
  6
CONTINUOUS
 10
1.165764
 20
-3.772917
  0
VERTEX
  8
PLAN_1
  6
CONTINUOUS
 10
1.163327
 20
-3.769508
  0
VERTEX
  8
PLAN_1
  6
CONTINUOUS
 10
1.160406
 20
-3.766587
  0
VERTEX
  8
PLAN_1
  6
CONTINUOUS
 10
1.157484
 20
-3.764154
  0
VERTEX
  8
PLAN_1
  6
CONTINUOUS
 10
1.154075
 20
-3.762205
  0
VERTEX
  8
PLAN_1
  6
CONTINUOUS
 10
1.150665
 20
-3.760256
  0
VERTEX
  8
PLAN_1
  6
CONTINUOUS
 10
1.146768
 20
-3.758307
  0
VERTEX
  8
PLAN_1
  6
CONTINUOUS
 10
1.142874
 20
-3.757335
  0
VERTEX
  8
PLAN_1
  6
CONTINUOUS
 10
1.138488
 20
-3.756358
  0
VERTEX
  8
PLAN_1
  6
CONTINUOUS
 10
1.134106
 20
-3.755874
  0
VERTEX
  8
PLAN_1
  6
CONTINUOUS
 10
1.129724
 20
-3.755874
  0
VERTEX
  8
PLAN_1
  6
CONTINUOUS
 10
1.124854
 20
-3.755874
  0
VERTEX
  8
PLAN_1
  6
CONTINUOUS
 10
1.119496
 20
-3.756846
  0
VERTEX
  8
PLAN_1
  6
CONTINUOUS
 10
1.114626
 20
-3.758307
  0
VERTEX
  8
PLAN_1
  6
CONTINUOUS
 10
1.109756
 20
-3.760744
  0
VERTEX
  8
PLAN_1
  6
CONTINUOUS
 10
1.105374
 20
-3.763177
  0
VERTEX
  8
PLAN_1
  6
CONTINUOUS
 10
1.101476
 20
-3.766587
  0
VERTEX
  8
PLAN_1
  6
CONTINUOUS
 10
1.097583
 20
-3.769996
  0
VERTEX
  8
PLAN_1
  6
CONTINUOUS
 10
1.093685
 20
-3.774378
  0
VERTEX
  8
PLAN_1
  6
CONTINUOUS
 10
1.072744
 20
-3.773406
  0
VERTEX
  8
PLAN_1
  6
CONTINUOUS
 10
1.087354
 20
-3.668697
  0
VERTEX
  8
PLAN_1
  6
CONTINUOUS
 10
1.188654
 20
-3.668697
  0
VERTEX
  8
PLAN_1
  6
CONTINUOUS
 10
1.188654
 20
-3.692563
  0
VERTEX
  8
PLAN_1
  6
CONTINUOUS
 10
1.105858
 20
-3.692563
  0
VERTEX
  8
PLAN_1
  6
CONTINUOUS
 10
1.097583
 20
-3.746134
  0
SEQEND
  8
0
  0
SOLID
  8
PLAN_1
 10
1.211055
 20
-3.894185
 11
1.211055
 21
-3.880547
 12
1.365437
 22
-3.894185
 13
1.365437
 23
-3.880547
  0
POLYLINE
  8
PLAN_1
  6
CONTINUOUS
 66
     1
 40
0.003000
 41
0.003000
  0
VERTEX
  8
PLAN_1
  6
CONTINUOUS
 10
1.211055
 20
-3.894185
  0
VERTEX
  8
PLAN_1
  6
CONTINUOUS
 10
1.211055
 20
-3.880547
  0
VERTEX
  8
PLAN_1
  6
CONTINUOUS
 10
1.365437
 20
-3.880547
  0
VERTEX
  8
PLAN_1
  6
CONTINUOUS
 10
1.365437
 20
-3.894185
  0
VERTEX
  8
PLAN_1
  6
CONTINUOUS
 10
1.211055
 20
-3.894185
  0
SEQEND
  8
0
  0
POLYLINE
  8
PLAN_1
  6
CONTINUOUS
 66
     1
 40
0.003000
 41
0.003000
  0
VERTEX
  8
PLAN_1
  6
CONTINUOUS
 10
1.416087
 20
-3.859606
  0
VERTEX
  8
PLAN_1
  6
CONTINUOUS
 10
1.389299
 20
-3.859606
  0
VERTEX
  8
PLAN_1
  6
CONTINUOUS
 10
1.389299
 20
-3.660417
  0
VERTEX
  8
PLAN_1
  6
CONTINUOUS
 10
1.527126
 20
-3.660417
  0
VERTEX
  8
PLAN_1
  6
CONTINUOUS
 10
1.527126
 20
-3.684283
  0
VERTEX
  8
PLAN_1
  6
CONTINUOUS
 10
1.416087
 20
-3.684283
  0
VERTEX
  8
PLAN_1
  6
CONTINUOUS
 10
1.416087
 20
-3.745157
  0
VERTEX
  8
PLAN_1
  6
CONTINUOUS
 10
1.513976
 20
-3.745157
  0
VERTEX
  8
PLAN_1
  6
CONTINUOUS
 10
1.513976
 20
-3.769024
  0
VERTEX
  8
PLAN_1
  6
CONTINUOUS
 10
1.416087
 20
-3.769024
  0
VERTEX
  8
PLAN_1
  6
CONTINUOUS
 10
1.416087
 20
-3.859606
  0
SEQEND
  8
0
  0
SOLID
  8
PLAN_1
 10
1.546118
 20
-3.859606
 11
1.517386
 21
-3.859606
 12
1.546118
 22
-3.829898
 13
1.517386
 23
-3.829898
  0
POLYLINE
  8
PLAN_1
  6
CONTINUOUS
 66
     1
 40
0.003000
 41
0.003000
  0
VERTEX
  8
PLAN_1
  6
CONTINUOUS
 10
1.546118
 20
-3.859606
  0
VERTEX
  8
PLAN_1
  6
CONTINUOUS
 10
1.517386
 20
-3.859606
  0
VERTEX
  8
PLAN_1
  6
CONTINUOUS
 10
1.517386
 20
-3.829898
  0
VERTEX
  8
PLAN_1
  6
CONTINUOUS
 10
1.546118
 20
-3.829898
  0
VERTEX
  8
PLAN_1
  6
CONTINUOUS
 10
1.546118
 20
-3.859606
  0
SEQEND
  8
0
  0
POLYLINE
  8
PLAN_1
  6
CONTINUOUS
 66
     1
 40
0.003000
 41
0.003000
  0
VERTEX
  8
PLAN_1
  6
CONTINUOUS
 10
1.741409
 20
-3.859606
  0
VERTEX
  8
PLAN_1
  6
CONTINUOUS
 10
1.594335
 20
-3.859606
  0
VERTEX
  8
PLAN_1
  6
CONTINUOUS
 10
1.594335
 20
-3.660417
  0
VERTEX
  8
PLAN_1
  6
CONTINUOUS
 10
1.739461
 20
-3.660417
  0
VERTEX
  8
PLAN_1
  6
CONTINUOUS
 10
1.739461
 20
-3.684283
  0
VERTEX
  8
PLAN_1
  6
CONTINUOUS
 10
1.621118
 20
-3.684283
  0
VERTEX
  8
PLAN_1
  6
CONTINUOUS
 10
1.621118
 20
-3.745157
  0
VERTEX
  8
PLAN_1
  6
CONTINUOUS
 10
1.730209
 20
-3.745157
  0
VERTEX
  8
PLAN_1
  6
CONTINUOUS
 10
1.730209
 20
-3.769024
  0
VERTEX
  8
PLAN_1
  6
CONTINUOUS
 10
1.621118
 20
-3.769024
  0
VERTEX
  8
PLAN_1
  6
CONTINUOUS
 10
1.621118
 20
-3.835744
  0
VERTEX
  8
PLAN_1
  6
CONTINUOUS
 10
1.741409
 20
-3.835744
  0
VERTEX
  8
PLAN_1
  6
CONTINUOUS
 10
1.741409
 20
-3.859606
  0
SEQEND
  8
0
  0
POLYLINE
  8
PLAN_1
  6
CONTINUOUS
 66
     1
 40
0.003000
 41
0.003000
  0
VERTEX
  8
PLAN_1
  6
CONTINUOUS
 10
1.806669
 20
-3.859606
  0
VERTEX
  8
PLAN_1
  6
CONTINUOUS
 10
1.779398
 20
-3.859606
  0
VERTEX
  8
PLAN_1
  6
CONTINUOUS
 10
1.779398
 20
-3.660417
  0
VERTEX
  8
PLAN_1
  6
CONTINUOUS
 10
1.869008
 20
-3.660417
  0
VERTEX
  8
PLAN_1
  6
CONTINUOUS
 10
1.875827
 20
-3.660417
  0
VERTEX
  8
PLAN_1
  6
CONTINUOUS
 10
1.882157
 20
-3.661394
  0
VERTEX
  8
PLAN_1
  6
CONTINUOUS
 10
1.888488
 20
-3.662854
  0
VERTEX
  8
PLAN_1
  6
CONTINUOUS
 10
1.893846
 20
-3.664315
  0
VERTEX
  8
PLAN_1
  6
CONTINUOUS
 10
1.899201
 20
-3.666748
  0
VERTEX
  8
PLAN_1
  6
CONTINUOUS
 10
1.904071
 20
-3.669673
  0
VERTEX
  8
PLAN_1
  6
CONTINUOUS
 10
1.908457
 20
-3.672594
  0
VERTEX
  8
PLAN_1
  6
CONTINUOUS
 10
1.912839
 20
-3.676004
  0
VERTEX
  8
PLAN_1
  6
CONTINUOUS
 10
1.916248
 20
-3.679898
  0
VERTEX
  8
PLAN_1
  6
CONTINUOUS
 10
1.919169
 20
-3.684283
  0
VERTEX
  8
PLAN_1
  6
CONTINUOUS
 10
1.922091
 20
-3.689154
  0
VERTEX
  8
PLAN_1
  6
CONTINUOUS
 10
1.924528
 20
-3.694024
  0
VERTEX
  8
PLAN_1
  6
CONTINUOUS
 10
1.925988
 20
-3.699378
  0
VERTEX
  8
PLAN_1
  6
CONTINUOUS
 10
1.927449
 20
-3.704736
  0
VERTEX
  8
PLAN_1
  6
CONTINUOUS
 10
1.927937
 20
-3.710579
  0
VERTEX
  8
PLAN_1
  6
CONTINUOUS
 10
1.928421
 20
-3.716425
  0
VERTEX
  8
PLAN_1
  6
CONTINUOUS
 10
1.927937
 20
-3.721295
  0
VERTEX
  8
PLAN_1
  6
CONTINUOUS
 10
1.927449
 20
-3.726654
  0
VERTEX
  8
PLAN_1
  6
CONTINUOUS
 10
1.926476
 20
-3.732008
  0
VERTEX
  8
PLAN_1
  6
CONTINUOUS
 10
1.925012
 20
-3.737366
  0
VERTEX
  8
PLAN_1
  6
CONTINUOUS
 10
1.923551
 20
-3.742236
  0
VERTEX
  8
PLAN_1
  6
CONTINUOUS
 10
1.921118
 20
-3.747106
  0
VERTEX
  8
PLAN_1
  6
CONTINUOUS
 10
1.918197
 20
-3.751976
  0
VERTEX
  8
PLAN_1
  6
CONTINUOUS
 10
1.914787
 20
-3.756358
  0
VERTEX
  8
PLAN_1
  6
CONTINUOUS
 10
1.911378
 20
-3.760256
  0
VERTEX
  8
PLAN_1
  6
CONTINUOUS
 10
1.906996
 20
-3.764154
  0
VERTEX
  8
PLAN_1
  6
CONTINUOUS
 10
1.902126
 20
-3.767075
  0
VERTEX
  8
PLAN_1
  6
CONTINUOUS
 10
1.896768
 20
-3.769996
  0
VERTEX
  8
PLAN_1
  6
CONTINUOUS
 10
1.890921
 20
-3.772429
  0
VERTEX
  8
PLAN_1
  6
CONTINUOUS
 10
1.884106
 20
-3.773894
  0
VERTEX
  8
PLAN_1
  6
CONTINUOUS
 10
1.876799
 20
-3.774866
  0
VERTEX
  8
PLAN_1
  6
CONTINUOUS
 10
1.869008
 20
-3.775354
  0
VERTEX
  8
PLAN_1
  6
CONTINUOUS
 10
1.806669
 20
-3.775354
  0
VERTEX
  8
PLAN_1
  6
CONTINUOUS
 10
1.806669
 20
-3.859606
  0
SEQEND
  8
0
  0
POLYLINE
  8
PLAN_1
  6
CONTINUOUS
 66
     1
 40
0.003000
 41
0.003000
  0
VERTEX
  8
PLAN_1
  6
CONTINUOUS
 10
1.806669
 20
-3.752465
  0
VERTEX
  8
PLAN_1
  6
CONTINUOUS
 10
1.860240
 20
-3.752465
  0
VERTEX
  8
PLAN_1
  6
CONTINUOUS
 10
1.864626
 20
-3.752465
  0
VERTEX
  8
PLAN_1
  6
CONTINUOUS
 10
1.868520
 20
-3.751976
  0
VERTEX
  8
PLAN_1
  6
CONTINUOUS
 10
1.872902
 20
-3.751488
  0
VERTEX
  8
PLAN_1
  6
CONTINUOUS
 10
1.876799
 20
-3.750516
  0
VERTEX
  8
PLAN_1
  6
CONTINUOUS
 10
1.880209
 20
-3.749543
  0
VERTEX
  8
PLAN_1
  6
CONTINUOUS
 10
1.883618
 20
-3.748079
  0
VERTEX
  8
PLAN_1
  6
CONTINUOUS
 10
1.886539
 20
-3.746618
  0
VERTEX
  8
PLAN_1
  6
CONTINUOUS
 10
1.889461
 20
-3.744673
  0
VERTEX
  8
PLAN_1
  6
CONTINUOUS
 10
1.891898
 20
-3.742236
  0
VERTEX
  8
PLAN_1
  6
CONTINUOUS
 10
1.894331
 20
-3.739803
  0
VERTEX
  8
PLAN_1
  6
CONTINUOUS
 10
1.896280
 20
-3.736878
  0
VERTEX
  8
PLAN_1
  6
CONTINUOUS
 10
1.897740
 20
-3.733469
  0
VERTEX
  8
PLAN_1
  6
CONTINUOUS
 10
1.898717
 20
-3.730063
  0
VERTEX
  8
PLAN_1
  6
CONTINUOUS
 10
1.899689
 20
-3.725677
  0
VERTEX
  8
PLAN_1
  6
CONTINUOUS
 10
1.900177
 20
-3.721295
  0
VERTEX
  8
PLAN_1
  6
CONTINUOUS
 10
1.900661
 20
-3.716425
  0
VERTEX
  8
PLAN_1
  6
CONTINUOUS
 10
1.900177
 20
-3.712043
  0
VERTEX
  8
PLAN_1
  6
CONTINUOUS
 10
1.899689
 20
-3.707657
  0
VERTEX
  8
PLAN_1
  6
CONTINUOUS
 10
1.898717
 20
-3.704248
  0
VERTEX
  8
PLAN_1
  6
CONTINUOUS
 10
1.897740
 20
-3.700839
  0
VERTEX
  8
PLAN_1
  6
CONTINUOUS
 10
1.895791
 20
-3.697433
  0
VERTEX
  8
PLAN_1
  6
CONTINUOUS
 10
1.893846
 20
-3.694996
  0
VERTEX
  8
PLAN_1
  6
CONTINUOUS
 10
1.891898
 20
-3.692563
  0
VERTEX
  8
PLAN_1
  6
CONTINUOUS
 10
1.888976
 20
-3.690614
  0
VERTEX
  8
PLAN_1
  6
CONTINUOUS
 10
1.886539
 20
-3.688665
  0
VERTEX
  8
PLAN_1
  6
CONTINUOUS
 10
1.883618
 20
-3.687205
  0
VERTEX
  8
PLAN_1
  6
CONTINUOUS
 10
1.880209
 20
-3.685744
  0
VERTEX
  8
PLAN_1
  6
CONTINUOUS
 10
1.876799
 20
-3.684768
  0
VERTEX
  8
PLAN_1
  6
CONTINUOUS
 10
1.869008
 20
-3.683795
  0
VERTEX
  8
PLAN_1
  6
CONTINUOUS
 10
1.861217
 20
-3.683307
  0
VERTEX
  8
PLAN_1
  6
CONTINUOUS
 10
1.806669
 20
-3.683307
  0
VERTEX
  8
PLAN_1
  6
CONTINUOUS
 10
1.806669
 20
-3.752465
  0
SEQEND
  8
0
  0
POLYLINE
  8
PLAN_1
  6
CONTINUOUS
 66
     1
 40
0.003000
 41
0.003000
  0
VERTEX
  8
PLAN_1
  6
CONTINUOUS
 10
2.082319
 20
-3.718374
  0
VERTEX
  8
PLAN_1
  6
CONTINUOUS
 10
2.081831
 20
-3.713016
  0
VERTEX
  8
PLAN_1
  6
CONTINUOUS
 10
2.080370
 20
-3.708146
  0
VERTEX
  8
PLAN_1
  6
CONTINUOUS
 10
2.078909
 20
-3.703276
  0
VERTEX
  8
PLAN_1
  6
CONTINUOUS
 10
2.076961
 20
-3.699378
  0
VERTEX
  8
PLAN_1
  6
CONTINUOUS
 10
2.074528
 20
-3.695484
  0
VERTEX
  8
PLAN_1
  6
CONTINUOUS
 10
2.072091
 20
-3.692075
  0
VERTEX
  8
PLAN_1
  6
CONTINUOUS
 10
2.068681
 20
-3.689154
  0
VERTEX
  8
PLAN_1
  6
CONTINUOUS
 10
2.065272
 20
-3.686717
  0
VERTEX
  8
PLAN_1
  6
CONTINUOUS
 10
2.061862
 20
-3.684283
  0
VERTEX
  8
PLAN_1
  6
CONTINUOUS
 10
2.057969
 20
-3.682823
  0
VERTEX
  8
PLAN_1
  6
CONTINUOUS
 10
2.054071
 20
-3.681358
  0
VERTEX
  8
PLAN_1
  6
CONTINUOUS
 10
2.049689
 20
-3.679898
  0
VERTEX
  8
PLAN_1
  6
CONTINUOUS
 10
2.045791
 20
-3.678925
  0
VERTEX
  8
PLAN_1
  6
CONTINUOUS
 10
2.041409
 20
-3.678437
  0
VERTEX
  8
PLAN_1
  6
CONTINUOUS
 10
2.037028
 20
-3.677953
  0
VERTEX
  8
PLAN_1
  6
CONTINUOUS
 10
2.032642
 20
-3.677953
  0
VERTEX
  8
PLAN_1
  6
CONTINUOUS
 10
2.025827
 20
-3.678437
  0
VERTEX
  8
PLAN_1
  6
CONTINUOUS
 10
2.018520
 20
-3.679413
  0
VERTEX
  8
PLAN_1
  6
CONTINUOUS
 10
2.014622
 20
-3.679898
  0
VERTEX
  8
PLAN_1
  6
CONTINUOUS
 10
2.010728
 20
-3.680874
  0
VERTEX
  8
PLAN_1
  6
CONTINUOUS
 10
2.007319
 20
-3.682335
  0
VERTEX
  8
PLAN_1
  6
CONTINUOUS
 10
2.003909
 20
-3.684283
  0
VERTEX
  8
PLAN_1
  6
CONTINUOUS
 10
2.000500
 20
-3.686228
  0
VERTEX
  8
PLAN_1
  6
CONTINUOUS
 10
1.997091
 20
-3.688665
  0
VERTEX
  8
PLAN_1
  6
CONTINUOUS
 10
1.994657
 20
-3.691587
  0
VERTEX
  8
PLAN_1
  6
CONTINUOUS
 10
1.992220
 20
-3.694508
  0
VERTEX
  8
PLAN_1
  6
CONTINUOUS
 10
1.989787
 20
-3.698406
  0
VERTEX
  8
PLAN_1
  6
CONTINUOUS
 10
1.988327
 20
-3.702787
  0
VERTEX
  8
PLAN_1
  6
CONTINUOUS
 10
1.987350
 20
-3.707657
  0
VERTEX
  8
PLAN_1
  6
CONTINUOUS
 10
1.987350
 20
-3.713016
  0
VERTEX
  8
PLAN_1
  6
CONTINUOUS
 10
1.987350
 20
-3.715937
  0
VERTEX
  8
PLAN_1
  6
CONTINUOUS
 10
1.987839
 20
-3.718858
  0
VERTEX
  8
PLAN_1
  6
CONTINUOUS
 10
1.988327
 20
-3.721295
  0
VERTEX
  8
PLAN_1
  6
CONTINUOUS
 10
1.989299
 20
-3.723728
  0
VERTEX
  8
PLAN_1
  6
CONTINUOUS
 10
1.990272
 20
-3.725677
  0
VERTEX
  8
PLAN_1
  6
CONTINUOUS
 10
1.991732
 20
-3.727626
  0
VERTEX
  8
PLAN_1
  6
CONTINUOUS
 10
1.993197
 20
-3.729575
  0
VERTEX
  8
PLAN_1
  6
CONTINUOUS
 10
1.994657
 20
-3.731035
  0
VERTEX
  8
PLAN_1
  6
CONTINUOUS
 10
1.998067
 20
-3.733469
  0
VERTEX
  8
PLAN_1
  6
CONTINUOUS
 10
2.002449
 20
-3.735417
  0
VERTEX
  8
PLAN_1
  6
CONTINUOUS
 10
2.006343
 20
-3.736878
  0
VERTEX
  8
PLAN_1
  6
CONTINUOUS
 10
2.010728
 20
-3.738339
  0
VERTEX
  8
PLAN_1
  6
CONTINUOUS
 10
2.067709
 20
-3.751488
  0
VERTEX
  8
PLAN_1
  6
CONTINUOUS
 10
2.072579
 20
-3.752465
  0
VERTEX
  8
PLAN_1
  6
CONTINUOUS
 10
2.076961
 20
-3.753925
  0
VERTEX
  8
PLAN_1
  6
CONTINUOUS
 10
2.081343
 20
-3.755874
  0
VERTEX
  8
PLAN_1
  6
CONTINUOUS
 10
2.085728
 20
-3.757819
  0
VERTEX
  8
PLAN_1
  6
CONTINUOUS
 10
2.089622
 20
-3.759768
  0
VERTEX
  8
PLAN_1
  6
CONTINUOUS
 10
2.093520
 20
-3.762689
  0
VERTEX
  8
PLAN_1
  6
CONTINUOUS
 10
2.096929
 20
-3.765126
  0
VERTEX
  8
PLAN_1
  6
CONTINUOUS
 10
2.099850
 20
-3.768535
  0
VERTEX
  8
PLAN_1
  6
CONTINUOUS
 10
2.102772
 20
-3.771457
  0
VERTEX
  8
PLAN_1
  6
CONTINUOUS
 10
2.105693
 20
-3.775354
  0
VERTEX
  8
PLAN_1
  6
CONTINUOUS
 10
2.107642
 20
-3.779248
  0
VERTEX
  8
PLAN_1
  6
CONTINUOUS
 10
2.109591
 20
-3.783634
  0
VERTEX
  8
PLAN_1
  6
CONTINUOUS
 10
2.111051
 20
-3.788504
  0
VERTEX
  8
PLAN_1
  6
CONTINUOUS
 10
2.112028
 20
-3.793374
  0
VERTEX
  8
PLAN_1
  6
CONTINUOUS
 10
2.113000
 20
-3.798728
  0
VERTEX
  8
PLAN_1
  6
CONTINUOUS
 10
2.113000
 20
-3.804575
  0
VERTEX
  8
PLAN_1
  6
CONTINUOUS
 10
2.113000
 20
-3.808957
  0
VERTEX
  8
PLAN_1
  6
CONTINUOUS
 10
2.112512
 20
-3.812854
  0
VERTEX
  8
PLAN_1
  6
CONTINUOUS
 10
2.112028
 20
-3.816748
  0
VERTEX
  8
PLAN_1
  6
CONTINUOUS
 10
2.111051
 20
-3.820646
  0
VERTEX
  8
PLAN_1
  6
CONTINUOUS
 10
2.110079
 20
-3.824055
  0
VERTEX
  8
PLAN_1
  6
CONTINUOUS
 10
2.108618
 20
-3.827465
  0
VERTEX
  8
PLAN_1
  6
CONTINUOUS
 10
2.107157
 20
-3.830874
  0
VERTEX
  8
PLAN_1
  6
CONTINUOUS
 10
2.105693
 20
-3.833795
  0
VERTEX
  8
PLAN_1
  6
CONTINUOUS
 10
2.101799
 20
-3.839638
  0
VERTEX
  8
PLAN_1
  6
CONTINUOUS
 10
2.097417
 20
-3.844508
  0
VERTEX
  8
PLAN_1
  6
CONTINUOUS
 10
2.092059
 20
-3.848406
  0
VERTEX
  8
PLAN_1
  6
CONTINUOUS
 10
2.086701
 20
-3.852299
  0
VERTEX
  8
PLAN_1
  6
CONTINUOUS
 10
2.080858
 20
-3.855709
  0
VERTEX
  8
PLAN_1
  6
CONTINUOUS
 10
2.074528
 20
-3.858146
  0
VERTEX
  8
PLAN_1
  6
CONTINUOUS
 10
2.068197
 20
-3.860094
  0
VERTEX
  8
PLAN_1
  6
CONTINUOUS
 10
2.061378
 20
-3.862039
  0
VERTEX
  8
PLAN_1
  6
CONTINUOUS
 10
2.055047
 20
-3.863504
  0
VERTEX
  8
PLAN_1
  6
CONTINUOUS
 10
2.048228
 20
-3.863988
  0
VERTEX
  8
PLAN_1
  6
CONTINUOUS
 10
2.041409
 20
-3.864476
  0
VERTEX
  8
PLAN_1
  6
CONTINUOUS
 10
2.035079
 20
-3.864965
  0
VERTEX
  8
PLAN_1
  6
CONTINUOUS
 10
2.028260
 20
-3.864476
  0
VERTEX
  8
PLAN_1
  6
CONTINUOUS
 10
2.022417
 20
-3.864476
  0
VERTEX
  8
PLAN_1
  6
CONTINUOUS
 10
2.016571
 20
-3.863504
  0
VERTEX
  8
PLAN_1
  6
CONTINUOUS
 10
2.011217
 20
-3.863016
  0
VERTEX
  8
PLAN_1
  6
CONTINUOUS
 10
2.001961
 20
-3.861067
  0
VERTEX
  8
PLAN_1
  6
CONTINUOUS
 10
1.994169
 20
-3.858146
  0
VERTEX
  8
PLAN_1
  6
CONTINUOUS
 10
1.987839
 20
-3.855224
  0
VERTEX
  8
PLAN_1
  6
CONTINUOUS
 10
1.982969
 20
-3.851815
  0
VERTEX
  8
PLAN_1
  6
CONTINUOUS
 10
1.978587
 20
-3.848894
  0
VERTEX
  8
PLAN_1
  6
CONTINUOUS
 10
1.974689
 20
-3.845484
  0
VERTEX
  8
PLAN_1
  6
CONTINUOUS
 10
1.968846
 20
-3.839638
  0
VERTEX
  8
PLAN_1
  6
CONTINUOUS
 10
1.964461
 20
-3.833795
  0
VERTEX
  8
PLAN_1
  6
CONTINUOUS
 10
1.961051
 20
-3.827949
  0
VERTEX
  8
PLAN_1
  6
CONTINUOUS
 10
1.958130
 20
-3.821618
  0
VERTEX
  8
PLAN_1
  6
CONTINUOUS
 10
1.956669
 20
-3.815287
  0
VERTEX
  8
PLAN_1
  6
CONTINUOUS
 10
1.955209
 20
-3.808469
  0
VERTEX
  8
PLAN_1
  6
CONTINUOUS
 10
1.954720
 20
-3.802138
  0
VERTEX
  8
PLAN_1
  6
CONTINUOUS
 10
1.954720
 20
-3.795319
  0
VERTEX
  8
PLAN_1
  6
CONTINUOUS
 10
1.979559
 20
-3.795319
  0
VERTEX
  8
PLAN_1
  6
CONTINUOUS
 10
1.980047
 20
-3.801654
  0
VERTEX
  8
PLAN_1
  6
CONTINUOUS
 10
1.981020
 20
-3.807496
  0
VERTEX
  8
PLAN_1
  6
CONTINUOUS
 10
1.982480
 20
-3.812854
  0
VERTEX
  8
PLAN_1
  6
CONTINUOUS
 10
1.984917
 20
-3.817724
  0
VERTEX
  8
PLAN_1
  6
CONTINUOUS
 10
1.987350
 20
-3.822106
  0
VERTEX
  8
PLAN_1
  6
CONTINUOUS
 10
1.990272
 20
-3.825516
  0
VERTEX
  8
PLAN_1
  6
CONTINUOUS
 10
1.993681
 20
-3.828925
  0
VERTEX
  8
PLAN_1
  6
CONTINUOUS
 10
1.997579
 20
-3.831846
  0
VERTEX
  8
PLAN_1
  6
CONTINUOUS
 10
2.001961
 20
-3.834280
  0
VERTEX
  8
PLAN_1
  6
CONTINUOUS
 10
2.006343
 20
-3.836717
  0
VERTEX
  8
PLAN_1
  6
CONTINUOUS
 10
2.010728
 20
-3.838177
  0
VERTEX
  8
PLAN_1
  6
CONTINUOUS
 10
2.015598
 20
-3.839638
  0
VERTEX
  8
PLAN_1
  6
CONTINUOUS
 10
2.019980
 20
-3.840614
  0
VERTEX
  8
PLAN_1
  6
CONTINUOUS
 10
2.024850
 20
-3.841098
  0
VERTEX
  8
PLAN_1
  6
CONTINUOUS
 10
2.029720
 20
-3.841587
  0
VERTEX
  8
PLAN_1
  6
CONTINUOUS
 10
2.034591
 20
-3.841587
  0
VERTEX
  8
PLAN_1
  6
CONTINUOUS
 10
2.042382
 20
-3.841587
  0
VERTEX
  8
PLAN_1
  6
CONTINUOUS
 10
2.051150
 20
-3.840614
  0
VERTEX
  8
PLAN_1
  6
CONTINUOUS
 10
2.055531
 20
-3.839638
  0
VERTEX
  8
PLAN_1
  6
CONTINUOUS
 10
2.059917
 20
-3.838665
  0
VERTEX
  8
PLAN_1
  6
CONTINUOUS
 10
2.063811
 20
-3.837205
  0
VERTEX
  8
PLAN_1
  6
CONTINUOUS
 10
2.068197
 20
-3.835744
  0
VERTEX
  8
PLAN_1
  6
CONTINUOUS
 10
2.072091
 20
-3.833795
  0
VERTEX
  8
PLAN_1
  6
CONTINUOUS
 10
2.075500
 20
-3.831358
  0
VERTEX
  8
PLAN_1
  6
CONTINUOUS
 10
2.078909
 20
-3.828437
  0
VERTEX
  8
PLAN_1
  6
CONTINUOUS
 10
2.081343
 20
-3.825516
  0
VERTEX
  8
PLAN_1
  6
CONTINUOUS
 10
2.083780
 20
-3.821618
  0
VERTEX
  8
PLAN_1
  6
CONTINUOUS
 10
2.085240
 20
-3.817724
  0
VERTEX
  8
PLAN_1
  6
CONTINUOUS
 10
2.086701
 20
-3.813339
  0
VERTEX
  8
PLAN_1
  6
CONTINUOUS
 10
2.086701
 20
-3.807984
  0
VERTEX
  8
PLAN_1
  6
CONTINUOUS
 10
2.086701
 20
-3.804575
  0
VERTEX
  8
PLAN_1
  6
CONTINUOUS
 10
2.086213
 20
-3.801165
  0
VERTEX
  8
PLAN_1
  6
CONTINUOUS
 10
2.085728
 20
-3.797756
  0
VERTEX
  8
PLAN_1
  6
CONTINUOUS
 10
2.084752
 20
-3.794835
  0
VERTEX
  8
PLAN_1
  6
CONTINUOUS
 10
2.083780
 20
-3.792398
  0
VERTEX
  8
PLAN_1
  6
CONTINUOUS
 10
2.082319
 20
-3.789965
  0
VERTEX
  8
PLAN_1
  6
CONTINUOUS
 10
2.080370
 20
-3.787528
  0
VERTEX
  8
PLAN_1
  6
CONTINUOUS
 10
2.077937
 20
-3.785579
  0
VERTEX
  8
PLAN_1
  6
CONTINUOUS
 10
2.075500
 20
-3.783634
  0
VERTEX
  8
PLAN_1
  6
CONTINUOUS
 10
2.072091
 20
-3.782173
  0
VERTEX
  8
PLAN_1
  6
CONTINUOUS
 10
2.068681
 20
-3.780224
  0
VERTEX
  8
PLAN_1
  6
CONTINUOUS
 10
2.064787
 20
-3.778764
  0
VERTEX
  8
PLAN_1
  6
CONTINUOUS
 10
2.055531
 20
-3.775839
  0
VERTEX
  8
PLAN_1
  6
CONTINUOUS
 10
2.044331
 20
-3.772917
  0
VERTEX
  8
PLAN_1
  6
CONTINUOUS
 10
2.003421
 20
-3.763665
  0
VERTEX
  8
PLAN_1
  6
CONTINUOUS
 10
1.998067
 20
-3.762205
  0
VERTEX
  8
PLAN_1
  6
CONTINUOUS
 10
1.991732
 20
-3.759768
  0
VERTEX
  8
PLAN_1
  6
CONTINUOUS
 10
1.987839
 20
-3.758307
  0
VERTEX
  8
PLAN_1
  6
CONTINUOUS
 10
1.984429
 20
-3.756358
  0
VERTEX
  8
PLAN_1
  6
CONTINUOUS
 10
1.981020
 20
-3.754413
  0
VERTEX
  8
PLAN_1
  6
CONTINUOUS
 10
1.977610
 20
-3.751976
  0
VERTEX
  8
PLAN_1
  6
CONTINUOUS
 10
1.974201
 20
-3.749055
  0
VERTEX
  8
PLAN_1
  6
CONTINUOUS
 10
1.971280
 20
-3.745646
  0
VERTEX
  8
PLAN_1
  6
CONTINUOUS
 10
1.968358
 20
-3.742236
  0
VERTEX
  8
PLAN_1
  6
CONTINUOUS
 10
1.965921
 20
-3.737854
  0
VERTEX
  8
PLAN_1
  6
CONTINUOUS
 10
1.963976
 20
-3.733469
  0
VERTEX
  8
PLAN_1
  6
CONTINUOUS
 10
1.962512
 20
-3.728598
  0
VERTEX
  8
PLAN_1
  6
CONTINUOUS
 10
1.961539
 20
-3.722756
  0
VERTEX
  8
PLAN_1
  6
CONTINUOUS
 10
1.961051
 20
-3.716425
  0
VERTEX
  8
PLAN_1
  6
CONTINUOUS
 10
1.961539
 20
-3.710579
  0
VERTEX
  8
PLAN_1
  6
CONTINUOUS
 10
1.962028
 20
-3.705224
  0
VERTEX
  8
PLAN_1
  6
CONTINUOUS
 10
1.963488
 20
-3.699378
  0
VERTEX
  8
PLAN_1
  6
CONTINUOUS
 10
1.964949
 20
-3.694024
  0
VERTEX
  8
PLAN_1
  6
CONTINUOUS
 10
1.967382
 20
-3.688665
  0
VERTEX
  8
PLAN_1
  6
CONTINUOUS
 10
1.970307
 20
-3.683307
  0
VERTEX
  8
PLAN_1
  6
CONTINUOUS
 10
1.973228
 20
-3.678437
  0
VERTEX
  8
PLAN_1
  6
CONTINUOUS
 10
1.977122
 20
-3.674055
  0
VERTEX
  8
PLAN_1
  6
CONTINUOUS
 10
1.981992
 20
-3.670157
  0
VERTEX
  8
PLAN_1
  6
CONTINUOUS
 10
1.986862
 20
-3.666264
  0
VERTEX
  8
PLAN_1
  6
CONTINUOUS
 10
1.992220
 20
-3.662854
  0
VERTEX
  8
PLAN_1
  6
CONTINUOUS
 10
1.998551
 20
-3.660417
  0
VERTEX
  8
PLAN_1
  6
CONTINUOUS
 10
2.005370
 20
-3.657984
  0
VERTEX
  8
PLAN_1
  6
CONTINUOUS
 10
2.013161
 20
-3.656524
  0
VERTEX
  8
PLAN_1
  6
CONTINUOUS
 10
2.020957
 20
-3.655063
  0
VERTEX
  8
PLAN_1
  6
CONTINUOUS
 10
2.029720
 20
-3.655063
  0
VERTEX
  8
PLAN_1
  6
CONTINUOUS
 10
2.036051
 20
-3.655063
  0
VERTEX
  8
PLAN_1
  6
CONTINUOUS
 10
2.041898
 20
-3.655547
  0
VERTEX
  8
PLAN_1
  6
CONTINUOUS
 10
2.047740
 20
-3.656035
  0
VERTEX
  8
PLAN_1
  6
CONTINUOUS
 10
2.053098
 20
-3.657008
  0
VERTEX
  8
PLAN_1
  6
CONTINUOUS
 10
2.057969
 20
-3.657984
  0
VERTEX
  8
PLAN_1
  6
CONTINUOUS
 10
2.062839
 20
-3.658957
  0
VERTEX
  8
PLAN_1
  6
CONTINUOUS
 10
2.067220
 20
-3.660417
  0
VERTEX
  8
PLAN_1
  6
CONTINUOUS
 10
2.071118
 20
-3.661878
  0
VERTEX
  8
PLAN_1
  6
CONTINUOUS
 10
2.078421
 20
-3.665287
  0
VERTEX
  8
PLAN_1
  6
CONTINUOUS
 10
2.084752
 20
-3.669185
  0
VERTEX
  8
PLAN_1
  6
CONTINUOUS
 10
2.090110
 20
-3.673567
  0
VERTEX
  8
PLAN_1
  6
CONTINUOUS
 10
2.094492
 20
-3.678437
  0
VERTEX
  8
PLAN_1
  6
CONTINUOUS
 10
2.097902
 20
-3.683307
  0
VERTEX
  8
PLAN_1
  6
CONTINUOUS
 10
2.100823
 20
-3.688665
  0
VERTEX
  8
PLAN_1
  6
CONTINUOUS
 10
2.102772
 20
-3.694024
  0
VERTEX
  8
PLAN_1
  6
CONTINUOUS
 10
2.104720
 20
-3.699378
  0
VERTEX
  8
PLAN_1
  6
CONTINUOUS
 10
2.105693
 20
-3.704736
  0
VERTEX
  8
PLAN_1
  6
CONTINUOUS
 10
2.106669
 20
-3.709606
  0
VERTEX
  8
PLAN_1
  6
CONTINUOUS
 10
2.107157
 20
-3.713988
  0
VERTEX
  8
PLAN_1
  6
CONTINUOUS
 10
2.107642
 20
-3.718374
  0
VERTEX
  8
PLAN_1
  6
CONTINUOUS
 10
2.082319
 20
-3.718374
  0
SEQEND
  8
0
  0
POLYLINE
  8
PLAN_1
  6
CONTINUOUS
 66
     1
 40
0.006815
 41
0.006815
  0
VERTEX
  8
PLAN_1
  6
CONTINUOUS
 10
-1.691535
 20
1.302228
  0
VERTEX
  8
PLAN_1
  6
CONTINUOUS
 10
-1.755819
 20
1.302228
  0
VERTEX
  8
PLAN_1
  6
CONTINUOUS
 10
-1.755819
 20
1.333398
  0
VERTEX
  8
PLAN_1
  6
CONTINUOUS
 10
-1.853220
 20
1.333398
  0
VERTEX
  8
PLAN_1
  6
CONTINUOUS
 10
-1.853220
 20
1.273496
  0
VERTEX
  8
PLAN_1
  6
CONTINUOUS
 10
-1.591697
 20
1.273496
  0
VERTEX
  8
PLAN_1
  6
CONTINUOUS
 10
-1.591697
 20
1.333398
  0
VERTEX
  8
PLAN_1
  6
CONTINUOUS
 10
-1.691535
 20
1.333398
  0
VERTEX
  8
PLAN_1
  6
CONTINUOUS
 10
-1.691535
 20
1.302228
  0
SEQEND
  8
0
  0
POLYLINE
  8
PLAN_1
  6
CONTINUOUS
 66
     1
 40
0.006815
 41
0.006815
  0
VERTEX
  8
PLAN_1
  6
CONTINUOUS
 10
-0.767185
 20
1.273496
  0
VERTEX
  8
PLAN_1
  6
CONTINUOUS
 10
-0.767185
 20
1.333398
  0
VERTEX
  8
PLAN_1
  6
CONTINUOUS
 10
-0.851437
 20
1.333398
  0
SEQEND
  8
0
  0
POLYLINE
  8
PLAN_1
  6
CONTINUOUS
 66
     1
 40
0.004382
 41
0.004382
  0
VERTEX
  8
PLAN_1
  6
CONTINUOUS
 10
-2.122051
 20
-0.354098
  0
VERTEX
  8
PLAN_1
  6
CONTINUOUS
 10
-2.122051
 20
0.171874
  0
SEQEND
  8
0
  0
POLYLINE
  8
PLAN_1
  6
CONTINUOUS
 66
     1
 40
0.004382
 41
0.004382
  0
VERTEX
  8
PLAN_1
  6
CONTINUOUS
 10
-2.122051
 20
0.171874
  0
VERTEX
  8
PLAN_1
  6
CONTINUOUS
 10
-2.121563
 20
0.178693
  0
VERTEX
  8
PLAN_1
  6
CONTINUOUS
 10
-2.118642
 20
0.195740
  0
VERTEX
  8
PLAN_1
  6
CONTINUOUS
 10
-2.115720
 20
0.207425
  0
VERTEX
  8
PLAN_1
  6
CONTINUOUS
 10
-2.111339
 20
0.220091
  0
VERTEX
  8
PLAN_1
  6
CONTINUOUS
 10
-2.108902
 20
0.226906
  0
VERTEX
  8
PLAN_1
  6
CONTINUOUS
 10
-2.105492
 20
0.233724
  0
VERTEX
  8
PLAN_1
  6
CONTINUOUS
 10
-2.102083
 20
0.241031
  0
VERTEX
  8
PLAN_1
  6
CONTINUOUS
 10
-2.098189
 20
0.247850
  0
VERTEX
  8
PLAN_1
  6
CONTINUOUS
 10
-2.093319
 20
0.255154
  0
VERTEX
  8
PLAN_1
  6
CONTINUOUS
 10
-2.088449
 20
0.261972
  0
VERTEX
  8
PLAN_1
  6
CONTINUOUS
 10
-2.082602
 20
0.268791
  0
VERTEX
  8
PLAN_1
  6
CONTINUOUS
 10
-2.076272
 20
0.275610
  0
VERTEX
  8
PLAN_1
  6
CONTINUOUS
 10
-2.069453
 20
0.282425
  0
VERTEX
  8
PLAN_1
  6
CONTINUOUS
 10
-2.061661
 20
0.288756
  0
VERTEX
  8
PLAN_1
  6
CONTINUOUS
 10
-2.053382
 20
0.294602
  0
VERTEX
  8
PLAN_1
  6
CONTINUOUS
 10
-2.044618
 20
0.299961
  0
VERTEX
  8
PLAN_1
  6
CONTINUOUS
 10
-2.034390
 20
0.305315
  0
VERTEX
  8
PLAN_1
  6
CONTINUOUS
 10
-2.024161
 20
0.309701
  0
VERTEX
  8
PLAN_1
  6
CONTINUOUS
 10
-2.012472
 20
0.314083
  0
VERTEX
  8
PLAN_1
  6
CONTINUOUS
 10
-2.000299
 20
0.317492
  0
VERTEX
  8
PLAN_1
  6
CONTINUOUS
 10
-1.987150
 20
0.319925
  0
VERTEX
  8
PLAN_1
  6
CONTINUOUS
 10
-1.973028
 20
0.322362
  0
VERTEX
  8
PLAN_1
  6
CONTINUOUS
 10
-1.957929
 20
0.323335
  0
VERTEX
  8
PLAN_1
  6
CONTINUOUS
 10
-1.941858
 20
0.323823
  0
VERTEX
  8
PLAN_1
  6
CONTINUOUS
 10
-1.885850
 20
0.323823
  0
VERTEX
  8
PLAN_1
  6
CONTINUOUS
 10
-1.808906
 20
0.323823
  0
VERTEX
  8
PLAN_1
  6
CONTINUOUS
 10
-1.713937
 20
0.323823
  0
VERTEX
  8
PLAN_1
  6
CONTINUOUS
 10
-1.604846
 20
0.323823
  0
VERTEX
  8
PLAN_1
  6
CONTINUOUS
 10
-1.485039
 20
0.323823
  0
VERTEX
  8
PLAN_1
  6
CONTINUOUS
 10
-1.358417
 20
0.323823
  0
VERTEX
  8
PLAN_1
  6
CONTINUOUS
 10
-1.227898
 20
0.323823
  0
VERTEX
  8
PLAN_1
  6
CONTINUOUS
 10
-1.096894
 20
0.323823
  0
SEQEND
  8
0
  0
POLYLINE
  8
PLAN_1
  6
CONTINUOUS
 66
     1
 40
0.004382
 41
0.004382
  0
VERTEX
  8
PLAN_1
  6
CONTINUOUS
 10
-0.851437
 20
0.323823
  0
VERTEX
  8
PLAN_1
  6
CONTINUOUS
 10
-0.792512
 20
0.323823
  0
VERTEX
  8
PLAN_1
  6
CONTINUOUS
 10
-0.745756
 20
0.323823
  0
VERTEX
  8
PLAN_1
  6
CONTINUOUS
 10
-0.709720
 20
0.323823
  0
VERTEX
  8
PLAN_1
  6
CONTINUOUS
 10
-0.682933
 20
0.323823
  0
VERTEX
  8
PLAN_1
  6
CONTINUOUS
 10
-0.664425
 20
0.323823
  0
VERTEX
  8
PLAN_1
  6
CONTINUOUS
 10
-0.652740
 20
0.323823
  0
VERTEX
  8
PLAN_1
  6
CONTINUOUS
 10
-0.646406
 20
0.323823
  0
VERTEX
  8
PLAN_1
  6
CONTINUOUS
 10
-0.644945
 20
0.323823
  0
VERTEX
  8
PLAN_1
  6
CONTINUOUS
 10
-0.638126
 20
0.323823
  0
VERTEX
  8
PLAN_1
  6
CONTINUOUS
 10
-0.620110
 20
0.322362
  0
VERTEX
  8
PLAN_1
  6
CONTINUOUS
 10
-0.614264
 20
0.321386
  0
VERTEX
  8
PLAN_1
  6
CONTINUOUS
 10
-0.607933
 20
0.319925
  0
VERTEX
  8
PLAN_1
  6
CONTINUOUS
 10
-0.601602
 20
0.317980
  0
VERTEX
  8
PLAN_1
  6
CONTINUOUS
 10
-0.594783
 20
0.316031
  0
VERTEX
  8
PLAN_1
  6
CONTINUOUS
 10
-0.587480
 20
0.313594
  0
VERTEX
  8
PLAN_1
  6
CONTINUOUS
 10
-0.580173
 20
0.310673
  0
VERTEX
  8
PLAN_1
  6
CONTINUOUS
 10
-0.572870
 20
0.306776
  0
VERTEX
  8
PLAN_1
  6
CONTINUOUS
 10
-0.565563
 20
0.302882
  0
VERTEX
  8
PLAN_1
  6
CONTINUOUS
 10
-0.558260
 20
0.298012
  0
VERTEX
  8
PLAN_1
  6
CONTINUOUS
 10
-0.550953
 20
0.292654
  0
VERTEX
  8
PLAN_1
  6
CONTINUOUS
 10
-0.543650
 20
0.286811
  0
VERTEX
  8
PLAN_1
  6
CONTINUOUS
 10
-0.536343
 20
0.279992
  0
VERTEX
  8
PLAN_1
  6
CONTINUOUS
 10
-0.529524
 20
0.272201
  0
VERTEX
  8
PLAN_1
  6
CONTINUOUS
 10
-0.523193
 20
0.263921
  0
VERTEX
  8
PLAN_1
  6
CONTINUOUS
 10
-0.516862
 20
0.254665
  0
VERTEX
  8
PLAN_1
  6
CONTINUOUS
 10
-0.511020
 20
0.244441
  0
VERTEX
  8
PLAN_1
  6
CONTINUOUS
 10
-0.505661
 20
0.233240
  0
VERTEX
  8
PLAN_1
  6
CONTINUOUS
 10
-0.500791
 20
0.221063
  0
VERTEX
  8
PLAN_1
  6
CONTINUOUS
 10
-0.496894
 20
0.207913
  0
VERTEX
  8
PLAN_1
  6
CONTINUOUS
 10
-0.493000
 20
0.193791
  0
VERTEX
  8
PLAN_1
  6
CONTINUOUS
 10
-0.490075
 20
0.178205
  0
VERTEX
  8
PLAN_1
  6
CONTINUOUS
 10
-0.488130
 20
0.161650
  0
VERTEX
  8
PLAN_1
  6
CONTINUOUS
 10
-0.486669
 20
0.144114
  0
VERTEX
  8
PLAN_1
  6
CONTINUOUS
 10
-0.486181
 20
0.125122
  0
VERTEX
  8
PLAN_1
  6
CONTINUOUS
 10
-0.486181
 20
0.044280
  0
VERTEX
  8
PLAN_1
  6
CONTINUOUS
 10
-0.486181
 20
-0.039488
  0
VERTEX
  8
PLAN_1
  6
CONTINUOUS
 10
-0.486181
 20
-0.121791
  0
VERTEX
  8
PLAN_1
  6
CONTINUOUS
 10
-0.486181
 20
-0.198252
  0
VERTEX
  8
PLAN_1
  6
CONTINUOUS
 10
-0.486181
 20
-0.264972
  0
VERTEX
  8
PLAN_1
  6
CONTINUOUS
 10
-0.486181
 20
-0.317571
  0
VERTEX
  8
PLAN_1
  6
CONTINUOUS
 10
-0.486181
 20
-0.352150
  0
VERTEX
  8
PLAN_1
  6
CONTINUOUS
 10
-0.486181
 20
-0.364811
  0
SEQEND
  8
0
  0
POLYLINE
  8
PLAN_1
  6
CONTINUOUS
 66
     1
 40
0.003000
 41
0.003000
  0
VERTEX
  8
PLAN_1
  6
CONTINUOUS
 10
-1.919457
 20
0.064732
  0
VERTEX
  8
PLAN_1
  6
CONTINUOUS
 10
-1.913610
 20
0.064732
  0
VERTEX
  8
PLAN_1
  6
CONTINUOUS
 10
-1.907768
 20
0.065705
  0
VERTEX
  8
PLAN_1
  6
CONTINUOUS
 10
-1.901921
 20
0.067169
  0
VERTEX
  8
PLAN_1
  6
CONTINUOUS
 10
-1.896567
 20
0.069114
  0
VERTEX
  8
PLAN_1
  6
CONTINUOUS
 10
-1.891697
 20
0.071551
  0
VERTEX
  8
PLAN_1
  6
CONTINUOUS
 10
-1.886827
 20
0.074472
  0
VERTEX
  8
PLAN_1
  6
CONTINUOUS
 10
-1.881957
 20
0.077882
  0
VERTEX
  8
PLAN_1
  6
CONTINUOUS
 10
-1.878059
 20
0.081780
  0
VERTEX
  8
PLAN_1
  6
CONTINUOUS
 10
-1.874161
 20
0.086161
  0
VERTEX
  8
PLAN_1
  6
CONTINUOUS
 10
-1.870756
 20
0.090543
  0
VERTEX
  8
PLAN_1
  6
CONTINUOUS
 10
-1.867831
 20
0.095413
  0
VERTEX
  8
PLAN_1
  6
CONTINUOUS
 10
-1.865398
 20
0.100772
  0
VERTEX
  8
PLAN_1
  6
CONTINUOUS
 10
-1.863449
 20
0.106130
  0
VERTEX
  8
PLAN_1
  6
CONTINUOUS
 10
-1.861988
 20
0.111484
  0
VERTEX
  8
PLAN_1
  6
CONTINUOUS
 10
-1.861016
 20
0.117331
  0
VERTEX
  8
PLAN_1
  6
CONTINUOUS
 10
-1.860528
 20
0.123661
  0
VERTEX
  8
PLAN_1
  6
CONTINUOUS
 10
-1.861016
 20
0.129504
  0
VERTEX
  8
PLAN_1
  6
CONTINUOUS
 10
-1.861988
 20
0.135350
  0
VERTEX
  8
PLAN_1
  6
CONTINUOUS
 10
-1.863449
 20
0.141193
  0
VERTEX
  8
PLAN_1
  6
CONTINUOUS
 10
-1.865398
 20
0.146551
  0
VERTEX
  8
PLAN_1
  6
CONTINUOUS
 10
-1.867831
 20
0.151421
  0
VERTEX
  8
PLAN_1
  6
CONTINUOUS
 10
-1.870756
 20
0.156291
  0
VERTEX
  8
PLAN_1
  6
CONTINUOUS
 10
-1.874161
 20
0.161161
  0
VERTEX
  8
PLAN_1
  6
CONTINUOUS
 10
-1.878059
 20
0.165055
  0
VERTEX
  8
PLAN_1
  6
CONTINUOUS
 10
-1.881957
 20
0.168953
  0
VERTEX
  8
PLAN_1
  6
CONTINUOUS
 10
-1.886827
 20
0.172362
  0
VERTEX
  8
PLAN_1
  6
CONTINUOUS
 10
-1.891697
 20
0.175283
  0
VERTEX
  8
PLAN_1
  6
CONTINUOUS
 10
-1.896567
 20
0.177720
  0
VERTEX
  8
PLAN_1
  6
CONTINUOUS
 10
-1.901921
 20
0.179665
  0
VERTEX
  8
PLAN_1
  6
CONTINUOUS
 10
-1.907768
 20
0.181130
  0
VERTEX
  8
PLAN_1
  6
CONTINUOUS
 10
-1.913610
 20
0.182102
  0
VERTEX
  8
PLAN_1
  6
CONTINUOUS
 10
-1.919457
 20
0.182591
  0
VERTEX
  8
PLAN_1
  6
CONTINUOUS
 10
-1.925787
 20
0.182102
  0
VERTEX
  8
PLAN_1
  6
CONTINUOUS
 10
-1.931630
 20
0.181130
  0
VERTEX
  8
PLAN_1
  6
CONTINUOUS
 10
-1.936988
 20
0.179665
  0
VERTEX
  8
PLAN_1
  6
CONTINUOUS
 10
-1.942346
 20
0.177720
  0
VERTEX
  8
PLAN_1
  6
CONTINUOUS
 10
-1.947701
 20
0.175283
  0
VERTEX
  8
PLAN_1
  6
CONTINUOUS
 10
-1.952571
 20
0.172362
  0
VERTEX
  8
PLAN_1
  6
CONTINUOUS
 10
-1.956957
 20
0.168953
  0
VERTEX
  8
PLAN_1
  6
CONTINUOUS
 10
-1.961339
 20
0.165055
  0
VERTEX
  8
PLAN_1
  6
CONTINUOUS
 10
-1.965236
 20
0.161161
  0
VERTEX
  8
PLAN_1
  6
CONTINUOUS
 10
-1.968642
 20
0.156291
  0
VERTEX
  8
PLAN_1
  6
CONTINUOUS
 10
-1.971567
 20
0.151421
  0
VERTEX
  8
PLAN_1
  6
CONTINUOUS
 10
-1.974000
 20
0.146551
  0
VERTEX
  8
PLAN_1
  6
CONTINUOUS
 10
-1.975949
 20
0.141193
  0
VERTEX
  8
PLAN_1
  6
CONTINUOUS
 10
-1.977409
 20
0.135350
  0
VERTEX
  8
PLAN_1
  6
CONTINUOUS
 10
-1.978382
 20
0.129504
  0
VERTEX
  8
PLAN_1
  6
CONTINUOUS
 10
-1.978382
 20
0.123661
  0
VERTEX
  8
PLAN_1
  6
CONTINUOUS
 10
-1.978382
 20
0.117331
  0
VERTEX
  8
PLAN_1
  6
CONTINUOUS
 10
-1.977409
 20
0.111484
  0
VERTEX
  8
PLAN_1
  6
CONTINUOUS
 10
-1.975949
 20
0.106130
  0
VERTEX
  8
PLAN_1
  6
CONTINUOUS
 10
-1.974000
 20
0.100772
  0
VERTEX
  8
PLAN_1
  6
CONTINUOUS
 10
-1.971567
 20
0.095413
  0
VERTEX
  8
PLAN_1
  6
CONTINUOUS
 10
-1.968642
 20
0.090543
  0
VERTEX
  8
PLAN_1
  6
CONTINUOUS
 10
-1.965236
 20
0.086161
  0
VERTEX
  8
PLAN_1
  6
CONTINUOUS
 10
-1.961339
 20
0.081780
  0
VERTEX
  8
PLAN_1
  6
CONTINUOUS
 10
-1.956957
 20
0.077882
  0
VERTEX
  8
PLAN_1
  6
CONTINUOUS
 10
-1.952571
 20
0.074472
  0
VERTEX
  8
PLAN_1
  6
CONTINUOUS
 10
-1.947701
 20
0.071551
  0
VERTEX
  8
PLAN_1
  6
CONTINUOUS
 10
-1.942346
 20
0.069114
  0
VERTEX
  8
PLAN_1
  6
CONTINUOUS
 10
-1.936988
 20
0.067169
  0
VERTEX
  8
PLAN_1
  6
CONTINUOUS
 10
-1.931630
 20
0.065705
  0
VERTEX
  8
PLAN_1
  6
CONTINUOUS
 10
-1.925787
 20
0.064732
  0
VERTEX
  8
PLAN_1
  6
CONTINUOUS
 10
-1.919457
 20
0.064732
  0
SEQEND
  8
0
  0
POLYLINE
  8
PLAN_1
  6
CONTINUOUS
 66
     1
 40
0.004382
 41
0.004382
  0
VERTEX
  8
PLAN_1
  6
CONTINUOUS
 10
-1.920429
 20
0.254181
  0
VERTEX
  8
PLAN_1
  6
CONTINUOUS
 10
-1.920429
 20
-0.022929
  0
SEQEND
  8
0
  0
POLYLINE
  8
PLAN_1
  6
CONTINUOUS
 66
     1
 40
0.004382
 41
0.004382
  0
VERTEX
  8
PLAN_1
  6
CONTINUOUS
 10
-2.058252
 20
0.125122
  0
VERTEX
  8
PLAN_1
  6
CONTINUOUS
 10
-1.781146
 20
0.125122
  0
SEQEND
  8
0
  0
POLYLINE
  8
PLAN_1
  6
CONTINUOUS
 66
     1
 40
0.003000
 41
0.003000
  0
VERTEX
  8
PLAN_1
  6
CONTINUOUS
 10
-0.686831
 20
0.064732
  0
VERTEX
  8
PLAN_1
  6
CONTINUOUS
 10
-0.680984
 20
0.064732
  0
VERTEX
  8
PLAN_1
  6
CONTINUOUS
 10
-0.675142
 20
0.065705
  0
VERTEX
  8
PLAN_1
  6
CONTINUOUS
 10
-0.669295
 20
0.067169
  0
VERTEX
  8
PLAN_1
  6
CONTINUOUS
 10
-0.663941
 20
0.069114
  0
VERTEX
  8
PLAN_1
  6
CONTINUOUS
 10
-0.658583
 20
0.071551
  0
VERTEX
  8
PLAN_1
  6
CONTINUOUS
 10
-0.653713
 20
0.074472
  0
VERTEX
  8
PLAN_1
  6
CONTINUOUS
 10
-0.649331
 20
0.077882
  0
VERTEX
  8
PLAN_1
  6
CONTINUOUS
 10
-0.645433
 20
0.081780
  0
VERTEX
  8
PLAN_1
  6
CONTINUOUS
 10
-0.641535
 20
0.086161
  0
VERTEX
  8
PLAN_1
  6
CONTINUOUS
 10
-0.638126
 20
0.090543
  0
VERTEX
  8
PLAN_1
  6
CONTINUOUS
 10
-0.635205
 20
0.095413
  0
VERTEX
  8
PLAN_1
  6
CONTINUOUS
 10
-0.632772
 20
0.100772
  0
VERTEX
  8
PLAN_1
  6
CONTINUOUS
 10
-0.630823
 20
0.106130
  0
VERTEX
  8
PLAN_1
  6
CONTINUOUS
 10
-0.629362
 20
0.111484
  0
VERTEX
  8
PLAN_1
  6
CONTINUOUS
 10
-0.628386
 20
0.117331
  0
VERTEX
  8
PLAN_1
  6
CONTINUOUS
 10
-0.627902
 20
0.123661
  0
VERTEX
  8
PLAN_1
  6
CONTINUOUS
 10
-0.628386
 20
0.129504
  0
VERTEX
  8
PLAN_1
  6
CONTINUOUS
 10
-0.629362
 20
0.135350
  0
VERTEX
  8
PLAN_1
  6
CONTINUOUS
 10
-0.630823
 20
0.141193
  0
VERTEX
  8
PLAN_1
  6
CONTINUOUS
 10
-0.632772
 20
0.146551
  0
VERTEX
  8
PLAN_1
  6
CONTINUOUS
 10
-0.635205
 20
0.151421
  0
VERTEX
  8
PLAN_1
  6
CONTINUOUS
 10
-0.638126
 20
0.156291
  0
VERTEX
  8
PLAN_1
  6
CONTINUOUS
 10
-0.641535
 20
0.161161
  0
VERTEX
  8
PLAN_1
  6
CONTINUOUS
 10
-0.645433
 20
0.165055
  0
VERTEX
  8
PLAN_1
  6
CONTINUOUS
 10
-0.649331
 20
0.168953
  0
VERTEX
  8
PLAN_1
  6
CONTINUOUS
 10
-0.653713
 20
0.172362
  0
VERTEX
  8
PLAN_1
  6
CONTINUOUS
 10
-0.658583
 20
0.175283
  0
VERTEX
  8
PLAN_1
  6
CONTINUOUS
 10
-0.663941
 20
0.177720
  0
VERTEX
  8
PLAN_1
  6
CONTINUOUS
 10
-0.669295
 20
0.179665
  0
VERTEX
  8
PLAN_1
  6
CONTINUOUS
 10
-0.675142
 20
0.181130
  0
VERTEX
  8
PLAN_1
  6
CONTINUOUS
 10
-0.680984
 20
0.182102
  0
VERTEX
  8
PLAN_1
  6
CONTINUOUS
 10
-0.686831
 20
0.182591
  0
VERTEX
  8
PLAN_1
  6
CONTINUOUS
 10
-0.692673
 20
0.182102
  0
VERTEX
  8
PLAN_1
  6
CONTINUOUS
 10
-0.698516
 20
0.181130
  0
VERTEX
  8
PLAN_1
  6
CONTINUOUS
 10
-0.704362
 20
0.179665
  0
VERTEX
  8
PLAN_1
  6
CONTINUOUS
 10
-0.709720
 20
0.177720
  0
VERTEX
  8
PLAN_1
  6
CONTINUOUS
 10
-0.715075
 20
0.175283
  0
VERTEX
  8
PLAN_1
  6
CONTINUOUS
 10
-0.719945
 20
0.172362
  0
VERTEX
  8
PLAN_1
  6
CONTINUOUS
 10
-0.724331
 20
0.168953
  0
VERTEX
  8
PLAN_1
  6
CONTINUOUS
 10
-0.728713
 20
0.165055
  0
VERTEX
  8
PLAN_1
  6
CONTINUOUS
 10
-0.732122
 20
0.161161
  0
VERTEX
  8
PLAN_1
  6
CONTINUOUS
 10
-0.735531
 20
0.156291
  0
VERTEX
  8
PLAN_1
  6
CONTINUOUS
 10
-0.738453
 20
0.151421
  0
VERTEX
  8
PLAN_1
  6
CONTINUOUS
 10
-0.740886
 20
0.146551
  0
VERTEX
  8
PLAN_1
  6
CONTINUOUS
 10
-0.743323
 20
0.141193
  0
VERTEX
  8
PLAN_1
  6
CONTINUOUS
 10
-0.744783
 20
0.135350
  0
VERTEX
  8
PLAN_1
  6
CONTINUOUS
 10
-0.745272
 20
0.129504
  0
VERTEX
  8
PLAN_1
  6
CONTINUOUS
 10
-0.745756
 20
0.123661
  0
VERTEX
  8
PLAN_1
  6
CONTINUOUS
 10
-0.745272
 20
0.117331
  0
VERTEX
  8
PLAN_1
  6
CONTINUOUS
 10
-0.744783
 20
0.111484
  0
VERTEX
  8
PLAN_1
  6
CONTINUOUS
 10
-0.743323
 20
0.106130
  0
VERTEX
  8
PLAN_1
  6
CONTINUOUS
 10
-0.740886
 20
0.100772
  0
VERTEX
  8
PLAN_1
  6
CONTINUOUS
 10
-0.738453
 20
0.095413
  0
VERTEX
  8
PLAN_1
  6
CONTINUOUS
 10
-0.735531
 20
0.090543
  0
VERTEX
  8
PLAN_1
  6
CONTINUOUS
 10
-0.732122
 20
0.086161
  0
VERTEX
  8
PLAN_1
  6
CONTINUOUS
 10
-0.728713
 20
0.081780
  0
VERTEX
  8
PLAN_1
  6
CONTINUOUS
 10
-0.724331
 20
0.077882
  0
VERTEX
  8
PLAN_1
  6
CONTINUOUS
 10
-0.719945
 20
0.074472
  0
VERTEX
  8
PLAN_1
  6
CONTINUOUS
 10
-0.715075
 20
0.071551
  0
VERTEX
  8
PLAN_1
  6
CONTINUOUS
 10
-0.709720
 20
0.069114
  0
VERTEX
  8
PLAN_1
  6
CONTINUOUS
 10
-0.704362
 20
0.067169
  0
VERTEX
  8
PLAN_1
  6
CONTINUOUS
 10
-0.698516
 20
0.065705
  0
VERTEX
  8
PLAN_1
  6
CONTINUOUS
 10
-0.692673
 20
0.064732
  0
VERTEX
  8
PLAN_1
  6
CONTINUOUS
 10
-0.686831
 20
0.064732
  0
SEQEND
  8
0
  0
POLYLINE
  8
PLAN_1
  6
CONTINUOUS
 66
     1
 40
0.004382
 41
0.004382
  0
VERTEX
  8
PLAN_1
  6
CONTINUOUS
 10
-0.687803
 20
0.254181
  0
VERTEX
  8
PLAN_1
  6
CONTINUOUS
 10
-0.687803
 20
-0.022929
  0
SEQEND
  8
0
  0
POLYLINE
  8
PLAN_1
  6
CONTINUOUS
 66
     1
 40
0.004382
 41
0.004382
  0
VERTEX
  8
PLAN_1
  6
CONTINUOUS
 10
-0.825142
 20
0.125122
  0
VERTEX
  8
PLAN_1
  6
CONTINUOUS
 10
-0.548520
 20
0.125122
  0
SEQEND
  8
0
  0
POLYLINE
  8
PLAN_1
  6
CONTINUOUS
 66
     1
 40
0.005354
 41
0.005354
  0
VERTEX
  8
PLAN_1
  6
CONTINUOUS
 10
-1.434878
 20
-0.062378
  0
VERTEX
  8
PLAN_1
  6
CONTINUOUS
 10
-1.561988
 20
-0.084780
  0
VERTEX
  8
PLAN_1
  6
CONTINUOUS
 10
-1.569780
 20
-0.086240
  0
SEQEND
  8
0
  0
POLYLINE
  8
PLAN_1
  6
CONTINUOUS
 66
     1
 40
0.005354
 41
0.005354
  0
VERTEX
  8
PLAN_1
  6
CONTINUOUS
 10
-1.569780
 20
-0.086240
  0
VERTEX
  8
PLAN_1
  6
CONTINUOUS
 10
-1.574165
 20
-0.087217
  0
VERTEX
  8
PLAN_1
  6
CONTINUOUS
 10
-1.577575
 20
-0.089161
  0
VERTEX
  8
PLAN_1
  6
CONTINUOUS
 10
-1.580496
 20
-0.091598
  0
VERTEX
  8
PLAN_1
  6
CONTINUOUS
 10
-1.582929
 20
-0.094520
  0
VERTEX
  8
PLAN_1
  6
CONTINUOUS
 10
-1.584878
 20
-0.097929
  0
VERTEX
  8
PLAN_1
  6
CONTINUOUS
 10
-1.586339
 20
-0.101827
  0
VERTEX
  8
PLAN_1
  6
CONTINUOUS
 10
-1.586827
 20
-0.105720
  0
VERTEX
  8
PLAN_1
  6
CONTINUOUS
 10
-1.586339
 20
-0.110106
  0
VERTEX
  8
PLAN_1
  6
CONTINUOUS
 10
-1.585366
 20
-0.114000
  0
VERTEX
  8
PLAN_1
  6
CONTINUOUS
 10
-1.583417
 20
-0.117409
  0
VERTEX
  8
PLAN_1
  6
CONTINUOUS
 10
-1.580980
 20
-0.120819
  0
VERTEX
  8
PLAN_1
  6
CONTINUOUS
 10
-1.578059
 20
-0.123252
  0
VERTEX
  8
PLAN_1
  6
CONTINUOUS
 10
-1.574650
 20
-0.125201
  0
VERTEX
  8
PLAN_1
  6
CONTINUOUS
 10
-1.570756
 20
-0.126177
  0
VERTEX
  8
PLAN_1
  6
CONTINUOUS
 10
-1.566858
 20
-0.126661
  0
VERTEX
  8
PLAN_1
  6
CONTINUOUS
 10
-1.562965
 20
-0.126661
  0
SEQEND
  8
0
  0
POLYLINE
  8
PLAN_1
  6
CONTINUOUS
 66
     1
 40
0.005354
 41
0.005354
  0
VERTEX
  8
PLAN_1
  6
CONTINUOUS
 10
-1.562965
 20
-0.126661
  0
VERTEX
  8
PLAN_1
  6
CONTINUOUS
 10
-1.554685
 20
-0.125201
  0
VERTEX
  8
PLAN_1
  6
CONTINUOUS
 10
-1.200626
 20
-0.062378
  0
VERTEX
  8
PLAN_1
  6
CONTINUOUS
 10
-1.434878
 20
-0.062378
  0
SEQEND
  8
0
  0
POLYLINE
  8
PLAN_1
  6
CONTINUOUS
 66
     1
 40
0.005354
 41
0.005354
  0
VERTEX
  8
PLAN_1
  6
CONTINUOUS
 10
-1.061343
 20
-0.215787
  0
VERTEX
  8
PLAN_1
  6
CONTINUOUS
 10
-1.057445
 20
-0.214811
  0
VERTEX
  8
PLAN_1
  6
CONTINUOUS
 10
-1.054035
 20
-0.212862
  0
VERTEX
  8
PLAN_1
  6
CONTINUOUS
 10
-1.051114
 20
-0.210429
  0
VERTEX
  8
PLAN_1
  6
CONTINUOUS
 10
-1.048193
 20
-0.207508
  0
VERTEX
  8
PLAN_1
  6
CONTINUOUS
 10
-1.046244
 20
-0.204098
  0
VERTEX
  8
PLAN_1
  6
CONTINUOUS
 10
-1.045268
 20
-0.200201
  0
VERTEX
  8
PLAN_1
  6
CONTINUOUS
 10
-1.044783
 20
-0.196307
  0
VERTEX
  8
PLAN_1
  6
CONTINUOUS
 10
-1.044783
 20
-0.191921
  0
VERTEX
  8
PLAN_1
  6
CONTINUOUS
 10
-1.046244
 20
-0.188028
  0
VERTEX
  8
PLAN_1
  6
CONTINUOUS
 10
-1.047705
 20
-0.184618
  0
VERTEX
  8
PLAN_1
  6
CONTINUOUS
 10
-1.050138
 20
-0.181697
  0
VERTEX
  8
PLAN_1
  6
CONTINUOUS
 10
-1.053547
 20
-0.178772
  0
VERTEX
  8
PLAN_1
  6
CONTINUOUS
 10
-1.056957
 20
-0.176827
  0
VERTEX
  8
PLAN_1
  6
CONTINUOUS
 10
-1.060366
 20
-0.175850
  0
VERTEX
  8
PLAN_1
  6
CONTINUOUS
 10
-1.064264
 20
-0.175362
  0
VERTEX
  8
PLAN_1
  6
CONTINUOUS
 10
-1.068646
 20
-0.175362
  0
SEQEND
  8
0
  0
POLYLINE
  8
PLAN_1
  6
CONTINUOUS
 66
     1
 40
0.005354
 41
0.005354
  0
VERTEX
  8
PLAN_1
  6
CONTINUOUS
 10
-1.068646
 20
-0.175362
  0
VERTEX
  8
PLAN_1
  6
CONTINUOUS
 10
-1.081307
 20
-0.177799
  0
VERTEX
  8
PLAN_1
  6
CONTINUOUS
 10
-1.561500
 20
-0.262539
  0
VERTEX
  8
PLAN_1
  6
CONTINUOUS
 10
-1.569780
 20
-0.264000
  0
SEQEND
  8
0
  0
POLYLINE
  8
PLAN_1
  6
CONTINUOUS
 66
     1
 40
0.005354
 41
0.005354
  0
VERTEX
  8
PLAN_1
  6
CONTINUOUS
 10
-1.569780
 20
-0.264000
  0
VERTEX
  8
PLAN_1
  6
CONTINUOUS
 10
-1.573677
 20
-0.265461
  0
VERTEX
  8
PLAN_1
  6
CONTINUOUS
 10
-1.577087
 20
-0.266921
  0
VERTEX
  8
PLAN_1
  6
CONTINUOUS
 10
-1.580496
 20
-0.269358
  0
VERTEX
  8
PLAN_1
  6
CONTINUOUS
 10
-1.582929
 20
-0.272280
  0
VERTEX
  8
PLAN_1
  6
CONTINUOUS
 10
-1.584878
 20
-0.276177
  0
VERTEX
  8
PLAN_1
  6
CONTINUOUS
 10
-1.586339
 20
-0.279583
  0
VERTEX
  8
PLAN_1
  6
CONTINUOUS
 10
-1.586827
 20
-0.283480
  0
VERTEX
  8
PLAN_1
  6
CONTINUOUS
 10
-1.586339
 20
-0.287862
  0
VERTEX
  8
PLAN_1
  6
CONTINUOUS
 10
-1.585366
 20
-0.291760
  0
VERTEX
  8
PLAN_1
  6
CONTINUOUS
 10
-1.583417
 20
-0.295169
  0
VERTEX
  8
PLAN_1
  6
CONTINUOUS
 10
-1.580980
 20
-0.298579
  0
VERTEX
  8
PLAN_1
  6
CONTINUOUS
 10
-1.578059
 20
-0.301012
  0
VERTEX
  8
PLAN_1
  6
CONTINUOUS
 10
-1.574650
 20
-0.302961
  0
VERTEX
  8
PLAN_1
  6
CONTINUOUS
 10
-1.570756
 20
-0.303937
  0
VERTEX
  8
PLAN_1
  6
CONTINUOUS
 10
-1.566858
 20
-0.304421
  0
VERTEX
  8
PLAN_1
  6
CONTINUOUS
 10
-1.562476
 20
-0.304421
  0
SEQEND
  8
0
  0
POLYLINE
  8
PLAN_1
  6
CONTINUOUS
 66
     1
 40
0.005354
 41
0.005354
  0
VERTEX
  8
PLAN_1
  6
CONTINUOUS
 10
-1.562476
 20
-0.304421
  0
VERTEX
  8
PLAN_1
  6
CONTINUOUS
 10
-1.554685
 20
-0.302961
  0
VERTEX
  8
PLAN_1
  6
CONTINUOUS
 10
-1.074004
 20
-0.218220
  0
VERTEX
  8
PLAN_1
  6
CONTINUOUS
 10
-1.061343
 20
-0.215787
  0
SEQEND
  8
0
  0
POLYLINE
  8
PLAN_1
  6
CONTINUOUS
 66
     1
 40
0.005354
 41
0.005354
  0
VERTEX
  8
PLAN_1
  6
CONTINUOUS
 10
-1.056957
 20
-0.482181
  0
VERTEX
  8
PLAN_1
  6
CONTINUOUS
 10
-1.053063
 20
-0.481693
  0
VERTEX
  8
PLAN_1
  6
CONTINUOUS
 10
-1.049165
 20
-0.480720
  0
VERTEX
  8
PLAN_1
  6
CONTINUOUS
 10
-1.045756
 20
-0.478772
  0
VERTEX
  8
PLAN_1
  6
CONTINUOUS
 10
-1.042346
 20
-0.476339
  0
VERTEX
  8
PLAN_1
  6
CONTINUOUS
 10
-1.039913
 20
-0.472929
  0
VERTEX
  8
PLAN_1
  6
CONTINUOUS
 10
-1.037965
 20
-0.469520
  0
VERTEX
  8
PLAN_1
  6
CONTINUOUS
 10
-1.036992
 20
-0.465622
  0
VERTEX
  8
PLAN_1
  6
CONTINUOUS
 10
-1.036504
 20
-0.461728
  0
VERTEX
  8
PLAN_1
  6
CONTINUOUS
 10
-1.036992
 20
-0.457343
  0
VERTEX
  8
PLAN_1
  6
CONTINUOUS
 10
-1.037965
 20
-0.453933
  0
VERTEX
  8
PLAN_1
  6
CONTINUOUS
 10
-1.039913
 20
-0.450039
  0
VERTEX
  8
PLAN_1
  6
CONTINUOUS
 10
-1.042346
 20
-0.447118
  0
VERTEX
  8
PLAN_1
  6
CONTINUOUS
 10
-1.045756
 20
-0.444681
  0
VERTEX
  8
PLAN_1
  6
CONTINUOUS
 10
-1.049165
 20
-0.442732
  0
VERTEX
  8
PLAN_1
  6
CONTINUOUS
 10
-1.053063
 20
-0.441760
  0
VERTEX
  8
PLAN_1
  6
CONTINUOUS
 10
-1.056957
 20
-0.441272
  0
SEQEND
  8
0
  0
POLYLINE
  8
PLAN_1
  6
CONTINUOUS
 66
     1
 40
0.005354
 41
0.005354
  0
VERTEX
  8
PLAN_1
  6
CONTINUOUS
 10
-1.056957
 20
-0.441272
  0
VERTEX
  8
PLAN_1
  6
CONTINUOUS
 10
-1.069622
 20
-0.441272
  0
VERTEX
  8
PLAN_1
  6
CONTINUOUS
 10
-1.557606
 20
-0.441272
  0
VERTEX
  8
PLAN_1
  6
CONTINUOUS
 10
-1.565886
 20
-0.441272
  0
SEQEND
  8
0
  0
POLYLINE
  8
PLAN_1
  6
CONTINUOUS
 66
     1
 40
0.005354
 41
0.005354
  0
VERTEX
  8
PLAN_1
  6
CONTINUOUS
 10
-1.565886
 20
-0.441272
  0
VERTEX
  8
PLAN_1
  6
CONTINUOUS
 10
-1.569780
 20
-0.441760
  0
VERTEX
  8
PLAN_1
  6
CONTINUOUS
 10
-1.573677
 20
-0.443220
  0
VERTEX
  8
PLAN_1
  6
CONTINUOUS
 10
-1.577087
 20
-0.445169
  0
VERTEX
  8
PLAN_1
  6
CONTINUOUS
 10
-1.580496
 20
-0.447602
  0
VERTEX
  8
PLAN_1
  6
CONTINUOUS
 10
-1.582929
 20
-0.450528
  0
VERTEX
  8
PLAN_1
  6
CONTINUOUS
 10
-1.584878
 20
-0.453933
  0
VERTEX
  8
PLAN_1
  6
CONTINUOUS
 10
-1.585850
 20
-0.457831
  0
VERTEX
  8
PLAN_1
  6
CONTINUOUS
 10
-1.586339
 20
-0.461728
  0
VERTEX
  8
PLAN_1
  6
CONTINUOUS
 10
-1.585850
 20
-0.466110
  0
VERTEX
  8
PLAN_1
  6
CONTINUOUS
 10
-1.584878
 20
-0.470008
  0
VERTEX
  8
PLAN_1
  6
CONTINUOUS
 10
-1.582929
 20
-0.473413
  0
VERTEX
  8
PLAN_1
  6
CONTINUOUS
 10
-1.580496
 20
-0.476339
  0
VERTEX
  8
PLAN_1
  6
CONTINUOUS
 10
-1.577087
 20
-0.478772
  0
VERTEX
  8
PLAN_1
  6
CONTINUOUS
 10
-1.573677
 20
-0.480720
  0
VERTEX
  8
PLAN_1
  6
CONTINUOUS
 10
-1.569780
 20
-0.481693
  0
VERTEX
  8
PLAN_1
  6
CONTINUOUS
 10
-1.565886
 20
-0.482181
  0
SEQEND
  8
0
  0
POLYLINE
  8
PLAN_1
  6
CONTINUOUS
 66
     1
 40
0.005354
 41
0.005354
  0
VERTEX
  8
PLAN_1
  6
CONTINUOUS
 10
-1.565886
 20
-0.482181
  0
VERTEX
  8
PLAN_1
  6
CONTINUOUS
 10
-1.557606
 20
-0.482181
  0
VERTEX
  8
PLAN_1
  6
CONTINUOUS
 10
-1.069622
 20
-0.482181
  0
VERTEX
  8
PLAN_1
  6
CONTINUOUS
 10
-1.056957
 20
-0.482181
  0
SEQEND
  8
0
  0
POLYLINE
  8
PLAN_1
  6
CONTINUOUS
 66
     1
 40
0.008276
 41
0.008276
  0
VERTEX
  8
PLAN_1
  6
CONTINUOUS
 10
-0.850465
 20
2.875276
  0
VERTEX
  8
PLAN_1
  6
CONTINUOUS
 10
-0.850465
 20
3.643780
  0
VERTEX
  8
PLAN_1
  6
CONTINUOUS
 10
-1.095433
 20
3.643780
  0
VERTEX
  8
PLAN_1
  6
CONTINUOUS
 10
-1.095433
 20
2.735504
  0
SEQEND
  8
0
  0
POLYLINE
  8
PLAN_1
  6
CONTINUOUS
 66
     1
 40
0.008276
 41
0.008276
  0
VERTEX
  8
PLAN_1
  6
CONTINUOUS
 10
-1.095433
 20
2.532906
  0
VERTEX
  8
PLAN_1
  6
CONTINUOUS
 10
-1.095433
 20
1.225280
  0
SEQEND
  8
0
  0
POLYLINE
  8
PLAN_1
  6
CONTINUOUS
 66
     1
 40
0.008276
 41
0.008276
  0
VERTEX
  8
PLAN_1
  6
CONTINUOUS
 10
-1.095433
 20
0.586807
  0
VERTEX
  8
PLAN_1
  6
CONTINUOUS
 10
-1.095433
 20
-0.170008
  0
VERTEX
  8
PLAN_1
  6
CONTINUOUS
 10
-0.850465
 20
-0.170008
  0
VERTEX
  8
PLAN_1
  6
CONTINUOUS
 10
-0.850465
 20
0.658398
  0
SEQEND
  8
0
  0
POLYLINE
  8
PLAN_1
  6
CONTINUOUS
 66
     1
 40
0.008276
 41
0.008276
  0
VERTEX
  8
PLAN_1
  6
CONTINUOUS
 10
-0.850465
 20
1.172197
  0
VERTEX
  8
PLAN_1
  6
CONTINUOUS
 10
-0.850465
 20
2.672677
  0
SEQEND
  8
0
  0
POLYLINE
  8
PLAN_1
 62
     5
  6
CONTINUOUS
 66
     1
 40
0.003000
 41
0.003000
  0
VERTEX
  8
PLAN_1
 62
     5
  6
CONTINUOUS
 10
-1.252736
 20
2.644921
  0
VERTEX
  8
PLAN_1
 62
     5
  6
CONTINUOUS
 10
-1.245917
 20
2.649303
  0
SEQEND
  8
0
  0
POLYLINE
  8
PLAN_1
 62
     5
  6
CONTINUOUS
 66
     1
 40
0.003000
 41
0.003000
  0
VERTEX
  8
PLAN_1
 62
     5
  6
CONTINUOUS
 10
-1.238614
 20
2.653197
  0
VERTEX
  8
PLAN_1
 62
     5
  6
CONTINUOUS
 10
-1.231307
 20
2.657094
  0
SEQEND
  8
0
  0
POLYLINE
  8
PLAN_1
 62
     5
  6
CONTINUOUS
 66
     1
 40
0.003000
 41
0.003000
  0
VERTEX
  8
PLAN_1
 62
     5
  6
CONTINUOUS
 10
-1.224004
 20
2.661476
  0
VERTEX
  8
PLAN_1
 62
     5
  6
CONTINUOUS
 10
-1.216697
 20
2.665374
  0
SEQEND
  8
0
  0
POLYLINE
  8
PLAN_1
 62
     5
  6
CONTINUOUS
 66
     1
 40
0.003000
 41
0.003000
  0
VERTEX
  8
PLAN_1
 62
     5
  6
CONTINUOUS
 10
-1.209394
 20
2.669756
  0
VERTEX
  8
PLAN_1
 62
     5
  6
CONTINUOUS
 10
-1.202087
 20
2.673654
  0
SEQEND
  8
0
  0
POLYLINE
  8
PLAN_1
 62
     5
  6
CONTINUOUS
 66
     1
 40
0.003000
 41
0.003000
  0
VERTEX
  8
PLAN_1
 62
     5
  6
CONTINUOUS
 10
-1.194783
 20
2.678035
  0
VERTEX
  8
PLAN_1
 62
     5
  6
CONTINUOUS
 10
-1.187965
 20
2.681933
  0
SEQEND
  8
0
  0
POLYLINE
  8
PLAN_1
 62
     5
  6
CONTINUOUS
 66
     1
 40
0.003000
 41
0.003000
  0
VERTEX
  8
PLAN_1
 62
     5
  6
CONTINUOUS
 10
-1.180657
 20
2.685827
  0
VERTEX
  8
PLAN_1
 62
     5
  6
CONTINUOUS
 10
-1.173354
 20
2.690213
  0
SEQEND
  8
0
  0
POLYLINE
  8
PLAN_1
 62
     5
  6
CONTINUOUS
 66
     1
 40
0.003000
 41
0.003000
  0
VERTEX
  8
PLAN_1
 62
     5
  6
CONTINUOUS
 10
-1.166047
 20
2.694106
  0
VERTEX
  8
PLAN_1
 62
     5
  6
CONTINUOUS
 10
-1.158744
 20
2.698492
  0
SEQEND
  8
0
  0
POLYLINE
  8
PLAN_1
 62
     5
  6
CONTINUOUS
 66
     1
 40
0.003000
 41
0.003000
  0
VERTEX
  8
PLAN_1
 62
     5
  6
CONTINUOUS
 10
-1.151437
 20
2.702386
  0
VERTEX
  8
PLAN_1
 62
     5
  6
CONTINUOUS
 10
-1.144134
 20
2.706772
  0
SEQEND
  8
0
  0
POLYLINE
  8
PLAN_1
 62
     5
  6
CONTINUOUS
 66
     1
 40
0.003000
 41
0.003000
  0
VERTEX
  8
PLAN_1
 62
     5
  6
CONTINUOUS
 10
-1.136827
 20
2.710665
  0
VERTEX
  8
PLAN_1
 62
     5
  6
CONTINUOUS
 10
-1.130008
 20
2.714563
  0
SEQEND
  8
0
  0
POLYLINE
  8
PLAN_1
 62
     5
  6
CONTINUOUS
 66
     1
 40
0.003000
 41
0.003000
  0
VERTEX
  8
PLAN_1
 62
     5
  6
CONTINUOUS
 10
-1.122705
 20
2.718945
  0
VERTEX
  8
PLAN_1
 62
     5
  6
CONTINUOUS
 10
-1.115398
 20
2.722843
  0
SEQEND
  8
0
  0
POLYLINE
  8
PLAN_1
 62
     5
  6
CONTINUOUS
 66
     1
 40
0.003000
 41
0.003000
  0
VERTEX
  8
PLAN_1
 62
     5
  6
CONTINUOUS
 10
-1.108094
 20
2.727224
  0
VERTEX
  8
PLAN_1
 62
     5
  6
CONTINUOUS
 10
-1.100787
 20
2.731122
  0
SEQEND
  8
0
  0
POLYLINE
  8
PLAN_1
 62
     5
  6
CONTINUOUS
 66
     1
 40
0.003000
 41
0.003000
  0
VERTEX
  8
PLAN_1
 62
     5
  6
CONTINUOUS
 10
-1.093484
 20
2.735016
  0
VERTEX
  8
PLAN_1
 62
     5
  6
CONTINUOUS
 10
-1.086177
 20
2.739402
  0
SEQEND
  8
0
  0
POLYLINE
  8
PLAN_1
 62
     5
  6
CONTINUOUS
 66
     1
 40
0.003000
 41
0.003000
  0
VERTEX
  8
PLAN_1
 62
     5
  6
CONTINUOUS
 10
-1.078874
 20
2.743295
  0
VERTEX
  8
PLAN_1
 62
     5
  6
CONTINUOUS
 10
-1.072055
 20
2.747677
  0
SEQEND
  8
0
  0
POLYLINE
  8
PLAN_1
 62
     5
  6
CONTINUOUS
 66
     1
 40
0.003000
 41
0.003000
  0
VERTEX
  8
PLAN_1
 62
     5
  6
CONTINUOUS
 10
-1.064752
 20
2.751575
  0
VERTEX
  8
PLAN_1
 62
     5
  6
CONTINUOUS
 10
-1.057445
 20
2.755957
  0
SEQEND
  8
0
  0
POLYLINE
  8
PLAN_1
 62
     5
  6
CONTINUOUS
 66
     1
 40
0.003000
 41
0.003000
  0
VERTEX
  8
PLAN_1
 62
     5
  6
CONTINUOUS
 10
-1.050138
 20
2.759854
  0
VERTEX
  8
PLAN_1
 62
     5
  6
CONTINUOUS
 10
-1.042835
 20
2.763752
  0
SEQEND
  8
0
  0
POLYLINE
  8
PLAN_1
 62
     5
  6
CONTINUOUS
 66
     1
 40
0.003000
 41
0.003000
  0
VERTEX
  8
PLAN_1
 62
     5
  6
CONTINUOUS
 10
-1.035528
 20
2.768134
  0
VERTEX
  8
PLAN_1
 62
     5
  6
CONTINUOUS
 10
-1.028224
 20
2.772028
  0
SEQEND
  8
0
  0
POLYLINE
  8
PLAN_1
 62
     5
  6
CONTINUOUS
 66
     1
 40
0.003000
 41
0.003000
  0
VERTEX
  8
PLAN_1
 62
     5
  6
CONTINUOUS
 10
-1.020917
 20
2.776413
  0
VERTEX
  8
PLAN_1
 62
     5
  6
CONTINUOUS
 10
-1.013614
 20
2.780307
  0
SEQEND
  8
0
  0
POLYLINE
  8
PLAN_1
 62
     5
  6
CONTINUOUS
 66
     1
 40
0.003000
 41
0.003000
  0
VERTEX
  8
PLAN_1
 62
     5
  6
CONTINUOUS
 10
-1.006795
 20
2.784693
  0
VERTEX
  8
PLAN_1
 62
     5
  6
CONTINUOUS
 10
-0.999492
 20
2.788587
  0
SEQEND
  8
0
  0
POLYLINE
  8
PLAN_1
 62
     5
  6
CONTINUOUS
 66
     1
 40
0.003000
 41
0.003000
  0
VERTEX
  8
PLAN_1
 62
     5
  6
CONTINUOUS
 10
-0.992185
 20
2.792484
  0
VERTEX
  8
PLAN_1
 62
     5
  6
CONTINUOUS
 10
-0.984882
 20
2.796866
  0
SEQEND
  8
0
  0
POLYLINE
  8
PLAN_1
 62
     5
  6
CONTINUOUS
 66
     1
 40
0.003000
 41
0.003000
  0
VERTEX
  8
PLAN_1
 62
     5
  6
CONTINUOUS
 10
-0.977575
 20
2.800764
  0
VERTEX
  8
PLAN_1
 62
     5
  6
CONTINUOUS
 10
-0.970272
 20
2.805146
  0
SEQEND
  8
0
  0
POLYLINE
  8
PLAN_1
 62
     5
  6
CONTINUOUS
 66
     1
 40
0.003000
 41
0.003000
  0
VERTEX
  8
PLAN_1
 62
     5
  6
CONTINUOUS
 10
-0.962965
 20
2.809043
  0
VERTEX
  8
PLAN_1
 62
     5
  6
CONTINUOUS
 10
-0.955657
 20
2.812937
  0
SEQEND
  8
0
  0
POLYLINE
  8
PLAN_1
 62
     5
  6
CONTINUOUS
 66
     1
 40
0.003000
 41
0.003000
  0
VERTEX
  8
PLAN_1
 62
     5
  6
CONTINUOUS
 10
-0.948354
 20
2.817323
  0
VERTEX
  8
PLAN_1
 62
     5
  6
CONTINUOUS
 10
-0.941535
 20
2.821217
  0
SEQEND
  8
0
  0
POLYLINE
  8
PLAN_1
 62
     5
  6
CONTINUOUS
 66
     1
 40
0.003000
 41
0.003000
  0
VERTEX
  8
PLAN_1
 62
     5
  6
CONTINUOUS
 10
-0.934232
 20
2.825602
  0
VERTEX
  8
PLAN_1
 62
     5
  6
CONTINUOUS
 10
-0.926925
 20
2.829496
  0
SEQEND
  8
0
  0
POLYLINE
  8
PLAN_1
 62
     5
  6
CONTINUOUS
 66
     1
 40
0.003000
 41
0.003000
  0
VERTEX
  8
PLAN_1
 62
     5
  6
CONTINUOUS
 10
-0.919622
 20
2.833878
  0
VERTEX
  8
PLAN_1
 62
     5
  6
CONTINUOUS
 10
-0.912315
 20
2.837776
  0
SEQEND
  8
0
  0
POLYLINE
  8
PLAN_1
 62
     5
  6
CONTINUOUS
 66
     1
 40
0.003000
 41
0.003000
  0
VERTEX
  8
PLAN_1
 62
     5
  6
CONTINUOUS
 10
-0.905012
 20
2.841673
  0
VERTEX
  8
PLAN_1
 62
     5
  6
CONTINUOUS
 10
-0.897705
 20
2.846055
  0
SEQEND
  8
0
  0
POLYLINE
  8
PLAN_1
 62
     5
  6
CONTINUOUS
 66
     1
 40
0.003000
 41
0.003000
  0
VERTEX
  8
PLAN_1
 62
     5
  6
CONTINUOUS
 10
-0.890402
 20
2.849953
  0
VERTEX
  8
PLAN_1
 62
     5
  6
CONTINUOUS
 10
-0.883583
 20
2.854335
  0
SEQEND
  8
0
  0
POLYLINE
  8
PLAN_1
 62
     5
  6
CONTINUOUS
 66
     1
 40
0.003000
 41
0.003000
  0
VERTEX
  8
PLAN_1
 62
     5
  6
CONTINUOUS
 10
-0.876276
 20
2.858232
  0
VERTEX
  8
PLAN_1
 62
     5
  6
CONTINUOUS
 10
-0.868972
 20
2.862614
  0
SEQEND
  8
0
  0
POLYLINE
  8
PLAN_1
 62
     5
  6
CONTINUOUS
 66
     1
 40
0.003000
 41
0.003000
  0
VERTEX
  8
PLAN_1
 62
     5
  6
CONTINUOUS
 10
-0.861665
 20
2.866508
  0
VERTEX
  8
PLAN_1
 62
     5
  6
CONTINUOUS
 10
-0.854362
 20
2.870406
  0
SEQEND
  8
0
  0
POLYLINE
  8
PLAN_1
 62
     5
  6
CONTINUOUS
 66
     1
 40
0.003000
 41
0.003000
  0
VERTEX
  8
PLAN_1
 62
     5
  6
CONTINUOUS
 10
-0.847055
 20
2.874787
  0
VERTEX
  8
PLAN_1
 62
     5
  6
CONTINUOUS
 10
-0.839752
 20
2.878685
  0
SEQEND
  8
0
  0
POLYLINE
  8
PLAN_1
 62
     5
  6
CONTINUOUS
 66
     1
 40
0.003000
 41
0.003000
  0
VERTEX
  8
PLAN_1
 62
     5
  6
CONTINUOUS
 10
-0.832445
 20
2.883067
  0
VERTEX
  8
PLAN_1
 62
     5
  6
CONTINUOUS
 10
-0.825142
 20
2.886965
  0
SEQEND
  8
0
  0
POLYLINE
  8
PLAN_1
 62
     5
  6
CONTINUOUS
 66
     1
 40
0.003000
 41
0.003000
  0
VERTEX
  8
PLAN_1
 62
     5
  6
CONTINUOUS
 10
-0.818323
 20
2.891346
  0
VERTEX
  8
PLAN_1
 62
     5
  6
CONTINUOUS
 10
-0.811016
 20
2.895244
  0
SEQEND
  8
0
  0
POLYLINE
  8
PLAN_1
 62
     5
  6
CONTINUOUS
 66
     1
 40
0.003000
 41
0.003000
  0
VERTEX
  8
PLAN_1
 62
     5
  6
CONTINUOUS
 10
-0.803713
 20
2.899138
  0
VERTEX
  8
PLAN_1
 62
     5
  6
CONTINUOUS
 10
-0.796406
 20
2.903524
  0
SEQEND
  8
0
  0
POLYLINE
  8
PLAN_1
 62
     5
  6
CONTINUOUS
 66
     1
 40
0.003000
 41
0.003000
  0
VERTEX
  8
PLAN_1
 62
     5
  6
CONTINUOUS
 10
-0.789102
 20
2.907417
  0
VERTEX
  8
PLAN_1
 62
     5
  6
CONTINUOUS
 10
-0.781795
 20
2.911803
  0
SEQEND
  8
0
  0
POLYLINE
  8
PLAN_1
 62
     5
  6
CONTINUOUS
 66
     1
 40
0.003000
 41
0.003000
  0
VERTEX
  8
PLAN_1
 62
     5
  6
CONTINUOUS
 10
-0.774492
 20
2.915697
  0
VERTEX
  8
PLAN_1
 62
     5
  6
CONTINUOUS
 10
-0.767185
 20
2.919594
  0
SEQEND
  8
0
  0
POLYLINE
  8
PLAN_1
 62
     5
  6
CONTINUOUS
 66
     1
 40
0.003000
 41
0.003000
  0
VERTEX
  8
PLAN_1
 62
     5
  6
CONTINUOUS
 10
-0.759882
 20
2.923976
  0
VERTEX
  8
PLAN_1
 62
     5
  6
CONTINUOUS
 10
-0.753063
 20
2.927874
  0
SEQEND
  8
0
  0
POLYLINE
  8
PLAN_1
 62
     5
  6
CONTINUOUS
 66
     1
 40
0.003000
 41
0.003000
  0
VERTEX
  8
PLAN_1
 62
     5
  6
CONTINUOUS
 10
-0.745756
 20
2.932256
  0
VERTEX
  8
PLAN_1
 62
     5
  6
CONTINUOUS
 10
-0.738453
 20
2.936154
  0
SEQEND
  8
0
  0
POLYLINE
  8
PLAN_1
 62
     5
  6
CONTINUOUS
 66
     1
 40
0.003000
 41
0.003000
  0
VERTEX
  8
PLAN_1
 62
     5
  6
CONTINUOUS
 10
-1.252736
 20
2.440862
  0
VERTEX
  8
PLAN_1
 62
     5
  6
CONTINUOUS
 10
-1.245917
 20
2.444756
  0
SEQEND
  8
0
  0
POLYLINE
  8
PLAN_1
 62
     5
  6
CONTINUOUS
 66
     1
 40
0.003000
 41
0.003000
  0
VERTEX
  8
PLAN_1
 62
     5
  6
CONTINUOUS
 10
-1.238614
 20
2.449142
  0
VERTEX
  8
PLAN_1
 62
     5
  6
CONTINUOUS
 10
-1.231307
 20
2.453035
  0
SEQEND
  8
0
  0
POLYLINE
  8
PLAN_1
 62
     5
  6
CONTINUOUS
 66
     1
 40
0.003000
 41
0.003000
  0
VERTEX
  8
PLAN_1
 62
     5
  6
CONTINUOUS
 10
-1.224004
 20
2.457421
  0
VERTEX
  8
PLAN_1
 62
     5
  6
CONTINUOUS
 10
-1.216697
 20
2.461315
  0
SEQEND
  8
0
  0
POLYLINE
  8
PLAN_1
 62
     5
  6
CONTINUOUS
 66
     1
 40
0.003000
 41
0.003000
  0
VERTEX
  8
PLAN_1
 62
     5
  6
CONTINUOUS
 10
-1.209394
 20
2.465701
  0
VERTEX
  8
PLAN_1
 62
     5
  6
CONTINUOUS
 10
-1.202087
 20
2.469594
  0
SEQEND
  8
0
  0
POLYLINE
  8
PLAN_1
 62
     5
  6
CONTINUOUS
 66
     1
 40
0.003000
 41
0.003000
  0
VERTEX
  8
PLAN_1
 62
     5
  6
CONTINUOUS
 10
-1.194783
 20
2.473492
  0
VERTEX
  8
PLAN_1
 62
     5
  6
CONTINUOUS
 10
-1.187965
 20
2.477874
  0
SEQEND
  8
0
  0
POLYLINE
  8
PLAN_1
 62
     5
  6
CONTINUOUS
 66
     1
 40
0.003000
 41
0.003000
  0
VERTEX
  8
PLAN_1
 62
     5
  6
CONTINUOUS
 10
-1.180657
 20
2.481772
  0
VERTEX
  8
PLAN_1
 62
     5
  6
CONTINUOUS
 10
-1.173354
 20
2.486154
  0
SEQEND
  8
0
  0
POLYLINE
  8
PLAN_1
 62
     5
  6
CONTINUOUS
 66
     1
 40
0.003000
 41
0.003000
  0
VERTEX
  8
PLAN_1
 62
     5
  6
CONTINUOUS
 10
-1.166047
 20
2.490051
  0
VERTEX
  8
PLAN_1
 62
     5
  6
CONTINUOUS
 10
-1.158744
 20
2.493945
  0
SEQEND
  8
0
  0
POLYLINE
  8
PLAN_1
 62
     5
  6
CONTINUOUS
 66
     1
 40
0.003000
 41
0.003000
  0
VERTEX
  8
PLAN_1
 62
     5
  6
CONTINUOUS
 10
-1.151437
 20
2.498331
  0
VERTEX
  8
PLAN_1
 62
     5
  6
CONTINUOUS
 10
-1.144134
 20
2.502224
  0
SEQEND
  8
0
  0
POLYLINE
  8
PLAN_1
 62
     5
  6
CONTINUOUS
 66
     1
 40
0.003000
 41
0.003000
  0
VERTEX
  8
PLAN_1
 62
     5
  6
CONTINUOUS
 10
-1.136827
 20
2.506606
  0
VERTEX
  8
PLAN_1
 62
     5
  6
CONTINUOUS
 10
-1.130008
 20
2.510504
  0
SEQEND
  8
0
  0
POLYLINE
  8
PLAN_1
 62
     5
  6
CONTINUOUS
 66
     1
 40
0.003000
 41
0.003000
  0
VERTEX
  8
PLAN_1
 62
     5
  6
CONTINUOUS
 10
-1.122705
 20
2.514886
  0
VERTEX
  8
PLAN_1
 62
     5
  6
CONTINUOUS
 10
-1.115398
 20
2.518783
  0
SEQEND
  8
0
  0
POLYLINE
  8
PLAN_1
 62
     5
  6
CONTINUOUS
 66
     1
 40
0.003000
 41
0.003000
  0
VERTEX
  8
PLAN_1
 62
     5
  6
CONTINUOUS
 10
-1.108094
 20
2.522681
  0
VERTEX
  8
PLAN_1
 62
     5
  6
CONTINUOUS
 10
-1.100787
 20
2.527063
  0
SEQEND
  8
0
  0
POLYLINE
  8
PLAN_1
 62
     5
  6
CONTINUOUS
 66
     1
 40
0.003000
 41
0.003000
  0
VERTEX
  8
PLAN_1
 62
     5
  6
CONTINUOUS
 10
-1.093484
 20
2.530961
  0
VERTEX
  8
PLAN_1
 62
     5
  6
CONTINUOUS
 10
-1.086177
 20
2.535343
  0
SEQEND
  8
0
  0
POLYLINE
  8
PLAN_1
 62
     5
  6
CONTINUOUS
 66
     1
 40
0.003000
 41
0.003000
  0
VERTEX
  8
PLAN_1
 62
     5
  6
CONTINUOUS
 10
-1.078874
 20
2.539236
  0
VERTEX
  8
PLAN_1
 62
     5
  6
CONTINUOUS
 10
-1.072055
 20
2.543622
  0
SEQEND
  8
0
  0
POLYLINE
  8
PLAN_1
 62
     5
  6
CONTINUOUS
 66
     1
 40
0.003000
 41
0.003000
  0
VERTEX
  8
PLAN_1
 62
     5
  6
CONTINUOUS
 10
-1.064752
 20
2.547516
  0
VERTEX
  8
PLAN_1
 62
     5
  6
CONTINUOUS
 10
-1.057445
 20
2.551413
  0
SEQEND
  8
0
  0
POLYLINE
  8
PLAN_1
 62
     5
  6
CONTINUOUS
 66
     1
 40
0.003000
 41
0.003000
  0
VERTEX
  8
PLAN_1
 62
     5
  6
CONTINUOUS
 10
-1.050138
 20
2.555795
  0
VERTEX
  8
PLAN_1
 62
     5
  6
CONTINUOUS
 10
-1.042835
 20
2.559693
  0
SEQEND
  8
0
  0
POLYLINE
  8
PLAN_1
 62
     5
  6
CONTINUOUS
 66
     1
 40
0.003000
 41
0.003000
  0
VERTEX
  8
PLAN_1
 62
     5
  6
CONTINUOUS
 10
-1.035528
 20
2.564075
  0
VERTEX
  8
PLAN_1
 62
     5
  6
CONTINUOUS
 10
-1.028224
 20
2.567972
  0
SEQEND
  8
0
  0
POLYLINE
  8
PLAN_1
 62
     5
  6
CONTINUOUS
 66
     1
 40
0.003000
 41
0.003000
  0
VERTEX
  8
PLAN_1
 62
     5
  6
CONTINUOUS
 10
-1.020917
 20
2.571866
  0
VERTEX
  8
PLAN_1
 62
     5
  6
CONTINUOUS
 10
-1.013614
 20
2.576252
  0
SEQEND
  8
0
  0
POLYLINE
  8
PLAN_1
 62
     5
  6
CONTINUOUS
 66
     1
 40
0.003000
 41
0.003000
  0
VERTEX
  8
PLAN_1
 62
     5
  6
CONTINUOUS
 10
-1.006795
 20
2.580146
  0
VERTEX
  8
PLAN_1
 62
     5
  6
CONTINUOUS
 10
-0.999492
 20
2.584531
  0
SEQEND
  8
0
  0
POLYLINE
  8
PLAN_1
 62
     5
  6
CONTINUOUS
 66
     1
 40
0.003000
 41
0.003000
  0
VERTEX
  8
PLAN_1
 62
     5
  6
CONTINUOUS
 10
-0.992185
 20
2.588425
  0
VERTEX
  8
PLAN_1
 62
     5
  6
CONTINUOUS
 10
-0.984882
 20
2.592811
  0
SEQEND
  8
0
  0
POLYLINE
  8
PLAN_1
 62
     5
  6
CONTINUOUS
 66
     1
 40
0.003000
 41
0.003000
  0
VERTEX
  8
PLAN_1
 62
     5
  6
CONTINUOUS
 10
-0.977575
 20
2.596705
  0
VERTEX
  8
PLAN_1
 62
     5
  6
CONTINUOUS
 10
-0.970272
 20
2.600602
  0
SEQEND
  8
0
  0
POLYLINE
  8
PLAN_1
 62
     5
  6
CONTINUOUS
 66
     1
 40
0.003000
 41
0.003000
  0
VERTEX
  8
PLAN_1
 62
     5
  6
CONTINUOUS
 10
-0.962965
 20
2.604984
  0
VERTEX
  8
PLAN_1
 62
     5
  6
CONTINUOUS
 10
-0.955657
 20
2.608882
  0
SEQEND
  8
0
  0
POLYLINE
  8
PLAN_1
 62
     5
  6
CONTINUOUS
 66
     1
 40
0.003000
 41
0.003000
  0
VERTEX
  8
PLAN_1
 62
     5
  6
CONTINUOUS
 10
-0.948843
 20
2.613264
  0
VERTEX
  8
PLAN_1
 62
     5
  6
CONTINUOUS
 10
-0.941535
 20
2.617161
  0
SEQEND
  8
0
  0
POLYLINE
  8
PLAN_1
 62
     5
  6
CONTINUOUS
 66
     1
 40
0.003000
 41
0.003000
  0
VERTEX
  8
PLAN_1
 62
     5
  6
CONTINUOUS
 10
-0.934232
 20
2.621543
  0
VERTEX
  8
PLAN_1
 62
     5
  6
CONTINUOUS
 10
-0.926925
 20
2.625437
  0
SEQEND
  8
0
  0
POLYLINE
  8
PLAN_1
 62
     5
  6
CONTINUOUS
 66
     1
 40
0.003000
 41
0.003000
  0
VERTEX
  8
PLAN_1
 62
     5
  6
CONTINUOUS
 10
-0.919622
 20
2.629335
  0
VERTEX
  8
PLAN_1
 62
     5
  6
CONTINUOUS
 10
-0.912315
 20
2.633717
  0
SEQEND
  8
0
  0
POLYLINE
  8
PLAN_1
 62
     5
  6
CONTINUOUS
 66
     1
 40
0.003000
 41
0.003000
  0
VERTEX
  8
PLAN_1
 62
     5
  6
CONTINUOUS
 10
-0.905012
 20
2.637614
  0
VERTEX
  8
PLAN_1
 62
     5
  6
CONTINUOUS
 10
-0.897705
 20
2.641996
  0
SEQEND
  8
0
  0
POLYLINE
  8
PLAN_1
 62
     5
  6
CONTINUOUS
 66
     1
 40
0.003000
 41
0.003000
  0
VERTEX
  8
PLAN_1
 62
     5
  6
CONTINUOUS
 10
-0.890402
 20
2.645894
  0
VERTEX
  8
PLAN_1
 62
     5
  6
CONTINUOUS
 10
-0.883583
 20
2.649791
  0
SEQEND
  8
0
  0
POLYLINE
  8
PLAN_1
 62
     5
  6
CONTINUOUS
 66
     1
 40
0.003000
 41
0.003000
  0
VERTEX
  8
PLAN_1
 62
     5
  6
CONTINUOUS
 10
-0.876276
 20
2.654173
  0
VERTEX
  8
PLAN_1
 62
     5
  6
CONTINUOUS
 10
-0.868972
 20
2.658067
  0
SEQEND
  8
0
  0
POLYLINE
  8
PLAN_1
 62
     5
  6
CONTINUOUS
 66
     1
 40
0.003000
 41
0.003000
  0
VERTEX
  8
PLAN_1
 62
     5
  6
CONTINUOUS
 10
-0.861665
 20
2.662453
  0
VERTEX
  8
PLAN_1
 62
     5
  6
CONTINUOUS
 10
-0.854362
 20
2.666346
  0
SEQEND
  8
0
  0
POLYLINE
  8
PLAN_1
 62
     5
  6
CONTINUOUS
 66
     1
 40
0.003000
 41
0.003000
  0
VERTEX
  8
PLAN_1
 62
     5
  6
CONTINUOUS
 10
-0.847055
 20
2.670732
  0
VERTEX
  8
PLAN_1
 62
     5
  6
CONTINUOUS
 10
-0.839752
 20
2.674626
  0
SEQEND
  8
0
  0
POLYLINE
  8
PLAN_1
 62
     5
  6
CONTINUOUS
 66
     1
 40
0.003000
 41
0.003000
  0
VERTEX
  8
PLAN_1
 62
     5
  6
CONTINUOUS
 10
-0.832445
 20
2.678524
  0
VERTEX
  8
PLAN_1
 62
     5
  6
CONTINUOUS
 10
-0.825142
 20
2.682906
  0
SEQEND
  8
0
  0
POLYLINE
  8
PLAN_1
 62
     5
  6
CONTINUOUS
 66
     1
 40
0.003000
 41
0.003000
  0
VERTEX
  8
PLAN_1
 62
     5
  6
CONTINUOUS
 10
-0.818323
 20
2.686803
  0
VERTEX
  8
PLAN_1
 62
     5
  6
CONTINUOUS
 10
-0.811016
 20
2.691185
  0
SEQEND
  8
0
  0
POLYLINE
  8
PLAN_1
 62
     5
  6
CONTINUOUS
 66
     1
 40
0.003000
 41
0.003000
  0
VERTEX
  8
PLAN_1
 62
     5
  6
CONTINUOUS
 10
-0.803713
 20
2.695083
  0
VERTEX
  8
PLAN_1
 62
     5
  6
CONTINUOUS
 10
-0.796406
 20
2.699465
  0
SEQEND
  8
0
  0
POLYLINE
  8
PLAN_1
 62
     5
  6
CONTINUOUS
 66
     1
 40
0.003000
 41
0.003000
  0
VERTEX
  8
PLAN_1
 62
     5
  6
CONTINUOUS
 10
-0.789102
 20
2.703362
  0
VERTEX
  8
PLAN_1
 62
     5
  6
CONTINUOUS
 10
-0.781795
 20
2.707256
  0
SEQEND
  8
0
  0
POLYLINE
  8
PLAN_1
 62
     5
  6
CONTINUOUS
 66
     1
 40
0.003000
 41
0.003000
  0
VERTEX
  8
PLAN_1
 62
     5
  6
CONTINUOUS
 10
-0.774492
 20
2.711642
  0
VERTEX
  8
PLAN_1
 62
     5
  6
CONTINUOUS
 10
-0.767185
 20
2.715535
  0
SEQEND
  8
0
  0
POLYLINE
  8
PLAN_1
 62
     5
  6
CONTINUOUS
 66
     1
 40
0.003000
 41
0.003000
  0
VERTEX
  8
PLAN_1
 62
     5
  6
CONTINUOUS
 10
-0.759882
 20
2.719917
  0
VERTEX
  8
PLAN_1
 62
     5
  6
CONTINUOUS
 10
-0.753063
 20
2.723815
  0
SEQEND
  8
0
  0
POLYLINE
  8
PLAN_1
 62
     5
  6
CONTINUOUS
 66
     1
 40
0.003000
 41
0.003000
  0
VERTEX
  8
PLAN_1
 62
     5
  6
CONTINUOUS
 10
-0.745756
 20
2.728197
  0
VERTEX
  8
PLAN_1
 62
     5
  6
CONTINUOUS
 10
-0.738453
 20
2.732094
  0
SEQEND
  8
0
  0
POLYLINE
  8
PLAN_1
  6
CONTINUOUS
 66
     1
 40
0.008276
 41
0.008276
  0
VERTEX
  8
PLAN_1
  6
CONTINUOUS
 10
-1.401276
 20
0.506937
  0
VERTEX
  8
PLAN_1
  6
CONTINUOUS
 10
-1.421244
 20
0.507425
  0
VERTEX
  8
PLAN_1
  6
CONTINUOUS
 10
-1.440724
 20
0.508886
  0
VERTEX
  8
PLAN_1
  6
CONTINUOUS
 10
-1.460205
 20
0.511323
  0
VERTEX
  8
PLAN_1
  6
CONTINUOUS
 10
-1.479197
 20
0.514732
  0
VERTEX
  8
PLAN_1
  6
CONTINUOUS
 10
-1.498189
 20
0.519114
  0
VERTEX
  8
PLAN_1
  6
CONTINUOUS
 10
-1.516697
 20
0.523984
  0
VERTEX
  8
PLAN_1
  6
CONTINUOUS
 10
-1.534717
 20
0.530315
  0
VERTEX
  8
PLAN_1
  6
CONTINUOUS
 10
-1.552248
 20
0.537134
  0
VERTEX
  8
PLAN_1
  6
CONTINUOUS
 10
-1.569295
 20
0.544925
  0
VERTEX
  8
PLAN_1
  6
CONTINUOUS
 10
-1.585850
 20
0.553693
  0
VERTEX
  8
PLAN_1
  6
CONTINUOUS
 10
-1.602409
 20
0.562945
  0
VERTEX
  8
PLAN_1
  6
CONTINUOUS
 10
-1.617996
 20
0.573173
  0
VERTEX
  8
PLAN_1
  6
CONTINUOUS
 10
-1.633091
 20
0.583886
  0
VERTEX
  8
PLAN_1
  6
CONTINUOUS
 10
-1.647705
 20
0.595087
  0
VERTEX
  8
PLAN_1
  6
CONTINUOUS
 10
-1.661827
 20
0.607264
  0
VERTEX
  8
PLAN_1
  6
CONTINUOUS
 10
-1.675461
 20
0.620413
  0
VERTEX
  8
PLAN_1
  6
CONTINUOUS
 10
-1.688126
 20
0.633563
  0
VERTEX
  8
PLAN_1
  6
CONTINUOUS
 10
-1.700299
 20
0.647685
  0
VERTEX
  8
PLAN_1
  6
CONTINUOUS
 10
-1.711988
 20
0.662295
  0
VERTEX
  8
PLAN_1
  6
CONTINUOUS
 10
-1.722701
 20
0.677882
  0
VERTEX
  8
PLAN_1
  6
CONTINUOUS
 10
-1.732929
 20
0.693465
  0
VERTEX
  8
PLAN_1
  6
CONTINUOUS
 10
-1.742181
 20
0.709535
  0
VERTEX
  8
PLAN_1
  6
CONTINUOUS
 10
-1.750949
 20
0.726583
  0
VERTEX
  8
PLAN_1
  6
CONTINUOUS
 10
-1.758740
 20
0.743626
  0
VERTEX
  8
PLAN_1
  6
CONTINUOUS
 10
-1.765559
 20
0.761157
  0
VERTEX
  8
PLAN_1
  6
CONTINUOUS
 10
-1.771890
 20
0.779177
  0
VERTEX
  8
PLAN_1
  6
CONTINUOUS
 10
-1.776760
 20
0.797685
  0
VERTEX
  8
PLAN_1
  6
CONTINUOUS
 10
-1.781146
 20
0.816193
  0
VERTEX
  8
PLAN_1
  6
CONTINUOUS
 10
-1.784551
 20
0.835673
  0
VERTEX
  8
PLAN_1
  6
CONTINUOUS
 10
-1.786988
 20
0.855154
  0
VERTEX
  8
PLAN_1
  6
CONTINUOUS
 10
-1.788449
 20
0.874634
  0
VERTEX
  8
PLAN_1
  6
CONTINUOUS
 10
-1.788937
 20
0.894598
  0
VERTEX
  8
PLAN_1
  6
CONTINUOUS
 10
-1.788449
 20
0.914567
  0
VERTEX
  8
PLAN_1
  6
CONTINUOUS
 10
-1.786988
 20
0.934047
  0
VERTEX
  8
PLAN_1
  6
CONTINUOUS
 10
-1.784551
 20
0.953528
  0
VERTEX
  8
PLAN_1
  6
CONTINUOUS
 10
-1.781146
 20
0.973008
  0
VERTEX
  8
PLAN_1
  6
CONTINUOUS
 10
-1.776760
 20
0.991516
  0
VERTEX
  8
PLAN_1
  6
CONTINUOUS
 10
-1.771890
 20
1.010024
  0
VERTEX
  8
PLAN_1
  6
CONTINUOUS
 10
-1.765559
 20
1.028039
  0
VERTEX
  8
PLAN_1
  6
CONTINUOUS
 10
-1.758740
 20
1.045575
  0
VERTEX
  8
PLAN_1
  6
CONTINUOUS
 10
-1.750949
 20
1.062618
  0
VERTEX
  8
PLAN_1
  6
CONTINUOUS
 10
-1.742181
 20
1.079665
  0
VERTEX
  8
PLAN_1
  6
CONTINUOUS
 10
-1.732929
 20
1.095736
  0
VERTEX
  8
PLAN_1
  6
CONTINUOUS
 10
-1.722701
 20
1.111319
  0
VERTEX
  8
PLAN_1
  6
CONTINUOUS
 10
-1.711988
 20
1.126906
  0
VERTEX
  8
PLAN_1
  6
CONTINUOUS
 10
-1.700299
 20
1.141516
  0
VERTEX
  8
PLAN_1
  6
CONTINUOUS
 10
-1.688126
 20
1.155638
  0
VERTEX
  8
PLAN_1
  6
CONTINUOUS
 10
-1.675461
 20
1.168787
  0
VERTEX
  8
PLAN_1
  6
CONTINUOUS
 10
-1.661827
 20
1.181937
  0
VERTEX
  8
PLAN_1
  6
CONTINUOUS
 10
-1.647705
 20
1.194110
  0
VERTEX
  8
PLAN_1
  6
CONTINUOUS
 10
-1.633091
 20
1.205315
  0
VERTEX
  8
PLAN_1
  6
CONTINUOUS
 10
-1.617996
 20
1.216028
  0
VERTEX
  8
PLAN_1
  6
CONTINUOUS
 10
-1.602409
 20
1.226256
  0
VERTEX
  8
PLAN_1
  6
CONTINUOUS
 10
-1.585850
 20
1.235508
  0
VERTEX
  8
PLAN_1
  6
CONTINUOUS
 10
-1.569295
 20
1.244276
  0
VERTEX
  8
PLAN_1
  6
CONTINUOUS
 10
-1.552248
 20
1.252067
  0
VERTEX
  8
PLAN_1
  6
CONTINUOUS
 10
-1.534717
 20
1.258886
  0
VERTEX
  8
PLAN_1
  6
CONTINUOUS
 10
-1.516697
 20
1.265217
  0
VERTEX
  8
PLAN_1
  6
CONTINUOUS
 10
-1.498189
 20
1.270087
  0
VERTEX
  8
PLAN_1
  6
CONTINUOUS
 10
-1.479197
 20
1.274469
  0
VERTEX
  8
PLAN_1
  6
CONTINUOUS
 10
-1.460205
 20
1.277878
  0
VERTEX
  8
PLAN_1
  6
CONTINUOUS
 10
-1.440724
 20
1.280315
  0
VERTEX
  8
PLAN_1
  6
CONTINUOUS
 10
-1.421244
 20
1.281776
  0
VERTEX
  8
PLAN_1
  6
CONTINUOUS
 10
-1.401276
 20
1.282260
  0
VERTEX
  8
PLAN_1
  6
CONTINUOUS
 10
-1.394945
 20
1.282260
  0
VERTEX
  8
PLAN_1
  6
CONTINUOUS
 10
-1.389098
 20
1.282260
  0
VERTEX
  8
PLAN_1
  6
CONTINUOUS
 10
-1.383256
 20
1.282260
  0
VERTEX
  8
PLAN_1
  6
CONTINUOUS
 10
-1.377409
 20
1.281776
  0
VERTEX
  8
PLAN_1
  6
CONTINUOUS
 10
-1.371567
 20
1.281287
  0
VERTEX
  8
PLAN_1
  6
CONTINUOUS
 10
-1.365724
 20
1.280799
  0
VERTEX
  8
PLAN_1
  6
CONTINUOUS
 10
-1.359394
 20
1.280315
  0
VERTEX
  8
PLAN_1
  6
CONTINUOUS
 10
-1.353547
 20
1.279827
  0
VERTEX
  8
PLAN_1
  6
CONTINUOUS
 10
-1.330657
 20
1.274469
  0
VERTEX
  8
PLAN_1
  6
CONTINUOUS
 10
-1.268807
 20
1.261319
  0
VERTEX
  8
PLAN_1
  6
CONTINUOUS
 10
-1.181634
 20
1.242327
  0
VERTEX
  8
PLAN_1
  6
CONTINUOUS
 10
-1.081307
 20
1.220898
  0
VERTEX
  8
PLAN_1
  6
CONTINUOUS
 10
-0.980496
 20
1.198984
  0
VERTEX
  8
PLAN_1
  6
CONTINUOUS
 10
-0.891862
 20
1.179988
  0
VERTEX
  8
PLAN_1
  6
CONTINUOUS
 10
-0.828063
 20
1.166354
  0
VERTEX
  8
PLAN_1
  6
CONTINUOUS
 10
-0.801276
 20
1.160996
  0
SEQEND
  8
0
  0
POLYLINE
  8
PLAN_1
  6
CONTINUOUS
 66
     1
 40
0.008276
 41
0.008276
  0
VERTEX
  8
PLAN_1
  6
CONTINUOUS
 10
-0.801276
 20
1.160996
  0
VERTEX
  8
PLAN_1
  6
CONTINUOUS
 10
-0.801764
 20
0.673984
  0
SEQEND
  8
0
  0
POLYLINE
  8
PLAN_1
  6
CONTINUOUS
 66
     1
 40
0.008276
 41
0.008276
  0
VERTEX
  8
PLAN_1
  6
CONTINUOUS
 10
-0.801764
 20
0.673984
  0
VERTEX
  8
PLAN_1
  6
CONTINUOUS
 10
-0.828063
 20
0.666677
  0
VERTEX
  8
PLAN_1
  6
CONTINUOUS
 10
-0.892346
 20
0.647685
  0
VERTEX
  8
PLAN_1
  6
CONTINUOUS
 10
-0.981957
 20
0.621386
  0
VERTEX
  8
PLAN_1
  6
CONTINUOUS
 10
-1.083744
 20
0.591193
  0
VERTEX
  8
PLAN_1
  6
CONTINUOUS
 10
-1.185528
 20
0.560996
  0
VERTEX
  8
PLAN_1
  6
CONTINUOUS
 10
-1.273677
 20
0.534697
  0
VERTEX
  8
PLAN_1
  6
CONTINUOUS
 10
-1.336016
 20
0.516193
  0
VERTEX
  8
PLAN_1
  6
CONTINUOUS
 10
-1.359878
 20
0.508886
  0
VERTEX
  8
PLAN_1
  6
CONTINUOUS
 10
-1.360854
 20
0.508886
  0
VERTEX
  8
PLAN_1
  6
CONTINUOUS
 10
-1.364748
 20
0.508886
  0
VERTEX
  8
PLAN_1
  6
CONTINUOUS
 10
-1.370106
 20
0.508402
  0
VERTEX
  8
PLAN_1
  6
CONTINUOUS
 10
-1.376437
 20
0.507913
  0
VERTEX
  8
PLAN_1
  6
CONTINUOUS
 10
-1.383256
 20
0.507425
  0
VERTEX
  8
PLAN_1
  6
CONTINUOUS
 10
-1.390075
 20
0.506937
  0
VERTEX
  8
PLAN_1
  6
CONTINUOUS
 10
-1.395917
 20
0.506937
  0
VERTEX
  8
PLAN_1
  6
CONTINUOUS
 10
-1.401276
 20
0.506937
  0
SEQEND
  8
0
  0
POLYLINE
  8
PLAN_1
  6
CONTINUOUS
 66
     1
 40
0.008276
 41
0.008276
  0
VERTEX
  8
PLAN_1
  6
CONTINUOUS
 10
-1.162638
 20
0.898008
  0
VERTEX
  8
PLAN_1
  6
CONTINUOUS
 10
-1.276114
 20
0.687622
  0
VERTEX
  8
PLAN_1
  6
CONTINUOUS
 10
-1.525465
 20
0.687622
  0
VERTEX
  8
PLAN_1
  6
CONTINUOUS
 10
-1.642346
 20
0.898008
  0
VERTEX
  8
PLAN_1
  6
CONTINUOUS
 10
-1.525465
 20
1.099146
  0
VERTEX
  8
PLAN_1
  6
CONTINUOUS
 10
-1.276114
 20
1.099146
  0
VERTEX
  8
PLAN_1
  6
CONTINUOUS
 10
-1.162638
 20
0.898008
  0
SEQEND
  8
0
  0
POLYLINE
  8
PLAN_1
  6
CONTINUOUS
 66
     1
 40
0.006815
 41
0.006815
  0
VERTEX
  8
PLAN_1
  6
CONTINUOUS
 10
-1.288776
 20
0.885346
  0
VERTEX
  8
PLAN_1
  6
CONTINUOUS
 10
-1.288776
 20
0.904827
  0
VERTEX
  8
PLAN_1
  6
CONTINUOUS
 10
-1.514260
 20
0.904827
  0
VERTEX
  8
PLAN_1
  6
CONTINUOUS
 10
-1.514260
 20
0.885346
  0
VERTEX
  8
PLAN_1
  6
CONTINUOUS
 10
-1.288776
 20
0.885346
  0
SEQEND
  8
0
  0
POLYLINE
  8
PLAN_1
  6
CONTINUOUS
 66
     1
 40
0.005354
 41
0.005354
  0
VERTEX
  8
PLAN_1
  6
CONTINUOUS
 10
-1.400787
 20
0.802555
  0
VERTEX
  8
PLAN_1
  6
CONTINUOUS
 10
-1.391047
 20
0.803043
  0
VERTEX
  8
PLAN_1
  6
CONTINUOUS
 10
-1.382280
 20
0.804016
  0
VERTEX
  8
PLAN_1
  6
CONTINUOUS
 10
-1.373516
 20
0.806453
  0
VERTEX
  8
PLAN_1
  6
CONTINUOUS
 10
-1.364748
 20
0.809374
  0
VERTEX
  8
PLAN_1
  6
CONTINUOUS
 10
-1.356957
 20
0.813268
  0
VERTEX
  8
PLAN_1
  6
CONTINUOUS
 10
-1.349165
 20
0.818138
  0
VERTEX
  8
PLAN_1
  6
CONTINUOUS
 10
-1.342346
 20
0.823496
  0
VERTEX
  8
PLAN_1
  6
CONTINUOUS
 10
-1.335528
 20
0.829343
  0
VERTEX
  8
PLAN_1
  6
CONTINUOUS
 10
-1.329685
 20
0.835673
  0
VERTEX
  8
PLAN_1
  6
CONTINUOUS
 10
-1.324327
 20
0.842976
  0
VERTEX
  8
PLAN_1
  6
CONTINUOUS
 10
-1.319945
 20
0.850283
  0
VERTEX
  8
PLAN_1
  6
CONTINUOUS
 10
-1.316047
 20
0.858563
  0
VERTEX
  8
PLAN_1
  6
CONTINUOUS
 10
-1.312638
 20
0.866839
  0
VERTEX
  8
PLAN_1
  6
CONTINUOUS
 10
-1.310689
 20
0.875606
  0
VERTEX
  8
PLAN_1
  6
CONTINUOUS
 10
-1.309228
 20
0.884858
  0
VERTEX
  8
PLAN_1
  6
CONTINUOUS
 10
-1.308744
 20
0.894114
  0
VERTEX
  8
PLAN_1
  6
CONTINUOUS
 10
-1.309228
 20
0.903366
  0
VERTEX
  8
PLAN_1
  6
CONTINUOUS
 10
-1.310689
 20
0.912618
  0
VERTEX
  8
PLAN_1
  6
CONTINUOUS
 10
-1.312638
 20
0.921386
  0
VERTEX
  8
PLAN_1
  6
CONTINUOUS
 10
-1.316047
 20
0.930154
  0
VERTEX
  8
PLAN_1
  6
CONTINUOUS
 10
-1.319945
 20
0.937945
  0
VERTEX
  8
PLAN_1
  6
CONTINUOUS
 10
-1.324327
 20
0.945736
  0
VERTEX
  8
PLAN_1
  6
CONTINUOUS
 10
-1.329685
 20
0.952555
  0
VERTEX
  8
PLAN_1
  6
CONTINUOUS
 10
-1.335528
 20
0.959374
  0
VERTEX
  8
PLAN_1
  6
CONTINUOUS
 10
-1.342346
 20
0.965217
  0
VERTEX
  8
PLAN_1
  6
CONTINUOUS
 10
-1.349165
 20
0.970575
  0
VERTEX
  8
PLAN_1
  6
CONTINUOUS
 10
-1.356957
 20
0.974957
  0
VERTEX
  8
PLAN_1
  6
CONTINUOUS
 10
-1.364748
 20
0.978854
  0
VERTEX
  8
PLAN_1
  6
CONTINUOUS
 10
-1.373516
 20
0.981776
  0
VERTEX
  8
PLAN_1
  6
CONTINUOUS
 10
-1.382280
 20
0.984209
  0
VERTEX
  8
PLAN_1
  6
CONTINUOUS
 10
-1.391047
 20
0.985673
  0
VERTEX
  8
PLAN_1
  6
CONTINUOUS
 10
-1.400787
 20
0.986157
  0
VERTEX
  8
PLAN_1
  6
CONTINUOUS
 10
-1.410039
 20
0.985673
  0
VERTEX
  8
PLAN_1
  6
CONTINUOUS
 10
-1.419295
 20
0.984209
  0
VERTEX
  8
PLAN_1
  6
CONTINUOUS
 10
-1.428059
 20
0.981776
  0
VERTEX
  8
PLAN_1
  6
CONTINUOUS
 10
-1.436339
 20
0.978854
  0
VERTEX
  8
PLAN_1
  6
CONTINUOUS
 10
-1.444618
 20
0.974957
  0
VERTEX
  8
PLAN_1
  6
CONTINUOUS
 10
-1.451925
 20
0.970575
  0
VERTEX
  8
PLAN_1
  6
CONTINUOUS
 10
-1.459228
 20
0.965217
  0
VERTEX
  8
PLAN_1
  6
CONTINUOUS
 10
-1.465559
 20
0.959374
  0
VERTEX
  8
PLAN_1
  6
CONTINUOUS
 10
-1.471406
 20
0.952555
  0
VERTEX
  8
PLAN_1
  6
CONTINUOUS
 10
-1.476760
 20
0.945736
  0
VERTEX
  8
PLAN_1
  6
CONTINUOUS
 10
-1.481630
 20
0.937945
  0
VERTEX
  8
PLAN_1
  6
CONTINUOUS
 10
-1.485039
 20
0.930154
  0
VERTEX
  8
PLAN_1
  6
CONTINUOUS
 10
-1.488449
 20
0.921386
  0
VERTEX
  8
PLAN_1
  6
CONTINUOUS
 10
-1.490398
 20
0.912618
  0
VERTEX
  8
PLAN_1
  6
CONTINUOUS
 10
-1.491858
 20
0.903366
  0
VERTEX
  8
PLAN_1
  6
CONTINUOUS
 10
-1.492346
 20
0.894114
  0
VERTEX
  8
PLAN_1
  6
CONTINUOUS
 10
-1.491858
 20
0.884858
  0
VERTEX
  8
PLAN_1
  6
CONTINUOUS
 10
-1.490398
 20
0.875606
  0
VERTEX
  8
PLAN_1
  6
CONTINUOUS
 10
-1.488449
 20
0.866839
  0
VERTEX
  8
PLAN_1
  6
CONTINUOUS
 10
-1.485039
 20
0.858563
  0
VERTEX
  8
PLAN_1
  6
CONTINUOUS
 10
-1.481630
 20
0.850283
  0
VERTEX
  8
PLAN_1
  6
CONTINUOUS
 10
-1.476760
 20
0.842976
  0
VERTEX
  8
PLAN_1
  6
CONTINUOUS
 10
-1.471406
 20
0.835673
  0
VERTEX
  8
PLAN_1
  6
CONTINUOUS
 10
-1.465559
 20
0.829343
  0
VERTEX
  8
PLAN_1
  6
CONTINUOUS
 10
-1.459228
 20
0.823496
  0
VERTEX
  8
PLAN_1
  6
CONTINUOUS
 10
-1.451925
 20
0.818138
  0
VERTEX
  8
PLAN_1
  6
CONTINUOUS
 10
-1.444618
 20
0.813268
  0
VERTEX
  8
PLAN_1
  6
CONTINUOUS
 10
-1.436339
 20
0.809374
  0
VERTEX
  8
PLAN_1
  6
CONTINUOUS
 10
-1.428059
 20
0.806453
  0
VERTEX
  8
PLAN_1
  6
CONTINUOUS
 10
-1.419295
 20
0.804016
  0
VERTEX
  8
PLAN_1
  6
CONTINUOUS
 10
-1.410039
 20
0.803043
  0
VERTEX
  8
PLAN_1
  6
CONTINUOUS
 10
-1.400787
 20
0.802555
  0
SEQEND
  8
0
  0
POLYLINE
  8
PLAN_1
  6
CONTINUOUS
 66
     1
 40
0.006815
 41
0.006815
  0
VERTEX
  8
PLAN_1
  6
CONTINUOUS
 10
-1.152413
 20
1.087457
  0
VERTEX
  8
PLAN_1
  6
CONTINUOUS
 10
-1.210854
 20
1.145898
  0
VERTEX
  8
PLAN_1
  6
CONTINUOUS
 10
-1.300465
 20
1.141516
  0
VERTEX
  8
PLAN_1
  6
CONTINUOUS
 10
-1.362799
 20
1.205799
  0
VERTEX
  8
PLAN_1
  6
CONTINUOUS
 10
-1.445594
 20
1.205799
  0
VERTEX
  8
PLAN_1
  6
CONTINUOUS
 10
-1.505984
 20
1.139079
  0
VERTEX
  8
PLAN_1
  6
CONTINUOUS
 10
-1.595106
 20
1.141516
  0
VERTEX
  8
PLAN_1
  6
CONTINUOUS
 10
-1.654035
 20
1.083075
  0
VERTEX
  8
PLAN_1
  6
CONTINUOUS
 10
-1.649165
 20
0.992976
  0
VERTEX
  8
PLAN_1
  6
CONTINUOUS
 10
-1.713449
 20
0.931614
  0
VERTEX
  8
PLAN_1
  6
CONTINUOUS
 10
-1.713449
 20
0.848823
  0
VERTEX
  8
PLAN_1
  6
CONTINUOUS
 10
-1.646728
 20
0.788433
  0
VERTEX
  8
PLAN_1
  6
CONTINUOUS
 10
-1.648677
 20
0.700768
  0
VERTEX
  8
PLAN_1
  6
CONTINUOUS
 10
-1.589748
 20
0.641843
  0
VERTEX
  8
PLAN_1
  6
CONTINUOUS
 10
-1.500138
 20
0.646224
  0
VERTEX
  8
PLAN_1
  6
CONTINUOUS
 10
-1.442669
 20
0.582425
  0
VERTEX
  8
PLAN_1
  6
CONTINUOUS
 10
-1.359878
 20
0.582425
  0
VERTEX
  8
PLAN_1
  6
CONTINUOUS
 10
-1.298516
 20
0.652555
  0
VERTEX
  8
PLAN_1
  6
CONTINUOUS
 10
-1.207933
 20
0.647685
  0
VERTEX
  8
PLAN_1
  6
CONTINUOUS
 10
-1.149488
 20
0.706126
  0
VERTEX
  8
PLAN_1
  6
CONTINUOUS
 10
-1.156307
 20
0.794764
  0
VERTEX
  8
PLAN_1
  6
CONTINUOUS
 10
-1.088614
 20
0.855154
  0
VERTEX
  8
PLAN_1
  6
CONTINUOUS
 10
-1.088614
 20
0.937945
  0
VERTEX
  8
PLAN_1
  6
CONTINUOUS
 10
-1.155335
 20
0.998335
  0
VERTEX
  8
PLAN_1
  6
CONTINUOUS
 10
-1.152413
 20
1.087457
  0
SEQEND
  8
0
  0
POLYLINE
  8
PLAN_1
 62
     5
  6
CONTINUOUS
 66
     1
 40
0.003000
 41
0.003000
  0
VERTEX
  8
PLAN_1
 62
     5
  6
CONTINUOUS
 10
-0.967346
 20
3.720728
  0
VERTEX
  8
PLAN_1
 62
     5
  6
CONTINUOUS
 10
-0.967346
 20
3.712449
  0
SEQEND
  8
0
  0
POLYLINE
  8
PLAN_1
 62
     5
  6
CONTINUOUS
 66
     1
 40
0.003000
 41
0.003000
  0
VERTEX
  8
PLAN_1
 62
     5
  6
CONTINUOUS
 10
-0.967346
 20
3.703681
  0
VERTEX
  8
PLAN_1
 62
     5
  6
CONTINUOUS
 10
-0.967346
 20
3.695402
  0
SEQEND
  8
0
  0
POLYLINE
  8
PLAN_1
 62
     5
  6
CONTINUOUS
 66
     1
 40
0.003000
 41
0.003000
  0
VERTEX
  8
PLAN_1
 62
     5
  6
CONTINUOUS
 10
-0.967346
 20
3.687126
  0
VERTEX
  8
PLAN_1
 62
     5
  6
CONTINUOUS
 10
-0.967346
 20
3.678846
  0
SEQEND
  8
0
  0
POLYLINE
  8
PLAN_1
 62
     5
  6
CONTINUOUS
 66
     1
 40
0.003000
 41
0.003000
  0
VERTEX
  8
PLAN_1
 62
     5
  6
CONTINUOUS
 10
-0.967346
 20
3.670567
  0
VERTEX
  8
PLAN_1
 62
     5
  6
CONTINUOUS
 10
-0.967346
 20
3.662287
  0
SEQEND
  8
0
  0
POLYLINE
  8
PLAN_1
 62
     5
  6
CONTINUOUS
 66
     1
 40
0.003000
 41
0.003000
  0
VERTEX
  8
PLAN_1
 62
     5
  6
CONTINUOUS
 10
-0.967346
 20
3.654008
  0
VERTEX
  8
PLAN_1
 62
     5
  6
CONTINUOUS
 10
-0.967346
 20
3.645728
  0
SEQEND
  8
0
  0
POLYLINE
  8
PLAN_1
 62
     5
  6
CONTINUOUS
 66
     1
 40
0.003000
 41
0.003000
  0
VERTEX
  8
PLAN_1
 62
     5
  6
CONTINUOUS
 10
-0.967346
 20
3.637449
  0
VERTEX
  8
PLAN_1
 62
     5
  6
CONTINUOUS
 10
-0.967346
 20
3.629169
  0
SEQEND
  8
0
  0
POLYLINE
  8
PLAN_1
 62
     5
  6
CONTINUOUS
 66
     1
 40
0.003000
 41
0.003000
  0
VERTEX
  8
PLAN_1
 62
     5
  6
CONTINUOUS
 10
-0.967346
 20
3.620402
  0
VERTEX
  8
PLAN_1
 62
     5
  6
CONTINUOUS
 10
-0.967346
 20
3.612126
  0
SEQEND
  8
0
  0
POLYLINE
  8
PLAN_1
 62
     5
  6
CONTINUOUS
 66
     1
 40
0.003000
 41
0.003000
  0
VERTEX
  8
PLAN_1
 62
     5
  6
CONTINUOUS
 10
-0.967346
 20
3.603846
  0
VERTEX
  8
PLAN_1
 62
     5
  6
CONTINUOUS
 10
-0.967346
 20
3.595567
  0
SEQEND
  8
0
  0
POLYLINE
  8
PLAN_1
 62
     5
  6
CONTINUOUS
 66
     1
 40
0.003000
 41
0.003000
  0
VERTEX
  8
PLAN_1
 62
     5
  6
CONTINUOUS
 10
-0.967346
 20
3.587287
  0
VERTEX
  8
PLAN_1
 62
     5
  6
CONTINUOUS
 10
-0.967346
 20
3.579008
  0
SEQEND
  8
0
  0
POLYLINE
  8
PLAN_1
 62
     5
  6
CONTINUOUS
 66
     1
 40
0.003000
 41
0.003000
  0
VERTEX
  8
PLAN_1
 62
     5
  6
CONTINUOUS
 10
-0.967346
 20
3.570728
  0
VERTEX
  8
PLAN_1
 62
     5
  6
CONTINUOUS
 10
-0.967346
 20
3.562449
  0
SEQEND
  8
0
  0
POLYLINE
  8
PLAN_1
 62
     5
  6
CONTINUOUS
 66
     1
 40
0.003000
 41
0.003000
  0
VERTEX
  8
PLAN_1
 62
     5
  6
CONTINUOUS
 10
-0.967346
 20
3.554169
  0
VERTEX
  8
PLAN_1
 62
     5
  6
CONTINUOUS
 10
-0.967346
 20
3.545890
  0
SEQEND
  8
0
  0
POLYLINE
  8
PLAN_1
 62
     5
  6
CONTINUOUS
 66
     1
 40
0.003000
 41
0.003000
  0
VERTEX
  8
PLAN_1
 62
     5
  6
CONTINUOUS
 10
-0.967346
 20
3.537126
  0
VERTEX
  8
PLAN_1
 62
     5
  6
CONTINUOUS
 10
-0.967346
 20
3.528846
  0
SEQEND
  8
0
  0
POLYLINE
  8
PLAN_1
 62
     5
  6
CONTINUOUS
 66
     1
 40
0.003000
 41
0.003000
  0
VERTEX
  8
PLAN_1
 62
     5
  6
CONTINUOUS
 10
-0.967346
 20
3.520567
  0
VERTEX
  8
PLAN_1
 62
     5
  6
CONTINUOUS
 10
-0.967346
 20
3.512287
  0
SEQEND
  8
0
  0
POLYLINE
  8
PLAN_1
 62
     5
  6
CONTINUOUS
 66
     1
 40
0.003000
 41
0.003000
  0
VERTEX
  8
PLAN_1
 62
     5
  6
CONTINUOUS
 10
-0.967346
 20
3.504008
  0
VERTEX
  8
PLAN_1
 62
     5
  6
CONTINUOUS
 10
-0.967346
 20
3.495728
  0
SEQEND
  8
0
  0
POLYLINE
  8
PLAN_1
 62
     5
  6
CONTINUOUS
 66
     1
 40
0.003000
 41
0.003000
  0
VERTEX
  8
PLAN_1
 62
     5
  6
CONTINUOUS
 10
-0.967346
 20
3.487449
  0
VERTEX
  8
PLAN_1
 62
     5
  6
CONTINUOUS
 10
-0.967346
 20
3.479169
  0
SEQEND
  8
0
  0
POLYLINE
  8
PLAN_1
 62
     5
  6
CONTINUOUS
 66
     1
 40
0.003000
 41
0.003000
  0
VERTEX
  8
PLAN_1
 62
     5
  6
CONTINUOUS
 10
-0.967346
 20
3.470890
  0
VERTEX
  8
PLAN_1
 62
     5
  6
CONTINUOUS
 10
-0.967346
 20
3.462610
  0
SEQEND
  8
0
  0
POLYLINE
  8
PLAN_1
 62
     5
  6
CONTINUOUS
 66
     1
 40
0.003000
 41
0.003000
  0
VERTEX
  8
PLAN_1
 62
     5
  6
CONTINUOUS
 10
-0.967346
 20
3.453846
  0
VERTEX
  8
PLAN_1
 62
     5
  6
CONTINUOUS
 10
-0.967346
 20
3.445567
  0
SEQEND
  8
0
  0
POLYLINE
  8
PLAN_1
 62
     5
  6
CONTINUOUS
 66
     1
 40
0.003000
 41
0.003000
  0
VERTEX
  8
PLAN_1
 62
     5
  6
CONTINUOUS
 10
-0.967346
 20
3.437287
  0
VERTEX
  8
PLAN_1
 62
     5
  6
CONTINUOUS
 10
-0.967346
 20
3.429008
  0
SEQEND
  8
0
  0
POLYLINE
  8
PLAN_1
 62
     5
  6
CONTINUOUS
 66
     1
 40
0.003000
 41
0.003000
  0
VERTEX
  8
PLAN_1
 62
     5
  6
CONTINUOUS
 10
-0.967346
 20
3.420728
  0
VERTEX
  8
PLAN_1
 62
     5
  6
CONTINUOUS
 10
-0.967346
 20
3.412449
  0
SEQEND
  8
0
  0
POLYLINE
  8
PLAN_1
 62
     5
  6
CONTINUOUS
 66
     1
 40
0.003000
 41
0.003000
  0
VERTEX
  8
PLAN_1
 62
     5
  6
CONTINUOUS
 10
-0.967346
 20
3.404169
  0
VERTEX
  8
PLAN_1
 62
     5
  6
CONTINUOUS
 10
-0.967346
 20
3.395890
  0
SEQEND
  8
0
  0
POLYLINE
  8
PLAN_1
 62
     5
  6
CONTINUOUS
 66
     1
 40
0.003000
 41
0.003000
  0
VERTEX
  8
PLAN_1
 62
     5
  6
CONTINUOUS
 10
-0.967346
 20
3.387610
  0
VERTEX
  8
PLAN_1
 62
     5
  6
CONTINUOUS
 10
-0.967346
 20
3.379335
  0
SEQEND
  8
0
  0
POLYLINE
  8
PLAN_1
 62
     5
  6
CONTINUOUS
 66
     1
 40
0.003000
 41
0.003000
  0
VERTEX
  8
PLAN_1
 62
     5
  6
CONTINUOUS
 10
-0.967346
 20
3.370567
  0
VERTEX
  8
PLAN_1
 62
     5
  6
CONTINUOUS
 10
-0.967346
 20
3.362287
  0
SEQEND
  8
0
  0
POLYLINE
  8
PLAN_1
 62
     5
  6
CONTINUOUS
 66
     1
 40
0.003000
 41
0.003000
  0
VERTEX
  8
PLAN_1
 62
     5
  6
CONTINUOUS
 10
-0.967346
 20
3.354008
  0
VERTEX
  8
PLAN_1
 62
     5
  6
CONTINUOUS
 10
-0.967346
 20
3.345728
  0
SEQEND
  8
0
  0
POLYLINE
  8
PLAN_1
 62
     5
  6
CONTINUOUS
 66
     1
 40
0.003000
 41
0.003000
  0
VERTEX
  8
PLAN_1
 62
     5
  6
CONTINUOUS
 10
-0.967346
 20
3.337449
  0
VERTEX
  8
PLAN_1
 62
     5
  6
CONTINUOUS
 10
-0.967346
 20
3.329169
  0
SEQEND
  8
0
  0
POLYLINE
  8
PLAN_1
 62
     5
  6
CONTINUOUS
 66
     1
 40
0.003000
 41
0.003000
  0
VERTEX
  8
PLAN_1
 62
     5
  6
CONTINUOUS
 10
-0.967346
 20
3.320890
  0
VERTEX
  8
PLAN_1
 62
     5
  6
CONTINUOUS
 10
-0.967346
 20
3.312610
  0
SEQEND
  8
0
  0
POLYLINE
  8
PLAN_1
 62
     5
  6
CONTINUOUS
 66
     1
 40
0.003000
 41
0.003000
  0
VERTEX
  8
PLAN_1
 62
     5
  6
CONTINUOUS
 10
-0.967346
 20
3.304335
  0
VERTEX
  8
PLAN_1
 62
     5
  6
CONTINUOUS
 10
-0.967346
 20
3.295567
  0
SEQEND
  8
0
  0
POLYLINE
  8
PLAN_1
 62
     5
  6
CONTINUOUS
 66
     1
 40
0.003000
 41
0.003000
  0
VERTEX
  8
PLAN_1
 62
     5
  6
CONTINUOUS
 10
-0.967346
 20
3.287287
  0
VERTEX
  8
PLAN_1
 62
     5
  6
CONTINUOUS
 10
-0.967346
 20
3.279008
  0
SEQEND
  8
0
  0
POLYLINE
  8
PLAN_1
 62
     5
  6
CONTINUOUS
 66
     1
 40
0.003000
 41
0.003000
  0
VERTEX
  8
PLAN_1
 62
     5
  6
CONTINUOUS
 10
-0.967346
 20
3.270728
  0
VERTEX
  8
PLAN_1
 62
     5
  6
CONTINUOUS
 10
-0.967346
 20
3.262449
  0
SEQEND
  8
0
  0
POLYLINE
  8
PLAN_1
 62
     5
  6
CONTINUOUS
 66
     1
 40
0.003000
 41
0.003000
  0
VERTEX
  8
PLAN_1
 62
     5
  6
CONTINUOUS
 10
-0.967346
 20
3.254169
  0
VERTEX
  8
PLAN_1
 62
     5
  6
CONTINUOUS
 10
-0.967346
 20
3.245890
  0
SEQEND
  8
0
  0
POLYLINE
  8
PLAN_1
 62
     5
  6
CONTINUOUS
 66
     1
 40
0.003000
 41
0.003000
  0
VERTEX
  8
PLAN_1
 62
     5
  6
CONTINUOUS
 10
-0.967346
 20
3.237614
  0
VERTEX
  8
PLAN_1
 62
     5
  6
CONTINUOUS
 10
-0.967346
 20
3.229335
  0
SEQEND
  8
0
  0
POLYLINE
  8
PLAN_1
 62
     5
  6
CONTINUOUS
 66
     1
 40
0.003000
 41
0.003000
  0
VERTEX
  8
PLAN_1
 62
     5
  6
CONTINUOUS
 10
-0.967346
 20
3.221055
  0
VERTEX
  8
PLAN_1
 62
     5
  6
CONTINUOUS
 10
-0.967346
 20
3.212287
  0
SEQEND
  8
0
  0
POLYLINE
  8
PLAN_1
 62
     5
  6
CONTINUOUS
 66
     1
 40
0.003000
 41
0.003000
  0
VERTEX
  8
PLAN_1
 62
     5
  6
CONTINUOUS
 10
-0.967346
 20
3.204008
  0
VERTEX
  8
PLAN_1
 62
     5
  6
CONTINUOUS
 10
-0.967346
 20
3.195728
  0
SEQEND
  8
0
  0
POLYLINE
  8
PLAN_1
 62
     5
  6
CONTINUOUS
 66
     1
 40
0.003000
 41
0.003000
  0
VERTEX
  8
PLAN_1
 62
     5
  6
CONTINUOUS
 10
-0.967346
 20
3.187449
  0
VERTEX
  8
PLAN_1
 62
     5
  6
CONTINUOUS
 10
-0.967346
 20
3.179169
  0
SEQEND
  8
0
  0
POLYLINE
  8
PLAN_1
 62
     5
  6
CONTINUOUS
 66
     1
 40
0.003000
 41
0.003000
  0
VERTEX
  8
PLAN_1
 62
     5
  6
CONTINUOUS
 10
-0.967346
 20
3.170894
  0
VERTEX
  8
PLAN_1
 62
     5
  6
CONTINUOUS
 10
-0.967346
 20
3.162614
  0
SEQEND
  8
0
  0
POLYLINE
  8
PLAN_1
 62
     5
  6
CONTINUOUS
 66
     1
 40
0.003000
 41
0.003000
  0
VERTEX
  8
PLAN_1
 62
     5
  6
CONTINUOUS
 10
-0.967346
 20
3.154335
  0
VERTEX
  8
PLAN_1
 62
     5
  6
CONTINUOUS
 10
-0.967346
 20
3.146055
  0
SEQEND
  8
0
  0
POLYLINE
  8
PLAN_1
 62
     5
  6
CONTINUOUS
 66
     1
 40
0.003000
 41
0.003000
  0
VERTEX
  8
PLAN_1
 62
     5
  6
CONTINUOUS
 10
-0.967346
 20
3.137776
  0
VERTEX
  8
PLAN_1
 62
     5
  6
CONTINUOUS
 10
-0.967346
 20
3.129008
  0
SEQEND
  8
0
  0
POLYLINE
  8
PLAN_1
 62
     5
  6
CONTINUOUS
 66
     1
 40
0.003000
 41
0.003000
  0
VERTEX
  8
PLAN_1
 62
     5
  6
CONTINUOUS
 10
-0.967346
 20
3.120728
  0
VERTEX
  8
PLAN_1
 62
     5
  6
CONTINUOUS
 10
-0.967346
 20
3.112449
  0
SEQEND
  8
0
  0
POLYLINE
  8
PLAN_1
 62
     5
  6
CONTINUOUS
 66
     1
 40
0.003000
 41
0.003000
  0
VERTEX
  8
PLAN_1
 62
     5
  6
CONTINUOUS
 10
-0.967346
 20
3.104173
  0
VERTEX
  8
PLAN_1
 62
     5
  6
CONTINUOUS
 10
-0.967346
 20
3.095894
  0
SEQEND
  8
0
  0
POLYLINE
  8
PLAN_1
 62
     5
  6
CONTINUOUS
 66
     1
 40
0.003000
 41
0.003000
  0
VERTEX
  8
PLAN_1
 62
     5
  6
CONTINUOUS
 10
-0.967346
 20
3.087614
  0
VERTEX
  8
PLAN_1
 62
     5
  6
CONTINUOUS
 10
-0.967346
 20
3.079335
  0
SEQEND
  8
0
  0
POLYLINE
  8
PLAN_1
 62
     5
  6
CONTINUOUS
 66
     1
 40
0.003000
 41
0.003000
  0
VERTEX
  8
PLAN_1
 62
     5
  6
CONTINUOUS
 10
-0.967346
 20
3.071055
  0
VERTEX
  8
PLAN_1
 62
     5
  6
CONTINUOUS
 10
-0.967346
 20
3.062776
  0
SEQEND
  8
0
  0
POLYLINE
  8
PLAN_1
 62
     5
  6
CONTINUOUS
 66
     1
 40
0.003000
 41
0.003000
  0
VERTEX
  8
PLAN_1
 62
     5
  6
CONTINUOUS
 10
-0.967346
 20
3.054496
  0
VERTEX
  8
PLAN_1
 62
     5
  6
CONTINUOUS
 10
-0.967346
 20
3.045728
  0
SEQEND
  8
0
  0
POLYLINE
  8
PLAN_1
 62
     5
  6
CONTINUOUS
 66
     1
 40
0.003000
 41
0.003000
  0
VERTEX
  8
PLAN_1
 62
     5
  6
CONTINUOUS
 10
-0.967346
 20
3.037449
  0
VERTEX
  8
PLAN_1
 62
     5
  6
CONTINUOUS
 10
-0.967346
 20
3.029173
  0
SEQEND
  8
0
  0
POLYLINE
  8
PLAN_1
 62
     5
  6
CONTINUOUS
 66
     1
 40
0.003000
 41
0.003000
  0
VERTEX
  8
PLAN_1
 62
     5
  6
CONTINUOUS
 10
-0.967346
 20
3.020894
  0
VERTEX
  8
PLAN_1
 62
     5
  6
CONTINUOUS
 10
-0.967346
 20
3.012614
  0
SEQEND
  8
0
  0
POLYLINE
  8
PLAN_1
 62
     5
  6
CONTINUOUS
 66
     1
 40
0.003000
 41
0.003000
  0
VERTEX
  8
PLAN_1
 62
     5
  6
CONTINUOUS
 10
-0.967346
 20
3.004335
  0
VERTEX
  8
PLAN_1
 62
     5
  6
CONTINUOUS
 10
-0.967346
 20
2.996055
  0
SEQEND
  8
0
  0
POLYLINE
  8
PLAN_1
 62
     5
  6
CONTINUOUS
 66
     1
 40
0.003000
 41
0.003000
  0
VERTEX
  8
PLAN_1
 62
     5
  6
CONTINUOUS
 10
-0.967346
 20
2.987776
  0
VERTEX
  8
PLAN_1
 62
     5
  6
CONTINUOUS
 10
-0.967346
 20
2.979496
  0
SEQEND
  8
0
  0
POLYLINE
  8
PLAN_1
 62
     5
  6
CONTINUOUS
 66
     1
 40
0.003000
 41
0.003000
  0
VERTEX
  8
PLAN_1
 62
     5
  6
CONTINUOUS
 10
-0.967346
 20
2.971217
  0
VERTEX
  8
PLAN_1
 62
     5
  6
CONTINUOUS
 10
-0.967346
 20
2.962453
  0
SEQEND
  8
0
  0
POLYLINE
  8
PLAN_1
 62
     5
  6
CONTINUOUS
 66
     1
 40
0.003000
 41
0.003000
  0
VERTEX
  8
PLAN_1
 62
     5
  6
CONTINUOUS
 10
-0.967346
 20
2.954173
  0
VERTEX
  8
PLAN_1
 62
     5
  6
CONTINUOUS
 10
-0.967346
 20
2.945894
  0
SEQEND
  8
0
  0
POLYLINE
  8
PLAN_1
 62
     5
  6
CONTINUOUS
 66
     1
 40
0.003000
 41
0.003000
  0
VERTEX
  8
PLAN_1
 62
     5
  6
CONTINUOUS
 10
-0.967346
 20
2.937614
  0
VERTEX
  8
PLAN_1
 62
     5
  6
CONTINUOUS
 10
-0.967346
 20
2.929335
  0
SEQEND
  8
0
  0
POLYLINE
  8
PLAN_1
 62
     5
  6
CONTINUOUS
 66
     1
 40
0.003000
 41
0.003000
  0
VERTEX
  8
PLAN_1
 62
     5
  6
CONTINUOUS
 10
-0.967346
 20
2.921055
  0
VERTEX
  8
PLAN_1
 62
     5
  6
CONTINUOUS
 10
-0.967346
 20
2.912776
  0
SEQEND
  8
0
  0
POLYLINE
  8
PLAN_1
 62
     5
  6
CONTINUOUS
 66
     1
 40
0.003000
 41
0.003000
  0
VERTEX
  8
PLAN_1
 62
     5
  6
CONTINUOUS
 10
-0.967346
 20
2.904496
  0
VERTEX
  8
PLAN_1
 62
     5
  6
CONTINUOUS
 10
-0.967346
 20
2.896217
  0
SEQEND
  8
0
  0
POLYLINE
  8
PLAN_1
 62
     5
  6
CONTINUOUS
 66
     1
 40
0.003000
 41
0.003000
  0
VERTEX
  8
PLAN_1
 62
     5
  6
CONTINUOUS
 10
-0.967346
 20
2.887937
  0
VERTEX
  8
PLAN_1
 62
     5
  6
CONTINUOUS
 10
-0.967346
 20
2.879173
  0
SEQEND
  8
0
  0
POLYLINE
  8
PLAN_1
 62
     5
  6
CONTINUOUS
 66
     1
 40
0.003000
 41
0.003000
  0
VERTEX
  8
PLAN_1
 62
     5
  6
CONTINUOUS
 10
-0.967346
 20
2.870894
  0
VERTEX
  8
PLAN_1
 62
     5
  6
CONTINUOUS
 10
-0.967346
 20
2.862614
  0
SEQEND
  8
0
  0
POLYLINE
  8
PLAN_1
 62
     5
  6
CONTINUOUS
 66
     1
 40
0.003000
 41
0.003000
  0
VERTEX
  8
PLAN_1
 62
     5
  6
CONTINUOUS
 10
-0.967346
 20
2.854335
  0
VERTEX
  8
PLAN_1
 62
     5
  6
CONTINUOUS
 10
-0.967346
 20
2.847516
  0
SEQEND
  8
0
  0
POLYLINE
  8
PLAN_1
 62
     5
  6
CONTINUOUS
 66
     1
 40
0.003000
 41
0.003000
  0
VERTEX
  8
PLAN_1
 62
     5
  6
CONTINUOUS
 10
-0.967346
 20
2.854335
  0
VERTEX
  8
PLAN_1
 62
     5
  6
CONTINUOUS
 10
-0.967346
 20
2.847516
  0
SEQEND
  8
0
  0
POLYLINE
  8
PLAN_1
  6
CONTINUOUS
 66
     1
 40
0.006815
 41
0.006815
  0
VERTEX
  8
PLAN_1
  6
CONTINUOUS
 10
-1.534228
 20
0.894598
  0
VERTEX
  8
PLAN_1
  6
CONTINUOUS
 10
-1.533740
 20
0.887783
  0
VERTEX
  8
PLAN_1
  6
CONTINUOUS
 10
-1.533256
 20
0.880965
  0
VERTEX
  8
PLAN_1
  6
CONTINUOUS
 10
-1.532768
 20
0.874146
  0
VERTEX
  8
PLAN_1
  6
CONTINUOUS
 10
-1.531307
 20
0.867815
  0
VERTEX
  8
PLAN_1
  6
CONTINUOUS
 10
-1.529846
 20
0.860996
  0
VERTEX
  8
PLAN_1
  6
CONTINUOUS
 10
-1.527898
 20
0.855154
  0
VERTEX
  8
PLAN_1
  6
CONTINUOUS
 10
-1.525949
 20
0.848823
  0
VERTEX
  8
PLAN_1
  6
CONTINUOUS
 10
-1.523516
 20
0.842976
  0
VERTEX
  8
PLAN_1
  6
CONTINUOUS
 10
-1.521079
 20
0.836646
  0
VERTEX
  8
PLAN_1
  6
CONTINUOUS
 10
-1.518157
 20
0.831287
  0
VERTEX
  8
PLAN_1
  6
CONTINUOUS
 10
-1.514748
 20
0.825445
  0
VERTEX
  8
PLAN_1
  6
CONTINUOUS
 10
-1.511339
 20
0.820087
  0
VERTEX
  8
PLAN_1
  6
CONTINUOUS
 10
-1.507929
 20
0.815217
  0
VERTEX
  8
PLAN_1
  6
CONTINUOUS
 10
-1.504035
 20
0.809858
  0
VERTEX
  8
PLAN_1
  6
CONTINUOUS
 10
-1.499650
 20
0.804988
  0
VERTEX
  8
PLAN_1
  6
CONTINUOUS
 10
-1.495268
 20
0.800606
  0
VERTEX
  8
PLAN_1
  6
CONTINUOUS
 10
-1.490398
 20
0.796224
  0
VERTEX
  8
PLAN_1
  6
CONTINUOUS
 10
-1.486016
 20
0.791843
  0
VERTEX
  8
PLAN_1
  6
CONTINUOUS
 10
-1.480657
 20
0.787945
  0
VERTEX
  8
PLAN_1
  6
CONTINUOUS
 10
-1.475787
 20
0.784535
  0
VERTEX
  8
PLAN_1
  6
CONTINUOUS
 10
-1.470429
 20
0.781126
  0
VERTEX
  8
PLAN_1
  6
CONTINUOUS
 10
-1.464587
 20
0.777717
  0
VERTEX
  8
PLAN_1
  6
CONTINUOUS
 10
-1.458744
 20
0.774795
  0
VERTEX
  8
PLAN_1
  6
CONTINUOUS
 10
-1.452898
 20
0.772358
  0
VERTEX
  8
PLAN_1
  6
CONTINUOUS
 10
-1.447055
 20
0.769925
  0
VERTEX
  8
PLAN_1
  6
CONTINUOUS
 10
-1.440724
 20
0.767488
  0
VERTEX
  8
PLAN_1
  6
CONTINUOUS
 10
-1.434390
 20
0.766028
  0
VERTEX
  8
PLAN_1
  6
CONTINUOUS
 10
-1.428059
 20
0.764567
  0
VERTEX
  8
PLAN_1
  6
CONTINUOUS
 10
-1.421728
 20
0.763106
  0
VERTEX
  8
PLAN_1
  6
CONTINUOUS
 10
-1.414909
 20
0.762618
  0
VERTEX
  8
PLAN_1
  6
CONTINUOUS
 10
-1.408094
 20
0.761646
  0
VERTEX
  8
PLAN_1
  6
CONTINUOUS
 10
-1.401276
 20
0.761646
  0
VERTEX
  8
PLAN_1
  6
CONTINUOUS
 10
-1.394457
 20
0.761646
  0
VERTEX
  8
PLAN_1
  6
CONTINUOUS
 10
-1.387638
 20
0.762618
  0
VERTEX
  8
PLAN_1
  6
CONTINUOUS
 10
-1.381307
 20
0.763106
  0
VERTEX
  8
PLAN_1
  6
CONTINUOUS
 10
-1.374488
 20
0.764567
  0
VERTEX
  8
PLAN_1
  6
CONTINUOUS
 10
-1.368157
 20
0.766028
  0
VERTEX
  8
PLAN_1
  6
CONTINUOUS
 10
-1.361827
 20
0.767488
  0
VERTEX
  8
PLAN_1
  6
CONTINUOUS
 10
-1.355984
 20
0.769925
  0
VERTEX
  8
PLAN_1
  6
CONTINUOUS
 10
-1.349654
 20
0.772358
  0
VERTEX
  8
PLAN_1
  6
CONTINUOUS
 10
-1.343807
 20
0.774795
  0
VERTEX
  8
PLAN_1
  6
CONTINUOUS
 10
-1.337965
 20
0.777717
  0
VERTEX
  8
PLAN_1
  6
CONTINUOUS
 10
-1.332606
 20
0.781126
  0
VERTEX
  8
PLAN_1
  6
CONTINUOUS
 10
-1.327248
 20
0.784535
  0
VERTEX
  8
PLAN_1
  6
CONTINUOUS
 10
-1.321894
 20
0.787945
  0
VERTEX
  8
PLAN_1
  6
CONTINUOUS
 10
-1.317024
 20
0.791843
  0
VERTEX
  8
PLAN_1
  6
CONTINUOUS
 10
-1.312154
 20
0.796224
  0
VERTEX
  8
PLAN_1
  6
CONTINUOUS
 10
-1.307768
 20
0.800606
  0
VERTEX
  8
PLAN_1
  6
CONTINUOUS
 10
-1.303386
 20
0.804988
  0
VERTEX
  8
PLAN_1
  6
CONTINUOUS
 10
-1.299004
 20
0.809858
  0
VERTEX
  8
PLAN_1
  6
CONTINUOUS
 10
-1.295106
 20
0.815217
  0
VERTEX
  8
PLAN_1
  6
CONTINUOUS
 10
-1.291209
 20
0.820087
  0
VERTEX
  8
PLAN_1
  6
CONTINUOUS
 10
-1.287803
 20
0.825445
  0
VERTEX
  8
PLAN_1
  6
CONTINUOUS
 10
-1.284878
 20
0.831287
  0
VERTEX
  8
PLAN_1
  6
CONTINUOUS
 10
-1.281957
 20
0.836646
  0
VERTEX
  8
PLAN_1
  6
CONTINUOUS
 10
-1.279035
 20
0.842976
  0
VERTEX
  8
PLAN_1
  6
CONTINUOUS
 10
-1.276598
 20
0.848823
  0
VERTEX
  8
PLAN_1
  6
CONTINUOUS
 10
-1.274654
 20
0.855154
  0
VERTEX
  8
PLAN_1
  6
CONTINUOUS
 10
-1.272705
 20
0.860996
  0
VERTEX
  8
PLAN_1
  6
CONTINUOUS
 10
-1.271244
 20
0.867815
  0
VERTEX
  8
PLAN_1
  6
CONTINUOUS
 10
-1.270268
 20
0.874146
  0
VERTEX
  8
PLAN_1
  6
CONTINUOUS
 10
-1.269295
 20
0.880965
  0
VERTEX
  8
PLAN_1
  6
CONTINUOUS
 10
-1.268807
 20
0.887783
  0
VERTEX
  8
PLAN_1
  6
CONTINUOUS
 10
-1.268807
 20
0.894598
  0
VERTEX
  8
PLAN_1
  6
CONTINUOUS
 10
-1.268807
 20
0.901417
  0
VERTEX
  8
PLAN_1
  6
CONTINUOUS
 10
-1.269295
 20
0.907748
  0
VERTEX
  8
PLAN_1
  6
CONTINUOUS
 10
-1.270268
 20
0.914567
  0
VERTEX
  8
PLAN_1
  6
CONTINUOUS
 10
-1.271244
 20
0.920898
  0
VERTEX
  8
PLAN_1
  6
CONTINUOUS
 10
-1.272705
 20
0.927717
  0
VERTEX
  8
PLAN_1
  6
CONTINUOUS
 10
-1.274654
 20
0.934047
  0
VERTEX
  8
PLAN_1
  6
CONTINUOUS
 10
-1.276598
 20
0.939894
  0
VERTEX
  8
PLAN_1
  6
CONTINUOUS
 10
-1.279035
 20
0.946224
  0
VERTEX
  8
PLAN_1
  6
CONTINUOUS
 10
-1.281957
 20
0.952067
  0
VERTEX
  8
PLAN_1
  6
CONTINUOUS
 10
-1.284878
 20
0.957425
  0
VERTEX
  8
PLAN_1
  6
CONTINUOUS
 10
-1.287803
 20
0.963268
  0
VERTEX
  8
PLAN_1
  6
CONTINUOUS
 10
-1.291209
 20
0.968626
  0
VERTEX
  8
PLAN_1
  6
CONTINUOUS
 10
-1.295106
 20
0.973984
  0
VERTEX
  8
PLAN_1
  6
CONTINUOUS
 10
-1.299004
 20
0.978854
  0
VERTEX
  8
PLAN_1
  6
CONTINUOUS
 10
-1.303386
 20
0.983724
  0
VERTEX
  8
PLAN_1
  6
CONTINUOUS
 10
-1.307768
 20
0.988106
  0
VERTEX
  8
PLAN_1
  6
CONTINUOUS
 10
-1.312154
 20
0.992488
  0
VERTEX
  8
PLAN_1
  6
CONTINUOUS
 10
-1.317024
 20
0.996874
  0
VERTEX
  8
PLAN_1
  6
CONTINUOUS
 10
-1.321894
 20
1.000768
  0
VERTEX
  8
PLAN_1
  6
CONTINUOUS
 10
-1.327248
 20
1.004665
  0
VERTEX
  8
PLAN_1
  6
CONTINUOUS
 10
-1.332606
 20
1.008075
  0
VERTEX
  8
PLAN_1
  6
CONTINUOUS
 10
-1.337965
 20
1.010996
  0
VERTEX
  8
PLAN_1
  6
CONTINUOUS
 10
-1.343807
 20
1.013917
  0
VERTEX
  8
PLAN_1
  6
CONTINUOUS
 10
-1.349654
 20
1.016839
  0
VERTEX
  8
PLAN_1
  6
CONTINUOUS
 10
-1.355984
 20
1.019276
  0
VERTEX
  8
PLAN_1
  6
CONTINUOUS
 10
-1.361827
 20
1.021224
  0
VERTEX
  8
PLAN_1
  6
CONTINUOUS
 10
-1.368157
 20
1.022685
  0
VERTEX
  8
PLAN_1
  6
CONTINUOUS
 10
-1.374488
 20
1.024634
  0
VERTEX
  8
PLAN_1
  6
CONTINUOUS
 10
-1.381307
 20
1.025606
  0
VERTEX
  8
PLAN_1
  6
CONTINUOUS
 10
-1.387638
 20
1.026579
  0
VERTEX
  8
PLAN_1
  6
CONTINUOUS
 10
-1.394457
 20
1.027067
  0
VERTEX
  8
PLAN_1
  6
CONTINUOUS
 10
-1.401276
 20
1.027067
  0
VERTEX
  8
PLAN_1
  6
CONTINUOUS
 10
-1.408094
 20
1.027067
  0
VERTEX
  8
PLAN_1
  6
CONTINUOUS
 10
-1.414909
 20
1.026579
  0
VERTEX
  8
PLAN_1
  6
CONTINUOUS
 10
-1.421728
 20
1.025606
  0
VERTEX
  8
PLAN_1
  6
CONTINUOUS
 10
-1.428059
 20
1.024634
  0
VERTEX
  8
PLAN_1
  6
CONTINUOUS
 10
-1.434390
 20
1.022685
  0
VERTEX
  8
PLAN_1
  6
CONTINUOUS
 10
-1.440724
 20
1.021224
  0
VERTEX
  8
PLAN_1
  6
CONTINUOUS
 10
-1.447055
 20
1.019276
  0
VERTEX
  8
PLAN_1
  6
CONTINUOUS
 10
-1.452898
 20
1.016839
  0
VERTEX
  8
PLAN_1
  6
CONTINUOUS
 10
-1.458744
 20
1.013917
  0
VERTEX
  8
PLAN_1
  6
CONTINUOUS
 10
-1.464587
 20
1.010996
  0
VERTEX
  8
PLAN_1
  6
CONTINUOUS
 10
-1.470429
 20
1.008075
  0
VERTEX
  8
PLAN_1
  6
CONTINUOUS
 10
-1.475787
 20
1.004665
  0
VERTEX
  8
PLAN_1
  6
CONTINUOUS
 10
-1.480657
 20
1.000768
  0
VERTEX
  8
PLAN_1
  6
CONTINUOUS
 10
-1.486016
 20
0.996874
  0
VERTEX
  8
PLAN_1
  6
CONTINUOUS
 10
-1.490398
 20
0.992488
  0
VERTEX
  8
PLAN_1
  6
CONTINUOUS
 10
-1.495268
 20
0.988106
  0
VERTEX
  8
PLAN_1
  6
CONTINUOUS
 10
-1.499650
 20
0.983724
  0
VERTEX
  8
PLAN_1
  6
CONTINUOUS
 10
-1.504035
 20
0.978854
  0
VERTEX
  8
PLAN_1
  6
CONTINUOUS
 10
-1.507929
 20
0.973984
  0
VERTEX
  8
PLAN_1
  6
CONTINUOUS
 10
-1.511339
 20
0.968626
  0
VERTEX
  8
PLAN_1
  6
CONTINUOUS
 10
-1.514748
 20
0.963268
  0
VERTEX
  8
PLAN_1
  6
CONTINUOUS
 10
-1.518157
 20
0.957425
  0
VERTEX
  8
PLAN_1
  6
CONTINUOUS
 10
-1.521079
 20
0.952067
  0
VERTEX
  8
PLAN_1
  6
CONTINUOUS
 10
-1.523516
 20
0.946224
  0
VERTEX
  8
PLAN_1
  6
CONTINUOUS
 10
-1.525949
 20
0.939894
  0
VERTEX
  8
PLAN_1
  6
CONTINUOUS
 10
-1.527898
 20
0.934047
  0
VERTEX
  8
PLAN_1
  6
CONTINUOUS
 10
-1.529846
 20
0.927717
  0
VERTEX
  8
PLAN_1
  6
CONTINUOUS
 10
-1.531307
 20
0.920898
  0
VERTEX
  8
PLAN_1
  6
CONTINUOUS
 10
-1.532768
 20
0.914567
  0
VERTEX
  8
PLAN_1
  6
CONTINUOUS
 10
-1.533256
 20
0.907748
  0
VERTEX
  8
PLAN_1
  6
CONTINUOUS
 10
-1.533740
 20
0.901417
  0
VERTEX
  8
PLAN_1
  6
CONTINUOUS
 10
-1.534228
 20
0.894598
  0
SEQEND
  8
0
  0
POLYLINE
  8
PLAN_1
  6
CONTINUOUS
 66
     1
 40
0.006815
 41
0.006815
  0
VERTEX
  8
PLAN_1
  6
CONTINUOUS
 10
-0.759394
 20
1.273496
  0
VERTEX
  8
PLAN_1
  6
CONTINUOUS
 10
-0.852902
 20
1.273496
  0
SEQEND
  8
0
  0
POLYLINE
  8
PLAN_1
  6
CONTINUOUS
 66
     1
 40
0.006815
 41
0.006815
  0
VERTEX
  8
PLAN_1
  6
CONTINUOUS
 10
-1.552736
 20
1.397681
  0
VERTEX
  8
PLAN_1
  6
CONTINUOUS
 10
-1.552736
 20
1.273496
  0
VERTEX
  8
PLAN_1
  6
CONTINUOUS
 10
-1.861016
 20
1.273496
  0
SEQEND
  8
0
  0
POLYLINE
  8
PLAN_1
  6
CONTINUOUS
 66
     1
 40
0.008276
 41
0.008276
  0
VERTEX
  8
PLAN_1
  6
CONTINUOUS
 10
-0.854846
 20
0.262945
  0
VERTEX
  8
PLAN_1
  6
CONTINUOUS
 10
-0.854362
 20
0.262945
  0
VERTEX
  8
PLAN_1
  6
CONTINUOUS
 10
-0.853874
 20
0.262945
  0
VERTEX
  8
PLAN_1
  6
CONTINUOUS
 10
-0.853386
 20
0.262945
  0
VERTEX
  8
PLAN_1
  6
CONTINUOUS
 10
-0.852902
 20
0.262945
  0
VERTEX
  8
PLAN_1
  6
CONTINUOUS
 10
-0.852413
 20
0.262945
  0
VERTEX
  8
PLAN_1
  6
CONTINUOUS
 10
-0.851925
 20
0.262945
  0
VERTEX
  8
PLAN_1
  6
CONTINUOUS
 10
-0.851437
 20
0.262945
  0
SEQEND
  8
0
  0
POLYLINE
  8
PLAN_1
  6
CONTINUOUS
 66
     1
 40
0.008276
 41
0.008276
  0
VERTEX
  8
PLAN_1
  6
CONTINUOUS
 10
-1.795268
 20
0.323823
  0
VERTEX
  8
PLAN_1
  6
CONTINUOUS
 10
-1.795756
 20
0.321386
  0
VERTEX
  8
PLAN_1
  6
CONTINUOUS
 10
-1.797701
 20
0.314571
  0
VERTEX
  8
PLAN_1
  6
CONTINUOUS
 10
-1.798677
 20
0.309701
  0
VERTEX
  8
PLAN_1
  6
CONTINUOUS
 10
-1.799650
 20
0.304343
  0
VERTEX
  8
PLAN_1
  6
CONTINUOUS
 10
-1.799650
 20
0.298984
  0
VERTEX
  8
PLAN_1
  6
CONTINUOUS
 10
-1.799650
 20
0.293142
  0
VERTEX
  8
PLAN_1
  6
CONTINUOUS
 10
-1.799161
 20
0.287783
  0
VERTEX
  8
PLAN_1
  6
CONTINUOUS
 10
-1.797701
 20
0.282425
  0
VERTEX
  8
PLAN_1
  6
CONTINUOUS
 10
-1.796728
 20
0.279504
  0
VERTEX
  8
PLAN_1
  6
CONTINUOUS
 10
-1.795268
 20
0.277071
  0
VERTEX
  8
PLAN_1
  6
CONTINUOUS
 10
-1.793807
 20
0.274634
  0
VERTEX
  8
PLAN_1
  6
CONTINUOUS
 10
-1.791858
 20
0.272201
  0
VERTEX
  8
PLAN_1
  6
CONTINUOUS
 10
-1.789421
 20
0.270252
  0
VERTEX
  8
PLAN_1
  6
CONTINUOUS
 10
-1.786988
 20
0.268303
  0
VERTEX
  8
PLAN_1
  6
CONTINUOUS
 10
-1.784067
 20
0.266843
  0
VERTEX
  8
PLAN_1
  6
CONTINUOUS
 10
-1.781146
 20
0.265382
  0
VERTEX
  8
PLAN_1
  6
CONTINUOUS
 10
-1.777736
 20
0.264406
  0
VERTEX
  8
PLAN_1
  6
CONTINUOUS
 10
-1.773350
 20
0.263433
  0
VERTEX
  8
PLAN_1
  6
CONTINUOUS
 10
-1.768969
 20
0.262945
  0
VERTEX
  8
PLAN_1
  6
CONTINUOUS
 10
-1.764587
 20
0.262945
  0
SEQEND
  8
0
  0
POLYLINE
  8
PLAN_1
  6
CONTINUOUS
 66
     1
 40
0.008276
 41
0.008276
  0
VERTEX
  8
PLAN_1
  6
CONTINUOUS
 10
-0.851437
 20
0.262945
  0
VERTEX
  8
PLAN_1
  6
CONTINUOUS
 10
-0.847543
 20
0.263433
  0
VERTEX
  8
PLAN_1
  6
CONTINUOUS
 10
-0.843646
 20
0.263921
  0
VERTEX
  8
PLAN_1
  6
CONTINUOUS
 10
-0.840236
 20
0.264894
  0
VERTEX
  8
PLAN_1
  6
CONTINUOUS
 10
-0.836827
 20
0.266354
  0
VERTEX
  8
PLAN_1
  6
CONTINUOUS
 10
-0.833906
 20
0.267815
  0
VERTEX
  8
PLAN_1
  6
CONTINUOUS
 10
-0.830984
 20
0.269764
  0
VERTEX
  8
PLAN_1
  6
CONTINUOUS
 10
-0.828551
 20
0.271713
  0
VERTEX
  8
PLAN_1
  6
CONTINUOUS
 10
-0.826602
 20
0.273661
  0
VERTEX
  8
PLAN_1
  6
CONTINUOUS
 10
-0.822705
 20
0.278043
  0
VERTEX
  8
PLAN_1
  6
CONTINUOUS
 10
-0.819783
 20
0.283402
  0
VERTEX
  8
PLAN_1
  6
CONTINUOUS
 10
-0.817835
 20
0.288756
  0
VERTEX
  8
PLAN_1
  6
CONTINUOUS
 10
-0.816374
 20
0.294602
  0
VERTEX
  8
PLAN_1
  6
CONTINUOUS
 10
-0.814913
 20
0.299961
  0
VERTEX
  8
PLAN_1
  6
CONTINUOUS
 10
-0.814425
 20
0.305315
  0
VERTEX
  8
PLAN_1
  6
CONTINUOUS
 10
-0.814425
 20
0.310185
  0
VERTEX
  8
PLAN_1
  6
CONTINUOUS
 10
-0.814425
 20
0.314571
  0
VERTEX
  8
PLAN_1
  6
CONTINUOUS
 10
-0.814913
 20
0.321386
  0
VERTEX
  8
PLAN_1
  6
CONTINUOUS
 10
-0.814913
 20
0.323823
  0
SEQEND
  8
0
  0
POLYLINE
  8
PLAN_1
  6
CONTINUOUS
 66
     1
 40
0.008276
 41
0.008276
  0
VERTEX
  8
PLAN_1
  6
CONTINUOUS
 10
-1.096406
 20
0.262945
  0
VERTEX
  8
PLAN_1
  6
CONTINUOUS
 10
-1.716370
 20
0.262945
  0
VERTEX
  8
PLAN_1
  6
CONTINUOUS
 10
-1.716370
 20
-0.063839
  0
VERTEX
  8
PLAN_1
  6
CONTINUOUS
 10
-1.673516
 20
-0.063839
  0
VERTEX
  8
PLAN_1
  6
CONTINUOUS
 10
-1.673516
 20
-0.109130
  0
VERTEX
  8
PLAN_1
  6
CONTINUOUS
 10
-1.625787
 20
-0.109130
  0
VERTEX
  8
PLAN_1
  6
CONTINUOUS
 10
-1.625787
 20
-0.063839
  0
VERTEX
  8
PLAN_1
  6
CONTINUOUS
 10
-1.096894
 20
-0.063839
  0
SEQEND
  8
0
  0
POLYLINE
  8
PLAN_1
  6
CONTINUOUS
 66
     1
 40
0.008276
 41
0.008276
  0
VERTEX
  8
PLAN_1
  6
CONTINUOUS
 10
-0.850465
 20
1.397681
  0
VERTEX
  8
PLAN_1
  6
CONTINUOUS
 10
-0.759394
 20
1.397681
  0
VERTEX
  8
PLAN_1
  6
CONTINUOUS
 10
-0.759394
 20
0.323823
  0
VERTEX
  8
PLAN_1
  6
CONTINUOUS
 10
-0.851437
 20
0.323823
  0
SEQEND
  8
0
  0
POLYLINE
  8
PLAN_1
  6
CONTINUOUS
 66
     1
 40
0.008276
 41
0.008276
  0
VERTEX
  8
PLAN_1
  6
CONTINUOUS
 10
-1.096894
 20
0.323823
  0
VERTEX
  8
PLAN_1
  6
CONTINUOUS
 10
-1.860528
 20
0.323823
  0
VERTEX
  8
PLAN_1
  6
CONTINUOUS
 10
-1.860528
 20
1.397681
  0
VERTEX
  8
PLAN_1
  6
CONTINUOUS
 10
-1.095433
 20
1.397681
  0
SEQEND
  8
0
  0
POLYLINE
  8
PLAN_1
  6
CONTINUOUS
 66
     1
 40
0.005354
 41
0.005354
  0
VERTEX
  8
PLAN_1
  6
CONTINUOUS
 10
-1.328709
 20
-0.440783
  0
VERTEX
  8
PLAN_1
  6
CONTINUOUS
 10
-1.074004
 20
-0.395492
  0
VERTEX
  8
PLAN_1
  6
CONTINUOUS
 10
-1.061343
 20
-0.393547
  0
SEQEND
  8
0
  0
POLYLINE
  8
PLAN_1
  6
CONTINUOUS
 66
     1
 40
0.005354
 41
0.005354
  0
VERTEX
  8
PLAN_1
  6
CONTINUOUS
 10
-1.061343
 20
-0.393547
  0
VERTEX
  8
PLAN_1
  6
CONTINUOUS
 10
-1.057445
 20
-0.392571
  0
VERTEX
  8
PLAN_1
  6
CONTINUOUS
 10
-1.054035
 20
-0.390622
  0
VERTEX
  8
PLAN_1
  6
CONTINUOUS
 10
-1.050626
 20
-0.388189
  0
VERTEX
  8
PLAN_1
  6
CONTINUOUS
 10
-1.048193
 20
-0.385268
  0
VERTEX
  8
PLAN_1
  6
CONTINUOUS
 10
-1.046244
 20
-0.381858
  0
VERTEX
  8
PLAN_1
  6
CONTINUOUS
 10
-1.045268
 20
-0.377961
  0
VERTEX
  8
PLAN_1
  6
CONTINUOUS
 10
-1.044783
 20
-0.374063
  0
VERTEX
  8
PLAN_1
  6
CONTINUOUS
 10
-1.044783
 20
-0.369681
  0
VERTEX
  8
PLAN_1
  6
CONTINUOUS
 10
-1.045756
 20
-0.365787
  0
VERTEX
  8
PLAN_1
  6
CONTINUOUS
 10
-1.047705
 20
-0.362378
  0
VERTEX
  8
PLAN_1
  6
CONTINUOUS
 10
-1.050138
 20
-0.358969
  0
VERTEX
  8
PLAN_1
  6
CONTINUOUS
 10
-1.053063
 20
-0.356531
  0
VERTEX
  8
PLAN_1
  6
CONTINUOUS
 10
-1.056472
 20
-0.354583
  0
VERTEX
  8
PLAN_1
  6
CONTINUOUS
 10
-1.060366
 20
-0.353610
  0
VERTEX
  8
PLAN_1
  6
CONTINUOUS
 10
-1.064264
 20
-0.353122
  0
VERTEX
  8
PLAN_1
  6
CONTINUOUS
 10
-1.068646
 20
-0.353122
  0
SEQEND
  8
0
  0
POLYLINE
  8
PLAN_1
  6
CONTINUOUS
 66
     1
 40
0.005354
 41
0.005354
  0
VERTEX
  8
PLAN_1
  6
CONTINUOUS
 10
-1.068646
 20
-0.353122
  0
VERTEX
  8
PLAN_1
  6
CONTINUOUS
 10
-1.081307
 20
-0.355559
  0
VERTEX
  8
PLAN_1
  6
CONTINUOUS
 10
-1.561500
 20
-0.440299
  0
VERTEX
  8
PLAN_1
  6
CONTINUOUS
 10
-1.569780
 20
-0.441760
  0
SEQEND
  8
0
  0
POLYLINE
  8
PLAN_1
  6
CONTINUOUS
 66
     1
 40
0.005354
 41
0.005354
  0
VERTEX
  8
PLAN_1
  6
CONTINUOUS
 10
-1.569780
 20
-0.441760
  0
VERTEX
  8
PLAN_1
  6
CONTINUOUS
 10
-1.573677
 20
-0.442732
  0
VERTEX
  8
PLAN_1
  6
CONTINUOUS
 10
-1.577087
 20
-0.444681
  0
VERTEX
  8
PLAN_1
  6
CONTINUOUS
 10
-1.580496
 20
-0.447118
  0
VERTEX
  8
PLAN_1
  6
CONTINUOUS
 10
-1.582929
 20
-0.450039
  0
VERTEX
  8
PLAN_1
  6
CONTINUOUS
 10
-1.584878
 20
-0.453449
  0
VERTEX
  8
PLAN_1
  6
CONTINUOUS
 10
-1.585850
 20
-0.457343
  0
VERTEX
  8
PLAN_1
  6
CONTINUOUS
 10
-1.586339
 20
-0.461240
  0
VERTEX
  8
PLAN_1
  6
CONTINUOUS
 10
-1.586339
 20
-0.465622
  0
VERTEX
  8
PLAN_1
  6
CONTINUOUS
 10
-1.585366
 20
-0.469520
  0
VERTEX
  8
PLAN_1
  6
CONTINUOUS
 10
-1.583417
 20
-0.472929
  0
VERTEX
  8
PLAN_1
  6
CONTINUOUS
 10
-1.580980
 20
-0.476339
  0
VERTEX
  8
PLAN_1
  6
CONTINUOUS
 10
-1.578059
 20
-0.478772
  0
VERTEX
  8
PLAN_1
  6
CONTINUOUS
 10
-1.574650
 20
-0.480720
  0
VERTEX
  8
PLAN_1
  6
CONTINUOUS
 10
-1.570756
 20
-0.481693
  0
VERTEX
  8
PLAN_1
  6
CONTINUOUS
 10
-1.566858
 20
-0.482181
  0
VERTEX
  8
PLAN_1
  6
CONTINUOUS
 10
-1.562476
 20
-0.482181
  0
SEQEND
  8
0
  0
POLYLINE
  8
PLAN_1
  6
CONTINUOUS
 66
     1
 40
0.005354
 41
0.005354
  0
VERTEX
  8
PLAN_1
  6
CONTINUOUS
 10
-1.185528
 20
-0.372602
  0
VERTEX
  8
PLAN_1
  6
CONTINUOUS
 10
-1.561500
 20
-0.306370
  0
VERTEX
  8
PLAN_1
  6
CONTINUOUS
 10
-1.569780
 20
-0.304909
  0
SEQEND
  8
0
  0
POLYLINE
  8
PLAN_1
  6
CONTINUOUS
 66
     1
 40
0.005354
 41
0.005354
  0
VERTEX
  8
PLAN_1
  6
CONTINUOUS
 10
-1.569780
 20
-0.304909
  0
VERTEX
  8
PLAN_1
  6
CONTINUOUS
 10
-1.573677
 20
-0.303937
  0
VERTEX
  8
PLAN_1
  6
CONTINUOUS
 10
-1.577087
 20
-0.301988
  0
VERTEX
  8
PLAN_1
  6
CONTINUOUS
 10
-1.580008
 20
-0.299551
  0
VERTEX
  8
PLAN_1
  6
CONTINUOUS
 10
-1.582929
 20
-0.296630
  0
VERTEX
  8
PLAN_1
  6
CONTINUOUS
 10
-1.584878
 20
-0.293220
  0
VERTEX
  8
PLAN_1
  6
CONTINUOUS
 10
-1.585850
 20
-0.289327
  0
VERTEX
  8
PLAN_1
  6
CONTINUOUS
 10
-1.586339
 20
-0.285429
  0
VERTEX
  8
PLAN_1
  6
CONTINUOUS
 10
-1.586339
 20
-0.281047
  0
VERTEX
  8
PLAN_1
  6
CONTINUOUS
 10
-1.584878
 20
-0.277150
  0
VERTEX
  8
PLAN_1
  6
CONTINUOUS
 10
-1.582929
 20
-0.273740
  0
VERTEX
  8
PLAN_1
  6
CONTINUOUS
 10
-1.580496
 20
-0.270331
  0
VERTEX
  8
PLAN_1
  6
CONTINUOUS
 10
-1.577575
 20
-0.267898
  0
VERTEX
  8
PLAN_1
  6
CONTINUOUS
 10
-1.574165
 20
-0.265949
  0
VERTEX
  8
PLAN_1
  6
CONTINUOUS
 10
-1.570756
 20
-0.264972
  0
VERTEX
  8
PLAN_1
  6
CONTINUOUS
 10
-1.566370
 20
-0.264488
  0
VERTEX
  8
PLAN_1
  6
CONTINUOUS
 10
-1.562476
 20
-0.264488
  0
SEQEND
  8
0
  0
POLYLINE
  8
PLAN_1
  6
CONTINUOUS
 66
     1
 40
0.005354
 41
0.005354
  0
VERTEX
  8
PLAN_1
  6
CONTINUOUS
 10
-1.451925
 20
-0.283969
  0
VERTEX
  8
PLAN_1
  6
CONTINUOUS
 10
-1.074004
 20
-0.351177
  0
VERTEX
  8
PLAN_1
  6
CONTINUOUS
 10
-1.061343
 20
-0.353122
  0
SEQEND
  8
0
  0
POLYLINE
  8
PLAN_1
  6
CONTINUOUS
 66
     1
 40
0.005354
 41
0.005354
  0
VERTEX
  8
PLAN_1
  6
CONTINUOUS
 10
-1.061343
 20
-0.353122
  0
VERTEX
  8
PLAN_1
  6
CONTINUOUS
 10
-1.057445
 20
-0.354098
  0
VERTEX
  8
PLAN_1
  6
CONTINUOUS
 10
-1.053547
 20
-0.356047
  0
VERTEX
  8
PLAN_1
  6
CONTINUOUS
 10
-1.050626
 20
-0.358480
  0
VERTEX
  8
PLAN_1
  6
CONTINUOUS
 10
-1.048193
 20
-0.361402
  0
VERTEX
  8
PLAN_1
  6
CONTINUOUS
 10
-1.046244
 20
-0.364811
  0
VERTEX
  8
PLAN_1
  6
CONTINUOUS
 10
-1.044783
 20
-0.368709
  0
VERTEX
  8
PLAN_1
  6
CONTINUOUS
 10
-1.044295
 20
-0.372602
  0
VERTEX
  8
PLAN_1
  6
CONTINUOUS
 10
-1.044783
 20
-0.376988
  0
VERTEX
  8
PLAN_1
  6
CONTINUOUS
 10
-1.045756
 20
-0.380882
  0
VERTEX
  8
PLAN_1
  6
CONTINUOUS
 10
-1.047705
 20
-0.384291
  0
VERTEX
  8
PLAN_1
  6
CONTINUOUS
 10
-1.050138
 20
-0.387701
  0
VERTEX
  8
PLAN_1
  6
CONTINUOUS
 10
-1.053063
 20
-0.390138
  0
VERTEX
  8
PLAN_1
  6
CONTINUOUS
 10
-1.056472
 20
-0.392083
  0
VERTEX
  8
PLAN_1
  6
CONTINUOUS
 10
-1.060366
 20
-0.393059
  0
VERTEX
  8
PLAN_1
  6
CONTINUOUS
 10
-1.064264
 20
-0.393547
  0
VERTEX
  8
PLAN_1
  6
CONTINUOUS
 10
-1.068157
 20
-0.393547
  0
SEQEND
  8
0
  0
POLYLINE
  8
PLAN_1
  6
CONTINUOUS
 66
     1
 40
0.005354
 41
0.005354
  0
VERTEX
  8
PLAN_1
  6
CONTINUOUS
 10
-1.182118
 20
-0.195331
  0
VERTEX
  8
PLAN_1
  6
CONTINUOUS
 10
-1.561500
 20
-0.128126
  0
VERTEX
  8
PLAN_1
  6
CONTINUOUS
 10
-1.569295
 20
-0.126661
  0
SEQEND
  8
0
  0
POLYLINE
  8
PLAN_1
  6
CONTINUOUS
 66
     1
 40
0.005354
 41
0.005354
  0
VERTEX
  8
PLAN_1
  6
CONTINUOUS
 10
-1.569295
 20
-0.126661
  0
VERTEX
  8
PLAN_1
  6
CONTINUOUS
 10
-1.573677
 20
-0.125689
  0
VERTEX
  8
PLAN_1
  6
CONTINUOUS
 10
-1.577087
 20
-0.123740
  0
VERTEX
  8
PLAN_1
  6
CONTINUOUS
 10
-1.580008
 20
-0.121307
  0
VERTEX
  8
PLAN_1
  6
CONTINUOUS
 10
-1.582929
 20
-0.118382
  0
VERTEX
  8
PLAN_1
  6
CONTINUOUS
 10
-1.584390
 20
-0.114976
  0
VERTEX
  8
PLAN_1
  6
CONTINUOUS
 10
-1.585850
 20
-0.111079
  0
VERTEX
  8
PLAN_1
  6
CONTINUOUS
 10
-1.586339
 20
-0.107181
  0
VERTEX
  8
PLAN_1
  6
CONTINUOUS
 10
-1.585850
 20
-0.103287
  0
VERTEX
  8
PLAN_1
  6
CONTINUOUS
 10
-1.584878
 20
-0.099390
  0
VERTEX
  8
PLAN_1
  6
CONTINUOUS
 10
-1.582929
 20
-0.095496
  0
VERTEX
  8
PLAN_1
  6
CONTINUOUS
 10
-1.580496
 20
-0.092571
  0
VERTEX
  8
PLAN_1
  6
CONTINUOUS
 10
-1.577575
 20
-0.090138
  0
VERTEX
  8
PLAN_1
  6
CONTINUOUS
 10
-1.574165
 20
-0.088189
  0
VERTEX
  8
PLAN_1
  6
CONTINUOUS
 10
-1.570756
 20
-0.086728
  0
VERTEX
  8
PLAN_1
  6
CONTINUOUS
 10
-1.566370
 20
-0.086240
  0
VERTEX
  8
PLAN_1
  6
CONTINUOUS
 10
-1.562476
 20
-0.086728
  0
SEQEND
  8
0
  0
POLYLINE
  8
PLAN_1
  6
CONTINUOUS
 66
     1
 40
0.005354
 41
0.005354
  0
VERTEX
  8
PLAN_1
  6
CONTINUOUS
 10
-1.449488
 20
-0.106697
  0
VERTEX
  8
PLAN_1
  6
CONTINUOUS
 10
-1.074004
 20
-0.172929
  0
VERTEX
  8
PLAN_1
  6
CONTINUOUS
 10
-1.061343
 20
-0.175362
  0
SEQEND
  8
0
  0
POLYLINE
  8
PLAN_1
  6
CONTINUOUS
 66
     1
 40
0.005354
 41
0.005354
  0
VERTEX
  8
PLAN_1
  6
CONTINUOUS
 10
-1.061343
 20
-0.175362
  0
VERTEX
  8
PLAN_1
  6
CONTINUOUS
 10
-1.057445
 20
-0.176339
  0
VERTEX
  8
PLAN_1
  6
CONTINUOUS
 10
-1.053547
 20
-0.178287
  0
VERTEX
  8
PLAN_1
  6
CONTINUOUS
 10
-1.050626
 20
-0.180720
  0
VERTEX
  8
PLAN_1
  6
CONTINUOUS
 10
-1.048193
 20
-0.183642
  0
VERTEX
  8
PLAN_1
  6
CONTINUOUS
 10
-1.046244
 20
-0.187051
  0
VERTEX
  8
PLAN_1
  6
CONTINUOUS
 10
-1.044783
 20
-0.190461
  0
VERTEX
  8
PLAN_1
  6
CONTINUOUS
 10
-1.044295
 20
-0.194846
  0
VERTEX
  8
PLAN_1
  6
CONTINUOUS
 10
-1.044783
 20
-0.198740
  0
VERTEX
  8
PLAN_1
  6
CONTINUOUS
 10
-1.045756
 20
-0.202638
  0
VERTEX
  8
PLAN_1
  6
CONTINUOUS
 10
-1.047705
 20
-0.206531
  0
VERTEX
  8
PLAN_1
  6
CONTINUOUS
 10
-1.050138
 20
-0.209457
  0
VERTEX
  8
PLAN_1
  6
CONTINUOUS
 10
-1.053063
 20
-0.211890
  0
VERTEX
  8
PLAN_1
  6
CONTINUOUS
 10
-1.056472
 20
-0.213839
  0
VERTEX
  8
PLAN_1
  6
CONTINUOUS
 10
-1.060366
 20
-0.215299
  0
VERTEX
  8
PLAN_1
  6
CONTINUOUS
 10
-1.064264
 20
-0.215787
  0
VERTEX
  8
PLAN_1
  6
CONTINUOUS
 10
-1.068157
 20
-0.215299
  0
SEQEND
  8
0
  0
POLYLINE
  8
PLAN_1
 62
     2
  6
CONTINUOUS
 66
     1
 40
0.004382
 41
0.004382
  0
VERTEX
  8
PLAN_1
 62
     2
  6
CONTINUOUS
 10
-1.884878
 20
3.801087
  0
VERTEX
  8
PLAN_1
 62
     2
  6
CONTINUOUS
 10
-1.000465
 20
3.801087
  0
SEQEND
  8
0
  0
SOLID
  8
PLAN_1
 62
     2
 10
-0.970756
 20
3.801087
 11
-1.030173
 21
3.817157
 12
-0.970756
 22
3.801087
 13
-1.030173
 23
3.785500
  0
POLYLINE
  8
PLAN_1
 62
     2
  6
CONTINUOUS
 66
     1
 40
0.003000
 41
0.003000
  0
VERTEX
  8
PLAN_1
 62
     2
  6
CONTINUOUS
 10
-0.970756
 20
3.801087
  0
VERTEX
  8
PLAN_1
 62
     2
  6
CONTINUOUS
 10
-1.030173
 20
3.817157
  0
VERTEX
  8
PLAN_1
 62
     2
  6
CONTINUOUS
 10
-1.030173
 20
3.785500
  0
VERTEX
  8
PLAN_1
 62
     2
  6
CONTINUOUS
 10
-0.970756
 20
3.801087
  0
SEQEND
  8
0
  0
SOLID
  8
PLAN_1
 62
     2
 10
-1.914587
 20
3.801087
 11
-1.855169
 21
3.817157
 12
-1.914587
 22
3.801087
 13
-1.855169
 23
3.785500
  0
POLYLINE
  8
PLAN_1
 62
     2
  6
CONTINUOUS
 66
     1
 40
0.003000
 41
0.003000
  0
VERTEX
  8
PLAN_1
 62
     2
  6
CONTINUOUS
 10
-1.914587
 20
3.801087
  0
VERTEX
  8
PLAN_1
 62
     2
  6
CONTINUOUS
 10
-1.855169
 20
3.817157
  0
VERTEX
  8
PLAN_1
 62
     2
  6
CONTINUOUS
 10
-1.855169
 20
3.785500
  0
VERTEX
  8
PLAN_1
 62
     2
  6
CONTINUOUS
 10
-1.914587
 20
3.801087
  0
SEQEND
  8
0
  0
POLYLINE
  8
PLAN_1
 62
     2
  6
CONTINUOUS
 66
     1
 40
0.003000
 41
0.003000
  0
VERTEX
  8
PLAN_1
 62
     2
  6
CONTINUOUS
 10
-1.495756
 20
3.871701
  0
VERTEX
  8
PLAN_1
 62
     2
  6
CONTINUOUS
 10
-1.495756
 20
3.876083
  0
VERTEX
  8
PLAN_1
 62
     2
  6
CONTINUOUS
 10
-1.495268
 20
3.879980
  0
VERTEX
  8
PLAN_1
 62
     2
  6
CONTINUOUS
 10
-1.494295
 20
3.882902
  0
VERTEX
  8
PLAN_1
 62
     2
  6
CONTINUOUS
 10
-1.493319
 20
3.885823
  0
VERTEX
  8
PLAN_1
 62
     2
  6
CONTINUOUS
 10
-1.491858
 20
3.888260
  0
VERTEX
  8
PLAN_1
 62
     2
  6
CONTINUOUS
 10
-1.489909
 20
3.890693
  0
VERTEX
  8
PLAN_1
 62
     2
  6
CONTINUOUS
 10
-1.488449
 20
3.892157
  0
VERTEX
  8
PLAN_1
 62
     2
  6
CONTINUOUS
 10
-1.486500
 20
3.893618
  0
VERTEX
  8
PLAN_1
 62
     2
  6
CONTINUOUS
 10
-1.482118
 20
3.896051
  0
VERTEX
  8
PLAN_1
 62
     2
  6
CONTINUOUS
 10
-1.478224
 20
3.897028
  0
VERTEX
  8
PLAN_1
 62
     2
  6
CONTINUOUS
 10
-1.473839
 20
3.898000
  0
VERTEX
  8
PLAN_1
 62
     2
  6
CONTINUOUS
 10
-1.470917
 20
3.898000
  0
VERTEX
  8
PLAN_1
 62
     2
  6
CONTINUOUS
 10
-1.466047
 20
3.897512
  0
VERTEX
  8
PLAN_1
 62
     2
  6
CONTINUOUS
 10
-1.461665
 20
3.896539
  0
VERTEX
  8
PLAN_1
 62
     2
  6
CONTINUOUS
 10
-1.457768
 20
3.894591
  0
VERTEX
  8
PLAN_1
 62
     2
  6
CONTINUOUS
 10
-1.454358
 20
3.892157
  0
VERTEX
  8
PLAN_1
 62
     2
  6
CONTINUOUS
 10
-1.451925
 20
3.889232
  0
VERTEX
  8
PLAN_1
 62
     2
  6
CONTINUOUS
 10
-1.449488
 20
3.885339
  0
VERTEX
  8
PLAN_1
 62
     2
  6
CONTINUOUS
 10
-1.448516
 20
3.880953
  0
VERTEX
  8
PLAN_1
 62
     2
  6
CONTINUOUS
 10
-1.448028
 20
3.876083
  0
VERTEX
  8
PLAN_1
 62
     2
  6
CONTINUOUS
 10
-1.448028
 20
3.871701
  0
VERTEX
  8
PLAN_1
 62
     2
  6
CONTINUOUS
 10
-1.449488
 20
3.867807
  0
VERTEX
  8
PLAN_1
 62
     2
  6
CONTINUOUS
 10
-1.450949
 20
3.864398
  0
VERTEX
  8
PLAN_1
 62
     2
  6
CONTINUOUS
 10
-1.453386
 20
3.860988
  0
VERTEX
  8
PLAN_1
 62
     2
  6
CONTINUOUS
 10
-1.456307
 20
3.858551
  0
VERTEX
  8
PLAN_1
 62
     2
  6
CONTINUOUS
 10
-1.459717
 20
3.856118
  0
VERTEX
  8
PLAN_1
 62
     2
  6
CONTINUOUS
 10
-1.463614
 20
3.853681
  0
VERTEX
  8
PLAN_1
 62
     2
  6
CONTINUOUS
 10
-1.467508
 20
3.851732
  0
VERTEX
  8
PLAN_1
 62
     2
  6
CONTINUOUS
 10
-1.474815
 20
3.847350
  0
VERTEX
  8
PLAN_1
 62
     2
  6
CONTINUOUS
 10
-1.478224
 20
3.845402
  0
VERTEX
  8
PLAN_1
 62
     2
  6
CONTINUOUS
 10
-1.481146
 20
3.843453
  0
VERTEX
  8
PLAN_1
 62
     2
  6
CONTINUOUS
 10
-1.483094
 20
3.841508
  0
VERTEX
  8
PLAN_1
 62
     2
  6
CONTINUOUS
 10
-1.485039
 20
3.839559
  0
VERTEX
  8
PLAN_1
 62
     2
  6
CONTINUOUS
 10
-1.486016
 20
3.837610
  0
VERTEX
  8
PLAN_1
 62
     2
  6
CONTINUOUS
 10
-1.486988
 20
3.836150
  0
VERTEX
  8
PLAN_1
 62
     2
  6
CONTINUOUS
 10
-1.487476
 20
3.834689
  0
VERTEX
  8
PLAN_1
 62
     2
  6
CONTINUOUS
 10
-1.487476
 20
3.833713
  0
VERTEX
  8
PLAN_1
 62
     2
  6
CONTINUOUS
 10
-1.448028
 20
3.833713
  0
VERTEX
  8
PLAN_1
 62
     2
  6
CONTINUOUS
 10
-1.448028
 20
3.824949
  0
VERTEX
  8
PLAN_1
 62
     2
  6
CONTINUOUS
 10
-1.497705
 20
3.824949
  0
VERTEX
  8
PLAN_1
 62
     2
  6
CONTINUOUS
 10
-1.497217
 20
3.830307
  0
VERTEX
  8
PLAN_1
 62
     2
  6
CONTINUOUS
 10
-1.496244
 20
3.835177
  0
VERTEX
  8
PLAN_1
 62
     2
  6
CONTINUOUS
 10
-1.494780
 20
3.839071
  0
VERTEX
  8
PLAN_1
 62
     2
  6
CONTINUOUS
 10
-1.492835
 20
3.842969
  0
VERTEX
  8
PLAN_1
 62
     2
  6
CONTINUOUS
 10
-1.490398
 20
3.846378
  0
VERTEX
  8
PLAN_1
 62
     2
  6
CONTINUOUS
 10
-1.487476
 20
3.849299
  0
VERTEX
  8
PLAN_1
 62
     2
  6
CONTINUOUS
 10
-1.484067
 20
3.851732
  0
VERTEX
  8
PLAN_1
 62
     2
  6
CONTINUOUS
 10
-1.480657
 20
3.853681
  0
VERTEX
  8
PLAN_1
 62
     2
  6
CONTINUOUS
 10
-1.470917
 20
3.859528
  0
VERTEX
  8
PLAN_1
 62
     2
  6
CONTINUOUS
 10
-1.467996
 20
3.860988
  0
VERTEX
  8
PLAN_1
 62
     2
  6
CONTINUOUS
 10
-1.465559
 20
3.862937
  0
VERTEX
  8
PLAN_1
 62
     2
  6
CONTINUOUS
 10
-1.463126
 20
3.864398
  0
VERTEX
  8
PLAN_1
 62
     2
  6
CONTINUOUS
 10
-1.461177
 20
3.866343
  0
VERTEX
  8
PLAN_1
 62
     2
  6
CONTINUOUS
 10
-1.459717
 20
3.868291
  0
VERTEX
  8
PLAN_1
 62
     2
  6
CONTINUOUS
 10
-1.458744
 20
3.870728
  0
VERTEX
  8
PLAN_1
 62
     2
  6
CONTINUOUS
 10
-1.457768
 20
3.873161
  0
VERTEX
  8
PLAN_1
 62
     2
  6
CONTINUOUS
 10
-1.457768
 20
3.876571
  0
VERTEX
  8
PLAN_1
 62
     2
  6
CONTINUOUS
 10
-1.457768
 20
3.879008
  0
VERTEX
  8
PLAN_1
 62
     2
  6
CONTINUOUS
 10
-1.458256
 20
3.880953
  0
VERTEX
  8
PLAN_1
 62
     2
  6
CONTINUOUS
 10
-1.459228
 20
3.883390
  0
VERTEX
  8
PLAN_1
 62
     2
  6
CONTINUOUS
 10
-1.460689
 20
3.885339
  0
VERTEX
  8
PLAN_1
 62
     2
  6
CONTINUOUS
 10
-1.462638
 20
3.887287
  0
VERTEX
  8
PLAN_1
 62
     2
  6
CONTINUOUS
 10
-1.465075
 20
3.888748
  0
VERTEX
  8
PLAN_1
 62
     2
  6
CONTINUOUS
 10
-1.468484
 20
3.889232
  0
VERTEX
  8
PLAN_1
 62
     2
  6
CONTINUOUS
 10
-1.471890
 20
3.889720
  0
VERTEX
  8
PLAN_1
 62
     2
  6
CONTINUOUS
 10
-1.474327
 20
3.889720
  0
VERTEX
  8
PLAN_1
 62
     2
  6
CONTINUOUS
 10
-1.476760
 20
3.889232
  0
VERTEX
  8
PLAN_1
 62
     2
  6
CONTINUOUS
 10
-1.478709
 20
3.888748
  0
VERTEX
  8
PLAN_1
 62
     2
  6
CONTINUOUS
 10
-1.480169
 20
3.887772
  0
VERTEX
  8
PLAN_1
 62
     2
  6
CONTINUOUS
 10
-1.482606
 20
3.885339
  0
VERTEX
  8
PLAN_1
 62
     2
  6
CONTINUOUS
 10
-1.484555
 20
3.882902
  0
VERTEX
  8
PLAN_1
 62
     2
  6
CONTINUOUS
 10
-1.485528
 20
3.879492
  0
VERTEX
  8
PLAN_1
 62
     2
  6
CONTINUOUS
 10
-1.486500
 20
3.876571
  0
VERTEX
  8
PLAN_1
 62
     2
  6
CONTINUOUS
 10
-1.486500
 20
3.874138
  0
VERTEX
  8
PLAN_1
 62
     2
  6
CONTINUOUS
 10
-1.486988
 20
3.871701
  0
VERTEX
  8
PLAN_1
 62
     2
  6
CONTINUOUS
 10
-1.495756
 20
3.871701
  0
SEQEND
  8
0
  0
POLYLINE
  8
PLAN_1
 62
     2
  6
CONTINUOUS
 66
     1
 40
0.003000
 41
0.003000
  0
VERTEX
  8
PLAN_1
 62
     2
  6
CONTINUOUS
 10
-1.398839
 20
3.842480
  0
VERTEX
  8
PLAN_1
 62
     2
  6
CONTINUOUS
 10
-1.398839
 20
3.824949
  0
VERTEX
  8
PLAN_1
 62
     2
  6
CONTINUOUS
 10
-1.408094
 20
3.824949
  0
VERTEX
  8
PLAN_1
 62
     2
  6
CONTINUOUS
 10
-1.408094
 20
3.842480
  0
VERTEX
  8
PLAN_1
 62
     2
  6
CONTINUOUS
 10
-1.440236
 20
3.842480
  0
VERTEX
  8
PLAN_1
 62
     2
  6
CONTINUOUS
 10
-1.440236
 20
3.851732
  0
VERTEX
  8
PLAN_1
 62
     2
  6
CONTINUOUS
 10
-1.406634
 20
3.898000
  0
VERTEX
  8
PLAN_1
 62
     2
  6
CONTINUOUS
 10
-1.398839
 20
3.898000
  0
VERTEX
  8
PLAN_1
 62
     2
  6
CONTINUOUS
 10
-1.398839
 20
3.850760
  0
VERTEX
  8
PLAN_1
 62
     2
  6
CONTINUOUS
 10
-1.388126
 20
3.850760
  0
VERTEX
  8
PLAN_1
 62
     2
  6
CONTINUOUS
 10
-1.388126
 20
3.842480
  0
VERTEX
  8
PLAN_1
 62
     2
  6
CONTINUOUS
 10
-1.398839
 20
3.842480
  0
SEQEND
  8
0
  0
SOLID
  8
PLAN_1
 62
     2
 10
-1.431469
 20
3.850760
 11
-1.408094
 21
3.850760
 12
-1.408579
 22
3.883878
 13
-1.408094
 23
3.883878
  0
POLYLINE
  8
PLAN_1
 62
     2
  6
CONTINUOUS
 66
     1
 40
0.003000
 41
0.003000
  0
VERTEX
  8
PLAN_1
 62
     2
  6
CONTINUOUS
 10
-1.431469
 20
3.850760
  0
VERTEX
  8
PLAN_1
 62
     2
  6
CONTINUOUS
 10
-1.408094
 20
3.850760
  0
VERTEX
  8
PLAN_1
 62
     2
  6
CONTINUOUS
 10
-1.408094
 20
3.883878
  0
VERTEX
  8
PLAN_1
 62
     2
  6
CONTINUOUS
 10
-1.408579
 20
3.883878
  0
VERTEX
  8
PLAN_1
 62
     2
  6
CONTINUOUS
 10
-1.431469
 20
3.850760
  0
SEQEND
  8
0
  0
SOLID
  8
PLAN_1
 62
     2
 10
-1.092024
 20
1.858398
 11
-1.150953
 21
1.874469
 12
-1.092024
 22
1.858398
 13
-1.150953
 23
1.842811
  0
POLYLINE
  8
PLAN_1
 62
     2
  6
CONTINUOUS
 66
     1
 40
0.003000
 41
0.003000
  0
VERTEX
  8
PLAN_1
 62
     2
  6
CONTINUOUS
 10
-1.092024
 20
1.858398
  0
VERTEX
  8
PLAN_1
 62
     2
  6
CONTINUOUS
 10
-1.150953
 20
1.874469
  0
VERTEX
  8
PLAN_1
 62
     2
  6
CONTINUOUS
 10
-1.150953
 20
1.842811
  0
VERTEX
  8
PLAN_1
 62
     2
  6
CONTINUOUS
 10
-1.092024
 20
1.858398
  0
SEQEND
  8
0
  0
SOLID
  8
PLAN_1
 62
     2
 10
-0.852413
 20
1.858398
 11
-0.793484
 21
1.874469
 12
-0.852413
 22
1.858398
 13
-0.793484
 23
1.842811
  0
POLYLINE
  8
PLAN_1
 62
     2
  6
CONTINUOUS
 66
     1
 40
0.003000
 41
0.003000
  0
VERTEX
  8
PLAN_1
 62
     2
  6
CONTINUOUS
 10
-0.852413
 20
1.858398
  0
VERTEX
  8
PLAN_1
 62
     2
  6
CONTINUOUS
 10
-0.793484
 20
1.874469
  0
VERTEX
  8
PLAN_1
 62
     2
  6
CONTINUOUS
 10
-0.793484
 20
1.842811
  0
VERTEX
  8
PLAN_1
 62
     2
  6
CONTINUOUS
 10
-0.852413
 20
1.858398
  0
SEQEND
  8
0
  0
POLYLINE
  8
PLAN_1
 62
     2
  6
CONTINUOUS
 66
     1
 40
0.003000
 41
0.003000
  0
VERTEX
  8
PLAN_1
 62
     2
  6
CONTINUOUS
 10
-1.230823
 20
1.946059
  0
VERTEX
  8
PLAN_1
 62
     2
  6
CONTINUOUS
 10
-1.228874
 20
1.943138
  0
VERTEX
  8
PLAN_1
 62
     2
  6
CONTINUOUS
 10
-1.226925
 20
1.939728
  0
VERTEX
  8
PLAN_1
 62
     2
  6
CONTINUOUS
 10
-1.225465
 20
1.936319
  0
VERTEX
  8
PLAN_1
 62
     2
  6
CONTINUOUS
 10
-1.224488
 20
1.932909
  0
VERTEX
  8
PLAN_1
 62
     2
  6
CONTINUOUS
 10
-1.223516
 20
1.929500
  0
VERTEX
  8
PLAN_1
 62
     2
  6
CONTINUOUS
 10
-1.223028
 20
1.926091
  0
VERTEX
  8
PLAN_1
 62
     2
  6
CONTINUOUS
 10
-1.222543
 20
1.922681
  0
VERTEX
  8
PLAN_1
 62
     2
  6
CONTINUOUS
 10
-1.222543
 20
1.919272
  0
VERTEX
  8
PLAN_1
 62
     2
  6
CONTINUOUS
 10
-1.223028
 20
1.912941
  0
VERTEX
  8
PLAN_1
 62
     2
  6
CONTINUOUS
 10
-1.224004
 20
1.906610
  0
VERTEX
  8
PLAN_1
 62
     2
  6
CONTINUOUS
 10
-1.225465
 20
1.903201
  0
VERTEX
  8
PLAN_1
 62
     2
  6
CONTINUOUS
 10
-1.226437
 20
1.899791
  0
VERTEX
  8
PLAN_1
 62
     2
  6
CONTINUOUS
 10
-1.228386
 20
1.896870
  0
VERTEX
  8
PLAN_1
 62
     2
  6
CONTINUOUS
 10
-1.230335
 20
1.893949
  0
VERTEX
  8
PLAN_1
 62
     2
  6
CONTINUOUS
 10
-1.232283
 20
1.891028
  0
VERTEX
  8
PLAN_1
 62
     2
  6
CONTINUOUS
 10
-1.235205
 20
1.888102
  0
VERTEX
  8
PLAN_1
 62
     2
  6
CONTINUOUS
 10
-1.238126
 20
1.886157
  0
VERTEX
  8
PLAN_1
 62
     2
  6
CONTINUOUS
 10
-1.241535
 20
1.884209
  0
VERTEX
  8
PLAN_1
 62
     2
  6
CONTINUOUS
 10
-1.244945
 20
1.882260
  0
VERTEX
  8
PLAN_1
 62
     2
  6
CONTINUOUS
 10
-1.249327
 20
1.881283
  0
VERTEX
  8
PLAN_1
 62
     2
  6
CONTINUOUS
 10
-1.253709
 20
1.880311
  0
VERTEX
  8
PLAN_1
 62
     2
  6
CONTINUOUS
 10
-1.259067
 20
1.880311
  0
VERTEX
  8
PLAN_1
 62
     2
  6
CONTINUOUS
 10
-1.262965
 20
1.880311
  0
VERTEX
  8
PLAN_1
 62
     2
  6
CONTINUOUS
 10
-1.266374
 20
1.880799
  0
VERTEX
  8
PLAN_1
 62
     2
  6
CONTINUOUS
 10
-1.269783
 20
1.881772
  0
VERTEX
  8
PLAN_1
 62
     2
  6
CONTINUOUS
 10
-1.273189
 20
1.882748
  0
VERTEX
  8
PLAN_1
 62
     2
  6
CONTINUOUS
 10
-1.276114
 20
1.883720
  0
VERTEX
  8
PLAN_1
 62
     2
  6
CONTINUOUS
 10
-1.278547
 20
1.885669
  0
VERTEX
  8
PLAN_1
 62
     2
  6
CONTINUOUS
 10
-1.280984
 20
1.887130
  0
VERTEX
  8
PLAN_1
 62
     2
  6
CONTINUOUS
 10
-1.283417
 20
1.889079
  0
VERTEX
  8
PLAN_1
 62
     2
  6
CONTINUOUS
 10
-1.291697
 20
1.880311
  0
VERTEX
  8
PLAN_1
 62
     2
  6
CONTINUOUS
 10
-1.295106
 20
1.883232
  0
VERTEX
  8
PLAN_1
 62
     2
  6
CONTINUOUS
 10
-1.286339
 20
1.892488
  0
VERTEX
  8
PLAN_1
 62
     2
  6
CONTINUOUS
 10
-1.288776
 20
1.895409
  0
VERTEX
  8
PLAN_1
 62
     2
  6
CONTINUOUS
 10
-1.290724
 20
1.898819
  0
VERTEX
  8
PLAN_1
 62
     2
  6
CONTINUOUS
 10
-1.292185
 20
1.902228
  0
VERTEX
  8
PLAN_1
 62
     2
  6
CONTINUOUS
 10
-1.293157
 20
1.905638
  0
VERTEX
  8
PLAN_1
 62
     2
  6
CONTINUOUS
 10
-1.294134
 20
1.909043
  0
VERTEX
  8
PLAN_1
 62
     2
  6
CONTINUOUS
 10
-1.294618
 20
1.912941
  0
VERTEX
  8
PLAN_1
 62
     2
  6
CONTINUOUS
 10
-1.295106
 20
1.916350
  0
VERTEX
  8
PLAN_1
 62
     2
  6
CONTINUOUS
 10
-1.295106
 20
1.919272
  0
VERTEX
  8
PLAN_1
 62
     2
  6
CONTINUOUS
 10
-1.295106
 20
1.925602
  0
VERTEX
  8
PLAN_1
 62
     2
  6
CONTINUOUS
 10
-1.293646
 20
1.932421
  0
VERTEX
  8
PLAN_1
 62
     2
  6
CONTINUOUS
 10
-1.292673
 20
1.935831
  0
VERTEX
  8
PLAN_1
 62
     2
  6
CONTINUOUS
 10
-1.291209
 20
1.938752
  0
VERTEX
  8
PLAN_1
 62
     2
  6
CONTINUOUS
 10
-1.289264
 20
1.942161
  0
VERTEX
  8
PLAN_1
 62
     2
  6
CONTINUOUS
 10
-1.287315
 20
1.945083
  0
VERTEX
  8
PLAN_1
 62
     2
  6
CONTINUOUS
 10
-1.285366
 20
1.948008
  0
VERTEX
  8
PLAN_1
 62
     2
  6
CONTINUOUS
 10
-1.282445
 20
1.950441
  0
VERTEX
  8
PLAN_1
 62
     2
  6
CONTINUOUS
 10
-1.279524
 20
1.952878
  0
VERTEX
  8
PLAN_1
 62
     2
  6
CONTINUOUS
 10
-1.276114
 20
1.954823
  0
VERTEX
  8
PLAN_1
 62
     2
  6
CONTINUOUS
 10
-1.272705
 20
1.956283
  0
VERTEX
  8
PLAN_1
 62
     2
  6
CONTINUOUS
 10
-1.268319
 20
1.957748
  0
VERTEX
  8
PLAN_1
 62
     2
  6
CONTINUOUS
 10
-1.263937
 20
1.958720
  0
VERTEX
  8
PLAN_1
 62
     2
  6
CONTINUOUS
 10
-1.259067
 20
1.958720
  0
VERTEX
  8
PLAN_1
 62
     2
  6
CONTINUOUS
 10
-1.254685
 20
1.958720
  0
VERTEX
  8
PLAN_1
 62
     2
  6
CONTINUOUS
 10
-1.250787
 20
1.958232
  0
VERTEX
  8
PLAN_1
 62
     2
  6
CONTINUOUS
 10
-1.247378
 20
1.957260
  0
VERTEX
  8
PLAN_1
 62
     2
  6
CONTINUOUS
 10
-1.244457
 20
1.956283
  0
VERTEX
  8
PLAN_1
 62
     2
  6
CONTINUOUS
 10
-1.241535
 20
1.954823
  0
VERTEX
  8
PLAN_1
 62
     2
  6
CONTINUOUS
 10
-1.238614
 20
1.953362
  0
VERTEX
  8
PLAN_1
 62
     2
  6
CONTINUOUS
 10
-1.236177
 20
1.951413
  0
VERTEX
  8
PLAN_1
 62
     2
  6
CONTINUOUS
 10
-1.234228
 20
1.949469
  0
VERTEX
  8
PLAN_1
 62
     2
  6
CONTINUOUS
 10
-1.225465
 20
1.958720
  0
VERTEX
  8
PLAN_1
 62
     2
  6
CONTINUOUS
 10
-1.222543
 20
1.955799
  0
VERTEX
  8
PLAN_1
 62
     2
  6
CONTINUOUS
 10
-1.230823
 20
1.946059
  0
SEQEND
  8
0
  0
POLYLINE
  8
PLAN_1
 62
     2
  6
CONTINUOUS
 66
     1
 40
0.003000
 41
0.003000
  0
VERTEX
  8
PLAN_1
 62
     2
  6
CONTINUOUS
 10
-1.276598
 20
1.896382
  0
VERTEX
  8
PLAN_1
 62
     2
  6
CONTINUOUS
 10
-1.275138
 20
1.894921
  0
VERTEX
  8
PLAN_1
 62
     2
  6
CONTINUOUS
 10
-1.273189
 20
1.893461
  0
VERTEX
  8
PLAN_1
 62
     2
  6
CONTINUOUS
 10
-1.271244
 20
1.892000
  0
VERTEX
  8
PLAN_1
 62
     2
  6
CONTINUOUS
 10
-1.268807
 20
1.891028
  0
VERTEX
  8
PLAN_1
 62
     2
  6
CONTINUOUS
 10
-1.266858
 20
1.890051
  0
VERTEX
  8
PLAN_1
 62
     2
  6
CONTINUOUS
 10
-1.264425
 20
1.889563
  0
VERTEX
  8
PLAN_1
 62
     2
  6
CONTINUOUS
 10
-1.261504
 20
1.889079
  0
VERTEX
  8
PLAN_1
 62
     2
  6
CONTINUOUS
 10
-1.259067
 20
1.889079
  0
VERTEX
  8
PLAN_1
 62
     2
  6
CONTINUOUS
 10
-1.256146
 20
1.889079
  0
VERTEX
  8
PLAN_1
 62
     2
  6
CONTINUOUS
 10
-1.253224
 20
1.889563
  0
VERTEX
  8
PLAN_1
 62
     2
  6
CONTINUOUS
 10
-1.250303
 20
1.890539
  0
VERTEX
  8
PLAN_1
 62
     2
  6
CONTINUOUS
 10
-1.247866
 20
1.891512
  0
VERTEX
  8
PLAN_1
 62
     2
  6
CONTINUOUS
 10
-1.245433
 20
1.892488
  0
VERTEX
  8
PLAN_1
 62
     2
  6
CONTINUOUS
 10
-1.243484
 20
1.893949
  0
VERTEX
  8
PLAN_1
 62
     2
  6
CONTINUOUS
 10
-1.241535
 20
1.895898
  0
VERTEX
  8
PLAN_1
 62
     2
  6
CONTINUOUS
 10
-1.239587
 20
1.897843
  0
VERTEX
  8
PLAN_1
 62
     2
  6
CONTINUOUS
 10
-1.238126
 20
1.899791
  0
VERTEX
  8
PLAN_1
 62
     2
  6
CONTINUOUS
 10
-1.236665
 20
1.902228
  0
VERTEX
  8
PLAN_1
 62
     2
  6
CONTINUOUS
 10
-1.235693
 20
1.904661
  0
VERTEX
  8
PLAN_1
 62
     2
  6
CONTINUOUS
 10
-1.234717
 20
1.907098
  0
VERTEX
  8
PLAN_1
 62
     2
  6
CONTINUOUS
 10
-1.233256
 20
1.912941
  0
VERTEX
  8
PLAN_1
 62
     2
  6
CONTINUOUS
 10
-1.232768
 20
1.919272
  0
VERTEX
  8
PLAN_1
 62
     2
  6
CONTINUOUS
 10
-1.232768
 20
1.922193
  0
VERTEX
  8
PLAN_1
 62
     2
  6
CONTINUOUS
 10
-1.233256
 20
1.925118
  0
VERTEX
  8
PLAN_1
 62
     2
  6
CONTINUOUS
 10
-1.233744
 20
1.927551
  0
VERTEX
  8
PLAN_1
 62
     2
  6
CONTINUOUS
 10
-1.234228
 20
1.929988
  0
VERTEX
  8
PLAN_1
 62
     2
  6
CONTINUOUS
 10
-1.234717
 20
1.932421
  0
VERTEX
  8
PLAN_1
 62
     2
  6
CONTINUOUS
 10
-1.235693
 20
1.934370
  0
VERTEX
  8
PLAN_1
 62
     2
  6
CONTINUOUS
 10
-1.236665
 20
1.936803
  0
VERTEX
  8
PLAN_1
 62
     2
  6
CONTINUOUS
 10
-1.238126
 20
1.938752
  0
VERTEX
  8
PLAN_1
 62
     2
  6
CONTINUOUS
 10
-1.276598
 20
1.896382
  0
SEQEND
  8
0
  0
POLYLINE
  8
PLAN_1
 62
     2
  6
CONTINUOUS
 66
     1
 40
0.003000
 41
0.003000
  0
VERTEX
  8
PLAN_1
 62
     2
  6
CONTINUOUS
 10
-1.240563
 20
1.942161
  0
VERTEX
  8
PLAN_1
 62
     2
  6
CONTINUOUS
 10
-1.242508
 20
1.944110
  0
VERTEX
  8
PLAN_1
 62
     2
  6
CONTINUOUS
 10
-1.244457
 20
1.945571
  0
VERTEX
  8
PLAN_1
 62
     2
  6
CONTINUOUS
 10
-1.246406
 20
1.946543
  0
VERTEX
  8
PLAN_1
 62
     2
  6
CONTINUOUS
 10
-1.248354
 20
1.948008
  0
VERTEX
  8
PLAN_1
 62
     2
  6
CONTINUOUS
 10
-1.250787
 20
1.948492
  0
VERTEX
  8
PLAN_1
 62
     2
  6
CONTINUOUS
 10
-1.253224
 20
1.949469
  0
VERTEX
  8
PLAN_1
 62
     2
  6
CONTINUOUS
 10
-1.256146
 20
1.949469
  0
VERTEX
  8
PLAN_1
 62
     2
  6
CONTINUOUS
 10
-1.259067
 20
1.949953
  0
VERTEX
  8
PLAN_1
 62
     2
  6
CONTINUOUS
 10
-1.261988
 20
1.949469
  0
VERTEX
  8
PLAN_1
 62
     2
  6
CONTINUOUS
 10
-1.264425
 20
1.949469
  0
VERTEX
  8
PLAN_1
 62
     2
  6
CONTINUOUS
 10
-1.267346
 20
1.948492
  0
VERTEX
  8
PLAN_1
 62
     2
  6
CONTINUOUS
 10
-1.269783
 20
1.947520
  0
VERTEX
  8
PLAN_1
 62
     2
  6
CONTINUOUS
 10
-1.272217
 20
1.946543
  0
VERTEX
  8
PLAN_1
 62
     2
  6
CONTINUOUS
 10
-1.274165
 20
1.945083
  0
VERTEX
  8
PLAN_1
 62
     2
  6
CONTINUOUS
 10
-1.276114
 20
1.943138
  0
VERTEX
  8
PLAN_1
 62
     2
  6
CONTINUOUS
 10
-1.278063
 20
1.941189
  0
VERTEX
  8
PLAN_1
 62
     2
  6
CONTINUOUS
 10
-1.279524
 20
1.939240
  0
VERTEX
  8
PLAN_1
 62
     2
  6
CONTINUOUS
 10
-1.280984
 20
1.936803
  0
VERTEX
  8
PLAN_1
 62
     2
  6
CONTINUOUS
 10
-1.281957
 20
1.934370
  0
VERTEX
  8
PLAN_1
 62
     2
  6
CONTINUOUS
 10
-1.282933
 20
1.931449
  0
VERTEX
  8
PLAN_1
 62
     2
  6
CONTINUOUS
 10
-1.284394
 20
1.925602
  0
VERTEX
  8
PLAN_1
 62
     2
  6
CONTINUOUS
 10
-1.284878
 20
1.919272
  0
VERTEX
  8
PLAN_1
 62
     2
  6
CONTINUOUS
 10
-1.284878
 20
1.916839
  0
VERTEX
  8
PLAN_1
 62
     2
  6
CONTINUOUS
 10
-1.284394
 20
1.913913
  0
VERTEX
  8
PLAN_1
 62
     2
  6
CONTINUOUS
 10
-1.283906
 20
1.911480
  0
VERTEX
  8
PLAN_1
 62
     2
  6
CONTINUOUS
 10
-1.283417
 20
1.909043
  0
VERTEX
  8
PLAN_1
 62
     2
  6
CONTINUOUS
 10
-1.282933
 20
1.906610
  0
VERTEX
  8
PLAN_1
 62
     2
  6
CONTINUOUS
 10
-1.281957
 20
1.904173
  0
VERTEX
  8
PLAN_1
 62
     2
  6
CONTINUOUS
 10
-1.280984
 20
1.901740
  0
VERTEX
  8
PLAN_1
 62
     2
  6
CONTINUOUS
 10
-1.279524
 20
1.899791
  0
VERTEX
  8
PLAN_1
 62
     2
  6
CONTINUOUS
 10
-1.240563
 20
1.942161
  0
SEQEND
  8
0
  0
POLYLINE
  8
PLAN_1
 62
     2
  6
CONTINUOUS
 66
     1
 40
0.003000
 41
0.003000
  0
VERTEX
  8
PLAN_1
 62
     2
  6
CONTINUOUS
 10
-1.195268
 20
1.923654
  0
VERTEX
  8
PLAN_1
 62
     2
  6
CONTINUOUS
 10
-1.194295
 20
1.923654
  0
VERTEX
  8
PLAN_1
 62
     2
  6
CONTINUOUS
 10
-1.193807
 20
1.923654
  0
VERTEX
  8
PLAN_1
 62
     2
  6
CONTINUOUS
 10
-1.193323
 20
1.923654
  0
VERTEX
  8
PLAN_1
 62
     2
  6
CONTINUOUS
 10
-1.192835
 20
1.923654
  0
VERTEX
  8
PLAN_1
 62
     2
  6
CONTINUOUS
 10
-1.191858
 20
1.923654
  0
VERTEX
  8
PLAN_1
 62
     2
  6
CONTINUOUS
 10
-1.191374
 20
1.923654
  0
VERTEX
  8
PLAN_1
 62
     2
  6
CONTINUOUS
 10
-1.190886
 20
1.923654
  0
VERTEX
  8
PLAN_1
 62
     2
  6
CONTINUOUS
 10
-1.190398
 20
1.923654
  0
VERTEX
  8
PLAN_1
 62
     2
  6
CONTINUOUS
 10
-1.187476
 20
1.923654
  0
VERTEX
  8
PLAN_1
 62
     2
  6
CONTINUOUS
 10
-1.185043
 20
1.924142
  0
VERTEX
  8
PLAN_1
 62
     2
  6
CONTINUOUS
 10
-1.182606
 20
1.925118
  0
VERTEX
  8
PLAN_1
 62
     2
  6
CONTINUOUS
 10
-1.180657
 20
1.926091
  0
VERTEX
  8
PLAN_1
 62
     2
  6
CONTINUOUS
 10
-1.178713
 20
1.927551
  0
VERTEX
  8
PLAN_1
 62
     2
  6
CONTINUOUS
 10
-1.177736
 20
1.929500
  0
VERTEX
  8
PLAN_1
 62
     2
  6
CONTINUOUS
 10
-1.176764
 20
1.932421
  0
VERTEX
  8
PLAN_1
 62
     2
  6
CONTINUOUS
 10
-1.176276
 20
1.935343
  0
VERTEX
  8
PLAN_1
 62
     2
  6
CONTINUOUS
 10
-1.176276
 20
1.937291
  0
VERTEX
  8
PLAN_1
 62
     2
  6
CONTINUOUS
 10
-1.176764
 20
1.939240
  0
VERTEX
  8
PLAN_1
 62
     2
  6
CONTINUOUS
 10
-1.177736
 20
1.941189
  0
VERTEX
  8
PLAN_1
 62
     2
  6
CONTINUOUS
 10
-1.179197
 20
1.942650
  0
VERTEX
  8
PLAN_1
 62
     2
  6
CONTINUOUS
 10
-1.180657
 20
1.944598
  0
VERTEX
  8
PLAN_1
 62
     2
  6
CONTINUOUS
 10
-1.183094
 20
1.946059
  0
VERTEX
  8
PLAN_1
 62
     2
  6
CONTINUOUS
 10
-1.186016
 20
1.946543
  0
VERTEX
  8
PLAN_1
 62
     2
  6
CONTINUOUS
 10
-1.189913
 20
1.947031
  0
VERTEX
  8
PLAN_1
 62
     2
  6
CONTINUOUS
 10
-1.192346
 20
1.947031
  0
VERTEX
  8
PLAN_1
 62
     2
  6
CONTINUOUS
 10
-1.194295
 20
1.946543
  0
VERTEX
  8
PLAN_1
 62
     2
  6
CONTINUOUS
 10
-1.195756
 20
1.946059
  0
VERTEX
  8
PLAN_1
 62
     2
  6
CONTINUOUS
 10
-1.197705
 20
1.945083
  0
VERTEX
  8
PLAN_1
 62
     2
  6
CONTINUOUS
 10
-1.200138
 20
1.943622
  0
VERTEX
  8
PLAN_1
 62
     2
  6
CONTINUOUS
 10
-1.201598
 20
1.941189
  0
VERTEX
  8
PLAN_1
 62
     2
  6
CONTINUOUS
 10
-1.203063
 20
1.938752
  0
VERTEX
  8
PLAN_1
 62
     2
  6
CONTINUOUS
 10
-1.203547
 20
1.935831
  0
VERTEX
  8
PLAN_1
 62
     2
  6
CONTINUOUS
 10
-1.204035
 20
1.933394
  0
VERTEX
  8
PLAN_1
 62
     2
  6
CONTINUOUS
 10
-1.204035
 20
1.931449
  0
VERTEX
  8
PLAN_1
 62
     2
  6
CONTINUOUS
 10
-1.212803
 20
1.931449
  0
VERTEX
  8
PLAN_1
 62
     2
  6
CONTINUOUS
 10
-1.212803
 20
1.935343
  0
VERTEX
  8
PLAN_1
 62
     2
  6
CONTINUOUS
 10
-1.211827
 20
1.939728
  0
VERTEX
  8
PLAN_1
 62
     2
  6
CONTINUOUS
 10
-1.210854
 20
1.943622
  0
VERTEX
  8
PLAN_1
 62
     2
  6
CONTINUOUS
 10
-1.208417
 20
1.947520
  0
VERTEX
  8
PLAN_1
 62
     2
  6
CONTINUOUS
 10
-1.206957
 20
1.948980
  0
VERTEX
  8
PLAN_1
 62
     2
  6
CONTINUOUS
 10
-1.205496
 20
1.950441
  0
VERTEX
  8
PLAN_1
 62
     2
  6
CONTINUOUS
 10
-1.203547
 20
1.951902
  0
VERTEX
  8
PLAN_1
 62
     2
  6
CONTINUOUS
 10
-1.201114
 20
1.952878
  0
VERTEX
  8
PLAN_1
 62
     2
  6
CONTINUOUS
 10
-1.198677
 20
1.953850
  0
VERTEX
  8
PLAN_1
 62
     2
  6
CONTINUOUS
 10
-1.195756
 20
1.954823
  0
VERTEX
  8
PLAN_1
 62
     2
  6
CONTINUOUS
 10
-1.192835
 20
1.955311
  0
VERTEX
  8
PLAN_1
 62
     2
  6
CONTINUOUS
 10
-1.189425
 20
1.955311
  0
VERTEX
  8
PLAN_1
 62
     2
  6
CONTINUOUS
 10
-1.184555
 20
1.954823
  0
VERTEX
  8
PLAN_1
 62
     2
  6
CONTINUOUS
 10
-1.179685
 20
1.953850
  0
VERTEX
  8
PLAN_1
 62
     2
  6
CONTINUOUS
 10
-1.176276
 20
1.951902
  0
VERTEX
  8
PLAN_1
 62
     2
  6
CONTINUOUS
 10
-1.172866
 20
1.949953
  0
VERTEX
  8
PLAN_1
 62
     2
  6
CONTINUOUS
 10
-1.170433
 20
1.947031
  0
VERTEX
  8
PLAN_1
 62
     2
  6
CONTINUOUS
 10
-1.168484
 20
1.943622
  0
VERTEX
  8
PLAN_1
 62
     2
  6
CONTINUOUS
 10
-1.167024
 20
1.940213
  0
VERTEX
  8
PLAN_1
 62
     2
  6
CONTINUOUS
 10
-1.167024
 20
1.935831
  0
VERTEX
  8
PLAN_1
 62
     2
  6
CONTINUOUS
 10
-1.167024
 20
1.932909
  0
VERTEX
  8
PLAN_1
 62
     2
  6
CONTINUOUS
 10
-1.167508
 20
1.929988
  0
VERTEX
  8
PLAN_1
 62
     2
  6
CONTINUOUS
 10
-1.168969
 20
1.927551
  0
VERTEX
  8
PLAN_1
 62
     2
  6
CONTINUOUS
 10
-1.169945
 20
1.925602
  0
VERTEX
  8
PLAN_1
 62
     2
  6
CONTINUOUS
 10
-1.171406
 20
1.923654
  0
VERTEX
  8
PLAN_1
 62
     2
  6
CONTINUOUS
 10
-1.172866
 20
1.922681
  0
VERTEX
  8
PLAN_1
 62
     2
  6
CONTINUOUS
 10
-1.174815
 20
1.921709
  0
VERTEX
  8
PLAN_1
 62
     2
  6
CONTINUOUS
 10
-1.176276
 20
1.920732
  0
VERTEX
  8
PLAN_1
 62
     2
  6
CONTINUOUS
 10
-1.173843
 20
1.919760
  0
VERTEX
  8
PLAN_1
 62
     2
  6
CONTINUOUS
 10
-1.171406
 20
1.918299
  0
VERTEX
  8
PLAN_1
 62
     2
  6
CONTINUOUS
 10
-1.169457
 20
1.916839
  0
VERTEX
  8
PLAN_1
 62
     2
  6
CONTINUOUS
 10
-1.167508
 20
1.914890
  0
VERTEX
  8
PLAN_1
 62
     2
  6
CONTINUOUS
 10
-1.166047
 20
1.912941
  0
VERTEX
  8
PLAN_1
 62
     2
  6
CONTINUOUS
 10
-1.165075
 20
1.910020
  0
VERTEX
  8
PLAN_1
 62
     2
  6
CONTINUOUS
 10
-1.164098
 20
1.907098
  0
VERTEX
  8
PLAN_1
 62
     2
  6
CONTINUOUS
 10
-1.164098
 20
1.903689
  0
VERTEX
  8
PLAN_1
 62
     2
  6
CONTINUOUS
 10
-1.164587
 20
1.899303
  0
VERTEX
  8
PLAN_1
 62
     2
  6
CONTINUOUS
 10
-1.165563
 20
1.894921
  0
VERTEX
  8
PLAN_1
 62
     2
  6
CONTINUOUS
 10
-1.167508
 20
1.891028
  0
VERTEX
  8
PLAN_1
 62
     2
  6
CONTINUOUS
 10
-1.170433
 20
1.887618
  0
VERTEX
  8
PLAN_1
 62
     2
  6
CONTINUOUS
 10
-1.171894
 20
1.885669
  0
VERTEX
  8
PLAN_1
 62
     2
  6
CONTINUOUS
 10
-1.173843
 20
1.884209
  0
VERTEX
  8
PLAN_1
 62
     2
  6
CONTINUOUS
 10
-1.175787
 20
1.883232
  0
VERTEX
  8
PLAN_1
 62
     2
  6
CONTINUOUS
 10
-1.178224
 20
1.882260
  0
VERTEX
  8
PLAN_1
 62
     2
  6
CONTINUOUS
 10
-1.181146
 20
1.881283
  0
VERTEX
  8
PLAN_1
 62
     2
  6
CONTINUOUS
 10
-1.184067
 20
1.880799
  0
VERTEX
  8
PLAN_1
 62
     2
  6
CONTINUOUS
 10
-1.186988
 20
1.880311
  0
VERTEX
  8
PLAN_1
 62
     2
  6
CONTINUOUS
 10
-1.190398
 20
1.880311
  0
VERTEX
  8
PLAN_1
 62
     2
  6
CONTINUOUS
 10
-1.192346
 20
1.880311
  0
VERTEX
  8
PLAN_1
 62
     2
  6
CONTINUOUS
 10
-1.194295
 20
1.880311
  0
VERTEX
  8
PLAN_1
 62
     2
  6
CONTINUOUS
 10
-1.196244
 20
1.880799
  0
VERTEX
  8
PLAN_1
 62
     2
  6
CONTINUOUS
 10
-1.197705
 20
1.880799
  0
VERTEX
  8
PLAN_1
 62
     2
  6
CONTINUOUS
 10
-1.199654
 20
1.881283
  0
VERTEX
  8
PLAN_1
 62
     2
  6
CONTINUOUS
 10
-1.201114
 20
1.882260
  0
VERTEX
  8
PLAN_1
 62
     2
  6
CONTINUOUS
 10
-1.202575
 20
1.882748
  0
VERTEX
  8
PLAN_1
 62
     2
  6
CONTINUOUS
 10
-1.204035
 20
1.883232
  0
VERTEX
  8
PLAN_1
 62
     2
  6
CONTINUOUS
 10
-1.206469
 20
1.885181
  0
VERTEX
  8
PLAN_1
 62
     2
  6
CONTINUOUS
 10
-1.208906
 20
1.887130
  0
VERTEX
  8
PLAN_1
 62
     2
  6
CONTINUOUS
 10
-1.210854
 20
1.889563
  0
VERTEX
  8
PLAN_1
 62
     2
  6
CONTINUOUS
 10
-1.212315
 20
1.892488
  0
VERTEX
  8
PLAN_1
 62
     2
  6
CONTINUOUS
 10
-1.213287
 20
1.895409
  0
VERTEX
  8
PLAN_1
 62
     2
  6
CONTINUOUS
 10
-1.213776
 20
1.898331
  0
VERTEX
  8
PLAN_1
 62
     2
  6
CONTINUOUS
 10
-1.214264
 20
1.901252
  0
VERTEX
  8
PLAN_1
 62
     2
  6
CONTINUOUS
 10
-1.214748
 20
1.904661
  0
VERTEX
  8
PLAN_1
 62
     2
  6
CONTINUOUS
 10
-1.205496
 20
1.904661
  0
VERTEX
  8
PLAN_1
 62
     2
  6
CONTINUOUS
 10
-1.205008
 20
1.901740
  0
VERTEX
  8
PLAN_1
 62
     2
  6
CONTINUOUS
 10
-1.204524
 20
1.898819
  0
VERTEX
  8
PLAN_1
 62
     2
  6
CONTINUOUS
 10
-1.204035
 20
1.896382
  0
VERTEX
  8
PLAN_1
 62
     2
  6
CONTINUOUS
 10
-1.202575
 20
1.893949
  0
VERTEX
  8
PLAN_1
 62
     2
  6
CONTINUOUS
 10
-1.200626
 20
1.891512
  0
VERTEX
  8
PLAN_1
 62
     2
  6
CONTINUOUS
 10
-1.197705
 20
1.890051
  0
VERTEX
  8
PLAN_1
 62
     2
  6
CONTINUOUS
 10
-1.194295
 20
1.888591
  0
VERTEX
  8
PLAN_1
 62
     2
  6
CONTINUOUS
 10
-1.189913
 20
1.888591
  0
VERTEX
  8
PLAN_1
 62
     2
  6
CONTINUOUS
 10
-1.186504
 20
1.888591
  0
VERTEX
  8
PLAN_1
 62
     2
  6
CONTINUOUS
 10
-1.183094
 20
1.889563
  0
VERTEX
  8
PLAN_1
 62
     2
  6
CONTINUOUS
 10
-1.180657
 20
1.890539
  0
VERTEX
  8
PLAN_1
 62
     2
  6
CONTINUOUS
 10
-1.178224
 20
1.892488
  0
VERTEX
  8
PLAN_1
 62
     2
  6
CONTINUOUS
 10
-1.176276
 20
1.894433
  0
VERTEX
  8
PLAN_1
 62
     2
  6
CONTINUOUS
 10
-1.174815
 20
1.896870
  0
VERTEX
  8
PLAN_1
 62
     2
  6
CONTINUOUS
 10
-1.174327
 20
1.899303
  0
VERTEX
  8
PLAN_1
 62
     2
  6
CONTINUOUS
 10
-1.173843
 20
1.902713
  0
VERTEX
  8
PLAN_1
 62
     2
  6
CONTINUOUS
 10
-1.173843
 20
1.904661
  0
VERTEX
  8
PLAN_1
 62
     2
  6
CONTINUOUS
 10
-1.174327
 20
1.906610
  0
VERTEX
  8
PLAN_1
 62
     2
  6
CONTINUOUS
 10
-1.174815
 20
1.908071
  0
VERTEX
  8
PLAN_1
 62
     2
  6
CONTINUOUS
 10
-1.175787
 20
1.909531
  0
VERTEX
  8
PLAN_1
 62
     2
  6
CONTINUOUS
 10
-1.177736
 20
1.911969
  0
VERTEX
  8
PLAN_1
 62
     2
  6
CONTINUOUS
 10
-1.180173
 20
1.913913
  0
VERTEX
  8
PLAN_1
 62
     2
  6
CONTINUOUS
 10
-1.182606
 20
1.914890
  0
VERTEX
  8
PLAN_1
 62
     2
  6
CONTINUOUS
 10
-1.185528
 20
1.915378
  0
VERTEX
  8
PLAN_1
 62
     2
  6
CONTINUOUS
 10
-1.188453
 20
1.915862
  0
VERTEX
  8
PLAN_1
 62
     2
  6
CONTINUOUS
 10
-1.190886
 20
1.915862
  0
VERTEX
  8
PLAN_1
 62
     2
  6
CONTINUOUS
 10
-1.191374
 20
1.915862
  0
VERTEX
  8
PLAN_1
 62
     2
  6
CONTINUOUS
 10
-1.191858
 20
1.915862
  0
VERTEX
  8
PLAN_1
 62
     2
  6
CONTINUOUS
 10
-1.192346
 20
1.915862
  0
VERTEX
  8
PLAN_1
 62
     2
  6
CONTINUOUS
 10
-1.192835
 20
1.915862
  0
VERTEX
  8
PLAN_1
 62
     2
  6
CONTINUOUS
 10
-1.193323
 20
1.915862
  0
VERTEX
  8
PLAN_1
 62
     2
  6
CONTINUOUS
 10
-1.193807
 20
1.915862
  0
VERTEX
  8
PLAN_1
 62
     2
  6
CONTINUOUS
 10
-1.194295
 20
1.915862
  0
VERTEX
  8
PLAN_1
 62
     2
  6
CONTINUOUS
 10
-1.195268
 20
1.915862
  0
VERTEX
  8
PLAN_1
 62
     2
  6
CONTINUOUS
 10
-1.195268
 20
1.923654
  0
SEQEND
  8
0
  0
POLYLINE
  8
PLAN_1
 62
     2
  6
CONTINUOUS
 66
     1
 40
0.004382
 41
0.004382
  0
VERTEX
  8
PLAN_1
 62
     2
  6
CONTINUOUS
 10
-1.299488
 20
1.858398
  0
VERTEX
  8
PLAN_1
 62
     2
  6
CONTINUOUS
 10
-0.822705
 20
1.858398
  0
SEQEND
  8
0
  0
POLYLINE
  8
PLAN_1
 62
     2
  6
CONTINUOUS
 66
     1
 40
0.004382
 41
0.004382
  0
VERTEX
  8
PLAN_1
 62
     2
  6
CONTINUOUS
 10
-0.172543
 20
0.156780
  0
VERTEX
  8
PLAN_1
 62
     2
  6
CONTINUOUS
 10
-0.172543
 20
3.616508
  0
SEQEND
  8
0
  0
SOLID
  8
PLAN_1
 62
     2
 10
-0.172543
 20
3.645728
 11
-0.188130
 21
3.586799
 12
-0.172543
 22
3.645728
 13
-0.156472
 23
3.586799
  0
POLYLINE
  8
PLAN_1
 62
     2
  6
CONTINUOUS
 66
     1
 40
0.003000
 41
0.003000
  0
VERTEX
  8
PLAN_1
 62
     2
  6
CONTINUOUS
 10
-0.172543
 20
3.645728
  0
VERTEX
  8
PLAN_1
 62
     2
  6
CONTINUOUS
 10
-0.188130
 20
3.586799
  0
VERTEX
  8
PLAN_1
 62
     2
  6
CONTINUOUS
 10
-0.156472
 20
3.586799
  0
VERTEX
  8
PLAN_1
 62
     2
  6
CONTINUOUS
 10
-0.172543
 20
3.645728
  0
SEQEND
  8
0
  0
SOLID
  8
PLAN_1
 62
     2
 10
-0.172543
 20
0.127555
 11
-0.188130
 21
0.186484
 12
-0.172543
 22
0.127555
 13
-0.156472
 23
0.186484
  0
POLYLINE
  8
PLAN_1
 62
     2
  6
CONTINUOUS
 66
     1
 40
0.003000
 41
0.003000
  0
VERTEX
  8
PLAN_1
 62
     2
  6
CONTINUOUS
 10
-0.172543
 20
0.127555
  0
VERTEX
  8
PLAN_1
 62
     2
  6
CONTINUOUS
 10
-0.188130
 20
0.186484
  0
VERTEX
  8
PLAN_1
 62
     2
  6
CONTINUOUS
 10
-0.156472
 20
0.186484
  0
VERTEX
  8
PLAN_1
 62
     2
  6
CONTINUOUS
 10
-0.172543
 20
0.127555
  0
SEQEND
  8
0
  0
POLYLINE
  8
PLAN_1
 62
     2
  6
CONTINUOUS
 66
     1
 40
0.003000
 41
0.003000
  0
VERTEX
  8
PLAN_1
 62
     2
  6
CONTINUOUS
 10
-0.195921
 20
1.836969
  0
VERTEX
  8
PLAN_1
 62
     2
  6
CONTINUOUS
 10
-0.195921
 20
1.827228
  0
VERTEX
  8
PLAN_1
 62
     2
  6
CONTINUOUS
 10
-0.248031
 20
1.827228
  0
VERTEX
  8
PLAN_1
 62
     2
  6
CONTINUOUS
 10
-0.248031
 20
1.810181
  0
VERTEX
  8
PLAN_1
 62
     2
  6
CONTINUOUS
 10
-0.255339
 20
1.810181
  0
VERTEX
  8
PLAN_1
 62
     2
  6
CONTINUOUS
 10
-0.255339
 20
1.814563
  0
VERTEX
  8
PLAN_1
 62
     2
  6
CONTINUOUS
 10
-0.255823
 20
1.817972
  0
VERTEX
  8
PLAN_1
 62
     2
  6
CONTINUOUS
 10
-0.256799
 20
1.820898
  0
VERTEX
  8
PLAN_1
 62
     2
  6
CONTINUOUS
 10
-0.257772
 20
1.823331
  0
VERTEX
  8
PLAN_1
 62
     2
  6
CONTINUOUS
 10
-0.259720
 20
1.825768
  0
VERTEX
  8
PLAN_1
 62
     2
  6
CONTINUOUS
 10
-0.262154
 20
1.827228
  0
VERTEX
  8
PLAN_1
 62
     2
  6
CONTINUOUS
 10
-0.265079
 20
1.828689
  0
VERTEX
  8
PLAN_1
 62
     2
  6
CONTINUOUS
 10
-0.268972
 20
1.830150
  0
VERTEX
  8
PLAN_1
 62
     2
  6
CONTINUOUS
 10
-0.268972
 20
1.836969
  0
VERTEX
  8
PLAN_1
 62
     2
  6
CONTINUOUS
 10
-0.195921
 20
1.836969
  0
SEQEND
  8
0
  0
POLYLINE
  8
PLAN_1
 62
     2
  6
CONTINUOUS
 66
     1
 40
0.003000
 41
0.003000
  0
VERTEX
  8
PLAN_1
 62
     2
  6
CONTINUOUS
 10
-0.237319
 20
1.880799
  0
VERTEX
  8
PLAN_1
 62
     2
  6
CONTINUOUS
 10
-0.237319
 20
1.881772
  0
VERTEX
  8
PLAN_1
 62
     2
  6
CONTINUOUS
 10
-0.237319
 20
1.882260
  0
VERTEX
  8
PLAN_1
 62
     2
  6
CONTINUOUS
 10
-0.237319
 20
1.882748
  0
VERTEX
  8
PLAN_1
 62
     2
  6
CONTINUOUS
 10
-0.237319
 20
1.883232
  0
VERTEX
  8
PLAN_1
 62
     2
  6
CONTINUOUS
 10
-0.237319
 20
1.884209
  0
VERTEX
  8
PLAN_1
 62
     2
  6
CONTINUOUS
 10
-0.237319
 20
1.884693
  0
VERTEX
  8
PLAN_1
 62
     2
  6
CONTINUOUS
 10
-0.237319
 20
1.885181
  0
VERTEX
  8
PLAN_1
 62
     2
  6
CONTINUOUS
 10
-0.237319
 20
1.885669
  0
VERTEX
  8
PLAN_1
 62
     2
  6
CONTINUOUS
 10
-0.237319
 20
1.888591
  0
VERTEX
  8
PLAN_1
 62
     2
  6
CONTINUOUS
 10
-0.237803
 20
1.891028
  0
VERTEX
  8
PLAN_1
 62
     2
  6
CONTINUOUS
 10
-0.238780
 20
1.893461
  0
VERTEX
  8
PLAN_1
 62
     2
  6
CONTINUOUS
 10
-0.239752
 20
1.895409
  0
VERTEX
  8
PLAN_1
 62
     2
  6
CONTINUOUS
 10
-0.241701
 20
1.897358
  0
VERTEX
  8
PLAN_1
 62
     2
  6
CONTINUOUS
 10
-0.243650
 20
1.898331
  0
VERTEX
  8
PLAN_1
 62
     2
  6
CONTINUOUS
 10
-0.246083
 20
1.899303
  0
VERTEX
  8
PLAN_1
 62
     2
  6
CONTINUOUS
 10
-0.249492
 20
1.899791
  0
VERTEX
  8
PLAN_1
 62
     2
  6
CONTINUOUS
 10
-0.250953
 20
1.899791
  0
VERTEX
  8
PLAN_1
 62
     2
  6
CONTINUOUS
 10
-0.252902
 20
1.899303
  0
VERTEX
  8
PLAN_1
 62
     2
  6
CONTINUOUS
 10
-0.254850
 20
1.898331
  0
VERTEX
  8
PLAN_1
 62
     2
  6
CONTINUOUS
 10
-0.256799
 20
1.896870
  0
VERTEX
  8
PLAN_1
 62
     2
  6
CONTINUOUS
 10
-0.258260
 20
1.895409
  0
VERTEX
  8
PLAN_1
 62
     2
  6
CONTINUOUS
 10
-0.259720
 20
1.892972
  0
VERTEX
  8
PLAN_1
 62
     2
  6
CONTINUOUS
 10
-0.260693
 20
1.890051
  0
VERTEX
  8
PLAN_1
 62
     2
  6
CONTINUOUS
 10
-0.260693
 20
1.886157
  0
VERTEX
  8
PLAN_1
 62
     2
  6
CONTINUOUS
 10
-0.260693
 20
1.883720
  0
VERTEX
  8
PLAN_1
 62
     2
  6
CONTINUOUS
 10
-0.260209
 20
1.881772
  0
VERTEX
  8
PLAN_1
 62
     2
  6
CONTINUOUS
 10
-0.259720
 20
1.880311
  0
VERTEX
  8
PLAN_1
 62
     2
  6
CONTINUOUS
 10
-0.259232
 20
1.878362
  0
VERTEX
  8
PLAN_1
 62
     2
  6
CONTINUOUS
 10
-0.257283
 20
1.875929
  0
VERTEX
  8
PLAN_1
 62
     2
  6
CONTINUOUS
 10
-0.254850
 20
1.874469
  0
VERTEX
  8
PLAN_1
 62
     2
  6
CONTINUOUS
 10
-0.252413
 20
1.873008
  0
VERTEX
  8
PLAN_1
 62
     2
  6
CONTINUOUS
 10
-0.249980
 20
1.872520
  0
VERTEX
  8
PLAN_1
 62
     2
  6
CONTINUOUS
 10
-0.247059
 20
1.872031
  0
VERTEX
  8
PLAN_1
 62
     2
  6
CONTINUOUS
 10
-0.245110
 20
1.872031
  0
VERTEX
  8
PLAN_1
 62
     2
  6
CONTINUOUS
 10
-0.245110
 20
1.862780
  0
VERTEX
  8
PLAN_1
 62
     2
  6
CONTINUOUS
 10
-0.249004
 20
1.863268
  0
VERTEX
  8
PLAN_1
 62
     2
  6
CONTINUOUS
 10
-0.253390
 20
1.863752
  0
VERTEX
  8
PLAN_1
 62
     2
  6
CONTINUOUS
 10
-0.257283
 20
1.865213
  0
VERTEX
  8
PLAN_1
 62
     2
  6
CONTINUOUS
 10
-0.261181
 20
1.867650
  0
VERTEX
  8
PLAN_1
 62
     2
  6
CONTINUOUS
 10
-0.262642
 20
1.869110
  0
VERTEX
  8
PLAN_1
 62
     2
  6
CONTINUOUS
 10
-0.264102
 20
1.870571
  0
VERTEX
  8
PLAN_1
 62
     2
  6
CONTINUOUS
 10
-0.265563
 20
1.872520
  0
VERTEX
  8
PLAN_1
 62
     2
  6
CONTINUOUS
 10
-0.267024
 20
1.874953
  0
VERTEX
  8
PLAN_1
 62
     2
  6
CONTINUOUS
 10
-0.268000
 20
1.877390
  0
VERTEX
  8
PLAN_1
 62
     2
  6
CONTINUOUS
 10
-0.268484
 20
1.879823
  0
VERTEX
  8
PLAN_1
 62
     2
  6
CONTINUOUS
 10
-0.268972
 20
1.883232
  0
VERTEX
  8
PLAN_1
 62
     2
  6
CONTINUOUS
 10
-0.268972
 20
1.886642
  0
VERTEX
  8
PLAN_1
 62
     2
  6
CONTINUOUS
 10
-0.268484
 20
1.891512
  0
VERTEX
  8
PLAN_1
 62
     2
  6
CONTINUOUS
 10
-0.267512
 20
1.895898
  0
VERTEX
  8
PLAN_1
 62
     2
  6
CONTINUOUS
 10
-0.266051
 20
1.899791
  0
VERTEX
  8
PLAN_1
 62
     2
  6
CONTINUOUS
 10
-0.263614
 20
1.903201
  0
VERTEX
  8
PLAN_1
 62
     2
  6
CONTINUOUS
 10
-0.260693
 20
1.905638
  0
VERTEX
  8
PLAN_1
 62
     2
  6
CONTINUOUS
 10
-0.257283
 20
1.907583
  0
VERTEX
  8
PLAN_1
 62
     2
  6
CONTINUOUS
 10
-0.253874
 20
1.908559
  0
VERTEX
  8
PLAN_1
 62
     2
  6
CONTINUOUS
 10
-0.249980
 20
1.909043
  0
VERTEX
  8
PLAN_1
 62
     2
  6
CONTINUOUS
 10
-0.246571
 20
1.909043
  0
VERTEX
  8
PLAN_1
 62
     2
  6
CONTINUOUS
 10
-0.243650
 20
1.908071
  0
VERTEX
  8
PLAN_1
 62
     2
  6
CONTINUOUS
 10
-0.241213
 20
1.907098
  0
VERTEX
  8
PLAN_1
 62
     2
  6
CONTINUOUS
 10
-0.239264
 20
1.906122
  0
VERTEX
  8
PLAN_1
 62
     2
  6
CONTINUOUS
 10
-0.237803
 20
1.904661
  0
VERTEX
  8
PLAN_1
 62
     2
  6
CONTINUOUS
 10
-0.236343
 20
1.902713
  0
VERTEX
  8
PLAN_1
 62
     2
  6
CONTINUOUS
 10
-0.235370
 20
1.901252
  0
VERTEX
  8
PLAN_1
 62
     2
  6
CONTINUOUS
 10
-0.234882
 20
1.899791
  0
VERTEX
  8
PLAN_1
 62
     2
  6
CONTINUOUS
 10
-0.234394
 20
1.899791
  0
VERTEX
  8
PLAN_1
 62
     2
  6
CONTINUOUS
 10
-0.233421
 20
1.902228
  0
VERTEX
  8
PLAN_1
 62
     2
  6
CONTINUOUS
 10
-0.232449
 20
1.904661
  0
VERTEX
  8
PLAN_1
 62
     2
  6
CONTINUOUS
 10
-0.230500
 20
1.906610
  0
VERTEX
  8
PLAN_1
 62
     2
  6
CONTINUOUS
 10
-0.229039
 20
1.908559
  0
VERTEX
  8
PLAN_1
 62
     2
  6
CONTINUOUS
 10
-0.226602
 20
1.910020
  0
VERTEX
  8
PLAN_1
 62
     2
  6
CONTINUOUS
 10
-0.224169
 20
1.910992
  0
VERTEX
  8
PLAN_1
 62
     2
  6
CONTINUOUS
 10
-0.220760
 20
1.911969
  0
VERTEX
  8
PLAN_1
 62
     2
  6
CONTINUOUS
 10
-0.217350
 20
1.911969
  0
VERTEX
  8
PLAN_1
 62
     2
  6
CONTINUOUS
 10
-0.212969
 20
1.911480
  0
VERTEX
  8
PLAN_1
 62
     2
  6
CONTINUOUS
 10
-0.208583
 20
1.910508
  0
VERTEX
  8
PLAN_1
 62
     2
  6
CONTINUOUS
 10
-0.204689
 20
1.908559
  0
VERTEX
  8
PLAN_1
 62
     2
  6
CONTINUOUS
 10
-0.201280
 20
1.905638
  0
VERTEX
  8
PLAN_1
 62
     2
  6
CONTINUOUS
 10
-0.199819
 20
1.904173
  0
VERTEX
  8
PLAN_1
 62
     2
  6
CONTINUOUS
 10
-0.198358
 20
1.902228
  0
VERTEX
  8
PLAN_1
 62
     2
  6
CONTINUOUS
 10
-0.196894
 20
1.899791
  0
VERTEX
  8
PLAN_1
 62
     2
  6
CONTINUOUS
 10
-0.195921
 20
1.897843
  0
VERTEX
  8
PLAN_1
 62
     2
  6
CONTINUOUS
 10
-0.194949
 20
1.894921
  0
VERTEX
  8
PLAN_1
 62
     2
  6
CONTINUOUS
 10
-0.194461
 20
1.892000
  0
VERTEX
  8
PLAN_1
 62
     2
  6
CONTINUOUS
 10
-0.193972
 20
1.889079
  0
VERTEX
  8
PLAN_1
 62
     2
  6
CONTINUOUS
 10
-0.193972
 20
1.885669
  0
VERTEX
  8
PLAN_1
 62
     2
  6
CONTINUOUS
 10
-0.193972
 20
1.883720
  0
VERTEX
  8
PLAN_1
 62
     2
  6
CONTINUOUS
 10
-0.193972
 20
1.881772
  0
VERTEX
  8
PLAN_1
 62
     2
  6
CONTINUOUS
 10
-0.194461
 20
1.879823
  0
VERTEX
  8
PLAN_1
 62
     2
  6
CONTINUOUS
 10
-0.194949
 20
1.878362
  0
VERTEX
  8
PLAN_1
 62
     2
  6
CONTINUOUS
 10
-0.195433
 20
1.876413
  0
VERTEX
  8
PLAN_1
 62
     2
  6
CONTINUOUS
 10
-0.195921
 20
1.874953
  0
VERTEX
  8
PLAN_1
 62
     2
  6
CONTINUOUS
 10
-0.196409
 20
1.873492
  0
VERTEX
  8
PLAN_1
 62
     2
  6
CONTINUOUS
 10
-0.197382
 20
1.872031
  0
VERTEX
  8
PLAN_1
 62
     2
  6
CONTINUOUS
 10
-0.198843
 20
1.869598
  0
VERTEX
  8
PLAN_1
 62
     2
  6
CONTINUOUS
 10
-0.201280
 20
1.867161
  0
VERTEX
  8
PLAN_1
 62
     2
  6
CONTINUOUS
 10
-0.203713
 20
1.865213
  0
VERTEX
  8
PLAN_1
 62
     2
  6
CONTINUOUS
 10
-0.206150
 20
1.863752
  0
VERTEX
  8
PLAN_1
 62
     2
  6
CONTINUOUS
 10
-0.209071
 20
1.862780
  0
VERTEX
  8
PLAN_1
 62
     2
  6
CONTINUOUS
 10
-0.211992
 20
1.861803
  0
VERTEX
  8
PLAN_1
 62
     2
  6
CONTINUOUS
 10
-0.214913
 20
1.861319
  0
VERTEX
  8
PLAN_1
 62
     2
  6
CONTINUOUS
 10
-0.218323
 20
1.861319
  0
VERTEX
  8
PLAN_1
 62
     2
  6
CONTINUOUS
 10
-0.218323
 20
1.870571
  0
VERTEX
  8
PLAN_1
 62
     2
  6
CONTINUOUS
 10
-0.215402
 20
1.871059
  0
VERTEX
  8
PLAN_1
 62
     2
  6
CONTINUOUS
 10
-0.212969
 20
1.871543
  0
VERTEX
  8
PLAN_1
 62
     2
  6
CONTINUOUS
 10
-0.210043
 20
1.872031
  0
VERTEX
  8
PLAN_1
 62
     2
  6
CONTINUOUS
 10
-0.207610
 20
1.873492
  0
VERTEX
  8
PLAN_1
 62
     2
  6
CONTINUOUS
 10
-0.205661
 20
1.875441
  0
VERTEX
  8
PLAN_1
 62
     2
  6
CONTINUOUS
 10
-0.203713
 20
1.878362
  0
VERTEX
  8
PLAN_1
 62
     2
  6
CONTINUOUS
 10
-0.202740
 20
1.881772
  0
VERTEX
  8
PLAN_1
 62
     2
  6
CONTINUOUS
 10
-0.202252
 20
1.886157
  0
VERTEX
  8
PLAN_1
 62
     2
  6
CONTINUOUS
 10
-0.202252
 20
1.889563
  0
VERTEX
  8
PLAN_1
 62
     2
  6
CONTINUOUS
 10
-0.203228
 20
1.892488
  0
VERTEX
  8
PLAN_1
 62
     2
  6
CONTINUOUS
 10
-0.204201
 20
1.895409
  0
VERTEX
  8
PLAN_1
 62
     2
  6
CONTINUOUS
 10
-0.206150
 20
1.897843
  0
VERTEX
  8
PLAN_1
 62
     2
  6
CONTINUOUS
 10
-0.208098
 20
1.899791
  0
VERTEX
  8
PLAN_1
 62
     2
  6
CONTINUOUS
 10
-0.210531
 20
1.901252
  0
VERTEX
  8
PLAN_1
 62
     2
  6
CONTINUOUS
 10
-0.213453
 20
1.901740
  0
VERTEX
  8
PLAN_1
 62
     2
  6
CONTINUOUS
 10
-0.216374
 20
1.902228
  0
VERTEX
  8
PLAN_1
 62
     2
  6
CONTINUOUS
 10
-0.218323
 20
1.902228
  0
VERTEX
  8
PLAN_1
 62
     2
  6
CONTINUOUS
 10
-0.220272
 20
1.901740
  0
VERTEX
  8
PLAN_1
 62
     2
  6
CONTINUOUS
 10
-0.222220
 20
1.901252
  0
VERTEX
  8
PLAN_1
 62
     2
  6
CONTINUOUS
 10
-0.223681
 20
1.900280
  0
VERTEX
  8
PLAN_1
 62
     2
  6
CONTINUOUS
 10
-0.226118
 20
1.898331
  0
VERTEX
  8
PLAN_1
 62
     2
  6
CONTINUOUS
 10
-0.227579
 20
1.895898
  0
VERTEX
  8
PLAN_1
 62
     2
  6
CONTINUOUS
 10
-0.228551
 20
1.893461
  0
VERTEX
  8
PLAN_1
 62
     2
  6
CONTINUOUS
 10
-0.229524
 20
1.890539
  0
VERTEX
  8
PLAN_1
 62
     2
  6
CONTINUOUS
 10
-0.229524
 20
1.887618
  0
VERTEX
  8
PLAN_1
 62
     2
  6
CONTINUOUS
 10
-0.229524
 20
1.885181
  0
VERTEX
  8
PLAN_1
 62
     2
  6
CONTINUOUS
 10
-0.229524
 20
1.884693
  0
VERTEX
  8
PLAN_1
 62
     2
  6
CONTINUOUS
 10
-0.229524
 20
1.884209
  0
VERTEX
  8
PLAN_1
 62
     2
  6
CONTINUOUS
 10
-0.229524
 20
1.883720
  0
VERTEX
  8
PLAN_1
 62
     2
  6
CONTINUOUS
 10
-0.229524
 20
1.883232
  0
VERTEX
  8
PLAN_1
 62
     2
  6
CONTINUOUS
 10
-0.229524
 20
1.882748
  0
VERTEX
  8
PLAN_1
 62
     2
  6
CONTINUOUS
 10
-0.229524
 20
1.881772
  0
VERTEX
  8
PLAN_1
 62
     2
  6
CONTINUOUS
 10
-0.229524
 20
1.881283
  0
VERTEX
  8
PLAN_1
 62
     2
  6
CONTINUOUS
 10
-0.229524
 20
1.880799
  0
VERTEX
  8
PLAN_1
 62
     2
  6
CONTINUOUS
 10
-0.237319
 20
1.880799
  0
SEQEND
  8
0
  0
POLYLINE
  8
PLAN_1
 62
     2
  6
CONTINUOUS
 66
     1
 40
0.003000
 41
0.003000
  0
VERTEX
  8
PLAN_1
 62
     2
  6
CONTINUOUS
 10
-0.267512
 20
1.919272
  0
VERTEX
  8
PLAN_1
 62
     2
  6
CONTINUOUS
 10
-0.267512
 20
1.969921
  0
VERTEX
  8
PLAN_1
 62
     2
  6
CONTINUOUS
 10
-0.259720
 20
1.969921
  0
VERTEX
  8
PLAN_1
 62
     2
  6
CONTINUOUS
 10
-0.255823
 20
1.967000
  0
VERTEX
  8
PLAN_1
 62
     2
  6
CONTINUOUS
 10
-0.250953
 20
1.963102
  0
VERTEX
  8
PLAN_1
 62
     2
  6
CONTINUOUS
 10
-0.244622
 20
1.958720
  0
VERTEX
  8
PLAN_1
 62
     2
  6
CONTINUOUS
 10
-0.237319
 20
1.954339
  0
VERTEX
  8
PLAN_1
 62
     2
  6
CONTINUOUS
 10
-0.228551
 20
1.949953
  0
VERTEX
  8
PLAN_1
 62
     2
  6
CONTINUOUS
 10
-0.218811
 20
1.946059
  0
VERTEX
  8
PLAN_1
 62
     2
  6
CONTINUOUS
 10
-0.213453
 20
1.944110
  0
VERTEX
  8
PLAN_1
 62
     2
  6
CONTINUOUS
 10
-0.207610
 20
1.942650
  0
VERTEX
  8
PLAN_1
 62
     2
  6
CONTINUOUS
 10
-0.201764
 20
1.941189
  0
VERTEX
  8
PLAN_1
 62
     2
  6
CONTINUOUS
 10
-0.195921
 20
1.939728
  0
VERTEX
  8
PLAN_1
 62
     2
  6
CONTINUOUS
 10
-0.195921
 20
1.929988
  0
VERTEX
  8
PLAN_1
 62
     2
  6
CONTINUOUS
 10
-0.203713
 20
1.931449
  0
VERTEX
  8
PLAN_1
 62
     2
  6
CONTINUOUS
 10
-0.211992
 20
1.933394
  0
VERTEX
  8
PLAN_1
 62
     2
  6
CONTINUOUS
 10
-0.220272
 20
1.936803
  0
VERTEX
  8
PLAN_1
 62
     2
  6
CONTINUOUS
 10
-0.228551
 20
1.940213
  0
VERTEX
  8
PLAN_1
 62
     2
  6
CONTINUOUS
 10
-0.236831
 20
1.944598
  0
VERTEX
  8
PLAN_1
 62
     2
  6
CONTINUOUS
 10
-0.244622
 20
1.949469
  0
VERTEX
  8
PLAN_1
 62
     2
  6
CONTINUOUS
 10
-0.251929
 20
1.954339
  0
VERTEX
  8
PLAN_1
 62
     2
  6
CONTINUOUS
 10
-0.258744
 20
1.959693
  0
VERTEX
  8
PLAN_1
 62
     2
  6
CONTINUOUS
 10
-0.258744
 20
1.919272
  0
VERTEX
  8
PLAN_1
 62
     2
  6
CONTINUOUS
 10
-0.267512
 20
1.919272
  0
SEQEND
  8
0
  0
POLYLINE
  8
PLAN_1
 62
     2
  6
CONTINUOUS
 66
     1
 40
0.004382
 41
0.004382
  0
VERTEX
  8
PLAN_1
 62
     2
  6
CONTINUOUS
 10
-0.329850
 20
0.929177
  0
VERTEX
  8
PLAN_1
 62
     2
  6
CONTINUOUS
 10
-0.329850
 20
3.616508
  0
SEQEND
  8
0
  0
SOLID
  8
PLAN_1
 62
     2
 10
-0.329850
 20
3.645728
 11
-0.345433
 21
3.586799
 12
-0.329850
 22
3.645728
 13
-0.313780
 23
3.586799
  0
POLYLINE
  8
PLAN_1
 62
     2
  6
CONTINUOUS
 66
     1
 40
0.003000
 41
0.003000
  0
VERTEX
  8
PLAN_1
 62
     2
  6
CONTINUOUS
 10
-0.329850
 20
3.645728
  0
VERTEX
  8
PLAN_1
 62
     2
  6
CONTINUOUS
 10
-0.345433
 20
3.586799
  0
VERTEX
  8
PLAN_1
 62
     2
  6
CONTINUOUS
 10
-0.313780
 20
3.586799
  0
VERTEX
  8
PLAN_1
 62
     2
  6
CONTINUOUS
 10
-0.329850
 20
3.645728
  0
SEQEND
  8
0
  0
SOLID
  8
PLAN_1
 62
     2
 10
-0.329850
 20
0.899957
 11
-0.345433
 21
0.958886
 12
-0.329850
 22
0.899957
 13
-0.313780
 23
0.958886
  0
POLYLINE
  8
PLAN_1
 62
     2
  6
CONTINUOUS
 66
     1
 40
0.003000
 41
0.003000
  0
VERTEX
  8
PLAN_1
 62
     2
  6
CONTINUOUS
 10
-0.329850
 20
0.899957
  0
VERTEX
  8
PLAN_1
 62
     2
  6
CONTINUOUS
 10
-0.345433
 20
0.958886
  0
VERTEX
  8
PLAN_1
 62
     2
  6
CONTINUOUS
 10
-0.313780
 20
0.958886
  0
VERTEX
  8
PLAN_1
 62
     2
  6
CONTINUOUS
 10
-0.329850
 20
0.899957
  0
SEQEND
  8
0
  0
POLYLINE
  8
PLAN_1
 62
     2
  6
CONTINUOUS
 66
     1
 40
0.003000
 41
0.003000
  0
VERTEX
  8
PLAN_1
 62
     2
  6
CONTINUOUS
 10
-0.353224
 20
2.223169
  0
VERTEX
  8
PLAN_1
 62
     2
  6
CONTINUOUS
 10
-0.353224
 20
2.213429
  0
VERTEX
  8
PLAN_1
 62
     2
  6
CONTINUOUS
 10
-0.405335
 20
2.213429
  0
VERTEX
  8
PLAN_1
 62
     2
  6
CONTINUOUS
 10
-0.405335
 20
2.196382
  0
VERTEX
  8
PLAN_1
 62
     2
  6
CONTINUOUS
 10
-0.412642
 20
2.196382
  0
VERTEX
  8
PLAN_1
 62
     2
  6
CONTINUOUS
 10
-0.413130
 20
2.200764
  0
VERTEX
  8
PLAN_1
 62
     2
  6
CONTINUOUS
 10
-0.413614
 20
2.204173
  0
VERTEX
  8
PLAN_1
 62
     2
  6
CONTINUOUS
 10
-0.414102
 20
2.207094
  0
VERTEX
  8
PLAN_1
 62
     2
  6
CONTINUOUS
 10
-0.415563
 20
2.209531
  0
VERTEX
  8
PLAN_1
 62
     2
  6
CONTINUOUS
 10
-0.417024
 20
2.211965
  0
VERTEX
  8
PLAN_1
 62
     2
  6
CONTINUOUS
 10
-0.419461
 20
2.213429
  0
VERTEX
  8
PLAN_1
 62
     2
  6
CONTINUOUS
 10
-0.422382
 20
2.214890
  0
VERTEX
  8
PLAN_1
 62
     2
  6
CONTINUOUS
 10
-0.426280
 20
2.216350
  0
VERTEX
  8
PLAN_1
 62
     2
  6
CONTINUOUS
 10
-0.426280
 20
2.223169
  0
VERTEX
  8
PLAN_1
 62
     2
  6
CONTINUOUS
 10
-0.353224
 20
2.223169
  0
SEQEND
  8
0
  0
POLYLINE
  8
PLAN_1
 62
     2
  6
CONTINUOUS
 66
     1
 40
0.003000
 41
0.003000
  0
VERTEX
  8
PLAN_1
 62
     2
  6
CONTINUOUS
 10
-0.353224
 20
2.281122
  0
VERTEX
  8
PLAN_1
 62
     2
  6
CONTINUOUS
 10
-0.353224
 20
2.271382
  0
VERTEX
  8
PLAN_1
 62
     2
  6
CONTINUOUS
 10
-0.405335
 20
2.271382
  0
VERTEX
  8
PLAN_1
 62
     2
  6
CONTINUOUS
 10
-0.405335
 20
2.254335
  0
VERTEX
  8
PLAN_1
 62
     2
  6
CONTINUOUS
 10
-0.412642
 20
2.254335
  0
VERTEX
  8
PLAN_1
 62
     2
  6
CONTINUOUS
 10
-0.413130
 20
2.258720
  0
VERTEX
  8
PLAN_1
 62
     2
  6
CONTINUOUS
 10
-0.413614
 20
2.262130
  0
VERTEX
  8
PLAN_1
 62
     2
  6
CONTINUOUS
 10
-0.414102
 20
2.265051
  0
VERTEX
  8
PLAN_1
 62
     2
  6
CONTINUOUS
 10
-0.415563
 20
2.267484
  0
VERTEX
  8
PLAN_1
 62
     2
  6
CONTINUOUS
 10
-0.417024
 20
2.269433
  0
VERTEX
  8
PLAN_1
 62
     2
  6
CONTINUOUS
 10
-0.419461
 20
2.271382
  0
VERTEX
  8
PLAN_1
 62
     2
  6
CONTINUOUS
 10
-0.422382
 20
2.272843
  0
VERTEX
  8
PLAN_1
 62
     2
  6
CONTINUOUS
 10
-0.426280
 20
2.273815
  0
VERTEX
  8
PLAN_1
 62
     2
  6
CONTINUOUS
 10
-0.426280
 20
2.281122
  0
VERTEX
  8
PLAN_1
 62
     2
  6
CONTINUOUS
 10
-0.353224
 20
2.281122
  0
SEQEND
  8
0
  0
POLYLINE
  8
PLAN_1
 62
     2
  6
CONTINUOUS
 66
     1
 40
0.003000
 41
0.003000
  0
VERTEX
  8
PLAN_1
 62
     2
  6
CONTINUOUS
 10
-0.396083
 20
2.317161
  0
VERTEX
  8
PLAN_1
 62
     2
  6
CONTINUOUS
 10
-0.396571
 20
2.318134
  0
VERTEX
  8
PLAN_1
 62
     2
  6
CONTINUOUS
 10
-0.397543
 20
2.319594
  0
VERTEX
  8
PLAN_1
 62
     2
  6
CONTINUOUS
 10
-0.398520
 20
2.321055
  0
VERTEX
  8
PLAN_1
 62
     2
  6
CONTINUOUS
 10
-0.399004
 20
2.323004
  0
VERTEX
  8
PLAN_1
 62
     2
  6
CONTINUOUS
 10
-0.399492
 20
2.324465
  0
VERTEX
  8
PLAN_1
 62
     2
  6
CONTINUOUS
 10
-0.399980
 20
2.326902
  0
VERTEX
  8
PLAN_1
 62
     2
  6
CONTINUOUS
 10
-0.400465
 20
2.328850
  0
VERTEX
  8
PLAN_1
 62
     2
  6
CONTINUOUS
 10
-0.400465
 20
2.331283
  0
VERTEX
  8
PLAN_1
 62
     2
  6
CONTINUOUS
 10
-0.399980
 20
2.335665
  0
VERTEX
  8
PLAN_1
 62
     2
  6
CONTINUOUS
 10
-0.399004
 20
2.340051
  0
VERTEX
  8
PLAN_1
 62
     2
  6
CONTINUOUS
 10
-0.397059
 20
2.343945
  0
VERTEX
  8
PLAN_1
 62
     2
  6
CONTINUOUS
 10
-0.394622
 20
2.347843
  0
VERTEX
  8
PLAN_1
 62
     2
  6
CONTINUOUS
 10
-0.391213
 20
2.350764
  0
VERTEX
  8
PLAN_1
 62
     2
  6
CONTINUOUS
 10
-0.387319
 20
2.353201
  0
VERTEX
  8
PLAN_1
 62
     2
  6
CONTINUOUS
 10
-0.384882
 20
2.354173
  0
VERTEX
  8
PLAN_1
 62
     2
  6
CONTINUOUS
 10
-0.382449
 20
2.354661
  0
VERTEX
  8
PLAN_1
 62
     2
  6
CONTINUOUS
 10
-0.380012
 20
2.355146
  0
VERTEX
  8
PLAN_1
 62
     2
  6
CONTINUOUS
 10
-0.377091
 20
2.355146
  0
VERTEX
  8
PLAN_1
 62
     2
  6
CONTINUOUS
 10
-0.373681
 20
2.355146
  0
VERTEX
  8
PLAN_1
 62
     2
  6
CONTINUOUS
 10
-0.369783
 20
2.354173
  0
VERTEX
  8
PLAN_1
 62
     2
  6
CONTINUOUS
 10
-0.365402
 20
2.352713
  0
VERTEX
  8
PLAN_1
 62
     2
  6
CONTINUOUS
 10
-0.361020
 20
2.350764
  0
VERTEX
  8
PLAN_1
 62
     2
  6
CONTINUOUS
 10
-0.359071
 20
2.348815
  0
VERTEX
  8
PLAN_1
 62
     2
  6
CONTINUOUS
 10
-0.357610
 20
2.347354
  0
VERTEX
  8
PLAN_1
 62
     2
  6
CONTINUOUS
 10
-0.355661
 20
2.344921
  0
VERTEX
  8
PLAN_1
 62
     2
  6
CONTINUOUS
 10
-0.354201
 20
2.342484
  0
VERTEX
  8
PLAN_1
 62
     2
  6
CONTINUOUS
 10
-0.353224
 20
2.339563
  0
VERTEX
  8
PLAN_1
 62
     2
  6
CONTINUOUS
 10
-0.352252
 20
2.336642
  0
VERTEX
  8
PLAN_1
 62
     2
  6
CONTINUOUS
 10
-0.351764
 20
2.332744
  0
VERTEX
  8
PLAN_1
 62
     2
  6
CONTINUOUS
 10
-0.351280
 20
2.328850
  0
VERTEX
  8
PLAN_1
 62
     2
  6
CONTINUOUS
 10
-0.351764
 20
2.324953
  0
VERTEX
  8
PLAN_1
 62
     2
  6
CONTINUOUS
 10
-0.352252
 20
2.321055
  0
VERTEX
  8
PLAN_1
 62
     2
  6
CONTINUOUS
 10
-0.353713
 20
2.317650
  0
VERTEX
  8
PLAN_1
 62
     2
  6
CONTINUOUS
 10
-0.355173
 20
2.313752
  0
VERTEX
  8
PLAN_1
 62
     2
  6
CONTINUOUS
 10
-0.358094
 20
2.310831
  0
VERTEX
  8
PLAN_1
 62
     2
  6
CONTINUOUS
 10
-0.361504
 20
2.308394
  0
VERTEX
  8
PLAN_1
 62
     2
  6
CONTINUOUS
 10
-0.363453
 20
2.306933
  0
VERTEX
  8
PLAN_1
 62
     2
  6
CONTINUOUS
 10
-0.365890
 20
2.306445
  0
VERTEX
  8
PLAN_1
 62
     2
  6
CONTINUOUS
 10
-0.368811
 20
2.305472
  0
VERTEX
  8
PLAN_1
 62
     2
  6
CONTINUOUS
 10
-0.371732
 20
2.304984
  0
VERTEX
  8
PLAN_1
 62
     2
  6
CONTINUOUS
 10
-0.371732
 20
2.314724
  0
VERTEX
  8
PLAN_1
 62
     2
  6
CONTINUOUS
 10
-0.368811
 20
2.315213
  0
VERTEX
  8
PLAN_1
 62
     2
  6
CONTINUOUS
 10
-0.365890
 20
2.316185
  0
VERTEX
  8
PLAN_1
 62
     2
  6
CONTINUOUS
 10
-0.363941
 20
2.317650
  0
VERTEX
  8
PLAN_1
 62
     2
  6
CONTINUOUS
 10
-0.362480
 20
2.319594
  0
VERTEX
  8
PLAN_1
 62
     2
  6
CONTINUOUS
 10
-0.361020
 20
2.321543
  0
VERTEX
  8
PLAN_1
 62
     2
  6
CONTINUOUS
 10
-0.360043
 20
2.324465
  0
VERTEX
  8
PLAN_1
 62
     2
  6
CONTINUOUS
 10
-0.359559
 20
2.326902
  0
VERTEX
  8
PLAN_1
 62
     2
  6
CONTINUOUS
 10
-0.359071
 20
2.329823
  0
VERTEX
  8
PLAN_1
 62
     2
  6
CONTINUOUS
 10
-0.359559
 20
2.333232
  0
VERTEX
  8
PLAN_1
 62
     2
  6
CONTINUOUS
 10
-0.360531
 20
2.336642
  0
VERTEX
  8
PLAN_1
 62
     2
  6
CONTINUOUS
 10
-0.361992
 20
2.339075
  0
VERTEX
  8
PLAN_1
 62
     2
  6
CONTINUOUS
 10
-0.364429
 20
2.341512
  0
VERTEX
  8
PLAN_1
 62
     2
  6
CONTINUOUS
 10
-0.366862
 20
2.342972
  0
VERTEX
  8
PLAN_1
 62
     2
  6
CONTINUOUS
 10
-0.369783
 20
2.344433
  0
VERTEX
  8
PLAN_1
 62
     2
  6
CONTINUOUS
 10
-0.372705
 20
2.345406
  0
VERTEX
  8
PLAN_1
 62
     2
  6
CONTINUOUS
 10
-0.376114
 20
2.345406
  0
VERTEX
  8
PLAN_1
 62
     2
  6
CONTINUOUS
 10
-0.379524
 20
2.344921
  0
VERTEX
  8
PLAN_1
 62
     2
  6
CONTINUOUS
 10
-0.382933
 20
2.343945
  0
VERTEX
  8
PLAN_1
 62
     2
  6
CONTINUOUS
 10
-0.385854
 20
2.342484
  0
VERTEX
  8
PLAN_1
 62
     2
  6
CONTINUOUS
 10
-0.388291
 20
2.340535
  0
VERTEX
  8
PLAN_1
 62
     2
  6
CONTINUOUS
 10
-0.389752
 20
2.338102
  0
VERTEX
  8
PLAN_1
 62
     2
  6
CONTINUOUS
 10
-0.391213
 20
2.335665
  0
VERTEX
  8
PLAN_1
 62
     2
  6
CONTINUOUS
 10
-0.392189
 20
2.332744
  0
VERTEX
  8
PLAN_1
 62
     2
  6
CONTINUOUS
 10
-0.392189
 20
2.329335
  0
VERTEX
  8
PLAN_1
 62
     2
  6
CONTINUOUS
 10
-0.392189
 20
2.327390
  0
VERTEX
  8
PLAN_1
 62
     2
  6
CONTINUOUS
 10
-0.391701
 20
2.325441
  0
VERTEX
  8
PLAN_1
 62
     2
  6
CONTINUOUS
 10
-0.391213
 20
2.323492
  0
VERTEX
  8
PLAN_1
 62
     2
  6
CONTINUOUS
 10
-0.390240
 20
2.321543
  0
VERTEX
  8
PLAN_1
 62
     2
  6
CONTINUOUS
 10
-0.389264
 20
2.320083
  0
VERTEX
  8
PLAN_1
 62
     2
  6
CONTINUOUS
 10
-0.388291
 20
2.318622
  0
VERTEX
  8
PLAN_1
 62
     2
  6
CONTINUOUS
 10
-0.386831
 20
2.317161
  0
VERTEX
  8
PLAN_1
 62
     2
  6
CONTINUOUS
 10
-0.385370
 20
2.315701
  0
VERTEX
  8
PLAN_1
 62
     2
  6
CONTINUOUS
 10
-0.385854
 20
2.307906
  0
VERTEX
  8
PLAN_1
 62
     2
  6
CONTINUOUS
 10
-0.424815
 20
2.313264
  0
VERTEX
  8
PLAN_1
 62
     2
  6
CONTINUOUS
 10
-0.424815
 20
2.351252
  0
VERTEX
  8
PLAN_1
 62
     2
  6
CONTINUOUS
 10
-0.416051
 20
2.351252
  0
VERTEX
  8
PLAN_1
 62
     2
  6
CONTINUOUS
 10
-0.416051
 20
2.320083
  0
VERTEX
  8
PLAN_1
 62
     2
  6
CONTINUOUS
 10
-0.396083
 20
2.317161
  0
SEQEND
  8
0
  0
POLYLINE
  8
PLAN_1
 62
     2
  6
CONTINUOUS
 66
     1
 40
0.004382
 41
0.004382
  0
VERTEX
  8
PLAN_1
 62
     2
  6
CONTINUOUS
 10
-0.827087
 20
3.645728
  0
VERTEX
  8
PLAN_1
 62
     2
  6
CONTINUOUS
 10
-0.148681
 20
3.645728
  0
SEQEND
  8
0
  0
POLYLINE
  8
PLAN_1
 62
     2
  6
CONTINUOUS
 66
     1
 40
0.004382
 41
0.004382
  0
VERTEX
  8
PLAN_1
 62
     2
  6
CONTINUOUS
 10
-0.986343
 20
0.897524
  0
VERTEX
  8
PLAN_1
 62
     2
  6
CONTINUOUS
 10
-0.305984
 20
0.897524
  0
SEQEND
  8
0
  0
POLYLINE
  8
PLAN_1
 62
     2
  6
CONTINUOUS
 66
     1
 40
0.004382
 41
0.004382
  0
VERTEX
  8
PLAN_1
 62
     2
  6
CONTINUOUS
 10
-0.462803
 20
0.127555
  0
VERTEX
  8
PLAN_1
 62
     2
  6
CONTINUOUS
 10
-0.148681
 20
0.127555
  0
SEQEND
  8
0
  0
POLYLINE
  8
PLAN_1
 62
     2
  6
CONTINUOUS
 66
     1
 40
0.004382
 41
0.004382
  0
VERTEX
  8
PLAN_1
 62
     2
  6
CONTINUOUS
 10
-0.970756
 20
3.744106
  0
VERTEX
  8
PLAN_1
 62
     2
  6
CONTINUOUS
 10
-0.970756
 20
3.824949
  0
SEQEND
  8
0
  0
POLYLINE
  8
PLAN_1
 62
     2
  6
CONTINUOUS
 66
     1
 40
0.004382
 41
0.004382
  0
VERTEX
  8
PLAN_1
 62
     2
  6
CONTINUOUS
 10
-1.914587
 20
0.348173
  0
VERTEX
  8
PLAN_1
 62
     2
  6
CONTINUOUS
 10
-1.914587
 20
3.824949
  0
SEQEND
  8
0
  0
ENDSEC
  0
EOF
