  0
SECTION
  2
HEADER
  9
$ACADVER
  1
AC1006
  9
$EXTMIN
 10
-2.076673
 20
-3.623520
  9
$EXTMAX
 10
2.077000
 20
3.630000
  9
$LTSCALE
 40
0.000394
  9
$PDMODE
 70
    35
  9
$PDSIZE
 40
0.000315
  0
ENDSEC
  0
SECTION
  2
TABLES
  0
TABLE
  2
LTYPE
 70
     9
  0
LTYPE
  2
CONTINUOUS
 70
    64
  3
Solid line
 72
    65
 73
     0
 40
0.000000
  0
LTYPE
  2
DASHED
 70
    64
  3
__ __ __ __ __ __ __ __ __ __ __ __ __ __ __
 72
    65
 73
     2
 40
0.000003
 49
0.000002
 49
-0.000001
  0
LTYPE
  2
HIDDEN
 70
    64
  3
 _ _ _ _ _ _ _ _ _ _ _ _ _ _ _ _ _ _ _ _ _ _
 72
    65
 73
     2
 40
0.000001
 49
0.000001
 49
-0.000000
  0
LTYPE
  2
CENTER
 70
    64
  3
____ _ ____ _ ____ _ ____ _ ____ _ ____ _ ____
 72
    65
 73
     4
 40
0.000008
 49
0.000005
 49
-0.000001
 49
0.000001
 49
-0.000001
  0
LTYPE
  2
PHANTOM
 70
    64
  3
_____ _ _ _____ _ _ _____ _ _ _____ _ _ ____
 72
    65
 73
     6
 40
0.000010
 49
0.000005
 49
-0.000001
 49
0.000001
 49
-0.000001
 49
0.000001
 49
-0.000001
  0
LTYPE
  2
DOT
 70
    64
  3
...............................................
 72
    65
 73
     2
 40
0.000001
 49
0.000000
 49
-0.000001
  0
LTYPE
  2
DASHDOT
 70
    64
  3
__ . __ . __ . __ . __ . __ . __ . __ . __ . __
 72
    65
 73
     4
 40
0.000004
 49
0.000002
 49
-0.000001
 49
0.000000
 49
-0.000001
  0
LTYPE
  2
BORDER
 70
    64
  3
__ __ . __ __ . __ __ . __ __ . __ __ . __ __
 72
    65
 73
     6
 40
0.000007
 49
0.000002
 49
-0.000001
 49
0.000002
 49
-0.000001
 49
0.000000
 49
-0.000001
  0
LTYPE
  2
DIVIDE
 70
    64
  3
__ . . __ . . __ . . __ . . __ . . __ . . __
 72
    65
 73
     6
 40
0.000005
 49
0.000002
 49
-0.000001
 49
0.000000
 49
-0.000001
 49
0.000000
 49
-0.000001
  0
LTYPE
  2
DOTDOT
 70
    64
  3
 . .  . .  . .  . .  . .  . . 
 72
    65
 73
     5
 40
0.000002
 49
-0.000001
 49
0.000000
 49
-0.000001
 49
0.000000
 49
-0.000001
  0
ENDTAB
  0
TABLE
  2
STYLE
 70
     0
  0
ENDTAB
  0
TABLE
  2
LAYER
 70
     3
  0
LAYER
  2
FOREGROUND
 70
    64
 62
     7
  6
CONTINUOUS
  0
LAYER
  2
BACKGROUND
 70
    65
 62
    -7
  6
CONTINUOUS
  0
LAYER
  2
PLAN_1
 70
    64
 62
     7
  6
CONTINUOUS
  0
ENDTAB
  0
ENDSEC
  0
SECTION
  2
ENTITIES
  0
POLYLINE
  8
PLAN_1
  6
CONTINUOUS
 66
     1
 40
0.003000
 41
0.003000
  0
VERTEX
  8
PLAN_1
  6
CONTINUOUS
 10
0.289008
 20
-3.588610
  0
VERTEX
  8
PLAN_1
  6
CONTINUOUS
 10
0.132150
 20
-3.588610
  0
VERTEX
  8
PLAN_1
  6
CONTINUOUS
 10
0.132150
 20
-3.566398
  0
VERTEX
  8
PLAN_1
  6
CONTINUOUS
 10
0.254098
 20
-3.413622
  0
VERTEX
  8
PLAN_1
  6
CONTINUOUS
 10
0.141217
 20
-3.413622
  0
VERTEX
  8
PLAN_1
  6
CONTINUOUS
 10
0.141217
 20
-3.389594
  0
VERTEX
  8
PLAN_1
  6
CONTINUOUS
 10
0.289008
 20
-3.389594
  0
VERTEX
  8
PLAN_1
  6
CONTINUOUS
 10
0.289008
 20
-3.412713
  0
VERTEX
  8
PLAN_1
  6
CONTINUOUS
 10
0.166150
 20
-3.565039
  0
VERTEX
  8
PLAN_1
  6
CONTINUOUS
 10
0.289008
 20
-3.565039
  0
VERTEX
  8
PLAN_1
  6
CONTINUOUS
 10
0.289008
 20
-3.588610
  0
SEQEND
  8
0
  0
POLYLINE
  8
PLAN_1
  6
CONTINUOUS
 66
     1
 40
0.003000
 41
0.003000
  0
VERTEX
  8
PLAN_1
  6
CONTINUOUS
 10
0.456291
 20
-3.449437
  0
VERTEX
  8
PLAN_1
  6
CONTINUOUS
 10
0.454476
 20
-3.443087
  0
VERTEX
  8
PLAN_1
  6
CONTINUOUS
 10
0.452665
 20
-3.437650
  0
VERTEX
  8
PLAN_1
  6
CONTINUOUS
 10
0.449945
 20
-3.432661
  0
VERTEX
  8
PLAN_1
  6
CONTINUOUS
 10
0.447224
 20
-3.428126
  0
VERTEX
  8
PLAN_1
  6
CONTINUOUS
 10
0.444051
 20
-3.424500
  0
VERTEX
  8
PLAN_1
  6
CONTINUOUS
 10
0.440425
 20
-3.420874
  0
VERTEX
  8
PLAN_1
  6
CONTINUOUS
 10
0.436799
 20
-3.418154
  0
VERTEX
  8
PLAN_1
  6
CONTINUOUS
 10
0.432717
 20
-3.415886
  0
VERTEX
  8
PLAN_1
  6
CONTINUOUS
 10
0.428638
 20
-3.413622
  0
VERTEX
  8
PLAN_1
  6
CONTINUOUS
 10
0.424559
 20
-3.411807
  0
VERTEX
  8
PLAN_1
  6
CONTINUOUS
 10
0.420476
 20
-3.410902
  0
VERTEX
  8
PLAN_1
  6
CONTINUOUS
 10
0.416398
 20
-3.409539
  0
VERTEX
  8
PLAN_1
  6
CONTINUOUS
 10
0.408236
 20
-3.408634
  0
VERTEX
  8
PLAN_1
  6
CONTINUOUS
 10
0.400531
 20
-3.408181
  0
VERTEX
  8
PLAN_1
  6
CONTINUOUS
 10
0.393728
 20
-3.408634
  0
VERTEX
  8
PLAN_1
  6
CONTINUOUS
 10
0.387382
 20
-3.409539
  0
VERTEX
  8
PLAN_1
  6
CONTINUOUS
 10
0.381035
 20
-3.410902
  0
VERTEX
  8
PLAN_1
  6
CONTINUOUS
 10
0.375142
 20
-3.413169
  0
VERTEX
  8
PLAN_1
  6
CONTINUOUS
 10
0.369248
 20
-3.415886
  0
VERTEX
  8
PLAN_1
  6
CONTINUOUS
 10
0.363811
 20
-3.419516
  0
VERTEX
  8
PLAN_1
  6
CONTINUOUS
 10
0.358823
 20
-3.423594
  0
VERTEX
  8
PLAN_1
  6
CONTINUOUS
 10
0.354287
 20
-3.428126
  0
VERTEX
  8
PLAN_1
  6
CONTINUOUS
 10
0.350209
 20
-3.433114
  0
VERTEX
  8
PLAN_1
  6
CONTINUOUS
 10
0.346583
 20
-3.439008
  0
VERTEX
  8
PLAN_1
  6
CONTINUOUS
 10
0.342957
 20
-3.445807
  0
VERTEX
  8
PLAN_1
  6
CONTINUOUS
 10
0.340236
 20
-3.452610
  0
VERTEX
  8
PLAN_1
  6
CONTINUOUS
 10
0.337969
 20
-3.460315
  0
VERTEX
  8
PLAN_1
  6
CONTINUOUS
 10
0.336610
 20
-3.468929
  0
VERTEX
  8
PLAN_1
  6
CONTINUOUS
 10
0.335701
 20
-3.477543
  0
VERTEX
  8
PLAN_1
  6
CONTINUOUS
 10
0.335248
 20
-3.487063
  0
VERTEX
  8
PLAN_1
  6
CONTINUOUS
 10
0.335248
 20
-3.496130
  0
VERTEX
  8
PLAN_1
  6
CONTINUOUS
 10
0.336154
 20
-3.504291
  0
VERTEX
  8
PLAN_1
  6
CONTINUOUS
 10
0.337063
 20
-3.512449
  0
VERTEX
  8
PLAN_1
  6
CONTINUOUS
 10
0.338421
 20
-3.520157
  0
VERTEX
  8
PLAN_1
  6
CONTINUOUS
 10
0.340689
 20
-3.527409
  0
VERTEX
  8
PLAN_1
  6
CONTINUOUS
 10
0.342957
 20
-3.534209
  0
VERTEX
  8
PLAN_1
  6
CONTINUOUS
 10
0.346130
 20
-3.540559
  0
VERTEX
  8
PLAN_1
  6
CONTINUOUS
 10
0.349756
 20
-3.546453
  0
VERTEX
  8
PLAN_1
  6
CONTINUOUS
 10
0.353835
 20
-3.551437
  0
VERTEX
  8
PLAN_1
  6
CONTINUOUS
 10
0.358823
 20
-3.556425
  0
VERTEX
  8
PLAN_1
  6
CONTINUOUS
 10
0.361091
 20
-3.558693
  0
VERTEX
  8
PLAN_1
  6
CONTINUOUS
 10
0.364264
 20
-3.560504
  0
VERTEX
  8
PLAN_1
  6
CONTINUOUS
 10
0.366984
 20
-3.562319
  0
VERTEX
  8
PLAN_1
  6
CONTINUOUS
 10
0.370157
 20
-3.563677
  0
VERTEX
  8
PLAN_1
  6
CONTINUOUS
 10
0.373331
 20
-3.565492
  0
VERTEX
  8
PLAN_1
  6
CONTINUOUS
 10
0.376957
 20
-3.566398
  0
VERTEX
  8
PLAN_1
  6
CONTINUOUS
 10
0.380583
 20
-3.567760
  0
VERTEX
  8
PLAN_1
  6
CONTINUOUS
 10
0.384209
 20
-3.568665
  0
VERTEX
  8
PLAN_1
  6
CONTINUOUS
 10
0.392370
 20
-3.570024
  0
VERTEX
  8
PLAN_1
  6
CONTINUOUS
 10
0.401437
 20
-3.570024
  0
VERTEX
  8
PLAN_1
  6
CONTINUOUS
 10
0.404610
 20
-3.570024
  0
VERTEX
  8
PLAN_1
  6
CONTINUOUS
 10
0.408236
 20
-3.569571
  0
VERTEX
  8
PLAN_1
  6
CONTINUOUS
 10
0.412319
 20
-3.569118
  0
VERTEX
  8
PLAN_1
  6
CONTINUOUS
 10
0.416398
 20
-3.568213
  0
VERTEX
  8
PLAN_1
  6
CONTINUOUS
 10
0.420476
 20
-3.566850
  0
VERTEX
  8
PLAN_1
  6
CONTINUOUS
 10
0.424559
 20
-3.565039
  0
VERTEX
  8
PLAN_1
  6
CONTINUOUS
 10
0.428638
 20
-3.562772
  0
VERTEX
  8
PLAN_1
  6
CONTINUOUS
 10
0.432717
 20
-3.560051
  0
VERTEX
  8
PLAN_1
  6
CONTINUOUS
 10
0.436799
 20
-3.556878
  0
VERTEX
  8
PLAN_1
  6
CONTINUOUS
 10
0.440878
 20
-3.553252
  0
VERTEX
  8
PLAN_1
  6
CONTINUOUS
 10
0.444504
 20
-3.548717
  0
VERTEX
  8
PLAN_1
  6
CONTINUOUS
 10
0.447677
 20
-3.543732
  0
VERTEX
  8
PLAN_1
  6
CONTINUOUS
 10
0.450850
 20
-3.537839
  0
VERTEX
  8
PLAN_1
  6
CONTINUOUS
 10
0.454024
 20
-3.531035
  0
VERTEX
  8
PLAN_1
  6
CONTINUOUS
 10
0.456291
 20
-3.523783
  0
VERTEX
  8
PLAN_1
  6
CONTINUOUS
 10
0.458106
 20
-3.515622
  0
VERTEX
  8
PLAN_1
  6
CONTINUOUS
 10
0.484398
 20
-3.515622
  0
VERTEX
  8
PLAN_1
  6
CONTINUOUS
 10
0.483039
 20
-3.522425
  0
VERTEX
  8
PLAN_1
  6
CONTINUOUS
 10
0.481677
 20
-3.528772
  0
VERTEX
  8
PLAN_1
  6
CONTINUOUS
 10
0.479866
 20
-3.534665
  0
VERTEX
  8
PLAN_1
  6
CONTINUOUS
 10
0.478051
 20
-3.540559
  0
VERTEX
  8
PLAN_1
  6
CONTINUOUS
 10
0.475787
 20
-3.545996
  0
VERTEX
  8
PLAN_1
  6
CONTINUOUS
 10
0.473520
 20
-3.550531
  0
VERTEX
  8
PLAN_1
  6
CONTINUOUS
 10
0.470799
 20
-3.555520
  0
VERTEX
  8
PLAN_1
  6
CONTINUOUS
 10
0.468079
 20
-3.559598
  0
VERTEX
  8
PLAN_1
  6
CONTINUOUS
 10
0.465358
 20
-3.563677
  0
VERTEX
  8
PLAN_1
  6
CONTINUOUS
 10
0.462185
 20
-3.567303
  0
VERTEX
  8
PLAN_1
  6
CONTINUOUS
 10
0.459012
 20
-3.570476
  0
VERTEX
  8
PLAN_1
  6
CONTINUOUS
 10
0.455839
 20
-3.573654
  0
VERTEX
  8
PLAN_1
  6
CONTINUOUS
 10
0.452665
 20
-3.576370
  0
VERTEX
  8
PLAN_1
  6
CONTINUOUS
 10
0.449039
 20
-3.578638
  0
VERTEX
  8
PLAN_1
  6
CONTINUOUS
 10
0.445413
 20
-3.580906
  0
VERTEX
  8
PLAN_1
  6
CONTINUOUS
 10
0.442236
 20
-3.583173
  0
VERTEX
  8
PLAN_1
  6
CONTINUOUS
 10
0.435437
 20
-3.586346
  0
VERTEX
  8
PLAN_1
  6
CONTINUOUS
 10
0.428185
 20
-3.589067
  0
VERTEX
  8
PLAN_1
  6
CONTINUOUS
 10
0.421839
 20
-3.590878
  0
VERTEX
  8
PLAN_1
  6
CONTINUOUS
 10
0.415492
 20
-3.592240
  0
VERTEX
  8
PLAN_1
  6
CONTINUOUS
 10
0.404610
 20
-3.593598
  0
VERTEX
  8
PLAN_1
  6
CONTINUOUS
 10
0.397358
 20
-3.594051
  0
VERTEX
  8
PLAN_1
  6
CONTINUOUS
 10
0.388744
 20
-3.593598
  0
VERTEX
  8
PLAN_1
  6
CONTINUOUS
 10
0.380130
 20
-3.592693
  0
VERTEX
  8
PLAN_1
  6
CONTINUOUS
 10
0.371969
 20
-3.590878
  0
VERTEX
  8
PLAN_1
  6
CONTINUOUS
 10
0.364264
 20
-3.588157
  0
VERTEX
  8
PLAN_1
  6
CONTINUOUS
 10
0.356102
 20
-3.584984
  0
VERTEX
  8
PLAN_1
  6
CONTINUOUS
 10
0.348850
 20
-3.580906
  0
VERTEX
  8
PLAN_1
  6
CONTINUOUS
 10
0.345220
 20
-3.578185
  0
VERTEX
  8
PLAN_1
  6
CONTINUOUS
 10
0.342047
 20
-3.575917
  0
VERTEX
  8
PLAN_1
  6
CONTINUOUS
 10
0.338421
 20
-3.572744
  0
VERTEX
  8
PLAN_1
  6
CONTINUOUS
 10
0.335248
 20
-3.570024
  0
VERTEX
  8
PLAN_1
  6
CONTINUOUS
 10
0.332075
 20
-3.566398
  0
VERTEX
  8
PLAN_1
  6
CONTINUOUS
 10
0.329354
 20
-3.563224
  0
VERTEX
  8
PLAN_1
  6
CONTINUOUS
 10
0.326634
 20
-3.559146
  0
VERTEX
  8
PLAN_1
  6
CONTINUOUS
 10
0.323913
 20
-3.555520
  0
VERTEX
  8
PLAN_1
  6
CONTINUOUS
 10
0.321650
 20
-3.550984
  0
VERTEX
  8
PLAN_1
  6
CONTINUOUS
 10
0.319382
 20
-3.546453
  0
VERTEX
  8
PLAN_1
  6
CONTINUOUS
 10
0.317114
 20
-3.541917
  0
VERTEX
  8
PLAN_1
  6
CONTINUOUS
 10
0.315303
 20
-3.536929
  0
VERTEX
  8
PLAN_1
  6
CONTINUOUS
 10
0.313488
 20
-3.531945
  0
VERTEX
  8
PLAN_1
  6
CONTINUOUS
 10
0.311673
 20
-3.526504
  0
VERTEX
  8
PLAN_1
  6
CONTINUOUS
 10
0.310768
 20
-3.520610
  0
VERTEX
  8
PLAN_1
  6
CONTINUOUS
 10
0.309409
 20
-3.514717
  0
VERTEX
  8
PLAN_1
  6
CONTINUOUS
 10
0.308500
 20
-3.508370
  0
VERTEX
  8
PLAN_1
  6
CONTINUOUS
 10
0.308047
 20
-3.502024
  0
VERTEX
  8
PLAN_1
  6
CONTINUOUS
 10
0.307594
 20
-3.495224
  0
VERTEX
  8
PLAN_1
  6
CONTINUOUS
 10
0.307594
 20
-3.487969
  0
VERTEX
  8
PLAN_1
  6
CONTINUOUS
 10
0.308047
 20
-3.476634
  0
VERTEX
  8
PLAN_1
  6
CONTINUOUS
 10
0.308953
 20
-3.466209
  0
VERTEX
  8
PLAN_1
  6
CONTINUOUS
 10
0.311220
 20
-3.455783
  0
VERTEX
  8
PLAN_1
  6
CONTINUOUS
 10
0.313941
 20
-3.445807
  0
VERTEX
  8
PLAN_1
  6
CONTINUOUS
 10
0.315303
 20
-3.441276
  0
VERTEX
  8
PLAN_1
  6
CONTINUOUS
 10
0.317567
 20
-3.436740
  0
VERTEX
  8
PLAN_1
  6
CONTINUOUS
 10
0.319382
 20
-3.432661
  0
VERTEX
  8
PLAN_1
  6
CONTINUOUS
 10
0.321650
 20
-3.428126
  0
VERTEX
  8
PLAN_1
  6
CONTINUOUS
 10
0.323913
 20
-3.424047
  0
VERTEX
  8
PLAN_1
  6
CONTINUOUS
 10
0.326634
 20
-3.420421
  0
VERTEX
  8
PLAN_1
  6
CONTINUOUS
 10
0.329354
 20
-3.416795
  0
VERTEX
  8
PLAN_1
  6
CONTINUOUS
 10
0.332075
 20
-3.413169
  0
VERTEX
  8
PLAN_1
  6
CONTINUOUS
 10
0.335248
 20
-3.409996
  0
VERTEX
  8
PLAN_1
  6
CONTINUOUS
 10
0.338421
 20
-3.406819
  0
VERTEX
  8
PLAN_1
  6
CONTINUOUS
 10
0.342047
 20
-3.403646
  0
VERTEX
  8
PLAN_1
  6
CONTINUOUS
 10
0.345677
 20
-3.400929
  0
VERTEX
  8
PLAN_1
  6
CONTINUOUS
 10
0.349303
 20
-3.398209
  0
VERTEX
  8
PLAN_1
  6
CONTINUOUS
 10
0.353382
 20
-3.395941
  0
VERTEX
  8
PLAN_1
  6
CONTINUOUS
 10
0.357461
 20
-3.393673
  0
VERTEX
  8
PLAN_1
  6
CONTINUOUS
 10
0.361543
 20
-3.391862
  0
VERTEX
  8
PLAN_1
  6
CONTINUOUS
 10
0.365622
 20
-3.390047
  0
VERTEX
  8
PLAN_1
  6
CONTINUOUS
 10
0.370157
 20
-3.388685
  0
VERTEX
  8
PLAN_1
  6
CONTINUOUS
 10
0.375142
 20
-3.387327
  0
VERTEX
  8
PLAN_1
  6
CONTINUOUS
 10
0.379677
 20
-3.386421
  0
VERTEX
  8
PLAN_1
  6
CONTINUOUS
 10
0.384661
 20
-3.385512
  0
VERTEX
  8
PLAN_1
  6
CONTINUOUS
 10
0.389650
 20
-3.384606
  0
VERTEX
  8
PLAN_1
  6
CONTINUOUS
 10
0.395091
 20
-3.384606
  0
VERTEX
  8
PLAN_1
  6
CONTINUOUS
 10
0.400531
 20
-3.384154
  0
VERTEX
  8
PLAN_1
  6
CONTINUOUS
 10
0.409598
 20
-3.384606
  0
VERTEX
  8
PLAN_1
  6
CONTINUOUS
 10
0.418665
 20
-3.385512
  0
VERTEX
  8
PLAN_1
  6
CONTINUOUS
 10
0.426823
 20
-3.387327
  0
VERTEX
  8
PLAN_1
  6
CONTINUOUS
 10
0.434531
 20
-3.389594
  0
VERTEX
  8
PLAN_1
  6
CONTINUOUS
 10
0.441331
 20
-3.392768
  0
VERTEX
  8
PLAN_1
  6
CONTINUOUS
 10
0.448130
 20
-3.395941
  0
VERTEX
  8
PLAN_1
  6
CONTINUOUS
 10
0.454024
 20
-3.400020
  0
VERTEX
  8
PLAN_1
  6
CONTINUOUS
 10
0.459012
 20
-3.404555
  0
VERTEX
  8
PLAN_1
  6
CONTINUOUS
 10
0.464000
 20
-3.409087
  0
VERTEX
  8
PLAN_1
  6
CONTINUOUS
 10
0.468079
 20
-3.414075
  0
VERTEX
  8
PLAN_1
  6
CONTINUOUS
 10
0.472157
 20
-3.419516
  0
VERTEX
  8
PLAN_1
  6
CONTINUOUS
 10
0.475331
 20
-3.425409
  0
VERTEX
  8
PLAN_1
  6
CONTINUOUS
 10
0.477598
 20
-3.431303
  0
VERTEX
  8
PLAN_1
  6
CONTINUOUS
 10
0.479866
 20
-3.437193
  0
VERTEX
  8
PLAN_1
  6
CONTINUOUS
 10
0.481224
 20
-3.443087
  0
VERTEX
  8
PLAN_1
  6
CONTINUOUS
 10
0.482134
 20
-3.449437
  0
VERTEX
  8
PLAN_1
  6
CONTINUOUS
 10
0.456291
 20
-3.449437
  0
SEQEND
  8
0
  0
POLYLINE
  8
PLAN_1
  6
CONTINUOUS
 66
     1
 40
0.003000
 41
0.003000
  0
VERTEX
  8
PLAN_1
  6
CONTINUOUS
 10
0.543787
 20
-3.588610
  0
VERTEX
  8
PLAN_1
  6
CONTINUOUS
 10
0.517039
 20
-3.588610
  0
VERTEX
  8
PLAN_1
  6
CONTINUOUS
 10
0.517039
 20
-3.389594
  0
VERTEX
  8
PLAN_1
  6
CONTINUOUS
 10
0.543787
 20
-3.389594
  0
VERTEX
  8
PLAN_1
  6
CONTINUOUS
 10
0.543787
 20
-3.486157
  0
VERTEX
  8
PLAN_1
  6
CONTINUOUS
 10
0.640350
 20
-3.389594
  0
VERTEX
  8
PLAN_1
  6
CONTINUOUS
 10
0.677524
 20
-3.389594
  0
VERTEX
  8
PLAN_1
  6
CONTINUOUS
 10
0.594563
 20
-3.469835
  0
VERTEX
  8
PLAN_1
  6
CONTINUOUS
 10
0.679791
 20
-3.588610
  0
VERTEX
  8
PLAN_1
  6
CONTINUOUS
 10
0.644882
 20
-3.588610
  0
VERTEX
  8
PLAN_1
  6
CONTINUOUS
 10
0.575067
 20
-3.488878
  0
VERTEX
  8
PLAN_1
  6
CONTINUOUS
 10
0.543787
 20
-3.518795
  0
VERTEX
  8
PLAN_1
  6
CONTINUOUS
 10
0.543787
 20
-3.588610
  0
SEQEND
  8
0
  0
POLYLINE
  8
PLAN_1
  6
CONTINUOUS
 66
     1
 40
0.003000
 41
0.003000
  0
VERTEX
  8
PLAN_1
  6
CONTINUOUS
 10
0.852063
 20
-3.588610
  0
VERTEX
  8
PLAN_1
  6
CONTINUOUS
 10
0.704724
 20
-3.588610
  0
VERTEX
  8
PLAN_1
  6
CONTINUOUS
 10
0.704724
 20
-3.389594
  0
VERTEX
  8
PLAN_1
  6
CONTINUOUS
 10
0.849795
 20
-3.389594
  0
VERTEX
  8
PLAN_1
  6
CONTINUOUS
 10
0.849795
 20
-3.413622
  0
VERTEX
  8
PLAN_1
  6
CONTINUOUS
 10
0.731925
 20
-3.413622
  0
VERTEX
  8
PLAN_1
  6
CONTINUOUS
 10
0.731925
 20
-3.474370
  0
VERTEX
  8
PLAN_1
  6
CONTINUOUS
 10
0.840728
 20
-3.474370
  0
VERTEX
  8
PLAN_1
  6
CONTINUOUS
 10
0.840728
 20
-3.498398
  0
VERTEX
  8
PLAN_1
  6
CONTINUOUS
 10
0.731925
 20
-3.498398
  0
VERTEX
  8
PLAN_1
  6
CONTINUOUS
 10
0.731925
 20
-3.565039
  0
VERTEX
  8
PLAN_1
  6
CONTINUOUS
 10
0.852063
 20
-3.565039
  0
VERTEX
  8
PLAN_1
  6
CONTINUOUS
 10
0.852063
 20
-3.588610
  0
SEQEND
  8
0
  0
POLYLINE
  8
PLAN_1
  6
CONTINUOUS
 66
     1
 40
0.003000
 41
0.003000
  0
VERTEX
  8
PLAN_1
  6
CONTINUOUS
 10
0.878354
 20
-3.463488
  0
VERTEX
  8
PLAN_1
  6
CONTINUOUS
 10
0.878354
 20
-3.458047
  0
VERTEX
  8
PLAN_1
  6
CONTINUOUS
 10
0.878811
 20
-3.452610
  0
VERTEX
  8
PLAN_1
  6
CONTINUOUS
 10
0.879717
 20
-3.447169
  0
VERTEX
  8
PLAN_1
  6
CONTINUOUS
 10
0.880622
 20
-3.442181
  0
VERTEX
  8
PLAN_1
  6
CONTINUOUS
 10
0.881528
 20
-3.437650
  0
VERTEX
  8
PLAN_1
  6
CONTINUOUS
 10
0.882890
 20
-3.433567
  0
VERTEX
  8
PLAN_1
  6
CONTINUOUS
 10
0.884248
 20
-3.429488
  0
VERTEX
  8
PLAN_1
  6
CONTINUOUS
 10
0.886063
 20
-3.425862
  0
VERTEX
  8
PLAN_1
  6
CONTINUOUS
 10
0.887878
 20
-3.422689
  0
VERTEX
  8
PLAN_1
  6
CONTINUOUS
 10
0.889689
 20
-3.419059
  0
VERTEX
  8
PLAN_1
  6
CONTINUOUS
 10
0.891957
 20
-3.416343
  0
VERTEX
  8
PLAN_1
  6
CONTINUOUS
 10
0.894224
 20
-3.413622
  0
VERTEX
  8
PLAN_1
  6
CONTINUOUS
 10
0.899209
 20
-3.408634
  0
VERTEX
  8
PLAN_1
  6
CONTINUOUS
 10
0.904197
 20
-3.405008
  0
VERTEX
  8
PLAN_1
  6
CONTINUOUS
 10
0.909638
 20
-3.401835
  0
VERTEX
  8
PLAN_1
  6
CONTINUOUS
 10
0.915079
 20
-3.399114
  0
VERTEX
  8
PLAN_1
  6
CONTINUOUS
 10
0.920969
 20
-3.397299
  0
VERTEX
  8
PLAN_1
  6
CONTINUOUS
 10
0.926409
 20
-3.395488
  0
VERTEX
  8
PLAN_1
  6
CONTINUOUS
 10
0.931850
 20
-3.394579
  0
VERTEX
  8
PLAN_1
  6
CONTINUOUS
 10
0.936839
 20
-3.394126
  0
VERTEX
  8
PLAN_1
  6
CONTINUOUS
 10
0.941823
 20
-3.393673
  0
VERTEX
  8
PLAN_1
  6
CONTINUOUS
 10
0.945906
 20
-3.393673
  0
VERTEX
  8
PLAN_1
  6
CONTINUOUS
 10
0.952252
 20
-3.394126
  0
VERTEX
  8
PLAN_1
  6
CONTINUOUS
 10
0.958146
 20
-3.394579
  0
VERTEX
  8
PLAN_1
  6
CONTINUOUS
 10
0.964039
 20
-3.395941
  0
VERTEX
  8
PLAN_1
  6
CONTINUOUS
 10
0.969476
 20
-3.397752
  0
VERTEX
  8
PLAN_1
  6
CONTINUOUS
 10
0.974917
 20
-3.400020
  0
VERTEX
  8
PLAN_1
  6
CONTINUOUS
 10
0.979906
 20
-3.402740
  0
VERTEX
  8
PLAN_1
  6
CONTINUOUS
 10
0.984894
 20
-3.405461
  0
VERTEX
  8
PLAN_1
  6
CONTINUOUS
 10
0.988972
 20
-3.409087
  0
VERTEX
  8
PLAN_1
  6
CONTINUOUS
 10
0.993051
 20
-3.413169
  0
VERTEX
  8
PLAN_1
  6
CONTINUOUS
 10
0.996677
 20
-3.417701
  0
VERTEX
  8
PLAN_1
  6
CONTINUOUS
 10
0.999398
 20
-3.422236
  0
VERTEX
  8
PLAN_1
  6
CONTINUOUS
 10
1.002118
 20
-3.427673
  0
VERTEX
  8
PLAN_1
  6
CONTINUOUS
 10
1.004386
 20
-3.433114
  0
VERTEX
  8
PLAN_1
  6
CONTINUOUS
 10
1.005744
 20
-3.439008
  0
VERTEX
  8
PLAN_1
  6
CONTINUOUS
 10
1.006654
 20
-3.445354
  0
VERTEX
  8
PLAN_1
  6
CONTINUOUS
 10
1.007106
 20
-3.452154
  0
VERTEX
  8
PLAN_1
  6
CONTINUOUS
 10
1.006654
 20
-3.458504
  0
VERTEX
  8
PLAN_1
  6
CONTINUOUS
 10
1.005744
 20
-3.464394
  0
VERTEX
  8
PLAN_1
  6
CONTINUOUS
 10
1.004386
 20
-3.469835
  0
VERTEX
  8
PLAN_1
  6
CONTINUOUS
 10
1.003028
 20
-3.474823
  0
VERTEX
  8
PLAN_1
  6
CONTINUOUS
 10
1.000760
 20
-3.479354
  0
VERTEX
  8
PLAN_1
  6
CONTINUOUS
 10
0.998039
 20
-3.483890
  0
VERTEX
  8
PLAN_1
  6
CONTINUOUS
 10
0.995319
 20
-3.487969
  0
VERTEX
  8
PLAN_1
  6
CONTINUOUS
 10
0.991693
 20
-3.492051
  0
VERTEX
  8
PLAN_1
  6
CONTINUOUS
 10
0.988067
 20
-3.495677
  0
VERTEX
  8
PLAN_1
  6
CONTINUOUS
 10
0.983984
 20
-3.498850
  0
VERTEX
  8
PLAN_1
  6
CONTINUOUS
 10
0.979906
 20
-3.502476
  0
VERTEX
  8
PLAN_1
  6
CONTINUOUS
 10
0.975370
 20
-3.505197
  0
VERTEX
  8
PLAN_1
  6
CONTINUOUS
 10
0.965398
 20
-3.511543
  0
VERTEX
  8
PLAN_1
  6
CONTINUOUS
 10
0.954520
 20
-3.517437
  0
VERTEX
  8
PLAN_1
  6
CONTINUOUS
 10
0.934571
 20
-3.528319
  0
VERTEX
  8
PLAN_1
  6
CONTINUOUS
 10
0.929583
 20
-3.531035
  0
VERTEX
  8
PLAN_1
  6
CONTINUOUS
 10
0.925504
 20
-3.533756
  0
VERTEX
  8
PLAN_1
  6
CONTINUOUS
 10
0.921425
 20
-3.536476
  0
VERTEX
  8
PLAN_1
  6
CONTINUOUS
 10
0.918252
 20
-3.539197
  0
VERTEX
  8
PLAN_1
  6
CONTINUOUS
 10
0.912358
 20
-3.544638
  0
VERTEX
  8
PLAN_1
  6
CONTINUOUS
 10
0.908276
 20
-3.549626
  0
VERTEX
  8
PLAN_1
  6
CONTINUOUS
 10
0.905102
 20
-3.554610
  0
VERTEX
  8
PLAN_1
  6
CONTINUOUS
 10
0.902835
 20
-3.558693
  0
VERTEX
  8
PLAN_1
  6
CONTINUOUS
 10
0.901476
 20
-3.562772
  0
VERTEX
  8
PLAN_1
  6
CONTINUOUS
 10
0.901024
 20
-3.565945
  0
VERTEX
  8
PLAN_1
  6
CONTINUOUS
 10
1.007106
 20
-3.565945
  0
VERTEX
  8
PLAN_1
  6
CONTINUOUS
 10
1.007106
 20
-3.588610
  0
VERTEX
  8
PLAN_1
  6
CONTINUOUS
 10
0.873370
 20
-3.588610
  0
VERTEX
  8
PLAN_1
  6
CONTINUOUS
 10
0.873823
 20
-3.581358
  0
VERTEX
  8
PLAN_1
  6
CONTINUOUS
 10
0.874728
 20
-3.574559
  0
VERTEX
  8
PLAN_1
  6
CONTINUOUS
 10
0.876091
 20
-3.567760
  0
VERTEX
  8
PLAN_1
  6
CONTINUOUS
 10
0.877449
 20
-3.561866
  0
VERTEX
  8
PLAN_1
  6
CONTINUOUS
 10
0.879264
 20
-3.555972
  0
VERTEX
  8
PLAN_1
  6
CONTINUOUS
 10
0.881528
 20
-3.550531
  0
VERTEX
  8
PLAN_1
  6
CONTINUOUS
 10
0.884248
 20
-3.545543
  0
VERTEX
  8
PLAN_1
  6
CONTINUOUS
 10
0.886969
 20
-3.540559
  0
VERTEX
  8
PLAN_1
  6
CONTINUOUS
 10
0.890142
 20
-3.536024
  0
VERTEX
  8
PLAN_1
  6
CONTINUOUS
 10
0.893768
 20
-3.531945
  0
VERTEX
  8
PLAN_1
  6
CONTINUOUS
 10
0.897398
 20
-3.527862
  0
VERTEX
  8
PLAN_1
  6
CONTINUOUS
 10
0.901024
 20
-3.524236
  0
VERTEX
  8
PLAN_1
  6
CONTINUOUS
 10
0.905555
 20
-3.520610
  0
VERTEX
  8
PLAN_1
  6
CONTINUOUS
 10
0.909638
 20
-3.517437
  0
VERTEX
  8
PLAN_1
  6
CONTINUOUS
 10
0.914622
 20
-3.514264
  0
VERTEX
  8
PLAN_1
  6
CONTINUOUS
 10
0.919157
 20
-3.511543
  0
VERTEX
  8
PLAN_1
  6
CONTINUOUS
 10
0.944996
 20
-3.496583
  0
VERTEX
  8
PLAN_1
  6
CONTINUOUS
 10
0.952705
 20
-3.492051
  0
VERTEX
  8
PLAN_1
  6
CONTINUOUS
 10
0.959504
 20
-3.487969
  0
VERTEX
  8
PLAN_1
  6
CONTINUOUS
 10
0.965398
 20
-3.483437
  0
VERTEX
  8
PLAN_1
  6
CONTINUOUS
 10
0.970839
 20
-3.478902
  0
VERTEX
  8
PLAN_1
  6
CONTINUOUS
 10
0.973106
 20
-3.476181
  0
VERTEX
  8
PLAN_1
  6
CONTINUOUS
 10
0.974917
 20
-3.473461
  0
VERTEX
  8
PLAN_1
  6
CONTINUOUS
 10
0.976732
 20
-3.470287
  0
VERTEX
  8
PLAN_1
  6
CONTINUOUS
 10
0.978091
 20
-3.467114
  0
VERTEX
  8
PLAN_1
  6
CONTINUOUS
 10
0.979453
 20
-3.463488
  0
VERTEX
  8
PLAN_1
  6
CONTINUOUS
 10
0.980358
 20
-3.459862
  0
VERTEX
  8
PLAN_1
  6
CONTINUOUS
 10
0.980811
 20
-3.455327
  0
VERTEX
  8
PLAN_1
  6
CONTINUOUS
 10
0.980811
 20
-3.450795
  0
VERTEX
  8
PLAN_1
  6
CONTINUOUS
 10
0.980811
 20
-3.448075
  0
VERTEX
  8
PLAN_1
  6
CONTINUOUS
 10
0.980358
 20
-3.444902
  0
VERTEX
  8
PLAN_1
  6
CONTINUOUS
 10
0.979906
 20
-3.441728
  0
VERTEX
  8
PLAN_1
  6
CONTINUOUS
 10
0.979000
 20
-3.439008
  0
VERTEX
  8
PLAN_1
  6
CONTINUOUS
 10
0.977638
 20
-3.435835
  0
VERTEX
  8
PLAN_1
  6
CONTINUOUS
 10
0.976280
 20
-3.433114
  0
VERTEX
  8
PLAN_1
  6
CONTINUOUS
 10
0.974465
 20
-3.429941
  0
VERTEX
  8
PLAN_1
  6
CONTINUOUS
 10
0.972197
 20
-3.427220
  0
VERTEX
  8
PLAN_1
  6
CONTINUOUS
 10
0.969933
 20
-3.424953
  0
VERTEX
  8
PLAN_1
  6
CONTINUOUS
 10
0.967213
 20
-3.422689
  0
VERTEX
  8
PLAN_1
  6
CONTINUOUS
 10
0.964039
 20
-3.420874
  0
VERTEX
  8
PLAN_1
  6
CONTINUOUS
 10
0.960409
 20
-3.419059
  0
VERTEX
  8
PLAN_1
  6
CONTINUOUS
 10
0.956331
 20
-3.417701
  0
VERTEX
  8
PLAN_1
  6
CONTINUOUS
 10
0.952252
 20
-3.416343
  0
VERTEX
  8
PLAN_1
  6
CONTINUOUS
 10
0.947264
 20
-3.415886
  0
VERTEX
  8
PLAN_1
  6
CONTINUOUS
 10
0.942276
 20
-3.415433
  0
VERTEX
  8
PLAN_1
  6
CONTINUOUS
 10
0.935929
 20
-3.415886
  0
VERTEX
  8
PLAN_1
  6
CONTINUOUS
 10
0.930035
 20
-3.417248
  0
VERTEX
  8
PLAN_1
  6
CONTINUOUS
 10
0.925051
 20
-3.419059
  0
VERTEX
  8
PLAN_1
  6
CONTINUOUS
 10
0.920516
 20
-3.421327
  0
VERTEX
  8
PLAN_1
  6
CONTINUOUS
 10
0.916890
 20
-3.424047
  0
VERTEX
  8
PLAN_1
  6
CONTINUOUS
 10
0.913717
 20
-3.427220
  0
VERTEX
  8
PLAN_1
  6
CONTINUOUS
 10
0.910996
 20
-3.430846
  0
VERTEX
  8
PLAN_1
  6
CONTINUOUS
 10
0.909185
 20
-3.434476
  0
VERTEX
  8
PLAN_1
  6
CONTINUOUS
 10
0.907370
 20
-3.438555
  0
VERTEX
  8
PLAN_1
  6
CONTINUOUS
 10
0.906012
 20
-3.442634
  0
VERTEX
  8
PLAN_1
  6
CONTINUOUS
 10
0.905102
 20
-3.446717
  0
VERTEX
  8
PLAN_1
  6
CONTINUOUS
 10
0.904197
 20
-3.450343
  0
VERTEX
  8
PLAN_1
  6
CONTINUOUS
 10
0.903291
 20
-3.457594
  0
VERTEX
  8
PLAN_1
  6
CONTINUOUS
 10
0.902835
 20
-3.463488
  0
VERTEX
  8
PLAN_1
  6
CONTINUOUS
 10
0.878354
 20
-3.463488
  0
SEQEND
  8
0
  0
POLYLINE
  8
PLAN_1
  6
CONTINUOUS
 66
     1
 40
0.003000
 41
0.003000
  0
VERTEX
  8
PLAN_1
  6
CONTINUOUS
 10
1.120441
 20
-3.588610
  0
VERTEX
  8
PLAN_1
  6
CONTINUOUS
 10
1.094150
 20
-3.588610
  0
VERTEX
  8
PLAN_1
  6
CONTINUOUS
 10
1.094150
 20
-3.450343
  0
VERTEX
  8
PLAN_1
  6
CONTINUOUS
 10
1.048815
 20
-3.450343
  0
VERTEX
  8
PLAN_1
  6
CONTINUOUS
 10
1.048815
 20
-3.430846
  0
VERTEX
  8
PLAN_1
  6
CONTINUOUS
 10
1.059693
 20
-3.429941
  0
VERTEX
  8
PLAN_1
  6
CONTINUOUS
 10
1.069213
 20
-3.428583
  0
VERTEX
  8
PLAN_1
  6
CONTINUOUS
 10
1.073295
 20
-3.427673
  0
VERTEX
  8
PLAN_1
  6
CONTINUOUS
 10
1.076921
 20
-3.426768
  0
VERTEX
  8
PLAN_1
  6
CONTINUOUS
 10
1.080547
 20
-3.424953
  0
VERTEX
  8
PLAN_1
  6
CONTINUOUS
 10
1.083720
 20
-3.423594
  0
VERTEX
  8
PLAN_1
  6
CONTINUOUS
 10
1.086894
 20
-3.421327
  0
VERTEX
  8
PLAN_1
  6
CONTINUOUS
 10
1.089614
 20
-3.419059
  0
VERTEX
  8
PLAN_1
  6
CONTINUOUS
 10
1.091882
 20
-3.415886
  0
VERTEX
  8
PLAN_1
  6
CONTINUOUS
 10
1.094150
 20
-3.412713
  0
VERTEX
  8
PLAN_1
  6
CONTINUOUS
 10
1.095961
 20
-3.408634
  0
VERTEX
  8
PLAN_1
  6
CONTINUOUS
 10
1.097776
 20
-3.404555
  0
VERTEX
  8
PLAN_1
  6
CONTINUOUS
 10
1.099587
 20
-3.399567
  0
VERTEX
  8
PLAN_1
  6
CONTINUOUS
 10
1.100949
 20
-3.393673
  0
VERTEX
  8
PLAN_1
  6
CONTINUOUS
 10
1.120441
 20
-3.393673
  0
VERTEX
  8
PLAN_1
  6
CONTINUOUS
 10
1.120441
 20
-3.588610
  0
SEQEND
  8
0
  0
SOLID
  8
PLAN_1
 10
1.174843
 20
-3.623520
 11
1.174843
 21
-3.609465
 12
1.329433
 22
-3.623520
 13
1.329433
 23
-3.609465
  0
POLYLINE
  8
PLAN_1
  6
CONTINUOUS
 66
     1
 40
0.003000
 41
0.003000
  0
VERTEX
  8
PLAN_1
  6
CONTINUOUS
 10
1.174843
 20
-3.623520
  0
VERTEX
  8
PLAN_1
  6
CONTINUOUS
 10
1.174843
 20
-3.609465
  0
VERTEX
  8
PLAN_1
  6
CONTINUOUS
 10
1.329433
 20
-3.609465
  0
VERTEX
  8
PLAN_1
  6
CONTINUOUS
 10
1.329433
 20
-3.623520
  0
VERTEX
  8
PLAN_1
  6
CONTINUOUS
 10
1.174843
 20
-3.623520
  0
SEQEND
  8
0
  0
POLYLINE
  8
PLAN_1
  6
CONTINUOUS
 66
     1
 40
0.003000
 41
0.003000
  0
VERTEX
  8
PLAN_1
  6
CONTINUOUS
 10
1.380209
 20
-3.588610
  0
VERTEX
  8
PLAN_1
  6
CONTINUOUS
 10
1.353008
 20
-3.588610
  0
VERTEX
  8
PLAN_1
  6
CONTINUOUS
 10
1.353008
 20
-3.389594
  0
VERTEX
  8
PLAN_1
  6
CONTINUOUS
 10
1.491280
 20
-3.389594
  0
VERTEX
  8
PLAN_1
  6
CONTINUOUS
 10
1.491280
 20
-3.413622
  0
VERTEX
  8
PLAN_1
  6
CONTINUOUS
 10
1.380209
 20
-3.413622
  0
VERTEX
  8
PLAN_1
  6
CONTINUOUS
 10
1.380209
 20
-3.474370
  0
VERTEX
  8
PLAN_1
  6
CONTINUOUS
 10
1.477677
 20
-3.474370
  0
VERTEX
  8
PLAN_1
  6
CONTINUOUS
 10
1.477677
 20
-3.498398
  0
VERTEX
  8
PLAN_1
  6
CONTINUOUS
 10
1.380209
 20
-3.498398
  0
VERTEX
  8
PLAN_1
  6
CONTINUOUS
 10
1.380209
 20
-3.588610
  0
SEQEND
  8
0
  0
SOLID
  8
PLAN_1
 10
1.510319
 20
-3.588610
 11
1.481303
 21
-3.588610
 12
1.510319
 22
-3.559598
 13
1.481303
 23
-3.559598
  0
POLYLINE
  8
PLAN_1
  6
CONTINUOUS
 66
     1
 40
0.003000
 41
0.003000
  0
VERTEX
  8
PLAN_1
  6
CONTINUOUS
 10
1.510319
 20
-3.588610
  0
VERTEX
  8
PLAN_1
  6
CONTINUOUS
 10
1.481303
 20
-3.588610
  0
VERTEX
  8
PLAN_1
  6
CONTINUOUS
 10
1.481303
 20
-3.559598
  0
VERTEX
  8
PLAN_1
  6
CONTINUOUS
 10
1.510319
 20
-3.559598
  0
VERTEX
  8
PLAN_1
  6
CONTINUOUS
 10
1.510319
 20
-3.588610
  0
SEQEND
  8
0
  0
POLYLINE
  8
PLAN_1
  6
CONTINUOUS
 66
     1
 40
0.003000
 41
0.003000
  0
VERTEX
  8
PLAN_1
  6
CONTINUOUS
 10
1.705256
 20
-3.588610
  0
VERTEX
  8
PLAN_1
  6
CONTINUOUS
 10
1.558374
 20
-3.588610
  0
VERTEX
  8
PLAN_1
  6
CONTINUOUS
 10
1.558374
 20
-3.389594
  0
VERTEX
  8
PLAN_1
  6
CONTINUOUS
 10
1.703445
 20
-3.389594
  0
VERTEX
  8
PLAN_1
  6
CONTINUOUS
 10
1.703445
 20
-3.413622
  0
VERTEX
  8
PLAN_1
  6
CONTINUOUS
 10
1.585122
 20
-3.413622
  0
VERTEX
  8
PLAN_1
  6
CONTINUOUS
 10
1.585122
 20
-3.474370
  0
VERTEX
  8
PLAN_1
  6
CONTINUOUS
 10
1.694378
 20
-3.474370
  0
VERTEX
  8
PLAN_1
  6
CONTINUOUS
 10
1.694378
 20
-3.498398
  0
VERTEX
  8
PLAN_1
  6
CONTINUOUS
 10
1.585122
 20
-3.498398
  0
VERTEX
  8
PLAN_1
  6
CONTINUOUS
 10
1.585122
 20
-3.565039
  0
VERTEX
  8
PLAN_1
  6
CONTINUOUS
 10
1.705256
 20
-3.565039
  0
VERTEX
  8
PLAN_1
  6
CONTINUOUS
 10
1.705256
 20
-3.588610
  0
SEQEND
  8
0
  0
POLYLINE
  8
PLAN_1
  6
CONTINUOUS
 66
     1
 40
0.003000
 41
0.003000
  0
VERTEX
  8
PLAN_1
  6
CONTINUOUS
 10
1.770539
 20
-3.588610
  0
VERTEX
  8
PLAN_1
  6
CONTINUOUS
 10
1.743791
 20
-3.588610
  0
VERTEX
  8
PLAN_1
  6
CONTINUOUS
 10
1.743791
 20
-3.389594
  0
VERTEX
  8
PLAN_1
  6
CONTINUOUS
 10
1.833102
 20
-3.389594
  0
VERTEX
  8
PLAN_1
  6
CONTINUOUS
 10
1.839902
 20
-3.390047
  0
VERTEX
  8
PLAN_1
  6
CONTINUOUS
 10
1.846248
 20
-3.390500
  0
VERTEX
  8
PLAN_1
  6
CONTINUOUS
 10
1.852594
 20
-3.391862
  0
VERTEX
  8
PLAN_1
  6
CONTINUOUS
 10
1.858035
 20
-3.393673
  0
VERTEX
  8
PLAN_1
  6
CONTINUOUS
 10
1.863476
 20
-3.395941
  0
VERTEX
  8
PLAN_1
  6
CONTINUOUS
 10
1.868008
 20
-3.398661
  0
VERTEX
  8
PLAN_1
  6
CONTINUOUS
 10
1.872543
 20
-3.401835
  0
VERTEX
  8
PLAN_1
  6
CONTINUOUS
 10
1.876622
 20
-3.405461
  0
VERTEX
  8
PLAN_1
  6
CONTINUOUS
 10
1.880248
 20
-3.409539
  0
VERTEX
  8
PLAN_1
  6
CONTINUOUS
 10
1.883421
 20
-3.413622
  0
VERTEX
  8
PLAN_1
  6
CONTINUOUS
 10
1.886142
 20
-3.418154
  0
VERTEX
  8
PLAN_1
  6
CONTINUOUS
 10
1.888409
 20
-3.423142
  0
VERTEX
  8
PLAN_1
  6
CONTINUOUS
 10
1.890220
 20
-3.428583
  0
VERTEX
  8
PLAN_1
  6
CONTINUOUS
 10
1.891130
 20
-3.434020
  0
VERTEX
  8
PLAN_1
  6
CONTINUOUS
 10
1.892035
 20
-3.439461
  0
VERTEX
  8
PLAN_1
  6
CONTINUOUS
 10
1.892488
 20
-3.445807
  0
VERTEX
  8
PLAN_1
  6
CONTINUOUS
 10
1.892035
 20
-3.450795
  0
VERTEX
  8
PLAN_1
  6
CONTINUOUS
 10
1.891583
 20
-3.456236
  0
VERTEX
  8
PLAN_1
  6
CONTINUOUS
 10
1.890677
 20
-3.461220
  0
VERTEX
  8
PLAN_1
  6
CONTINUOUS
 10
1.889315
 20
-3.466661
  0
VERTEX
  8
PLAN_1
  6
CONTINUOUS
 10
1.887500
 20
-3.471650
  0
VERTEX
  8
PLAN_1
  6
CONTINUOUS
 10
1.885236
 20
-3.476634
  0
VERTEX
  8
PLAN_1
  6
CONTINUOUS
 10
1.882063
 20
-3.481169
  0
VERTEX
  8
PLAN_1
  6
CONTINUOUS
 10
1.878890
 20
-3.485701
  0
VERTEX
  8
PLAN_1
  6
CONTINUOUS
 10
1.875260
 20
-3.489783
  0
VERTEX
  8
PLAN_1
  6
CONTINUOUS
 10
1.870728
 20
-3.493409
  0
VERTEX
  8
PLAN_1
  6
CONTINUOUS
 10
1.866193
 20
-3.496583
  0
VERTEX
  8
PLAN_1
  6
CONTINUOUS
 10
1.860756
 20
-3.499303
  0
VERTEX
  8
PLAN_1
  6
CONTINUOUS
 10
1.854862
 20
-3.501571
  0
VERTEX
  8
PLAN_1
  6
CONTINUOUS
 10
1.848059
 20
-3.503382
  0
VERTEX
  8
PLAN_1
  6
CONTINUOUS
 10
1.840807
 20
-3.504291
  0
VERTEX
  8
PLAN_1
  6
CONTINUOUS
 10
1.833102
 20
-3.504744
  0
VERTEX
  8
PLAN_1
  6
CONTINUOUS
 10
1.770539
 20
-3.504744
  0
VERTEX
  8
PLAN_1
  6
CONTINUOUS
 10
1.770539
 20
-3.588610
  0
SEQEND
  8
0
  0
POLYLINE
  8
PLAN_1
  6
CONTINUOUS
 66
     1
 40
0.003000
 41
0.003000
  0
VERTEX
  8
PLAN_1
  6
CONTINUOUS
 10
1.770539
 20
-3.481622
  0
VERTEX
  8
PLAN_1
  6
CONTINUOUS
 10
1.824035
 20
-3.481622
  0
VERTEX
  8
PLAN_1
  6
CONTINUOUS
 10
1.828567
 20
-3.481622
  0
VERTEX
  8
PLAN_1
  6
CONTINUOUS
 10
1.832646
 20
-3.481169
  0
VERTEX
  8
PLAN_1
  6
CONTINUOUS
 10
1.836728
 20
-3.480717
  0
VERTEX
  8
PLAN_1
  6
CONTINUOUS
 10
1.840354
 20
-3.479811
  0
VERTEX
  8
PLAN_1
  6
CONTINUOUS
 10
1.843980
 20
-3.478902
  0
VERTEX
  8
PLAN_1
  6
CONTINUOUS
 10
1.847606
 20
-3.477543
  0
VERTEX
  8
PLAN_1
  6
CONTINUOUS
 10
1.850780
 20
-3.475728
  0
VERTEX
  8
PLAN_1
  6
CONTINUOUS
 10
1.853500
 20
-3.473917
  0
VERTEX
  8
PLAN_1
  6
CONTINUOUS
 10
1.855768
 20
-3.471650
  0
VERTEX
  8
PLAN_1
  6
CONTINUOUS
 10
1.858035
 20
-3.468929
  0
VERTEX
  8
PLAN_1
  6
CONTINUOUS
 10
1.859846
 20
-3.466209
  0
VERTEX
  8
PLAN_1
  6
CONTINUOUS
 10
1.861661
 20
-3.463035
  0
VERTEX
  8
PLAN_1
  6
CONTINUOUS
 10
1.863020
 20
-3.459409
  0
VERTEX
  8
PLAN_1
  6
CONTINUOUS
 10
1.863929
 20
-3.455327
  0
VERTEX
  8
PLAN_1
  6
CONTINUOUS
 10
1.864382
 20
-3.450795
  0
VERTEX
  8
PLAN_1
  6
CONTINUOUS
 10
1.864382
 20
-3.445807
  0
VERTEX
  8
PLAN_1
  6
CONTINUOUS
 10
1.864382
 20
-3.441276
  0
VERTEX
  8
PLAN_1
  6
CONTINUOUS
 10
1.863929
 20
-3.437193
  0
VERTEX
  8
PLAN_1
  6
CONTINUOUS
 10
1.863020
 20
-3.433567
  0
VERTEX
  8
PLAN_1
  6
CONTINUOUS
 10
1.861661
 20
-3.429941
  0
VERTEX
  8
PLAN_1
  6
CONTINUOUS
 10
1.859846
 20
-3.426768
  0
VERTEX
  8
PLAN_1
  6
CONTINUOUS
 10
1.858035
 20
-3.424047
  0
VERTEX
  8
PLAN_1
  6
CONTINUOUS
 10
1.855768
 20
-3.421780
  0
VERTEX
  8
PLAN_1
  6
CONTINUOUS
 10
1.853047
 20
-3.419969
  0
VERTEX
  8
PLAN_1
  6
CONTINUOUS
 10
1.850327
 20
-3.418154
  0
VERTEX
  8
PLAN_1
  6
CONTINUOUS
 10
1.847606
 20
-3.416343
  0
VERTEX
  8
PLAN_1
  6
CONTINUOUS
 10
1.843980
 20
-3.415433
  0
VERTEX
  8
PLAN_1
  6
CONTINUOUS
 10
1.840807
 20
-3.414075
  0
VERTEX
  8
PLAN_1
  6
CONTINUOUS
 10
1.837181
 20
-3.413622
  0
VERTEX
  8
PLAN_1
  6
CONTINUOUS
 10
1.833102
 20
-3.413169
  0
VERTEX
  8
PLAN_1
  6
CONTINUOUS
 10
1.829472
 20
-3.412713
  0
VERTEX
  8
PLAN_1
  6
CONTINUOUS
 10
1.824941
 20
-3.412713
  0
VERTEX
  8
PLAN_1
  6
CONTINUOUS
 10
1.770539
 20
-3.412713
  0
VERTEX
  8
PLAN_1
  6
CONTINUOUS
 10
1.770539
 20
-3.481622
  0
SEQEND
  8
0
  0
POLYLINE
  8
PLAN_1
  6
CONTINUOUS
 66
     1
 40
0.003000
 41
0.003000
  0
VERTEX
  8
PLAN_1
  6
CONTINUOUS
 10
2.046173
 20
-3.447622
  0
VERTEX
  8
PLAN_1
  6
CONTINUOUS
 10
2.045720
 20
-3.442181
  0
VERTEX
  8
PLAN_1
  6
CONTINUOUS
 10
2.044811
 20
-3.437193
  0
VERTEX
  8
PLAN_1
  6
CONTINUOUS
 10
2.043000
 20
-3.432661
  0
VERTEX
  8
PLAN_1
  6
CONTINUOUS
 10
2.041185
 20
-3.428583
  0
VERTEX
  8
PLAN_1
  6
CONTINUOUS
 10
2.038465
 20
-3.424953
  0
VERTEX
  8
PLAN_1
  6
CONTINUOUS
 10
2.035744
 20
-3.421327
  0
VERTEX
  8
PLAN_1
  6
CONTINUOUS
 10
2.032571
 20
-3.418606
  0
VERTEX
  8
PLAN_1
  6
CONTINUOUS
 10
2.029398
 20
-3.415886
  0
VERTEX
  8
PLAN_1
  6
CONTINUOUS
 10
2.025772
 20
-3.414075
  0
VERTEX
  8
PLAN_1
  6
CONTINUOUS
 10
2.022146
 20
-3.411807
  0
VERTEX
  8
PLAN_1
  6
CONTINUOUS
 10
2.018067
 20
-3.410449
  0
VERTEX
  8
PLAN_1
  6
CONTINUOUS
 10
2.013984
 20
-3.409087
  0
VERTEX
  8
PLAN_1
  6
CONTINUOUS
 10
2.009453
 20
-3.408634
  0
VERTEX
  8
PLAN_1
  6
CONTINUOUS
 10
2.005370
 20
-3.407728
  0
VERTEX
  8
PLAN_1
  6
CONTINUOUS
 10
2.000839
 20
-3.407276
  0
VERTEX
  8
PLAN_1
  6
CONTINUOUS
 10
1.996760
 20
-3.407276
  0
VERTEX
  8
PLAN_1
  6
CONTINUOUS
 10
1.989957
 20
-3.407728
  0
VERTEX
  8
PLAN_1
  6
CONTINUOUS
 10
1.982705
 20
-3.408634
  0
VERTEX
  8
PLAN_1
  6
CONTINUOUS
 10
1.978626
 20
-3.409539
  0
VERTEX
  8
PLAN_1
  6
CONTINUOUS
 10
1.974996
 20
-3.410449
  0
VERTEX
  8
PLAN_1
  6
CONTINUOUS
 10
1.971370
 20
-3.411807
  0
VERTEX
  8
PLAN_1
  6
CONTINUOUS
 10
1.967744
 20
-3.413622
  0
VERTEX
  8
PLAN_1
  6
CONTINUOUS
 10
1.964118
 20
-3.415433
  0
VERTEX
  8
PLAN_1
  6
CONTINUOUS
 10
1.961398
 20
-3.418154
  0
VERTEX
  8
PLAN_1
  6
CONTINUOUS
 10
1.958224
 20
-3.420874
  0
VERTEX
  8
PLAN_1
  6
CONTINUOUS
 10
1.955957
 20
-3.424047
  0
VERTEX
  8
PLAN_1
  6
CONTINUOUS
 10
1.954142
 20
-3.427673
  0
VERTEX
  8
PLAN_1
  6
CONTINUOUS
 10
1.952331
 20
-3.432209
  0
VERTEX
  8
PLAN_1
  6
CONTINUOUS
 10
1.951425
 20
-3.436740
  0
VERTEX
  8
PLAN_1
  6
CONTINUOUS
 10
1.951425
 20
-3.442181
  0
VERTEX
  8
PLAN_1
  6
CONTINUOUS
 10
1.951425
 20
-3.445354
  0
VERTEX
  8
PLAN_1
  6
CONTINUOUS
 10
1.951878
 20
-3.448075
  0
VERTEX
  8
PLAN_1
  6
CONTINUOUS
 10
1.952331
 20
-3.450795
  0
VERTEX
  8
PLAN_1
  6
CONTINUOUS
 10
1.953236
 20
-3.453063
  0
VERTEX
  8
PLAN_1
  6
CONTINUOUS
 10
1.954598
 20
-3.454874
  0
VERTEX
  8
PLAN_1
  6
CONTINUOUS
 10
1.955504
 20
-3.457142
  0
VERTEX
  8
PLAN_1
  6
CONTINUOUS
 10
1.957315
 20
-3.458504
  0
VERTEX
  8
PLAN_1
  6
CONTINUOUS
 10
1.958677
 20
-3.460315
  0
VERTEX
  8
PLAN_1
  6
CONTINUOUS
 10
1.962303
 20
-3.462583
  0
VERTEX
  8
PLAN_1
  6
CONTINUOUS
 10
1.966382
 20
-3.464850
  0
VERTEX
  8
PLAN_1
  6
CONTINUOUS
 10
1.970465
 20
-3.466209
  0
VERTEX
  8
PLAN_1
  6
CONTINUOUS
 10
1.974996
 20
-3.467571
  0
VERTEX
  8
PLAN_1
  6
CONTINUOUS
 10
2.031665
 20
-3.480717
  0
VERTEX
  8
PLAN_1
  6
CONTINUOUS
 10
2.036654
 20
-3.481622
  0
VERTEX
  8
PLAN_1
  6
CONTINUOUS
 10
2.041185
 20
-3.483437
  0
VERTEX
  8
PLAN_1
  6
CONTINUOUS
 10
2.045720
 20
-3.485248
  0
VERTEX
  8
PLAN_1
  6
CONTINUOUS
 10
2.049799
 20
-3.487063
  0
VERTEX
  8
PLAN_1
  6
CONTINUOUS
 10
2.053878
 20
-3.489331
  0
VERTEX
  8
PLAN_1
  6
CONTINUOUS
 10
2.057508
 20
-3.491594
  0
VERTEX
  8
PLAN_1
  6
CONTINUOUS
 10
2.060681
 20
-3.494768
  0
VERTEX
  8
PLAN_1
  6
CONTINUOUS
 10
2.063854
 20
-3.497488
  0
VERTEX
  8
PLAN_1
  6
CONTINUOUS
 10
2.067028
 20
-3.501118
  0
VERTEX
  8
PLAN_1
  6
CONTINUOUS
 10
2.069291
 20
-3.504744
  0
VERTEX
  8
PLAN_1
  6
CONTINUOUS
 10
2.071559
 20
-3.508823
  0
VERTEX
  8
PLAN_1
  6
CONTINUOUS
 10
2.073374
 20
-3.512902
  0
VERTEX
  8
PLAN_1
  6
CONTINUOUS
 10
2.075185
 20
-3.517890
  0
VERTEX
  8
PLAN_1
  6
CONTINUOUS
 10
2.076094
 20
-3.522878
  0
VERTEX
  8
PLAN_1
  6
CONTINUOUS
 10
2.076547
 20
-3.528319
  0
VERTEX
  8
PLAN_1
  6
CONTINUOUS
 10
2.077000
 20
-3.533756
  0
VERTEX
  8
PLAN_1
  6
CONTINUOUS
 10
2.077000
 20
-3.538291
  0
VERTEX
  8
PLAN_1
  6
CONTINUOUS
 10
2.076547
 20
-3.542370
  0
VERTEX
  8
PLAN_1
  6
CONTINUOUS
 10
2.076094
 20
-3.546453
  0
VERTEX
  8
PLAN_1
  6
CONTINUOUS
 10
2.075185
 20
-3.550079
  0
VERTEX
  8
PLAN_1
  6
CONTINUOUS
 10
2.073827
 20
-3.553705
  0
VERTEX
  8
PLAN_1
  6
CONTINUOUS
 10
2.072921
 20
-3.556878
  0
VERTEX
  8
PLAN_1
  6
CONTINUOUS
 10
2.071106
 20
-3.560051
  0
VERTEX
  8
PLAN_1
  6
CONTINUOUS
 10
2.069748
 20
-3.563224
  0
VERTEX
  8
PLAN_1
  6
CONTINUOUS
 10
2.065665
 20
-3.568665
  0
VERTEX
  8
PLAN_1
  6
CONTINUOUS
 10
2.061134
 20
-3.573654
  0
VERTEX
  8
PLAN_1
  6
CONTINUOUS
 10
2.056146
 20
-3.578185
  0
VERTEX
  8
PLAN_1
  6
CONTINUOUS
 10
2.050705
 20
-3.581811
  0
VERTEX
  8
PLAN_1
  6
CONTINUOUS
 10
2.044811
 20
-3.584984
  0
VERTEX
  8
PLAN_1
  6
CONTINUOUS
 10
2.038465
 20
-3.587705
  0
VERTEX
  8
PLAN_1
  6
CONTINUOUS
 10
2.032118
 20
-3.589520
  0
VERTEX
  8
PLAN_1
  6
CONTINUOUS
 10
2.025772
 20
-3.591331
  0
VERTEX
  8
PLAN_1
  6
CONTINUOUS
 10
2.018972
 20
-3.592693
  0
VERTEX
  8
PLAN_1
  6
CONTINUOUS
 10
2.012173
 20
-3.593598
  0
VERTEX
  8
PLAN_1
  6
CONTINUOUS
 10
2.005370
 20
-3.594051
  0
VERTEX
  8
PLAN_1
  6
CONTINUOUS
 10
1.999024
 20
-3.594051
  0
VERTEX
  8
PLAN_1
  6
CONTINUOUS
 10
1.992224
 20
-3.594051
  0
VERTEX
  8
PLAN_1
  6
CONTINUOUS
 10
1.986331
 20
-3.593598
  0
VERTEX
  8
PLAN_1
  6
CONTINUOUS
 10
1.980437
 20
-3.593146
  0
VERTEX
  8
PLAN_1
  6
CONTINUOUS
 10
1.975449
 20
-3.592240
  0
VERTEX
  8
PLAN_1
  6
CONTINUOUS
 10
1.970465
 20
-3.591331
  0
VERTEX
  8
PLAN_1
  6
CONTINUOUS
 10
1.965929
 20
-3.589972
  0
VERTEX
  8
PLAN_1
  6
CONTINUOUS
 10
1.961850
 20
-3.589067
  0
VERTEX
  8
PLAN_1
  6
CONTINUOUS
 10
1.958224
 20
-3.587705
  0
VERTEX
  8
PLAN_1
  6
CONTINUOUS
 10
1.951878
 20
-3.584531
  0
VERTEX
  8
PLAN_1
  6
CONTINUOUS
 10
1.946890
 20
-3.581358
  0
VERTEX
  8
PLAN_1
  6
CONTINUOUS
 10
1.942358
 20
-3.578185
  0
VERTEX
  8
PLAN_1
  6
CONTINUOUS
 10
1.938728
 20
-3.575012
  0
VERTEX
  8
PLAN_1
  6
CONTINUOUS
 10
1.935555
 20
-3.572291
  0
VERTEX
  8
PLAN_1
  6
CONTINUOUS
 10
1.932835
 20
-3.569118
  0
VERTEX
  8
PLAN_1
  6
CONTINUOUS
 10
1.930571
 20
-3.566398
  0
VERTEX
  8
PLAN_1
  6
CONTINUOUS
 10
1.928303
 20
-3.563224
  0
VERTEX
  8
PLAN_1
  6
CONTINUOUS
 10
1.925130
 20
-3.557331
  0
VERTEX
  8
PLAN_1
  6
CONTINUOUS
 10
1.922409
 20
-3.550984
  0
VERTEX
  8
PLAN_1
  6
CONTINUOUS
 10
1.920594
 20
-3.544638
  0
VERTEX
  8
PLAN_1
  6
CONTINUOUS
 10
1.919236
 20
-3.537839
  0
VERTEX
  8
PLAN_1
  6
CONTINUOUS
 10
1.918783
 20
-3.531492
  0
VERTEX
  8
PLAN_1
  6
CONTINUOUS
 10
1.918331
 20
-3.524236
  0
VERTEX
  8
PLAN_1
  6
CONTINUOUS
 10
1.943717
 20
-3.524236
  0
VERTEX
  8
PLAN_1
  6
CONTINUOUS
 10
1.944169
 20
-3.531035
  0
VERTEX
  8
PLAN_1
  6
CONTINUOUS
 10
1.945075
 20
-3.536929
  0
VERTEX
  8
PLAN_1
  6
CONTINUOUS
 10
1.946437
 20
-3.542370
  0
VERTEX
  8
PLAN_1
  6
CONTINUOUS
 10
1.948705
 20
-3.546906
  0
VERTEX
  8
PLAN_1
  6
CONTINUOUS
 10
1.951425
 20
-3.551437
  0
VERTEX
  8
PLAN_1
  6
CONTINUOUS
 10
1.954598
 20
-3.555063
  0
VERTEX
  8
PLAN_1
  6
CONTINUOUS
 10
1.957772
 20
-3.558236
  0
VERTEX
  8
PLAN_1
  6
CONTINUOUS
 10
1.961850
 20
-3.561409
  0
VERTEX
  8
PLAN_1
  6
CONTINUOUS
 10
1.965929
 20
-3.563677
  0
VERTEX
  8
PLAN_1
  6
CONTINUOUS
 10
1.970012
 20
-3.565945
  0
VERTEX
  8
PLAN_1
  6
CONTINUOUS
 10
1.974543
 20
-3.567303
  0
VERTEX
  8
PLAN_1
  6
CONTINUOUS
 10
1.979531
 20
-3.568665
  0
VERTEX
  8
PLAN_1
  6
CONTINUOUS
 10
1.984063
 20
-3.570024
  0
VERTEX
  8
PLAN_1
  6
CONTINUOUS
 10
1.989051
 20
-3.570476
  0
VERTEX
  8
PLAN_1
  6
CONTINUOUS
 10
1.994039
 20
-3.570933
  0
VERTEX
  8
PLAN_1
  6
CONTINUOUS
 10
1.998571
 20
-3.570933
  0
VERTEX
  8
PLAN_1
  6
CONTINUOUS
 10
2.006732
 20
-3.570933
  0
VERTEX
  8
PLAN_1
  6
CONTINUOUS
 10
2.014894
 20
-3.570024
  0
VERTEX
  8
PLAN_1
  6
CONTINUOUS
 10
2.019425
 20
-3.569118
  0
VERTEX
  8
PLAN_1
  6
CONTINUOUS
 10
2.023957
 20
-3.567760
  0
VERTEX
  8
PLAN_1
  6
CONTINUOUS
 10
2.028039
 20
-3.566850
  0
VERTEX
  8
PLAN_1
  6
CONTINUOUS
 10
2.032118
 20
-3.565039
  0
VERTEX
  8
PLAN_1
  6
CONTINUOUS
 10
2.035744
 20
-3.563224
  0
VERTEX
  8
PLAN_1
  6
CONTINUOUS
 10
2.039374
 20
-3.560504
  0
VERTEX
  8
PLAN_1
  6
CONTINUOUS
 10
2.042547
 20
-3.557783
  0
VERTEX
  8
PLAN_1
  6
CONTINUOUS
 10
2.045268
 20
-3.554610
  0
VERTEX
  8
PLAN_1
  6
CONTINUOUS
 10
2.047531
 20
-3.550984
  0
VERTEX
  8
PLAN_1
  6
CONTINUOUS
 10
2.049346
 20
-3.547358
  0
VERTEX
  8
PLAN_1
  6
CONTINUOUS
 10
2.050705
 20
-3.542370
  0
VERTEX
  8
PLAN_1
  6
CONTINUOUS
 10
2.050705
 20
-3.537386
  0
VERTEX
  8
PLAN_1
  6
CONTINUOUS
 10
2.050705
 20
-3.533756
  0
VERTEX
  8
PLAN_1
  6
CONTINUOUS
 10
2.050252
 20
-3.530130
  0
VERTEX
  8
PLAN_1
  6
CONTINUOUS
 10
2.049799
 20
-3.526957
  0
VERTEX
  8
PLAN_1
  6
CONTINUOUS
 10
2.048894
 20
-3.524236
  0
VERTEX
  8
PLAN_1
  6
CONTINUOUS
 10
2.047531
 20
-3.521516
  0
VERTEX
  8
PLAN_1
  6
CONTINUOUS
 10
2.046173
 20
-3.519252
  0
VERTEX
  8
PLAN_1
  6
CONTINUOUS
 10
2.044358
 20
-3.516984
  0
VERTEX
  8
PLAN_1
  6
CONTINUOUS
 10
2.042091
 20
-3.515169
  0
VERTEX
  8
PLAN_1
  6
CONTINUOUS
 10
2.039374
 20
-3.512902
  0
VERTEX
  8
PLAN_1
  6
CONTINUOUS
 10
2.036201
 20
-3.511543
  0
VERTEX
  8
PLAN_1
  6
CONTINUOUS
 10
2.033024
 20
-3.509728
  0
VERTEX
  8
PLAN_1
  6
CONTINUOUS
 10
2.028945
 20
-3.507917
  0
VERTEX
  8
PLAN_1
  6
CONTINUOUS
 10
2.019878
 20
-3.505197
  0
VERTEX
  8
PLAN_1
  6
CONTINUOUS
 10
2.008543
 20
-3.502024
  0
VERTEX
  8
PLAN_1
  6
CONTINUOUS
 10
1.967744
 20
-3.492957
  0
VERTEX
  8
PLAN_1
  6
CONTINUOUS
 10
1.961850
 20
-3.491142
  0
VERTEX
  8
PLAN_1
  6
CONTINUOUS
 10
1.955504
 20
-3.488878
  0
VERTEX
  8
PLAN_1
  6
CONTINUOUS
 10
1.951878
 20
-3.487516
  0
VERTEX
  8
PLAN_1
  6
CONTINUOUS
 10
1.948252
 20
-3.485701
  0
VERTEX
  8
PLAN_1
  6
CONTINUOUS
 10
1.945075
 20
-3.483890
  0
VERTEX
  8
PLAN_1
  6
CONTINUOUS
 10
1.941449
 20
-3.481169
  0
VERTEX
  8
PLAN_1
  6
CONTINUOUS
 10
1.938276
 20
-3.478449
  0
VERTEX
  8
PLAN_1
  6
CONTINUOUS
 10
1.935102
 20
-3.475276
  0
VERTEX
  8
PLAN_1
  6
CONTINUOUS
 10
1.932382
 20
-3.471650
  0
VERTEX
  8
PLAN_1
  6
CONTINUOUS
 10
1.930118
 20
-3.467571
  0
VERTEX
  8
PLAN_1
  6
CONTINUOUS
 10
1.927850
 20
-3.463035
  0
VERTEX
  8
PLAN_1
  6
CONTINUOUS
 10
1.926488
 20
-3.457594
  0
VERTEX
  8
PLAN_1
  6
CONTINUOUS
 10
1.925583
 20
-3.452154
  0
VERTEX
  8
PLAN_1
  6
CONTINUOUS
 10
1.925130
 20
-3.445807
  0
VERTEX
  8
PLAN_1
  6
CONTINUOUS
 10
1.925583
 20
-3.439913
  0
VERTEX
  8
PLAN_1
  6
CONTINUOUS
 10
1.926035
 20
-3.434476
  0
VERTEX
  8
PLAN_1
  6
CONTINUOUS
 10
1.927398
 20
-3.428583
  0
VERTEX
  8
PLAN_1
  6
CONTINUOUS
 10
1.929209
 20
-3.423142
  0
VERTEX
  8
PLAN_1
  6
CONTINUOUS
 10
1.931476
 20
-3.417701
  0
VERTEX
  8
PLAN_1
  6
CONTINUOUS
 10
1.934197
 20
-3.412713
  0
VERTEX
  8
PLAN_1
  6
CONTINUOUS
 10
1.937370
 20
-3.407728
  0
VERTEX
  8
PLAN_1
  6
CONTINUOUS
 10
1.941449
 20
-3.403646
  0
VERTEX
  8
PLAN_1
  6
CONTINUOUS
 10
1.945984
 20
-3.399114
  0
VERTEX
  8
PLAN_1
  6
CONTINUOUS
 10
1.950969
 20
-3.395488
  0
VERTEX
  8
PLAN_1
  6
CONTINUOUS
 10
1.956409
 20
-3.392315
  0
VERTEX
  8
PLAN_1
  6
CONTINUOUS
 10
1.962756
 20
-3.389594
  0
VERTEX
  8
PLAN_1
  6
CONTINUOUS
 10
1.969559
 20
-3.387327
  0
VERTEX
  8
PLAN_1
  6
CONTINUOUS
 10
1.976811
 20
-3.385512
  0
VERTEX
  8
PLAN_1
  6
CONTINUOUS
 10
1.984972
 20
-3.384606
  0
VERTEX
  8
PLAN_1
  6
CONTINUOUS
 10
1.993583
 20
-3.384154
  0
VERTEX
  8
PLAN_1
  6
CONTINUOUS
 10
1.999933
 20
-3.384606
  0
VERTEX
  8
PLAN_1
  6
CONTINUOUS
 10
2.006280
 20
-3.384606
  0
VERTEX
  8
PLAN_1
  6
CONTINUOUS
 10
2.011717
 20
-3.385512
  0
VERTEX
  8
PLAN_1
  6
CONTINUOUS
 10
2.017157
 20
-3.385969
  0
VERTEX
  8
PLAN_1
  6
CONTINUOUS
 10
2.022146
 20
-3.386874
  0
VERTEX
  8
PLAN_1
  6
CONTINUOUS
 10
2.026677
 20
-3.388232
  0
VERTEX
  8
PLAN_1
  6
CONTINUOUS
 10
2.031213
 20
-3.389594
  0
VERTEX
  8
PLAN_1
  6
CONTINUOUS
 10
2.035291
 20
-3.390953
  0
VERTEX
  8
PLAN_1
  6
CONTINUOUS
 10
2.038917
 20
-3.392768
  0
VERTEX
  8
PLAN_1
  6
CONTINUOUS
 10
2.042547
 20
-3.394579
  0
VERTEX
  8
PLAN_1
  6
CONTINUOUS
 10
2.045720
 20
-3.396394
  0
VERTEX
  8
PLAN_1
  6
CONTINUOUS
 10
2.048441
 20
-3.398661
  0
VERTEX
  8
PLAN_1
  6
CONTINUOUS
 10
2.053878
 20
-3.403193
  0
VERTEX
  8
PLAN_1
  6
CONTINUOUS
 10
2.058413
 20
-3.407728
  0
VERTEX
  8
PLAN_1
  6
CONTINUOUS
 10
2.062039
 20
-3.412713
  0
VERTEX
  8
PLAN_1
  6
CONTINUOUS
 10
2.064760
 20
-3.418154
  0
VERTEX
  8
PLAN_1
  6
CONTINUOUS
 10
2.067028
 20
-3.423594
  0
VERTEX
  8
PLAN_1
  6
CONTINUOUS
 10
2.068839
 20
-3.428583
  0
VERTEX
  8
PLAN_1
  6
CONTINUOUS
 10
2.069748
 20
-3.434020
  0
VERTEX
  8
PLAN_1
  6
CONTINUOUS
 10
2.070654
 20
-3.439008
  0
VERTEX
  8
PLAN_1
  6
CONTINUOUS
 10
2.071106
 20
-3.443543
  0
VERTEX
  8
PLAN_1
  6
CONTINUOUS
 10
2.071559
 20
-3.447622
  0
VERTEX
  8
PLAN_1
  6
CONTINUOUS
 10
2.046173
 20
-3.447622
  0
SEQEND
  8
0
  0
POLYLINE
  8
PLAN_1
  6
CONTINUOUS
 66
     1
 40
0.008157
 41
0.008157
  0
VERTEX
  8
PLAN_1
  6
CONTINUOUS
 10
-1.083268
 20
2.372874
  0
VERTEX
  8
PLAN_1
  6
CONTINUOUS
 10
-1.104575
 20
2.388740
  0
VERTEX
  8
PLAN_1
  6
CONTINUOUS
 10
-1.125429
 20
2.402795
  0
VERTEX
  8
PLAN_1
  6
CONTINUOUS
 10
-1.145831
 20
2.414583
  0
VERTEX
  8
PLAN_1
  6
CONTINUOUS
 10
-1.166228
 20
2.424555
  0
VERTEX
  8
PLAN_1
  6
CONTINUOUS
 10
-1.185724
 20
2.433169
  0
VERTEX
  8
PLAN_1
  6
CONTINUOUS
 10
-1.204764
 20
2.439969
  0
VERTEX
  8
PLAN_1
  6
CONTINUOUS
 10
-1.223803
 20
2.444957
  0
VERTEX
  8
PLAN_1
  6
CONTINUOUS
 10
-1.241937
 20
2.449035
  0
VERTEX
  8
PLAN_1
  6
CONTINUOUS
 10
-1.259618
 20
2.451303
  0
VERTEX
  8
PLAN_1
  6
CONTINUOUS
 10
-1.276846
 20
2.452661
  0
VERTEX
  8
PLAN_1
  6
CONTINUOUS
 10
-1.293618
 20
2.452661
  0
VERTEX
  8
PLAN_1
  6
CONTINUOUS
 10
-1.309488
 20
2.452209
  0
VERTEX
  8
PLAN_1
  6
CONTINUOUS
 10
-1.325354
 20
2.450398
  0
VERTEX
  8
PLAN_1
  6
CONTINUOUS
 10
-1.340315
 20
2.447677
  0
VERTEX
  8
PLAN_1
  6
CONTINUOUS
 10
-1.354370
 20
2.444504
  0
VERTEX
  8
PLAN_1
  6
CONTINUOUS
 10
-1.367969
 20
2.440421
  0
VERTEX
  8
PLAN_1
  6
CONTINUOUS
 10
-1.381114
 20
2.435890
  0
VERTEX
  8
PLAN_1
  6
CONTINUOUS
 10
-1.393354
 20
2.430902
  0
VERTEX
  8
PLAN_1
  6
CONTINUOUS
 10
-1.404689
 20
2.425917
  0
VERTEX
  8
PLAN_1
  6
CONTINUOUS
 10
-1.415571
 20
2.420476
  0
VERTEX
  8
PLAN_1
  6
CONTINUOUS
 10
-1.425543
 20
2.415035
  0
VERTEX
  8
PLAN_1
  6
CONTINUOUS
 10
-1.435063
 20
2.409142
  0
VERTEX
  8
PLAN_1
  6
CONTINUOUS
 10
-1.443677
 20
2.403701
  0
VERTEX
  8
PLAN_1
  6
CONTINUOUS
 10
-1.451386
 20
2.398260
  0
VERTEX
  8
PLAN_1
  6
CONTINUOUS
 10
-1.464079
 20
2.388287
  0
VERTEX
  8
PLAN_1
  6
CONTINUOUS
 10
-1.473598
 20
2.380583
  0
VERTEX
  8
PLAN_1
  6
CONTINUOUS
 10
-1.479039
 20
2.375142
  0
VERTEX
  8
PLAN_1
  6
CONTINUOUS
 10
-1.481303
 20
2.372874
  0
SEQEND
  8
0
  0
POLYLINE
  8
PLAN_1
  6
CONTINUOUS
 66
     1
 40
0.008157
 41
0.008157
  0
VERTEX
  8
PLAN_1
  6
CONTINUOUS
 10
-1.481303
 20
2.372874
  0
VERTEX
  8
PLAN_1
  6
CONTINUOUS
 10
-1.480850
 20
1.995693
  0
VERTEX
  8
PLAN_1
  6
CONTINUOUS
 10
-1.083268
 20
1.995693
  0
VERTEX
  8
PLAN_1
  6
CONTINUOUS
 10
-1.083268
 20
2.372874
  0
SEQEND
  8
0
  0
POLYLINE
  8
PLAN_1
  6
CONTINUOUS
 66
     1
 40
0.008157
 41
0.008157
  0
VERTEX
  8
PLAN_1
  6
CONTINUOUS
 10
-1.083268
 20
2.371969
  0
VERTEX
  8
PLAN_1
  6
CONTINUOUS
 10
-1.480850
 20
2.371969
  0
SEQEND
  8
0
  0
POLYLINE
  8
PLAN_1
  6
CONTINUOUS
 66
     1
 40
0.008157
 41
0.008157
  0
VERTEX
  8
PLAN_1
  6
CONTINUOUS
 10
-0.922331
 20
1.976197
  0
VERTEX
  8
PLAN_1
  6
CONTINUOUS
 10
-0.922331
 20
1.996146
  0
VERTEX
  8
PLAN_1
  6
CONTINUOUS
 10
-1.638161
 20
1.996146
  0
VERTEX
  8
PLAN_1
  6
CONTINUOUS
 10
-1.638161
 20
1.976197
  0
VERTEX
  8
PLAN_1
  6
CONTINUOUS
 10
-0.922331
 20
1.976197
  0
SEQEND
  8
0
  0
POLYLINE
  8
PLAN_1
  6
CONTINUOUS
 66
     1
 40
0.008157
 41
0.008157
  0
VERTEX
  8
PLAN_1
  6
CONTINUOUS
 10
-0.899661
 20
2.874276
  0
VERTEX
  8
PLAN_1
  6
CONTINUOUS
 10
-0.896488
 20
2.886516
  0
VERTEX
  8
PLAN_1
  6
CONTINUOUS
 10
-0.893768
 20
2.898756
  0
VERTEX
  8
PLAN_1
  6
CONTINUOUS
 10
-0.891957
 20
2.910996
  0
VERTEX
  8
PLAN_1
  6
CONTINUOUS
 10
-0.890142
 20
2.923236
  0
VERTEX
  8
PLAN_1
  6
CONTINUOUS
 10
-0.888331
 20
2.935929
  0
VERTEX
  8
PLAN_1
  6
CONTINUOUS
 10
-0.887421
 20
2.948622
  0
VERTEX
  8
PLAN_1
  6
CONTINUOUS
 10
-0.886969
 20
2.961768
  0
VERTEX
  8
PLAN_1
  6
CONTINUOUS
 10
-0.886516
 20
2.974465
  0
VERTEX
  8
PLAN_1
  6
CONTINUOUS
 10
-0.887421
 20
2.994862
  0
VERTEX
  8
PLAN_1
  6
CONTINUOUS
 10
-0.888783
 20
3.015264
  0
VERTEX
  8
PLAN_1
  6
CONTINUOUS
 10
-0.891504
 20
3.035213
  0
VERTEX
  8
PLAN_1
  6
CONTINUOUS
 10
-0.894677
 20
3.054705
  0
VERTEX
  8
PLAN_1
  6
CONTINUOUS
 10
-0.899209
 20
3.073744
  0
VERTEX
  8
PLAN_1
  6
CONTINUOUS
 10
-0.904650
 20
3.092787
  0
VERTEX
  8
PLAN_1
  6
CONTINUOUS
 10
-0.910996
 20
3.111374
  0
VERTEX
  8
PLAN_1
  6
CONTINUOUS
 10
-0.917795
 20
3.129055
  0
VERTEX
  8
PLAN_1
  6
CONTINUOUS
 10
-0.925957
 20
3.146736
  0
VERTEX
  8
PLAN_1
  6
CONTINUOUS
 10
-0.934571
 20
3.163961
  0
VERTEX
  8
PLAN_1
  6
CONTINUOUS
 10
-0.944091
 20
3.180736
  0
VERTEX
  8
PLAN_1
  6
CONTINUOUS
 10
-0.954520
 20
3.196602
  0
VERTEX
  8
PLAN_1
  6
CONTINUOUS
 10
-0.965850
 20
3.212469
  0
VERTEX
  8
PLAN_1
  6
CONTINUOUS
 10
-0.977638
 20
3.227429
  0
VERTEX
  8
PLAN_1
  6
CONTINUOUS
 10
-0.989878
 20
3.241937
  0
VERTEX
  8
PLAN_1
  6
CONTINUOUS
 10
-1.003028
 20
3.255535
  0
VERTEX
  8
PLAN_1
  6
CONTINUOUS
 10
-1.017079
 20
3.268685
  0
VERTEX
  8
PLAN_1
  6
CONTINUOUS
 10
-1.031587
 20
3.281378
  0
VERTEX
  8
PLAN_1
  6
CONTINUOUS
 10
-1.046547
 20
3.293165
  0
VERTEX
  8
PLAN_1
  6
CONTINUOUS
 10
-1.061961
 20
3.304043
  0
VERTEX
  8
PLAN_1
  6
CONTINUOUS
 10
-1.078280
 20
3.314472
  0
VERTEX
  8
PLAN_1
  6
CONTINUOUS
 10
-1.094602
 20
3.323992
  0
VERTEX
  8
PLAN_1
  6
CONTINUOUS
 10
-1.111827
 20
3.333059
  0
VERTEX
  8
PLAN_1
  6
CONTINUOUS
 10
-1.129508
 20
3.340768
  0
VERTEX
  8
PLAN_1
  6
CONTINUOUS
 10
-1.147642
 20
3.348020
  0
VERTEX
  8
PLAN_1
  6
CONTINUOUS
 10
-1.166228
 20
3.354366
  0
VERTEX
  8
PLAN_1
  6
CONTINUOUS
 10
-1.184819
 20
3.359354
  0
VERTEX
  8
PLAN_1
  6
CONTINUOUS
 10
-1.204311
 20
3.363886
  0
VERTEX
  8
PLAN_1
  6
CONTINUOUS
 10
-1.223803
 20
3.367512
  0
VERTEX
  8
PLAN_1
  6
CONTINUOUS
 10
-1.243752
 20
3.369780
  0
VERTEX
  8
PLAN_1
  6
CONTINUOUS
 10
-1.263701
 20
3.371594
  0
VERTEX
  8
PLAN_1
  6
CONTINUOUS
 10
-1.284098
 20
3.372047
  0
VERTEX
  8
PLAN_1
  6
CONTINUOUS
 10
-1.304500
 20
3.371594
  0
VERTEX
  8
PLAN_1
  6
CONTINUOUS
 10
-1.324902
 20
3.369780
  0
VERTEX
  8
PLAN_1
  6
CONTINUOUS
 10
-1.344846
 20
3.367512
  0
VERTEX
  8
PLAN_1
  6
CONTINUOUS
 10
-1.364343
 20
3.363886
  0
VERTEX
  8
PLAN_1
  6
CONTINUOUS
 10
-1.383382
 20
3.359354
  0
VERTEX
  8
PLAN_1
  6
CONTINUOUS
 10
-1.402421
 20
3.354366
  0
VERTEX
  8
PLAN_1
  6
CONTINUOUS
 10
-1.421008
 20
3.348020
  0
VERTEX
  8
PLAN_1
  6
CONTINUOUS
 10
-1.439142
 20
3.340768
  0
VERTEX
  8
PLAN_1
  6
CONTINUOUS
 10
-1.456370
 20
3.333059
  0
VERTEX
  8
PLAN_1
  6
CONTINUOUS
 10
-1.473598
 20
3.323992
  0
VERTEX
  8
PLAN_1
  6
CONTINUOUS
 10
-1.490370
 20
3.314472
  0
VERTEX
  8
PLAN_1
  6
CONTINUOUS
 10
-1.506693
 20
3.304043
  0
VERTEX
  8
PLAN_1
  6
CONTINUOUS
 10
-1.522106
 20
3.293165
  0
VERTEX
  8
PLAN_1
  6
CONTINUOUS
 10
-1.537067
 20
3.281378
  0
VERTEX
  8
PLAN_1
  6
CONTINUOUS
 10
-1.551575
 20
3.268685
  0
VERTEX
  8
PLAN_1
  6
CONTINUOUS
 10
-1.565173
 20
3.255535
  0
VERTEX
  8
PLAN_1
  6
CONTINUOUS
 10
-1.578319
 20
3.241937
  0
VERTEX
  8
PLAN_1
  6
CONTINUOUS
 10
-1.591016
 20
3.227429
  0
VERTEX
  8
PLAN_1
  6
CONTINUOUS
 10
-1.602799
 20
3.212469
  0
VERTEX
  8
PLAN_1
  6
CONTINUOUS
 10
-1.613681
 20
3.196602
  0
VERTEX
  8
PLAN_1
  6
CONTINUOUS
 10
-1.624110
 20
3.180736
  0
VERTEX
  8
PLAN_1
  6
CONTINUOUS
 10
-1.633630
 20
3.163961
  0
VERTEX
  8
PLAN_1
  6
CONTINUOUS
 10
-1.642697
 20
3.146736
  0
VERTEX
  8
PLAN_1
  6
CONTINUOUS
 10
-1.650402
 20
3.129055
  0
VERTEX
  8
PLAN_1
  6
CONTINUOUS
 10
-1.657657
 20
3.111374
  0
VERTEX
  8
PLAN_1
  6
CONTINUOUS
 10
-1.664004
 20
3.092787
  0
VERTEX
  8
PLAN_1
  6
CONTINUOUS
 10
-1.669441
 20
3.073744
  0
VERTEX
  8
PLAN_1
  6
CONTINUOUS
 10
-1.673524
 20
3.054705
  0
VERTEX
  8
PLAN_1
  6
CONTINUOUS
 10
-1.677150
 20
3.035213
  0
VERTEX
  8
PLAN_1
  6
CONTINUOUS
 10
-1.679870
 20
3.015264
  0
VERTEX
  8
PLAN_1
  6
CONTINUOUS
 10
-1.681228
 20
2.994862
  0
VERTEX
  8
PLAN_1
  6
CONTINUOUS
 10
-1.681685
 20
2.974465
  0
VERTEX
  8
PLAN_1
  6
CONTINUOUS
 10
-1.681685
 20
2.960409
  0
VERTEX
  8
PLAN_1
  6
CONTINUOUS
 10
-1.680776
 20
2.946811
  0
VERTEX
  8
PLAN_1
  6
CONTINUOUS
 10
-1.679417
 20
2.932756
  0
VERTEX
  8
PLAN_1
  6
CONTINUOUS
 10
-1.678055
 20
2.919610
  0
VERTEX
  8
PLAN_1
  6
CONTINUOUS
 10
-1.675791
 20
2.906008
  0
VERTEX
  8
PLAN_1
  6
CONTINUOUS
 10
-1.673524
 20
2.892862
  0
VERTEX
  8
PLAN_1
  6
CONTINUOUS
 10
-1.670350
 20
2.879713
  0
VERTEX
  8
PLAN_1
  6
CONTINUOUS
 10
-1.667177
 20
2.866567
  0
VERTEX
  8
PLAN_1
  6
CONTINUOUS
 10
-1.663094
 20
2.853874
  0
VERTEX
  8
PLAN_1
  6
CONTINUOUS
 10
-1.659016
 20
2.841181
  0
VERTEX
  8
PLAN_1
  6
CONTINUOUS
 10
-1.654028
 20
2.828941
  0
VERTEX
  8
PLAN_1
  6
CONTINUOUS
 10
-1.649043
 20
2.816701
  0
VERTEX
  8
PLAN_1
  6
CONTINUOUS
 10
-1.643602
 20
2.804461
  0
VERTEX
  8
PLAN_1
  6
CONTINUOUS
 10
-1.637709
 20
2.792673
  0
VERTEX
  8
PLAN_1
  6
CONTINUOUS
 10
-1.631815
 20
2.781339
  0
VERTEX
  8
PLAN_1
  6
CONTINUOUS
 10
-1.625016
 20
2.770004
  0
VERTEX
  8
PLAN_1
  6
CONTINUOUS
 10
-1.618217
 20
2.759126
  0
VERTEX
  8
PLAN_1
  6
CONTINUOUS
 10
-1.610961
 20
2.748244
  0
VERTEX
  8
PLAN_1
  6
CONTINUOUS
 10
-1.603256
 20
2.737362
  0
VERTEX
  8
PLAN_1
  6
CONTINUOUS
 10
-1.595547
 20
2.727390
  0
VERTEX
  8
PLAN_1
  6
CONTINUOUS
 10
-1.587386
 20
2.716965
  0
VERTEX
  8
PLAN_1
  6
CONTINUOUS
 10
-1.578776
 20
2.707445
  0
VERTEX
  8
PLAN_1
  6
CONTINUOUS
 10
-1.569709
 20
2.697921
  0
VERTEX
  8
PLAN_1
  6
CONTINUOUS
 10
-1.560642
 20
2.688854
  0
VERTEX
  8
PLAN_1
  6
CONTINUOUS
 10
-1.551118
 20
2.679787
  0
VERTEX
  8
PLAN_1
  6
CONTINUOUS
 10
-1.541146
 20
2.671177
  0
VERTEX
  8
PLAN_1
  6
CONTINUOUS
 10
-1.531173
 20
2.663016
  0
VERTEX
  8
PLAN_1
  6
CONTINUOUS
 10
-1.520744
 20
2.655307
  0
VERTEX
  8
PLAN_1
  6
CONTINUOUS
 10
-1.510319
 20
2.647602
  0
VERTEX
  8
PLAN_1
  6
CONTINUOUS
 10
-1.499437
 20
2.640346
  0
VERTEX
  8
PLAN_1
  6
CONTINUOUS
 10
-1.488559
 20
2.633547
  0
VERTEX
  8
PLAN_1
  6
CONTINUOUS
 10
-1.477224
 20
2.626748
  0
SEQEND
  8
0
  0
POLYLINE
  8
PLAN_1
  6
CONTINUOUS
 66
     1
 40
0.008157
 41
0.008157
  0
VERTEX
  8
PLAN_1
  6
CONTINUOUS
 10
-0.899661
 20
2.874276
  0
VERTEX
  8
PLAN_1
  6
CONTINUOUS
 10
-0.864303
 20
2.716512
  0
VERTEX
  8
PLAN_1
  6
CONTINUOUS
 10
-0.156177
 20
2.390102
  0
SEQEND
  8
0
  0
POLYLINE
  8
PLAN_1
  6
CONTINUOUS
 66
     1
 40
0.008157
 41
0.008157
  0
VERTEX
  8
PLAN_1
  6
CONTINUOUS
 10
-0.033776
 20
2.332528
  0
VERTEX
  8
PLAN_1
  6
CONTINUOUS
 10
-0.022894
 20
2.324366
  0
VERTEX
  8
PLAN_1
  6
CONTINUOUS
 10
-0.012469
 20
2.315299
  0
VERTEX
  8
PLAN_1
  6
CONTINUOUS
 10
-0.002492
 20
2.305327
  0
VERTEX
  8
PLAN_1
  6
CONTINUOUS
 10
0.007480
 20
2.294898
  0
VERTEX
  8
PLAN_1
  6
CONTINUOUS
 10
0.017453
 20
2.283110
  0
VERTEX
  8
PLAN_1
  6
CONTINUOUS
 10
0.026520
 20
2.270870
  0
VERTEX
  8
PLAN_1
  6
CONTINUOUS
 10
0.031055
 20
2.264071
  0
VERTEX
  8
PLAN_1
  6
CONTINUOUS
 10
0.035587
 20
2.257272
  0
VERTEX
  8
PLAN_1
  6
CONTINUOUS
 10
0.039669
 20
2.250472
  0
VERTEX
  8
PLAN_1
  6
CONTINUOUS
 10
0.043748
 20
2.242764
  0
VERTEX
  8
PLAN_1
  6
CONTINUOUS
 10
0.047374
 20
2.235512
  0
VERTEX
  8
PLAN_1
  6
CONTINUOUS
 10
0.051453
 20
2.227350
  0
VERTEX
  8
PLAN_1
  6
CONTINUOUS
 10
0.054630
 20
2.219646
  0
VERTEX
  8
PLAN_1
  6
CONTINUOUS
 10
0.058256
 20
2.211031
  0
VERTEX
  8
PLAN_1
  6
CONTINUOUS
 10
0.061429
 20
2.202417
  0
VERTEX
  8
PLAN_1
  6
CONTINUOUS
 10
0.064150
 20
2.193803
  0
VERTEX
  8
PLAN_1
  6
CONTINUOUS
 10
0.066870
 20
2.184283
  0
VERTEX
  8
PLAN_1
  6
CONTINUOUS
 10
0.069134
 20
2.175217
  0
VERTEX
  8
PLAN_1
  6
CONTINUOUS
 10
0.071402
 20
2.165244
  0
VERTEX
  8
PLAN_1
  6
CONTINUOUS
 10
0.073217
 20
2.155268
  0
VERTEX
  8
PLAN_1
  6
CONTINUOUS
 10
0.075028
 20
2.144843
  0
VERTEX
  8
PLAN_1
  6
CONTINUOUS
 10
0.076390
 20
2.134413
  0
VERTEX
  8
PLAN_1
  6
CONTINUOUS
 10
0.077748
 20
2.123535
  0
VERTEX
  8
PLAN_1
  6
CONTINUOUS
 10
0.078201
 20
2.112201
  0
VERTEX
  8
PLAN_1
  6
CONTINUOUS
 10
0.078654
 20
2.100866
  0
VERTEX
  8
PLAN_1
  6
CONTINUOUS
 10
0.079110
 20
2.089079
  0
VERTEX
  8
PLAN_1
  6
CONTINUOUS
 10
0.079110
 20
2.084547
  0
VERTEX
  8
PLAN_1
  6
CONTINUOUS
 10
0.078654
 20
2.080469
  0
VERTEX
  8
PLAN_1
  6
CONTINUOUS
 10
0.078654
 20
2.075933
  0
VERTEX
  8
PLAN_1
  6
CONTINUOUS
 10
0.078654
 20
2.071854
  0
VERTEX
  8
PLAN_1
  6
CONTINUOUS
 10
0.078201
 20
2.067772
  0
VERTEX
  8
PLAN_1
  6
CONTINUOUS
 10
0.077748
 20
2.063693
  0
VERTEX
  8
PLAN_1
  6
CONTINUOUS
 10
0.077748
 20
2.059614
  0
VERTEX
  8
PLAN_1
  6
CONTINUOUS
 10
0.077295
 20
2.055531
  0
SEQEND
  8
0
  0
POLYLINE
  8
PLAN_1
  6
CONTINUOUS
 66
     1
 40
0.008157
 41
0.008157
  0
VERTEX
  8
PLAN_1
  6
CONTINUOUS
 10
-0.563280
 20
2.051906
  0
VERTEX
  8
PLAN_1
  6
CONTINUOUS
 10
-0.566909
 20
2.060067
  0
VERTEX
  8
PLAN_1
  6
CONTINUOUS
 10
-0.570988
 20
2.068228
  0
VERTEX
  8
PLAN_1
  6
CONTINUOUS
 10
-0.575067
 20
2.075480
  0
VERTEX
  8
PLAN_1
  6
CONTINUOUS
 10
-0.579150
 20
2.082732
  0
VERTEX
  8
PLAN_1
  6
CONTINUOUS
 10
-0.587307
 20
2.095429
  0
VERTEX
  8
PLAN_1
  6
CONTINUOUS
 10
-0.594563
 20
2.106307
  0
VERTEX
  8
PLAN_1
  6
CONTINUOUS
 10
-0.601362
 20
2.115374
  0
VERTEX
  8
PLAN_1
  6
CONTINUOUS
 10
-0.606803
 20
2.122173
  0
VERTEX
  8
PLAN_1
  6
CONTINUOUS
 10
-0.610429
 20
2.126256
  0
VERTEX
  8
PLAN_1
  6
CONTINUOUS
 10
-0.611787
 20
2.127614
  0
VERTEX
  8
PLAN_1
  6
CONTINUOUS
 10
-0.633551
 20
2.143028
  0
VERTEX
  8
PLAN_1
  6
CONTINUOUS
 10
-0.691126
 20
2.183831
  0
VERTEX
  8
PLAN_1
  6
CONTINUOUS
 10
-0.773181
 20
2.241858
  0
VERTEX
  8
PLAN_1
  6
CONTINUOUS
 10
-0.868382
 20
2.308953
  0
VERTEX
  8
PLAN_1
  6
CONTINUOUS
 10
-0.965398
 20
2.376953
  0
VERTEX
  8
PLAN_1
  6
CONTINUOUS
 10
-1.052441
 20
2.438157
  0
VERTEX
  8
PLAN_1
  6
CONTINUOUS
 10
-1.118177
 20
2.483945
  0
VERTEX
  8
PLAN_1
  6
CONTINUOUS
 10
-1.151724
 20
2.506157
  0
VERTEX
  8
PLAN_1
  6
CONTINUOUS
 10
-1.154445
 20
2.507520
  0
VERTEX
  8
PLAN_1
  6
CONTINUOUS
 10
-1.157161
 20
2.507972
  0
VERTEX
  8
PLAN_1
  6
CONTINUOUS
 10
-1.160791
 20
2.508425
  0
VERTEX
  8
PLAN_1
  6
CONTINUOUS
 10
-1.164417
 20
2.508425
  0
VERTEX
  8
PLAN_1
  6
CONTINUOUS
 10
-1.168496
 20
2.507972
  0
VERTEX
  8
PLAN_1
  6
CONTINUOUS
 10
-1.173031
 20
2.507063
  0
VERTEX
  8
PLAN_1
  6
CONTINUOUS
 10
-1.177563
 20
2.505705
  0
VERTEX
  8
PLAN_1
  6
CONTINUOUS
 10
-1.182551
 20
2.504343
  0
VERTEX
  8
PLAN_1
  6
CONTINUOUS
 10
-1.192976
 20
2.500717
  0
VERTEX
  8
PLAN_1
  6
CONTINUOUS
 10
-1.203858
 20
2.496185
  0
VERTEX
  8
PLAN_1
  6
CONTINUOUS
 10
-1.215193
 20
2.491197
  0
VERTEX
  8
PLAN_1
  6
CONTINUOUS
 10
-1.226071
 20
2.485756
  0
VERTEX
  8
PLAN_1
  6
CONTINUOUS
 10
-1.246925
 20
2.474425
  0
VERTEX
  8
PLAN_1
  6
CONTINUOUS
 10
-1.264606
 20
2.463996
  0
VERTEX
  8
PLAN_1
  6
CONTINUOUS
 10
-1.276846
 20
2.456291
  0
VERTEX
  8
PLAN_1
  6
CONTINUOUS
 10
-1.281378
 20
2.453571
  0
SEQEND
  8
0
  0
POLYLINE
  8
PLAN_1
  6
CONTINUOUS
 66
     1
 40
0.008157
 41
0.008157
  0
VERTEX
  8
PLAN_1
  6
CONTINUOUS
 10
-1.281378
 20
2.453571
  0
VERTEX
  8
PLAN_1
  6
CONTINUOUS
 10
-1.393354
 20
2.474425
  0
VERTEX
  8
PLAN_1
  6
CONTINUOUS
 10
-1.477224
 20
2.626748
  0
SEQEND
  8
0
  0
POLYLINE
  8
PLAN_1
  6
CONTINUOUS
 66
     1
 40
0.008157
 41
0.008157
  0
VERTEX
  8
PLAN_1
  6
CONTINUOUS
 10
-0.899661
 20
2.874276
  0
VERTEX
  8
PLAN_1
  6
CONTINUOUS
 10
-0.927319
 20
2.998035
  0
SEQEND
  8
0
  0
POLYLINE
  8
PLAN_1
  6
CONTINUOUS
 66
     1
 40
0.008157
 41
0.008157
  0
VERTEX
  8
PLAN_1
  6
CONTINUOUS
 10
-0.927319
 20
2.998035
  0
VERTEX
  8
PLAN_1
  6
CONTINUOUS
 10
-0.928677
 20
3.015264
  0
VERTEX
  8
PLAN_1
  6
CONTINUOUS
 10
-0.930945
 20
3.032492
  0
VERTEX
  8
PLAN_1
  6
CONTINUOUS
 10
-0.934118
 20
3.049717
  0
VERTEX
  8
PLAN_1
  6
CONTINUOUS
 10
-0.938197
 20
3.066039
  0
VERTEX
  8
PLAN_1
  6
CONTINUOUS
 10
-0.942732
 20
3.082358
  0
VERTEX
  8
PLAN_1
  6
CONTINUOUS
 10
-0.948169
 20
3.098224
  0
VERTEX
  8
PLAN_1
  6
CONTINUOUS
 10
-0.954520
 20
3.114094
  0
VERTEX
  8
PLAN_1
  6
CONTINUOUS
 10
-0.961319
 20
3.129508
  0
VERTEX
  8
PLAN_1
  6
CONTINUOUS
 10
-0.968571
 20
3.144016
  0
VERTEX
  8
PLAN_1
  6
CONTINUOUS
 10
-0.976732
 20
3.158520
  0
VERTEX
  8
PLAN_1
  6
CONTINUOUS
 10
-0.985799
 20
3.172575
  0
VERTEX
  8
PLAN_1
  6
CONTINUOUS
 10
-0.995319
 20
3.186177
  0
VERTEX
  8
PLAN_1
  6
CONTINUOUS
 10
-1.005291
 20
3.199323
  0
VERTEX
  8
PLAN_1
  6
CONTINUOUS
 10
-1.015720
 20
3.212016
  0
VERTEX
  8
PLAN_1
  6
CONTINUOUS
 10
-1.027051
 20
3.224256
  0
VERTEX
  8
PLAN_1
  6
CONTINUOUS
 10
-1.038839
 20
3.235591
  0
VERTEX
  8
PLAN_1
  6
CONTINUOUS
 10
-1.051079
 20
3.246925
  0
VERTEX
  8
PLAN_1
  6
CONTINUOUS
 10
-1.063776
 20
3.257350
  0
VERTEX
  8
PLAN_1
  6
CONTINUOUS
 10
-1.077374
 20
3.267323
  0
VERTEX
  8
PLAN_1
  6
CONTINUOUS
 10
-1.090976
 20
3.276390
  0
VERTEX
  8
PLAN_1
  6
CONTINUOUS
 10
-1.105028
 20
3.285004
  0
VERTEX
  8
PLAN_1
  6
CONTINUOUS
 10
-1.119535
 20
3.293165
  0
VERTEX
  8
PLAN_1
  6
CONTINUOUS
 10
-1.134496
 20
3.300417
  0
VERTEX
  8
PLAN_1
  6
CONTINUOUS
 10
-1.149909
 20
3.307217
  0
VERTEX
  8
PLAN_1
  6
CONTINUOUS
 10
-1.165776
 20
3.313110
  0
VERTEX
  8
PLAN_1
  6
CONTINUOUS
 10
-1.181642
 20
3.318551
  0
VERTEX
  8
PLAN_1
  6
CONTINUOUS
 10
-1.198417
 20
3.322634
  0
VERTEX
  8
PLAN_1
  6
CONTINUOUS
 10
-1.214736
 20
3.326713
  0
VERTEX
  8
PLAN_1
  6
CONTINUOUS
 10
-1.231965
 20
3.329433
  0
VERTEX
  8
PLAN_1
  6
CONTINUOUS
 10
-1.249193
 20
3.331701
  0
VERTEX
  8
PLAN_1
  6
CONTINUOUS
 10
-1.266417
 20
3.332606
  0
VERTEX
  8
PLAN_1
  6
CONTINUOUS
 10
-1.284098
 20
3.333059
  0
VERTEX
  8
PLAN_1
  6
CONTINUOUS
 10
-1.302685
 20
3.332606
  0
VERTEX
  8
PLAN_1
  6
CONTINUOUS
 10
-1.320819
 20
3.331244
  0
VERTEX
  8
PLAN_1
  6
CONTINUOUS
 10
-1.338953
 20
3.328980
  0
VERTEX
  8
PLAN_1
  6
CONTINUOUS
 10
-1.356181
 20
3.325807
  0
VERTEX
  8
PLAN_1
  6
CONTINUOUS
 10
-1.373862
 20
3.322177
  0
VERTEX
  8
PLAN_1
  6
CONTINUOUS
 10
-1.390634
 20
3.317193
  0
VERTEX
  8
PLAN_1
  6
CONTINUOUS
 10
-1.407409
 20
3.311299
  0
VERTEX
  8
PLAN_1
  6
CONTINUOUS
 10
-1.423728
 20
3.304953
  0
VERTEX
  8
PLAN_1
  6
CONTINUOUS
 10
-1.439598
 20
3.298150
  0
VERTEX
  8
PLAN_1
  6
CONTINUOUS
 10
-1.455012
 20
3.289992
  0
VERTEX
  8
PLAN_1
  6
CONTINUOUS
 10
-1.469972
 20
3.281378
  0
VERTEX
  8
PLAN_1
  6
CONTINUOUS
 10
-1.484476
 20
3.272311
  0
VERTEX
  8
PLAN_1
  6
CONTINUOUS
 10
-1.498531
 20
3.262339
  0
VERTEX
  8
PLAN_1
  6
CONTINUOUS
 10
-1.511677
 20
3.251457
  0
VERTEX
  8
PLAN_1
  6
CONTINUOUS
 10
-1.524827
 20
3.240122
  0
VERTEX
  8
PLAN_1
  6
CONTINUOUS
 10
-1.537067
 20
3.228335
  0
VERTEX
  8
PLAN_1
  6
CONTINUOUS
 10
-1.549307
 20
3.216094
  0
VERTEX
  8
PLAN_1
  6
CONTINUOUS
 10
-1.560185
 20
3.202949
  0
VERTEX
  8
PLAN_1
  6
CONTINUOUS
 10
-1.571067
 20
3.189350
  0
VERTEX
  8
PLAN_1
  6
CONTINUOUS
 10
-1.581039
 20
3.175295
  0
VERTEX
  8
PLAN_1
  6
CONTINUOUS
 10
-1.590106
 20
3.160787
  0
VERTEX
  8
PLAN_1
  6
CONTINUOUS
 10
-1.598720
 20
3.145827
  0
VERTEX
  8
PLAN_1
  6
CONTINUOUS
 10
-1.606882
 20
3.130413
  0
VERTEX
  8
PLAN_1
  6
CONTINUOUS
 10
-1.614134
 20
3.114547
  0
VERTEX
  8
PLAN_1
  6
CONTINUOUS
 10
-1.620480
 20
3.098224
  0
VERTEX
  8
PLAN_1
  6
CONTINUOUS
 10
-1.625921
 20
3.081906
  0
VERTEX
  8
PLAN_1
  6
CONTINUOUS
 10
-1.630909
 20
3.064677
  0
VERTEX
  8
PLAN_1
  6
CONTINUOUS
 10
-1.634988
 20
3.047453
  0
VERTEX
  8
PLAN_1
  6
CONTINUOUS
 10
-1.638161
 20
3.029772
  0
VERTEX
  8
PLAN_1
  6
CONTINUOUS
 10
-1.640429
 20
3.012091
  0
VERTEX
  8
PLAN_1
  6
CONTINUOUS
 10
-1.641787
 20
2.993957
  0
VERTEX
  8
PLAN_1
  6
CONTINUOUS
 10
-1.642244
 20
2.975370
  0
VERTEX
  8
PLAN_1
  6
CONTINUOUS
 10
-1.641787
 20
2.965398
  0
VERTEX
  8
PLAN_1
  6
CONTINUOUS
 10
-1.641335
 20
2.955421
  0
VERTEX
  8
PLAN_1
  6
CONTINUOUS
 10
-1.640882
 20
2.945902
  0
VERTEX
  8
PLAN_1
  6
CONTINUOUS
 10
-1.639976
 20
2.935929
  0
VERTEX
  8
PLAN_1
  6
CONTINUOUS
 10
-1.638614
 20
2.926409
  0
VERTEX
  8
PLAN_1
  6
CONTINUOUS
 10
-1.637256
 20
2.916433
  0
VERTEX
  8
PLAN_1
  6
CONTINUOUS
 10
-1.635441
 20
2.906913
  0
VERTEX
  8
PLAN_1
  6
CONTINUOUS
 10
-1.633630
 20
2.897846
  0
VERTEX
  8
PLAN_1
  6
CONTINUOUS
 10
-1.631362
 20
2.888327
  0
VERTEX
  8
PLAN_1
  6
CONTINUOUS
 10
-1.629094
 20
2.879260
  0
VERTEX
  8
PLAN_1
  6
CONTINUOUS
 10
-1.626374
 20
2.870193
  0
VERTEX
  8
PLAN_1
  6
CONTINUOUS
 10
-1.623201
 20
2.861126
  0
VERTEX
  8
PLAN_1
  6
CONTINUOUS
 10
-1.620028
 20
2.852059
  0
VERTEX
  8
PLAN_1
  6
CONTINUOUS
 10
-1.616854
 20
2.842992
  0
VERTEX
  8
PLAN_1
  6
CONTINUOUS
 10
-1.613228
 20
2.834378
  0
VERTEX
  8
PLAN_1
  6
CONTINUOUS
 10
-1.609602
 20
2.825768
  0
VERTEX
  8
PLAN_1
  6
CONTINUOUS
 10
-1.605520
 20
2.817606
  0
VERTEX
  8
PLAN_1
  6
CONTINUOUS
 10
-1.600988
 20
2.808992
  0
VERTEX
  8
PLAN_1
  6
CONTINUOUS
 10
-1.596453
 20
2.800831
  0
VERTEX
  8
PLAN_1
  6
CONTINUOUS
 10
-1.591921
 20
2.792673
  0
VERTEX
  8
PLAN_1
  6
CONTINUOUS
 10
-1.586933
 20
2.784965
  0
VERTEX
  8
PLAN_1
  6
CONTINUOUS
 10
-1.581949
 20
2.776803
  0
VERTEX
  8
PLAN_1
  6
CONTINUOUS
 10
-1.576961
 20
2.769098
  0
VERTEX
  8
PLAN_1
  6
CONTINUOUS
 10
-1.571520
 20
2.761843
  0
VERTEX
  8
PLAN_1
  6
CONTINUOUS
 10
-1.565626
 20
2.754591
  0
VERTEX
  8
PLAN_1
  6
CONTINUOUS
 10
-1.559732
 20
2.747339
  0
VERTEX
  8
PLAN_1
  6
CONTINUOUS
 10
-1.553839
 20
2.740083
  0
VERTEX
  8
PLAN_1
  6
CONTINUOUS
 10
-1.547492
 20
2.733283
  0
VERTEX
  8
PLAN_1
  6
CONTINUOUS
 10
-1.541146
 20
2.726484
  0
VERTEX
  8
PLAN_1
  6
CONTINUOUS
 10
-1.534799
 20
2.719685
  0
VERTEX
  8
PLAN_1
  6
CONTINUOUS
 10
-1.528000
 20
2.713335
  0
VERTEX
  8
PLAN_1
  6
CONTINUOUS
 10
-1.521201
 20
2.707445
  0
SEQEND
  8
0
  0
POLYLINE
  8
PLAN_1
  6
CONTINUOUS
 66
     1
 40
0.008157
 41
0.008157
  0
VERTEX
  8
PLAN_1
  6
CONTINUOUS
 10
-1.521201
 20
2.707445
  0
VERTEX
  8
PLAN_1
  6
CONTINUOUS
 10
-1.477224
 20
2.626748
  0
SEQEND
  8
0
  0
POLYLINE
  8
PLAN_1
  6
CONTINUOUS
 66
     1
 40
0.008157
 41
0.008157
  0
VERTEX
  8
PLAN_1
  6
CONTINUOUS
 10
-0.563280
 20
2.051906
  0
VERTEX
  8
PLAN_1
  6
CONTINUOUS
 10
-0.628563
 20
1.976650
  0
VERTEX
  8
PLAN_1
  6
CONTINUOUS
 10
-0.628563
 20
1.258098
  0
VERTEX
  8
PLAN_1
  6
CONTINUOUS
 10
0.077295
 20
1.685602
  0
SEQEND
  8
0
  0
POLYLINE
  8
PLAN_1
  6
CONTINUOUS
 66
     1
 40
0.008157
 41
0.008157
  0
VERTEX
  8
PLAN_1
  6
CONTINUOUS
 10
0.077295
 20
1.685602
  0
VERTEX
  8
PLAN_1
  6
CONTINUOUS
 10
0.077295
 20
1.697390
  0
VERTEX
  8
PLAN_1
  6
CONTINUOUS
 10
0.077295
 20
1.728217
  0
VERTEX
  8
PLAN_1
  6
CONTINUOUS
 10
0.077295
 20
1.774004
  0
VERTEX
  8
PLAN_1
  6
CONTINUOUS
 10
0.077295
 20
1.829768
  0
VERTEX
  8
PLAN_1
  6
CONTINUOUS
 10
0.077295
 20
1.890969
  0
VERTEX
  8
PLAN_1
  6
CONTINUOUS
 10
0.077295
 20
1.952169
  0
VERTEX
  8
PLAN_1
  6
CONTINUOUS
 10
0.077295
 20
2.008386
  0
VERTEX
  8
PLAN_1
  6
CONTINUOUS
 10
0.077295
 20
2.055531
  0
SEQEND
  8
0
  0
POLYLINE
  8
PLAN_1
  6
CONTINUOUS
 66
     1
 40
0.008157
 41
0.008157
  0
VERTEX
  8
PLAN_1
  6
CONTINUOUS
 10
-0.033776
 20
2.332528
  0
VERTEX
  8
PLAN_1
  6
CONTINUOUS
 10
-0.039669
 20
2.337512
  0
VERTEX
  8
PLAN_1
  6
CONTINUOUS
 10
-0.046016
 20
2.342500
  0
VERTEX
  8
PLAN_1
  6
CONTINUOUS
 10
-0.052362
 20
2.347035
  0
VERTEX
  8
PLAN_1
  6
CONTINUOUS
 10
-0.059161
 20
2.351567
  0
VERTEX
  8
PLAN_1
  6
CONTINUOUS
 10
-0.065961
 20
2.356102
  0
VERTEX
  8
PLAN_1
  6
CONTINUOUS
 10
-0.072764
 20
2.360634
  0
VERTEX
  8
PLAN_1
  6
CONTINUOUS
 10
-0.080016
 20
2.364260
  0
VERTEX
  8
PLAN_1
  6
CONTINUOUS
 10
-0.087720
 20
2.368343
  0
VERTEX
  8
PLAN_1
  6
CONTINUOUS
 10
-0.095429
 20
2.371969
  0
VERTEX
  8
PLAN_1
  6
CONTINUOUS
 10
-0.103591
 20
2.375142
  0
VERTEX
  8
PLAN_1
  6
CONTINUOUS
 10
-0.111748
 20
2.378315
  0
VERTEX
  8
PLAN_1
  6
CONTINUOUS
 10
-0.119909
 20
2.381035
  0
VERTEX
  8
PLAN_1
  6
CONTINUOUS
 10
-0.128524
 20
2.383756
  0
VERTEX
  8
PLAN_1
  6
CONTINUOUS
 10
-0.137591
 20
2.386020
  0
VERTEX
  8
PLAN_1
  6
CONTINUOUS
 10
-0.146657
 20
2.388287
  0
VERTEX
  8
PLAN_1
  6
CONTINUOUS
 10
-0.156177
 20
2.390102
  0
SEQEND
  8
0
  0
POLYLINE
  8
PLAN_1
  6
CONTINUOUS
 66
     1
 40
0.008157
 41
0.008157
  0
VERTEX
  8
PLAN_1
  6
CONTINUOUS
 10
-0.563280
 20
2.051906
  0
VERTEX
  8
PLAN_1
  6
CONTINUOUS
 10
-0.534720
 20
2.085453
  0
SEQEND
  8
0
  0
POLYLINE
  8
PLAN_1
  6
CONTINUOUS
 66
     1
 40
0.008157
 41
0.008157
  0
VERTEX
  8
PLAN_1
  6
CONTINUOUS
 10
-0.534720
 20
2.085453
  0
VERTEX
  8
PLAN_1
  6
CONTINUOUS
 10
-0.534268
 20
2.085906
  0
VERTEX
  8
PLAN_1
  6
CONTINUOUS
 10
-0.532906
 20
2.087720
  0
VERTEX
  8
PLAN_1
  6
CONTINUOUS
 10
-0.530642
 20
2.090894
  0
VERTEX
  8
PLAN_1
  6
CONTINUOUS
 10
-0.527921
 20
2.095882
  0
VERTEX
  8
PLAN_1
  6
CONTINUOUS
 10
-0.524748
 20
2.102681
  0
VERTEX
  8
PLAN_1
  6
CONTINUOUS
 10
-0.521118
 20
2.112201
  0
VERTEX
  8
PLAN_1
  6
CONTINUOUS
 10
-0.517492
 20
2.123535
  0
VERTEX
  8
PLAN_1
  6
CONTINUOUS
 10
-0.513413
 20
2.138043
  0
VERTEX
  8
PLAN_1
  6
CONTINUOUS
 10
-0.511146
 20
2.147563
  0
VERTEX
  8
PLAN_1
  6
CONTINUOUS
 10
-0.508425
 20
2.160709
  0
VERTEX
  8
PLAN_1
  6
CONTINUOUS
 10
-0.503894
 20
2.176575
  0
VERTEX
  8
PLAN_1
  6
CONTINUOUS
 10
-0.498453
 20
2.194256
  0
VERTEX
  8
PLAN_1
  6
CONTINUOUS
 10
-0.495280
 20
2.203776
  0
VERTEX
  8
PLAN_1
  6
CONTINUOUS
 10
-0.491654
 20
2.213752
  0
VERTEX
  8
PLAN_1
  6
CONTINUOUS
 10
-0.487118
 20
2.224177
  0
VERTEX
  8
PLAN_1
  6
CONTINUOUS
 10
-0.482587
 20
2.234602
  0
VERTEX
  8
PLAN_1
  6
CONTINUOUS
 10
-0.477146
 20
2.245484
  0
VERTEX
  8
PLAN_1
  6
CONTINUOUS
 10
-0.471252
 20
2.256366
  0
VERTEX
  8
PLAN_1
  6
CONTINUOUS
 10
-0.464453
 20
2.267244
  0
VERTEX
  8
PLAN_1
  6
CONTINUOUS
 10
-0.457654
 20
2.277673
  0
VERTEX
  8
PLAN_1
  6
CONTINUOUS
 10
-0.449492
 20
2.288551
  0
VERTEX
  8
PLAN_1
  6
CONTINUOUS
 10
-0.440878
 20
2.298980
  0
VERTEX
  8
PLAN_1
  6
CONTINUOUS
 10
-0.431358
 20
2.309406
  0
VERTEX
  8
PLAN_1
  6
CONTINUOUS
 10
-0.421386
 20
2.319378
  0
VERTEX
  8
PLAN_1
  6
CONTINUOUS
 10
-0.410051
 20
2.329354
  0
VERTEX
  8
PLAN_1
  6
CONTINUOUS
 10
-0.398264
 20
2.338421
  0
VERTEX
  8
PLAN_1
  6
CONTINUOUS
 10
-0.385571
 20
2.347035
  0
VERTEX
  8
PLAN_1
  6
CONTINUOUS
 10
-0.371516
 20
2.355646
  0
VERTEX
  8
PLAN_1
  6
CONTINUOUS
 10
-0.356555
 20
2.362902
  0
VERTEX
  8
PLAN_1
  6
CONTINUOUS
 10
-0.341142
 20
2.370154
  0
VERTEX
  8
PLAN_1
  6
CONTINUOUS
 10
-0.323913
 20
2.376047
  0
VERTEX
  8
PLAN_1
  6
CONTINUOUS
 10
-0.306236
 20
2.381488
  0
VERTEX
  8
PLAN_1
  6
CONTINUOUS
 10
-0.287193
 20
2.386020
  0
VERTEX
  8
PLAN_1
  6
CONTINUOUS
 10
-0.266795
 20
2.389650
  0
VERTEX
  8
PLAN_1
  6
CONTINUOUS
 10
-0.245031
 20
2.392370
  0
VERTEX
  8
PLAN_1
  6
CONTINUOUS
 10
-0.222366
 20
2.394181
  0
VERTEX
  8
PLAN_1
  6
CONTINUOUS
 10
-0.213752
 20
2.394181
  0
VERTEX
  8
PLAN_1
  6
CONTINUOUS
 10
-0.204685
 20
2.394181
  0
VERTEX
  8
PLAN_1
  6
CONTINUOUS
 10
-0.196524
 20
2.394181
  0
VERTEX
  8
PLAN_1
  6
CONTINUOUS
 10
-0.187913
 20
2.393728
  0
VERTEX
  8
PLAN_1
  6
CONTINUOUS
 10
-0.179752
 20
2.393276
  0
VERTEX
  8
PLAN_1
  6
CONTINUOUS
 10
-0.171591
 20
2.392370
  0
VERTEX
  8
PLAN_1
  6
CONTINUOUS
 10
-0.163886
 20
2.391008
  0
VERTEX
  8
PLAN_1
  6
CONTINUOUS
 10
-0.156177
 20
2.390102
  0
SEQEND
  8
0
  0
POLYLINE
  8
PLAN_1
  6
CONTINUOUS
 66
     1
 40
0.008157
 41
0.008157
  0
VERTEX
  8
PLAN_1
  6
CONTINUOUS
 10
-1.285008
 20
2.737362
  0
VERTEX
  8
PLAN_1
  6
CONTINUOUS
 10
-1.272768
 20
2.737819
  0
VERTEX
  8
PLAN_1
  6
CONTINUOUS
 10
-1.260528
 20
2.738724
  0
VERTEX
  8
PLAN_1
  6
CONTINUOUS
 10
-1.248740
 20
2.740083
  0
VERTEX
  8
PLAN_1
  6
CONTINUOUS
 10
-1.236953
 20
2.742350
  0
VERTEX
  8
PLAN_1
  6
CONTINUOUS
 10
-1.225165
 20
2.745071
  0
VERTEX
  8
PLAN_1
  6
CONTINUOUS
 10
-1.213831
 20
2.748244
  0
VERTEX
  8
PLAN_1
  6
CONTINUOUS
 10
-1.202953
 20
2.751870
  0
VERTEX
  8
PLAN_1
  6
CONTINUOUS
 10
-1.192071
 20
2.756406
  0
VERTEX
  8
PLAN_1
  6
CONTINUOUS
 10
-1.181642
 20
2.760937
  0
VERTEX
  8
PLAN_1
  6
CONTINUOUS
 10
-1.171217
 20
2.766378
  0
VERTEX
  8
PLAN_1
  6
CONTINUOUS
 10
-1.161244
 20
2.771819
  0
VERTEX
  8
PLAN_1
  6
CONTINUOUS
 10
-1.151724
 20
2.778165
  0
VERTEX
  8
PLAN_1
  6
CONTINUOUS
 10
-1.142201
 20
2.784965
  0
VERTEX
  8
PLAN_1
  6
CONTINUOUS
 10
-1.133134
 20
2.791764
  0
VERTEX
  8
PLAN_1
  6
CONTINUOUS
 10
-1.124524
 20
2.799472
  0
VERTEX
  8
PLAN_1
  6
CONTINUOUS
 10
-1.116362
 20
2.807177
  0
VERTEX
  8
PLAN_1
  6
CONTINUOUS
 10
-1.108201
 20
2.815791
  0
VERTEX
  8
PLAN_1
  6
CONTINUOUS
 10
-1.100949
 20
2.824406
  0
VERTEX
  8
PLAN_1
  6
CONTINUOUS
 10
-1.093693
 20
2.833472
  0
VERTEX
  8
PLAN_1
  6
CONTINUOUS
 10
-1.086894
 20
2.842539
  0
VERTEX
  8
PLAN_1
  6
CONTINUOUS
 10
-1.081000
 20
2.852512
  0
VERTEX
  8
PLAN_1
  6
CONTINUOUS
 10
-1.075106
 20
2.862488
  0
VERTEX
  8
PLAN_1
  6
CONTINUOUS
 10
-1.069669
 20
2.872461
  0
VERTEX
  8
PLAN_1
  6
CONTINUOUS
 10
-1.065134
 20
2.883343
  0
VERTEX
  8
PLAN_1
  6
CONTINUOUS
 10
-1.060602
 20
2.893768
  0
VERTEX
  8
PLAN_1
  6
CONTINUOUS
 10
-1.056972
 20
2.905102
  0
VERTEX
  8
PLAN_1
  6
CONTINUOUS
 10
-1.053799
 20
2.916433
  0
VERTEX
  8
PLAN_1
  6
CONTINUOUS
 10
-1.051079
 20
2.927768
  0
VERTEX
  8
PLAN_1
  6
CONTINUOUS
 10
-1.049268
 20
2.939555
  0
VERTEX
  8
PLAN_1
  6
CONTINUOUS
 10
-1.047453
 20
2.951795
  0
VERTEX
  8
PLAN_1
  6
CONTINUOUS
 10
-1.046547
 20
2.963583
  0
VERTEX
  8
PLAN_1
  6
CONTINUOUS
 10
-1.046547
 20
2.975823
  0
VERTEX
  8
PLAN_1
  6
CONTINUOUS
 10
-1.046547
 20
2.988063
  0
VERTEX
  8
PLAN_1
  6
CONTINUOUS
 10
-1.047453
 20
3.000303
  0
VERTEX
  8
PLAN_1
  6
CONTINUOUS
 10
-1.049268
 20
3.012091
  0
VERTEX
  8
PLAN_1
  6
CONTINUOUS
 10
-1.051079
 20
3.023878
  0
VERTEX
  8
PLAN_1
  6
CONTINUOUS
 10
-1.053799
 20
3.035665
  0
VERTEX
  8
PLAN_1
  6
CONTINUOUS
 10
-1.056972
 20
3.047000
  0
VERTEX
  8
PLAN_1
  6
CONTINUOUS
 10
-1.060602
 20
3.057878
  0
VERTEX
  8
PLAN_1
  6
CONTINUOUS
 10
-1.065134
 20
3.068760
  0
VERTEX
  8
PLAN_1
  6
CONTINUOUS
 10
-1.069669
 20
3.079185
  0
VERTEX
  8
PLAN_1
  6
CONTINUOUS
 10
-1.075106
 20
3.089614
  0
VERTEX
  8
PLAN_1
  6
CONTINUOUS
 10
-1.081000
 20
3.099587
  0
VERTEX
  8
PLAN_1
  6
CONTINUOUS
 10
-1.086894
 20
3.109559
  0
VERTEX
  8
PLAN_1
  6
CONTINUOUS
 10
-1.093693
 20
3.118626
  0
VERTEX
  8
PLAN_1
  6
CONTINUOUS
 10
-1.100949
 20
3.127693
  0
VERTEX
  8
PLAN_1
  6
CONTINUOUS
 10
-1.108201
 20
3.136307
  0
VERTEX
  8
PLAN_1
  6
CONTINUOUS
 10
-1.116362
 20
3.144469
  0
VERTEX
  8
PLAN_1
  6
CONTINUOUS
 10
-1.124524
 20
3.152626
  0
VERTEX
  8
PLAN_1
  6
CONTINUOUS
 10
-1.133134
 20
3.159882
  0
VERTEX
  8
PLAN_1
  6
CONTINUOUS
 10
-1.142201
 20
3.167134
  0
VERTEX
  8
PLAN_1
  6
CONTINUOUS
 10
-1.151724
 20
3.173933
  0
VERTEX
  8
PLAN_1
  6
CONTINUOUS
 10
-1.161244
 20
3.179827
  0
VERTEX
  8
PLAN_1
  6
CONTINUOUS
 10
-1.171217
 20
3.185720
  0
VERTEX
  8
PLAN_1
  6
CONTINUOUS
 10
-1.181642
 20
3.191161
  0
VERTEX
  8
PLAN_1
  6
CONTINUOUS
 10
-1.192071
 20
3.195697
  0
VERTEX
  8
PLAN_1
  6
CONTINUOUS
 10
-1.202953
 20
3.200228
  0
VERTEX
  8
PLAN_1
  6
CONTINUOUS
 10
-1.213831
 20
3.203854
  0
VERTEX
  8
PLAN_1
  6
CONTINUOUS
 10
-1.225165
 20
3.207028
  0
VERTEX
  8
PLAN_1
  6
CONTINUOUS
 10
-1.236953
 20
3.209748
  0
VERTEX
  8
PLAN_1
  6
CONTINUOUS
 10
-1.248740
 20
3.211563
  0
VERTEX
  8
PLAN_1
  6
CONTINUOUS
 10
-1.260528
 20
3.213374
  0
VERTEX
  8
PLAN_1
  6
CONTINUOUS
 10
-1.272768
 20
3.214283
  0
VERTEX
  8
PLAN_1
  6
CONTINUOUS
 10
-1.285008
 20
3.214736
  0
VERTEX
  8
PLAN_1
  6
CONTINUOUS
 10
-1.297248
 20
3.214283
  0
VERTEX
  8
PLAN_1
  6
CONTINUOUS
 10
-1.309035
 20
3.213374
  0
VERTEX
  8
PLAN_1
  6
CONTINUOUS
 10
-1.321276
 20
3.211563
  0
VERTEX
  8
PLAN_1
  6
CONTINUOUS
 10
-1.333059
 20
3.209748
  0
VERTEX
  8
PLAN_1
  6
CONTINUOUS
 10
-1.344394
 20
3.207028
  0
VERTEX
  8
PLAN_1
  6
CONTINUOUS
 10
-1.355728
 20
3.203854
  0
VERTEX
  8
PLAN_1
  6
CONTINUOUS
 10
-1.367063
 20
3.200228
  0
VERTEX
  8
PLAN_1
  6
CONTINUOUS
 10
-1.377488
 20
3.195697
  0
VERTEX
  8
PLAN_1
  6
CONTINUOUS
 10
-1.388370
 20
3.191161
  0
VERTEX
  8
PLAN_1
  6
CONTINUOUS
 10
-1.398343
 20
3.185720
  0
VERTEX
  8
PLAN_1
  6
CONTINUOUS
 10
-1.408315
 20
3.179827
  0
VERTEX
  8
PLAN_1
  6
CONTINUOUS
 10
-1.418291
 20
3.173933
  0
VERTEX
  8
PLAN_1
  6
CONTINUOUS
 10
-1.427358
 20
3.167134
  0
VERTEX
  8
PLAN_1
  6
CONTINUOUS
 10
-1.436425
 20
3.159882
  0
VERTEX
  8
PLAN_1
  6
CONTINUOUS
 10
-1.445035
 20
3.152626
  0
VERTEX
  8
PLAN_1
  6
CONTINUOUS
 10
-1.453650
 20
3.144469
  0
VERTEX
  8
PLAN_1
  6
CONTINUOUS
 10
-1.461358
 20
3.136307
  0
VERTEX
  8
PLAN_1
  6
CONTINUOUS
 10
-1.469063
 20
3.127693
  0
VERTEX
  8
PLAN_1
  6
CONTINUOUS
 10
-1.475866
 20
3.118626
  0
VERTEX
  8
PLAN_1
  6
CONTINUOUS
 10
-1.482665
 20
3.109559
  0
VERTEX
  8
PLAN_1
  6
CONTINUOUS
 10
-1.489012
 20
3.099587
  0
VERTEX
  8
PLAN_1
  6
CONTINUOUS
 10
-1.494453
 20
3.089614
  0
VERTEX
  8
PLAN_1
  6
CONTINUOUS
 10
-1.499894
 20
3.079185
  0
VERTEX
  8
PLAN_1
  6
CONTINUOUS
 10
-1.504425
 20
3.068760
  0
VERTEX
  8
PLAN_1
  6
CONTINUOUS
 10
-1.508961
 20
3.057878
  0
VERTEX
  8
PLAN_1
  6
CONTINUOUS
 10
-1.512587
 20
3.047000
  0
VERTEX
  8
PLAN_1
  6
CONTINUOUS
 10
-1.515760
 20
3.035665
  0
VERTEX
  8
PLAN_1
  6
CONTINUOUS
 10
-1.518480
 20
3.023878
  0
VERTEX
  8
PLAN_1
  6
CONTINUOUS
 10
-1.520744
 20
3.012091
  0
VERTEX
  8
PLAN_1
  6
CONTINUOUS
 10
-1.522106
 20
3.000303
  0
VERTEX
  8
PLAN_1
  6
CONTINUOUS
 10
-1.523012
 20
2.988063
  0
VERTEX
  8
PLAN_1
  6
CONTINUOUS
 10
-1.523465
 20
2.975823
  0
VERTEX
  8
PLAN_1
  6
CONTINUOUS
 10
-1.523012
 20
2.963583
  0
VERTEX
  8
PLAN_1
  6
CONTINUOUS
 10
-1.522106
 20
2.951795
  0
VERTEX
  8
PLAN_1
  6
CONTINUOUS
 10
-1.520744
 20
2.939555
  0
VERTEX
  8
PLAN_1
  6
CONTINUOUS
 10
-1.518480
 20
2.927768
  0
VERTEX
  8
PLAN_1
  6
CONTINUOUS
 10
-1.515760
 20
2.916433
  0
VERTEX
  8
PLAN_1
  6
CONTINUOUS
 10
-1.512587
 20
2.905102
  0
VERTEX
  8
PLAN_1
  6
CONTINUOUS
 10
-1.508961
 20
2.893768
  0
VERTEX
  8
PLAN_1
  6
CONTINUOUS
 10
-1.504425
 20
2.883343
  0
VERTEX
  8
PLAN_1
  6
CONTINUOUS
 10
-1.499894
 20
2.872461
  0
VERTEX
  8
PLAN_1
  6
CONTINUOUS
 10
-1.494453
 20
2.862488
  0
VERTEX
  8
PLAN_1
  6
CONTINUOUS
 10
-1.489012
 20
2.852512
  0
VERTEX
  8
PLAN_1
  6
CONTINUOUS
 10
-1.482665
 20
2.842539
  0
VERTEX
  8
PLAN_1
  6
CONTINUOUS
 10
-1.475866
 20
2.833472
  0
VERTEX
  8
PLAN_1
  6
CONTINUOUS
 10
-1.469063
 20
2.824406
  0
VERTEX
  8
PLAN_1
  6
CONTINUOUS
 10
-1.461358
 20
2.815791
  0
VERTEX
  8
PLAN_1
  6
CONTINUOUS
 10
-1.453650
 20
2.807177
  0
VERTEX
  8
PLAN_1
  6
CONTINUOUS
 10
-1.445035
 20
2.799472
  0
VERTEX
  8
PLAN_1
  6
CONTINUOUS
 10
-1.436425
 20
2.791764
  0
VERTEX
  8
PLAN_1
  6
CONTINUOUS
 10
-1.427358
 20
2.784965
  0
VERTEX
  8
PLAN_1
  6
CONTINUOUS
 10
-1.418291
 20
2.778165
  0
VERTEX
  8
PLAN_1
  6
CONTINUOUS
 10
-1.408315
 20
2.771819
  0
VERTEX
  8
PLAN_1
  6
CONTINUOUS
 10
-1.398343
 20
2.766378
  0
VERTEX
  8
PLAN_1
  6
CONTINUOUS
 10
-1.388370
 20
2.760937
  0
VERTEX
  8
PLAN_1
  6
CONTINUOUS
 10
-1.377488
 20
2.756406
  0
VERTEX
  8
PLAN_1
  6
CONTINUOUS
 10
-1.367063
 20
2.751870
  0
VERTEX
  8
PLAN_1
  6
CONTINUOUS
 10
-1.355728
 20
2.748244
  0
VERTEX
  8
PLAN_1
  6
CONTINUOUS
 10
-1.344394
 20
2.745071
  0
VERTEX
  8
PLAN_1
  6
CONTINUOUS
 10
-1.333059
 20
2.742350
  0
VERTEX
  8
PLAN_1
  6
CONTINUOUS
 10
-1.321276
 20
2.740083
  0
VERTEX
  8
PLAN_1
  6
CONTINUOUS
 10
-1.309035
 20
2.738724
  0
VERTEX
  8
PLAN_1
  6
CONTINUOUS
 10
-1.297248
 20
2.737819
  0
VERTEX
  8
PLAN_1
  6
CONTINUOUS
 10
-1.285008
 20
2.737362
  0
SEQEND
  8
0
  0
POLYLINE
  8
PLAN_1
 62
     5
  6
CONTINUOUS
 66
     1
 40
0.003000
 41
0.003000
  0
VERTEX
  8
PLAN_1
 62
     5
  6
CONTINUOUS
 10
-2.074732
 20
0.468827
  0
VERTEX
  8
PLAN_1
 62
     5
  6
CONTINUOUS
 10
-2.074732
 20
0.477441
  0
SEQEND
  8
0
  0
POLYLINE
  8
PLAN_1
 62
     5
  6
CONTINUOUS
 66
     1
 40
0.003000
 41
0.003000
  0
VERTEX
  8
PLAN_1
 62
     5
  6
CONTINUOUS
 10
-2.074732
 20
0.485598
  0
VERTEX
  8
PLAN_1
 62
     5
  6
CONTINUOUS
 10
-2.074732
 20
0.493760
  0
SEQEND
  8
0
  0
POLYLINE
  8
PLAN_1
 62
     5
  6
CONTINUOUS
 66
     1
 40
0.003000
 41
0.003000
  0
VERTEX
  8
PLAN_1
 62
     5
  6
CONTINUOUS
 10
-2.074732
 20
0.502374
  0
VERTEX
  8
PLAN_1
 62
     5
  6
CONTINUOUS
 10
-2.074732
 20
0.510531
  0
SEQEND
  8
0
  0
POLYLINE
  8
PLAN_1
 62
     5
  6
CONTINUOUS
 66
     1
 40
0.003000
 41
0.003000
  0
VERTEX
  8
PLAN_1
 62
     5
  6
CONTINUOUS
 10
-2.074732
 20
0.519146
  0
VERTEX
  8
PLAN_1
 62
     5
  6
CONTINUOUS
 10
-2.074732
 20
0.527307
  0
SEQEND
  8
0
  0
POLYLINE
  8
PLAN_1
 62
     5
  6
CONTINUOUS
 66
     1
 40
0.003000
 41
0.003000
  0
VERTEX
  8
PLAN_1
 62
     5
  6
CONTINUOUS
 10
-2.074732
 20
0.535469
  0
VERTEX
  8
PLAN_1
 62
     5
  6
CONTINUOUS
 10
-2.074732
 20
0.544083
  0
SEQEND
  8
0
  0
POLYLINE
  8
PLAN_1
 62
     5
  6
CONTINUOUS
 66
     1
 40
0.003000
 41
0.003000
  0
VERTEX
  8
PLAN_1
 62
     5
  6
CONTINUOUS
 10
-2.074732
 20
0.552240
  0
VERTEX
  8
PLAN_1
 62
     5
  6
CONTINUOUS
 10
-2.074732
 20
0.560402
  0
SEQEND
  8
0
  0
POLYLINE
  8
PLAN_1
 62
     5
  6
CONTINUOUS
 66
     1
 40
0.003000
 41
0.003000
  0
VERTEX
  8
PLAN_1
 62
     5
  6
CONTINUOUS
 10
-2.074732
 20
0.569016
  0
VERTEX
  8
PLAN_1
 62
     5
  6
CONTINUOUS
 10
-2.074732
 20
0.577173
  0
SEQEND
  8
0
  0
POLYLINE
  8
PLAN_1
 62
     5
  6
CONTINUOUS
 66
     1
 40
0.003000
 41
0.003000
  0
VERTEX
  8
PLAN_1
 62
     5
  6
CONTINUOUS
 10
-2.074732
 20
0.585787
  0
VERTEX
  8
PLAN_1
 62
     5
  6
CONTINUOUS
 10
-2.074732
 20
0.593949
  0
SEQEND
  8
0
  0
POLYLINE
  8
PLAN_1
 62
     5
  6
CONTINUOUS
 66
     1
 40
0.003000
 41
0.003000
  0
VERTEX
  8
PLAN_1
 62
     5
  6
CONTINUOUS
 10
-2.074732
 20
0.602110
  0
VERTEX
  8
PLAN_1
 62
     5
  6
CONTINUOUS
 10
-2.074732
 20
0.610724
  0
SEQEND
  8
0
  0
POLYLINE
  8
PLAN_1
 62
     5
  6
CONTINUOUS
 66
     1
 40
0.003000
 41
0.003000
  0
VERTEX
  8
PLAN_1
 62
     5
  6
CONTINUOUS
 10
-2.074732
 20
0.618882
  0
VERTEX
  8
PLAN_1
 62
     5
  6
CONTINUOUS
 10
-2.074732
 20
0.627043
  0
SEQEND
  8
0
  0
POLYLINE
  8
PLAN_1
 62
     5
  6
CONTINUOUS
 66
     1
 40
0.003000
 41
0.003000
  0
VERTEX
  8
PLAN_1
 62
     5
  6
CONTINUOUS
 10
-2.074732
 20
0.635657
  0
VERTEX
  8
PLAN_1
 62
     5
  6
CONTINUOUS
 10
-2.074732
 20
0.643815
  0
SEQEND
  8
0
  0
POLYLINE
  8
PLAN_1
 62
     5
  6
CONTINUOUS
 66
     1
 40
0.003000
 41
0.003000
  0
VERTEX
  8
PLAN_1
 62
     5
  6
CONTINUOUS
 10
-2.074732
 20
0.652429
  0
VERTEX
  8
PLAN_1
 62
     5
  6
CONTINUOUS
 10
-2.074732
 20
0.660591
  0
SEQEND
  8
0
  0
POLYLINE
  8
PLAN_1
 62
     5
  6
CONTINUOUS
 66
     1
 40
0.003000
 41
0.003000
  0
VERTEX
  8
PLAN_1
 62
     5
  6
CONTINUOUS
 10
-2.074732
 20
0.668752
  0
VERTEX
  8
PLAN_1
 62
     5
  6
CONTINUOUS
 10
-2.074732
 20
0.677366
  0
SEQEND
  8
0
  0
POLYLINE
  8
PLAN_1
 62
     5
  6
CONTINUOUS
 66
     1
 40
0.003000
 41
0.003000
  0
VERTEX
  8
PLAN_1
 62
     5
  6
CONTINUOUS
 10
-2.074732
 20
0.685524
  0
VERTEX
  8
PLAN_1
 62
     5
  6
CONTINUOUS
 10
-2.074732
 20
0.693685
  0
SEQEND
  8
0
  0
POLYLINE
  8
PLAN_1
 62
     5
  6
CONTINUOUS
 66
     1
 40
0.003000
 41
0.003000
  0
VERTEX
  8
PLAN_1
 62
     5
  6
CONTINUOUS
 10
-2.074732
 20
0.702299
  0
VERTEX
  8
PLAN_1
 62
     5
  6
CONTINUOUS
 10
-2.074732
 20
0.710457
  0
SEQEND
  8
0
  0
POLYLINE
  8
PLAN_1
 62
     5
  6
CONTINUOUS
 66
     1
 40
0.003000
 41
0.003000
  0
VERTEX
  8
PLAN_1
 62
     5
  6
CONTINUOUS
 10
-2.074732
 20
0.719071
  0
VERTEX
  8
PLAN_1
 62
     5
  6
CONTINUOUS
 10
-2.074732
 20
0.727232
  0
SEQEND
  8
0
  0
POLYLINE
  8
PLAN_1
 62
     5
  6
CONTINUOUS
 66
     1
 40
0.003000
 41
0.003000
  0
VERTEX
  8
PLAN_1
 62
     5
  6
CONTINUOUS
 10
-2.074732
 20
0.735394
  0
VERTEX
  8
PLAN_1
 62
     5
  6
CONTINUOUS
 10
-2.074732
 20
0.744004
  0
SEQEND
  8
0
  0
POLYLINE
  8
PLAN_1
 62
     5
  6
CONTINUOUS
 66
     1
 40
0.003000
 41
0.003000
  0
VERTEX
  8
PLAN_1
 62
     5
  6
CONTINUOUS
 10
-2.074732
 20
0.752165
  0
VERTEX
  8
PLAN_1
 62
     5
  6
CONTINUOUS
 10
-2.074732
 20
0.760327
  0
SEQEND
  8
0
  0
POLYLINE
  8
PLAN_1
 62
     5
  6
CONTINUOUS
 66
     1
 40
0.003000
 41
0.003000
  0
VERTEX
  8
PLAN_1
 62
     5
  6
CONTINUOUS
 10
-2.074732
 20
0.768941
  0
VERTEX
  8
PLAN_1
 62
     5
  6
CONTINUOUS
 10
-2.074732
 20
0.777098
  0
SEQEND
  8
0
  0
POLYLINE
  8
PLAN_1
 62
     5
  6
CONTINUOUS
 66
     1
 40
0.003000
 41
0.003000
  0
VERTEX
  8
PLAN_1
 62
     5
  6
CONTINUOUS
 10
-2.074732
 20
0.785260
  0
VERTEX
  8
PLAN_1
 62
     5
  6
CONTINUOUS
 10
-2.074732
 20
0.793874
  0
SEQEND
  8
0
  0
POLYLINE
  8
PLAN_1
 62
     5
  6
CONTINUOUS
 66
     1
 40
0.003000
 41
0.003000
  0
VERTEX
  8
PLAN_1
 62
     5
  6
CONTINUOUS
 10
-2.074732
 20
0.802035
  0
VERTEX
  8
PLAN_1
 62
     5
  6
CONTINUOUS
 10
-2.074732
 20
0.810646
  0
SEQEND
  8
0
  0
POLYLINE
  8
PLAN_1
 62
     5
  6
CONTINUOUS
 66
     1
 40
0.003000
 41
0.003000
  0
VERTEX
  8
PLAN_1
 62
     5
  6
CONTINUOUS
 10
-2.074732
 20
0.818807
  0
VERTEX
  8
PLAN_1
 62
     5
  6
CONTINUOUS
 10
-2.074732
 20
0.826969
  0
SEQEND
  8
0
  0
POLYLINE
  8
PLAN_1
 62
     5
  6
CONTINUOUS
 66
     1
 40
0.003000
 41
0.003000
  0
VERTEX
  8
PLAN_1
 62
     5
  6
CONTINUOUS
 10
-2.074732
 20
0.835583
  0
VERTEX
  8
PLAN_1
 62
     5
  6
CONTINUOUS
 10
-2.074732
 20
0.843740
  0
SEQEND
  8
0
  0
POLYLINE
  8
PLAN_1
 62
     5
  6
CONTINUOUS
 66
     1
 40
0.003000
 41
0.003000
  0
VERTEX
  8
PLAN_1
 62
     5
  6
CONTINUOUS
 10
-2.074732
 20
0.851902
  0
VERTEX
  8
PLAN_1
 62
     5
  6
CONTINUOUS
 10
-2.074732
 20
0.860516
  0
SEQEND
  8
0
  0
POLYLINE
  8
PLAN_1
 62
     5
  6
CONTINUOUS
 66
     1
 40
0.003000
 41
0.003000
  0
VERTEX
  8
PLAN_1
 62
     5
  6
CONTINUOUS
 10
-2.074732
 20
0.868677
  0
VERTEX
  8
PLAN_1
 62
     5
  6
CONTINUOUS
 10
-2.074732
 20
0.877287
  0
SEQEND
  8
0
  0
POLYLINE
  8
PLAN_1
 62
     5
  6
CONTINUOUS
 66
     1
 40
0.003000
 41
0.003000
  0
VERTEX
  8
PLAN_1
 62
     5
  6
CONTINUOUS
 10
-2.074732
 20
0.885449
  0
VERTEX
  8
PLAN_1
 62
     5
  6
CONTINUOUS
 10
-2.074732
 20
0.893610
  0
SEQEND
  8
0
  0
POLYLINE
  8
PLAN_1
 62
     5
  6
CONTINUOUS
 66
     1
 40
0.003000
 41
0.003000
  0
VERTEX
  8
PLAN_1
 62
     5
  6
CONTINUOUS
 10
-2.074732
 20
0.902224
  0
VERTEX
  8
PLAN_1
 62
     5
  6
CONTINUOUS
 10
-2.074732
 20
0.910382
  0
SEQEND
  8
0
  0
POLYLINE
  8
PLAN_1
 62
     5
  6
CONTINUOUS
 66
     1
 40
0.003000
 41
0.003000
  0
VERTEX
  8
PLAN_1
 62
     5
  6
CONTINUOUS
 10
-2.074732
 20
0.918543
  0
VERTEX
  8
PLAN_1
 62
     5
  6
CONTINUOUS
 10
-2.074732
 20
0.927157
  0
SEQEND
  8
0
  0
POLYLINE
  8
PLAN_1
 62
     5
  6
CONTINUOUS
 66
     1
 40
0.003000
 41
0.003000
  0
VERTEX
  8
PLAN_1
 62
     5
  6
CONTINUOUS
 10
-2.074732
 20
0.935319
  0
VERTEX
  8
PLAN_1
 62
     5
  6
CONTINUOUS
 10
-2.074732
 20
0.943929
  0
SEQEND
  8
0
  0
POLYLINE
  8
PLAN_1
 62
     5
  6
CONTINUOUS
 66
     1
 40
0.003000
 41
0.003000
  0
VERTEX
  8
PLAN_1
 62
     5
  6
CONTINUOUS
 10
-2.074732
 20
0.952091
  0
VERTEX
  8
PLAN_1
 62
     5
  6
CONTINUOUS
 10
-2.074732
 20
0.960252
  0
SEQEND
  8
0
  0
POLYLINE
  8
PLAN_1
 62
     5
  6
CONTINUOUS
 66
     1
 40
0.003000
 41
0.003000
  0
VERTEX
  8
PLAN_1
 62
     5
  6
CONTINUOUS
 10
-2.074732
 20
0.968866
  0
VERTEX
  8
PLAN_1
 62
     5
  6
CONTINUOUS
 10
-2.074732
 20
0.977024
  0
SEQEND
  8
0
  0
POLYLINE
  8
PLAN_1
 62
     5
  6
CONTINUOUS
 66
     1
 40
0.003000
 41
0.003000
  0
VERTEX
  8
PLAN_1
 62
     5
  6
CONTINUOUS
 10
-2.074732
 20
0.985185
  0
VERTEX
  8
PLAN_1
 62
     5
  6
CONTINUOUS
 10
-2.074732
 20
0.993799
  0
SEQEND
  8
0
  0
POLYLINE
  8
PLAN_1
 62
     5
  6
CONTINUOUS
 66
     1
 40
0.003000
 41
0.003000
  0
VERTEX
  8
PLAN_1
 62
     5
  6
CONTINUOUS
 10
-2.074732
 20
1.001961
  0
VERTEX
  8
PLAN_1
 62
     5
  6
CONTINUOUS
 10
-2.074732
 20
1.010571
  0
SEQEND
  8
0
  0
POLYLINE
  8
PLAN_1
 62
     5
  6
CONTINUOUS
 66
     1
 40
0.003000
 41
0.003000
  0
VERTEX
  8
PLAN_1
 62
     5
  6
CONTINUOUS
 10
-2.074732
 20
1.018732
  0
VERTEX
  8
PLAN_1
 62
     5
  6
CONTINUOUS
 10
-2.074732
 20
1.026894
  0
SEQEND
  8
0
  0
POLYLINE
  8
PLAN_1
 62
     5
  6
CONTINUOUS
 66
     1
 40
0.003000
 41
0.003000
  0
VERTEX
  8
PLAN_1
 62
     5
  6
CONTINUOUS
 10
-2.074732
 20
1.035508
  0
VERTEX
  8
PLAN_1
 62
     5
  6
CONTINUOUS
 10
-2.074732
 20
1.043665
  0
SEQEND
  8
0
  0
POLYLINE
  8
PLAN_1
 62
     5
  6
CONTINUOUS
 66
     1
 40
0.003000
 41
0.003000
  0
VERTEX
  8
PLAN_1
 62
     5
  6
CONTINUOUS
 10
-2.074732
 20
1.051827
  0
VERTEX
  8
PLAN_1
 62
     5
  6
CONTINUOUS
 10
-2.074732
 20
1.060441
  0
SEQEND
  8
0
  0
POLYLINE
  8
PLAN_1
 62
     5
  6
CONTINUOUS
 66
     1
 40
0.003000
 41
0.003000
  0
VERTEX
  8
PLAN_1
 62
     5
  6
CONTINUOUS
 10
-2.074732
 20
1.068602
  0
VERTEX
  8
PLAN_1
 62
     5
  6
CONTINUOUS
 10
-2.074732
 20
1.076760
  0
SEQEND
  8
0
  0
POLYLINE
  8
PLAN_1
 62
     5
  6
CONTINUOUS
 66
     1
 40
0.003000
 41
0.003000
  0
VERTEX
  8
PLAN_1
 62
     5
  6
CONTINUOUS
 10
-2.074732
 20
1.085374
  0
VERTEX
  8
PLAN_1
 62
     5
  6
CONTINUOUS
 10
-2.074732
 20
1.093535
  0
SEQEND
  8
0
  0
POLYLINE
  8
PLAN_1
 62
     5
  6
CONTINUOUS
 66
     1
 40
0.003000
 41
0.003000
  0
VERTEX
  8
PLAN_1
 62
     5
  6
CONTINUOUS
 10
-2.074732
 20
1.102150
  0
VERTEX
  8
PLAN_1
 62
     5
  6
CONTINUOUS
 10
-2.074732
 20
1.110307
  0
SEQEND
  8
0
  0
POLYLINE
  8
PLAN_1
 62
     5
  6
CONTINUOUS
 66
     1
 40
0.003000
 41
0.003000
  0
VERTEX
  8
PLAN_1
 62
     5
  6
CONTINUOUS
 10
-2.074732
 20
1.118469
  0
VERTEX
  8
PLAN_1
 62
     5
  6
CONTINUOUS
 10
-2.074732
 20
1.127083
  0
SEQEND
  8
0
  0
POLYLINE
  8
PLAN_1
 62
     5
  6
CONTINUOUS
 66
     1
 40
0.003000
 41
0.003000
  0
VERTEX
  8
PLAN_1
 62
     5
  6
CONTINUOUS
 10
-2.074732
 20
1.135244
  0
VERTEX
  8
PLAN_1
 62
     5
  6
CONTINUOUS
 10
-2.074732
 20
1.143402
  0
SEQEND
  8
0
  0
POLYLINE
  8
PLAN_1
 62
     5
  6
CONTINUOUS
 66
     1
 40
0.003000
 41
0.003000
  0
VERTEX
  8
PLAN_1
 62
     5
  6
CONTINUOUS
 10
-2.074732
 20
1.152016
  0
VERTEX
  8
PLAN_1
 62
     5
  6
CONTINUOUS
 10
-2.074732
 20
1.160177
  0
SEQEND
  8
0
  0
POLYLINE
  8
PLAN_1
 62
     5
  6
CONTINUOUS
 66
     1
 40
0.003000
 41
0.003000
  0
VERTEX
  8
PLAN_1
 62
     5
  6
CONTINUOUS
 10
-2.074732
 20
1.168791
  0
VERTEX
  8
PLAN_1
 62
     5
  6
CONTINUOUS
 10
-2.074732
 20
1.176949
  0
SEQEND
  8
0
  0
POLYLINE
  8
PLAN_1
 62
     5
  6
CONTINUOUS
 66
     1
 40
0.003000
 41
0.003000
  0
VERTEX
  8
PLAN_1
 62
     5
  6
CONTINUOUS
 10
-2.074732
 20
1.181484
  0
VERTEX
  8
PLAN_1
 62
     5
  6
CONTINUOUS
 10
-2.075185
 20
1.185563
  0
VERTEX
  8
PLAN_1
 62
     5
  6
CONTINUOUS
 10
-2.074732
 20
1.189646
  0
SEQEND
  8
0
  0
POLYLINE
  8
PLAN_1
 62
     5
  6
CONTINUOUS
 66
     1
 40
0.003000
 41
0.003000
  0
VERTEX
  8
PLAN_1
 62
     5
  6
CONTINUOUS
 10
-2.072921
 20
1.197803
  0
VERTEX
  8
PLAN_1
 62
     5
  6
CONTINUOUS
 10
-2.072012
 20
1.200071
  0
VERTEX
  8
PLAN_1
 62
     5
  6
CONTINUOUS
 10
-2.070201
 20
1.203244
  0
VERTEX
  8
PLAN_1
 62
     5
  6
CONTINUOUS
 10
-2.068839
 20
1.205059
  0
SEQEND
  8
0
  0
POLYLINE
  8
PLAN_1
 62
     5
  6
CONTINUOUS
 66
     1
 40
0.003000
 41
0.003000
  0
VERTEX
  8
PLAN_1
 62
     5
  6
CONTINUOUS
 10
-2.063402
 20
1.211406
  0
VERTEX
  8
PLAN_1
 62
     5
  6
CONTINUOUS
 10
-2.060224
 20
1.213673
  0
VERTEX
  8
PLAN_1
 62
     5
  6
CONTINUOUS
 10
-2.057508
 20
1.215484
  0
VERTEX
  8
PLAN_1
 62
     5
  6
CONTINUOUS
 10
-2.056598
 20
1.215937
  0
SEQEND
  8
0
  0
POLYLINE
  8
PLAN_1
 62
     5
  6
CONTINUOUS
 66
     1
 40
0.003000
 41
0.003000
  0
VERTEX
  8
PLAN_1
 62
     5
  6
CONTINUOUS
 10
-2.048894
 20
1.219110
  0
VERTEX
  8
PLAN_1
 62
     5
  6
CONTINUOUS
 10
-2.047079
 20
1.219563
  0
VERTEX
  8
PLAN_1
 62
     5
  6
CONTINUOUS
 10
-2.043000
 20
1.220020
  0
VERTEX
  8
PLAN_1
 62
     5
  6
CONTINUOUS
 10
-2.040280
 20
1.220020
  0
SEQEND
  8
0
  0
POLYLINE
  8
PLAN_1
 62
     5
  6
CONTINUOUS
 66
     1
 40
0.003000
 41
0.003000
  0
VERTEX
  8
PLAN_1
 62
     5
  6
CONTINUOUS
 10
-2.038917
 20
1.220020
  0
VERTEX
  8
PLAN_1
 62
     5
  6
CONTINUOUS
 10
-2.030760
 20
1.220020
  0
SEQEND
  8
0
  0
POLYLINE
  8
PLAN_1
 62
     5
  6
CONTINUOUS
 66
     1
 40
0.003000
 41
0.003000
  0
VERTEX
  8
PLAN_1
 62
     5
  6
CONTINUOUS
 10
-2.022598
 20
1.220020
  0
VERTEX
  8
PLAN_1
 62
     5
  6
CONTINUOUS
 10
-2.013984
 20
1.220020
  0
SEQEND
  8
0
  0
POLYLINE
  8
PLAN_1
 62
     5
  6
CONTINUOUS
 66
     1
 40
0.003000
 41
0.003000
  0
VERTEX
  8
PLAN_1
 62
     5
  6
CONTINUOUS
 10
-2.005827
 20
1.220020
  0
VERTEX
  8
PLAN_1
 62
     5
  6
CONTINUOUS
 10
-1.997665
 20
1.220020
  0
SEQEND
  8
0
  0
POLYLINE
  8
PLAN_1
 62
     5
  6
CONTINUOUS
 66
     1
 40
0.003000
 41
0.003000
  0
VERTEX
  8
PLAN_1
 62
     5
  6
CONTINUOUS
 10
-1.989051
 20
1.220020
  0
VERTEX
  8
PLAN_1
 62
     5
  6
CONTINUOUS
 10
-1.980890
 20
1.220020
  0
SEQEND
  8
0
  0
POLYLINE
  8
PLAN_1
 62
     5
  6
CONTINUOUS
 66
     1
 40
0.003000
 41
0.003000
  0
VERTEX
  8
PLAN_1
 62
     5
  6
CONTINUOUS
 10
-1.972732
 20
1.220020
  0
VERTEX
  8
PLAN_1
 62
     5
  6
CONTINUOUS
 10
-1.964118
 20
1.220020
  0
SEQEND
  8
0
  0
POLYLINE
  8
PLAN_1
 62
     5
  6
CONTINUOUS
 66
     1
 40
0.003000
 41
0.003000
  0
VERTEX
  8
PLAN_1
 62
     5
  6
CONTINUOUS
 10
-1.955957
 20
1.220020
  0
VERTEX
  8
PLAN_1
 62
     5
  6
CONTINUOUS
 10
-1.947343
 20
1.220020
  0
SEQEND
  8
0
  0
POLYLINE
  8
PLAN_1
 62
     5
  6
CONTINUOUS
 66
     1
 40
0.003000
 41
0.003000
  0
VERTEX
  8
PLAN_1
 62
     5
  6
CONTINUOUS
 10
-1.939185
 20
1.220020
  0
VERTEX
  8
PLAN_1
 62
     5
  6
CONTINUOUS
 10
-1.931024
 20
1.220020
  0
SEQEND
  8
0
  0
POLYLINE
  8
PLAN_1
 62
     5
  6
CONTINUOUS
 66
     1
 40
0.003000
 41
0.003000
  0
VERTEX
  8
PLAN_1
 62
     5
  6
CONTINUOUS
 10
-1.922409
 20
1.220020
  0
VERTEX
  8
PLAN_1
 62
     5
  6
CONTINUOUS
 10
-1.914248
 20
1.220020
  0
SEQEND
  8
0
  0
POLYLINE
  8
PLAN_1
 62
     5
  6
CONTINUOUS
 66
     1
 40
0.003000
 41
0.003000
  0
VERTEX
  8
PLAN_1
 62
     5
  6
CONTINUOUS
 10
-1.906091
 20
1.220020
  0
VERTEX
  8
PLAN_1
 62
     5
  6
CONTINUOUS
 10
-1.897476
 20
1.220020
  0
SEQEND
  8
0
  0
POLYLINE
  8
PLAN_1
 62
     5
  6
CONTINUOUS
 66
     1
 40
0.003000
 41
0.003000
  0
VERTEX
  8
PLAN_1
 62
     5
  6
CONTINUOUS
 10
-1.889315
 20
1.220020
  0
VERTEX
  8
PLAN_1
 62
     5
  6
CONTINUOUS
 10
-1.880701
 20
1.220020
  0
SEQEND
  8
0
  0
POLYLINE
  8
PLAN_1
 62
     5
  6
CONTINUOUS
 66
     1
 40
0.003000
 41
0.003000
  0
VERTEX
  8
PLAN_1
 62
     5
  6
CONTINUOUS
 10
-1.872543
 20
1.220020
  0
VERTEX
  8
PLAN_1
 62
     5
  6
CONTINUOUS
 10
-1.864382
 20
1.220020
  0
SEQEND
  8
0
  0
POLYLINE
  8
PLAN_1
 62
     5
  6
CONTINUOUS
 66
     1
 40
0.003000
 41
0.003000
  0
VERTEX
  8
PLAN_1
 62
     5
  6
CONTINUOUS
 10
-1.855768
 20
1.220020
  0
VERTEX
  8
PLAN_1
 62
     5
  6
CONTINUOUS
 10
-1.847606
 20
1.220020
  0
SEQEND
  8
0
  0
POLYLINE
  8
PLAN_1
 62
     5
  6
CONTINUOUS
 66
     1
 40
0.003000
 41
0.003000
  0
VERTEX
  8
PLAN_1
 62
     5
  6
CONTINUOUS
 10
-1.839449
 20
1.220020
  0
VERTEX
  8
PLAN_1
 62
     5
  6
CONTINUOUS
 10
-1.830835
 20
1.220020
  0
SEQEND
  8
0
  0
POLYLINE
  8
PLAN_1
 62
     5
  6
CONTINUOUS
 66
     1
 40
0.003000
 41
0.003000
  0
VERTEX
  8
PLAN_1
 62
     5
  6
CONTINUOUS
 10
-1.822673
 20
1.220020
  0
VERTEX
  8
PLAN_1
 62
     5
  6
CONTINUOUS
 10
-1.814059
 20
1.220020
  0
SEQEND
  8
0
  0
POLYLINE
  8
PLAN_1
 62
     5
  6
CONTINUOUS
 66
     1
 40
0.003000
 41
0.003000
  0
VERTEX
  8
PLAN_1
 62
     5
  6
CONTINUOUS
 10
-1.805902
 20
1.220020
  0
VERTEX
  8
PLAN_1
 62
     5
  6
CONTINUOUS
 10
-1.797740
 20
1.220020
  0
SEQEND
  8
0
  0
POLYLINE
  8
PLAN_1
 62
     5
  6
CONTINUOUS
 66
     1
 40
0.003000
 41
0.003000
  0
VERTEX
  8
PLAN_1
 62
     5
  6
CONTINUOUS
 10
-1.789126
 20
1.220020
  0
VERTEX
  8
PLAN_1
 62
     5
  6
CONTINUOUS
 10
-1.780965
 20
1.220020
  0
SEQEND
  8
0
  0
POLYLINE
  8
PLAN_1
 62
     5
  6
CONTINUOUS
 66
     1
 40
0.003000
 41
0.003000
  0
VERTEX
  8
PLAN_1
 62
     5
  6
CONTINUOUS
 10
-1.772807
 20
1.220020
  0
VERTEX
  8
PLAN_1
 62
     5
  6
CONTINUOUS
 10
-1.764193
 20
1.220020
  0
SEQEND
  8
0
  0
POLYLINE
  8
PLAN_1
 62
     5
  6
CONTINUOUS
 66
     1
 40
0.003000
 41
0.003000
  0
VERTEX
  8
PLAN_1
 62
     5
  6
CONTINUOUS
 10
-1.756031
 20
1.220020
  0
VERTEX
  8
PLAN_1
 62
     5
  6
CONTINUOUS
 10
-1.747870
 20
1.220020
  0
SEQEND
  8
0
  0
POLYLINE
  8
PLAN_1
 62
     5
  6
CONTINUOUS
 66
     1
 40
0.003000
 41
0.003000
  0
VERTEX
  8
PLAN_1
 62
     5
  6
CONTINUOUS
 10
-1.739260
 20
1.220020
  0
VERTEX
  8
PLAN_1
 62
     5
  6
CONTINUOUS
 10
-1.731098
 20
1.220020
  0
SEQEND
  8
0
  0
POLYLINE
  8
PLAN_1
 62
     5
  6
CONTINUOUS
 66
     1
 40
0.003000
 41
0.003000
  0
VERTEX
  8
PLAN_1
 62
     5
  6
CONTINUOUS
 10
-1.722484
 20
1.220020
  0
VERTEX
  8
PLAN_1
 62
     5
  6
CONTINUOUS
 10
-1.714323
 20
1.220020
  0
SEQEND
  8
0
  0
POLYLINE
  8
PLAN_1
 62
     5
  6
CONTINUOUS
 66
     1
 40
0.003000
 41
0.003000
  0
VERTEX
  8
PLAN_1
 62
     5
  6
CONTINUOUS
 10
-1.706165
 20
1.220020
  0
VERTEX
  8
PLAN_1
 62
     5
  6
CONTINUOUS
 10
-1.697551
 20
1.220020
  0
SEQEND
  8
0
  0
POLYLINE
  8
PLAN_1
 62
     5
  6
CONTINUOUS
 66
     1
 40
0.003000
 41
0.003000
  0
VERTEX
  8
PLAN_1
 62
     5
  6
CONTINUOUS
 10
-1.689390
 20
1.220020
  0
VERTEX
  8
PLAN_1
 62
     5
  6
CONTINUOUS
 10
-1.681228
 20
1.220020
  0
SEQEND
  8
0
  0
POLYLINE
  8
PLAN_1
 62
     5
  6
CONTINUOUS
 66
     1
 40
0.003000
 41
0.003000
  0
VERTEX
  8
PLAN_1
 62
     5
  6
CONTINUOUS
 10
-1.672618
 20
1.220020
  0
VERTEX
  8
PLAN_1
 62
     5
  6
CONTINUOUS
 10
-1.664457
 20
1.220020
  0
SEQEND
  8
0
  0
POLYLINE
  8
PLAN_1
 62
     5
  6
CONTINUOUS
 66
     1
 40
0.003000
 41
0.003000
  0
VERTEX
  8
PLAN_1
 62
     5
  6
CONTINUOUS
 10
-1.655843
 20
1.220020
  0
VERTEX
  8
PLAN_1
 62
     5
  6
CONTINUOUS
 10
-1.647681
 20
1.220020
  0
SEQEND
  8
0
  0
POLYLINE
  8
PLAN_1
 62
     5
  6
CONTINUOUS
 66
     1
 40
0.003000
 41
0.003000
  0
VERTEX
  8
PLAN_1
 62
     5
  6
CONTINUOUS
 10
-1.639524
 20
1.220020
  0
VERTEX
  8
PLAN_1
 62
     5
  6
CONTINUOUS
 10
-1.630909
 20
1.220020
  0
SEQEND
  8
0
  0
POLYLINE
  8
PLAN_1
 62
     5
  6
CONTINUOUS
 66
     1
 40
0.003000
 41
0.003000
  0
VERTEX
  8
PLAN_1
 62
     5
  6
CONTINUOUS
 10
-1.622748
 20
1.220020
  0
VERTEX
  8
PLAN_1
 62
     5
  6
CONTINUOUS
 10
-1.614587
 20
1.220020
  0
SEQEND
  8
0
  0
POLYLINE
  8
PLAN_1
 62
     5
  6
CONTINUOUS
 66
     1
 40
0.003000
 41
0.003000
  0
VERTEX
  8
PLAN_1
 62
     5
  6
CONTINUOUS
 10
-1.605976
 20
1.220020
  0
VERTEX
  8
PLAN_1
 62
     5
  6
CONTINUOUS
 10
-1.597815
 20
1.220020
  0
SEQEND
  8
0
  0
POLYLINE
  8
PLAN_1
 62
     5
  6
CONTINUOUS
 66
     1
 40
0.003000
 41
0.003000
  0
VERTEX
  8
PLAN_1
 62
     5
  6
CONTINUOUS
 10
-1.589201
 20
1.220020
  0
VERTEX
  8
PLAN_1
 62
     5
  6
CONTINUOUS
 10
-1.581039
 20
1.220020
  0
SEQEND
  8
0
  0
POLYLINE
  8
PLAN_1
 62
     5
  6
CONTINUOUS
 66
     1
 40
0.003000
 41
0.003000
  0
VERTEX
  8
PLAN_1
 62
     5
  6
CONTINUOUS
 10
-1.572882
 20
1.220020
  0
VERTEX
  8
PLAN_1
 62
     5
  6
CONTINUOUS
 10
-1.564268
 20
1.220020
  0
SEQEND
  8
0
  0
POLYLINE
  8
PLAN_1
 62
     5
  6
CONTINUOUS
 66
     1
 40
0.003000
 41
0.003000
  0
VERTEX
  8
PLAN_1
 62
     5
  6
CONTINUOUS
 10
-1.556106
 20
1.220020
  0
VERTEX
  8
PLAN_1
 62
     5
  6
CONTINUOUS
 10
-1.547945
 20
1.220020
  0
SEQEND
  8
0
  0
POLYLINE
  8
PLAN_1
 62
     5
  6
CONTINUOUS
 66
     1
 40
0.003000
 41
0.003000
  0
VERTEX
  8
PLAN_1
 62
     5
  6
CONTINUOUS
 10
-1.539335
 20
1.220020
  0
VERTEX
  8
PLAN_1
 62
     5
  6
CONTINUOUS
 10
-1.531173
 20
1.220020
  0
SEQEND
  8
0
  0
POLYLINE
  8
PLAN_1
 62
     5
  6
CONTINUOUS
 66
     1
 40
0.003000
 41
0.003000
  0
VERTEX
  8
PLAN_1
 62
     5
  6
CONTINUOUS
 10
-1.523012
 20
1.220020
  0
VERTEX
  8
PLAN_1
 62
     5
  6
CONTINUOUS
 10
-1.514398
 20
1.220020
  0
SEQEND
  8
0
  0
POLYLINE
  8
PLAN_1
 62
     5
  6
CONTINUOUS
 66
     1
 40
0.003000
 41
0.003000
  0
VERTEX
  8
PLAN_1
 62
     5
  6
CONTINUOUS
 10
-1.506240
 20
1.220020
  0
VERTEX
  8
PLAN_1
 62
     5
  6
CONTINUOUS
 10
-1.497626
 20
1.220020
  0
SEQEND
  8
0
  0
POLYLINE
  8
PLAN_1
 62
     5
  6
CONTINUOUS
 66
     1
 40
0.003000
 41
0.003000
  0
VERTEX
  8
PLAN_1
 62
     5
  6
CONTINUOUS
 10
-1.489465
 20
1.220020
  0
VERTEX
  8
PLAN_1
 62
     5
  6
CONTINUOUS
 10
-1.481303
 20
1.220020
  0
SEQEND
  8
0
  0
POLYLINE
  8
PLAN_1
 62
     5
  6
CONTINUOUS
 66
     1
 40
0.003000
 41
0.003000
  0
VERTEX
  8
PLAN_1
 62
     5
  6
CONTINUOUS
 10
-1.472693
 20
1.220020
  0
VERTEX
  8
PLAN_1
 62
     5
  6
CONTINUOUS
 10
-1.464531
 20
1.220020
  0
SEQEND
  8
0
  0
POLYLINE
  8
PLAN_1
 62
     5
  6
CONTINUOUS
 66
     1
 40
0.003000
 41
0.003000
  0
VERTEX
  8
PLAN_1
 62
     5
  6
CONTINUOUS
 10
-1.456370
 20
1.220020
  0
VERTEX
  8
PLAN_1
 62
     5
  6
CONTINUOUS
 10
-1.447756
 20
1.220020
  0
SEQEND
  8
0
  0
POLYLINE
  8
PLAN_1
 62
     5
  6
CONTINUOUS
 66
     1
 40
0.003000
 41
0.003000
  0
VERTEX
  8
PLAN_1
 62
     5
  6
CONTINUOUS
 10
-1.439598
 20
1.220020
  0
VERTEX
  8
PLAN_1
 62
     5
  6
CONTINUOUS
 10
-1.430984
 20
1.220020
  0
SEQEND
  8
0
  0
POLYLINE
  8
PLAN_1
 62
     5
  6
CONTINUOUS
 66
     1
 40
0.003000
 41
0.003000
  0
VERTEX
  8
PLAN_1
 62
     5
  6
CONTINUOUS
 10
-1.422823
 20
1.220020
  0
VERTEX
  8
PLAN_1
 62
     5
  6
CONTINUOUS
 10
-1.414661
 20
1.220020
  0
SEQEND
  8
0
  0
POLYLINE
  8
PLAN_1
 62
     5
  6
CONTINUOUS
 66
     1
 40
0.003000
 41
0.003000
  0
VERTEX
  8
PLAN_1
 62
     5
  6
CONTINUOUS
 10
-1.406051
 20
1.220020
  0
VERTEX
  8
PLAN_1
 62
     5
  6
CONTINUOUS
 10
-1.397890
 20
1.220020
  0
SEQEND
  8
0
  0
POLYLINE
  8
PLAN_1
 62
     5
  6
CONTINUOUS
 66
     1
 40
0.003000
 41
0.003000
  0
VERTEX
  8
PLAN_1
 62
     5
  6
CONTINUOUS
 10
-1.389728
 20
1.220020
  0
VERTEX
  8
PLAN_1
 62
     5
  6
CONTINUOUS
 10
-1.381114
 20
1.220020
  0
SEQEND
  8
0
  0
POLYLINE
  8
PLAN_1
 62
     5
  6
CONTINUOUS
 66
     1
 40
0.003000
 41
0.003000
  0
VERTEX
  8
PLAN_1
 62
     5
  6
CONTINUOUS
 10
-1.372957
 20
1.220020
  0
VERTEX
  8
PLAN_1
 62
     5
  6
CONTINUOUS
 10
-1.364343
 20
1.220020
  0
SEQEND
  8
0
  0
POLYLINE
  8
PLAN_1
 62
     5
  6
CONTINUOUS
 66
     1
 40
0.003000
 41
0.003000
  0
VERTEX
  8
PLAN_1
 62
     5
  6
CONTINUOUS
 10
-1.356181
 20
1.220020
  0
VERTEX
  8
PLAN_1
 62
     5
  6
CONTINUOUS
 10
-1.348020
 20
1.220020
  0
SEQEND
  8
0
  0
POLYLINE
  8
PLAN_1
 62
     5
  6
CONTINUOUS
 66
     1
 40
0.003000
 41
0.003000
  0
VERTEX
  8
PLAN_1
 62
     5
  6
CONTINUOUS
 10
-1.339409
 20
1.220020
  0
VERTEX
  8
PLAN_1
 62
     5
  6
CONTINUOUS
 10
-1.331248
 20
1.220020
  0
SEQEND
  8
0
  0
POLYLINE
  8
PLAN_1
 62
     5
  6
CONTINUOUS
 66
     1
 40
0.003000
 41
0.003000
  0
VERTEX
  8
PLAN_1
 62
     5
  6
CONTINUOUS
 10
-1.323087
 20
1.220020
  0
VERTEX
  8
PLAN_1
 62
     5
  6
CONTINUOUS
 10
-1.314472
 20
1.220020
  0
SEQEND
  8
0
  0
POLYLINE
  8
PLAN_1
 62
     5
  6
CONTINUOUS
 66
     1
 40
0.003000
 41
0.003000
  0
VERTEX
  8
PLAN_1
 62
     5
  6
CONTINUOUS
 10
-1.306315
 20
1.220020
  0
VERTEX
  8
PLAN_1
 62
     5
  6
CONTINUOUS
 10
-1.297701
 20
1.220020
  0
SEQEND
  8
0
  0
POLYLINE
  8
PLAN_1
 62
     5
  6
CONTINUOUS
 66
     1
 40
0.003000
 41
0.003000
  0
VERTEX
  8
PLAN_1
 62
     5
  6
CONTINUOUS
 10
-1.289539
 20
1.220020
  0
VERTEX
  8
PLAN_1
 62
     5
  6
CONTINUOUS
 10
-1.281378
 20
1.220020
  0
SEQEND
  8
0
  0
POLYLINE
  8
PLAN_1
 62
     5
  6
CONTINUOUS
 66
     1
 40
0.003000
 41
0.003000
  0
VERTEX
  8
PLAN_1
 62
     5
  6
CONTINUOUS
 10
-1.272768
 20
1.220020
  0
VERTEX
  8
PLAN_1
 62
     5
  6
CONTINUOUS
 10
-1.264606
 20
1.220020
  0
SEQEND
  8
0
  0
POLYLINE
  8
PLAN_1
 62
     5
  6
CONTINUOUS
 66
     1
 40
0.003000
 41
0.003000
  0
VERTEX
  8
PLAN_1
 62
     5
  6
CONTINUOUS
 10
-1.256445
 20
1.220020
  0
VERTEX
  8
PLAN_1
 62
     5
  6
CONTINUOUS
 10
-1.247831
 20
1.220020
  0
SEQEND
  8
0
  0
POLYLINE
  8
PLAN_1
 62
     5
  6
CONTINUOUS
 66
     1
 40
0.003000
 41
0.003000
  0
VERTEX
  8
PLAN_1
 62
     5
  6
CONTINUOUS
 10
-1.239673
 20
1.220020
  0
VERTEX
  8
PLAN_1
 62
     5
  6
CONTINUOUS
 10
-1.231512
 20
1.220020
  0
SEQEND
  8
0
  0
POLYLINE
  8
PLAN_1
 62
     5
  6
CONTINUOUS
 66
     1
 40
0.003000
 41
0.003000
  0
VERTEX
  8
PLAN_1
 62
     5
  6
CONTINUOUS
 10
-1.222898
 20
1.220020
  0
VERTEX
  8
PLAN_1
 62
     5
  6
CONTINUOUS
 10
-1.214736
 20
1.220020
  0
SEQEND
  8
0
  0
POLYLINE
  8
PLAN_1
 62
     5
  6
CONTINUOUS
 66
     1
 40
0.003000
 41
0.003000
  0
VERTEX
  8
PLAN_1
 62
     5
  6
CONTINUOUS
 10
-1.206126
 20
1.220020
  0
VERTEX
  8
PLAN_1
 62
     5
  6
CONTINUOUS
 10
-1.197965
 20
1.220020
  0
SEQEND
  8
0
  0
POLYLINE
  8
PLAN_1
 62
     5
  6
CONTINUOUS
 66
     1
 40
0.003000
 41
0.003000
  0
VERTEX
  8
PLAN_1
 62
     5
  6
CONTINUOUS
 10
-1.189803
 20
1.220020
  0
VERTEX
  8
PLAN_1
 62
     5
  6
CONTINUOUS
 10
-1.181189
 20
1.220020
  0
SEQEND
  8
0
  0
POLYLINE
  8
PLAN_1
 62
     5
  6
CONTINUOUS
 66
     1
 40
0.003000
 41
0.003000
  0
VERTEX
  8
PLAN_1
 62
     5
  6
CONTINUOUS
 10
-1.173031
 20
1.220020
  0
VERTEX
  8
PLAN_1
 62
     5
  6
CONTINUOUS
 10
-1.164870
 20
1.220020
  0
SEQEND
  8
0
  0
POLYLINE
  8
PLAN_1
 62
     5
  6
CONTINUOUS
 66
     1
 40
0.003000
 41
0.003000
  0
VERTEX
  8
PLAN_1
 62
     5
  6
CONTINUOUS
 10
-1.156256
 20
1.220020
  0
VERTEX
  8
PLAN_1
 62
     5
  6
CONTINUOUS
 10
-1.148094
 20
1.220020
  0
SEQEND
  8
0
  0
POLYLINE
  8
PLAN_1
 62
     5
  6
CONTINUOUS
 66
     1
 40
0.003000
 41
0.003000
  0
VERTEX
  8
PLAN_1
 62
     5
  6
CONTINUOUS
 10
-1.139484
 20
1.220020
  0
VERTEX
  8
PLAN_1
 62
     5
  6
CONTINUOUS
 10
-1.131323
 20
1.220020
  0
SEQEND
  8
0
  0
POLYLINE
  8
PLAN_1
 62
     5
  6
CONTINUOUS
 66
     1
 40
0.003000
 41
0.003000
  0
VERTEX
  8
PLAN_1
 62
     5
  6
CONTINUOUS
 10
-1.123161
 20
1.220020
  0
VERTEX
  8
PLAN_1
 62
     5
  6
CONTINUOUS
 10
-1.114547
 20
1.220020
  0
SEQEND
  8
0
  0
POLYLINE
  8
PLAN_1
 62
     5
  6
CONTINUOUS
 66
     1
 40
0.003000
 41
0.003000
  0
VERTEX
  8
PLAN_1
 62
     5
  6
CONTINUOUS
 10
-1.106390
 20
1.220020
  0
VERTEX
  8
PLAN_1
 62
     5
  6
CONTINUOUS
 10
-1.098228
 20
1.220020
  0
SEQEND
  8
0
  0
POLYLINE
  8
PLAN_1
 62
     5
  6
CONTINUOUS
 66
     1
 40
0.003000
 41
0.003000
  0
VERTEX
  8
PLAN_1
 62
     5
  6
CONTINUOUS
 10
-1.089614
 20
1.220020
  0
VERTEX
  8
PLAN_1
 62
     5
  6
CONTINUOUS
 10
-1.081453
 20
1.220020
  0
SEQEND
  8
0
  0
POLYLINE
  8
PLAN_1
 62
     5
  6
CONTINUOUS
 66
     1
 40
0.003000
 41
0.003000
  0
VERTEX
  8
PLAN_1
 62
     5
  6
CONTINUOUS
 10
-1.072843
 20
1.220020
  0
VERTEX
  8
PLAN_1
 62
     5
  6
CONTINUOUS
 10
-1.064681
 20
1.220020
  0
SEQEND
  8
0
  0
POLYLINE
  8
PLAN_1
 62
     5
  6
CONTINUOUS
 66
     1
 40
0.003000
 41
0.003000
  0
VERTEX
  8
PLAN_1
 62
     5
  6
CONTINUOUS
 10
-1.056520
 20
1.220020
  0
VERTEX
  8
PLAN_1
 62
     5
  6
CONTINUOUS
 10
-1.047906
 20
1.220020
  0
SEQEND
  8
0
  0
POLYLINE
  8
PLAN_1
 62
     5
  6
CONTINUOUS
 66
     1
 40
0.003000
 41
0.003000
  0
VERTEX
  8
PLAN_1
 62
     5
  6
CONTINUOUS
 10
-1.039748
 20
1.220020
  0
VERTEX
  8
PLAN_1
 62
     5
  6
CONTINUOUS
 10
-1.031587
 20
1.220020
  0
SEQEND
  8
0
  0
POLYLINE
  8
PLAN_1
 62
     5
  6
CONTINUOUS
 66
     1
 40
0.003000
 41
0.003000
  0
VERTEX
  8
PLAN_1
 62
     5
  6
CONTINUOUS
 10
-1.022972
 20
1.220020
  0
VERTEX
  8
PLAN_1
 62
     5
  6
CONTINUOUS
 10
-1.014811
 20
1.220020
  0
SEQEND
  8
0
  0
POLYLINE
  8
PLAN_1
 62
     5
  6
CONTINUOUS
 66
     1
 40
0.003000
 41
0.003000
  0
VERTEX
  8
PLAN_1
 62
     5
  6
CONTINUOUS
 10
-1.006654
 20
1.220020
  0
VERTEX
  8
PLAN_1
 62
     5
  6
CONTINUOUS
 10
-0.998039
 20
1.220020
  0
SEQEND
  8
0
  0
POLYLINE
  8
PLAN_1
 62
     5
  6
CONTINUOUS
 66
     1
 40
0.003000
 41
0.003000
  0
VERTEX
  8
PLAN_1
 62
     5
  6
CONTINUOUS
 10
-0.989878
 20
1.220020
  0
VERTEX
  8
PLAN_1
 62
     5
  6
CONTINUOUS
 10
-0.981264
 20
1.220020
  0
SEQEND
  8
0
  0
POLYLINE
  8
PLAN_1
 62
     5
  6
CONTINUOUS
 66
     1
 40
0.003000
 41
0.003000
  0
VERTEX
  8
PLAN_1
 62
     5
  6
CONTINUOUS
 10
-0.973106
 20
1.220020
  0
VERTEX
  8
PLAN_1
 62
     5
  6
CONTINUOUS
 10
-0.964945
 20
1.220020
  0
SEQEND
  8
0
  0
POLYLINE
  8
PLAN_1
 62
     5
  6
CONTINUOUS
 66
     1
 40
0.003000
 41
0.003000
  0
VERTEX
  8
PLAN_1
 62
     5
  6
CONTINUOUS
 10
-0.956331
 20
1.220020
  0
VERTEX
  8
PLAN_1
 62
     5
  6
CONTINUOUS
 10
-0.948169
 20
1.220020
  0
SEQEND
  8
0
  0
POLYLINE
  8
PLAN_1
 62
     5
  6
CONTINUOUS
 66
     1
 40
0.003000
 41
0.003000
  0
VERTEX
  8
PLAN_1
 62
     5
  6
CONTINUOUS
 10
-0.940012
 20
1.220020
  0
VERTEX
  8
PLAN_1
 62
     5
  6
CONTINUOUS
 10
-0.931398
 20
1.220020
  0
SEQEND
  8
0
  0
POLYLINE
  8
PLAN_1
 62
     5
  6
CONTINUOUS
 66
     1
 40
0.003000
 41
0.003000
  0
VERTEX
  8
PLAN_1
 62
     5
  6
CONTINUOUS
 10
-0.923236
 20
1.220020
  0
VERTEX
  8
PLAN_1
 62
     5
  6
CONTINUOUS
 10
-0.914622
 20
1.220020
  0
SEQEND
  8
0
  0
POLYLINE
  8
PLAN_1
 62
     5
  6
CONTINUOUS
 66
     1
 40
0.003000
 41
0.003000
  0
VERTEX
  8
PLAN_1
 62
     5
  6
CONTINUOUS
 10
-0.906465
 20
1.220020
  0
VERTEX
  8
PLAN_1
 62
     5
  6
CONTINUOUS
 10
-0.898303
 20
1.220020
  0
SEQEND
  8
0
  0
POLYLINE
  8
PLAN_1
 62
     5
  6
CONTINUOUS
 66
     1
 40
0.003000
 41
0.003000
  0
VERTEX
  8
PLAN_1
 62
     5
  6
CONTINUOUS
 10
-0.889689
 20
1.220020
  0
VERTEX
  8
PLAN_1
 62
     5
  6
CONTINUOUS
 10
-0.881528
 20
1.220020
  0
SEQEND
  8
0
  0
POLYLINE
  8
PLAN_1
 62
     5
  6
CONTINUOUS
 66
     1
 40
0.003000
 41
0.003000
  0
VERTEX
  8
PLAN_1
 62
     5
  6
CONTINUOUS
 10
-0.873370
 20
1.220020
  0
VERTEX
  8
PLAN_1
 62
     5
  6
CONTINUOUS
 10
-0.864756
 20
1.220020
  0
SEQEND
  8
0
  0
POLYLINE
  8
PLAN_1
 62
     5
  6
CONTINUOUS
 66
     1
 40
0.003000
 41
0.003000
  0
VERTEX
  8
PLAN_1
 62
     5
  6
CONTINUOUS
 10
-0.856594
 20
1.220020
  0
VERTEX
  8
PLAN_1
 62
     5
  6
CONTINUOUS
 10
-0.847980
 20
1.220020
  0
SEQEND
  8
0
  0
POLYLINE
  8
PLAN_1
 62
     5
  6
CONTINUOUS
 66
     1
 40
0.003000
 41
0.003000
  0
VERTEX
  8
PLAN_1
 62
     5
  6
CONTINUOUS
 10
-0.839823
 20
1.220020
  0
VERTEX
  8
PLAN_1
 62
     5
  6
CONTINUOUS
 10
-0.831661
 20
1.220020
  0
SEQEND
  8
0
  0
POLYLINE
  8
PLAN_1
 62
     5
  6
CONTINUOUS
 66
     1
 40
0.003000
 41
0.003000
  0
VERTEX
  8
PLAN_1
 62
     5
  6
CONTINUOUS
 10
-0.823047
 20
1.220020
  0
VERTEX
  8
PLAN_1
 62
     5
  6
CONTINUOUS
 10
-0.814886
 20
1.220020
  0
SEQEND
  8
0
  0
POLYLINE
  8
PLAN_1
 62
     5
  6
CONTINUOUS
 66
     1
 40
0.003000
 41
0.003000
  0
VERTEX
  8
PLAN_1
 62
     5
  6
CONTINUOUS
 10
-0.806728
 20
1.220020
  0
VERTEX
  8
PLAN_1
 62
     5
  6
CONTINUOUS
 10
-0.798114
 20
1.220020
  0
SEQEND
  8
0
  0
POLYLINE
  8
PLAN_1
 62
     5
  6
CONTINUOUS
 66
     1
 40
0.003000
 41
0.003000
  0
VERTEX
  8
PLAN_1
 62
     5
  6
CONTINUOUS
 10
-0.789953
 20
1.220020
  0
VERTEX
  8
PLAN_1
 62
     5
  6
CONTINUOUS
 10
-0.781795
 20
1.220020
  0
SEQEND
  8
0
  0
POLYLINE
  8
PLAN_1
 62
     5
  6
CONTINUOUS
 66
     1
 40
0.003000
 41
0.003000
  0
VERTEX
  8
PLAN_1
 62
     5
  6
CONTINUOUS
 10
-0.773181
 20
1.220020
  0
VERTEX
  8
PLAN_1
 62
     5
  6
CONTINUOUS
 10
-0.765020
 20
1.220020
  0
SEQEND
  8
0
  0
POLYLINE
  8
PLAN_1
 62
     5
  6
CONTINUOUS
 66
     1
 40
0.003000
 41
0.003000
  0
VERTEX
  8
PLAN_1
 62
     5
  6
CONTINUOUS
 10
-0.756406
 20
1.220020
  0
VERTEX
  8
PLAN_1
 62
     5
  6
CONTINUOUS
 10
-0.748244
 20
1.220020
  0
SEQEND
  8
0
  0
POLYLINE
  8
PLAN_1
 62
     5
  6
CONTINUOUS
 66
     1
 40
0.003000
 41
0.003000
  0
VERTEX
  8
PLAN_1
 62
     5
  6
CONTINUOUS
 10
-0.740087
 20
1.220020
  0
VERTEX
  8
PLAN_1
 62
     5
  6
CONTINUOUS
 10
-0.731472
 20
1.220020
  0
SEQEND
  8
0
  0
POLYLINE
  8
PLAN_1
 62
     5
  6
CONTINUOUS
 66
     1
 40
0.003000
 41
0.003000
  0
VERTEX
  8
PLAN_1
 62
     5
  6
CONTINUOUS
 10
-0.723311
 20
1.220020
  0
VERTEX
  8
PLAN_1
 62
     5
  6
CONTINUOUS
 10
-0.715154
 20
1.220020
  0
SEQEND
  8
0
  0
POLYLINE
  8
PLAN_1
 62
     5
  6
CONTINUOUS
 66
     1
 40
0.003000
 41
0.003000
  0
VERTEX
  8
PLAN_1
 62
     5
  6
CONTINUOUS
 10
-0.706539
 20
1.220020
  0
VERTEX
  8
PLAN_1
 62
     5
  6
CONTINUOUS
 10
-0.698378
 20
1.220020
  0
SEQEND
  8
0
  0
POLYLINE
  8
PLAN_1
 62
     5
  6
CONTINUOUS
 66
     1
 40
0.003000
 41
0.003000
  0
VERTEX
  8
PLAN_1
 62
     5
  6
CONTINUOUS
 10
-0.689764
 20
1.220020
  0
VERTEX
  8
PLAN_1
 62
     5
  6
CONTINUOUS
 10
-0.681602
 20
1.220020
  0
SEQEND
  8
0
  0
POLYLINE
  8
PLAN_1
 62
     5
  6
CONTINUOUS
 66
     1
 40
0.003000
 41
0.003000
  0
VERTEX
  8
PLAN_1
 62
     5
  6
CONTINUOUS
 10
-0.673445
 20
1.220020
  0
VERTEX
  8
PLAN_1
 62
     5
  6
CONTINUOUS
 10
-0.664831
 20
1.220020
  0
SEQEND
  8
0
  0
POLYLINE
  8
PLAN_1
 62
     5
  6
CONTINUOUS
 66
     1
 40
0.003000
 41
0.003000
  0
VERTEX
  8
PLAN_1
 62
     5
  6
CONTINUOUS
 10
-0.656669
 20
1.220020
  0
VERTEX
  8
PLAN_1
 62
     5
  6
CONTINUOUS
 10
-0.648512
 20
1.220020
  0
SEQEND
  8
0
  0
POLYLINE
  8
PLAN_1
 62
     5
  6
CONTINUOUS
 66
     1
 40
0.003000
 41
0.003000
  0
VERTEX
  8
PLAN_1
 62
     5
  6
CONTINUOUS
 10
-0.639898
 20
1.220020
  0
VERTEX
  8
PLAN_1
 62
     5
  6
CONTINUOUS
 10
-0.631736
 20
1.220020
  0
SEQEND
  8
0
  0
POLYLINE
  8
PLAN_1
 62
     5
  6
CONTINUOUS
 66
     1
 40
0.003000
 41
0.003000
  0
VERTEX
  8
PLAN_1
 62
     5
  6
CONTINUOUS
 10
-0.623122
 20
1.220020
  0
VERTEX
  8
PLAN_1
 62
     5
  6
CONTINUOUS
 10
-0.614961
 20
1.220020
  0
SEQEND
  8
0
  0
POLYLINE
  8
PLAN_1
 62
     5
  6
CONTINUOUS
 66
     1
 40
0.003000
 41
0.003000
  0
VERTEX
  8
PLAN_1
 62
     5
  6
CONTINUOUS
 10
-0.606803
 20
1.220020
  0
VERTEX
  8
PLAN_1
 62
     5
  6
CONTINUOUS
 10
-0.598189
 20
1.220020
  0
SEQEND
  8
0
  0
POLYLINE
  8
PLAN_1
 62
     5
  6
CONTINUOUS
 66
     1
 40
0.003000
 41
0.003000
  0
VERTEX
  8
PLAN_1
 62
     5
  6
CONTINUOUS
 10
-0.590028
 20
1.220020
  0
VERTEX
  8
PLAN_1
 62
     5
  6
CONTINUOUS
 10
-0.581870
 20
1.220020
  0
SEQEND
  8
0
  0
POLYLINE
  8
PLAN_1
 62
     5
  6
CONTINUOUS
 66
     1
 40
0.003000
 41
0.003000
  0
VERTEX
  8
PLAN_1
 62
     5
  6
CONTINUOUS
 10
-0.573256
 20
1.220020
  0
VERTEX
  8
PLAN_1
 62
     5
  6
CONTINUOUS
 10
-0.565094
 20
1.220020
  0
SEQEND
  8
0
  0
POLYLINE
  8
PLAN_1
 62
     5
  6
CONTINUOUS
 66
     1
 40
0.003000
 41
0.003000
  0
VERTEX
  8
PLAN_1
 62
     5
  6
CONTINUOUS
 10
-0.556480
 20
1.220020
  0
VERTEX
  8
PLAN_1
 62
     5
  6
CONTINUOUS
 10
-0.548319
 20
1.220020
  0
SEQEND
  8
0
  0
POLYLINE
  8
PLAN_1
 62
     5
  6
CONTINUOUS
 66
     1
 40
0.003000
 41
0.003000
  0
VERTEX
  8
PLAN_1
 62
     5
  6
CONTINUOUS
 10
-0.540161
 20
1.220020
  0
VERTEX
  8
PLAN_1
 62
     5
  6
CONTINUOUS
 10
-0.531547
 20
1.220020
  0
SEQEND
  8
0
  0
POLYLINE
  8
PLAN_1
 62
     5
  6
CONTINUOUS
 66
     1
 40
0.003000
 41
0.003000
  0
VERTEX
  8
PLAN_1
 62
     5
  6
CONTINUOUS
 10
-0.528827
 20
1.220020
  0
VERTEX
  8
PLAN_1
 62
     5
  6
CONTINUOUS
 10
-0.524748
 20
1.220020
  0
VERTEX
  8
PLAN_1
 62
     5
  6
CONTINUOUS
 10
-0.521118
 20
1.219563
  0
VERTEX
  8
PLAN_1
 62
     5
  6
CONTINUOUS
 10
-0.520213
 20
1.219110
  0
SEQEND
  8
0
  0
POLYLINE
  8
PLAN_1
 62
     5
  6
CONTINUOUS
 66
     1
 40
0.003000
 41
0.003000
  0
VERTEX
  8
PLAN_1
 62
     5
  6
CONTINUOUS
 10
-0.512508
 20
1.216390
  0
VERTEX
  8
PLAN_1
 62
     5
  6
CONTINUOUS
 10
-0.510240
 20
1.215484
  0
VERTEX
  8
PLAN_1
 62
     5
  6
CONTINUOUS
 10
-0.507067
 20
1.213673
  0
VERTEX
  8
PLAN_1
 62
     5
  6
CONTINUOUS
 10
-0.505252
 20
1.212311
  0
SEQEND
  8
0
  0
POLYLINE
  8
PLAN_1
 62
     5
  6
CONTINUOUS
 66
     1
 40
0.003000
 41
0.003000
  0
VERTEX
  8
PLAN_1
 62
     5
  6
CONTINUOUS
 10
-0.499358
 20
1.206870
  0
VERTEX
  8
PLAN_1
 62
     5
  6
CONTINUOUS
 10
-0.498906
 20
1.206417
  0
VERTEX
  8
PLAN_1
 62
     5
  6
CONTINUOUS
 10
-0.496638
 20
1.203244
  0
VERTEX
  8
PLAN_1
 62
     5
  6
CONTINUOUS
 10
-0.494374
 20
1.200071
  0
SEQEND
  8
0
  0
POLYLINE
  8
PLAN_1
 62
     5
  6
CONTINUOUS
 66
     1
 40
0.003000
 41
0.003000
  0
VERTEX
  8
PLAN_1
 62
     5
  6
CONTINUOUS
 10
-0.490744
 20
1.192362
  0
VERTEX
  8
PLAN_1
 62
     5
  6
CONTINUOUS
 10
-0.489839
 20
1.189646
  0
VERTEX
  8
PLAN_1
 62
     5
  6
CONTINUOUS
 10
-0.489386
 20
1.186016
  0
VERTEX
  8
PLAN_1
 62
     5
  6
CONTINUOUS
 10
-0.488933
 20
1.184205
  0
SEQEND
  8
0
  0
POLYLINE
  8
PLAN_1
 62
     5
  6
CONTINUOUS
 66
     1
 40
0.003000
 41
0.003000
  0
VERTEX
  8
PLAN_1
 62
     5
  6
CONTINUOUS
 10
-0.488480
 20
1.181937
  0
VERTEX
  8
PLAN_1
 62
     5
  6
CONTINUOUS
 10
-0.488480
 20
1.173776
  0
SEQEND
  8
0
  0
POLYLINE
  8
PLAN_1
 62
     5
  6
CONTINUOUS
 66
     1
 40
0.003000
 41
0.003000
  0
VERTEX
  8
PLAN_1
 62
     5
  6
CONTINUOUS
 10
-0.488480
 20
1.165161
  0
VERTEX
  8
PLAN_1
 62
     5
  6
CONTINUOUS
 10
-0.488480
 20
1.157004
  0
SEQEND
  8
0
  0
POLYLINE
  8
PLAN_1
 62
     5
  6
CONTINUOUS
 66
     1
 40
0.003000
 41
0.003000
  0
VERTEX
  8
PLAN_1
 62
     5
  6
CONTINUOUS
 10
-0.488480
 20
1.148390
  0
VERTEX
  8
PLAN_1
 62
     5
  6
CONTINUOUS
 10
-0.488480
 20
1.140228
  0
SEQEND
  8
0
  0
POLYLINE
  8
PLAN_1
 62
     5
  6
CONTINUOUS
 66
     1
 40
0.003000
 41
0.003000
  0
VERTEX
  8
PLAN_1
 62
     5
  6
CONTINUOUS
 10
-0.488480
 20
1.132071
  0
VERTEX
  8
PLAN_1
 62
     5
  6
CONTINUOUS
 10
-0.488480
 20
1.123457
  0
SEQEND
  8
0
  0
POLYLINE
  8
PLAN_1
 62
     5
  6
CONTINUOUS
 66
     1
 40
0.003000
 41
0.003000
  0
VERTEX
  8
PLAN_1
 62
     5
  6
CONTINUOUS
 10
-0.488480
 20
1.115295
  0
VERTEX
  8
PLAN_1
 62
     5
  6
CONTINUOUS
 10
-0.488480
 20
1.107134
  0
SEQEND
  8
0
  0
POLYLINE
  8
PLAN_1
 62
     5
  6
CONTINUOUS
 66
     1
 40
0.003000
 41
0.003000
  0
VERTEX
  8
PLAN_1
 62
     5
  6
CONTINUOUS
 10
-0.488480
 20
1.098524
  0
VERTEX
  8
PLAN_1
 62
     5
  6
CONTINUOUS
 10
-0.488480
 20
1.090362
  0
SEQEND
  8
0
  0
POLYLINE
  8
PLAN_1
 62
     5
  6
CONTINUOUS
 66
     1
 40
0.003000
 41
0.003000
  0
VERTEX
  8
PLAN_1
 62
     5
  6
CONTINUOUS
 10
-0.488480
 20
1.081748
  0
VERTEX
  8
PLAN_1
 62
     5
  6
CONTINUOUS
 10
-0.488480
 20
1.073587
  0
SEQEND
  8
0
  0
POLYLINE
  8
PLAN_1
 62
     5
  6
CONTINUOUS
 66
     1
 40
0.003000
 41
0.003000
  0
VERTEX
  8
PLAN_1
 62
     5
  6
CONTINUOUS
 10
-0.488480
 20
1.065429
  0
VERTEX
  8
PLAN_1
 62
     5
  6
CONTINUOUS
 10
-0.488480
 20
1.056815
  0
SEQEND
  8
0
  0
POLYLINE
  8
PLAN_1
 62
     5
  6
CONTINUOUS
 66
     1
 40
0.003000
 41
0.003000
  0
VERTEX
  8
PLAN_1
 62
     5
  6
CONTINUOUS
 10
-0.488480
 20
1.048654
  0
VERTEX
  8
PLAN_1
 62
     5
  6
CONTINUOUS
 10
-0.488480
 20
1.040492
  0
SEQEND
  8
0
  0
POLYLINE
  8
PLAN_1
 62
     5
  6
CONTINUOUS
 66
     1
 40
0.003000
 41
0.003000
  0
VERTEX
  8
PLAN_1
 62
     5
  6
CONTINUOUS
 10
-0.488480
 20
1.031882
  0
VERTEX
  8
PLAN_1
 62
     5
  6
CONTINUOUS
 10
-0.488480
 20
1.023720
  0
SEQEND
  8
0
  0
POLYLINE
  8
PLAN_1
 62
     5
  6
CONTINUOUS
 66
     1
 40
0.003000
 41
0.003000
  0
VERTEX
  8
PLAN_1
 62
     5
  6
CONTINUOUS
 10
-0.488480
 20
1.015106
  0
VERTEX
  8
PLAN_1
 62
     5
  6
CONTINUOUS
 10
-0.488480
 20
1.006945
  0
SEQEND
  8
0
  0
POLYLINE
  8
PLAN_1
 62
     5
  6
CONTINUOUS
 66
     1
 40
0.003000
 41
0.003000
  0
VERTEX
  8
PLAN_1
 62
     5
  6
CONTINUOUS
 10
-0.488480
 20
0.998787
  0
VERTEX
  8
PLAN_1
 62
     5
  6
CONTINUOUS
 10
-0.488480
 20
0.990173
  0
SEQEND
  8
0
  0
POLYLINE
  8
PLAN_1
 62
     5
  6
CONTINUOUS
 66
     1
 40
0.003000
 41
0.003000
  0
VERTEX
  8
PLAN_1
 62
     5
  6
CONTINUOUS
 10
-0.488480
 20
0.982012
  0
VERTEX
  8
PLAN_1
 62
     5
  6
CONTINUOUS
 10
-0.488480
 20
0.973850
  0
SEQEND
  8
0
  0
POLYLINE
  8
PLAN_1
 62
     5
  6
CONTINUOUS
 66
     1
 40
0.003000
 41
0.003000
  0
VERTEX
  8
PLAN_1
 62
     5
  6
CONTINUOUS
 10
-0.488480
 20
0.965240
  0
VERTEX
  8
PLAN_1
 62
     5
  6
CONTINUOUS
 10
-0.488480
 20
0.957079
  0
SEQEND
  8
0
  0
POLYLINE
  8
PLAN_1
 62
     5
  6
CONTINUOUS
 66
     1
 40
0.003000
 41
0.003000
  0
VERTEX
  8
PLAN_1
 62
     5
  6
CONTINUOUS
 10
-0.488480
 20
0.948917
  0
VERTEX
  8
PLAN_1
 62
     5
  6
CONTINUOUS
 10
-0.488480
 20
0.940303
  0
SEQEND
  8
0
  0
POLYLINE
  8
PLAN_1
 62
     5
  6
CONTINUOUS
 66
     1
 40
0.003000
 41
0.003000
  0
VERTEX
  8
PLAN_1
 62
     5
  6
CONTINUOUS
 10
-0.488480
 20
0.932146
  0
VERTEX
  8
PLAN_1
 62
     5
  6
CONTINUOUS
 10
-0.488480
 20
0.923531
  0
SEQEND
  8
0
  0
POLYLINE
  8
PLAN_1
 62
     5
  6
CONTINUOUS
 66
     1
 40
0.003000
 41
0.003000
  0
VERTEX
  8
PLAN_1
 62
     5
  6
CONTINUOUS
 10
-0.488480
 20
0.915370
  0
VERTEX
  8
PLAN_1
 62
     5
  6
CONTINUOUS
 10
-0.488480
 20
0.907209
  0
SEQEND
  8
0
  0
POLYLINE
  8
PLAN_1
 62
     5
  6
CONTINUOUS
 66
     1
 40
0.003000
 41
0.003000
  0
VERTEX
  8
PLAN_1
 62
     5
  6
CONTINUOUS
 10
-0.488480
 20
0.898598
  0
VERTEX
  8
PLAN_1
 62
     5
  6
CONTINUOUS
 10
-0.488480
 20
0.890437
  0
SEQEND
  8
0
  0
POLYLINE
  8
PLAN_1
 62
     5
  6
CONTINUOUS
 66
     1
 40
0.003000
 41
0.003000
  0
VERTEX
  8
PLAN_1
 62
     5
  6
CONTINUOUS
 10
-0.488480
 20
0.882276
  0
VERTEX
  8
PLAN_1
 62
     5
  6
CONTINUOUS
 10
-0.488480
 20
0.873661
  0
SEQEND
  8
0
  0
POLYLINE
  8
PLAN_1
 62
     5
  6
CONTINUOUS
 66
     1
 40
0.003000
 41
0.003000
  0
VERTEX
  8
PLAN_1
 62
     5
  6
CONTINUOUS
 10
-0.488480
 20
0.865504
  0
VERTEX
  8
PLAN_1
 62
     5
  6
CONTINUOUS
 10
-0.488480
 20
0.856890
  0
SEQEND
  8
0
  0
POLYLINE
  8
PLAN_1
 62
     5
  6
CONTINUOUS
 66
     1
 40
0.003000
 41
0.003000
  0
VERTEX
  8
PLAN_1
 62
     5
  6
CONTINUOUS
 10
-0.488480
 20
0.848728
  0
VERTEX
  8
PLAN_1
 62
     5
  6
CONTINUOUS
 10
-0.488480
 20
0.840567
  0
SEQEND
  8
0
  0
POLYLINE
  8
PLAN_1
 62
     5
  6
CONTINUOUS
 66
     1
 40
0.003000
 41
0.003000
  0
VERTEX
  8
PLAN_1
 62
     5
  6
CONTINUOUS
 10
-0.488480
 20
0.831957
  0
VERTEX
  8
PLAN_1
 62
     5
  6
CONTINUOUS
 10
-0.488480
 20
0.823795
  0
SEQEND
  8
0
  0
POLYLINE
  8
PLAN_1
 62
     5
  6
CONTINUOUS
 66
     1
 40
0.003000
 41
0.003000
  0
VERTEX
  8
PLAN_1
 62
     5
  6
CONTINUOUS
 10
-0.488480
 20
0.815634
  0
VERTEX
  8
PLAN_1
 62
     5
  6
CONTINUOUS
 10
-0.488480
 20
0.807020
  0
SEQEND
  8
0
  0
POLYLINE
  8
PLAN_1
 62
     5
  6
CONTINUOUS
 66
     1
 40
0.003000
 41
0.003000
  0
VERTEX
  8
PLAN_1
 62
     5
  6
CONTINUOUS
 10
-0.488480
 20
0.798862
  0
VERTEX
  8
PLAN_1
 62
     5
  6
CONTINUOUS
 10
-0.488480
 20
0.790248
  0
SEQEND
  8
0
  0
POLYLINE
  8
PLAN_1
 62
     5
  6
CONTINUOUS
 66
     1
 40
0.003000
 41
0.003000
  0
VERTEX
  8
PLAN_1
 62
     5
  6
CONTINUOUS
 10
-0.488480
 20
0.782087
  0
VERTEX
  8
PLAN_1
 62
     5
  6
CONTINUOUS
 10
-0.488480
 20
0.773925
  0
SEQEND
  8
0
  0
POLYLINE
  8
PLAN_1
 62
     5
  6
CONTINUOUS
 66
     1
 40
0.003000
 41
0.003000
  0
VERTEX
  8
PLAN_1
 62
     5
  6
CONTINUOUS
 10
-0.488480
 20
0.765315
  0
VERTEX
  8
PLAN_1
 62
     5
  6
CONTINUOUS
 10
-0.488480
 20
0.757154
  0
SEQEND
  8
0
  0
POLYLINE
  8
PLAN_1
 62
     5
  6
CONTINUOUS
 66
     1
 40
0.003000
 41
0.003000
  0
VERTEX
  8
PLAN_1
 62
     5
  6
CONTINUOUS
 10
-0.488480
 20
0.748992
  0
VERTEX
  8
PLAN_1
 62
     5
  6
CONTINUOUS
 10
-0.488480
 20
0.740378
  0
SEQEND
  8
0
  0
POLYLINE
  8
PLAN_1
 62
     5
  6
CONTINUOUS
 66
     1
 40
0.003000
 41
0.003000
  0
VERTEX
  8
PLAN_1
 62
     5
  6
CONTINUOUS
 10
-0.488480
 20
0.732220
  0
VERTEX
  8
PLAN_1
 62
     5
  6
CONTINUOUS
 10
-0.488480
 20
0.723606
  0
SEQEND
  8
0
  0
POLYLINE
  8
PLAN_1
 62
     5
  6
CONTINUOUS
 66
     1
 40
0.003000
 41
0.003000
  0
VERTEX
  8
PLAN_1
 62
     5
  6
CONTINUOUS
 10
-0.488480
 20
0.715445
  0
VERTEX
  8
PLAN_1
 62
     5
  6
CONTINUOUS
 10
-0.488480
 20
0.707283
  0
SEQEND
  8
0
  0
POLYLINE
  8
PLAN_1
 62
     5
  6
CONTINUOUS
 66
     1
 40
0.003000
 41
0.003000
  0
VERTEX
  8
PLAN_1
 62
     5
  6
CONTINUOUS
 10
-0.488480
 20
0.698673
  0
VERTEX
  8
PLAN_1
 62
     5
  6
CONTINUOUS
 10
-0.488480
 20
0.690512
  0
SEQEND
  8
0
  0
POLYLINE
  8
PLAN_1
 62
     5
  6
CONTINUOUS
 66
     1
 40
0.003000
 41
0.003000
  0
VERTEX
  8
PLAN_1
 62
     5
  6
CONTINUOUS
 10
-0.488480
 20
0.682350
  0
VERTEX
  8
PLAN_1
 62
     5
  6
CONTINUOUS
 10
-0.488480
 20
0.673736
  0
SEQEND
  8
0
  0
POLYLINE
  8
PLAN_1
 62
     5
  6
CONTINUOUS
 66
     1
 40
0.003000
 41
0.003000
  0
VERTEX
  8
PLAN_1
 62
     5
  6
CONTINUOUS
 10
-0.488480
 20
0.665579
  0
VERTEX
  8
PLAN_1
 62
     5
  6
CONTINUOUS
 10
-0.488480
 20
0.657417
  0
SEQEND
  8
0
  0
POLYLINE
  8
PLAN_1
 62
     5
  6
CONTINUOUS
 66
     1
 40
0.003000
 41
0.003000
  0
VERTEX
  8
PLAN_1
 62
     5
  6
CONTINUOUS
 10
-0.488480
 20
0.648803
  0
VERTEX
  8
PLAN_1
 62
     5
  6
CONTINUOUS
 10
-0.488480
 20
0.640642
  0
SEQEND
  8
0
  0
POLYLINE
  8
PLAN_1
 62
     5
  6
CONTINUOUS
 66
     1
 40
0.003000
 41
0.003000
  0
VERTEX
  8
PLAN_1
 62
     5
  6
CONTINUOUS
 10
-0.488480
 20
0.632031
  0
VERTEX
  8
PLAN_1
 62
     5
  6
CONTINUOUS
 10
-0.488480
 20
0.623870
  0
SEQEND
  8
0
  0
POLYLINE
  8
PLAN_1
 62
     5
  6
CONTINUOUS
 66
     1
 40
0.003000
 41
0.003000
  0
VERTEX
  8
PLAN_1
 62
     5
  6
CONTINUOUS
 10
-0.488480
 20
0.615709
  0
VERTEX
  8
PLAN_1
 62
     5
  6
CONTINUOUS
 10
-0.488480
 20
0.607094
  0
SEQEND
  8
0
  0
POLYLINE
  8
PLAN_1
 62
     5
  6
CONTINUOUS
 66
     1
 40
0.003000
 41
0.003000
  0
VERTEX
  8
PLAN_1
 62
     5
  6
CONTINUOUS
 10
-0.488480
 20
0.598937
  0
VERTEX
  8
PLAN_1
 62
     5
  6
CONTINUOUS
 10
-0.488480
 20
0.590776
  0
SEQEND
  8
0
  0
POLYLINE
  8
PLAN_1
 62
     5
  6
CONTINUOUS
 66
     1
 40
0.003000
 41
0.003000
  0
VERTEX
  8
PLAN_1
 62
     5
  6
CONTINUOUS
 10
-0.488480
 20
0.582161
  0
VERTEX
  8
PLAN_1
 62
     5
  6
CONTINUOUS
 10
-0.488480
 20
0.574000
  0
SEQEND
  8
0
  0
POLYLINE
  8
PLAN_1
 62
     5
  6
CONTINUOUS
 66
     1
 40
0.003000
 41
0.003000
  0
VERTEX
  8
PLAN_1
 62
     5
  6
CONTINUOUS
 10
-0.488480
 20
0.565390
  0
VERTEX
  8
PLAN_1
 62
     5
  6
CONTINUOUS
 10
-0.488480
 20
0.557228
  0
SEQEND
  8
0
  0
POLYLINE
  8
PLAN_1
 62
     5
  6
CONTINUOUS
 66
     1
 40
0.003000
 41
0.003000
  0
VERTEX
  8
PLAN_1
 62
     5
  6
CONTINUOUS
 10
-0.488480
 20
0.549067
  0
VERTEX
  8
PLAN_1
 62
     5
  6
CONTINUOUS
 10
-0.488480
 20
0.540453
  0
SEQEND
  8
0
  0
POLYLINE
  8
PLAN_1
 62
     5
  6
CONTINUOUS
 66
     1
 40
0.003000
 41
0.003000
  0
VERTEX
  8
PLAN_1
 62
     5
  6
CONTINUOUS
 10
-0.488480
 20
0.532295
  0
VERTEX
  8
PLAN_1
 62
     5
  6
CONTINUOUS
 10
-0.488480
 20
0.524134
  0
SEQEND
  8
0
  0
POLYLINE
  8
PLAN_1
 62
     5
  6
CONTINUOUS
 66
     1
 40
0.003000
 41
0.003000
  0
VERTEX
  8
PLAN_1
 62
     5
  6
CONTINUOUS
 10
-0.488480
 20
0.515520
  0
VERTEX
  8
PLAN_1
 62
     5
  6
CONTINUOUS
 10
-0.488480
 20
0.507358
  0
SEQEND
  8
0
  0
POLYLINE
  8
PLAN_1
 62
     5
  6
CONTINUOUS
 66
     1
 40
0.003000
 41
0.003000
  0
VERTEX
  8
PLAN_1
 62
     5
  6
CONTINUOUS
 10
-0.488480
 20
0.498748
  0
VERTEX
  8
PLAN_1
 62
     5
  6
CONTINUOUS
 10
-0.488480
 20
0.490587
  0
SEQEND
  8
0
  0
POLYLINE
  8
PLAN_1
 62
     5
  6
CONTINUOUS
 66
     1
 40
0.003000
 41
0.003000
  0
VERTEX
  8
PLAN_1
 62
     5
  6
CONTINUOUS
 10
-0.488480
 20
0.482425
  0
VERTEX
  8
PLAN_1
 62
     5
  6
CONTINUOUS
 10
-0.488480
 20
0.473811
  0
SEQEND
  8
0
  0
POLYLINE
  8
PLAN_1
 62
     5
  6
CONTINUOUS
 66
     1
 40
0.003000
 41
0.003000
  0
VERTEX
  8
PLAN_1
 62
     5
  6
CONTINUOUS
 10
-0.805819
 20
0.955717
  0
VERTEX
  8
PLAN_1
 62
     5
  6
CONTINUOUS
 10
-0.797209
 20
0.955717
  0
SEQEND
  8
0
  0
POLYLINE
  8
PLAN_1
 62
     5
  6
CONTINUOUS
 66
     1
 40
0.003000
 41
0.003000
  0
VERTEX
  8
PLAN_1
 62
     5
  6
CONTINUOUS
 10
-0.789047
 20
0.955717
  0
VERTEX
  8
PLAN_1
 62
     5
  6
CONTINUOUS
 10
-0.780886
 20
0.955717
  0
SEQEND
  8
0
  0
POLYLINE
  8
PLAN_1
 62
     5
  6
CONTINUOUS
 66
     1
 40
0.003000
 41
0.003000
  0
VERTEX
  8
PLAN_1
 62
     5
  6
CONTINUOUS
 10
-0.772272
 20
0.955717
  0
VERTEX
  8
PLAN_1
 62
     5
  6
CONTINUOUS
 10
-0.764114
 20
0.955717
  0
SEQEND
  8
0
  0
POLYLINE
  8
PLAN_1
 62
     5
  6
CONTINUOUS
 66
     1
 40
0.003000
 41
0.003000
  0
VERTEX
  8
PLAN_1
 62
     5
  6
CONTINUOUS
 10
-0.755500
 20
0.955717
  0
VERTEX
  8
PLAN_1
 62
     5
  6
CONTINUOUS
 10
-0.747339
 20
0.955717
  0
SEQEND
  8
0
  0
POLYLINE
  8
PLAN_1
 62
     5
  6
CONTINUOUS
 66
     1
 40
0.003000
 41
0.003000
  0
VERTEX
  8
PLAN_1
 62
     5
  6
CONTINUOUS
 10
-0.739177
 20
0.955717
  0
VERTEX
  8
PLAN_1
 62
     5
  6
CONTINUOUS
 10
-0.730567
 20
0.955717
  0
SEQEND
  8
0
  0
POLYLINE
  8
PLAN_1
 62
     5
  6
CONTINUOUS
 66
     1
 40
0.003000
 41
0.003000
  0
VERTEX
  8
PLAN_1
 62
     5
  6
CONTINUOUS
 10
-0.722406
 20
0.955717
  0
VERTEX
  8
PLAN_1
 62
     5
  6
CONTINUOUS
 10
-0.714244
 20
0.955717
  0
SEQEND
  8
0
  0
POLYLINE
  8
PLAN_1
 62
     5
  6
CONTINUOUS
 66
     1
 40
0.003000
 41
0.003000
  0
VERTEX
  8
PLAN_1
 62
     5
  6
CONTINUOUS
 10
-0.705630
 20
0.955717
  0
VERTEX
  8
PLAN_1
 62
     5
  6
CONTINUOUS
 10
-0.697472
 20
0.955717
  0
SEQEND
  8
0
  0
POLYLINE
  8
PLAN_1
 62
     5
  6
CONTINUOUS
 66
     1
 40
0.003000
 41
0.003000
  0
VERTEX
  8
PLAN_1
 62
     5
  6
CONTINUOUS
 10
-0.688858
 20
0.955717
  0
VERTEX
  8
PLAN_1
 62
     5
  6
CONTINUOUS
 10
-0.680697
 20
0.955717
  0
SEQEND
  8
0
  0
POLYLINE
  8
PLAN_1
 62
     5
  6
CONTINUOUS
 66
     1
 40
0.003000
 41
0.003000
  0
VERTEX
  8
PLAN_1
 62
     5
  6
CONTINUOUS
 10
-0.672535
 20
0.955717
  0
VERTEX
  8
PLAN_1
 62
     5
  6
CONTINUOUS
 10
-0.663925
 20
0.955717
  0
SEQEND
  8
0
  0
POLYLINE
  8
PLAN_1
 62
     5
  6
CONTINUOUS
 66
     1
 40
0.003000
 41
0.003000
  0
VERTEX
  8
PLAN_1
 62
     5
  6
CONTINUOUS
 10
-0.655764
 20
0.955717
  0
VERTEX
  8
PLAN_1
 62
     5
  6
CONTINUOUS
 10
-0.647602
 20
0.955717
  0
SEQEND
  8
0
  0
POLYLINE
  8
PLAN_1
 62
     5
  6
CONTINUOUS
 66
     1
 40
0.003000
 41
0.003000
  0
VERTEX
  8
PLAN_1
 62
     5
  6
CONTINUOUS
 10
-0.638988
 20
0.955717
  0
VERTEX
  8
PLAN_1
 62
     5
  6
CONTINUOUS
 10
-0.630831
 20
0.955717
  0
SEQEND
  8
0
  0
POLYLINE
  8
PLAN_1
 62
     5
  6
CONTINUOUS
 66
     1
 40
0.003000
 41
0.003000
  0
VERTEX
  8
PLAN_1
 62
     5
  6
CONTINUOUS
 10
-0.622217
 20
0.955717
  0
VERTEX
  8
PLAN_1
 62
     5
  6
CONTINUOUS
 10
-0.614055
 20
0.955717
  0
SEQEND
  8
0
  0
POLYLINE
  8
PLAN_1
 62
     5
  6
CONTINUOUS
 66
     1
 40
0.003000
 41
0.003000
  0
VERTEX
  8
PLAN_1
 62
     5
  6
CONTINUOUS
 10
-0.605894
 20
0.955717
  0
VERTEX
  8
PLAN_1
 62
     5
  6
CONTINUOUS
 10
-0.597283
 20
0.955717
  0
SEQEND
  8
0
  0
POLYLINE
  8
PLAN_1
 62
     5
  6
CONTINUOUS
 66
     1
 40
0.003000
 41
0.003000
  0
VERTEX
  8
PLAN_1
 62
     5
  6
CONTINUOUS
 10
-0.589122
 20
0.955717
  0
VERTEX
  8
PLAN_1
 62
     5
  6
CONTINUOUS
 10
-0.580961
 20
0.955717
  0
SEQEND
  8
0
  0
POLYLINE
  8
PLAN_1
 62
     5
  6
CONTINUOUS
 66
     1
 40
0.003000
 41
0.003000
  0
VERTEX
  8
PLAN_1
 62
     5
  6
CONTINUOUS
 10
-0.572346
 20
0.955717
  0
VERTEX
  8
PLAN_1
 62
     5
  6
CONTINUOUS
 10
-0.564189
 20
0.955717
  0
SEQEND
  8
0
  0
POLYLINE
  8
PLAN_1
 62
     5
  6
CONTINUOUS
 66
     1
 40
0.003000
 41
0.003000
  0
VERTEX
  8
PLAN_1
 62
     5
  6
CONTINUOUS
 10
-0.556028
 20
0.955717
  0
VERTEX
  8
PLAN_1
 62
     5
  6
CONTINUOUS
 10
-0.547413
 20
0.955717
  0
SEQEND
  8
0
  0
POLYLINE
  8
PLAN_1
 62
     5
  6
CONTINUOUS
 66
     1
 40
0.003000
 41
0.003000
  0
VERTEX
  8
PLAN_1
 62
     5
  6
CONTINUOUS
 10
-0.539252
 20
0.955717
  0
VERTEX
  8
PLAN_1
 62
     5
  6
CONTINUOUS
 10
-0.530642
 20
0.955717
  0
SEQEND
  8
0
  0
POLYLINE
  8
PLAN_1
 62
     5
  6
CONTINUOUS
 66
     1
 40
0.003000
 41
0.003000
  0
VERTEX
  8
PLAN_1
 62
     5
  6
CONTINUOUS
 10
-0.522480
 20
0.955717
  0
VERTEX
  8
PLAN_1
 62
     5
  6
CONTINUOUS
 10
-0.514319
 20
0.955717
  0
SEQEND
  8
0
  0
POLYLINE
  8
PLAN_1
 62
     5
  6
CONTINUOUS
 66
     1
 40
0.003000
 41
0.003000
  0
VERTEX
  8
PLAN_1
 62
     5
  6
CONTINUOUS
 10
-0.505705
 20
0.955717
  0
VERTEX
  8
PLAN_1
 62
     5
  6
CONTINUOUS
 10
-0.497547
 20
0.955717
  0
SEQEND
  8
0
  0
POLYLINE
  8
PLAN_1
 62
     5
  6
CONTINUOUS
 66
     1
 40
0.003000
 41
0.003000
  0
VERTEX
  8
PLAN_1
 62
     5
  6
CONTINUOUS
 10
-0.672083
 20
0.827874
  0
VERTEX
  8
PLAN_1
 62
     5
  6
CONTINUOUS
 10
-0.672083
 20
0.836488
  0
SEQEND
  8
0
  0
POLYLINE
  8
PLAN_1
 62
     5
  6
CONTINUOUS
 66
     1
 40
0.003000
 41
0.003000
  0
VERTEX
  8
PLAN_1
 62
     5
  6
CONTINUOUS
 10
-0.672083
 20
0.844650
  0
VERTEX
  8
PLAN_1
 62
     5
  6
CONTINUOUS
 10
-0.672083
 20
0.853264
  0
SEQEND
  8
0
  0
POLYLINE
  8
PLAN_1
 62
     5
  6
CONTINUOUS
 66
     1
 40
0.003000
 41
0.003000
  0
VERTEX
  8
PLAN_1
 62
     5
  6
CONTINUOUS
 10
-0.672083
 20
0.861421
  0
VERTEX
  8
PLAN_1
 62
     5
  6
CONTINUOUS
 10
-0.672083
 20
0.869583
  0
SEQEND
  8
0
  0
POLYLINE
  8
PLAN_1
 62
     5
  6
CONTINUOUS
 66
     1
 40
0.003000
 41
0.003000
  0
VERTEX
  8
PLAN_1
 62
     5
  6
CONTINUOUS
 10
-0.672083
 20
0.878197
  0
VERTEX
  8
PLAN_1
 62
     5
  6
CONTINUOUS
 10
-0.672083
 20
0.886354
  0
SEQEND
  8
0
  0
POLYLINE
  8
PLAN_1
 62
     5
  6
CONTINUOUS
 66
     1
 40
0.003000
 41
0.003000
  0
VERTEX
  8
PLAN_1
 62
     5
  6
CONTINUOUS
 10
-0.672083
 20
0.894516
  0
VERTEX
  8
PLAN_1
 62
     5
  6
CONTINUOUS
 10
-0.672083
 20
0.903130
  0
SEQEND
  8
0
  0
POLYLINE
  8
PLAN_1
 62
     5
  6
CONTINUOUS
 66
     1
 40
0.003000
 41
0.003000
  0
VERTEX
  8
PLAN_1
 62
     5
  6
CONTINUOUS
 10
-0.672083
 20
0.911291
  0
VERTEX
  8
PLAN_1
 62
     5
  6
CONTINUOUS
 10
-0.672083
 20
0.919906
  0
SEQEND
  8
0
  0
POLYLINE
  8
PLAN_1
 62
     5
  6
CONTINUOUS
 66
     1
 40
0.003000
 41
0.003000
  0
VERTEX
  8
PLAN_1
 62
     5
  6
CONTINUOUS
 10
-0.672083
 20
0.928063
  0
VERTEX
  8
PLAN_1
 62
     5
  6
CONTINUOUS
 10
-0.672083
 20
0.936224
  0
SEQEND
  8
0
  0
POLYLINE
  8
PLAN_1
 62
     5
  6
CONTINUOUS
 66
     1
 40
0.003000
 41
0.003000
  0
VERTEX
  8
PLAN_1
 62
     5
  6
CONTINUOUS
 10
-0.672083
 20
0.944839
  0
VERTEX
  8
PLAN_1
 62
     5
  6
CONTINUOUS
 10
-0.672083
 20
0.952996
  0
SEQEND
  8
0
  0
POLYLINE
  8
PLAN_1
 62
     5
  6
CONTINUOUS
 66
     1
 40
0.003000
 41
0.003000
  0
VERTEX
  8
PLAN_1
 62
     5
  6
CONTINUOUS
 10
-0.672083
 20
0.961157
  0
VERTEX
  8
PLAN_1
 62
     5
  6
CONTINUOUS
 10
-0.672083
 20
0.969772
  0
SEQEND
  8
0
  0
POLYLINE
  8
PLAN_1
 62
     5
  6
CONTINUOUS
 66
     1
 40
0.003000
 41
0.003000
  0
VERTEX
  8
PLAN_1
 62
     5
  6
CONTINUOUS
 10
-0.672083
 20
0.977933
  0
VERTEX
  8
PLAN_1
 62
     5
  6
CONTINUOUS
 10
-0.672083
 20
0.986547
  0
SEQEND
  8
0
  0
POLYLINE
  8
PLAN_1
 62
     5
  6
CONTINUOUS
 66
     1
 40
0.003000
 41
0.003000
  0
VERTEX
  8
PLAN_1
 62
     5
  6
CONTINUOUS
 10
-0.672083
 20
0.994705
  0
VERTEX
  8
PLAN_1
 62
     5
  6
CONTINUOUS
 10
-0.672083
 20
1.002866
  0
SEQEND
  8
0
  0
POLYLINE
  8
PLAN_1
 62
     5
  6
CONTINUOUS
 66
     1
 40
0.003000
 41
0.003000
  0
VERTEX
  8
PLAN_1
 62
     5
  6
CONTINUOUS
 10
-0.672083
 20
1.011480
  0
VERTEX
  8
PLAN_1
 62
     5
  6
CONTINUOUS
 10
-0.672083
 20
1.019638
  0
SEQEND
  8
0
  0
POLYLINE
  8
PLAN_1
 62
     5
  6
CONTINUOUS
 66
     1
 40
0.003000
 41
0.003000
  0
VERTEX
  8
PLAN_1
 62
     5
  6
CONTINUOUS
 10
-0.672083
 20
1.027799
  0
VERTEX
  8
PLAN_1
 62
     5
  6
CONTINUOUS
 10
-0.672083
 20
1.036413
  0
SEQEND
  8
0
  0
POLYLINE
  8
PLAN_1
 62
     5
  6
CONTINUOUS
 66
     1
 40
0.003000
 41
0.003000
  0
VERTEX
  8
PLAN_1
 62
     5
  6
CONTINUOUS
 10
-0.672083
 20
1.044575
  0
VERTEX
  8
PLAN_1
 62
     5
  6
CONTINUOUS
 10
-0.672083
 20
1.053189
  0
SEQEND
  8
0
  0
POLYLINE
  8
PLAN_1
 62
     5
  6
CONTINUOUS
 66
     1
 40
0.003000
 41
0.003000
  0
VERTEX
  8
PLAN_1
 62
     5
  6
CONTINUOUS
 10
-0.672083
 20
1.061346
  0
VERTEX
  8
PLAN_1
 62
     5
  6
CONTINUOUS
 10
-0.672083
 20
1.069508
  0
SEQEND
  8
0
  0
POLYLINE
  8
PLAN_1
 62
     5
  6
CONTINUOUS
 66
     1
 40
0.003000
 41
0.003000
  0
VERTEX
  8
PLAN_1
 62
     5
  6
CONTINUOUS
 10
-0.672083
 20
1.078122
  0
VERTEX
  8
PLAN_1
 62
     5
  6
CONTINUOUS
 10
-0.672083
 20
1.086280
  0
SEQEND
  8
0
  0
POLYLINE
  8
PLAN_1
 62
     5
  6
CONTINUOUS
 66
     1
 40
0.003000
 41
0.003000
  0
VERTEX
  8
PLAN_1
 62
     5
  6
CONTINUOUS
 10
-2.033480
 20
0.955717
  0
VERTEX
  8
PLAN_1
 62
     5
  6
CONTINUOUS
 10
-2.024866
 20
0.955717
  0
SEQEND
  8
0
  0
POLYLINE
  8
PLAN_1
 62
     5
  6
CONTINUOUS
 66
     1
 40
0.003000
 41
0.003000
  0
VERTEX
  8
PLAN_1
 62
     5
  6
CONTINUOUS
 10
-2.016705
 20
0.955717
  0
VERTEX
  8
PLAN_1
 62
     5
  6
CONTINUOUS
 10
-2.008091
 20
0.955717
  0
SEQEND
  8
0
  0
POLYLINE
  8
PLAN_1
 62
     5
  6
CONTINUOUS
 66
     1
 40
0.003000
 41
0.003000
  0
VERTEX
  8
PLAN_1
 62
     5
  6
CONTINUOUS
 10
-1.999933
 20
0.955717
  0
VERTEX
  8
PLAN_1
 62
     5
  6
CONTINUOUS
 10
-1.991772
 20
0.955717
  0
SEQEND
  8
0
  0
POLYLINE
  8
PLAN_1
 62
     5
  6
CONTINUOUS
 66
     1
 40
0.003000
 41
0.003000
  0
VERTEX
  8
PLAN_1
 62
     5
  6
CONTINUOUS
 10
-1.983157
 20
0.955717
  0
VERTEX
  8
PLAN_1
 62
     5
  6
CONTINUOUS
 10
-1.974996
 20
0.955717
  0
SEQEND
  8
0
  0
POLYLINE
  8
PLAN_1
 62
     5
  6
CONTINUOUS
 66
     1
 40
0.003000
 41
0.003000
  0
VERTEX
  8
PLAN_1
 62
     5
  6
CONTINUOUS
 10
-1.966839
 20
0.955717
  0
VERTEX
  8
PLAN_1
 62
     5
  6
CONTINUOUS
 10
-1.958224
 20
0.955717
  0
SEQEND
  8
0
  0
POLYLINE
  8
PLAN_1
 62
     5
  6
CONTINUOUS
 66
     1
 40
0.003000
 41
0.003000
  0
VERTEX
  8
PLAN_1
 62
     5
  6
CONTINUOUS
 10
-1.950063
 20
0.955717
  0
VERTEX
  8
PLAN_1
 62
     5
  6
CONTINUOUS
 10
-1.941902
 20
0.955717
  0
SEQEND
  8
0
  0
POLYLINE
  8
PLAN_1
 62
     5
  6
CONTINUOUS
 66
     1
 40
0.003000
 41
0.003000
  0
VERTEX
  8
PLAN_1
 62
     5
  6
CONTINUOUS
 10
-1.933291
 20
0.955717
  0
VERTEX
  8
PLAN_1
 62
     5
  6
CONTINUOUS
 10
-1.925130
 20
0.955717
  0
SEQEND
  8
0
  0
POLYLINE
  8
PLAN_1
 62
     5
  6
CONTINUOUS
 66
     1
 40
0.003000
 41
0.003000
  0
VERTEX
  8
PLAN_1
 62
     5
  6
CONTINUOUS
 10
-1.916516
 20
0.955717
  0
VERTEX
  8
PLAN_1
 62
     5
  6
CONTINUOUS
 10
-1.908354
 20
0.955717
  0
SEQEND
  8
0
  0
POLYLINE
  8
PLAN_1
 62
     5
  6
CONTINUOUS
 66
     1
 40
0.003000
 41
0.003000
  0
VERTEX
  8
PLAN_1
 62
     5
  6
CONTINUOUS
 10
-1.900197
 20
0.955717
  0
VERTEX
  8
PLAN_1
 62
     5
  6
CONTINUOUS
 10
-1.891583
 20
0.955717
  0
SEQEND
  8
0
  0
POLYLINE
  8
PLAN_1
 62
     5
  6
CONTINUOUS
 66
     1
 40
0.003000
 41
0.003000
  0
VERTEX
  8
PLAN_1
 62
     5
  6
CONTINUOUS
 10
-1.883421
 20
0.955717
  0
VERTEX
  8
PLAN_1
 62
     5
  6
CONTINUOUS
 10
-1.875260
 20
0.955717
  0
SEQEND
  8
0
  0
POLYLINE
  8
PLAN_1
 62
     5
  6
CONTINUOUS
 66
     1
 40
0.003000
 41
0.003000
  0
VERTEX
  8
PLAN_1
 62
     5
  6
CONTINUOUS
 10
-1.866650
 20
0.955717
  0
VERTEX
  8
PLAN_1
 62
     5
  6
CONTINUOUS
 10
-1.858488
 20
0.955717
  0
SEQEND
  8
0
  0
POLYLINE
  8
PLAN_1
 62
     5
  6
CONTINUOUS
 66
     1
 40
0.003000
 41
0.003000
  0
VERTEX
  8
PLAN_1
 62
     5
  6
CONTINUOUS
 10
-1.849874
 20
0.955717
  0
VERTEX
  8
PLAN_1
 62
     5
  6
CONTINUOUS
 10
-1.841713
 20
0.955717
  0
SEQEND
  8
0
  0
POLYLINE
  8
PLAN_1
 62
     5
  6
CONTINUOUS
 66
     1
 40
0.003000
 41
0.003000
  0
VERTEX
  8
PLAN_1
 62
     5
  6
CONTINUOUS
 10
-1.833555
 20
0.955717
  0
VERTEX
  8
PLAN_1
 62
     5
  6
CONTINUOUS
 10
-1.824941
 20
0.955717
  0
SEQEND
  8
0
  0
POLYLINE
  8
PLAN_1
 62
     5
  6
CONTINUOUS
 66
     1
 40
0.003000
 41
0.003000
  0
VERTEX
  8
PLAN_1
 62
     5
  6
CONTINUOUS
 10
-1.816780
 20
0.955717
  0
VERTEX
  8
PLAN_1
 62
     5
  6
CONTINUOUS
 10
-1.808618
 20
0.955717
  0
SEQEND
  8
0
  0
POLYLINE
  8
PLAN_1
 62
     5
  6
CONTINUOUS
 66
     1
 40
0.003000
 41
0.003000
  0
VERTEX
  8
PLAN_1
 62
     5
  6
CONTINUOUS
 10
-1.800008
 20
0.955717
  0
VERTEX
  8
PLAN_1
 62
     5
  6
CONTINUOUS
 10
-1.791846
 20
0.955717
  0
SEQEND
  8
0
  0
POLYLINE
  8
PLAN_1
 62
     5
  6
CONTINUOUS
 66
     1
 40
0.003000
 41
0.003000
  0
VERTEX
  8
PLAN_1
 62
     5
  6
CONTINUOUS
 10
-1.783232
 20
0.955717
  0
VERTEX
  8
PLAN_1
 62
     5
  6
CONTINUOUS
 10
-1.775071
 20
0.955717
  0
SEQEND
  8
0
  0
POLYLINE
  8
PLAN_1
 62
     5
  6
CONTINUOUS
 66
     1
 40
0.003000
 41
0.003000
  0
VERTEX
  8
PLAN_1
 62
     5
  6
CONTINUOUS
 10
-1.766913
 20
0.955717
  0
VERTEX
  8
PLAN_1
 62
     5
  6
CONTINUOUS
 10
-1.761020
 20
0.955717
  0
SEQEND
  8
0
  0
POLYLINE
  8
PLAN_1
 62
     5
  6
CONTINUOUS
 66
     1
 40
0.003000
 41
0.003000
  0
VERTEX
  8
PLAN_1
 62
     5
  6
CONTINUOUS
 10
-1.766913
 20
0.955717
  0
VERTEX
  8
PLAN_1
 62
     5
  6
CONTINUOUS
 10
-1.761020
 20
0.955717
  0
SEQEND
  8
0
  0
POLYLINE
  8
PLAN_1
 62
     5
  6
CONTINUOUS
 66
     1
 40
0.003000
 41
0.003000
  0
VERTEX
  8
PLAN_1
 62
     5
  6
CONTINUOUS
 10
-1.899740
 20
0.813823
  0
VERTEX
  8
PLAN_1
 62
     5
  6
CONTINUOUS
 10
-1.899740
 20
0.821980
  0
SEQEND
  8
0
  0
POLYLINE
  8
PLAN_1
 62
     5
  6
CONTINUOUS
 66
     1
 40
0.003000
 41
0.003000
  0
VERTEX
  8
PLAN_1
 62
     5
  6
CONTINUOUS
 10
-1.899740
 20
0.830142
  0
VERTEX
  8
PLAN_1
 62
     5
  6
CONTINUOUS
 10
-1.899740
 20
0.838756
  0
SEQEND
  8
0
  0
POLYLINE
  8
PLAN_1
 62
     5
  6
CONTINUOUS
 66
     1
 40
0.003000
 41
0.003000
  0
VERTEX
  8
PLAN_1
 62
     5
  6
CONTINUOUS
 10
-1.899740
 20
0.846913
  0
VERTEX
  8
PLAN_1
 62
     5
  6
CONTINUOUS
 10
-1.899740
 20
0.855075
  0
SEQEND
  8
0
  0
POLYLINE
  8
PLAN_1
 62
     5
  6
CONTINUOUS
 66
     1
 40
0.003000
 41
0.003000
  0
VERTEX
  8
PLAN_1
 62
     5
  6
CONTINUOUS
 10
-1.899740
 20
0.863689
  0
VERTEX
  8
PLAN_1
 62
     5
  6
CONTINUOUS
 10
-1.899740
 20
0.871850
  0
SEQEND
  8
0
  0
POLYLINE
  8
PLAN_1
 62
     5
  6
CONTINUOUS
 66
     1
 40
0.003000
 41
0.003000
  0
VERTEX
  8
PLAN_1
 62
     5
  6
CONTINUOUS
 10
-1.899740
 20
0.880465
  0
VERTEX
  8
PLAN_1
 62
     5
  6
CONTINUOUS
 10
-1.899740
 20
0.888622
  0
SEQEND
  8
0
  0
POLYLINE
  8
PLAN_1
 62
     5
  6
CONTINUOUS
 66
     1
 40
0.003000
 41
0.003000
  0
VERTEX
  8
PLAN_1
 62
     5
  6
CONTINUOUS
 10
-1.899740
 20
0.896783
  0
VERTEX
  8
PLAN_1
 62
     5
  6
CONTINUOUS
 10
-1.899740
 20
0.905398
  0
SEQEND
  8
0
  0
POLYLINE
  8
PLAN_1
 62
     5
  6
CONTINUOUS
 66
     1
 40
0.003000
 41
0.003000
  0
VERTEX
  8
PLAN_1
 62
     5
  6
CONTINUOUS
 10
-1.899740
 20
0.913555
  0
VERTEX
  8
PLAN_1
 62
     5
  6
CONTINUOUS
 10
-1.899740
 20
0.921717
  0
SEQEND
  8
0
  0
POLYLINE
  8
PLAN_1
 62
     5
  6
CONTINUOUS
 66
     1
 40
0.003000
 41
0.003000
  0
VERTEX
  8
PLAN_1
 62
     5
  6
CONTINUOUS
 10
-1.899740
 20
0.930331
  0
VERTEX
  8
PLAN_1
 62
     5
  6
CONTINUOUS
 10
-1.899740
 20
0.938492
  0
SEQEND
  8
0
  0
POLYLINE
  8
PLAN_1
 62
     5
  6
CONTINUOUS
 66
     1
 40
0.003000
 41
0.003000
  0
VERTEX
  8
PLAN_1
 62
     5
  6
CONTINUOUS
 10
-1.899740
 20
0.947106
  0
VERTEX
  8
PLAN_1
 62
     5
  6
CONTINUOUS
 10
-1.899740
 20
0.955264
  0
SEQEND
  8
0
  0
POLYLINE
  8
PLAN_1
 62
     5
  6
CONTINUOUS
 66
     1
 40
0.003000
 41
0.003000
  0
VERTEX
  8
PLAN_1
 62
     5
  6
CONTINUOUS
 10
-1.899740
 20
0.963425
  0
VERTEX
  8
PLAN_1
 62
     5
  6
CONTINUOUS
 10
-1.899740
 20
0.972039
  0
SEQEND
  8
0
  0
POLYLINE
  8
PLAN_1
 62
     5
  6
CONTINUOUS
 66
     1
 40
0.003000
 41
0.003000
  0
VERTEX
  8
PLAN_1
 62
     5
  6
CONTINUOUS
 10
-1.899740
 20
0.980197
  0
VERTEX
  8
PLAN_1
 62
     5
  6
CONTINUOUS
 10
-1.899740
 20
0.988358
  0
SEQEND
  8
0
  0
POLYLINE
  8
PLAN_1
 62
     5
  6
CONTINUOUS
 66
     1
 40
0.003000
 41
0.003000
  0
VERTEX
  8
PLAN_1
 62
     5
  6
CONTINUOUS
 10
-1.899740
 20
0.996972
  0
VERTEX
  8
PLAN_1
 62
     5
  6
CONTINUOUS
 10
-1.899740
 20
1.005134
  0
SEQEND
  8
0
  0
POLYLINE
  8
PLAN_1
 62
     5
  6
CONTINUOUS
 66
     1
 40
0.003000
 41
0.003000
  0
VERTEX
  8
PLAN_1
 62
     5
  6
CONTINUOUS
 10
-1.899740
 20
1.013748
  0
VERTEX
  8
PLAN_1
 62
     5
  6
CONTINUOUS
 10
-1.899740
 20
1.021906
  0
SEQEND
  8
0
  0
POLYLINE
  8
PLAN_1
 62
     5
  6
CONTINUOUS
 66
     1
 40
0.003000
 41
0.003000
  0
VERTEX
  8
PLAN_1
 62
     5
  6
CONTINUOUS
 10
-1.899740
 20
1.030067
  0
VERTEX
  8
PLAN_1
 62
     5
  6
CONTINUOUS
 10
-1.899740
 20
1.038681
  0
SEQEND
  8
0
  0
POLYLINE
  8
PLAN_1
 62
     5
  6
CONTINUOUS
 66
     1
 40
0.003000
 41
0.003000
  0
VERTEX
  8
PLAN_1
 62
     5
  6
CONTINUOUS
 10
-1.899740
 20
1.046839
  0
VERTEX
  8
PLAN_1
 62
     5
  6
CONTINUOUS
 10
-1.899740
 20
1.055000
  0
SEQEND
  8
0
  0
POLYLINE
  8
PLAN_1
 62
     5
  6
CONTINUOUS
 66
     1
 40
0.003000
 41
0.003000
  0
VERTEX
  8
PLAN_1
 62
     5
  6
CONTINUOUS
 10
-1.899740
 20
1.063614
  0
VERTEX
  8
PLAN_1
 62
     5
  6
CONTINUOUS
 10
-1.899740
 20
1.071776
  0
SEQEND
  8
0
  0
POLYLINE
  8
PLAN_1
 62
     5
  6
CONTINUOUS
 66
     1
 40
0.003000
 41
0.003000
  0
VERTEX
  8
PLAN_1
 62
     5
  6
CONTINUOUS
 10
-1.899740
 20
1.079933
  0
VERTEX
  8
PLAN_1
 62
     5
  6
CONTINUOUS
 10
-1.899740
 20
1.088547
  0
SEQEND
  8
0
  0
POLYLINE
  8
PLAN_1
 62
     5
  6
CONTINUOUS
 66
     1
 40
0.003000
 41
0.003000
  0
VERTEX
  8
PLAN_1
 62
     5
  6
CONTINUOUS
 10
-1.899740
 20
1.096709
  0
VERTEX
  8
PLAN_1
 62
     5
  6
CONTINUOUS
 10
-1.899740
 20
1.105323
  0
SEQEND
  8
0
  0
POLYLINE
  8
PLAN_1
 62
     5
  6
CONTINUOUS
 66
     1
 40
0.003000
 41
0.003000
  0
VERTEX
  8
PLAN_1
 62
     5
  6
CONTINUOUS
 10
-1.899740
 20
1.113480
  0
VERTEX
  8
PLAN_1
 62
     5
  6
CONTINUOUS
 10
-1.899740
 20
1.121642
  0
SEQEND
  8
0
  0
POLYLINE
  8
PLAN_1
  6
CONTINUOUS
 66
     1
 40
0.008157
 41
0.008157
  0
VERTEX
  8
PLAN_1
  6
CONTINUOUS
 10
-1.941449
 20
1.975744
  0
VERTEX
  8
PLAN_1
  6
CONTINUOUS
 10
-1.941449
 20
1.220020
  0
VERTEX
  8
PLAN_1
  6
CONTINUOUS
 10
-0.628563
 20
1.220020
  0
VERTEX
  8
PLAN_1
  6
CONTINUOUS
 10
-0.628563
 20
1.975744
  0
VERTEX
  8
PLAN_1
  6
CONTINUOUS
 10
-1.941449
 20
1.975744
  0
SEQEND
  8
0
  0
POLYLINE
  8
PLAN_1
  6
CONTINUOUS
 66
     1
 40
0.008157
 41
0.008157
  0
VERTEX
  8
PLAN_1
  6
CONTINUOUS
 10
-1.941449
 20
1.411783
  0
VERTEX
  8
PLAN_1
  6
CONTINUOUS
 10
-1.613228
 20
1.411783
  0
VERTEX
  8
PLAN_1
  6
CONTINUOUS
 10
-1.613228
 20
1.220020
  0
SEQEND
  8
0
  0
POLYLINE
  8
PLAN_1
  6
CONTINUOUS
 66
     1
 40
0.008157
 41
0.008157
  0
VERTEX
  8
PLAN_1
  6
CONTINUOUS
 10
-0.962677
 20
1.220020
  0
VERTEX
  8
PLAN_1
  6
CONTINUOUS
 10
-0.962677
 20
1.410878
  0
VERTEX
  8
PLAN_1
  6
CONTINUOUS
 10
-0.628563
 20
1.410878
  0
SEQEND
  8
0
  0
POLYLINE
  8
PLAN_1
  6
CONTINUOUS
 66
     1
 40
0.008157
 41
0.008157
  0
VERTEX
  8
PLAN_1
  6
CONTINUOUS
 10
-1.703445
 20
1.411783
  0
VERTEX
  8
PLAN_1
  6
CONTINUOUS
 10
-1.703445
 20
1.220020
  0
SEQEND
  8
0
  0
POLYLINE
  8
PLAN_1
  6
CONTINUOUS
 66
     1
 40
0.008157
 41
0.008157
  0
VERTEX
  8
PLAN_1
  6
CONTINUOUS
 10
-0.864303
 20
1.411783
  0
VERTEX
  8
PLAN_1
  6
CONTINUOUS
 10
-0.864303
 20
1.220020
  0
SEQEND
  8
0
  0
POLYLINE
  8
PLAN_1
  6
CONTINUOUS
 66
     1
 40
0.008157
 41
0.008157
  0
VERTEX
  8
PLAN_1
  6
CONTINUOUS
 10
-1.085988
 20
0.804299
  0
VERTEX
  8
PLAN_1
  6
CONTINUOUS
 10
-1.085988
 20
0.850996
  0
VERTEX
  8
PLAN_1
  6
CONTINUOUS
 10
-1.485839
 20
0.850996
  0
VERTEX
  8
PLAN_1
  6
CONTINUOUS
 10
-1.485839
 20
0.804299
  0
VERTEX
  8
PLAN_1
  6
CONTINUOUS
 10
-1.085988
 20
0.804299
  0
SEQEND
  8
0
  0
POLYLINE
  8
PLAN_1
  6
CONTINUOUS
 66
     1
 40
0.008157
 41
0.008157
  0
VERTEX
  8
PLAN_1
  6
CONTINUOUS
 10
-0.748244
 20
1.197350
  0
VERTEX
  8
PLAN_1
  6
CONTINUOUS
 10
-0.748244
 20
1.220020
  0
VERTEX
  8
PLAN_1
  6
CONTINUOUS
 10
-1.823126
 20
1.220020
  0
VERTEX
  8
PLAN_1
  6
CONTINUOUS
 10
-1.823126
 20
1.197350
  0
VERTEX
  8
PLAN_1
  6
CONTINUOUS
 10
-0.748244
 20
1.197350
  0
SEQEND
  8
0
  0
POLYLINE
  8
PLAN_1
  6
CONTINUOUS
 66
     1
 40
0.008157
 41
0.008157
  0
VERTEX
  8
PLAN_1
  6
CONTINUOUS
 10
-0.955878
 20
0.850996
  0
VERTEX
  8
PLAN_1
  6
CONTINUOUS
 10
-0.955878
 20
1.197350
  0
VERTEX
  8
PLAN_1
  6
CONTINUOUS
 10
-1.615949
 20
1.197350
  0
VERTEX
  8
PLAN_1
  6
CONTINUOUS
 10
-1.615949
 20
0.850996
  0
VERTEX
  8
PLAN_1
  6
CONTINUOUS
 10
-0.955878
 20
0.850996
  0
SEQEND
  8
0
  0
POLYLINE
  8
PLAN_1
  6
CONTINUOUS
 66
     1
 40
0.008157
 41
0.008157
  0
VERTEX
  8
PLAN_1
  6
CONTINUOUS
 10
-0.204685
 20
2.023346
  0
VERTEX
  8
PLAN_1
  6
CONTINUOUS
 10
-0.196980
 20
2.023799
  0
VERTEX
  8
PLAN_1
  6
CONTINUOUS
 10
-0.188819
 20
2.025157
  0
VERTEX
  8
PLAN_1
  6
CONTINUOUS
 10
-0.181110
 20
2.026972
  0
VERTEX
  8
PLAN_1
  6
CONTINUOUS
 10
-0.173858
 20
2.029693
  0
VERTEX
  8
PLAN_1
  6
CONTINUOUS
 10
-0.167059
 20
2.032866
  0
VERTEX
  8
PLAN_1
  6
CONTINUOUS
 10
-0.160256
 20
2.036945
  0
VERTEX
  8
PLAN_1
  6
CONTINUOUS
 10
-0.154362
 20
2.041480
  0
VERTEX
  8
PLAN_1
  6
CONTINUOUS
 10
-0.148472
 20
2.046465
  0
VERTEX
  8
PLAN_1
  6
CONTINUOUS
 10
-0.143484
 20
2.052358
  0
VERTEX
  8
PLAN_1
  6
CONTINUOUS
 10
-0.138949
 20
2.058252
  0
VERTEX
  8
PLAN_1
  6
CONTINUOUS
 10
-0.134870
 20
2.065051
  0
VERTEX
  8
PLAN_1
  6
CONTINUOUS
 10
-0.131697
 20
2.071854
  0
VERTEX
  8
PLAN_1
  6
CONTINUOUS
 10
-0.128976
 20
2.079106
  0
VERTEX
  8
PLAN_1
  6
CONTINUOUS
 10
-0.127161
 20
2.086815
  0
VERTEX
  8
PLAN_1
  6
CONTINUOUS
 10
-0.125803
 20
2.094520
  0
VERTEX
  8
PLAN_1
  6
CONTINUOUS
 10
-0.125350
 20
2.102681
  0
VERTEX
  8
PLAN_1
  6
CONTINUOUS
 10
-0.125803
 20
2.110843
  0
VERTEX
  8
PLAN_1
  6
CONTINUOUS
 10
-0.127161
 20
2.119000
  0
VERTEX
  8
PLAN_1
  6
CONTINUOUS
 10
-0.128976
 20
2.126709
  0
VERTEX
  8
PLAN_1
  6
CONTINUOUS
 10
-0.131697
 20
2.133961
  0
VERTEX
  8
PLAN_1
  6
CONTINUOUS
 10
-0.134870
 20
2.140760
  0
VERTEX
  8
PLAN_1
  6
CONTINUOUS
 10
-0.138949
 20
2.147110
  0
VERTEX
  8
PLAN_1
  6
CONTINUOUS
 10
-0.143484
 20
2.153457
  0
VERTEX
  8
PLAN_1
  6
CONTINUOUS
 10
-0.148472
 20
2.158894
  0
VERTEX
  8
PLAN_1
  6
CONTINUOUS
 10
-0.154362
 20
2.164335
  0
VERTEX
  8
PLAN_1
  6
CONTINUOUS
 10
-0.160256
 20
2.168870
  0
VERTEX
  8
PLAN_1
  6
CONTINUOUS
 10
-0.167059
 20
2.172949
  0
VERTEX
  8
PLAN_1
  6
CONTINUOUS
 10
-0.173858
 20
2.176122
  0
VERTEX
  8
PLAN_1
  6
CONTINUOUS
 10
-0.181110
 20
2.178843
  0
VERTEX
  8
PLAN_1
  6
CONTINUOUS
 10
-0.188819
 20
2.180657
  0
VERTEX
  8
PLAN_1
  6
CONTINUOUS
 10
-0.196980
 20
2.182016
  0
VERTEX
  8
PLAN_1
  6
CONTINUOUS
 10
-0.204685
 20
2.182469
  0
VERTEX
  8
PLAN_1
  6
CONTINUOUS
 10
-0.212846
 20
2.182016
  0
VERTEX
  8
PLAN_1
  6
CONTINUOUS
 10
-0.221004
 20
2.180657
  0
VERTEX
  8
PLAN_1
  6
CONTINUOUS
 10
-0.228713
 20
2.178843
  0
VERTEX
  8
PLAN_1
  6
CONTINUOUS
 10
-0.235965
 20
2.176122
  0
VERTEX
  8
PLAN_1
  6
CONTINUOUS
 10
-0.242768
 20
2.172949
  0
VERTEX
  8
PLAN_1
  6
CONTINUOUS
 10
-0.249114
 20
2.168870
  0
VERTEX
  8
PLAN_1
  6
CONTINUOUS
 10
-0.255461
 20
2.164335
  0
VERTEX
  8
PLAN_1
  6
CONTINUOUS
 10
-0.260902
 20
2.158894
  0
VERTEX
  8
PLAN_1
  6
CONTINUOUS
 10
-0.266339
 20
2.153457
  0
VERTEX
  8
PLAN_1
  6
CONTINUOUS
 10
-0.270874
 20
2.147110
  0
VERTEX
  8
PLAN_1
  6
CONTINUOUS
 10
-0.274953
 20
2.140760
  0
VERTEX
  8
PLAN_1
  6
CONTINUOUS
 10
-0.278126
 20
2.133961
  0
VERTEX
  8
PLAN_1
  6
CONTINUOUS
 10
-0.280846
 20
2.126709
  0
VERTEX
  8
PLAN_1
  6
CONTINUOUS
 10
-0.282661
 20
2.119000
  0
VERTEX
  8
PLAN_1
  6
CONTINUOUS
 10
-0.284020
 20
2.110843
  0
VERTEX
  8
PLAN_1
  6
CONTINUOUS
 10
-0.284472
 20
2.102681
  0
VERTEX
  8
PLAN_1
  6
CONTINUOUS
 10
-0.284020
 20
2.094520
  0
VERTEX
  8
PLAN_1
  6
CONTINUOUS
 10
-0.282661
 20
2.086815
  0
VERTEX
  8
PLAN_1
  6
CONTINUOUS
 10
-0.280846
 20
2.079106
  0
VERTEX
  8
PLAN_1
  6
CONTINUOUS
 10
-0.278126
 20
2.071854
  0
VERTEX
  8
PLAN_1
  6
CONTINUOUS
 10
-0.274953
 20
2.065051
  0
VERTEX
  8
PLAN_1
  6
CONTINUOUS
 10
-0.270874
 20
2.058252
  0
VERTEX
  8
PLAN_1
  6
CONTINUOUS
 10
-0.266339
 20
2.052358
  0
VERTEX
  8
PLAN_1
  6
CONTINUOUS
 10
-0.260902
 20
2.046465
  0
VERTEX
  8
PLAN_1
  6
CONTINUOUS
 10
-0.255461
 20
2.041480
  0
VERTEX
  8
PLAN_1
  6
CONTINUOUS
 10
-0.249114
 20
2.036945
  0
VERTEX
  8
PLAN_1
  6
CONTINUOUS
 10
-0.242768
 20
2.032866
  0
VERTEX
  8
PLAN_1
  6
CONTINUOUS
 10
-0.235965
 20
2.029693
  0
VERTEX
  8
PLAN_1
  6
CONTINUOUS
 10
-0.228713
 20
2.026972
  0
VERTEX
  8
PLAN_1
  6
CONTINUOUS
 10
-0.221004
 20
2.025157
  0
VERTEX
  8
PLAN_1
  6
CONTINUOUS
 10
-0.212846
 20
2.023799
  0
VERTEX
  8
PLAN_1
  6
CONTINUOUS
 10
-0.204685
 20
2.023346
  0
SEQEND
  8
0
  0
POLYLINE
  8
PLAN_1
 62
     2
  6
CONTINUOUS
 66
     1
 40
0.004079
 41
0.004079
  0
VERTEX
  8
PLAN_1
 62
     2
  6
CONTINUOUS
 10
-0.464906
 20
0.955717
  0
VERTEX
  8
PLAN_1
 62
     2
  6
CONTINUOUS
 10
0.259087
 20
0.955717
  0
SEQEND
  8
0
  0
POLYLINE
  8
PLAN_1
 62
     2
  6
CONTINUOUS
 66
     1
 40
0.004079
 41
0.004079
  0
VERTEX
  8
PLAN_1
 62
     2
  6
CONTINUOUS
 10
0.075028
 20
2.223724
  0
VERTEX
  8
PLAN_1
 62
     2
  6
CONTINUOUS
 10
0.075028
 20
3.352551
  0
SEQEND
  8
0
  0
POLYLINE
  8
PLAN_1
 62
     2
  6
CONTINUOUS
 66
     1
 40
0.004079
 41
0.004079
  0
VERTEX
  8
PLAN_1
 62
     2
  6
CONTINUOUS
 10
0.075028
 20
3.406953
  0
VERTEX
  8
PLAN_1
 62
     2
  6
CONTINUOUS
 10
0.075028
 20
3.557012
  0
SEQEND
  8
0
  0
POLYLINE
  8
PLAN_1
 62
     2
  6
CONTINUOUS
 66
     1
 40
0.004079
 41
0.004079
  0
VERTEX
  8
PLAN_1
 62
     2
  6
CONTINUOUS
 10
-0.672535
 20
1.113028
  0
VERTEX
  8
PLAN_1
 62
     2
  6
CONTINUOUS
 10
-0.672535
 20
3.352551
  0
SEQEND
  8
0
  0
POLYLINE
  8
PLAN_1
 62
     2
  6
CONTINUOUS
 66
     1
 40
0.004079
 41
0.004079
  0
VERTEX
  8
PLAN_1
 62
     2
  6
CONTINUOUS
 10
-0.672535
 20
3.406953
  0
VERTEX
  8
PLAN_1
 62
     2
  6
CONTINUOUS
 10
-0.672535
 20
3.557012
  0
SEQEND
  8
0
  0
POLYLINE
  8
PLAN_1
 62
     2
  6
CONTINUOUS
 66
     1
 40
0.004079
 41
0.004079
  0
VERTEX
  8
PLAN_1
 62
     2
  6
CONTINUOUS
 10
-1.119083
 20
3.372047
  0
VERTEX
  8
PLAN_1
 62
     2
  6
CONTINUOUS
 10
0.259087
 20
3.372047
  0
SEQEND
  8
0
  0
POLYLINE
  8
PLAN_1
 62
     2
  6
CONTINUOUS
 66
     1
 40
0.004079
 41
0.004079
  0
VERTEX
  8
PLAN_1
 62
     2
  6
CONTINUOUS
 10
-0.643071
 20
3.533437
  0
VERTEX
  8
PLAN_1
 62
     2
  6
CONTINUOUS
 10
0.045563
 20
3.533437
  0
SEQEND
  8
0
  0
SOLID
  8
PLAN_1
 62
     2
 10
0.075028
 20
3.533437
 11
0.016094
 21
3.548850
 12
0.075028
 22
3.533437
 13
0.016094
 23
3.517571
  0
POLYLINE
  8
PLAN_1
 62
     2
  6
CONTINUOUS
 66
     1
 40
0.003000
 41
0.003000
  0
VERTEX
  8
PLAN_1
 62
     2
  6
CONTINUOUS
 10
0.075028
 20
3.533437
  0
VERTEX
  8
PLAN_1
 62
     2
  6
CONTINUOUS
 10
0.016094
 20
3.548850
  0
VERTEX
  8
PLAN_1
 62
     2
  6
CONTINUOUS
 10
0.016094
 20
3.517571
  0
VERTEX
  8
PLAN_1
 62
     2
  6
CONTINUOUS
 10
0.075028
 20
3.533437
  0
SEQEND
  8
0
  0
SOLID
  8
PLAN_1
 62
     2
 10
-0.672535
 20
3.533437
 11
-0.613602
 21
3.548850
 12
-0.672535
 22
3.533437
 13
-0.613602
 23
3.517571
  0
POLYLINE
  8
PLAN_1
 62
     2
  6
CONTINUOUS
 66
     1
 40
0.003000
 41
0.003000
  0
VERTEX
  8
PLAN_1
 62
     2
  6
CONTINUOUS
 10
-0.672535
 20
3.533437
  0
VERTEX
  8
PLAN_1
 62
     2
  6
CONTINUOUS
 10
-0.613602
 20
3.548850
  0
VERTEX
  8
PLAN_1
 62
     2
  6
CONTINUOUS
 10
-0.613602
 20
3.517571
  0
VERTEX
  8
PLAN_1
 62
     2
  6
CONTINUOUS
 10
-0.672535
 20
3.533437
  0
SEQEND
  8
0
  0
POLYLINE
  8
PLAN_1
 62
     2
  6
CONTINUOUS
 66
     1
 40
0.003000
 41
0.003000
  0
VERTEX
  8
PLAN_1
 62
     2
  6
CONTINUOUS
 10
-0.319382
 20
3.557012
  0
VERTEX
  8
PLAN_1
 62
     2
  6
CONTINUOUS
 10
-0.328902
 20
3.557012
  0
VERTEX
  8
PLAN_1
 62
     2
  6
CONTINUOUS
 10
-0.328902
 20
3.608693
  0
VERTEX
  8
PLAN_1
 62
     2
  6
CONTINUOUS
 10
-0.346130
 20
3.608693
  0
VERTEX
  8
PLAN_1
 62
     2
  6
CONTINUOUS
 10
-0.346130
 20
3.615945
  0
VERTEX
  8
PLAN_1
 62
     2
  6
CONTINUOUS
 10
-0.342047
 20
3.616402
  0
VERTEX
  8
PLAN_1
 62
     2
  6
CONTINUOUS
 10
-0.338421
 20
3.616854
  0
VERTEX
  8
PLAN_1
 62
     2
  6
CONTINUOUS
 10
-0.335701
 20
3.617760
  0
VERTEX
  8
PLAN_1
 62
     2
  6
CONTINUOUS
 10
-0.332980
 20
3.618665
  0
VERTEX
  8
PLAN_1
 62
     2
  6
CONTINUOUS
 10
-0.330717
 20
3.620480
  0
VERTEX
  8
PLAN_1
 62
     2
  6
CONTINUOUS
 10
-0.329354
 20
3.622748
  0
VERTEX
  8
PLAN_1
 62
     2
  6
CONTINUOUS
 10
-0.327543
 20
3.625921
  0
VERTEX
  8
PLAN_1
 62
     2
  6
CONTINUOUS
 10
-0.326634
 20
3.630000
  0
VERTEX
  8
PLAN_1
 62
     2
  6
CONTINUOUS
 10
-0.319382
 20
3.630000
  0
VERTEX
  8
PLAN_1
 62
     2
  6
CONTINUOUS
 10
-0.319382
 20
3.557012
  0
SEQEND
  8
0
  0
POLYLINE
  8
PLAN_1
 62
     2
  6
CONTINUOUS
 66
     1
 40
0.003000
 41
0.003000
  0
VERTEX
  8
PLAN_1
 62
     2
  6
CONTINUOUS
 10
-0.294449
 20
3.605067
  0
VERTEX
  8
PLAN_1
 62
     2
  6
CONTINUOUS
 10
-0.293996
 20
3.609598
  0
VERTEX
  8
PLAN_1
 62
     2
  6
CONTINUOUS
 10
-0.293087
 20
3.614587
  0
VERTEX
  8
PLAN_1
 62
     2
  6
CONTINUOUS
 10
-0.290819
 20
3.618665
  0
VERTEX
  8
PLAN_1
 62
     2
  6
CONTINUOUS
 10
-0.288555
 20
3.622291
  0
VERTEX
  8
PLAN_1
 62
     2
  6
CONTINUOUS
 10
-0.286740
 20
3.624106
  0
VERTEX
  8
PLAN_1
 62
     2
  6
CONTINUOUS
 10
-0.284929
 20
3.625469
  0
VERTEX
  8
PLAN_1
 62
     2
  6
CONTINUOUS
 10
-0.283114
 20
3.626827
  0
VERTEX
  8
PLAN_1
 62
     2
  6
CONTINUOUS
 10
-0.280846
 20
3.627732
  0
VERTEX
  8
PLAN_1
 62
     2
  6
CONTINUOUS
 10
-0.278579
 20
3.628642
  0
VERTEX
  8
PLAN_1
 62
     2
  6
CONTINUOUS
 10
-0.276315
 20
3.629547
  0
VERTEX
  8
PLAN_1
 62
     2
  6
CONTINUOUS
 10
-0.273594
 20
3.630000
  0
VERTEX
  8
PLAN_1
 62
     2
  6
CONTINUOUS
 10
-0.270874
 20
3.630000
  0
VERTEX
  8
PLAN_1
 62
     2
  6
CONTINUOUS
 10
-0.266795
 20
3.629547
  0
VERTEX
  8
PLAN_1
 62
     2
  6
CONTINUOUS
 10
-0.263165
 20
3.629094
  0
VERTEX
  8
PLAN_1
 62
     2
  6
CONTINUOUS
 10
-0.259992
 20
3.627732
  0
VERTEX
  8
PLAN_1
 62
     2
  6
CONTINUOUS
 10
-0.257272
 20
3.626374
  0
VERTEX
  8
PLAN_1
 62
     2
  6
CONTINUOUS
 10
-0.254555
 20
3.624559
  0
VERTEX
  8
PLAN_1
 62
     2
  6
CONTINUOUS
 10
-0.252740
 20
3.622291
  0
VERTEX
  8
PLAN_1
 62
     2
  6
CONTINUOUS
 10
-0.250925
 20
3.620028
  0
VERTEX
  8
PLAN_1
 62
     2
  6
CONTINUOUS
 10
-0.249567
 20
3.617307
  0
VERTEX
  8
PLAN_1
 62
     2
  6
CONTINUOUS
 10
-0.247299
 20
3.611866
  0
VERTEX
  8
PLAN_1
 62
     2
  6
CONTINUOUS
 10
-0.245941
 20
3.606425
  0
VERTEX
  8
PLAN_1
 62
     2
  6
CONTINUOUS
 10
-0.245488
 20
3.600984
  0
VERTEX
  8
PLAN_1
 62
     2
  6
CONTINUOUS
 10
-0.245488
 20
3.596000
  0
VERTEX
  8
PLAN_1
 62
     2
  6
CONTINUOUS
 10
-0.245488
 20
3.591917
  0
VERTEX
  8
PLAN_1
 62
     2
  6
CONTINUOUS
 10
-0.245941
 20
3.586480
  0
VERTEX
  8
PLAN_1
 62
     2
  6
CONTINUOUS
 10
-0.246846
 20
3.579677
  0
VERTEX
  8
PLAN_1
 62
     2
  6
CONTINUOUS
 10
-0.249114
 20
3.572425
  0
VERTEX
  8
PLAN_1
 62
     2
  6
CONTINUOUS
 10
-0.250472
 20
3.569252
  0
VERTEX
  8
PLAN_1
 62
     2
  6
CONTINUOUS
 10
-0.252287
 20
3.566079
  0
VERTEX
  8
PLAN_1
 62
     2
  6
CONTINUOUS
 10
-0.254555
 20
3.562906
  0
VERTEX
  8
PLAN_1
 62
     2
  6
CONTINUOUS
 10
-0.257272
 20
3.560185
  0
VERTEX
  8
PLAN_1
 62
     2
  6
CONTINUOUS
 10
-0.259992
 20
3.557917
  0
VERTEX
  8
PLAN_1
 62
     2
  6
CONTINUOUS
 10
-0.263622
 20
3.556559
  0
VERTEX
  8
PLAN_1
 62
     2
  6
CONTINUOUS
 10
-0.267248
 20
3.555197
  0
VERTEX
  8
PLAN_1
 62
     2
  6
CONTINUOUS
 10
-0.271780
 20
3.554744
  0
VERTEX
  8
PLAN_1
 62
     2
  6
CONTINUOUS
 10
-0.274953
 20
3.555197
  0
VERTEX
  8
PLAN_1
 62
     2
  6
CONTINUOUS
 10
-0.277673
 20
3.555650
  0
VERTEX
  8
PLAN_1
 62
     2
  6
CONTINUOUS
 10
-0.280394
 20
3.556106
  0
VERTEX
  8
PLAN_1
 62
     2
  6
CONTINUOUS
 10
-0.282661
 20
3.557012
  0
VERTEX
  8
PLAN_1
 62
     2
  6
CONTINUOUS
 10
-0.284472
 20
3.557917
  0
VERTEX
  8
PLAN_1
 62
     2
  6
CONTINUOUS
 10
-0.286287
 20
3.559280
  0
VERTEX
  8
PLAN_1
 62
     2
  6
CONTINUOUS
 10
-0.287646
 20
3.560638
  0
VERTEX
  8
PLAN_1
 62
     2
  6
CONTINUOUS
 10
-0.289008
 20
3.562000
  0
VERTEX
  8
PLAN_1
 62
     2
  6
CONTINUOUS
 10
-0.291276
 20
3.565173
  0
VERTEX
  8
PLAN_1
 62
     2
  6
CONTINUOUS
 10
-0.292634
 20
3.568346
  0
VERTEX
  8
PLAN_1
 62
     2
  6
CONTINUOUS
 10
-0.293539
 20
3.571520
  0
VERTEX
  8
PLAN_1
 62
     2
  6
CONTINUOUS
 10
-0.293539
 20
3.574240
  0
VERTEX
  8
PLAN_1
 62
     2
  6
CONTINUOUS
 10
-0.284472
 20
3.574240
  0
VERTEX
  8
PLAN_1
 62
     2
  6
CONTINUOUS
 10
-0.284020
 20
3.571972
  0
VERTEX
  8
PLAN_1
 62
     2
  6
CONTINUOUS
 10
-0.283114
 20
3.569252
  0
VERTEX
  8
PLAN_1
 62
     2
  6
CONTINUOUS
 10
-0.282209
 20
3.567437
  0
VERTEX
  8
PLAN_1
 62
     2
  6
CONTINUOUS
 10
-0.280846
 20
3.565626
  0
VERTEX
  8
PLAN_1
 62
     2
  6
CONTINUOUS
 10
-0.279035
 20
3.564264
  0
VERTEX
  8
PLAN_1
 62
     2
  6
CONTINUOUS
 10
-0.277220
 20
3.563358
  0
VERTEX
  8
PLAN_1
 62
     2
  6
CONTINUOUS
 10
-0.274500
 20
3.562906
  0
VERTEX
  8
PLAN_1
 62
     2
  6
CONTINUOUS
 10
-0.272232
 20
3.562453
  0
VERTEX
  8
PLAN_1
 62
     2
  6
CONTINUOUS
 10
-0.268606
 20
3.562906
  0
VERTEX
  8
PLAN_1
 62
     2
  6
CONTINUOUS
 10
-0.265433
 20
3.564264
  0
VERTEX
  8
PLAN_1
 62
     2
  6
CONTINUOUS
 10
-0.262713
 20
3.566079
  0
VERTEX
  8
PLAN_1
 62
     2
  6
CONTINUOUS
 10
-0.260445
 20
3.569252
  0
VERTEX
  8
PLAN_1
 62
     2
  6
CONTINUOUS
 10
-0.258181
 20
3.572878
  0
VERTEX
  8
PLAN_1
 62
     2
  6
CONTINUOUS
 10
-0.256819
 20
3.577413
  0
VERTEX
  8
PLAN_1
 62
     2
  6
CONTINUOUS
 10
-0.255461
 20
3.583307
  0
VERTEX
  8
PLAN_1
 62
     2
  6
CONTINUOUS
 10
-0.254555
 20
3.589654
  0
VERTEX
  8
PLAN_1
 62
     2
  6
CONTINUOUS
 10
-0.254555
 20
3.590106
  0
VERTEX
  8
PLAN_1
 62
     2
  6
CONTINUOUS
 10
-0.255913
 20
3.587839
  0
VERTEX
  8
PLAN_1
 62
     2
  6
CONTINUOUS
 10
-0.257272
 20
3.586480
  0
VERTEX
  8
PLAN_1
 62
     2
  6
CONTINUOUS
 10
-0.259539
 20
3.584665
  0
VERTEX
  8
PLAN_1
 62
     2
  6
CONTINUOUS
 10
-0.261354
 20
3.583760
  0
VERTEX
  8
PLAN_1
 62
     2
  6
CONTINUOUS
 10
-0.264075
 20
3.582398
  0
VERTEX
  8
PLAN_1
 62
     2
  6
CONTINUOUS
 10
-0.266339
 20
3.581945
  0
VERTEX
  8
PLAN_1
 62
     2
  6
CONTINUOUS
 10
-0.269059
 20
3.581492
  0
VERTEX
  8
PLAN_1
 62
     2
  6
CONTINUOUS
 10
-0.271327
 20
3.581492
  0
VERTEX
  8
PLAN_1
 62
     2
  6
CONTINUOUS
 10
-0.276315
 20
3.581945
  0
VERTEX
  8
PLAN_1
 62
     2
  6
CONTINUOUS
 10
-0.280846
 20
3.582850
  0
VERTEX
  8
PLAN_1
 62
     2
  6
CONTINUOUS
 10
-0.282661
 20
3.583760
  0
VERTEX
  8
PLAN_1
 62
     2
  6
CONTINUOUS
 10
-0.284472
 20
3.585118
  0
VERTEX
  8
PLAN_1
 62
     2
  6
CONTINUOUS
 10
-0.286287
 20
3.586024
  0
VERTEX
  8
PLAN_1
 62
     2
  6
CONTINUOUS
 10
-0.288102
 20
3.587839
  0
VERTEX
  8
PLAN_1
 62
     2
  6
CONTINUOUS
 10
-0.289461
 20
3.589201
  0
VERTEX
  8
PLAN_1
 62
     2
  6
CONTINUOUS
 10
-0.290819
 20
3.591012
  0
VERTEX
  8
PLAN_1
 62
     2
  6
CONTINUOUS
 10
-0.291728
 20
3.592827
  0
VERTEX
  8
PLAN_1
 62
     2
  6
CONTINUOUS
 10
-0.292634
 20
3.595091
  0
VERTEX
  8
PLAN_1
 62
     2
  6
CONTINUOUS
 10
-0.293539
 20
3.597358
  0
VERTEX
  8
PLAN_1
 62
     2
  6
CONTINUOUS
 10
-0.293996
 20
3.599626
  0
VERTEX
  8
PLAN_1
 62
     2
  6
CONTINUOUS
 10
-0.294449
 20
3.602346
  0
VERTEX
  8
PLAN_1
 62
     2
  6
CONTINUOUS
 10
-0.294449
 20
3.605067
  0
SEQEND
  8
0
  0
POLYLINE
  8
PLAN_1
 62
     2
  6
CONTINUOUS
 66
     1
 40
0.003000
 41
0.003000
  0
VERTEX
  8
PLAN_1
 62
     2
  6
CONTINUOUS
 10
-0.255913
 20
3.605972
  0
VERTEX
  8
PLAN_1
 62
     2
  6
CONTINUOUS
 10
-0.256366
 20
3.609146
  0
VERTEX
  8
PLAN_1
 62
     2
  6
CONTINUOUS
 10
-0.256819
 20
3.612319
  0
VERTEX
  8
PLAN_1
 62
     2
  6
CONTINUOUS
 10
-0.257728
 20
3.614587
  0
VERTEX
  8
PLAN_1
 62
     2
  6
CONTINUOUS
 10
-0.259539
 20
3.617307
  0
VERTEX
  8
PLAN_1
 62
     2
  6
CONTINUOUS
 10
-0.261354
 20
3.619118
  0
VERTEX
  8
PLAN_1
 62
     2
  6
CONTINUOUS
 10
-0.264075
 20
3.620480
  0
VERTEX
  8
PLAN_1
 62
     2
  6
CONTINUOUS
 10
-0.267248
 20
3.621386
  0
VERTEX
  8
PLAN_1
 62
     2
  6
CONTINUOUS
 10
-0.270874
 20
3.621839
  0
VERTEX
  8
PLAN_1
 62
     2
  6
CONTINUOUS
 10
-0.274047
 20
3.621386
  0
VERTEX
  8
PLAN_1
 62
     2
  6
CONTINUOUS
 10
-0.276768
 20
3.620480
  0
VERTEX
  8
PLAN_1
 62
     2
  6
CONTINUOUS
 10
-0.279035
 20
3.619118
  0
VERTEX
  8
PLAN_1
 62
     2
  6
CONTINUOUS
 10
-0.280846
 20
3.617307
  0
VERTEX
  8
PLAN_1
 62
     2
  6
CONTINUOUS
 10
-0.282661
 20
3.615039
  0
VERTEX
  8
PLAN_1
 62
     2
  6
CONTINUOUS
 10
-0.284020
 20
3.611866
  0
VERTEX
  8
PLAN_1
 62
     2
  6
CONTINUOUS
 10
-0.284472
 20
3.608693
  0
VERTEX
  8
PLAN_1
 62
     2
  6
CONTINUOUS
 10
-0.284929
 20
3.605520
  0
VERTEX
  8
PLAN_1
 62
     2
  6
CONTINUOUS
 10
-0.284472
 20
3.600531
  0
VERTEX
  8
PLAN_1
 62
     2
  6
CONTINUOUS
 10
-0.283567
 20
3.596906
  0
VERTEX
  8
PLAN_1
 62
     2
  6
CONTINUOUS
 10
-0.281752
 20
3.594185
  0
VERTEX
  8
PLAN_1
 62
     2
  6
CONTINUOUS
 10
-0.279941
 20
3.592374
  0
VERTEX
  8
PLAN_1
 62
     2
  6
CONTINUOUS
 10
-0.277673
 20
3.591012
  0
VERTEX
  8
PLAN_1
 62
     2
  6
CONTINUOUS
 10
-0.274953
 20
3.590106
  0
VERTEX
  8
PLAN_1
 62
     2
  6
CONTINUOUS
 10
-0.272685
 20
3.589654
  0
VERTEX
  8
PLAN_1
 62
     2
  6
CONTINUOUS
 10
-0.269969
 20
3.589654
  0
VERTEX
  8
PLAN_1
 62
     2
  6
CONTINUOUS
 10
-0.268154
 20
3.589654
  0
VERTEX
  8
PLAN_1
 62
     2
  6
CONTINUOUS
 10
-0.265886
 20
3.590106
  0
VERTEX
  8
PLAN_1
 62
     2
  6
CONTINUOUS
 10
-0.263622
 20
3.591012
  0
VERTEX
  8
PLAN_1
 62
     2
  6
CONTINUOUS
 10
-0.261354
 20
3.592374
  0
VERTEX
  8
PLAN_1
 62
     2
  6
CONTINUOUS
 10
-0.259087
 20
3.594638
  0
VERTEX
  8
PLAN_1
 62
     2
  6
CONTINUOUS
 10
-0.257728
 20
3.597358
  0
VERTEX
  8
PLAN_1
 62
     2
  6
CONTINUOUS
 10
-0.256366
 20
3.601441
  0
VERTEX
  8
PLAN_1
 62
     2
  6
CONTINUOUS
 10
-0.255913
 20
3.605972
  0
SEQEND
  8
0
  0
POLYLINE
  8
PLAN_1
 62
     2
  6
CONTINUOUS
 66
     1
 40
0.004079
 41
0.004079
  0
VERTEX
  8
PLAN_1
 62
     2
  6
CONTINUOUS
 10
0.235512
 20
0.985185
  0
VERTEX
  8
PLAN_1
 62
     2
  6
CONTINUOUS
 10
0.235512
 20
3.342579
  0
SEQEND
  8
0
  0
SOLID
  8
PLAN_1
 62
     2
 10
0.235512
 20
3.372047
 11
0.219646
 21
3.313110
 12
0.235512
 22
3.372047
 13
0.251378
 23
3.313110
  0
POLYLINE
  8
PLAN_1
 62
     2
  6
CONTINUOUS
 66
     1
 40
0.003000
 41
0.003000
  0
VERTEX
  8
PLAN_1
 62
     2
  6
CONTINUOUS
 10
0.235512
 20
3.372047
  0
VERTEX
  8
PLAN_1
 62
     2
  6
CONTINUOUS
 10
0.219646
 20
3.313110
  0
VERTEX
  8
PLAN_1
 62
     2
  6
CONTINUOUS
 10
0.251378
 20
3.313110
  0
VERTEX
  8
PLAN_1
 62
     2
  6
CONTINUOUS
 10
0.235512
 20
3.372047
  0
SEQEND
  8
0
  0
SOLID
  8
PLAN_1
 62
     2
 10
0.235512
 20
0.955717
 11
0.219646
 21
1.014654
 12
0.235512
 22
0.955717
 13
0.251378
 23
1.014654
  0
POLYLINE
  8
PLAN_1
 62
     2
  6
CONTINUOUS
 66
     1
 40
0.003000
 41
0.003000
  0
VERTEX
  8
PLAN_1
 62
     2
  6
CONTINUOUS
 10
0.235512
 20
0.955717
  0
VERTEX
  8
PLAN_1
 62
     2
  6
CONTINUOUS
 10
0.219646
 20
1.014654
  0
VERTEX
  8
PLAN_1
 62
     2
  6
CONTINUOUS
 10
0.251378
 20
1.014654
  0
VERTEX
  8
PLAN_1
 62
     2
  6
CONTINUOUS
 10
0.235512
 20
0.955717
  0
SEQEND
  8
0
  0
POLYLINE
  8
PLAN_1
 62
     2
  6
CONTINUOUS
 66
     1
 40
0.003000
 41
0.003000
  0
VERTEX
  8
PLAN_1
 62
     2
  6
CONTINUOUS
 10
0.157992
 20
2.083642
  0
VERTEX
  8
PLAN_1
 62
     2
  6
CONTINUOUS
 10
0.155724
 20
2.083185
  0
VERTEX
  8
PLAN_1
 62
     2
  6
CONTINUOUS
 10
0.153457
 20
2.082280
  0
VERTEX
  8
PLAN_1
 62
     2
  6
CONTINUOUS
 10
0.151646
 20
2.081374
  0
VERTEX
  8
PLAN_1
 62
     2
  6
CONTINUOUS
 10
0.150283
 20
2.080012
  0
VERTEX
  8
PLAN_1
 62
     2
  6
CONTINUOUS
 10
0.148925
 20
2.078201
  0
VERTEX
  8
PLAN_1
 62
     2
  6
CONTINUOUS
 10
0.147563
 20
2.076386
  0
VERTEX
  8
PLAN_1
 62
     2
  6
CONTINUOUS
 10
0.147110
 20
2.074118
  0
VERTEX
  8
PLAN_1
 62
     2
  6
CONTINUOUS
 10
0.147110
 20
2.071402
  0
VERTEX
  8
PLAN_1
 62
     2
  6
CONTINUOUS
 10
0.147110
 20
2.068681
  0
VERTEX
  8
PLAN_1
 62
     2
  6
CONTINUOUS
 10
0.147563
 20
2.066413
  0
VERTEX
  8
PLAN_1
 62
     2
  6
CONTINUOUS
 10
0.148925
 20
2.064146
  0
VERTEX
  8
PLAN_1
 62
     2
  6
CONTINUOUS
 10
0.149831
 20
2.062335
  0
VERTEX
  8
PLAN_1
 62
     2
  6
CONTINUOUS
 10
0.151646
 20
2.060972
  0
VERTEX
  8
PLAN_1
 62
     2
  6
CONTINUOUS
 10
0.153457
 20
2.059614
  0
VERTEX
  8
PLAN_1
 62
     2
  6
CONTINUOUS
 10
0.155272
 20
2.058252
  0
VERTEX
  8
PLAN_1
 62
     2
  6
CONTINUOUS
 10
0.157535
 20
2.057346
  0
VERTEX
  8
PLAN_1
 62
     2
  6
CONTINUOUS
 10
0.162071
 20
2.055531
  0
VERTEX
  8
PLAN_1
 62
     2
  6
CONTINUOUS
 10
0.166602
 20
2.054626
  0
VERTEX
  8
PLAN_1
 62
     2
  6
CONTINUOUS
 10
0.170685
 20
2.054173
  0
VERTEX
  8
PLAN_1
 62
     2
  6
CONTINUOUS
 10
0.173858
 20
2.053720
  0
VERTEX
  8
PLAN_1
 62
     2
  6
CONTINUOUS
 10
0.174311
 20
2.054173
  0
VERTEX
  8
PLAN_1
 62
     2
  6
CONTINUOUS
 10
0.172496
 20
2.055079
  0
VERTEX
  8
PLAN_1
 62
     2
  6
CONTINUOUS
 10
0.171138
 20
2.056441
  0
VERTEX
  8
PLAN_1
 62
     2
  6
CONTINUOUS
 10
0.169780
 20
2.057799
  0
VERTEX
  8
PLAN_1
 62
     2
  6
CONTINUOUS
 10
0.167965
 20
2.060067
  0
VERTEX
  8
PLAN_1
 62
     2
  6
CONTINUOUS
 10
0.167059
 20
2.062335
  0
VERTEX
  8
PLAN_1
 62
     2
  6
CONTINUOUS
 10
0.166150
 20
2.064598
  0
VERTEX
  8
PLAN_1
 62
     2
  6
CONTINUOUS
 10
0.165244
 20
2.067772
  0
VERTEX
  8
PLAN_1
 62
     2
  6
CONTINUOUS
 10
0.165244
 20
2.071402
  0
VERTEX
  8
PLAN_1
 62
     2
  6
CONTINUOUS
 10
0.165244
 20
2.075028
  0
VERTEX
  8
PLAN_1
 62
     2
  6
CONTINUOUS
 10
0.166150
 20
2.078654
  0
VERTEX
  8
PLAN_1
 62
     2
  6
CONTINUOUS
 10
0.167965
 20
2.082732
  0
VERTEX
  8
PLAN_1
 62
     2
  6
CONTINUOUS
 10
0.170232
 20
2.086362
  0
VERTEX
  8
PLAN_1
 62
     2
  6
CONTINUOUS
 10
0.171591
 20
2.087720
  0
VERTEX
  8
PLAN_1
 62
     2
  6
CONTINUOUS
 10
0.173406
 20
2.089535
  0
VERTEX
  8
PLAN_1
 62
     2
  6
CONTINUOUS
 10
0.175217
 20
2.090894
  0
VERTEX
  8
PLAN_1
 62
     2
  6
CONTINUOUS
 10
0.177484
 20
2.091799
  0
VERTEX
  8
PLAN_1
 62
     2
  6
CONTINUOUS
 10
0.179752
 20
2.093161
  0
VERTEX
  8
PLAN_1
 62
     2
  6
CONTINUOUS
 10
0.182472
 20
2.093614
  0
VERTEX
  8
PLAN_1
 62
     2
  6
CONTINUOUS
 10
0.185193
 20
2.094067
  0
VERTEX
  8
PLAN_1
 62
     2
  6
CONTINUOUS
 10
0.188366
 20
2.094520
  0
VERTEX
  8
PLAN_1
 62
     2
  6
CONTINUOUS
 10
0.191087
 20
2.094067
  0
VERTEX
  8
PLAN_1
 62
     2
  6
CONTINUOUS
 10
0.193803
 20
2.094067
  0
VERTEX
  8
PLAN_1
 62
     2
  6
CONTINUOUS
 10
0.196071
 20
2.093614
  0
VERTEX
  8
PLAN_1
 62
     2
  6
CONTINUOUS
 10
0.198339
 20
2.092709
  0
VERTEX
  8
PLAN_1
 62
     2
  6
CONTINUOUS
 10
0.200606
 20
2.091799
  0
VERTEX
  8
PLAN_1
 62
     2
  6
CONTINUOUS
 10
0.202417
 20
2.090441
  0
VERTEX
  8
PLAN_1
 62
     2
  6
CONTINUOUS
 10
0.204685
 20
2.089079
  0
VERTEX
  8
PLAN_1
 62
     2
  6
CONTINUOUS
 10
0.206500
 20
2.087268
  0
VERTEX
  8
PLAN_1
 62
     2
  6
CONTINUOUS
 10
0.208311
 20
2.085906
  0
VERTEX
  8
PLAN_1
 62
     2
  6
CONTINUOUS
 10
0.209673
 20
2.084094
  0
VERTEX
  8
PLAN_1
 62
     2
  6
CONTINUOUS
 10
0.211031
 20
2.082280
  0
VERTEX
  8
PLAN_1
 62
     2
  6
CONTINUOUS
 10
0.211937
 20
2.080469
  0
VERTEX
  8
PLAN_1
 62
     2
  6
CONTINUOUS
 10
0.212846
 20
2.078201
  0
VERTEX
  8
PLAN_1
 62
     2
  6
CONTINUOUS
 10
0.213299
 20
2.075480
  0
VERTEX
  8
PLAN_1
 62
     2
  6
CONTINUOUS
 10
0.213752
 20
2.072307
  0
VERTEX
  8
PLAN_1
 62
     2
  6
CONTINUOUS
 10
0.213752
 20
2.068681
  0
VERTEX
  8
PLAN_1
 62
     2
  6
CONTINUOUS
 10
0.213752
 20
2.066413
  0
VERTEX
  8
PLAN_1
 62
     2
  6
CONTINUOUS
 10
0.213299
 20
2.064146
  0
VERTEX
  8
PLAN_1
 62
     2
  6
CONTINUOUS
 10
0.212394
 20
2.061878
  0
VERTEX
  8
PLAN_1
 62
     2
  6
CONTINUOUS
 10
0.211484
 20
2.059161
  0
VERTEX
  8
PLAN_1
 62
     2
  6
CONTINUOUS
 10
0.210126
 20
2.056894
  0
VERTEX
  8
PLAN_1
 62
     2
  6
CONTINUOUS
 10
0.208311
 20
2.054173
  0
VERTEX
  8
PLAN_1
 62
     2
  6
CONTINUOUS
 10
0.206047
 20
2.051906
  0
VERTEX
  8
PLAN_1
 62
     2
  6
CONTINUOUS
 10
0.203327
 20
2.050094
  0
VERTEX
  8
PLAN_1
 62
     2
  6
CONTINUOUS
 10
0.200606
 20
2.048280
  0
VERTEX
  8
PLAN_1
 62
     2
  6
CONTINUOUS
 10
0.197433
 20
2.047374
  0
VERTEX
  8
PLAN_1
 62
     2
  6
CONTINUOUS
 10
0.194713
 20
2.046465
  0
VERTEX
  8
PLAN_1
 62
     2
  6
CONTINUOUS
 10
0.191539
 20
2.045559
  0
VERTEX
  8
PLAN_1
 62
     2
  6
CONTINUOUS
 10
0.188366
 20
2.045106
  0
VERTEX
  8
PLAN_1
 62
     2
  6
CONTINUOUS
 10
0.184736
 20
2.044654
  0
VERTEX
  8
PLAN_1
 62
     2
  6
CONTINUOUS
 10
0.181110
 20
2.044654
  0
VERTEX
  8
PLAN_1
 62
     2
  6
CONTINUOUS
 10
0.177937
 20
2.044201
  0
VERTEX
  8
PLAN_1
 62
     2
  6
CONTINUOUS
 10
0.171591
 20
2.044654
  0
VERTEX
  8
PLAN_1
 62
     2
  6
CONTINUOUS
 10
0.164791
 20
2.045559
  0
VERTEX
  8
PLAN_1
 62
     2
  6
CONTINUOUS
 10
0.161618
 20
2.046465
  0
VERTEX
  8
PLAN_1
 62
     2
  6
CONTINUOUS
 10
0.158445
 20
2.047374
  0
VERTEX
  8
PLAN_1
 62
     2
  6
CONTINUOUS
 10
0.155272
 20
2.048280
  0
VERTEX
  8
PLAN_1
 62
     2
  6
CONTINUOUS
 10
0.152098
 20
2.049638
  0
VERTEX
  8
PLAN_1
 62
     2
  6
CONTINUOUS
 10
0.149378
 20
2.051453
  0
VERTEX
  8
PLAN_1
 62
     2
  6
CONTINUOUS
 10
0.146657
 20
2.053268
  0
VERTEX
  8
PLAN_1
 62
     2
  6
CONTINUOUS
 10
0.144390
 20
2.055531
  0
VERTEX
  8
PLAN_1
 62
     2
  6
CONTINUOUS
 10
0.142579
 20
2.057799
  0
VERTEX
  8
PLAN_1
 62
     2
  6
CONTINUOUS
 10
0.140764
 20
2.060972
  0
VERTEX
  8
PLAN_1
 62
     2
  6
CONTINUOUS
 10
0.139858
 20
2.064146
  0
VERTEX
  8
PLAN_1
 62
     2
  6
CONTINUOUS
 10
0.138949
 20
2.067319
  0
VERTEX
  8
PLAN_1
 62
     2
  6
CONTINUOUS
 10
0.138496
 20
2.071402
  0
VERTEX
  8
PLAN_1
 62
     2
  6
CONTINUOUS
 10
0.138949
 20
2.074575
  0
VERTEX
  8
PLAN_1
 62
     2
  6
CONTINUOUS
 10
0.139406
 20
2.078201
  0
VERTEX
  8
PLAN_1
 62
     2
  6
CONTINUOUS
 10
0.140764
 20
2.081827
  0
VERTEX
  8
PLAN_1
 62
     2
  6
CONTINUOUS
 10
0.143031
 20
2.085000
  0
VERTEX
  8
PLAN_1
 62
     2
  6
CONTINUOUS
 10
0.145295
 20
2.087720
  0
VERTEX
  8
PLAN_1
 62
     2
  6
CONTINUOUS
 10
0.148925
 20
2.089988
  0
VERTEX
  8
PLAN_1
 62
     2
  6
CONTINUOUS
 10
0.150736
 20
2.091346
  0
VERTEX
  8
PLAN_1
 62
     2
  6
CONTINUOUS
 10
0.153004
 20
2.091799
  0
VERTEX
  8
PLAN_1
 62
     2
  6
CONTINUOUS
 10
0.155272
 20
2.092252
  0
VERTEX
  8
PLAN_1
 62
     2
  6
CONTINUOUS
 10
0.157992
 20
2.092709
  0
VERTEX
  8
PLAN_1
 62
     2
  6
CONTINUOUS
 10
0.157992
 20
2.083642
  0
SEQEND
  8
0
  0
POLYLINE
  8
PLAN_1
 62
     2
  6
CONTINUOUS
 66
     1
 40
0.003000
 41
0.003000
  0
VERTEX
  8
PLAN_1
 62
     2
  6
CONTINUOUS
 10
0.205591
 20
2.070492
  0
VERTEX
  8
PLAN_1
 62
     2
  6
CONTINUOUS
 10
0.205138
 20
2.073665
  0
VERTEX
  8
PLAN_1
 62
     2
  6
CONTINUOUS
 10
0.204232
 20
2.076386
  0
VERTEX
  8
PLAN_1
 62
     2
  6
CONTINUOUS
 10
0.202870
 20
2.078654
  0
VERTEX
  8
PLAN_1
 62
     2
  6
CONTINUOUS
 10
0.201059
 20
2.080921
  0
VERTEX
  8
PLAN_1
 62
     2
  6
CONTINUOUS
 10
0.198339
 20
2.082732
  0
VERTEX
  8
PLAN_1
 62
     2
  6
CONTINUOUS
 10
0.195618
 20
2.083642
  0
VERTEX
  8
PLAN_1
 62
     2
  6
CONTINUOUS
 10
0.192445
 20
2.084547
  0
VERTEX
  8
PLAN_1
 62
     2
  6
CONTINUOUS
 10
0.188819
 20
2.085000
  0
VERTEX
  8
PLAN_1
 62
     2
  6
CONTINUOUS
 10
0.186098
 20
2.084547
  0
VERTEX
  8
PLAN_1
 62
     2
  6
CONTINUOUS
 10
0.183831
 20
2.084094
  0
VERTEX
  8
PLAN_1
 62
     2
  6
CONTINUOUS
 10
0.181110
 20
2.083185
  0
VERTEX
  8
PLAN_1
 62
     2
  6
CONTINUOUS
 10
0.178846
 20
2.081827
  0
VERTEX
  8
PLAN_1
 62
     2
  6
CONTINUOUS
 10
0.176579
 20
2.079559
  0
VERTEX
  8
PLAN_1
 62
     2
  6
CONTINUOUS
 10
0.174764
 20
2.077295
  0
VERTEX
  8
PLAN_1
 62
     2
  6
CONTINUOUS
 10
0.173858
 20
2.074118
  0
VERTEX
  8
PLAN_1
 62
     2
  6
CONTINUOUS
 10
0.173406
 20
2.070039
  0
VERTEX
  8
PLAN_1
 62
     2
  6
CONTINUOUS
 10
0.173858
 20
2.066413
  0
VERTEX
  8
PLAN_1
 62
     2
  6
CONTINUOUS
 10
0.174764
 20
2.063693
  0
VERTEX
  8
PLAN_1
 62
     2
  6
CONTINUOUS
 10
0.176126
 20
2.060972
  0
VERTEX
  8
PLAN_1
 62
     2
  6
CONTINUOUS
 10
0.177937
 20
2.058705
  0
VERTEX
  8
PLAN_1
 62
     2
  6
CONTINUOUS
 10
0.180657
 20
2.057346
  0
VERTEX
  8
PLAN_1
 62
     2
  6
CONTINUOUS
 10
0.183378
 20
2.055988
  0
VERTEX
  8
PLAN_1
 62
     2
  6
CONTINUOUS
 10
0.186098
 20
2.055531
  0
VERTEX
  8
PLAN_1
 62
     2
  6
CONTINUOUS
 10
0.189272
 20
2.055079
  0
VERTEX
  8
PLAN_1
 62
     2
  6
CONTINUOUS
 10
0.192445
 20
2.055531
  0
VERTEX
  8
PLAN_1
 62
     2
  6
CONTINUOUS
 10
0.195165
 20
2.055988
  0
VERTEX
  8
PLAN_1
 62
     2
  6
CONTINUOUS
 10
0.197886
 20
2.057346
  0
VERTEX
  8
PLAN_1
 62
     2
  6
CONTINUOUS
 10
0.200154
 20
2.058705
  0
VERTEX
  8
PLAN_1
 62
     2
  6
CONTINUOUS
 10
0.202417
 20
2.060972
  0
VERTEX
  8
PLAN_1
 62
     2
  6
CONTINUOUS
 10
0.204232
 20
2.063693
  0
VERTEX
  8
PLAN_1
 62
     2
  6
CONTINUOUS
 10
0.205138
 20
2.066866
  0
VERTEX
  8
PLAN_1
 62
     2
  6
CONTINUOUS
 10
0.205591
 20
2.070492
  0
SEQEND
  8
0
  0
POLYLINE
  8
PLAN_1
 62
     2
  6
CONTINUOUS
 66
     1
 40
0.003000
 41
0.003000
  0
VERTEX
  8
PLAN_1
 62
     2
  6
CONTINUOUS
 10
0.211937
 20
2.135776
  0
VERTEX
  8
PLAN_1
 62
     2
  6
CONTINUOUS
 10
0.211937
 20
2.125803
  0
VERTEX
  8
PLAN_1
 62
     2
  6
CONTINUOUS
 10
0.159803
 20
2.125803
  0
VERTEX
  8
PLAN_1
 62
     2
  6
CONTINUOUS
 10
0.159803
 20
2.109028
  0
VERTEX
  8
PLAN_1
 62
     2
  6
CONTINUOUS
 10
0.152551
 20
2.109028
  0
VERTEX
  8
PLAN_1
 62
     2
  6
CONTINUOUS
 10
0.152098
 20
2.113106
  0
VERTEX
  8
PLAN_1
 62
     2
  6
CONTINUOUS
 10
0.151646
 20
2.116280
  0
VERTEX
  8
PLAN_1
 62
     2
  6
CONTINUOUS
 10
0.151189
 20
2.119453
  0
VERTEX
  8
PLAN_1
 62
     2
  6
CONTINUOUS
 10
0.149831
 20
2.122173
  0
VERTEX
  8
PLAN_1
 62
     2
  6
CONTINUOUS
 10
0.148016
 20
2.123988
  0
VERTEX
  8
PLAN_1
 62
     2
  6
CONTINUOUS
 10
0.145752
 20
2.125803
  0
VERTEX
  8
PLAN_1
 62
     2
  6
CONTINUOUS
 10
0.142579
 20
2.127161
  0
VERTEX
  8
PLAN_1
 62
     2
  6
CONTINUOUS
 10
0.138496
 20
2.128520
  0
VERTEX
  8
PLAN_1
 62
     2
  6
CONTINUOUS
 10
0.138496
 20
2.135776
  0
VERTEX
  8
PLAN_1
 62
     2
  6
CONTINUOUS
 10
0.211937
 20
2.135776
  0
SEQEND
  8
0
  0
SOLID
  8
PLAN_1
 62
     2
 10
-1.571520
 20
3.258256
 11
-1.602346
 21
3.311299
 12
-1.571520
 22
3.258256
 13
-1.624563
 23
3.289083
  0
POLYLINE
  8
PLAN_1
 62
     2
  6
CONTINUOUS
 66
     1
 40
0.003000
 41
0.003000
  0
VERTEX
  8
PLAN_1
 62
     2
  6
CONTINUOUS
 10
-1.571520
 20
3.258256
  0
VERTEX
  8
PLAN_1
 62
     2
  6
CONTINUOUS
 10
-1.602346
 20
3.311299
  0
VERTEX
  8
PLAN_1
 62
     2
  6
CONTINUOUS
 10
-1.624563
 20
3.289083
  0
VERTEX
  8
PLAN_1
 62
     2
  6
CONTINUOUS
 10
-1.571520
 20
3.258256
  0
SEQEND
  8
0
  0
POLYLINE
  8
PLAN_1
 62
     2
  6
CONTINUOUS
 66
     1
 40
0.004079
 41
0.004079
  0
VERTEX
  8
PLAN_1
 62
     2
  6
CONTINUOUS
 10
-1.597815
 20
3.284551
  0
VERTEX
  8
PLAN_1
 62
     2
  6
CONTINUOUS
 10
-1.727472
 20
3.409220
  0
VERTEX
  8
PLAN_1
 62
     2
  6
CONTINUOUS
 10
-2.015799
 20
3.409220
  0
SEQEND
  8
0
  0
POLYLINE
  8
PLAN_1
 62
     2
  6
CONTINUOUS
 66
     1
 40
0.003000
 41
0.003000
  0
VERTEX
  8
PLAN_1
 62
     2
  6
CONTINUOUS
 10
-1.921051
 20
3.497169
  0
VERTEX
  8
PLAN_1
 62
     2
  6
CONTINUOUS
 10
-1.918783
 20
3.493996
  0
VERTEX
  8
PLAN_1
 62
     2
  6
CONTINUOUS
 10
-1.916969
 20
3.490823
  0
VERTEX
  8
PLAN_1
 62
     2
  6
CONTINUOUS
 10
-1.915610
 20
3.487197
  0
VERTEX
  8
PLAN_1
 62
     2
  6
CONTINUOUS
 10
-1.914248
 20
3.483571
  0
VERTEX
  8
PLAN_1
 62
     2
  6
CONTINUOUS
 10
-1.913343
 20
3.480398
  0
VERTEX
  8
PLAN_1
 62
     2
  6
CONTINUOUS
 10
-1.912890
 20
3.476768
  0
VERTEX
  8
PLAN_1
 62
     2
  6
CONTINUOUS
 10
-1.912437
 20
3.473594
  0
VERTEX
  8
PLAN_1
 62
     2
  6
CONTINUOUS
 10
-1.912437
 20
3.470421
  0
VERTEX
  8
PLAN_1
 62
     2
  6
CONTINUOUS
 10
-1.912890
 20
3.464075
  0
VERTEX
  8
PLAN_1
 62
     2
  6
CONTINUOUS
 10
-1.914248
 20
3.457276
  0
VERTEX
  8
PLAN_1
 62
     2
  6
CONTINUOUS
 10
-1.915157
 20
3.454102
  0
VERTEX
  8
PLAN_1
 62
     2
  6
CONTINUOUS
 10
-1.916516
 20
3.450929
  0
VERTEX
  8
PLAN_1
 62
     2
  6
CONTINUOUS
 10
-1.918331
 20
3.447756
  0
VERTEX
  8
PLAN_1
 62
     2
  6
CONTINUOUS
 10
-1.920142
 20
3.444583
  0
VERTEX
  8
PLAN_1
 62
     2
  6
CONTINUOUS
 10
-1.922409
 20
3.441862
  0
VERTEX
  8
PLAN_1
 62
     2
  6
CONTINUOUS
 10
-1.925130
 20
3.439142
  0
VERTEX
  8
PLAN_1
 62
     2
  6
CONTINUOUS
 10
-1.927850
 20
3.436874
  0
VERTEX
  8
PLAN_1
 62
     2
  6
CONTINUOUS
 10
-1.931476
 20
3.434610
  0
VERTEX
  8
PLAN_1
 62
     2
  6
CONTINUOUS
 10
-1.935102
 20
3.433248
  0
VERTEX
  8
PLAN_1
 62
     2
  6
CONTINUOUS
 10
-1.939185
 20
3.431890
  0
VERTEX
  8
PLAN_1
 62
     2
  6
CONTINUOUS
 10
-1.943717
 20
3.430980
  0
VERTEX
  8
PLAN_1
 62
     2
  6
CONTINUOUS
 10
-1.948705
 20
3.430980
  0
VERTEX
  8
PLAN_1
 62
     2
  6
CONTINUOUS
 10
-1.952783
 20
3.430980
  0
VERTEX
  8
PLAN_1
 62
     2
  6
CONTINUOUS
 10
-1.956409
 20
3.431433
  0
VERTEX
  8
PLAN_1
 62
     2
  6
CONTINUOUS
 10
-1.960035
 20
3.432343
  0
VERTEX
  8
PLAN_1
 62
     2
  6
CONTINUOUS
 10
-1.963209
 20
3.433248
  0
VERTEX
  8
PLAN_1
 62
     2
  6
CONTINUOUS
 10
-1.965929
 20
3.434610
  0
VERTEX
  8
PLAN_1
 62
     2
  6
CONTINUOUS
 10
-1.968650
 20
3.436421
  0
VERTEX
  8
PLAN_1
 62
     2
  6
CONTINUOUS
 10
-1.971370
 20
3.438236
  0
VERTEX
  8
PLAN_1
 62
     2
  6
CONTINUOUS
 10
-1.973185
 20
3.440047
  0
VERTEX
  8
PLAN_1
 62
     2
  6
CONTINUOUS
 10
-1.981799
 20
3.430980
  0
VERTEX
  8
PLAN_1
 62
     2
  6
CONTINUOUS
 10
-1.984972
 20
3.433701
  0
VERTEX
  8
PLAN_1
 62
     2
  6
CONTINUOUS
 10
-1.976358
 20
3.443220
  0
VERTEX
  8
PLAN_1
 62
     2
  6
CONTINUOUS
 10
-1.978626
 20
3.446394
  0
VERTEX
  8
PLAN_1
 62
     2
  6
CONTINUOUS
 10
-1.980437
 20
3.449567
  0
VERTEX
  8
PLAN_1
 62
     2
  6
CONTINUOUS
 10
-1.981799
 20
3.453197
  0
VERTEX
  8
PLAN_1
 62
     2
  6
CONTINUOUS
 10
-1.983157
 20
3.456370
  0
VERTEX
  8
PLAN_1
 62
     2
  6
CONTINUOUS
 10
-1.984063
 20
3.459996
  0
VERTEX
  8
PLAN_1
 62
     2
  6
CONTINUOUS
 10
-1.984972
 20
3.463622
  0
VERTEX
  8
PLAN_1
 62
     2
  6
CONTINUOUS
 10
-1.984972
 20
3.466795
  0
VERTEX
  8
PLAN_1
 62
     2
  6
CONTINUOUS
 10
-1.985425
 20
3.470421
  0
VERTEX
  8
PLAN_1
 62
     2
  6
CONTINUOUS
 10
-1.984972
 20
3.476768
  0
VERTEX
  8
PLAN_1
 62
     2
  6
CONTINUOUS
 10
-1.983610
 20
3.483118
  0
VERTEX
  8
PLAN_1
 62
     2
  6
CONTINUOUS
 10
-1.982252
 20
3.486291
  0
VERTEX
  8
PLAN_1
 62
     2
  6
CONTINUOUS
 10
-1.980890
 20
3.489917
  0
VERTEX
  8
PLAN_1
 62
     2
  6
CONTINUOUS
 10
-1.979531
 20
3.493091
  0
VERTEX
  8
PLAN_1
 62
     2
  6
CONTINUOUS
 10
-1.977264
 20
3.495811
  0
VERTEX
  8
PLAN_1
 62
     2
  6
CONTINUOUS
 10
-1.974996
 20
3.498984
  0
VERTEX
  8
PLAN_1
 62
     2
  6
CONTINUOUS
 10
-1.972732
 20
3.501252
  0
VERTEX
  8
PLAN_1
 62
     2
  6
CONTINUOUS
 10
-1.969559
 20
3.503516
  0
VERTEX
  8
PLAN_1
 62
     2
  6
CONTINUOUS
 10
-1.966382
 20
3.505783
  0
VERTEX
  8
PLAN_1
 62
     2
  6
CONTINUOUS
 10
-1.962756
 20
3.507142
  0
VERTEX
  8
PLAN_1
 62
     2
  6
CONTINUOUS
 10
-1.958224
 20
3.508504
  0
VERTEX
  8
PLAN_1
 62
     2
  6
CONTINUOUS
 10
-1.953689
 20
3.509409
  0
VERTEX
  8
PLAN_1
 62
     2
  6
CONTINUOUS
 10
-1.948705
 20
3.509409
  0
VERTEX
  8
PLAN_1
 62
     2
  6
CONTINUOUS
 10
-1.944622
 20
3.509409
  0
VERTEX
  8
PLAN_1
 62
     2
  6
CONTINUOUS
 10
-1.940996
 20
3.508957
  0
VERTEX
  8
PLAN_1
 62
     2
  6
CONTINUOUS
 10
-1.937370
 20
3.508051
  0
VERTEX
  8
PLAN_1
 62
     2
  6
CONTINUOUS
 10
-1.934197
 20
3.507142
  0
VERTEX
  8
PLAN_1
 62
     2
  6
CONTINUOUS
 10
-1.931476
 20
3.505783
  0
VERTEX
  8
PLAN_1
 62
     2
  6
CONTINUOUS
 10
-1.928756
 20
3.503969
  0
VERTEX
  8
PLAN_1
 62
     2
  6
CONTINUOUS
 10
-1.926035
 20
3.502157
  0
VERTEX
  8
PLAN_1
 62
     2
  6
CONTINUOUS
 10
-1.923768
 20
3.500343
  0
VERTEX
  8
PLAN_1
 62
     2
  6
CONTINUOUS
 10
-1.915610
 20
3.509409
  0
VERTEX
  8
PLAN_1
 62
     2
  6
CONTINUOUS
 10
-1.912437
 20
3.506689
  0
VERTEX
  8
PLAN_1
 62
     2
  6
CONTINUOUS
 10
-1.921051
 20
3.497169
  0
SEQEND
  8
0
  0
POLYLINE
  8
PLAN_1
 62
     2
  6
CONTINUOUS
 66
     1
 40
0.003000
 41
0.003000
  0
VERTEX
  8
PLAN_1
 62
     2
  6
CONTINUOUS
 10
-1.966839
 20
3.447303
  0
VERTEX
  8
PLAN_1
 62
     2
  6
CONTINUOUS
 10
-1.965024
 20
3.445488
  0
VERTEX
  8
PLAN_1
 62
     2
  6
CONTINUOUS
 10
-1.963209
 20
3.444130
  0
VERTEX
  8
PLAN_1
 62
     2
  6
CONTINUOUS
 10
-1.960945
 20
3.442768
  0
VERTEX
  8
PLAN_1
 62
     2
  6
CONTINUOUS
 10
-1.959130
 20
3.441862
  0
VERTEX
  8
PLAN_1
 62
     2
  6
CONTINUOUS
 10
-1.956409
 20
3.440957
  0
VERTEX
  8
PLAN_1
 62
     2
  6
CONTINUOUS
 10
-1.954142
 20
3.440500
  0
VERTEX
  8
PLAN_1
 62
     2
  6
CONTINUOUS
 10
-1.951425
 20
3.440047
  0
VERTEX
  8
PLAN_1
 62
     2
  6
CONTINUOUS
 10
-1.948705
 20
3.440047
  0
VERTEX
  8
PLAN_1
 62
     2
  6
CONTINUOUS
 10
-1.945984
 20
3.440047
  0
VERTEX
  8
PLAN_1
 62
     2
  6
CONTINUOUS
 10
-1.943264
 20
3.440500
  0
VERTEX
  8
PLAN_1
 62
     2
  6
CONTINUOUS
 10
-1.940543
 20
3.440957
  0
VERTEX
  8
PLAN_1
 62
     2
  6
CONTINUOUS
 10
-1.937823
 20
3.442315
  0
VERTEX
  8
PLAN_1
 62
     2
  6
CONTINUOUS
 10
-1.935555
 20
3.443220
  0
VERTEX
  8
PLAN_1
 62
     2
  6
CONTINUOUS
 10
-1.933291
 20
3.445035
  0
VERTEX
  8
PLAN_1
 62
     2
  6
CONTINUOUS
 10
-1.931476
 20
3.446394
  0
VERTEX
  8
PLAN_1
 62
     2
  6
CONTINUOUS
 10
-1.929661
 20
3.448661
  0
VERTEX
  8
PLAN_1
 62
     2
  6
CONTINUOUS
 10
-1.928303
 20
3.450476
  0
VERTEX
  8
PLAN_1
 62
     2
  6
CONTINUOUS
 10
-1.926941
 20
3.452740
  0
VERTEX
  8
PLAN_1
 62
     2
  6
CONTINUOUS
 10
-1.925583
 20
3.455461
  0
VERTEX
  8
PLAN_1
 62
     2
  6
CONTINUOUS
 10
-1.924677
 20
3.458181
  0
VERTEX
  8
PLAN_1
 62
     2
  6
CONTINUOUS
 10
-1.923768
 20
3.460902
  0
VERTEX
  8
PLAN_1
 62
     2
  6
CONTINUOUS
 10
-1.923315
 20
3.464075
  0
VERTEX
  8
PLAN_1
 62
     2
  6
CONTINUOUS
 10
-1.922862
 20
3.466795
  0
VERTEX
  8
PLAN_1
 62
     2
  6
CONTINUOUS
 10
-1.922862
 20
3.470421
  0
VERTEX
  8
PLAN_1
 62
     2
  6
CONTINUOUS
 10
-1.922862
 20
3.473142
  0
VERTEX
  8
PLAN_1
 62
     2
  6
CONTINUOUS
 10
-1.923315
 20
3.475862
  0
VERTEX
  8
PLAN_1
 62
     2
  6
CONTINUOUS
 10
-1.923315
 20
3.478130
  0
VERTEX
  8
PLAN_1
 62
     2
  6
CONTINUOUS
 10
-1.924224
 20
3.480850
  0
VERTEX
  8
PLAN_1
 62
     2
  6
CONTINUOUS
 10
-1.924677
 20
3.483118
  0
VERTEX
  8
PLAN_1
 62
     2
  6
CONTINUOUS
 10
-1.925583
 20
3.485382
  0
VERTEX
  8
PLAN_1
 62
     2
  6
CONTINUOUS
 10
-1.926941
 20
3.487650
  0
VERTEX
  8
PLAN_1
 62
     2
  6
CONTINUOUS
 10
-1.927850
 20
3.489465
  0
VERTEX
  8
PLAN_1
 62
     2
  6
CONTINUOUS
 10
-1.966839
 20
3.447303
  0
SEQEND
  8
0
  0
POLYLINE
  8
PLAN_1
 62
     2
  6
CONTINUOUS
 66
     1
 40
0.003000
 41
0.003000
  0
VERTEX
  8
PLAN_1
 62
     2
  6
CONTINUOUS
 10
-1.930571
 20
3.493091
  0
VERTEX
  8
PLAN_1
 62
     2
  6
CONTINUOUS
 10
-1.932382
 20
3.494902
  0
VERTEX
  8
PLAN_1
 62
     2
  6
CONTINUOUS
 10
-1.934197
 20
3.496264
  0
VERTEX
  8
PLAN_1
 62
     2
  6
CONTINUOUS
 10
-1.936465
 20
3.497622
  0
VERTEX
  8
PLAN_1
 62
     2
  6
CONTINUOUS
 10
-1.938728
 20
3.498531
  0
VERTEX
  8
PLAN_1
 62
     2
  6
CONTINUOUS
 10
-1.940996
 20
3.499437
  0
VERTEX
  8
PLAN_1
 62
     2
  6
CONTINUOUS
 10
-1.943264
 20
3.500343
  0
VERTEX
  8
PLAN_1
 62
     2
  6
CONTINUOUS
 10
-1.945984
 20
3.500343
  0
VERTEX
  8
PLAN_1
 62
     2
  6
CONTINUOUS
 10
-1.948705
 20
3.500795
  0
VERTEX
  8
PLAN_1
 62
     2
  6
CONTINUOUS
 10
-1.951878
 20
3.500343
  0
VERTEX
  8
PLAN_1
 62
     2
  6
CONTINUOUS
 10
-1.954598
 20
3.499890
  0
VERTEX
  8
PLAN_1
 62
     2
  6
CONTINUOUS
 10
-1.957315
 20
3.499437
  0
VERTEX
  8
PLAN_1
 62
     2
  6
CONTINUOUS
 10
-1.959583
 20
3.498531
  0
VERTEX
  8
PLAN_1
 62
     2
  6
CONTINUOUS
 10
-1.961850
 20
3.497169
  0
VERTEX
  8
PLAN_1
 62
     2
  6
CONTINUOUS
 10
-1.964118
 20
3.495811
  0
VERTEX
  8
PLAN_1
 62
     2
  6
CONTINUOUS
 10
-1.965929
 20
3.493996
  0
VERTEX
  8
PLAN_1
 62
     2
  6
CONTINUOUS
 10
-1.967744
 20
3.492185
  0
VERTEX
  8
PLAN_1
 62
     2
  6
CONTINUOUS
 10
-1.969559
 20
3.489917
  0
VERTEX
  8
PLAN_1
 62
     2
  6
CONTINUOUS
 10
-1.970917
 20
3.487650
  0
VERTEX
  8
PLAN_1
 62
     2
  6
CONTINUOUS
 10
-1.972276
 20
3.484929
  0
VERTEX
  8
PLAN_1
 62
     2
  6
CONTINUOUS
 10
-1.973185
 20
3.482209
  0
VERTEX
  8
PLAN_1
 62
     2
  6
CONTINUOUS
 10
-1.973638
 20
3.479488
  0
VERTEX
  8
PLAN_1
 62
     2
  6
CONTINUOUS
 10
-1.974543
 20
3.476768
  0
VERTEX
  8
PLAN_1
 62
     2
  6
CONTINUOUS
 10
-1.974543
 20
3.473594
  0
VERTEX
  8
PLAN_1
 62
     2
  6
CONTINUOUS
 10
-1.974996
 20
3.470421
  0
VERTEX
  8
PLAN_1
 62
     2
  6
CONTINUOUS
 10
-1.974543
 20
3.467248
  0
VERTEX
  8
PLAN_1
 62
     2
  6
CONTINUOUS
 10
-1.974543
 20
3.464528
  0
VERTEX
  8
PLAN_1
 62
     2
  6
CONTINUOUS
 10
-1.974091
 20
3.462264
  0
VERTEX
  8
PLAN_1
 62
     2
  6
CONTINUOUS
 10
-1.973638
 20
3.459543
  0
VERTEX
  8
PLAN_1
 62
     2
  6
CONTINUOUS
 10
-1.972732
 20
3.457276
  0
VERTEX
  8
PLAN_1
 62
     2
  6
CONTINUOUS
 10
-1.971823
 20
3.455008
  0
VERTEX
  8
PLAN_1
 62
     2
  6
CONTINUOUS
 10
-1.970917
 20
3.452740
  0
VERTEX
  8
PLAN_1
 62
     2
  6
CONTINUOUS
 10
-1.969559
 20
3.450929
  0
VERTEX
  8
PLAN_1
 62
     2
  6
CONTINUOUS
 10
-1.930571
 20
3.493091
  0
SEQEND
  8
0
  0
POLYLINE
  8
PLAN_1
 62
     2
  6
CONTINUOUS
 66
     1
 40
0.003000
 41
0.003000
  0
VERTEX
  8
PLAN_1
 62
     2
  6
CONTINUOUS
 10
-1.903823
 20
3.479941
  0
VERTEX
  8
PLAN_1
 62
     2
  6
CONTINUOUS
 10
-1.903370
 20
3.484024
  0
VERTEX
  8
PLAN_1
 62
     2
  6
CONTINUOUS
 10
-1.902917
 20
3.487650
  0
VERTEX
  8
PLAN_1
 62
     2
  6
CONTINUOUS
 10
-1.902008
 20
3.491276
  0
VERTEX
  8
PLAN_1
 62
     2
  6
CONTINUOUS
 10
-1.900650
 20
3.493996
  0
VERTEX
  8
PLAN_1
 62
     2
  6
CONTINUOUS
 10
-1.899287
 20
3.496264
  0
VERTEX
  8
PLAN_1
 62
     2
  6
CONTINUOUS
 10
-1.897929
 20
3.498531
  0
VERTEX
  8
PLAN_1
 62
     2
  6
CONTINUOUS
 10
-1.896114
 20
3.500343
  0
VERTEX
  8
PLAN_1
 62
     2
  6
CONTINUOUS
 10
-1.893850
 20
3.501705
  0
VERTEX
  8
PLAN_1
 62
     2
  6
CONTINUOUS
 10
-1.889768
 20
3.503969
  0
VERTEX
  8
PLAN_1
 62
     2
  6
CONTINUOUS
 10
-1.885689
 20
3.505331
  0
VERTEX
  8
PLAN_1
 62
     2
  6
CONTINUOUS
 10
-1.881610
 20
3.505783
  0
VERTEX
  8
PLAN_1
 62
     2
  6
CONTINUOUS
 10
-1.878433
 20
3.506236
  0
VERTEX
  8
PLAN_1
 62
     2
  6
CONTINUOUS
 10
-1.873902
 20
3.505783
  0
VERTEX
  8
PLAN_1
 62
     2
  6
CONTINUOUS
 10
-1.869366
 20
3.504425
  0
VERTEX
  8
PLAN_1
 62
     2
  6
CONTINUOUS
 10
-1.865740
 20
3.502610
  0
VERTEX
  8
PLAN_1
 62
     2
  6
CONTINUOUS
 10
-1.862114
 20
3.500343
  0
VERTEX
  8
PLAN_1
 62
     2
  6
CONTINUOUS
 10
-1.859394
 20
3.497169
  0
VERTEX
  8
PLAN_1
 62
     2
  6
CONTINUOUS
 10
-1.857126
 20
3.493543
  0
VERTEX
  8
PLAN_1
 62
     2
  6
CONTINUOUS
 10
-1.856673
 20
3.491276
  0
VERTEX
  8
PLAN_1
 62
     2
  6
CONTINUOUS
 10
-1.856220
 20
3.489008
  0
VERTEX
  8
PLAN_1
 62
     2
  6
CONTINUOUS
 10
-1.855768
 20
3.486744
  0
VERTEX
  8
PLAN_1
 62
     2
  6
CONTINUOUS
 10
-1.855315
 20
3.484024
  0
VERTEX
  8
PLAN_1
 62
     2
  6
CONTINUOUS
 10
-1.855768
 20
3.479488
  0
VERTEX
  8
PLAN_1
 62
     2
  6
CONTINUOUS
 10
-1.857126
 20
3.475862
  0
VERTEX
  8
PLAN_1
 62
     2
  6
CONTINUOUS
 10
-1.858941
 20
3.472236
  0
VERTEX
  8
PLAN_1
 62
     2
  6
CONTINUOUS
 10
-1.861209
 20
3.469063
  0
VERTEX
  8
PLAN_1
 62
     2
  6
CONTINUOUS
 10
-1.863929
 20
3.466795
  0
VERTEX
  8
PLAN_1
 62
     2
  6
CONTINUOUS
 10
-1.867555
 20
3.464075
  0
VERTEX
  8
PLAN_1
 62
     2
  6
CONTINUOUS
 10
-1.871181
 20
3.461807
  0
VERTEX
  8
PLAN_1
 62
     2
  6
CONTINUOUS
 10
-1.875260
 20
3.459543
  0
VERTEX
  8
PLAN_1
 62
     2
  6
CONTINUOUS
 10
-1.882516
 20
3.455461
  0
VERTEX
  8
PLAN_1
 62
     2
  6
CONTINUOUS
 10
-1.886142
 20
3.453650
  0
VERTEX
  8
PLAN_1
 62
     2
  6
CONTINUOUS
 10
-1.888862
 20
3.451382
  0
VERTEX
  8
PLAN_1
 62
     2
  6
CONTINUOUS
 10
-1.891130
 20
3.449567
  0
VERTEX
  8
PLAN_1
 62
     2
  6
CONTINUOUS
 10
-1.892488
 20
3.447756
  0
VERTEX
  8
PLAN_1
 62
     2
  6
CONTINUOUS
 10
-1.893850
 20
3.445941
  0
VERTEX
  8
PLAN_1
 62
     2
  6
CONTINUOUS
 10
-1.894756
 20
3.444130
  0
VERTEX
  8
PLAN_1
 62
     2
  6
CONTINUOUS
 10
-1.895209
 20
3.442768
  0
VERTEX
  8
PLAN_1
 62
     2
  6
CONTINUOUS
 10
-1.895209
 20
3.441409
  0
VERTEX
  8
PLAN_1
 62
     2
  6
CONTINUOUS
 10
-1.855315
 20
3.441409
  0
VERTEX
  8
PLAN_1
 62
     2
  6
CONTINUOUS
 10
-1.855315
 20
3.432795
  0
VERTEX
  8
PLAN_1
 62
     2
  6
CONTINUOUS
 10
-1.905634
 20
3.432795
  0
VERTEX
  8
PLAN_1
 62
     2
  6
CONTINUOUS
 10
-1.905181
 20
3.438236
  0
VERTEX
  8
PLAN_1
 62
     2
  6
CONTINUOUS
 10
-1.904276
 20
3.443220
  0
VERTEX
  8
PLAN_1
 62
     2
  6
CONTINUOUS
 10
-1.902461
 20
3.447303
  0
VERTEX
  8
PLAN_1
 62
     2
  6
CONTINUOUS
 10
-1.900650
 20
3.450929
  0
VERTEX
  8
PLAN_1
 62
     2
  6
CONTINUOUS
 10
-1.897929
 20
3.454102
  0
VERTEX
  8
PLAN_1
 62
     2
  6
CONTINUOUS
 10
-1.895209
 20
3.457276
  0
VERTEX
  8
PLAN_1
 62
     2
  6
CONTINUOUS
 10
-1.892035
 20
3.459543
  0
VERTEX
  8
PLAN_1
 62
     2
  6
CONTINUOUS
 10
-1.888409
 20
3.461807
  0
VERTEX
  8
PLAN_1
 62
     2
  6
CONTINUOUS
 10
-1.878890
 20
3.467701
  0
VERTEX
  8
PLAN_1
 62
     2
  6
CONTINUOUS
 10
-1.875717
 20
3.469063
  0
VERTEX
  8
PLAN_1
 62
     2
  6
CONTINUOUS
 10
-1.873449
 20
3.470874
  0
VERTEX
  8
PLAN_1
 62
     2
  6
CONTINUOUS
 10
-1.871181
 20
3.472236
  0
VERTEX
  8
PLAN_1
 62
     2
  6
CONTINUOUS
 10
-1.868913
 20
3.474051
  0
VERTEX
  8
PLAN_1
 62
     2
  6
CONTINUOUS
 10
-1.867555
 20
3.476315
  0
VERTEX
  8
PLAN_1
 62
     2
  6
CONTINUOUS
 10
-1.866193
 20
3.478583
  0
VERTEX
  8
PLAN_1
 62
     2
  6
CONTINUOUS
 10
-1.865740
 20
3.481303
  0
VERTEX
  8
PLAN_1
 62
     2
  6
CONTINUOUS
 10
-1.865287
 20
3.484476
  0
VERTEX
  8
PLAN_1
 62
     2
  6
CONTINUOUS
 10
-1.865287
 20
3.486744
  0
VERTEX
  8
PLAN_1
 62
     2
  6
CONTINUOUS
 10
-1.866193
 20
3.489008
  0
VERTEX
  8
PLAN_1
 62
     2
  6
CONTINUOUS
 10
-1.867102
 20
3.491276
  0
VERTEX
  8
PLAN_1
 62
     2
  6
CONTINUOUS
 10
-1.868461
 20
3.493543
  0
VERTEX
  8
PLAN_1
 62
     2
  6
CONTINUOUS
 10
-1.870276
 20
3.495358
  0
VERTEX
  8
PLAN_1
 62
     2
  6
CONTINUOUS
 10
-1.872996
 20
3.496717
  0
VERTEX
  8
PLAN_1
 62
     2
  6
CONTINUOUS
 10
-1.876169
 20
3.497622
  0
VERTEX
  8
PLAN_1
 62
     2
  6
CONTINUOUS
 10
-1.879795
 20
3.497622
  0
VERTEX
  8
PLAN_1
 62
     2
  6
CONTINUOUS
 10
-1.882063
 20
3.497622
  0
VERTEX
  8
PLAN_1
 62
     2
  6
CONTINUOUS
 10
-1.884327
 20
3.497169
  0
VERTEX
  8
PLAN_1
 62
     2
  6
CONTINUOUS
 10
-1.886142
 20
3.496717
  0
VERTEX
  8
PLAN_1
 62
     2
  6
CONTINUOUS
 10
-1.887957
 20
3.495811
  0
VERTEX
  8
PLAN_1
 62
     2
  6
CONTINUOUS
 10
-1.889315
 20
3.494449
  0
VERTEX
  8
PLAN_1
 62
     2
  6
CONTINUOUS
 10
-1.890677
 20
3.493543
  0
VERTEX
  8
PLAN_1
 62
     2
  6
CONTINUOUS
 10
-1.891583
 20
3.492185
  0
VERTEX
  8
PLAN_1
 62
     2
  6
CONTINUOUS
 10
-1.892035
 20
3.490823
  0
VERTEX
  8
PLAN_1
 62
     2
  6
CONTINUOUS
 10
-1.893394
 20
3.487650
  0
VERTEX
  8
PLAN_1
 62
     2
  6
CONTINUOUS
 10
-1.893850
 20
3.484929
  0
VERTEX
  8
PLAN_1
 62
     2
  6
CONTINUOUS
 10
-1.894303
 20
3.482209
  0
VERTEX
  8
PLAN_1
 62
     2
  6
CONTINUOUS
 10
-1.894756
 20
3.479941
  0
VERTEX
  8
PLAN_1
 62
     2
  6
CONTINUOUS
 10
-1.903823
 20
3.479941
  0
SEQEND
  8
0
  0
POLYLINE
  8
PLAN_1
 62
     2
  6
CONTINUOUS
 66
     1
 40
0.003000
 41
0.003000
  0
VERTEX
  8
PLAN_1
 62
     2
  6
CONTINUOUS
 10
-1.821315
 20
3.430980
  0
VERTEX
  8
PLAN_1
 62
     2
  6
CONTINUOUS
 10
-1.825394
 20
3.430980
  0
VERTEX
  8
PLAN_1
 62
     2
  6
CONTINUOUS
 10
-1.828567
 20
3.431890
  0
VERTEX
  8
PLAN_1
 62
     2
  6
CONTINUOUS
 10
-1.831740
 20
3.433248
  0
VERTEX
  8
PLAN_1
 62
     2
  6
CONTINUOUS
 10
-1.834461
 20
3.434610
  0
VERTEX
  8
PLAN_1
 62
     2
  6
CONTINUOUS
 10
-1.836728
 20
3.436421
  0
VERTEX
  8
PLAN_1
 62
     2
  6
CONTINUOUS
 10
-1.838539
 20
3.438689
  0
VERTEX
  8
PLAN_1
 62
     2
  6
CONTINUOUS
 10
-1.840354
 20
3.441409
  0
VERTEX
  8
PLAN_1
 62
     2
  6
CONTINUOUS
 10
-1.841713
 20
3.444130
  0
VERTEX
  8
PLAN_1
 62
     2
  6
CONTINUOUS
 10
-1.843075
 20
3.446850
  0
VERTEX
  8
PLAN_1
 62
     2
  6
CONTINUOUS
 10
-1.843980
 20
3.450024
  0
VERTEX
  8
PLAN_1
 62
     2
  6
CONTINUOUS
 10
-1.844886
 20
3.453197
  0
VERTEX
  8
PLAN_1
 62
     2
  6
CONTINUOUS
 10
-1.845795
 20
3.456370
  0
VERTEX
  8
PLAN_1
 62
     2
  6
CONTINUOUS
 10
-1.846248
 20
3.462717
  0
VERTEX
  8
PLAN_1
 62
     2
  6
CONTINUOUS
 10
-1.846701
 20
3.468610
  0
VERTEX
  8
PLAN_1
 62
     2
  6
CONTINUOUS
 10
-1.846248
 20
3.474504
  0
VERTEX
  8
PLAN_1
 62
     2
  6
CONTINUOUS
 10
-1.845795
 20
3.480850
  0
VERTEX
  8
PLAN_1
 62
     2
  6
CONTINUOUS
 10
-1.844886
 20
3.484024
  0
VERTEX
  8
PLAN_1
 62
     2
  6
CONTINUOUS
 10
-1.843980
 20
3.487197
  0
VERTEX
  8
PLAN_1
 62
     2
  6
CONTINUOUS
 10
-1.843075
 20
3.489917
  0
VERTEX
  8
PLAN_1
 62
     2
  6
CONTINUOUS
 10
-1.841713
 20
3.493091
  0
VERTEX
  8
PLAN_1
 62
     2
  6
CONTINUOUS
 10
-1.840354
 20
3.495811
  0
VERTEX
  8
PLAN_1
 62
     2
  6
CONTINUOUS
 10
-1.838539
 20
3.498075
  0
VERTEX
  8
PLAN_1
 62
     2
  6
CONTINUOUS
 10
-1.836728
 20
3.500343
  0
VERTEX
  8
PLAN_1
 62
     2
  6
CONTINUOUS
 10
-1.834461
 20
3.502157
  0
VERTEX
  8
PLAN_1
 62
     2
  6
CONTINUOUS
 10
-1.831740
 20
3.503969
  0
VERTEX
  8
PLAN_1
 62
     2
  6
CONTINUOUS
 10
-1.828567
 20
3.504878
  0
VERTEX
  8
PLAN_1
 62
     2
  6
CONTINUOUS
 10
-1.825394
 20
3.505783
  0
VERTEX
  8
PLAN_1
 62
     2
  6
CONTINUOUS
 10
-1.821315
 20
3.506236
  0
VERTEX
  8
PLAN_1
 62
     2
  6
CONTINUOUS
 10
-1.817685
 20
3.505783
  0
VERTEX
  8
PLAN_1
 62
     2
  6
CONTINUOUS
 10
-1.814512
 20
3.504878
  0
VERTEX
  8
PLAN_1
 62
     2
  6
CONTINUOUS
 10
-1.811339
 20
3.503969
  0
VERTEX
  8
PLAN_1
 62
     2
  6
CONTINUOUS
 10
-1.808618
 20
3.502157
  0
VERTEX
  8
PLAN_1
 62
     2
  6
CONTINUOUS
 10
-1.806354
 20
3.500343
  0
VERTEX
  8
PLAN_1
 62
     2
  6
CONTINUOUS
 10
-1.804087
 20
3.498075
  0
VERTEX
  8
PLAN_1
 62
     2
  6
CONTINUOUS
 10
-1.802724
 20
3.495811
  0
VERTEX
  8
PLAN_1
 62
     2
  6
CONTINUOUS
 10
-1.800913
 20
3.493091
  0
VERTEX
  8
PLAN_1
 62
     2
  6
CONTINUOUS
 10
-1.798646
 20
3.487197
  0
VERTEX
  8
PLAN_1
 62
     2
  6
CONTINUOUS
 10
-1.797287
 20
3.480850
  0
VERTEX
  8
PLAN_1
 62
     2
  6
CONTINUOUS
 10
-1.796835
 20
3.474504
  0
VERTEX
  8
PLAN_1
 62
     2
  6
CONTINUOUS
 10
-1.796378
 20
3.468610
  0
VERTEX
  8
PLAN_1
 62
     2
  6
CONTINUOUS
 10
-1.796835
 20
3.462717
  0
VERTEX
  8
PLAN_1
 62
     2
  6
CONTINUOUS
 10
-1.797287
 20
3.456370
  0
VERTEX
  8
PLAN_1
 62
     2
  6
CONTINUOUS
 10
-1.798646
 20
3.450024
  0
VERTEX
  8
PLAN_1
 62
     2
  6
CONTINUOUS
 10
-1.800913
 20
3.444130
  0
VERTEX
  8
PLAN_1
 62
     2
  6
CONTINUOUS
 10
-1.802724
 20
3.441409
  0
VERTEX
  8
PLAN_1
 62
     2
  6
CONTINUOUS
 10
-1.804087
 20
3.438689
  0
VERTEX
  8
PLAN_1
 62
     2
  6
CONTINUOUS
 10
-1.806354
 20
3.436421
  0
VERTEX
  8
PLAN_1
 62
     2
  6
CONTINUOUS
 10
-1.808618
 20
3.434610
  0
VERTEX
  8
PLAN_1
 62
     2
  6
CONTINUOUS
 10
-1.811339
 20
3.433248
  0
VERTEX
  8
PLAN_1
 62
     2
  6
CONTINUOUS
 10
-1.814512
 20
3.431890
  0
VERTEX
  8
PLAN_1
 62
     2
  6
CONTINUOUS
 10
-1.817685
 20
3.430980
  0
VERTEX
  8
PLAN_1
 62
     2
  6
CONTINUOUS
 10
-1.821315
 20
3.430980
  0
SEQEND
  8
0
  0
POLYLINE
  8
PLAN_1
 62
     2
  6
CONTINUOUS
 66
     1
 40
0.003000
 41
0.003000
  0
VERTEX
  8
PLAN_1
 62
     2
  6
CONTINUOUS
 10
-1.821315
 20
3.497622
  0
VERTEX
  8
PLAN_1
 62
     2
  6
CONTINUOUS
 10
-1.823579
 20
3.497622
  0
VERTEX
  8
PLAN_1
 62
     2
  6
CONTINUOUS
 10
-1.824941
 20
3.497169
  0
VERTEX
  8
PLAN_1
 62
     2
  6
CONTINUOUS
 10
-1.826752
 20
3.496717
  0
VERTEX
  8
PLAN_1
 62
     2
  6
CONTINUOUS
 10
-1.828114
 20
3.495811
  0
VERTEX
  8
PLAN_1
 62
     2
  6
CONTINUOUS
 10
-1.829472
 20
3.494902
  0
VERTEX
  8
PLAN_1
 62
     2
  6
CONTINUOUS
 10
-1.830835
 20
3.493543
  0
VERTEX
  8
PLAN_1
 62
     2
  6
CONTINUOUS
 10
-1.832193
 20
3.491728
  0
VERTEX
  8
PLAN_1
 62
     2
  6
CONTINUOUS
 10
-1.833102
 20
3.489917
  0
VERTEX
  8
PLAN_1
 62
     2
  6
CONTINUOUS
 10
-1.834913
 20
3.485835
  0
VERTEX
  8
PLAN_1
 62
     2
  6
CONTINUOUS
 10
-1.835819
 20
3.480850
  0
VERTEX
  8
PLAN_1
 62
     2
  6
CONTINUOUS
 10
-1.836728
 20
3.474957
  0
VERTEX
  8
PLAN_1
 62
     2
  6
CONTINUOUS
 10
-1.836728
 20
3.468610
  0
VERTEX
  8
PLAN_1
 62
     2
  6
CONTINUOUS
 10
-1.836728
 20
3.461807
  0
VERTEX
  8
PLAN_1
 62
     2
  6
CONTINUOUS
 10
-1.835819
 20
3.456370
  0
VERTEX
  8
PLAN_1
 62
     2
  6
CONTINUOUS
 10
-1.834913
 20
3.451382
  0
VERTEX
  8
PLAN_1
 62
     2
  6
CONTINUOUS
 10
-1.833102
 20
3.446850
  0
VERTEX
  8
PLAN_1
 62
     2
  6
CONTINUOUS
 10
-1.832193
 20
3.445035
  0
VERTEX
  8
PLAN_1
 62
     2
  6
CONTINUOUS
 10
-1.830835
 20
3.443677
  0
VERTEX
  8
PLAN_1
 62
     2
  6
CONTINUOUS
 10
-1.829472
 20
3.442315
  0
VERTEX
  8
PLAN_1
 62
     2
  6
CONTINUOUS
 10
-1.828114
 20
3.440957
  0
VERTEX
  8
PLAN_1
 62
     2
  6
CONTINUOUS
 10
-1.826752
 20
3.440500
  0
VERTEX
  8
PLAN_1
 62
     2
  6
CONTINUOUS
 10
-1.824941
 20
3.439594
  0
VERTEX
  8
PLAN_1
 62
     2
  6
CONTINUOUS
 10
-1.823579
 20
3.439142
  0
VERTEX
  8
PLAN_1
 62
     2
  6
CONTINUOUS
 10
-1.821315
 20
3.439142
  0
VERTEX
  8
PLAN_1
 62
     2
  6
CONTINUOUS
 10
-1.819500
 20
3.439142
  0
VERTEX
  8
PLAN_1
 62
     2
  6
CONTINUOUS
 10
-1.817685
 20
3.439594
  0
VERTEX
  8
PLAN_1
 62
     2
  6
CONTINUOUS
 10
-1.816327
 20
3.440500
  0
VERTEX
  8
PLAN_1
 62
     2
  6
CONTINUOUS
 10
-1.814512
 20
3.440957
  0
VERTEX
  8
PLAN_1
 62
     2
  6
CONTINUOUS
 10
-1.813154
 20
3.442315
  0
VERTEX
  8
PLAN_1
 62
     2
  6
CONTINUOUS
 10
-1.812248
 20
3.443677
  0
VERTEX
  8
PLAN_1
 62
     2
  6
CONTINUOUS
 10
-1.810886
 20
3.445035
  0
VERTEX
  8
PLAN_1
 62
     2
  6
CONTINUOUS
 10
-1.809980
 20
3.446850
  0
VERTEX
  8
PLAN_1
 62
     2
  6
CONTINUOUS
 10
-1.808165
 20
3.451382
  0
VERTEX
  8
PLAN_1
 62
     2
  6
CONTINUOUS
 10
-1.807260
 20
3.456370
  0
VERTEX
  8
PLAN_1
 62
     2
  6
CONTINUOUS
 10
-1.806354
 20
3.461807
  0
VERTEX
  8
PLAN_1
 62
     2
  6
CONTINUOUS
 10
-1.806354
 20
3.468610
  0
VERTEX
  8
PLAN_1
 62
     2
  6
CONTINUOUS
 10
-1.806354
 20
3.474957
  0
VERTEX
  8
PLAN_1
 62
     2
  6
CONTINUOUS
 10
-1.807260
 20
3.480850
  0
VERTEX
  8
PLAN_1
 62
     2
  6
CONTINUOUS
 10
-1.808165
 20
3.485835
  0
VERTEX
  8
PLAN_1
 62
     2
  6
CONTINUOUS
 10
-1.809980
 20
3.489917
  0
VERTEX
  8
PLAN_1
 62
     2
  6
CONTINUOUS
 10
-1.810886
 20
3.491728
  0
VERTEX
  8
PLAN_1
 62
     2
  6
CONTINUOUS
 10
-1.812248
 20
3.493543
  0
VERTEX
  8
PLAN_1
 62
     2
  6
CONTINUOUS
 10
-1.813154
 20
3.494902
  0
VERTEX
  8
PLAN_1
 62
     2
  6
CONTINUOUS
 10
-1.814512
 20
3.495811
  0
VERTEX
  8
PLAN_1
 62
     2
  6
CONTINUOUS
 10
-1.816327
 20
3.496717
  0
VERTEX
  8
PLAN_1
 62
     2
  6
CONTINUOUS
 10
-1.817685
 20
3.497169
  0
VERTEX
  8
PLAN_1
 62
     2
  6
CONTINUOUS
 10
-1.819500
 20
3.497622
  0
VERTEX
  8
PLAN_1
 62
     2
  6
CONTINUOUS
 10
-1.821315
 20
3.497622
  0
SEQEND
  8
0
  0
ENDSEC
  0
EOF
