  0
SECTION
  2
HEADER
  9
$ACADVER
  1
AC1006
  9
$EXTMIN
 10
-2.297000
 20
-3.693689
  9
$EXTMAX
 10
2.298000
 20
3.696000
  9
$LTSCALE
 40
0.000394
  9
$PDMODE
 70
    35
  9
$PDSIZE
 40
0.000315
  0
ENDSEC
  0
SECTION
  2
TABLES
  0
TABLE
  2
LTYPE
 70
     9
  0
LTYPE
  2
CONTINUOUS
 70
    64
  3
Solid line
 72
    65
 73
     0
 40
0.000000
  0
LTYPE
  2
DASHED
 70
    64
  3
__ __ __ __ __ __ __ __ __ __ __ __ __ __ __
 72
    65
 73
     2
 40
0.000003
 49
0.000002
 49
-0.000001
  0
LTYPE
  2
HIDDEN
 70
    64
  3
 _ _ _ _ _ _ _ _ _ _ _ _ _ _ _ _ _ _ _ _ _ _
 72
    65
 73
     2
 40
0.000001
 49
0.000001
 49
-0.000000
  0
LTYPE
  2
CENTER
 70
    64
  3
____ _ ____ _ ____ _ ____ _ ____ _ ____ _ ____
 72
    65
 73
     4
 40
0.000008
 49
0.000005
 49
-0.000001
 49
0.000001
 49
-0.000001
  0
LTYPE
  2
PHANTOM
 70
    64
  3
_____ _ _ _____ _ _ _____ _ _ _____ _ _ ____
 72
    65
 73
     6
 40
0.000010
 49
0.000005
 49
-0.000001
 49
0.000001
 49
-0.000001
 49
0.000001
 49
-0.000001
  0
LTYPE
  2
DOT
 70
    64
  3
...............................................
 72
    65
 73
     2
 40
0.000001
 49
0.000000
 49
-0.000001
  0
LTYPE
  2
DASHDOT
 70
    64
  3
__ . __ . __ . __ . __ . __ . __ . __ . __ . __
 72
    65
 73
     4
 40
0.000004
 49
0.000002
 49
-0.000001
 49
0.000000
 49
-0.000001
  0
LTYPE
  2
BORDER
 70
    64
  3
__ __ . __ __ . __ __ . __ __ . __ __ . __ __
 72
    65
 73
     6
 40
0.000007
 49
0.000002
 49
-0.000001
 49
0.000002
 49
-0.000001
 49
0.000000
 49
-0.000001
  0
LTYPE
  2
DIVIDE
 70
    64
  3
__ . . __ . . __ . . __ . . __ . . __ . . __
 72
    65
 73
     6
 40
0.000005
 49
0.000002
 49
-0.000001
 49
0.000000
 49
-0.000001
 49
0.000000
 49
-0.000001
  0
LTYPE
  2
DOTDOT
 70
    64
  3
 . .  . .  . .  . .  . .  . . 
 72
    65
 73
     5
 40
0.000002
 49
-0.000001
 49
0.000000
 49
-0.000001
 49
0.000000
 49
-0.000001
  0
ENDTAB
  0
TABLE
  2
STYLE
 70
     0
  0
ENDTAB
  0
TABLE
  2
LAYER
 70
     3
  0
LAYER
  2
FOREGROUND
 70
    64
 62
     7
  6
CONTINUOUS
  0
LAYER
  2
BACKGROUND
 70
    65
 62
    -7
  6
CONTINUOUS
  0
LAYER
  2
PLAN_1
 70
    64
 62
     7
  6
CONTINUOUS
  0
ENDTAB
  0
ENDSEC
  0
SECTION
  2
ENTITIES
  0
POLYLINE
  8
PLAN_1
  6
CONTINUOUS
 66
     1
 40
0.003000
 41
0.003000
  0
VERTEX
  8
PLAN_1
  6
CONTINUOUS
 10
0.309713
 20
-3.659047
  0
VERTEX
  8
PLAN_1
  6
CONTINUOUS
 10
0.152681
 20
-3.659047
  0
VERTEX
  8
PLAN_1
  6
CONTINUOUS
 10
0.152681
 20
-3.636417
  0
VERTEX
  8
PLAN_1
  6
CONTINUOUS
 10
0.275075
 20
-3.483543
  0
VERTEX
  8
PLAN_1
  6
CONTINUOUS
 10
0.161917
 20
-3.483543
  0
VERTEX
  8
PLAN_1
  6
CONTINUOUS
 10
0.161917
 20
-3.459528
  0
VERTEX
  8
PLAN_1
  6
CONTINUOUS
 10
0.309713
 20
-3.459528
  0
VERTEX
  8
PLAN_1
  6
CONTINUOUS
 10
0.309713
 20
-3.483083
  0
VERTEX
  8
PLAN_1
  6
CONTINUOUS
 10
0.186858
 20
-3.635031
  0
VERTEX
  8
PLAN_1
  6
CONTINUOUS
 10
0.309713
 20
-3.635031
  0
VERTEX
  8
PLAN_1
  6
CONTINUOUS
 10
0.309713
 20
-3.659047
  0
SEQEND
  8
0
  0
POLYLINE
  8
PLAN_1
  6
CONTINUOUS
 66
     1
 40
0.003000
 41
0.003000
  0
VERTEX
  8
PLAN_1
  6
CONTINUOUS
 10
0.476906
 20
-3.519567
  0
VERTEX
  8
PLAN_1
  6
CONTINUOUS
 10
0.475520
 20
-3.513563
  0
VERTEX
  8
PLAN_1
  6
CONTINUOUS
 10
0.473209
 20
-3.508020
  0
VERTEX
  8
PLAN_1
  6
CONTINUOUS
 10
0.470902
 20
-3.502941
  0
VERTEX
  8
PLAN_1
  6
CONTINUOUS
 10
0.468130
 20
-3.498323
  0
VERTEX
  8
PLAN_1
  6
CONTINUOUS
 10
0.464894
 20
-3.494626
  0
VERTEX
  8
PLAN_1
  6
CONTINUOUS
 10
0.461201
 20
-3.491394
  0
VERTEX
  8
PLAN_1
  6
CONTINUOUS
 10
0.457508
 20
-3.488161
  0
VERTEX
  8
PLAN_1
  6
CONTINUOUS
 10
0.453811
 20
-3.485854
  0
VERTEX
  8
PLAN_1
  6
CONTINUOUS
 10
0.449654
 20
-3.484004
  0
VERTEX
  8
PLAN_1
  6
CONTINUOUS
 10
0.445496
 20
-3.482157
  0
VERTEX
  8
PLAN_1
  6
CONTINUOUS
 10
0.441343
 20
-3.480772
  0
VERTEX
  8
PLAN_1
  6
CONTINUOUS
 10
0.437185
 20
-3.479846
  0
VERTEX
  8
PLAN_1
  6
CONTINUOUS
 10
0.428870
 20
-3.478465
  0
VERTEX
  8
PLAN_1
  6
CONTINUOUS
 10
0.421480
 20
-3.478465
  0
VERTEX
  8
PLAN_1
  6
CONTINUOUS
 10
0.414555
 20
-3.478465
  0
VERTEX
  8
PLAN_1
  6
CONTINUOUS
 10
0.408087
 20
-3.479386
  0
VERTEX
  8
PLAN_1
  6
CONTINUOUS
 10
0.402083
 20
-3.481232
  0
VERTEX
  8
PLAN_1
  6
CONTINUOUS
 10
0.396079
 20
-3.483083
  0
VERTEX
  8
PLAN_1
  6
CONTINUOUS
 10
0.390075
 20
-3.485854
  0
VERTEX
  8
PLAN_1
  6
CONTINUOUS
 10
0.384996
 20
-3.489547
  0
VERTEX
  8
PLAN_1
  6
CONTINUOUS
 10
0.379913
 20
-3.493705
  0
VERTEX
  8
PLAN_1
  6
CONTINUOUS
 10
0.375295
 20
-3.498323
  0
VERTEX
  8
PLAN_1
  6
CONTINUOUS
 10
0.371138
 20
-3.503402
  0
VERTEX
  8
PLAN_1
  6
CONTINUOUS
 10
0.366984
 20
-3.509406
  0
VERTEX
  8
PLAN_1
  6
CONTINUOUS
 10
0.363748
 20
-3.515874
  0
VERTEX
  8
PLAN_1
  6
CONTINUOUS
 10
0.360976
 20
-3.522799
  0
VERTEX
  8
PLAN_1
  6
CONTINUOUS
 10
0.359130
 20
-3.530654
  0
VERTEX
  8
PLAN_1
  6
CONTINUOUS
 10
0.357283
 20
-3.538965
  0
VERTEX
  8
PLAN_1
  6
CONTINUOUS
 10
0.356358
 20
-3.547740
  0
VERTEX
  8
PLAN_1
  6
CONTINUOUS
 10
0.355898
 20
-3.557441
  0
VERTEX
  8
PLAN_1
  6
CONTINUOUS
 10
0.356358
 20
-3.566217
  0
VERTEX
  8
PLAN_1
  6
CONTINUOUS
 10
0.356823
 20
-3.574528
  0
VERTEX
  8
PLAN_1
  6
CONTINUOUS
 10
0.357744
 20
-3.582382
  0
VERTEX
  8
PLAN_1
  6
CONTINUOUS
 10
0.359594
 20
-3.590232
  0
VERTEX
  8
PLAN_1
  6
CONTINUOUS
 10
0.361441
 20
-3.597622
  0
VERTEX
  8
PLAN_1
  6
CONTINUOUS
 10
0.363748
 20
-3.604087
  0
VERTEX
  8
PLAN_1
  6
CONTINUOUS
 10
0.366984
 20
-3.610555
  0
VERTEX
  8
PLAN_1
  6
CONTINUOUS
 10
0.370677
 20
-3.616559
  0
VERTEX
  8
PLAN_1
  6
CONTINUOUS
 10
0.374835
 20
-3.621638
  0
VERTEX
  8
PLAN_1
  6
CONTINUOUS
 10
0.379453
 20
-3.626717
  0
VERTEX
  8
PLAN_1
  6
CONTINUOUS
 10
0.384996
 20
-3.630413
  0
VERTEX
  8
PLAN_1
  6
CONTINUOUS
 10
0.391000
 20
-3.634106
  0
VERTEX
  8
PLAN_1
  6
CONTINUOUS
 10
0.394232
 20
-3.635492
  0
VERTEX
  8
PLAN_1
  6
CONTINUOUS
 10
0.397925
 20
-3.636878
  0
VERTEX
  8
PLAN_1
  6
CONTINUOUS
 10
0.401161
 20
-3.637803
  0
VERTEX
  8
PLAN_1
  6
CONTINUOUS
 10
0.405315
 20
-3.638728
  0
VERTEX
  8
PLAN_1
  6
CONTINUOUS
 10
0.413169
 20
-3.640110
  0
VERTEX
  8
PLAN_1
  6
CONTINUOUS
 10
0.421945
 20
-3.640575
  0
VERTEX
  8
PLAN_1
  6
CONTINUOUS
 10
0.425638
 20
-3.640110
  0
VERTEX
  8
PLAN_1
  6
CONTINUOUS
 10
0.429335
 20
-3.640110
  0
VERTEX
  8
PLAN_1
  6
CONTINUOUS
 10
0.433028
 20
-3.639189
  0
VERTEX
  8
PLAN_1
  6
CONTINUOUS
 10
0.437185
 20
-3.638264
  0
VERTEX
  8
PLAN_1
  6
CONTINUOUS
 10
0.441343
 20
-3.636878
  0
VERTEX
  8
PLAN_1
  6
CONTINUOUS
 10
0.445496
 20
-3.635492
  0
VERTEX
  8
PLAN_1
  6
CONTINUOUS
 10
0.449654
 20
-3.633185
  0
VERTEX
  8
PLAN_1
  6
CONTINUOUS
 10
0.453811
 20
-3.630413
  0
VERTEX
  8
PLAN_1
  6
CONTINUOUS
 10
0.457969
 20
-3.627181
  0
VERTEX
  8
PLAN_1
  6
CONTINUOUS
 10
0.461661
 20
-3.623484
  0
VERTEX
  8
PLAN_1
  6
CONTINUOUS
 10
0.465358
 20
-3.618866
  0
VERTEX
  8
PLAN_1
  6
CONTINUOUS
 10
0.468591
 20
-3.613787
  0
VERTEX
  8
PLAN_1
  6
CONTINUOUS
 10
0.471823
 20
-3.607783
  0
VERTEX
  8
PLAN_1
  6
CONTINUOUS
 10
0.474594
 20
-3.601315
  0
VERTEX
  8
PLAN_1
  6
CONTINUOUS
 10
0.476906
 20
-3.593925
  0
VERTEX
  8
PLAN_1
  6
CONTINUOUS
 10
0.479213
 20
-3.585614
  0
VERTEX
  8
PLAN_1
  6
CONTINUOUS
 10
0.505079
 20
-3.585614
  0
VERTEX
  8
PLAN_1
  6
CONTINUOUS
 10
0.504154
 20
-3.592539
  0
VERTEX
  8
PLAN_1
  6
CONTINUOUS
 10
0.502307
 20
-3.599008
  0
VERTEX
  8
PLAN_1
  6
CONTINUOUS
 10
0.500921
 20
-3.605012
  0
VERTEX
  8
PLAN_1
  6
CONTINUOUS
 10
0.498610
 20
-3.610555
  0
VERTEX
  8
PLAN_1
  6
CONTINUOUS
 10
0.496764
 20
-3.616094
  0
VERTEX
  8
PLAN_1
  6
CONTINUOUS
 10
0.494453
 20
-3.620713
  0
VERTEX
  8
PLAN_1
  6
CONTINUOUS
 10
0.491685
 20
-3.625335
  0
VERTEX
  8
PLAN_1
  6
CONTINUOUS
 10
0.488913
 20
-3.629953
  0
VERTEX
  8
PLAN_1
  6
CONTINUOUS
 10
0.486142
 20
-3.633646
  0
VERTEX
  8
PLAN_1
  6
CONTINUOUS
 10
0.482909
 20
-3.637343
  0
VERTEX
  8
PLAN_1
  6
CONTINUOUS
 10
0.479673
 20
-3.640575
  0
VERTEX
  8
PLAN_1
  6
CONTINUOUS
 10
0.476441
 20
-3.643807
  0
VERTEX
  8
PLAN_1
  6
CONTINUOUS
 10
0.469976
 20
-3.648886
  0
VERTEX
  8
PLAN_1
  6
CONTINUOUS
 10
0.463047
 20
-3.653043
  0
VERTEX
  8
PLAN_1
  6
CONTINUOUS
 10
0.456122
 20
-3.656740
  0
VERTEX
  8
PLAN_1
  6
CONTINUOUS
 10
0.449193
 20
-3.659047
  0
VERTEX
  8
PLAN_1
  6
CONTINUOUS
 10
0.442728
 20
-3.661358
  0
VERTEX
  8
PLAN_1
  6
CONTINUOUS
 10
0.436260
 20
-3.662744
  0
VERTEX
  8
PLAN_1
  6
CONTINUOUS
 10
0.425638
 20
-3.664130
  0
VERTEX
  8
PLAN_1
  6
CONTINUOUS
 10
0.417787
 20
-3.664130
  0
VERTEX
  8
PLAN_1
  6
CONTINUOUS
 10
0.409472
 20
-3.664130
  0
VERTEX
  8
PLAN_1
  6
CONTINUOUS
 10
0.401161
 20
-3.662744
  0
VERTEX
  8
PLAN_1
  6
CONTINUOUS
 10
0.392846
 20
-3.660894
  0
VERTEX
  8
PLAN_1
  6
CONTINUOUS
 10
0.384996
 20
-3.658587
  0
VERTEX
  8
PLAN_1
  6
CONTINUOUS
 10
0.377142
 20
-3.654890
  0
VERTEX
  8
PLAN_1
  6
CONTINUOUS
 10
0.369752
 20
-3.650736
  0
VERTEX
  8
PLAN_1
  6
CONTINUOUS
 10
0.366059
 20
-3.648425
  0
VERTEX
  8
PLAN_1
  6
CONTINUOUS
 10
0.362827
 20
-3.646118
  0
VERTEX
  8
PLAN_1
  6
CONTINUOUS
 10
0.359594
 20
-3.642882
  0
VERTEX
  8
PLAN_1
  6
CONTINUOUS
 10
0.356358
 20
-3.640110
  0
VERTEX
  8
PLAN_1
  6
CONTINUOUS
 10
0.353126
 20
-3.636878
  0
VERTEX
  8
PLAN_1
  6
CONTINUOUS
 10
0.350354
 20
-3.633185
  0
VERTEX
  8
PLAN_1
  6
CONTINUOUS
 10
0.347583
 20
-3.629488
  0
VERTEX
  8
PLAN_1
  6
CONTINUOUS
 10
0.344815
 20
-3.625335
  0
VERTEX
  8
PLAN_1
  6
CONTINUOUS
 10
0.342504
 20
-3.621177
  0
VERTEX
  8
PLAN_1
  6
CONTINUOUS
 10
0.340193
 20
-3.616559
  0
VERTEX
  8
PLAN_1
  6
CONTINUOUS
 10
0.337886
 20
-3.611941
  0
VERTEX
  8
PLAN_1
  6
CONTINUOUS
 10
0.336039
 20
-3.607319
  0
VERTEX
  8
PLAN_1
  6
CONTINUOUS
 10
0.334189
 20
-3.601780
  0
VERTEX
  8
PLAN_1
  6
CONTINUOUS
 10
0.332803
 20
-3.596697
  0
VERTEX
  8
PLAN_1
  6
CONTINUOUS
 10
0.331421
 20
-3.590693
  0
VERTEX
  8
PLAN_1
  6
CONTINUOUS
 10
0.330496
 20
-3.584689
  0
VERTEX
  8
PLAN_1
  6
CONTINUOUS
 10
0.329571
 20
-3.578685
  0
VERTEX
  8
PLAN_1
  6
CONTINUOUS
 10
0.328650
 20
-3.572220
  0
VERTEX
  8
PLAN_1
  6
CONTINUOUS
 10
0.328650
 20
-3.565291
  0
VERTEX
  8
PLAN_1
  6
CONTINUOUS
 10
0.328185
 20
-3.558362
  0
VERTEX
  8
PLAN_1
  6
CONTINUOUS
 10
0.328650
 20
-3.546819
  0
VERTEX
  8
PLAN_1
  6
CONTINUOUS
 10
0.330035
 20
-3.536193
  0
VERTEX
  8
PLAN_1
  6
CONTINUOUS
 10
0.331882
 20
-3.526035
  0
VERTEX
  8
PLAN_1
  6
CONTINUOUS
 10
0.334654
 20
-3.516335
  0
VERTEX
  8
PLAN_1
  6
CONTINUOUS
 10
0.336500
 20
-3.511256
  0
VERTEX
  8
PLAN_1
  6
CONTINUOUS
 10
0.338346
 20
-3.507098
  0
VERTEX
  8
PLAN_1
  6
CONTINUOUS
 10
0.340193
 20
-3.502480
  0
VERTEX
  8
PLAN_1
  6
CONTINUOUS
 10
0.342504
 20
-3.498323
  0
VERTEX
  8
PLAN_1
  6
CONTINUOUS
 10
0.344815
 20
-3.494626
  0
VERTEX
  8
PLAN_1
  6
CONTINUOUS
 10
0.347583
 20
-3.490472
  0
VERTEX
  8
PLAN_1
  6
CONTINUOUS
 10
0.350354
 20
-3.486776
  0
VERTEX
  8
PLAN_1
  6
CONTINUOUS
 10
0.353126
 20
-3.483543
  0
VERTEX
  8
PLAN_1
  6
CONTINUOUS
 10
0.356358
 20
-3.479846
  0
VERTEX
  8
PLAN_1
  6
CONTINUOUS
 10
0.359594
 20
-3.476614
  0
VERTEX
  8
PLAN_1
  6
CONTINUOUS
 10
0.362827
 20
-3.473843
  0
VERTEX
  8
PLAN_1
  6
CONTINUOUS
 10
0.366520
 20
-3.471075
  0
VERTEX
  8
PLAN_1
  6
CONTINUOUS
 10
0.370217
 20
-3.468303
  0
VERTEX
  8
PLAN_1
  6
CONTINUOUS
 10
0.373909
 20
-3.465992
  0
VERTEX
  8
PLAN_1
  6
CONTINUOUS
 10
0.378067
 20
-3.464146
  0
VERTEX
  8
PLAN_1
  6
CONTINUOUS
 10
0.382224
 20
-3.461835
  0
VERTEX
  8
PLAN_1
  6
CONTINUOUS
 10
0.386843
 20
-3.460449
  0
VERTEX
  8
PLAN_1
  6
CONTINUOUS
 10
0.391000
 20
-3.458602
  0
VERTEX
  8
PLAN_1
  6
CONTINUOUS
 10
0.396079
 20
-3.457217
  0
VERTEX
  8
PLAN_1
  6
CONTINUOUS
 10
0.400697
 20
-3.456295
  0
VERTEX
  8
PLAN_1
  6
CONTINUOUS
 10
0.405780
 20
-3.455370
  0
VERTEX
  8
PLAN_1
  6
CONTINUOUS
 10
0.410858
 20
-3.454909
  0
VERTEX
  8
PLAN_1
  6
CONTINUOUS
 10
0.415941
 20
-3.454445
  0
VERTEX
  8
PLAN_1
  6
CONTINUOUS
 10
0.421480
 20
-3.454445
  0
VERTEX
  8
PLAN_1
  6
CONTINUOUS
 10
0.430717
 20
-3.454909
  0
VERTEX
  8
PLAN_1
  6
CONTINUOUS
 10
0.439492
 20
-3.455831
  0
VERTEX
  8
PLAN_1
  6
CONTINUOUS
 10
0.447807
 20
-3.457681
  0
VERTEX
  8
PLAN_1
  6
CONTINUOUS
 10
0.455197
 20
-3.459988
  0
VERTEX
  8
PLAN_1
  6
CONTINUOUS
 10
0.462126
 20
-3.462760
  0
VERTEX
  8
PLAN_1
  6
CONTINUOUS
 10
0.468591
 20
-3.466453
  0
VERTEX
  8
PLAN_1
  6
CONTINUOUS
 10
0.474594
 20
-3.470150
  0
VERTEX
  8
PLAN_1
  6
CONTINUOUS
 10
0.480138
 20
-3.474307
  0
VERTEX
  8
PLAN_1
  6
CONTINUOUS
 10
0.484756
 20
-3.479386
  0
VERTEX
  8
PLAN_1
  6
CONTINUOUS
 10
0.488913
 20
-3.484469
  0
VERTEX
  8
PLAN_1
  6
CONTINUOUS
 10
0.492606
 20
-3.489547
  0
VERTEX
  8
PLAN_1
  6
CONTINUOUS
 10
0.495839
 20
-3.495551
  0
VERTEX
  8
PLAN_1
  6
CONTINUOUS
 10
0.498610
 20
-3.501094
  0
VERTEX
  8
PLAN_1
  6
CONTINUOUS
 10
0.500457
 20
-3.507098
  0
VERTEX
  8
PLAN_1
  6
CONTINUOUS
 10
0.502307
 20
-3.513563
  0
VERTEX
  8
PLAN_1
  6
CONTINUOUS
 10
0.503228
 20
-3.519567
  0
VERTEX
  8
PLAN_1
  6
CONTINUOUS
 10
0.476906
 20
-3.519567
  0
SEQEND
  8
0
  0
POLYLINE
  8
PLAN_1
  6
CONTINUOUS
 66
     1
 40
0.003000
 41
0.003000
  0
VERTEX
  8
PLAN_1
  6
CONTINUOUS
 10
0.564657
 20
-3.659047
  0
VERTEX
  8
PLAN_1
  6
CONTINUOUS
 10
0.537870
 20
-3.659047
  0
VERTEX
  8
PLAN_1
  6
CONTINUOUS
 10
0.537870
 20
-3.459528
  0
VERTEX
  8
PLAN_1
  6
CONTINUOUS
 10
0.564657
 20
-3.459528
  0
VERTEX
  8
PLAN_1
  6
CONTINUOUS
 10
0.564657
 20
-3.556055
  0
VERTEX
  8
PLAN_1
  6
CONTINUOUS
 10
0.661185
 20
-3.459528
  0
VERTEX
  8
PLAN_1
  6
CONTINUOUS
 10
0.698594
 20
-3.459528
  0
VERTEX
  8
PLAN_1
  6
CONTINUOUS
 10
0.615461
 20
-3.540350
  0
VERTEX
  8
PLAN_1
  6
CONTINUOUS
 10
0.700441
 20
-3.659047
  0
VERTEX
  8
PLAN_1
  6
CONTINUOUS
 10
0.665803
 20
-3.659047
  0
VERTEX
  8
PLAN_1
  6
CONTINUOUS
 10
0.596063
 20
-3.559287
  0
VERTEX
  8
PLAN_1
  6
CONTINUOUS
 10
0.564657
 20
-3.588846
  0
VERTEX
  8
PLAN_1
  6
CONTINUOUS
 10
0.564657
 20
-3.659047
  0
SEQEND
  8
0
  0
POLYLINE
  8
PLAN_1
  6
CONTINUOUS
 66
     1
 40
0.003000
 41
0.003000
  0
VERTEX
  8
PLAN_1
  6
CONTINUOUS
 10
0.808055
 20
-3.659047
  0
VERTEX
  8
PLAN_1
  6
CONTINUOUS
 10
0.780803
 20
-3.659047
  0
VERTEX
  8
PLAN_1
  6
CONTINUOUS
 10
0.780803
 20
-3.578685
  0
VERTEX
  8
PLAN_1
  6
CONTINUOUS
 10
0.705524
 20
-3.459528
  0
VERTEX
  8
PLAN_1
  6
CONTINUOUS
 10
0.736929
 20
-3.459528
  0
VERTEX
  8
PLAN_1
  6
CONTINUOUS
 10
0.794197
 20
-3.555594
  0
VERTEX
  8
PLAN_1
  6
CONTINUOUS
 10
0.851469
 20
-3.459528
  0
VERTEX
  8
PLAN_1
  6
CONTINUOUS
 10
0.883339
 20
-3.459528
  0
VERTEX
  8
PLAN_1
  6
CONTINUOUS
 10
0.808055
 20
-3.578685
  0
VERTEX
  8
PLAN_1
  6
CONTINUOUS
 10
0.808055
 20
-3.659047
  0
SEQEND
  8
0
  0
POLYLINE
  8
PLAN_1
  6
CONTINUOUS
 66
     1
 40
0.003000
 41
0.003000
  0
VERTEX
  8
PLAN_1
  6
CONTINUOUS
 10
0.986791
 20
-3.659047
  0
VERTEX
  8
PLAN_1
  6
CONTINUOUS
 10
0.960469
 20
-3.659047
  0
VERTEX
  8
PLAN_1
  6
CONTINUOUS
 10
0.960469
 20
-3.520492
  0
VERTEX
  8
PLAN_1
  6
CONTINUOUS
 10
0.915205
 20
-3.520492
  0
VERTEX
  8
PLAN_1
  6
CONTINUOUS
 10
0.915205
 20
-3.501094
  0
VERTEX
  8
PLAN_1
  6
CONTINUOUS
 10
0.926287
 20
-3.500169
  0
VERTEX
  8
PLAN_1
  6
CONTINUOUS
 10
0.935528
 20
-3.498783
  0
VERTEX
  8
PLAN_1
  6
CONTINUOUS
 10
0.939685
 20
-3.497862
  0
VERTEX
  8
PLAN_1
  6
CONTINUOUS
 10
0.943378
 20
-3.496937
  0
VERTEX
  8
PLAN_1
  6
CONTINUOUS
 10
0.947071
 20
-3.495091
  0
VERTEX
  8
PLAN_1
  6
CONTINUOUS
 10
0.950307
 20
-3.493705
  0
VERTEX
  8
PLAN_1
  6
CONTINUOUS
 10
0.953079
 20
-3.491394
  0
VERTEX
  8
PLAN_1
  6
CONTINUOUS
 10
0.955846
 20
-3.489087
  0
VERTEX
  8
PLAN_1
  6
CONTINUOUS
 10
0.958157
 20
-3.486315
  0
VERTEX
  8
PLAN_1
  6
CONTINUOUS
 10
0.960469
 20
-3.482618
  0
VERTEX
  8
PLAN_1
  6
CONTINUOUS
 10
0.962776
 20
-3.478925
  0
VERTEX
  8
PLAN_1
  6
CONTINUOUS
 10
0.964622
 20
-3.474307
  0
VERTEX
  8
PLAN_1
  6
CONTINUOUS
 10
0.966008
 20
-3.469689
  0
VERTEX
  8
PLAN_1
  6
CONTINUOUS
 10
0.967394
 20
-3.463685
  0
VERTEX
  8
PLAN_1
  6
CONTINUOUS
 10
0.986791
 20
-3.463685
  0
VERTEX
  8
PLAN_1
  6
CONTINUOUS
 10
0.986791
 20
-3.659047
  0
SEQEND
  8
0
  0
POLYLINE
  8
PLAN_1
  6
CONTINUOUS
 66
     1
 40
0.003000
 41
0.003000
  0
VERTEX
  8
PLAN_1
  6
CONTINUOUS
 10
1.225110
 20
-3.504787
  0
VERTEX
  8
PLAN_1
  6
CONTINUOUS
 10
1.244047
 20
-3.504787
  0
VERTEX
  8
PLAN_1
  6
CONTINUOUS
 10
1.239890
 20
-3.519567
  0
VERTEX
  8
PLAN_1
  6
CONTINUOUS
 10
1.235732
 20
-3.534346
  0
VERTEX
  8
PLAN_1
  6
CONTINUOUS
 10
1.231575
 20
-3.548205
  0
VERTEX
  8
PLAN_1
  6
CONTINUOUS
 10
1.227882
 20
-3.561598
  0
VERTEX
  8
PLAN_1
  6
CONTINUOUS
 10
1.224185
 20
-3.573606
  0
VERTEX
  8
PLAN_1
  6
CONTINUOUS
 10
1.221413
 20
-3.583303
  0
VERTEX
  8
PLAN_1
  6
CONTINUOUS
 10
1.219567
 20
-3.590693
  0
VERTEX
  8
PLAN_1
  6
CONTINUOUS
 10
1.219106
 20
-3.595311
  0
VERTEX
  8
PLAN_1
  6
CONTINUOUS
 10
1.219106
 20
-3.597161
  0
VERTEX
  8
PLAN_1
  6
CONTINUOUS
 10
1.219567
 20
-3.598543
  0
VERTEX
  8
PLAN_1
  6
CONTINUOUS
 10
1.220028
 20
-3.599929
  0
VERTEX
  8
PLAN_1
  6
CONTINUOUS
 10
1.220492
 20
-3.601315
  0
VERTEX
  8
PLAN_1
  6
CONTINUOUS
 10
1.220953
 20
-3.602240
  0
VERTEX
  8
PLAN_1
  6
CONTINUOUS
 10
1.222339
 20
-3.602701
  0
VERTEX
  8
PLAN_1
  6
CONTINUOUS
 10
1.223264
 20
-3.603165
  0
VERTEX
  8
PLAN_1
  6
CONTINUOUS
 10
1.225110
 20
-3.603165
  0
VERTEX
  8
PLAN_1
  6
CONTINUOUS
 10
1.228343
 20
-3.602701
  0
VERTEX
  8
PLAN_1
  6
CONTINUOUS
 10
1.232039
 20
-3.601780
  0
VERTEX
  8
PLAN_1
  6
CONTINUOUS
 10
1.235732
 20
-3.600394
  0
VERTEX
  8
PLAN_1
  6
CONTINUOUS
 10
1.238965
 20
-3.598083
  0
VERTEX
  8
PLAN_1
  6
CONTINUOUS
 10
1.242661
 20
-3.595311
  0
VERTEX
  8
PLAN_1
  6
CONTINUOUS
 10
1.245894
 20
-3.592079
  0
VERTEX
  8
PLAN_1
  6
CONTINUOUS
 10
1.248665
 20
-3.588386
  0
VERTEX
  8
PLAN_1
  6
CONTINUOUS
 10
1.251898
 20
-3.584228
  0
VERTEX
  8
PLAN_1
  6
CONTINUOUS
 10
1.254669
 20
-3.580071
  0
VERTEX
  8
PLAN_1
  6
CONTINUOUS
 10
1.256976
 20
-3.575453
  0
VERTEX
  8
PLAN_1
  6
CONTINUOUS
 10
1.258827
 20
-3.570370
  0
VERTEX
  8
PLAN_1
  6
CONTINUOUS
 10
1.260673
 20
-3.565291
  0
VERTEX
  8
PLAN_1
  6
CONTINUOUS
 10
1.262520
 20
-3.559748
  0
VERTEX
  8
PLAN_1
  6
CONTINUOUS
 10
1.263445
 20
-3.554209
  0
VERTEX
  8
PLAN_1
  6
CONTINUOUS
 10
1.264366
 20
-3.548665
  0
VERTEX
  8
PLAN_1
  6
CONTINUOUS
 10
1.264366
 20
-3.543122
  0
VERTEX
  8
PLAN_1
  6
CONTINUOUS
 10
1.263906
 20
-3.535272
  0
VERTEX
  8
PLAN_1
  6
CONTINUOUS
 10
1.262980
 20
-3.527421
  0
VERTEX
  8
PLAN_1
  6
CONTINUOUS
 10
1.260673
 20
-3.520031
  0
VERTEX
  8
PLAN_1
  6
CONTINUOUS
 10
1.258362
 20
-3.513102
  0
VERTEX
  8
PLAN_1
  6
CONTINUOUS
 10
1.254669
 20
-3.507098
  0
VERTEX
  8
PLAN_1
  6
CONTINUOUS
 10
1.250972
 20
-3.501094
  0
VERTEX
  8
PLAN_1
  6
CONTINUOUS
 10
1.246354
 20
-3.495551
  0
VERTEX
  8
PLAN_1
  6
CONTINUOUS
 10
1.241276
 20
-3.490933
  0
VERTEX
  8
PLAN_1
  6
CONTINUOUS
 10
1.235732
 20
-3.486315
  0
VERTEX
  8
PLAN_1
  6
CONTINUOUS
 10
1.229728
 20
-3.482618
  0
VERTEX
  8
PLAN_1
  6
CONTINUOUS
 10
1.223264
 20
-3.479386
  0
VERTEX
  8
PLAN_1
  6
CONTINUOUS
 10
1.216795
 20
-3.476614
  0
VERTEX
  8
PLAN_1
  6
CONTINUOUS
 10
1.209870
 20
-3.474307
  0
VERTEX
  8
PLAN_1
  6
CONTINUOUS
 10
1.202480
 20
-3.472921
  0
VERTEX
  8
PLAN_1
  6
CONTINUOUS
 10
1.194626
 20
-3.471996
  0
VERTEX
  8
PLAN_1
  6
CONTINUOUS
 10
1.186776
 20
-3.471535
  0
VERTEX
  8
PLAN_1
  6
CONTINUOUS
 10
1.178000
 20
-3.471996
  0
VERTEX
  8
PLAN_1
  6
CONTINUOUS
 10
1.169224
 20
-3.473382
  0
VERTEX
  8
PLAN_1
  6
CONTINUOUS
 10
1.160913
 20
-3.475693
  0
VERTEX
  8
PLAN_1
  6
CONTINUOUS
 10
1.153059
 20
-3.478465
  0
VERTEX
  8
PLAN_1
  6
CONTINUOUS
 10
1.145669
 20
-3.482157
  0
VERTEX
  8
PLAN_1
  6
CONTINUOUS
 10
1.138744
 20
-3.486776
  0
VERTEX
  8
PLAN_1
  6
CONTINUOUS
 10
1.132276
 20
-3.491858
  0
VERTEX
  8
PLAN_1
  6
CONTINUOUS
 10
1.126272
 20
-3.497398
  0
VERTEX
  8
PLAN_1
  6
CONTINUOUS
 10
1.120732
 20
-3.503866
  0
VERTEX
  8
PLAN_1
  6
CONTINUOUS
 10
1.116110
 20
-3.510791
  0
VERTEX
  8
PLAN_1
  6
CONTINUOUS
 10
1.111957
 20
-3.518181
  0
VERTEX
  8
PLAN_1
  6
CONTINUOUS
 10
1.108720
 20
-3.526035
  0
VERTEX
  8
PLAN_1
  6
CONTINUOUS
 10
1.105953
 20
-3.533886
  0
VERTEX
  8
PLAN_1
  6
CONTINUOUS
 10
1.104102
 20
-3.542661
  0
VERTEX
  8
PLAN_1
  6
CONTINUOUS
 10
1.103181
 20
-3.551437
  0
VERTEX
  8
PLAN_1
  6
CONTINUOUS
 10
1.102717
 20
-3.560673
  0
VERTEX
  8
PLAN_1
  6
CONTINUOUS
 10
1.103181
 20
-3.569449
  0
VERTEX
  8
PLAN_1
  6
CONTINUOUS
 10
1.104102
 20
-3.578224
  0
VERTEX
  8
PLAN_1
  6
CONTINUOUS
 10
1.106413
 20
-3.586535
  0
VERTEX
  8
PLAN_1
  6
CONTINUOUS
 10
1.109185
 20
-3.594850
  0
VERTEX
  8
PLAN_1
  6
CONTINUOUS
 10
1.112878
 20
-3.602240
  0
VERTEX
  8
PLAN_1
  6
CONTINUOUS
 10
1.117035
 20
-3.609630
  0
VERTEX
  8
PLAN_1
  6
CONTINUOUS
 10
1.122114
 20
-3.616094
  0
VERTEX
  8
PLAN_1
  6
CONTINUOUS
 10
1.127657
 20
-3.622098
  0
VERTEX
  8
PLAN_1
  6
CONTINUOUS
 10
1.133661
 20
-3.627642
  0
VERTEX
  8
PLAN_1
  6
CONTINUOUS
 10
1.140130
 20
-3.632724
  0
VERTEX
  8
PLAN_1
  6
CONTINUOUS
 10
1.147520
 20
-3.636878
  0
VERTEX
  8
PLAN_1
  6
CONTINUOUS
 10
1.154909
 20
-3.640575
  0
VERTEX
  8
PLAN_1
  6
CONTINUOUS
 10
1.162760
 20
-3.643346
  0
VERTEX
  8
PLAN_1
  6
CONTINUOUS
 10
1.171071
 20
-3.645193
  0
VERTEX
  8
PLAN_1
  6
CONTINUOUS
 10
1.179846
 20
-3.646579
  0
VERTEX
  8
PLAN_1
  6
CONTINUOUS
 10
1.189087
 20
-3.647039
  0
VERTEX
  8
PLAN_1
  6
CONTINUOUS
 10
1.193705
 20
-3.647039
  0
VERTEX
  8
PLAN_1
  6
CONTINUOUS
 10
1.198323
 20
-3.646579
  0
VERTEX
  8
PLAN_1
  6
CONTINUOUS
 10
1.203402
 20
-3.645654
  0
VERTEX
  8
PLAN_1
  6
CONTINUOUS
 10
1.208020
 20
-3.644732
  0
VERTEX
  8
PLAN_1
  6
CONTINUOUS
 10
1.212638
 20
-3.643807
  0
VERTEX
  8
PLAN_1
  6
CONTINUOUS
 10
1.217260
 20
-3.641961
  0
VERTEX
  8
PLAN_1
  6
CONTINUOUS
 10
1.221878
 20
-3.640575
  0
VERTEX
  8
PLAN_1
  6
CONTINUOUS
 10
1.226496
 20
-3.638728
  0
VERTEX
  8
PLAN_1
  6
CONTINUOUS
 10
1.230654
 20
-3.636417
  0
VERTEX
  8
PLAN_1
  6
CONTINUOUS
 10
1.234807
 20
-3.634106
  0
VERTEX
  8
PLAN_1
  6
CONTINUOUS
 10
1.238965
 20
-3.631339
  0
VERTEX
  8
PLAN_1
  6
CONTINUOUS
 10
1.242661
 20
-3.628567
  0
VERTEX
  8
PLAN_1
  6
CONTINUOUS
 10
1.246354
 20
-3.625335
  0
VERTEX
  8
PLAN_1
  6
CONTINUOUS
 10
1.250051
 20
-3.622563
  0
VERTEX
  8
PLAN_1
  6
CONTINUOUS
 10
1.253283
 20
-3.618866
  0
VERTEX
  8
PLAN_1
  6
CONTINUOUS
 10
1.256516
 20
-3.615634
  0
VERTEX
  8
PLAN_1
  6
CONTINUOUS
 10
1.274988
 20
-3.615634
  0
VERTEX
  8
PLAN_1
  6
CONTINUOUS
 10
1.271295
 20
-3.621177
  0
VERTEX
  8
PLAN_1
  6
CONTINUOUS
 10
1.267602
 20
-3.626256
  0
VERTEX
  8
PLAN_1
  6
CONTINUOUS
 10
1.263445
 20
-3.631339
  0
VERTEX
  8
PLAN_1
  6
CONTINUOUS
 10
1.258827
 20
-3.635957
  0
VERTEX
  8
PLAN_1
  6
CONTINUOUS
 10
1.254205
 20
-3.640110
  0
VERTEX
  8
PLAN_1
  6
CONTINUOUS
 10
1.249126
 20
-3.644268
  0
VERTEX
  8
PLAN_1
  6
CONTINUOUS
 10
1.243583
 20
-3.647965
  0
VERTEX
  8
PLAN_1
  6
CONTINUOUS
 10
1.238043
 20
-3.651197
  0
VERTEX
  8
PLAN_1
  6
CONTINUOUS
 10
1.232500
 20
-3.653969
  0
VERTEX
  8
PLAN_1
  6
CONTINUOUS
 10
1.226496
 20
-3.656740
  0
VERTEX
  8
PLAN_1
  6
CONTINUOUS
 10
1.220492
 20
-3.659047
  0
VERTEX
  8
PLAN_1
  6
CONTINUOUS
 10
1.214488
 20
-3.660894
  0
VERTEX
  8
PLAN_1
  6
CONTINUOUS
 10
1.208020
 20
-3.662280
  0
VERTEX
  8
PLAN_1
  6
CONTINUOUS
 10
1.201555
 20
-3.663205
  0
VERTEX
  8
PLAN_1
  6
CONTINUOUS
 10
1.195091
 20
-3.664130
  0
VERTEX
  8
PLAN_1
  6
CONTINUOUS
 10
1.188161
 20
-3.664130
  0
VERTEX
  8
PLAN_1
  6
CONTINUOUS
 10
1.182618
 20
-3.664130
  0
VERTEX
  8
PLAN_1
  6
CONTINUOUS
 10
1.177539
 20
-3.663665
  0
VERTEX
  8
PLAN_1
  6
CONTINUOUS
 10
1.171996
 20
-3.663205
  0
VERTEX
  8
PLAN_1
  6
CONTINUOUS
 10
1.166917
 20
-3.662280
  0
VERTEX
  8
PLAN_1
  6
CONTINUOUS
 10
1.161374
 20
-3.660894
  0
VERTEX
  8
PLAN_1
  6
CONTINUOUS
 10
1.156291
 20
-3.659512
  0
VERTEX
  8
PLAN_1
  6
CONTINUOUS
 10
1.151673
 20
-3.658126
  0
VERTEX
  8
PLAN_1
  6
CONTINUOUS
 10
1.146594
 20
-3.656276
  0
VERTEX
  8
PLAN_1
  6
CONTINUOUS
 10
1.141976
 20
-3.653969
  0
VERTEX
  8
PLAN_1
  6
CONTINUOUS
 10
1.137358
 20
-3.651657
  0
VERTEX
  8
PLAN_1
  6
CONTINUOUS
 10
1.133201
 20
-3.649350
  0
VERTEX
  8
PLAN_1
  6
CONTINUOUS
 10
1.128583
 20
-3.646579
  0
VERTEX
  8
PLAN_1
  6
CONTINUOUS
 10
1.124425
 20
-3.643346
  0
VERTEX
  8
PLAN_1
  6
CONTINUOUS
 10
1.120732
 20
-3.640575
  0
VERTEX
  8
PLAN_1
  6
CONTINUOUS
 10
1.116575
 20
-3.637343
  0
VERTEX
  8
PLAN_1
  6
CONTINUOUS
 10
1.112878
 20
-3.633646
  0
VERTEX
  8
PLAN_1
  6
CONTINUOUS
 10
1.109646
 20
-3.629953
  0
VERTEX
  8
PLAN_1
  6
CONTINUOUS
 10
1.106413
 20
-3.626256
  0
VERTEX
  8
PLAN_1
  6
CONTINUOUS
 10
1.103181
 20
-3.622098
  0
VERTEX
  8
PLAN_1
  6
CONTINUOUS
 10
1.100409
 20
-3.617945
  0
VERTEX
  8
PLAN_1
  6
CONTINUOUS
 10
1.097638
 20
-3.613787
  0
VERTEX
  8
PLAN_1
  6
CONTINUOUS
 10
1.094866
 20
-3.609630
  0
VERTEX
  8
PLAN_1
  6
CONTINUOUS
 10
1.092559
 20
-3.605012
  0
VERTEX
  8
PLAN_1
  6
CONTINUOUS
 10
1.090709
 20
-3.600394
  0
VERTEX
  8
PLAN_1
  6
CONTINUOUS
 10
1.088862
 20
-3.595311
  0
VERTEX
  8
PLAN_1
  6
CONTINUOUS
 10
1.087016
 20
-3.590693
  0
VERTEX
  8
PLAN_1
  6
CONTINUOUS
 10
1.085630
 20
-3.585614
  0
VERTEX
  8
PLAN_1
  6
CONTINUOUS
 10
1.084244
 20
-3.580071
  0
VERTEX
  8
PLAN_1
  6
CONTINUOUS
 10
1.083319
 20
-3.574992
  0
VERTEX
  8
PLAN_1
  6
CONTINUOUS
 10
1.082858
 20
-3.569909
  0
VERTEX
  8
PLAN_1
  6
CONTINUOUS
 10
1.082398
 20
-3.564366
  0
VERTEX
  8
PLAN_1
  6
CONTINUOUS
 10
1.082398
 20
-3.558827
  0
VERTEX
  8
PLAN_1
  6
CONTINUOUS
 10
1.082398
 20
-3.553283
  0
VERTEX
  8
PLAN_1
  6
CONTINUOUS
 10
1.082858
 20
-3.548205
  0
VERTEX
  8
PLAN_1
  6
CONTINUOUS
 10
1.083319
 20
-3.542661
  0
VERTEX
  8
PLAN_1
  6
CONTINUOUS
 10
1.084244
 20
-3.537579
  0
VERTEX
  8
PLAN_1
  6
CONTINUOUS
 10
1.085630
 20
-3.532500
  0
VERTEX
  8
PLAN_1
  6
CONTINUOUS
 10
1.087016
 20
-3.527421
  0
VERTEX
  8
PLAN_1
  6
CONTINUOUS
 10
1.088862
 20
-3.522799
  0
VERTEX
  8
PLAN_1
  6
CONTINUOUS
 10
1.090709
 20
-3.518181
  0
VERTEX
  8
PLAN_1
  6
CONTINUOUS
 10
1.092559
 20
-3.513563
  0
VERTEX
  8
PLAN_1
  6
CONTINUOUS
 10
1.094866
 20
-3.508945
  0
VERTEX
  8
PLAN_1
  6
CONTINUOUS
 10
1.097638
 20
-3.504327
  0
VERTEX
  8
PLAN_1
  6
CONTINUOUS
 10
1.100409
 20
-3.500169
  0
VERTEX
  8
PLAN_1
  6
CONTINUOUS
 10
1.103181
 20
-3.496012
  0
VERTEX
  8
PLAN_1
  6
CONTINUOUS
 10
1.106413
 20
-3.492319
  0
VERTEX
  8
PLAN_1
  6
CONTINUOUS
 10
1.109646
 20
-3.488622
  0
VERTEX
  8
PLAN_1
  6
CONTINUOUS
 10
1.113343
 20
-3.484929
  0
VERTEX
  8
PLAN_1
  6
CONTINUOUS
 10
1.117035
 20
-3.481232
  0
VERTEX
  8
PLAN_1
  6
CONTINUOUS
 10
1.120732
 20
-3.478000
  0
VERTEX
  8
PLAN_1
  6
CONTINUOUS
 10
1.124425
 20
-3.475228
  0
VERTEX
  8
PLAN_1
  6
CONTINUOUS
 10
1.128583
 20
-3.471996
  0
VERTEX
  8
PLAN_1
  6
CONTINUOUS
 10
1.132740
 20
-3.469224
  0
VERTEX
  8
PLAN_1
  6
CONTINUOUS
 10
1.137358
 20
-3.466917
  0
VERTEX
  8
PLAN_1
  6
CONTINUOUS
 10
1.141976
 20
-3.464606
  0
VERTEX
  8
PLAN_1
  6
CONTINUOUS
 10
1.146594
 20
-3.462760
  0
VERTEX
  8
PLAN_1
  6
CONTINUOUS
 10
1.151213
 20
-3.460913
  0
VERTEX
  8
PLAN_1
  6
CONTINUOUS
 10
1.155831
 20
-3.459063
  0
VERTEX
  8
PLAN_1
  6
CONTINUOUS
 10
1.160913
 20
-3.457681
  0
VERTEX
  8
PLAN_1
  6
CONTINUOUS
 10
1.165992
 20
-3.456295
  0
VERTEX
  8
PLAN_1
  6
CONTINUOUS
 10
1.171071
 20
-3.455831
  0
VERTEX
  8
PLAN_1
  6
CONTINUOUS
 10
1.176154
 20
-3.454909
  0
VERTEX
  8
PLAN_1
  6
CONTINUOUS
 10
1.181697
 20
-3.454445
  0
VERTEX
  8
PLAN_1
  6
CONTINUOUS
 10
1.186776
 20
-3.454445
  0
VERTEX
  8
PLAN_1
  6
CONTINUOUS
 10
1.196476
 20
-3.454909
  0
VERTEX
  8
PLAN_1
  6
CONTINUOUS
 10
1.205713
 20
-3.455831
  0
VERTEX
  8
PLAN_1
  6
CONTINUOUS
 10
1.214949
 20
-3.458142
  0
VERTEX
  8
PLAN_1
  6
CONTINUOUS
 10
1.223724
 20
-3.460913
  0
VERTEX
  8
PLAN_1
  6
CONTINUOUS
 10
1.232039
 20
-3.464146
  0
VERTEX
  8
PLAN_1
  6
CONTINUOUS
 10
1.239890
 20
-3.468303
  0
VERTEX
  8
PLAN_1
  6
CONTINUOUS
 10
1.247280
 20
-3.473382
  0
VERTEX
  8
PLAN_1
  6
CONTINUOUS
 10
1.253744
 20
-3.478925
  0
VERTEX
  8
PLAN_1
  6
CONTINUOUS
 10
1.260213
 20
-3.484929
  0
VERTEX
  8
PLAN_1
  6
CONTINUOUS
 10
1.265752
 20
-3.491394
  0
VERTEX
  8
PLAN_1
  6
CONTINUOUS
 10
1.270835
 20
-3.498323
  0
VERTEX
  8
PLAN_1
  6
CONTINUOUS
 10
1.274528
 20
-3.506173
  0
VERTEX
  8
PLAN_1
  6
CONTINUOUS
 10
1.276374
 20
-3.510331
  0
VERTEX
  8
PLAN_1
  6
CONTINUOUS
 10
1.278224
 20
-3.514488
  0
VERTEX
  8
PLAN_1
  6
CONTINUOUS
 10
1.279146
 20
-3.518646
  0
VERTEX
  8
PLAN_1
  6
CONTINUOUS
 10
1.280531
 20
-3.522799
  0
VERTEX
  8
PLAN_1
  6
CONTINUOUS
 10
1.281457
 20
-3.527421
  0
VERTEX
  8
PLAN_1
  6
CONTINUOUS
 10
1.281917
 20
-3.531575
  0
VERTEX
  8
PLAN_1
  6
CONTINUOUS
 10
1.282378
 20
-3.536193
  0
VERTEX
  8
PLAN_1
  6
CONTINUOUS
 10
1.282378
 20
-3.540815
  0
VERTEX
  8
PLAN_1
  6
CONTINUOUS
 10
1.282378
 20
-3.545894
  0
VERTEX
  8
PLAN_1
  6
CONTINUOUS
 10
1.281917
 20
-3.550051
  0
VERTEX
  8
PLAN_1
  6
CONTINUOUS
 10
1.281457
 20
-3.554669
  0
VERTEX
  8
PLAN_1
  6
CONTINUOUS
 10
1.280531
 20
-3.558827
  0
VERTEX
  8
PLAN_1
  6
CONTINUOUS
 10
1.278224
 20
-3.567138
  0
VERTEX
  8
PLAN_1
  6
CONTINUOUS
 10
1.275453
 20
-3.574528
  0
VERTEX
  8
PLAN_1
  6
CONTINUOUS
 10
1.272220
 20
-3.581917
  0
VERTEX
  8
PLAN_1
  6
CONTINUOUS
 10
1.268063
 20
-3.588386
  0
VERTEX
  8
PLAN_1
  6
CONTINUOUS
 10
1.263445
 20
-3.594390
  0
VERTEX
  8
PLAN_1
  6
CONTINUOUS
 10
1.258362
 20
-3.599929
  0
VERTEX
  8
PLAN_1
  6
CONTINUOUS
 10
1.253283
 20
-3.605012
  0
VERTEX
  8
PLAN_1
  6
CONTINUOUS
 10
1.247740
 20
-3.609169
  0
VERTEX
  8
PLAN_1
  6
CONTINUOUS
 10
1.242197
 20
-3.612862
  0
VERTEX
  8
PLAN_1
  6
CONTINUOUS
 10
1.236657
 20
-3.615634
  0
VERTEX
  8
PLAN_1
  6
CONTINUOUS
 10
1.231575
 20
-3.617945
  0
VERTEX
  8
PLAN_1
  6
CONTINUOUS
 10
1.226035
 20
-3.619791
  0
VERTEX
  8
PLAN_1
  6
CONTINUOUS
 10
1.220953
 20
-3.620713
  0
VERTEX
  8
PLAN_1
  6
CONTINUOUS
 10
1.215874
 20
-3.621177
  0
VERTEX
  8
PLAN_1
  6
CONTINUOUS
 10
1.212638
 20
-3.621177
  0
VERTEX
  8
PLAN_1
  6
CONTINUOUS
 10
1.209406
 20
-3.620252
  0
VERTEX
  8
PLAN_1
  6
CONTINUOUS
 10
1.206634
 20
-3.618866
  0
VERTEX
  8
PLAN_1
  6
CONTINUOUS
 10
1.203866
 20
-3.617020
  0
VERTEX
  8
PLAN_1
  6
CONTINUOUS
 10
1.201555
 20
-3.614709
  0
VERTEX
  8
PLAN_1
  6
CONTINUOUS
 10
1.200169
 20
-3.611476
  0
VERTEX
  8
PLAN_1
  6
CONTINUOUS
 10
1.198783
 20
-3.607783
  0
VERTEX
  8
PLAN_1
  6
CONTINUOUS
 10
1.198323
 20
-3.603626
  0
VERTEX
  8
PLAN_1
  6
CONTINUOUS
 10
1.197862
 20
-3.604087
  0
VERTEX
  8
PLAN_1
  6
CONTINUOUS
 10
1.194626
 20
-3.607319
  0
VERTEX
  8
PLAN_1
  6
CONTINUOUS
 10
1.190933
 20
-3.610555
  0
VERTEX
  8
PLAN_1
  6
CONTINUOUS
 10
1.187236
 20
-3.613323
  0
VERTEX
  8
PLAN_1
  6
CONTINUOUS
 10
1.183083
 20
-3.615634
  0
VERTEX
  8
PLAN_1
  6
CONTINUOUS
 10
1.178461
 20
-3.617945
  0
VERTEX
  8
PLAN_1
  6
CONTINUOUS
 10
1.173843
 20
-3.619791
  0
VERTEX
  8
PLAN_1
  6
CONTINUOUS
 10
1.169224
 20
-3.620713
  0
VERTEX
  8
PLAN_1
  6
CONTINUOUS
 10
1.164606
 20
-3.621177
  0
VERTEX
  8
PLAN_1
  6
CONTINUOUS
 10
1.159988
 20
-3.621177
  0
VERTEX
  8
PLAN_1
  6
CONTINUOUS
 10
1.155831
 20
-3.620252
  0
VERTEX
  8
PLAN_1
  6
CONTINUOUS
 10
1.151673
 20
-3.619327
  0
VERTEX
  8
PLAN_1
  6
CONTINUOUS
 10
1.147980
 20
-3.617480
  0
VERTEX
  8
PLAN_1
  6
CONTINUOUS
 10
1.144283
 20
-3.615634
  0
VERTEX
  8
PLAN_1
  6
CONTINUOUS
 10
1.141051
 20
-3.613787
  0
VERTEX
  8
PLAN_1
  6
CONTINUOUS
 10
1.137819
 20
-3.611016
  0
VERTEX
  8
PLAN_1
  6
CONTINUOUS
 10
1.135047
 20
-3.608244
  0
VERTEX
  8
PLAN_1
  6
CONTINUOUS
 10
1.132740
 20
-3.605012
  0
VERTEX
  8
PLAN_1
  6
CONTINUOUS
 10
1.130429
 20
-3.601315
  0
VERTEX
  8
PLAN_1
  6
CONTINUOUS
 10
1.128122
 20
-3.597622
  0
VERTEX
  8
PLAN_1
  6
CONTINUOUS
 10
1.126736
 20
-3.593925
  0
VERTEX
  8
PLAN_1
  6
CONTINUOUS
 10
1.125350
 20
-3.589772
  0
VERTEX
  8
PLAN_1
  6
CONTINUOUS
 10
1.124425
 20
-3.585614
  0
VERTEX
  8
PLAN_1
  6
CONTINUOUS
 10
1.123965
 20
-3.581457
  0
VERTEX
  8
PLAN_1
  6
CONTINUOUS
 10
1.123500
 20
-3.576839
  0
VERTEX
  8
PLAN_1
  6
CONTINUOUS
 10
1.123965
 20
-3.569909
  0
VERTEX
  8
PLAN_1
  6
CONTINUOUS
 10
1.124886
 20
-3.562984
  0
VERTEX
  8
PLAN_1
  6
CONTINUOUS
 10
1.126272
 20
-3.556055
  0
VERTEX
  8
PLAN_1
  6
CONTINUOUS
 10
1.128122
 20
-3.549126
  0
VERTEX
  8
PLAN_1
  6
CONTINUOUS
 10
1.130890
 20
-3.542661
  0
VERTEX
  8
PLAN_1
  6
CONTINUOUS
 10
1.133661
 20
-3.536193
  0
VERTEX
  8
PLAN_1
  6
CONTINUOUS
 10
1.137358
 20
-3.530189
  0
VERTEX
  8
PLAN_1
  6
CONTINUOUS
 10
1.141051
 20
-3.524650
  0
VERTEX
  8
PLAN_1
  6
CONTINUOUS
 10
1.145669
 20
-3.519106
  0
VERTEX
  8
PLAN_1
  6
CONTINUOUS
 10
1.150752
 20
-3.514488
  0
VERTEX
  8
PLAN_1
  6
CONTINUOUS
 10
1.155831
 20
-3.510331
  0
VERTEX
  8
PLAN_1
  6
CONTINUOUS
 10
1.161374
 20
-3.507098
  0
VERTEX
  8
PLAN_1
  6
CONTINUOUS
 10
1.167378
 20
-3.503866
  0
VERTEX
  8
PLAN_1
  6
CONTINUOUS
 10
1.173843
 20
-3.502016
  0
VERTEX
  8
PLAN_1
  6
CONTINUOUS
 10
1.180772
 20
-3.500630
  0
VERTEX
  8
PLAN_1
  6
CONTINUOUS
 10
1.187701
 20
-3.500169
  0
VERTEX
  8
PLAN_1
  6
CONTINUOUS
 10
1.192780
 20
-3.500630
  0
VERTEX
  8
PLAN_1
  6
CONTINUOUS
 10
1.197398
 20
-3.501555
  0
VERTEX
  8
PLAN_1
  6
CONTINUOUS
 10
1.202016
 20
-3.502941
  0
VERTEX
  8
PLAN_1
  6
CONTINUOUS
 10
1.206173
 20
-3.505252
  0
VERTEX
  8
PLAN_1
  6
CONTINUOUS
 10
1.209870
 20
-3.508020
  0
VERTEX
  8
PLAN_1
  6
CONTINUOUS
 10
1.213563
 20
-3.511717
  0
VERTEX
  8
PLAN_1
  6
CONTINUOUS
 10
1.216795
 20
-3.516335
  0
VERTEX
  8
PLAN_1
  6
CONTINUOUS
 10
1.219567
 20
-3.521878
  0
VERTEX
  8
PLAN_1
  6
CONTINUOUS
 10
1.225110
 20
-3.504787
  0
SEQEND
  8
0
  0
POLYLINE
  8
PLAN_1
  6
CONTINUOUS
 66
     1
 40
0.003000
 41
0.003000
  0
VERTEX
  8
PLAN_1
  6
CONTINUOUS
 10
1.188161
 20
-3.520031
  0
VERTEX
  8
PLAN_1
  6
CONTINUOUS
 10
1.184004
 20
-3.520492
  0
VERTEX
  8
PLAN_1
  6
CONTINUOUS
 10
1.179386
 20
-3.521413
  0
VERTEX
  8
PLAN_1
  6
CONTINUOUS
 10
1.175228
 20
-3.523264
  0
VERTEX
  8
PLAN_1
  6
CONTINUOUS
 10
1.171535
 20
-3.525571
  0
VERTEX
  8
PLAN_1
  6
CONTINUOUS
 10
1.167839
 20
-3.528343
  0
VERTEX
  8
PLAN_1
  6
CONTINUOUS
 10
1.164146
 20
-3.531114
  0
VERTEX
  8
PLAN_1
  6
CONTINUOUS
 10
1.160913
 20
-3.534811
  0
VERTEX
  8
PLAN_1
  6
CONTINUOUS
 10
1.158142
 20
-3.538504
  0
VERTEX
  8
PLAN_1
  6
CONTINUOUS
 10
1.155370
 20
-3.542661
  0
VERTEX
  8
PLAN_1
  6
CONTINUOUS
 10
1.153059
 20
-3.547280
  0
VERTEX
  8
PLAN_1
  6
CONTINUOUS
 10
1.151213
 20
-3.551437
  0
VERTEX
  8
PLAN_1
  6
CONTINUOUS
 10
1.149366
 20
-3.556055
  0
VERTEX
  8
PLAN_1
  6
CONTINUOUS
 10
1.147980
 20
-3.560673
  0
VERTEX
  8
PLAN_1
  6
CONTINUOUS
 10
1.147055
 20
-3.565291
  0
VERTEX
  8
PLAN_1
  6
CONTINUOUS
 10
1.146594
 20
-3.569909
  0
VERTEX
  8
PLAN_1
  6
CONTINUOUS
 10
1.146594
 20
-3.574528
  0
VERTEX
  8
PLAN_1
  6
CONTINUOUS
 10
1.147055
 20
-3.580071
  0
VERTEX
  8
PLAN_1
  6
CONTINUOUS
 10
1.147980
 20
-3.585150
  0
VERTEX
  8
PLAN_1
  6
CONTINUOUS
 10
1.148906
 20
-3.587461
  0
VERTEX
  8
PLAN_1
  6
CONTINUOUS
 10
1.150287
 20
-3.589772
  0
VERTEX
  8
PLAN_1
  6
CONTINUOUS
 10
1.151213
 20
-3.592079
  0
VERTEX
  8
PLAN_1
  6
CONTINUOUS
 10
1.153059
 20
-3.593925
  0
VERTEX
  8
PLAN_1
  6
CONTINUOUS
 10
1.154445
 20
-3.595311
  0
VERTEX
  8
PLAN_1
  6
CONTINUOUS
 10
1.156291
 20
-3.596697
  0
VERTEX
  8
PLAN_1
  6
CONTINUOUS
 10
1.158142
 20
-3.598083
  0
VERTEX
  8
PLAN_1
  6
CONTINUOUS
 10
1.160449
 20
-3.599469
  0
VERTEX
  8
PLAN_1
  6
CONTINUOUS
 10
1.162299
 20
-3.599929
  0
VERTEX
  8
PLAN_1
  6
CONTINUOUS
 10
1.164606
 20
-3.600854
  0
VERTEX
  8
PLAN_1
  6
CONTINUOUS
 10
1.167378
 20
-3.601315
  0
VERTEX
  8
PLAN_1
  6
CONTINUOUS
 10
1.169689
 20
-3.601315
  0
VERTEX
  8
PLAN_1
  6
CONTINUOUS
 10
1.174307
 20
-3.600854
  0
VERTEX
  8
PLAN_1
  6
CONTINUOUS
 10
1.178461
 20
-3.599929
  0
VERTEX
  8
PLAN_1
  6
CONTINUOUS
 10
1.182157
 20
-3.598083
  0
VERTEX
  8
PLAN_1
  6
CONTINUOUS
 10
1.186315
 20
-3.595776
  0
VERTEX
  8
PLAN_1
  6
CONTINUOUS
 10
1.190008
 20
-3.593004
  0
VERTEX
  8
PLAN_1
  6
CONTINUOUS
 10
1.193240
 20
-3.589772
  0
VERTEX
  8
PLAN_1
  6
CONTINUOUS
 10
1.196476
 20
-3.586075
  0
VERTEX
  8
PLAN_1
  6
CONTINUOUS
 10
1.199244
 20
-3.581917
  0
VERTEX
  8
PLAN_1
  6
CONTINUOUS
 10
1.202016
 20
-3.577760
  0
VERTEX
  8
PLAN_1
  6
CONTINUOUS
 10
1.204327
 20
-3.573142
  0
VERTEX
  8
PLAN_1
  6
CONTINUOUS
 10
1.206173
 20
-3.568524
  0
VERTEX
  8
PLAN_1
  6
CONTINUOUS
 10
1.208020
 20
-3.563906
  0
VERTEX
  8
PLAN_1
  6
CONTINUOUS
 10
1.209406
 20
-3.559287
  0
VERTEX
  8
PLAN_1
  6
CONTINUOUS
 10
1.210331
 20
-3.554669
  0
VERTEX
  8
PLAN_1
  6
CONTINUOUS
 10
1.210791
 20
-3.550051
  0
VERTEX
  8
PLAN_1
  6
CONTINUOUS
 10
1.211256
 20
-3.545894
  0
VERTEX
  8
PLAN_1
  6
CONTINUOUS
 10
1.210791
 20
-3.540815
  0
VERTEX
  8
PLAN_1
  6
CONTINUOUS
 10
1.209406
 20
-3.536193
  0
VERTEX
  8
PLAN_1
  6
CONTINUOUS
 10
1.207098
 20
-3.531575
  0
VERTEX
  8
PLAN_1
  6
CONTINUOUS
 10
1.204327
 20
-3.527882
  0
VERTEX
  8
PLAN_1
  6
CONTINUOUS
 10
1.201094
 20
-3.524650
  0
VERTEX
  8
PLAN_1
  6
CONTINUOUS
 10
1.196937
 20
-3.522339
  0
VERTEX
  8
PLAN_1
  6
CONTINUOUS
 10
1.195091
 20
-3.521413
  0
VERTEX
  8
PLAN_1
  6
CONTINUOUS
 10
1.192780
 20
-3.520953
  0
VERTEX
  8
PLAN_1
  6
CONTINUOUS
 10
1.190472
 20
-3.520492
  0
VERTEX
  8
PLAN_1
  6
CONTINUOUS
 10
1.188161
 20
-3.520031
  0
SEQEND
  8
0
  0
SOLID
  8
PLAN_1
 10
1.323484
 20
-3.693689
 11
1.323484
 21
-3.679831
 12
1.477744
 22
-3.693689
 13
1.477744
 23
-3.679831
  0
POLYLINE
  8
PLAN_1
  6
CONTINUOUS
 66
     1
 40
0.003000
 41
0.003000
  0
VERTEX
  8
PLAN_1
  6
CONTINUOUS
 10
1.323484
 20
-3.693689
  0
VERTEX
  8
PLAN_1
  6
CONTINUOUS
 10
1.323484
 20
-3.679831
  0
VERTEX
  8
PLAN_1
  6
CONTINUOUS
 10
1.477744
 20
-3.679831
  0
VERTEX
  8
PLAN_1
  6
CONTINUOUS
 10
1.477744
 20
-3.693689
  0
VERTEX
  8
PLAN_1
  6
CONTINUOUS
 10
1.323484
 20
-3.693689
  0
SEQEND
  8
0
  0
POLYLINE
  8
PLAN_1
  6
CONTINUOUS
 66
     1
 40
0.003000
 41
0.003000
  0
VERTEX
  8
PLAN_1
  6
CONTINUOUS
 10
1.529012
 20
-3.659047
  0
VERTEX
  8
PLAN_1
  6
CONTINUOUS
 10
1.502224
 20
-3.659047
  0
VERTEX
  8
PLAN_1
  6
CONTINUOUS
 10
1.502224
 20
-3.459528
  0
VERTEX
  8
PLAN_1
  6
CONTINUOUS
 10
1.594134
 20
-3.459528
  0
VERTEX
  8
PLAN_1
  6
CONTINUOUS
 10
1.600598
 20
-3.459988
  0
VERTEX
  8
PLAN_1
  6
CONTINUOUS
 10
1.606602
 20
-3.460449
  0
VERTEX
  8
PLAN_1
  6
CONTINUOUS
 10
1.612606
 20
-3.460913
  0
VERTEX
  8
PLAN_1
  6
CONTINUOUS
 10
1.618610
 20
-3.462299
  0
VERTEX
  8
PLAN_1
  6
CONTINUOUS
 10
1.624154
 20
-3.463685
  0
VERTEX
  8
PLAN_1
  6
CONTINUOUS
 10
1.629232
 20
-3.465531
  0
VERTEX
  8
PLAN_1
  6
CONTINUOUS
 10
1.634776
 20
-3.467839
  0
VERTEX
  8
PLAN_1
  6
CONTINUOUS
 10
1.639394
 20
-3.470610
  0
VERTEX
  8
PLAN_1
  6
CONTINUOUS
 10
1.643551
 20
-3.473843
  0
VERTEX
  8
PLAN_1
  6
CONTINUOUS
 10
1.647709
 20
-3.478000
  0
VERTEX
  8
PLAN_1
  6
CONTINUOUS
 10
1.651402
 20
-3.482157
  0
VERTEX
  8
PLAN_1
  6
CONTINUOUS
 10
1.654173
 20
-3.487236
  0
VERTEX
  8
PLAN_1
  6
CONTINUOUS
 10
1.656484
 20
-3.492780
  0
VERTEX
  8
PLAN_1
  6
CONTINUOUS
 10
1.658331
 20
-3.498783
  0
VERTEX
  8
PLAN_1
  6
CONTINUOUS
 10
1.659252
 20
-3.505713
  0
VERTEX
  8
PLAN_1
  6
CONTINUOUS
 10
1.659717
 20
-3.513102
  0
VERTEX
  8
PLAN_1
  6
CONTINUOUS
 10
1.659717
 20
-3.518646
  0
VERTEX
  8
PLAN_1
  6
CONTINUOUS
 10
1.659252
 20
-3.523264
  0
VERTEX
  8
PLAN_1
  6
CONTINUOUS
 10
1.658331
 20
-3.527882
  0
VERTEX
  8
PLAN_1
  6
CONTINUOUS
 10
1.657406
 20
-3.532039
  0
VERTEX
  8
PLAN_1
  6
CONTINUOUS
 10
1.656020
 20
-3.535732
  0
VERTEX
  8
PLAN_1
  6
CONTINUOUS
 10
1.654634
 20
-3.539429
  0
VERTEX
  8
PLAN_1
  6
CONTINUOUS
 10
1.652787
 20
-3.542661
  0
VERTEX
  8
PLAN_1
  6
CONTINUOUS
 10
1.650941
 20
-3.545433
  0
VERTEX
  8
PLAN_1
  6
CONTINUOUS
 10
1.646323
 20
-3.550512
  0
VERTEX
  8
PLAN_1
  6
CONTINUOUS
 10
1.641705
 20
-3.554669
  0
VERTEX
  8
PLAN_1
  6
CONTINUOUS
 10
1.637087
 20
-3.557902
  0
VERTEX
  8
PLAN_1
  6
CONTINUOUS
 10
1.632004
 20
-3.561134
  0
VERTEX
  8
PLAN_1
  6
CONTINUOUS
 10
1.636161
 20
-3.562984
  0
VERTEX
  8
PLAN_1
  6
CONTINUOUS
 10
1.640319
 20
-3.564831
  0
VERTEX
  8
PLAN_1
  6
CONTINUOUS
 10
1.644476
 20
-3.567602
  0
VERTEX
  8
PLAN_1
  6
CONTINUOUS
 10
1.647709
 20
-3.571295
  0
VERTEX
  8
PLAN_1
  6
CONTINUOUS
 10
1.649555
 20
-3.573142
  0
VERTEX
  8
PLAN_1
  6
CONTINUOUS
 10
1.650941
 20
-3.575453
  0
VERTEX
  8
PLAN_1
  6
CONTINUOUS
 10
1.652327
 20
-3.578224
  0
VERTEX
  8
PLAN_1
  6
CONTINUOUS
 10
1.653248
 20
-3.581457
  0
VERTEX
  8
PLAN_1
  6
CONTINUOUS
 10
1.654173
 20
-3.585150
  0
VERTEX
  8
PLAN_1
  6
CONTINUOUS
 10
1.655098
 20
-3.589307
  0
VERTEX
  8
PLAN_1
  6
CONTINUOUS
 10
1.655559
 20
-3.593465
  0
VERTEX
  8
PLAN_1
  6
CONTINUOUS
 10
1.656020
 20
-3.598543
  0
VERTEX
  8
PLAN_1
  6
CONTINUOUS
 10
1.657406
 20
-3.634571
  0
VERTEX
  8
PLAN_1
  6
CONTINUOUS
 10
1.657870
 20
-3.638264
  0
VERTEX
  8
PLAN_1
  6
CONTINUOUS
 10
1.658331
 20
-3.641496
  0
VERTEX
  8
PLAN_1
  6
CONTINUOUS
 10
1.658791
 20
-3.644732
  0
VERTEX
  8
PLAN_1
  6
CONTINUOUS
 10
1.659717
 20
-3.647039
  0
VERTEX
  8
PLAN_1
  6
CONTINUOUS
 10
1.660638
 20
-3.648886
  0
VERTEX
  8
PLAN_1
  6
CONTINUOUS
 10
1.662488
 20
-3.651197
  0
VERTEX
  8
PLAN_1
  6
CONTINUOUS
 10
1.664795
 20
-3.652583
  0
VERTEX
  8
PLAN_1
  6
CONTINUOUS
 10
1.667567
 20
-3.654429
  0
VERTEX
  8
PLAN_1
  6
CONTINUOUS
 10
1.667567
 20
-3.659047
  0
VERTEX
  8
PLAN_1
  6
CONTINUOUS
 10
1.634776
 20
-3.659047
  0
VERTEX
  8
PLAN_1
  6
CONTINUOUS
 10
1.633390
 20
-3.653508
  0
VERTEX
  8
PLAN_1
  6
CONTINUOUS
 10
1.632004
 20
-3.647039
  0
VERTEX
  8
PLAN_1
  6
CONTINUOUS
 10
1.631543
 20
-3.639650
  0
VERTEX
  8
PLAN_1
  6
CONTINUOUS
 10
1.630618
 20
-3.632260
  0
VERTEX
  8
PLAN_1
  6
CONTINUOUS
 10
1.630157
 20
-3.624870
  0
VERTEX
  8
PLAN_1
  6
CONTINUOUS
 10
1.630157
 20
-3.618406
  0
VERTEX
  8
PLAN_1
  6
CONTINUOUS
 10
1.629697
 20
-3.612862
  0
VERTEX
  8
PLAN_1
  6
CONTINUOUS
 10
1.629697
 20
-3.609169
  0
VERTEX
  8
PLAN_1
  6
CONTINUOUS
 10
1.629697
 20
-3.602701
  0
VERTEX
  8
PLAN_1
  6
CONTINUOUS
 10
1.628772
 20
-3.596697
  0
VERTEX
  8
PLAN_1
  6
CONTINUOUS
 10
1.628311
 20
-3.593465
  0
VERTEX
  8
PLAN_1
  6
CONTINUOUS
 10
1.626925
 20
-3.590693
  0
VERTEX
  8
PLAN_1
  6
CONTINUOUS
 10
1.626000
 20
-3.587921
  0
VERTEX
  8
PLAN_1
  6
CONTINUOUS
 10
1.624154
 20
-3.585150
  0
VERTEX
  8
PLAN_1
  6
CONTINUOUS
 10
1.622307
 20
-3.582843
  0
VERTEX
  8
PLAN_1
  6
CONTINUOUS
 10
1.619535
 20
-3.580531
  0
VERTEX
  8
PLAN_1
  6
CONTINUOUS
 10
1.616764
 20
-3.578224
  0
VERTEX
  8
PLAN_1
  6
CONTINUOUS
 10
1.613531
 20
-3.576839
  0
VERTEX
  8
PLAN_1
  6
CONTINUOUS
 10
1.609374
 20
-3.575453
  0
VERTEX
  8
PLAN_1
  6
CONTINUOUS
 10
1.605217
 20
-3.574528
  0
VERTEX
  8
PLAN_1
  6
CONTINUOUS
 10
1.600138
 20
-3.573606
  0
VERTEX
  8
PLAN_1
  6
CONTINUOUS
 10
1.594134
 20
-3.573606
  0
VERTEX
  8
PLAN_1
  6
CONTINUOUS
 10
1.529012
 20
-3.573606
  0
VERTEX
  8
PLAN_1
  6
CONTINUOUS
 10
1.529012
 20
-3.659047
  0
SEQEND
  8
0
  0
POLYLINE
  8
PLAN_1
  6
CONTINUOUS
 66
     1
 40
0.003000
 41
0.003000
  0
VERTEX
  8
PLAN_1
  6
CONTINUOUS
 10
1.529012
 20
-3.550512
  0
VERTEX
  8
PLAN_1
  6
CONTINUOUS
 10
1.591362
 20
-3.550512
  0
VERTEX
  8
PLAN_1
  6
CONTINUOUS
 10
1.598752
 20
-3.550051
  0
VERTEX
  8
PLAN_1
  6
CONTINUOUS
 10
1.606142
 20
-3.549126
  0
VERTEX
  8
PLAN_1
  6
CONTINUOUS
 10
1.609835
 20
-3.548205
  0
VERTEX
  8
PLAN_1
  6
CONTINUOUS
 10
1.613067
 20
-3.547280
  0
VERTEX
  8
PLAN_1
  6
CONTINUOUS
 10
1.616303
 20
-3.545894
  0
VERTEX
  8
PLAN_1
  6
CONTINUOUS
 10
1.619071
 20
-3.544508
  0
VERTEX
  8
PLAN_1
  6
CONTINUOUS
 10
1.621843
 20
-3.542197
  0
VERTEX
  8
PLAN_1
  6
CONTINUOUS
 10
1.624614
 20
-3.539890
  0
VERTEX
  8
PLAN_1
  6
CONTINUOUS
 10
1.626461
 20
-3.537118
  0
VERTEX
  8
PLAN_1
  6
CONTINUOUS
 10
1.628311
 20
-3.533886
  0
VERTEX
  8
PLAN_1
  6
CONTINUOUS
 10
1.630157
 20
-3.530189
  0
VERTEX
  8
PLAN_1
  6
CONTINUOUS
 10
1.631083
 20
-3.526035
  0
VERTEX
  8
PLAN_1
  6
CONTINUOUS
 10
1.632004
 20
-3.521413
  0
VERTEX
  8
PLAN_1
  6
CONTINUOUS
 10
1.632004
 20
-3.515874
  0
VERTEX
  8
PLAN_1
  6
CONTINUOUS
 10
1.632004
 20
-3.510791
  0
VERTEX
  8
PLAN_1
  6
CONTINUOUS
 10
1.631083
 20
-3.505713
  0
VERTEX
  8
PLAN_1
  6
CONTINUOUS
 10
1.629697
 20
-3.501555
  0
VERTEX
  8
PLAN_1
  6
CONTINUOUS
 10
1.628311
 20
-3.497862
  0
VERTEX
  8
PLAN_1
  6
CONTINUOUS
 10
1.626461
 20
-3.494626
  0
VERTEX
  8
PLAN_1
  6
CONTINUOUS
 10
1.624154
 20
-3.491858
  0
VERTEX
  8
PLAN_1
  6
CONTINUOUS
 10
1.621843
 20
-3.489547
  0
VERTEX
  8
PLAN_1
  6
CONTINUOUS
 10
1.619071
 20
-3.487701
  0
VERTEX
  8
PLAN_1
  6
CONTINUOUS
 10
1.616303
 20
-3.486315
  0
VERTEX
  8
PLAN_1
  6
CONTINUOUS
 10
1.613531
 20
-3.484929
  0
VERTEX
  8
PLAN_1
  6
CONTINUOUS
 10
1.610295
 20
-3.484469
  0
VERTEX
  8
PLAN_1
  6
CONTINUOUS
 10
1.607528
 20
-3.483543
  0
VERTEX
  8
PLAN_1
  6
CONTINUOUS
 10
1.601524
 20
-3.483083
  0
VERTEX
  8
PLAN_1
  6
CONTINUOUS
 10
1.596441
 20
-3.482618
  0
VERTEX
  8
PLAN_1
  6
CONTINUOUS
 10
1.529012
 20
-3.482618
  0
VERTEX
  8
PLAN_1
  6
CONTINUOUS
 10
1.529012
 20
-3.550512
  0
SEQEND
  8
0
  0
SOLID
  8
PLAN_1
 10
1.731303
 20
-3.659047
 11
1.702205
 21
-3.659047
 12
1.731303
 22
-3.629488
 13
1.702205
 23
-3.629488
  0
POLYLINE
  8
PLAN_1
  6
CONTINUOUS
 66
     1
 40
0.003000
 41
0.003000
  0
VERTEX
  8
PLAN_1
  6
CONTINUOUS
 10
1.731303
 20
-3.659047
  0
VERTEX
  8
PLAN_1
  6
CONTINUOUS
 10
1.702205
 20
-3.659047
  0
VERTEX
  8
PLAN_1
  6
CONTINUOUS
 10
1.702205
 20
-3.629488
  0
VERTEX
  8
PLAN_1
  6
CONTINUOUS
 10
1.731303
 20
-3.629488
  0
VERTEX
  8
PLAN_1
  6
CONTINUOUS
 10
1.731303
 20
-3.659047
  0
SEQEND
  8
0
  0
POLYLINE
  8
PLAN_1
  6
CONTINUOUS
 66
     1
 40
0.003000
 41
0.003000
  0
VERTEX
  8
PLAN_1
  6
CONTINUOUS
 10
1.926205
 20
-3.659047
  0
VERTEX
  8
PLAN_1
  6
CONTINUOUS
 10
1.779335
 20
-3.659047
  0
VERTEX
  8
PLAN_1
  6
CONTINUOUS
 10
1.779335
 20
-3.459528
  0
VERTEX
  8
PLAN_1
  6
CONTINUOUS
 10
1.924358
 20
-3.459528
  0
VERTEX
  8
PLAN_1
  6
CONTINUOUS
 10
1.924358
 20
-3.483543
  0
VERTEX
  8
PLAN_1
  6
CONTINUOUS
 10
1.806122
 20
-3.483543
  0
VERTEX
  8
PLAN_1
  6
CONTINUOUS
 10
1.806122
 20
-3.544508
  0
VERTEX
  8
PLAN_1
  6
CONTINUOUS
 10
1.915122
 20
-3.544508
  0
VERTEX
  8
PLAN_1
  6
CONTINUOUS
 10
1.915122
 20
-3.568524
  0
VERTEX
  8
PLAN_1
  6
CONTINUOUS
 10
1.806122
 20
-3.568524
  0
VERTEX
  8
PLAN_1
  6
CONTINUOUS
 10
1.806122
 20
-3.635031
  0
VERTEX
  8
PLAN_1
  6
CONTINUOUS
 10
1.926205
 20
-3.635031
  0
VERTEX
  8
PLAN_1
  6
CONTINUOUS
 10
1.926205
 20
-3.659047
  0
SEQEND
  8
0
  0
POLYLINE
  8
PLAN_1
  6
CONTINUOUS
 66
     1
 40
0.003000
 41
0.003000
  0
VERTEX
  8
PLAN_1
  6
CONTINUOUS
 10
1.991327
 20
-3.659047
  0
VERTEX
  8
PLAN_1
  6
CONTINUOUS
 10
1.964539
 20
-3.659047
  0
VERTEX
  8
PLAN_1
  6
CONTINUOUS
 10
1.964539
 20
-3.459528
  0
VERTEX
  8
PLAN_1
  6
CONTINUOUS
 10
2.054142
 20
-3.459528
  0
VERTEX
  8
PLAN_1
  6
CONTINUOUS
 10
2.061067
 20
-3.459988
  0
VERTEX
  8
PLAN_1
  6
CONTINUOUS
 10
2.067535
 20
-3.460913
  0
VERTEX
  8
PLAN_1
  6
CONTINUOUS
 10
2.073539
 20
-3.462299
  0
VERTEX
  8
PLAN_1
  6
CONTINUOUS
 10
2.079079
 20
-3.464146
  0
VERTEX
  8
PLAN_1
  6
CONTINUOUS
 10
2.084161
 20
-3.465992
  0
VERTEX
  8
PLAN_1
  6
CONTINUOUS
 10
2.089240
 20
-3.468764
  0
VERTEX
  8
PLAN_1
  6
CONTINUOUS
 10
2.093398
 20
-3.471996
  0
VERTEX
  8
PLAN_1
  6
CONTINUOUS
 10
2.097555
 20
-3.475693
  0
VERTEX
  8
PLAN_1
  6
CONTINUOUS
 10
2.101248
 20
-3.479386
  0
VERTEX
  8
PLAN_1
  6
CONTINUOUS
 10
2.104484
 20
-3.484004
  0
VERTEX
  8
PLAN_1
  6
CONTINUOUS
 10
2.107252
 20
-3.488622
  0
VERTEX
  8
PLAN_1
  6
CONTINUOUS
 10
2.109102
 20
-3.493244
  0
VERTEX
  8
PLAN_1
  6
CONTINUOUS
 10
2.110949
 20
-3.498783
  0
VERTEX
  8
PLAN_1
  6
CONTINUOUS
 10
2.112335
 20
-3.504327
  0
VERTEX
  8
PLAN_1
  6
CONTINUOUS
 10
2.113256
 20
-3.509870
  0
VERTEX
  8
PLAN_1
  6
CONTINUOUS
 10
2.113256
 20
-3.515874
  0
VERTEX
  8
PLAN_1
  6
CONTINUOUS
 10
2.113256
 20
-3.520953
  0
VERTEX
  8
PLAN_1
  6
CONTINUOUS
 10
2.112335
 20
-3.526496
  0
VERTEX
  8
PLAN_1
  6
CONTINUOUS
 10
2.111409
 20
-3.531575
  0
VERTEX
  8
PLAN_1
  6
CONTINUOUS
 10
2.110024
 20
-3.536657
  0
VERTEX
  8
PLAN_1
  6
CONTINUOUS
 10
2.108177
 20
-3.541736
  0
VERTEX
  8
PLAN_1
  6
CONTINUOUS
 10
2.105870
 20
-3.546819
  0
VERTEX
  8
PLAN_1
  6
CONTINUOUS
 10
2.103098
 20
-3.551437
  0
VERTEX
  8
PLAN_1
  6
CONTINUOUS
 10
2.099862
 20
-3.555594
  0
VERTEX
  8
PLAN_1
  6
CONTINUOUS
 10
2.096169
 20
-3.559748
  0
VERTEX
  8
PLAN_1
  6
CONTINUOUS
 10
2.092012
 20
-3.563445
  0
VERTEX
  8
PLAN_1
  6
CONTINUOUS
 10
2.086933
 20
-3.566677
  0
VERTEX
  8
PLAN_1
  6
CONTINUOUS
 10
2.081850
 20
-3.569449
  0
VERTEX
  8
PLAN_1
  6
CONTINUOUS
 10
2.075846
 20
-3.571756
  0
VERTEX
  8
PLAN_1
  6
CONTINUOUS
 10
2.069382
 20
-3.573606
  0
VERTEX
  8
PLAN_1
  6
CONTINUOUS
 10
2.061992
 20
-3.574528
  0
VERTEX
  8
PLAN_1
  6
CONTINUOUS
 10
2.054142
 20
-3.574992
  0
VERTEX
  8
PLAN_1
  6
CONTINUOUS
 10
1.991327
 20
-3.574992
  0
VERTEX
  8
PLAN_1
  6
CONTINUOUS
 10
1.991327
 20
-3.659047
  0
SEQEND
  8
0
  0
POLYLINE
  8
PLAN_1
  6
CONTINUOUS
 66
     1
 40
0.003000
 41
0.003000
  0
VERTEX
  8
PLAN_1
  6
CONTINUOUS
 10
1.991327
 20
-3.551898
  0
VERTEX
  8
PLAN_1
  6
CONTINUOUS
 10
2.044902
 20
-3.551898
  0
VERTEX
  8
PLAN_1
  6
CONTINUOUS
 10
2.049524
 20
-3.551898
  0
VERTEX
  8
PLAN_1
  6
CONTINUOUS
 10
2.053677
 20
-3.551437
  0
VERTEX
  8
PLAN_1
  6
CONTINUOUS
 10
2.057835
 20
-3.550972
  0
VERTEX
  8
PLAN_1
  6
CONTINUOUS
 10
2.061531
 20
-3.550051
  0
VERTEX
  8
PLAN_1
  6
CONTINUOUS
 10
2.065224
 20
-3.549126
  0
VERTEX
  8
PLAN_1
  6
CONTINUOUS
 10
2.068457
 20
-3.547740
  0
VERTEX
  8
PLAN_1
  6
CONTINUOUS
 10
2.071689
 20
-3.545894
  0
VERTEX
  8
PLAN_1
  6
CONTINUOUS
 10
2.074461
 20
-3.544047
  0
VERTEX
  8
PLAN_1
  6
CONTINUOUS
 10
2.076772
 20
-3.541736
  0
VERTEX
  8
PLAN_1
  6
CONTINUOUS
 10
2.079079
 20
-3.539429
  0
VERTEX
  8
PLAN_1
  6
CONTINUOUS
 10
2.080929
 20
-3.536193
  0
VERTEX
  8
PLAN_1
  6
CONTINUOUS
 10
2.082776
 20
-3.532961
  0
VERTEX
  8
PLAN_1
  6
CONTINUOUS
 10
2.083701
 20
-3.529268
  0
VERTEX
  8
PLAN_1
  6
CONTINUOUS
 10
2.084622
 20
-3.525110
  0
VERTEX
  8
PLAN_1
  6
CONTINUOUS
 10
2.085547
 20
-3.520953
  0
VERTEX
  8
PLAN_1
  6
CONTINUOUS
 10
2.085547
 20
-3.515874
  0
VERTEX
  8
PLAN_1
  6
CONTINUOUS
 10
2.085547
 20
-3.511717
  0
VERTEX
  8
PLAN_1
  6
CONTINUOUS
 10
2.084622
 20
-3.507559
  0
VERTEX
  8
PLAN_1
  6
CONTINUOUS
 10
2.083701
 20
-3.503402
  0
VERTEX
  8
PLAN_1
  6
CONTINUOUS
 10
2.082315
 20
-3.500169
  0
VERTEX
  8
PLAN_1
  6
CONTINUOUS
 10
2.080929
 20
-3.496937
  0
VERTEX
  8
PLAN_1
  6
CONTINUOUS
 10
2.079079
 20
-3.494626
  0
VERTEX
  8
PLAN_1
  6
CONTINUOUS
 10
2.076772
 20
-3.491858
  0
VERTEX
  8
PLAN_1
  6
CONTINUOUS
 10
2.074000
 20
-3.490008
  0
VERTEX
  8
PLAN_1
  6
CONTINUOUS
 10
2.071228
 20
-3.488161
  0
VERTEX
  8
PLAN_1
  6
CONTINUOUS
 10
2.068457
 20
-3.486776
  0
VERTEX
  8
PLAN_1
  6
CONTINUOUS
 10
2.065224
 20
-3.485390
  0
VERTEX
  8
PLAN_1
  6
CONTINUOUS
 10
2.061531
 20
-3.484469
  0
VERTEX
  8
PLAN_1
  6
CONTINUOUS
 10
2.057835
 20
-3.483543
  0
VERTEX
  8
PLAN_1
  6
CONTINUOUS
 10
2.054142
 20
-3.483083
  0
VERTEX
  8
PLAN_1
  6
CONTINUOUS
 10
2.050445
 20
-3.482618
  0
VERTEX
  8
PLAN_1
  6
CONTINUOUS
 10
2.046287
 20
-3.482618
  0
VERTEX
  8
PLAN_1
  6
CONTINUOUS
 10
1.991327
 20
-3.482618
  0
VERTEX
  8
PLAN_1
  6
CONTINUOUS
 10
1.991327
 20
-3.551898
  0
SEQEND
  8
0
  0
POLYLINE
  8
PLAN_1
  6
CONTINUOUS
 66
     1
 40
0.003000
 41
0.003000
  0
VERTEX
  8
PLAN_1
  6
CONTINUOUS
 10
2.267055
 20
-3.518181
  0
VERTEX
  8
PLAN_1
  6
CONTINUOUS
 10
2.266594
 20
-3.512642
  0
VERTEX
  8
PLAN_1
  6
CONTINUOUS
 10
2.265669
 20
-3.507559
  0
VERTEX
  8
PLAN_1
  6
CONTINUOUS
 10
2.263823
 20
-3.502941
  0
VERTEX
  8
PLAN_1
  6
CONTINUOUS
 10
2.261976
 20
-3.498783
  0
VERTEX
  8
PLAN_1
  6
CONTINUOUS
 10
2.259665
 20
-3.495091
  0
VERTEX
  8
PLAN_1
  6
CONTINUOUS
 10
2.256894
 20
-3.491394
  0
VERTEX
  8
PLAN_1
  6
CONTINUOUS
 10
2.253661
 20
-3.488622
  0
VERTEX
  8
PLAN_1
  6
CONTINUOUS
 10
2.250429
 20
-3.486315
  0
VERTEX
  8
PLAN_1
  6
CONTINUOUS
 10
2.246732
 20
-3.484004
  0
VERTEX
  8
PLAN_1
  6
CONTINUOUS
 10
2.243039
 20
-3.482157
  0
VERTEX
  8
PLAN_1
  6
CONTINUOUS
 10
2.238882
 20
-3.480772
  0
VERTEX
  8
PLAN_1
  6
CONTINUOUS
 10
2.234724
 20
-3.479386
  0
VERTEX
  8
PLAN_1
  6
CONTINUOUS
 10
2.230571
 20
-3.478465
  0
VERTEX
  8
PLAN_1
  6
CONTINUOUS
 10
2.226413
 20
-3.478000
  0
VERTEX
  8
PLAN_1
  6
CONTINUOUS
 10
2.222256
 20
-3.477539
  0
VERTEX
  8
PLAN_1
  6
CONTINUOUS
 10
2.217638
 20
-3.477539
  0
VERTEX
  8
PLAN_1
  6
CONTINUOUS
 10
2.211169
 20
-3.477539
  0
VERTEX
  8
PLAN_1
  6
CONTINUOUS
 10
2.203319
 20
-3.478465
  0
VERTEX
  8
PLAN_1
  6
CONTINUOUS
 10
2.199626
 20
-3.479386
  0
VERTEX
  8
PLAN_1
  6
CONTINUOUS
 10
2.195929
 20
-3.480772
  0
VERTEX
  8
PLAN_1
  6
CONTINUOUS
 10
2.192236
 20
-3.481697
  0
VERTEX
  8
PLAN_1
  6
CONTINUOUS
 10
2.188539
 20
-3.483543
  0
VERTEX
  8
PLAN_1
  6
CONTINUOUS
 10
2.185307
 20
-3.485854
  0
VERTEX
  8
PLAN_1
  6
CONTINUOUS
 10
2.182075
 20
-3.488161
  0
VERTEX
  8
PLAN_1
  6
CONTINUOUS
 10
2.179303
 20
-3.490933
  0
VERTEX
  8
PLAN_1
  6
CONTINUOUS
 10
2.176992
 20
-3.494165
  0
VERTEX
  8
PLAN_1
  6
CONTINUOUS
 10
2.175146
 20
-3.497862
  0
VERTEX
  8
PLAN_1
  6
CONTINUOUS
 10
2.173299
 20
-3.502016
  0
VERTEX
  8
PLAN_1
  6
CONTINUOUS
 10
2.172374
 20
-3.507098
  0
VERTEX
  8
PLAN_1
  6
CONTINUOUS
 10
2.172374
 20
-3.512642
  0
VERTEX
  8
PLAN_1
  6
CONTINUOUS
 10
2.172374
 20
-3.515409
  0
VERTEX
  8
PLAN_1
  6
CONTINUOUS
 10
2.172839
 20
-3.518181
  0
VERTEX
  8
PLAN_1
  6
CONTINUOUS
 10
2.173299
 20
-3.520953
  0
VERTEX
  8
PLAN_1
  6
CONTINUOUS
 10
2.174224
 20
-3.523264
  0
VERTEX
  8
PLAN_1
  6
CONTINUOUS
 10
2.175146
 20
-3.525110
  0
VERTEX
  8
PLAN_1
  6
CONTINUOUS
 10
2.176531
 20
-3.526957
  0
VERTEX
  8
PLAN_1
  6
CONTINUOUS
 10
2.177917
 20
-3.528803
  0
VERTEX
  8
PLAN_1
  6
CONTINUOUS
 10
2.179764
 20
-3.530189
  0
VERTEX
  8
PLAN_1
  6
CONTINUOUS
 10
2.183461
 20
-3.532961
  0
VERTEX
  8
PLAN_1
  6
CONTINUOUS
 10
2.187154
 20
-3.534811
  0
VERTEX
  8
PLAN_1
  6
CONTINUOUS
 10
2.191311
 20
-3.536657
  0
VERTEX
  8
PLAN_1
  6
CONTINUOUS
 10
2.195929
 20
-3.537579
  0
VERTEX
  8
PLAN_1
  6
CONTINUOUS
 10
2.252736
 20
-3.550512
  0
VERTEX
  8
PLAN_1
  6
CONTINUOUS
 10
2.257358
 20
-3.551898
  0
VERTEX
  8
PLAN_1
  6
CONTINUOUS
 10
2.261976
 20
-3.553283
  0
VERTEX
  8
PLAN_1
  6
CONTINUOUS
 10
2.266594
 20
-3.555130
  0
VERTEX
  8
PLAN_1
  6
CONTINUOUS
 10
2.270752
 20
-3.556976
  0
VERTEX
  8
PLAN_1
  6
CONTINUOUS
 10
2.274906
 20
-3.559287
  0
VERTEX
  8
PLAN_1
  6
CONTINUOUS
 10
2.278602
 20
-3.562059
  0
VERTEX
  8
PLAN_1
  6
CONTINUOUS
 10
2.281835
 20
-3.564831
  0
VERTEX
  8
PLAN_1
  6
CONTINUOUS
 10
2.285067
 20
-3.567602
  0
VERTEX
  8
PLAN_1
  6
CONTINUOUS
 10
2.287839
 20
-3.571295
  0
VERTEX
  8
PLAN_1
  6
CONTINUOUS
 10
2.290610
 20
-3.574992
  0
VERTEX
  8
PLAN_1
  6
CONTINUOUS
 10
2.292921
 20
-3.578685
  0
VERTEX
  8
PLAN_1
  6
CONTINUOUS
 10
2.294768
 20
-3.583303
  0
VERTEX
  8
PLAN_1
  6
CONTINUOUS
 10
2.296154
 20
-3.587921
  0
VERTEX
  8
PLAN_1
  6
CONTINUOUS
 10
2.297075
 20
-3.593004
  0
VERTEX
  8
PLAN_1
  6
CONTINUOUS
 10
2.298000
 20
-3.598083
  0
VERTEX
  8
PLAN_1
  6
CONTINUOUS
 10
2.298000
 20
-3.604087
  0
VERTEX
  8
PLAN_1
  6
CONTINUOUS
 10
2.298000
 20
-3.608244
  0
VERTEX
  8
PLAN_1
  6
CONTINUOUS
 10
2.297539
 20
-3.612402
  0
VERTEX
  8
PLAN_1
  6
CONTINUOUS
 10
2.297075
 20
-3.616559
  0
VERTEX
  8
PLAN_1
  6
CONTINUOUS
 10
2.296154
 20
-3.620252
  0
VERTEX
  8
PLAN_1
  6
CONTINUOUS
 10
2.294768
 20
-3.623949
  0
VERTEX
  8
PLAN_1
  6
CONTINUOUS
 10
2.293843
 20
-3.627181
  0
VERTEX
  8
PLAN_1
  6
CONTINUOUS
 10
2.292457
 20
-3.630413
  0
VERTEX
  8
PLAN_1
  6
CONTINUOUS
 10
2.290610
 20
-3.633185
  0
VERTEX
  8
PLAN_1
  6
CONTINUOUS
 10
2.286917
 20
-3.638728
  0
VERTEX
  8
PLAN_1
  6
CONTINUOUS
 10
2.282295
 20
-3.643807
  0
VERTEX
  8
PLAN_1
  6
CONTINUOUS
 10
2.277217
 20
-3.647965
  0
VERTEX
  8
PLAN_1
  6
CONTINUOUS
 10
2.271673
 20
-3.651657
  0
VERTEX
  8
PLAN_1
  6
CONTINUOUS
 10
2.265669
 20
-3.654890
  0
VERTEX
  8
PLAN_1
  6
CONTINUOUS
 10
2.259665
 20
-3.657661
  0
VERTEX
  8
PLAN_1
  6
CONTINUOUS
 10
2.253201
 20
-3.659972
  0
VERTEX
  8
PLAN_1
  6
CONTINUOUS
 10
2.246732
 20
-3.661358
  0
VERTEX
  8
PLAN_1
  6
CONTINUOUS
 10
2.239807
 20
-3.662744
  0
VERTEX
  8
PLAN_1
  6
CONTINUOUS
 10
2.233339
 20
-3.663665
  0
VERTEX
  8
PLAN_1
  6
CONTINUOUS
 10
2.226413
 20
-3.664130
  0
VERTEX
  8
PLAN_1
  6
CONTINUOUS
 10
2.219945
 20
-3.664130
  0
VERTEX
  8
PLAN_1
  6
CONTINUOUS
 10
2.213480
 20
-3.664130
  0
VERTEX
  8
PLAN_1
  6
CONTINUOUS
 10
2.207016
 20
-3.663665
  0
VERTEX
  8
PLAN_1
  6
CONTINUOUS
 10
2.201472
 20
-3.663205
  0
VERTEX
  8
PLAN_1
  6
CONTINUOUS
 10
2.196394
 20
-3.662280
  0
VERTEX
  8
PLAN_1
  6
CONTINUOUS
 10
2.191311
 20
-3.661358
  0
VERTEX
  8
PLAN_1
  6
CONTINUOUS
 10
2.187154
 20
-3.660433
  0
VERTEX
  8
PLAN_1
  6
CONTINUOUS
 10
2.182996
 20
-3.659047
  0
VERTEX
  8
PLAN_1
  6
CONTINUOUS
 10
2.179303
 20
-3.657661
  0
VERTEX
  8
PLAN_1
  6
CONTINUOUS
 10
2.172839
 20
-3.654890
  0
VERTEX
  8
PLAN_1
  6
CONTINUOUS
 10
2.167756
 20
-3.651657
  0
VERTEX
  8
PLAN_1
  6
CONTINUOUS
 10
2.163598
 20
-3.648425
  0
VERTEX
  8
PLAN_1
  6
CONTINUOUS
 10
2.159906
 20
-3.645193
  0
VERTEX
  8
PLAN_1
  6
CONTINUOUS
 10
2.156673
 20
-3.642421
  0
VERTEX
  8
PLAN_1
  6
CONTINUOUS
 10
2.153902
 20
-3.639189
  0
VERTEX
  8
PLAN_1
  6
CONTINUOUS
 10
2.151591
 20
-3.636417
  0
VERTEX
  8
PLAN_1
  6
CONTINUOUS
 10
2.149283
 20
-3.633185
  0
VERTEX
  8
PLAN_1
  6
CONTINUOUS
 10
2.146051
 20
-3.627181
  0
VERTEX
  8
PLAN_1
  6
CONTINUOUS
 10
2.143280
 20
-3.621177
  0
VERTEX
  8
PLAN_1
  6
CONTINUOUS
 10
2.141429
 20
-3.614709
  0
VERTEX
  8
PLAN_1
  6
CONTINUOUS
 10
2.140508
 20
-3.608244
  0
VERTEX
  8
PLAN_1
  6
CONTINUOUS
 10
2.139583
 20
-3.601315
  0
VERTEX
  8
PLAN_1
  6
CONTINUOUS
 10
2.139583
 20
-3.594390
  0
VERTEX
  8
PLAN_1
  6
CONTINUOUS
 10
2.164984
 20
-3.594390
  0
VERTEX
  8
PLAN_1
  6
CONTINUOUS
 10
2.164984
 20
-3.600854
  0
VERTEX
  8
PLAN_1
  6
CONTINUOUS
 10
2.165909
 20
-3.606858
  0
VERTEX
  8
PLAN_1
  6
CONTINUOUS
 10
2.167756
 20
-3.612402
  0
VERTEX
  8
PLAN_1
  6
CONTINUOUS
 10
2.169602
 20
-3.617020
  0
VERTEX
  8
PLAN_1
  6
CONTINUOUS
 10
2.172374
 20
-3.621177
  0
VERTEX
  8
PLAN_1
  6
CONTINUOUS
 10
2.175610
 20
-3.625335
  0
VERTEX
  8
PLAN_1
  6
CONTINUOUS
 10
2.178843
 20
-3.628567
  0
VERTEX
  8
PLAN_1
  6
CONTINUOUS
 10
2.182535
 20
-3.631339
  0
VERTEX
  8
PLAN_1
  6
CONTINUOUS
 10
2.186693
 20
-3.634106
  0
VERTEX
  8
PLAN_1
  6
CONTINUOUS
 10
2.191311
 20
-3.635957
  0
VERTEX
  8
PLAN_1
  6
CONTINUOUS
 10
2.195469
 20
-3.637803
  0
VERTEX
  8
PLAN_1
  6
CONTINUOUS
 10
2.200547
 20
-3.639189
  0
VERTEX
  8
PLAN_1
  6
CONTINUOUS
 10
2.205165
 20
-3.640110
  0
VERTEX
  8
PLAN_1
  6
CONTINUOUS
 10
2.210248
 20
-3.640575
  0
VERTEX
  8
PLAN_1
  6
CONTINUOUS
 10
2.214866
 20
-3.641035
  0
VERTEX
  8
PLAN_1
  6
CONTINUOUS
 10
2.219945
 20
-3.641035
  0
VERTEX
  8
PLAN_1
  6
CONTINUOUS
 10
2.227335
 20
-3.641035
  0
VERTEX
  8
PLAN_1
  6
CONTINUOUS
 10
2.236110
 20
-3.640110
  0
VERTEX
  8
PLAN_1
  6
CONTINUOUS
 10
2.240268
 20
-3.639189
  0
VERTEX
  8
PLAN_1
  6
CONTINUOUS
 10
2.244886
 20
-3.638264
  0
VERTEX
  8
PLAN_1
  6
CONTINUOUS
 10
2.249043
 20
-3.636878
  0
VERTEX
  8
PLAN_1
  6
CONTINUOUS
 10
2.253201
 20
-3.635031
  0
VERTEX
  8
PLAN_1
  6
CONTINUOUS
 10
2.256894
 20
-3.633185
  0
VERTEX
  8
PLAN_1
  6
CONTINUOUS
 10
2.260591
 20
-3.630874
  0
VERTEX
  8
PLAN_1
  6
CONTINUOUS
 10
2.263823
 20
-3.628102
  0
VERTEX
  8
PLAN_1
  6
CONTINUOUS
 10
2.266594
 20
-3.624870
  0
VERTEX
  8
PLAN_1
  6
CONTINUOUS
 10
2.268902
 20
-3.621177
  0
VERTEX
  8
PLAN_1
  6
CONTINUOUS
 10
2.270287
 20
-3.617480
  0
VERTEX
  8
PLAN_1
  6
CONTINUOUS
 10
2.271673
 20
-3.612862
  0
VERTEX
  8
PLAN_1
  6
CONTINUOUS
 10
2.272138
 20
-3.607783
  0
VERTEX
  8
PLAN_1
  6
CONTINUOUS
 10
2.271673
 20
-3.604087
  0
VERTEX
  8
PLAN_1
  6
CONTINUOUS
 10
2.271213
 20
-3.600394
  0
VERTEX
  8
PLAN_1
  6
CONTINUOUS
 10
2.270752
 20
-3.597161
  0
VERTEX
  8
PLAN_1
  6
CONTINUOUS
 10
2.269827
 20
-3.594390
  0
VERTEX
  8
PLAN_1
  6
CONTINUOUS
 10
2.268441
 20
-3.591618
  0
VERTEX
  8
PLAN_1
  6
CONTINUOUS
 10
2.267055
 20
-3.589307
  0
VERTEX
  8
PLAN_1
  6
CONTINUOUS
 10
2.265209
 20
-3.587000
  0
VERTEX
  8
PLAN_1
  6
CONTINUOUS
 10
2.262898
 20
-3.585150
  0
VERTEX
  8
PLAN_1
  6
CONTINUOUS
 10
2.260126
 20
-3.583303
  0
VERTEX
  8
PLAN_1
  6
CONTINUOUS
 10
2.257358
 20
-3.581457
  0
VERTEX
  8
PLAN_1
  6
CONTINUOUS
 10
2.253661
 20
-3.579610
  0
VERTEX
  8
PLAN_1
  6
CONTINUOUS
 10
2.249969
 20
-3.578224
  0
VERTEX
  8
PLAN_1
  6
CONTINUOUS
 10
2.240728
 20
-3.575453
  0
VERTEX
  8
PLAN_1
  6
CONTINUOUS
 10
2.229646
 20
-3.572220
  0
VERTEX
  8
PLAN_1
  6
CONTINUOUS
 10
2.188539
 20
-3.562984
  0
VERTEX
  8
PLAN_1
  6
CONTINUOUS
 10
2.182996
 20
-3.561598
  0
VERTEX
  8
PLAN_1
  6
CONTINUOUS
 10
2.176531
 20
-3.559287
  0
VERTEX
  8
PLAN_1
  6
CONTINUOUS
 10
2.172839
 20
-3.557902
  0
VERTEX
  8
PLAN_1
  6
CONTINUOUS
 10
2.169602
 20
-3.556055
  0
VERTEX
  8
PLAN_1
  6
CONTINUOUS
 10
2.165909
 20
-3.553744
  0
VERTEX
  8
PLAN_1
  6
CONTINUOUS
 10
2.162677
 20
-3.551437
  0
VERTEX
  8
PLAN_1
  6
CONTINUOUS
 10
2.159445
 20
-3.548665
  0
VERTEX
  8
PLAN_1
  6
CONTINUOUS
 10
2.156209
 20
-3.545433
  0
VERTEX
  8
PLAN_1
  6
CONTINUOUS
 10
2.153441
 20
-3.541736
  0
VERTEX
  8
PLAN_1
  6
CONTINUOUS
 10
2.151130
 20
-3.537579
  0
VERTEX
  8
PLAN_1
  6
CONTINUOUS
 10
2.148819
 20
-3.532961
  0
VERTEX
  8
PLAN_1
  6
CONTINUOUS
 10
2.147437
 20
-3.527882
  0
VERTEX
  8
PLAN_1
  6
CONTINUOUS
 10
2.146512
 20
-3.522339
  0
VERTEX
  8
PLAN_1
  6
CONTINUOUS
 10
2.146051
 20
-3.515874
  0
VERTEX
  8
PLAN_1
  6
CONTINUOUS
 10
2.146512
 20
-3.510331
  0
VERTEX
  8
PLAN_1
  6
CONTINUOUS
 10
2.146972
 20
-3.504327
  0
VERTEX
  8
PLAN_1
  6
CONTINUOUS
 10
2.148358
 20
-3.498783
  0
VERTEX
  8
PLAN_1
  6
CONTINUOUS
 10
2.150205
 20
-3.493244
  0
VERTEX
  8
PLAN_1
  6
CONTINUOUS
 10
2.152516
 20
-3.488161
  0
VERTEX
  8
PLAN_1
  6
CONTINUOUS
 10
2.155287
 20
-3.483083
  0
VERTEX
  8
PLAN_1
  6
CONTINUOUS
 10
2.158520
 20
-3.478000
  0
VERTEX
  8
PLAN_1
  6
CONTINUOUS
 10
2.162213
 20
-3.473382
  0
VERTEX
  8
PLAN_1
  6
CONTINUOUS
 10
2.166835
 20
-3.469224
  0
VERTEX
  8
PLAN_1
  6
CONTINUOUS
 10
2.171913
 20
-3.465531
  0
VERTEX
  8
PLAN_1
  6
CONTINUOUS
 10
2.177457
 20
-3.462299
  0
VERTEX
  8
PLAN_1
  6
CONTINUOUS
 10
2.183461
 20
-3.459528
  0
VERTEX
  8
PLAN_1
  6
CONTINUOUS
 10
2.190386
 20
-3.457217
  0
VERTEX
  8
PLAN_1
  6
CONTINUOUS
 10
2.197776
 20
-3.455831
  0
VERTEX
  8
PLAN_1
  6
CONTINUOUS
 10
2.206091
 20
-3.454909
  0
VERTEX
  8
PLAN_1
  6
CONTINUOUS
 10
2.214866
 20
-3.454445
  0
VERTEX
  8
PLAN_1
  6
CONTINUOUS
 10
2.220870
 20
-3.454445
  0
VERTEX
  8
PLAN_1
  6
CONTINUOUS
 10
2.226874
 20
-3.454909
  0
VERTEX
  8
PLAN_1
  6
CONTINUOUS
 10
2.232878
 20
-3.455370
  0
VERTEX
  8
PLAN_1
  6
CONTINUOUS
 10
2.237961
 20
-3.456295
  0
VERTEX
  8
PLAN_1
  6
CONTINUOUS
 10
2.243039
 20
-3.457217
  0
VERTEX
  8
PLAN_1
  6
CONTINUOUS
 10
2.247657
 20
-3.458602
  0
VERTEX
  8
PLAN_1
  6
CONTINUOUS
 10
2.251815
 20
-3.459528
  0
VERTEX
  8
PLAN_1
  6
CONTINUOUS
 10
2.255972
 20
-3.461374
  0
VERTEX
  8
PLAN_1
  6
CONTINUOUS
 10
2.259665
 20
-3.462760
  0
VERTEX
  8
PLAN_1
  6
CONTINUOUS
 10
2.263362
 20
-3.464606
  0
VERTEX
  8
PLAN_1
  6
CONTINUOUS
 10
2.266594
 20
-3.466917
  0
VERTEX
  8
PLAN_1
  6
CONTINUOUS
 10
2.269827
 20
-3.468764
  0
VERTEX
  8
PLAN_1
  6
CONTINUOUS
 10
2.274906
 20
-3.473382
  0
VERTEX
  8
PLAN_1
  6
CONTINUOUS
 10
2.279063
 20
-3.478000
  0
VERTEX
  8
PLAN_1
  6
CONTINUOUS
 10
2.282760
 20
-3.483083
  0
VERTEX
  8
PLAN_1
  6
CONTINUOUS
 10
2.285531
 20
-3.488161
  0
VERTEX
  8
PLAN_1
  6
CONTINUOUS
 10
2.287839
 20
-3.493705
  0
VERTEX
  8
PLAN_1
  6
CONTINUOUS
 10
2.289685
 20
-3.498783
  0
VERTEX
  8
PLAN_1
  6
CONTINUOUS
 10
2.290610
 20
-3.503866
  0
VERTEX
  8
PLAN_1
  6
CONTINUOUS
 10
2.291535
 20
-3.508945
  0
VERTEX
  8
PLAN_1
  6
CONTINUOUS
 10
2.291996
 20
-3.513563
  0
VERTEX
  8
PLAN_1
  6
CONTINUOUS
 10
2.292457
 20
-3.518181
  0
VERTEX
  8
PLAN_1
  6
CONTINUOUS
 10
2.267055
 20
-3.518181
  0
SEQEND
  8
0
  0
POLYLINE
  8
PLAN_1
  6
CONTINUOUS
 66
     1
 40
0.008311
 41
0.008311
  0
VERTEX
  8
PLAN_1
  6
CONTINUOUS
 10
-1.986173
 20
2.232382
  0
VERTEX
  8
PLAN_1
  6
CONTINUOUS
 10
-1.986173
 20
3.100669
  0
VERTEX
  8
PLAN_1
  6
CONTINUOUS
 10
-2.178303
 20
3.100669
  0
VERTEX
  8
PLAN_1
  6
CONTINUOUS
 10
-2.178303
 20
2.232382
  0
VERTEX
  8
PLAN_1
  6
CONTINUOUS
 10
-1.986173
 20
2.232382
  0
SEQEND
  8
0
  0
POLYLINE
  8
PLAN_1
  6
CONTINUOUS
 66
     1
 40
0.008311
 41
0.008311
  0
VERTEX
  8
PLAN_1
  6
CONTINUOUS
 10
-1.986173
 20
2.460535
  0
VERTEX
  8
PLAN_1
  6
CONTINUOUS
 10
-1.986173
 20
2.867433
  0
VERTEX
  8
PLAN_1
  6
CONTINUOUS
 10
-1.909965
 20
2.867433
  0
VERTEX
  8
PLAN_1
  6
CONTINUOUS
 10
-1.909965
 20
2.460535
  0
VERTEX
  8
PLAN_1
  6
CONTINUOUS
 10
-1.986173
 20
2.460535
  0
SEQEND
  8
0
  0
POLYLINE
  8
PLAN_1
  6
CONTINUOUS
 66
     1
 40
0.008311
 41
0.008311
  0
VERTEX
  8
PLAN_1
  6
CONTINUOUS
 10
-2.178764
 20
2.421740
  0
VERTEX
  8
PLAN_1
  6
CONTINUOUS
 10
-2.178764
 20
2.903917
  0
VERTEX
  8
PLAN_1
  6
CONTINUOUS
 10
-2.292843
 20
2.903917
  0
VERTEX
  8
PLAN_1
  6
CONTINUOUS
 10
-2.292843
 20
2.421740
  0
VERTEX
  8
PLAN_1
  6
CONTINUOUS
 10
-2.178764
 20
2.421740
  0
SEQEND
  8
0
  0
POLYLINE
  8
PLAN_1
  6
CONTINUOUS
 66
     1
 40
0.006925
 41
0.006925
  0
VERTEX
  8
PLAN_1
  6
CONTINUOUS
 10
-2.291921
 20
2.780602
  0
VERTEX
  8
PLAN_1
  6
CONTINUOUS
 10
-2.181996
 20
2.780602
  0
SEQEND
  8
0
  0
POLYLINE
  8
PLAN_1
  6
CONTINUOUS
 66
     1
 40
0.006925
 41
0.006925
  0
VERTEX
  8
PLAN_1
  6
CONTINUOUS
 10
-2.291921
 20
2.544594
  0
VERTEX
  8
PLAN_1
  6
CONTINUOUS
 10
-2.181996
 20
2.544594
  0
SEQEND
  8
0
  0
POLYLINE
  8
PLAN_1
  6
CONTINUOUS
 66
     1
 40
0.006925
 41
0.006925
  0
VERTEX
  8
PLAN_1
  6
CONTINUOUS
 10
-2.278988
 20
2.903457
  0
VERTEX
  8
PLAN_1
  6
CONTINUOUS
 10
-2.280374
 20
2.900685
  0
VERTEX
  8
PLAN_1
  6
CONTINUOUS
 10
-2.283606
 20
2.892835
  0
VERTEX
  8
PLAN_1
  6
CONTINUOUS
 10
-2.285453
 20
2.887291
  0
VERTEX
  8
PLAN_1
  6
CONTINUOUS
 10
-2.287764
 20
2.880362
  0
VERTEX
  8
PLAN_1
  6
CONTINUOUS
 10
-2.289610
 20
2.872972
  0
VERTEX
  8
PLAN_1
  6
CONTINUOUS
 10
-2.290996
 20
2.864661
  0
VERTEX
  8
PLAN_1
  6
CONTINUOUS
 10
-2.291921
 20
2.855886
  0
VERTEX
  8
PLAN_1
  6
CONTINUOUS
 10
-2.292843
 20
2.846185
  0
VERTEX
  8
PLAN_1
  6
CONTINUOUS
 10
-2.292843
 20
2.836024
  0
VERTEX
  8
PLAN_1
  6
CONTINUOUS
 10
-2.291921
 20
2.825402
  0
VERTEX
  8
PLAN_1
  6
CONTINUOUS
 10
-2.290996
 20
2.819858
  0
VERTEX
  8
PLAN_1
  6
CONTINUOUS
 10
-2.289610
 20
2.814319
  0
VERTEX
  8
PLAN_1
  6
CONTINUOUS
 10
-2.288224
 20
2.808776
  0
VERTEX
  8
PLAN_1
  6
CONTINUOUS
 10
-2.286839
 20
2.803232
  0
VERTEX
  8
PLAN_1
  6
CONTINUOUS
 10
-2.284531
 20
2.797228
  0
VERTEX
  8
PLAN_1
  6
CONTINUOUS
 10
-2.282220
 20
2.791685
  0
VERTEX
  8
PLAN_1
  6
CONTINUOUS
 10
-2.279449
 20
2.786146
  0
VERTEX
  8
PLAN_1
  6
CONTINUOUS
 10
-2.276677
 20
2.780602
  0
VERTEX
  8
PLAN_1
  6
CONTINUOUS
 10
-2.278063
 20
2.775984
  0
VERTEX
  8
PLAN_1
  6
CONTINUOUS
 10
-2.281295
 20
2.763516
  0
VERTEX
  8
PLAN_1
  6
CONTINUOUS
 10
-2.283606
 20
2.754276
  0
VERTEX
  8
PLAN_1
  6
CONTINUOUS
 10
-2.285917
 20
2.742732
  0
VERTEX
  8
PLAN_1
  6
CONTINUOUS
 10
-2.287764
 20
2.729799
  0
VERTEX
  8
PLAN_1
  6
CONTINUOUS
 10
-2.290071
 20
2.715480
  0
VERTEX
  8
PLAN_1
  6
CONTINUOUS
 10
-2.291457
 20
2.698854
  0
VERTEX
  8
PLAN_1
  6
CONTINUOUS
 10
-2.292382
 20
2.681303
  0
VERTEX
  8
PLAN_1
  6
CONTINUOUS
 10
-2.292843
 20
2.661906
  0
VERTEX
  8
PLAN_1
  6
CONTINUOUS
 10
-2.292382
 20
2.640661
  0
VERTEX
  8
PLAN_1
  6
CONTINUOUS
 10
-2.291921
 20
2.630039
  0
VERTEX
  8
PLAN_1
  6
CONTINUOUS
 10
-2.290996
 20
2.618492
  0
VERTEX
  8
PLAN_1
  6
CONTINUOUS
 10
-2.290071
 20
2.606945
  0
VERTEX
  8
PLAN_1
  6
CONTINUOUS
 10
-2.288685
 20
2.594937
  0
VERTEX
  8
PLAN_1
  6
CONTINUOUS
 10
-2.286839
 20
2.582929
  0
VERTEX
  8
PLAN_1
  6
CONTINUOUS
 10
-2.284531
 20
2.570457
  0
VERTEX
  8
PLAN_1
  6
CONTINUOUS
 10
-2.282220
 20
2.557528
  0
VERTEX
  8
PLAN_1
  6
CONTINUOUS
 10
-2.279449
 20
2.544594
  0
VERTEX
  8
PLAN_1
  6
CONTINUOUS
 10
-2.280835
 20
2.541823
  0
VERTEX
  8
PLAN_1
  6
CONTINUOUS
 10
-2.284067
 20
2.533972
  0
VERTEX
  8
PLAN_1
  6
CONTINUOUS
 10
-2.285917
 20
2.528429
  0
VERTEX
  8
PLAN_1
  6
CONTINUOUS
 10
-2.287764
 20
2.521965
  0
VERTEX
  8
PLAN_1
  6
CONTINUOUS
 10
-2.289610
 20
2.514575
  0
VERTEX
  8
PLAN_1
  6
CONTINUOUS
 10
-2.291457
 20
2.506720
  0
VERTEX
  8
PLAN_1
  6
CONTINUOUS
 10
-2.292382
 20
2.497484
  0
VERTEX
  8
PLAN_1
  6
CONTINUOUS
 10
-2.293307
 20
2.488248
  0
VERTEX
  8
PLAN_1
  6
CONTINUOUS
 10
-2.293307
 20
2.478087
  0
VERTEX
  8
PLAN_1
  6
CONTINUOUS
 10
-2.292382
 20
2.467465
  0
VERTEX
  8
PLAN_1
  6
CONTINUOUS
 10
-2.291457
 20
2.462386
  0
VERTEX
  8
PLAN_1
  6
CONTINUOUS
 10
-2.290071
 20
2.456843
  0
VERTEX
  8
PLAN_1
  6
CONTINUOUS
 10
-2.288685
 20
2.451299
  0
VERTEX
  8
PLAN_1
  6
CONTINUOUS
 10
-2.287299
 20
2.445756
  0
VERTEX
  8
PLAN_1
  6
CONTINUOUS
 10
-2.284992
 20
2.440217
  0
VERTEX
  8
PLAN_1
  6
CONTINUOUS
 10
-2.282681
 20
2.434673
  0
VERTEX
  8
PLAN_1
  6
CONTINUOUS
 10
-2.279909
 20
2.428669
  0
VERTEX
  8
PLAN_1
  6
CONTINUOUS
 10
-2.277142
 20
2.423126
  0
SEQEND
  8
0
  0
POLYLINE
  8
PLAN_1
 62
     5
  6
CONTINUOUS
 66
     1
 40
0.003000
 41
0.003000
  0
VERTEX
  8
PLAN_1
 62
     5
  6
CONTINUOUS
 10
-1.336803
 20
2.411579
  0
VERTEX
  8
PLAN_1
 62
     5
  6
CONTINUOUS
 10
-1.328488
 20
2.411579
  0
SEQEND
  8
0
  0
POLYLINE
  8
PLAN_1
 62
     5
  6
CONTINUOUS
 66
     1
 40
0.003000
 41
0.003000
  0
VERTEX
  8
PLAN_1
 62
     5
  6
CONTINUOUS
 10
-1.320177
 20
2.411579
  0
VERTEX
  8
PLAN_1
 62
     5
  6
CONTINUOUS
 10
-1.311862
 20
2.411579
  0
SEQEND
  8
0
  0
POLYLINE
  8
PLAN_1
 62
     5
  6
CONTINUOUS
 66
     1
 40
0.003000
 41
0.003000
  0
VERTEX
  8
PLAN_1
 62
     5
  6
CONTINUOUS
 10
-1.303547
 20
2.411579
  0
VERTEX
  8
PLAN_1
 62
     5
  6
CONTINUOUS
 10
-1.295236
 20
2.411579
  0
SEQEND
  8
0
  0
POLYLINE
  8
PLAN_1
 62
     5
  6
CONTINUOUS
 66
     1
 40
0.003000
 41
0.003000
  0
VERTEX
  8
PLAN_1
 62
     5
  6
CONTINUOUS
 10
-1.286921
 20
2.411579
  0
VERTEX
  8
PLAN_1
 62
     5
  6
CONTINUOUS
 10
-1.278610
 20
2.411579
  0
SEQEND
  8
0
  0
POLYLINE
  8
PLAN_1
 62
     5
  6
CONTINUOUS
 66
     1
 40
0.003000
 41
0.003000
  0
VERTEX
  8
PLAN_1
 62
     5
  6
CONTINUOUS
 10
-1.270295
 20
2.411579
  0
VERTEX
  8
PLAN_1
 62
     5
  6
CONTINUOUS
 10
-1.261980
 20
2.411579
  0
SEQEND
  8
0
  0
POLYLINE
  8
PLAN_1
 62
     5
  6
CONTINUOUS
 66
     1
 40
0.003000
 41
0.003000
  0
VERTEX
  8
PLAN_1
 62
     5
  6
CONTINUOUS
 10
-1.253669
 20
2.411579
  0
VERTEX
  8
PLAN_1
 62
     5
  6
CONTINUOUS
 10
-1.245354
 20
2.411579
  0
SEQEND
  8
0
  0
POLYLINE
  8
PLAN_1
 62
     5
  6
CONTINUOUS
 66
     1
 40
0.003000
 41
0.003000
  0
VERTEX
  8
PLAN_1
 62
     5
  6
CONTINUOUS
 10
-1.237043
 20
2.411579
  0
VERTEX
  8
PLAN_1
 62
     5
  6
CONTINUOUS
 10
-1.228728
 20
2.411579
  0
SEQEND
  8
0
  0
POLYLINE
  8
PLAN_1
 62
     5
  6
CONTINUOUS
 66
     1
 40
0.003000
 41
0.003000
  0
VERTEX
  8
PLAN_1
 62
     5
  6
CONTINUOUS
 10
-1.222724
 20
2.413890
  0
VERTEX
  8
PLAN_1
 62
     5
  6
CONTINUOUS
 10
-1.222724
 20
2.422201
  0
SEQEND
  8
0
  0
POLYLINE
  8
PLAN_1
 62
     5
  6
CONTINUOUS
 66
     1
 40
0.003000
 41
0.003000
  0
VERTEX
  8
PLAN_1
 62
     5
  6
CONTINUOUS
 10
-1.222724
 20
2.430516
  0
VERTEX
  8
PLAN_1
 62
     5
  6
CONTINUOUS
 10
-1.222724
 20
2.438831
  0
SEQEND
  8
0
  0
POLYLINE
  8
PLAN_1
 62
     5
  6
CONTINUOUS
 66
     1
 40
0.003000
 41
0.003000
  0
VERTEX
  8
PLAN_1
 62
     5
  6
CONTINUOUS
 10
-1.222724
 20
2.447606
  0
VERTEX
  8
PLAN_1
 62
     5
  6
CONTINUOUS
 10
-1.222724
 20
2.455917
  0
SEQEND
  8
0
  0
POLYLINE
  8
PLAN_1
 62
     5
  6
CONTINUOUS
 66
     1
 40
0.003000
 41
0.003000
  0
VERTEX
  8
PLAN_1
 62
     5
  6
CONTINUOUS
 10
-1.222724
 20
2.464232
  0
VERTEX
  8
PLAN_1
 62
     5
  6
CONTINUOUS
 10
-1.222724
 20
2.472543
  0
SEQEND
  8
0
  0
POLYLINE
  8
PLAN_1
 62
     5
  6
CONTINUOUS
 66
     1
 40
0.003000
 41
0.003000
  0
VERTEX
  8
PLAN_1
 62
     5
  6
CONTINUOUS
 10
-1.222724
 20
2.480858
  0
VERTEX
  8
PLAN_1
 62
     5
  6
CONTINUOUS
 10
-1.222724
 20
2.489173
  0
SEQEND
  8
0
  0
POLYLINE
  8
PLAN_1
 62
     5
  6
CONTINUOUS
 66
     1
 40
0.003000
 41
0.003000
  0
VERTEX
  8
PLAN_1
 62
     5
  6
CONTINUOUS
 10
-1.222724
 20
2.497484
  0
VERTEX
  8
PLAN_1
 62
     5
  6
CONTINUOUS
 10
-1.222724
 20
2.505799
  0
SEQEND
  8
0
  0
POLYLINE
  8
PLAN_1
 62
     5
  6
CONTINUOUS
 66
     1
 40
0.003000
 41
0.003000
  0
VERTEX
  8
PLAN_1
 62
     5
  6
CONTINUOUS
 10
-1.222724
 20
2.514110
  0
VERTEX
  8
PLAN_1
 62
     5
  6
CONTINUOUS
 10
-1.222724
 20
2.522425
  0
SEQEND
  8
0
  0
POLYLINE
  8
PLAN_1
 62
     5
  6
CONTINUOUS
 66
     1
 40
0.003000
 41
0.003000
  0
VERTEX
  8
PLAN_1
 62
     5
  6
CONTINUOUS
 10
-1.222724
 20
2.530740
  0
VERTEX
  8
PLAN_1
 62
     5
  6
CONTINUOUS
 10
-1.222724
 20
2.539051
  0
SEQEND
  8
0
  0
POLYLINE
  8
PLAN_1
 62
     5
  6
CONTINUOUS
 66
     1
 40
0.003000
 41
0.003000
  0
VERTEX
  8
PLAN_1
 62
     5
  6
CONTINUOUS
 10
-1.222724
 20
2.547366
  0
VERTEX
  8
PLAN_1
 62
     5
  6
CONTINUOUS
 10
-1.222724
 20
2.555677
  0
SEQEND
  8
0
  0
POLYLINE
  8
PLAN_1
 62
     5
  6
CONTINUOUS
 66
     1
 40
0.003000
 41
0.003000
  0
VERTEX
  8
PLAN_1
 62
     5
  6
CONTINUOUS
 10
-1.222724
 20
2.563992
  0
VERTEX
  8
PLAN_1
 62
     5
  6
CONTINUOUS
 10
-1.222724
 20
2.572307
  0
SEQEND
  8
0
  0
POLYLINE
  8
PLAN_1
 62
     5
  6
CONTINUOUS
 66
     1
 40
0.003000
 41
0.003000
  0
VERTEX
  8
PLAN_1
 62
     5
  6
CONTINUOUS
 10
-1.222724
 20
2.580618
  0
VERTEX
  8
PLAN_1
 62
     5
  6
CONTINUOUS
 10
-1.222724
 20
2.588933
  0
SEQEND
  8
0
  0
POLYLINE
  8
PLAN_1
 62
     5
  6
CONTINUOUS
 66
     1
 40
0.003000
 41
0.003000
  0
VERTEX
  8
PLAN_1
 62
     5
  6
CONTINUOUS
 10
-1.222724
 20
2.597244
  0
VERTEX
  8
PLAN_1
 62
     5
  6
CONTINUOUS
 10
-1.222724
 20
2.605559
  0
SEQEND
  8
0
  0
POLYLINE
  8
PLAN_1
 62
     5
  6
CONTINUOUS
 66
     1
 40
0.003000
 41
0.003000
  0
VERTEX
  8
PLAN_1
 62
     5
  6
CONTINUOUS
 10
-1.222724
 20
2.613874
  0
VERTEX
  8
PLAN_1
 62
     5
  6
CONTINUOUS
 10
-1.222724
 20
2.622185
  0
SEQEND
  8
0
  0
POLYLINE
  8
PLAN_1
 62
     5
  6
CONTINUOUS
 66
     1
 40
0.003000
 41
0.003000
  0
VERTEX
  8
PLAN_1
 62
     5
  6
CONTINUOUS
 10
-1.222724
 20
2.630500
  0
VERTEX
  8
PLAN_1
 62
     5
  6
CONTINUOUS
 10
-1.222724
 20
2.638811
  0
SEQEND
  8
0
  0
POLYLINE
  8
PLAN_1
 62
     5
  6
CONTINUOUS
 66
     1
 40
0.003000
 41
0.003000
  0
VERTEX
  8
PLAN_1
 62
     5
  6
CONTINUOUS
 10
-1.222724
 20
2.647126
  0
VERTEX
  8
PLAN_1
 62
     5
  6
CONTINUOUS
 10
-1.222724
 20
2.655441
  0
SEQEND
  8
0
  0
POLYLINE
  8
PLAN_1
 62
     5
  6
CONTINUOUS
 66
     1
 40
0.003000
 41
0.003000
  0
VERTEX
  8
PLAN_1
 62
     5
  6
CONTINUOUS
 10
-1.222724
 20
2.663752
  0
VERTEX
  8
PLAN_1
 62
     5
  6
CONTINUOUS
 10
-1.222724
 20
2.672067
  0
SEQEND
  8
0
  0
POLYLINE
  8
PLAN_1
 62
     5
  6
CONTINUOUS
 66
     1
 40
0.003000
 41
0.003000
  0
VERTEX
  8
PLAN_1
 62
     5
  6
CONTINUOUS
 10
-1.222724
 20
2.680843
  0
VERTEX
  8
PLAN_1
 62
     5
  6
CONTINUOUS
 10
-1.222724
 20
2.689154
  0
SEQEND
  8
0
  0
POLYLINE
  8
PLAN_1
 62
     5
  6
CONTINUOUS
 66
     1
 40
0.003000
 41
0.003000
  0
VERTEX
  8
PLAN_1
 62
     5
  6
CONTINUOUS
 10
-1.222724
 20
2.697469
  0
VERTEX
  8
PLAN_1
 62
     5
  6
CONTINUOUS
 10
-1.222724
 20
2.705783
  0
SEQEND
  8
0
  0
POLYLINE
  8
PLAN_1
 62
     5
  6
CONTINUOUS
 66
     1
 40
0.003000
 41
0.003000
  0
VERTEX
  8
PLAN_1
 62
     5
  6
CONTINUOUS
 10
-1.222724
 20
2.714094
  0
VERTEX
  8
PLAN_1
 62
     5
  6
CONTINUOUS
 10
-1.222724
 20
2.722409
  0
SEQEND
  8
0
  0
POLYLINE
  8
PLAN_1
 62
     5
  6
CONTINUOUS
 66
     1
 40
0.003000
 41
0.003000
  0
VERTEX
  8
PLAN_1
 62
     5
  6
CONTINUOUS
 10
-1.222724
 20
2.730720
  0
VERTEX
  8
PLAN_1
 62
     5
  6
CONTINUOUS
 10
-1.222724
 20
2.739035
  0
SEQEND
  8
0
  0
POLYLINE
  8
PLAN_1
 62
     5
  6
CONTINUOUS
 66
     1
 40
0.003000
 41
0.003000
  0
VERTEX
  8
PLAN_1
 62
     5
  6
CONTINUOUS
 10
-1.222724
 20
2.747350
  0
VERTEX
  8
PLAN_1
 62
     5
  6
CONTINUOUS
 10
-1.222724
 20
2.755661
  0
SEQEND
  8
0
  0
POLYLINE
  8
PLAN_1
 62
     5
  6
CONTINUOUS
 66
     1
 40
0.003000
 41
0.003000
  0
VERTEX
  8
PLAN_1
 62
     5
  6
CONTINUOUS
 10
-1.222724
 20
2.763976
  0
VERTEX
  8
PLAN_1
 62
     5
  6
CONTINUOUS
 10
-1.222724
 20
2.772287
  0
SEQEND
  8
0
  0
POLYLINE
  8
PLAN_1
 62
     5
  6
CONTINUOUS
 66
     1
 40
0.003000
 41
0.003000
  0
VERTEX
  8
PLAN_1
 62
     5
  6
CONTINUOUS
 10
-1.222724
 20
2.780602
  0
VERTEX
  8
PLAN_1
 62
     5
  6
CONTINUOUS
 10
-1.222724
 20
2.788917
  0
SEQEND
  8
0
  0
POLYLINE
  8
PLAN_1
 62
     5
  6
CONTINUOUS
 66
     1
 40
0.003000
 41
0.003000
  0
VERTEX
  8
PLAN_1
 62
     5
  6
CONTINUOUS
 10
-1.222724
 20
2.797228
  0
VERTEX
  8
PLAN_1
 62
     5
  6
CONTINUOUS
 10
-1.222724
 20
2.805543
  0
SEQEND
  8
0
  0
POLYLINE
  8
PLAN_1
 62
     5
  6
CONTINUOUS
 66
     1
 40
0.003000
 41
0.003000
  0
VERTEX
  8
PLAN_1
 62
     5
  6
CONTINUOUS
 10
-1.222724
 20
2.813854
  0
VERTEX
  8
PLAN_1
 62
     5
  6
CONTINUOUS
 10
-1.222724
 20
2.822169
  0
SEQEND
  8
0
  0
POLYLINE
  8
PLAN_1
 62
     5
  6
CONTINUOUS
 66
     1
 40
0.003000
 41
0.003000
  0
VERTEX
  8
PLAN_1
 62
     5
  6
CONTINUOUS
 10
-1.222724
 20
2.830484
  0
VERTEX
  8
PLAN_1
 62
     5
  6
CONTINUOUS
 10
-1.222724
 20
2.838795
  0
SEQEND
  8
0
  0
POLYLINE
  8
PLAN_1
 62
     5
  6
CONTINUOUS
 66
     1
 40
0.003000
 41
0.003000
  0
VERTEX
  8
PLAN_1
 62
     5
  6
CONTINUOUS
 10
-1.222724
 20
2.847110
  0
VERTEX
  8
PLAN_1
 62
     5
  6
CONTINUOUS
 10
-1.222724
 20
2.855421
  0
SEQEND
  8
0
  0
POLYLINE
  8
PLAN_1
 62
     5
  6
CONTINUOUS
 66
     1
 40
0.003000
 41
0.003000
  0
VERTEX
  8
PLAN_1
 62
     5
  6
CONTINUOUS
 10
-1.222724
 20
2.863736
  0
VERTEX
  8
PLAN_1
 62
     5
  6
CONTINUOUS
 10
-1.222724
 20
2.872051
  0
SEQEND
  8
0
  0
POLYLINE
  8
PLAN_1
 62
     5
  6
CONTINUOUS
 66
     1
 40
0.003000
 41
0.003000
  0
VERTEX
  8
PLAN_1
 62
     5
  6
CONTINUOUS
 10
-1.222724
 20
2.880362
  0
VERTEX
  8
PLAN_1
 62
     5
  6
CONTINUOUS
 10
-1.222724
 20
2.888677
  0
SEQEND
  8
0
  0
POLYLINE
  8
PLAN_1
 62
     5
  6
CONTINUOUS
 66
     1
 40
0.003000
 41
0.003000
  0
VERTEX
  8
PLAN_1
 62
     5
  6
CONTINUOUS
 10
-1.226417
 20
2.893756
  0
VERTEX
  8
PLAN_1
 62
     5
  6
CONTINUOUS
 10
-1.234732
 20
2.893756
  0
SEQEND
  8
0
  0
POLYLINE
  8
PLAN_1
 62
     5
  6
CONTINUOUS
 66
     1
 40
0.003000
 41
0.003000
  0
VERTEX
  8
PLAN_1
 62
     5
  6
CONTINUOUS
 10
-1.243047
 20
2.893756
  0
VERTEX
  8
PLAN_1
 62
     5
  6
CONTINUOUS
 10
-1.251358
 20
2.893756
  0
SEQEND
  8
0
  0
POLYLINE
  8
PLAN_1
 62
     5
  6
CONTINUOUS
 66
     1
 40
0.003000
 41
0.003000
  0
VERTEX
  8
PLAN_1
 62
     5
  6
CONTINUOUS
 10
-1.259673
 20
2.893756
  0
VERTEX
  8
PLAN_1
 62
     5
  6
CONTINUOUS
 10
-1.267984
 20
2.893756
  0
SEQEND
  8
0
  0
POLYLINE
  8
PLAN_1
 62
     5
  6
CONTINUOUS
 66
     1
 40
0.003000
 41
0.003000
  0
VERTEX
  8
PLAN_1
 62
     5
  6
CONTINUOUS
 10
-1.276299
 20
2.893756
  0
VERTEX
  8
PLAN_1
 62
     5
  6
CONTINUOUS
 10
-1.284614
 20
2.893756
  0
SEQEND
  8
0
  0
POLYLINE
  8
PLAN_1
 62
     5
  6
CONTINUOUS
 66
     1
 40
0.003000
 41
0.003000
  0
VERTEX
  8
PLAN_1
 62
     5
  6
CONTINUOUS
 10
-1.292925
 20
2.893756
  0
VERTEX
  8
PLAN_1
 62
     5
  6
CONTINUOUS
 10
-1.301240
 20
2.893756
  0
SEQEND
  8
0
  0
POLYLINE
  8
PLAN_1
 62
     5
  6
CONTINUOUS
 66
     1
 40
0.003000
 41
0.003000
  0
VERTEX
  8
PLAN_1
 62
     5
  6
CONTINUOUS
 10
-1.309551
 20
2.893756
  0
VERTEX
  8
PLAN_1
 62
     5
  6
CONTINUOUS
 10
-1.317866
 20
2.893756
  0
SEQEND
  8
0
  0
POLYLINE
  8
PLAN_1
 62
     5
  6
CONTINUOUS
 66
     1
 40
0.003000
 41
0.003000
  0
VERTEX
  8
PLAN_1
 62
     5
  6
CONTINUOUS
 10
-1.326181
 20
2.893756
  0
VERTEX
  8
PLAN_1
 62
     5
  6
CONTINUOUS
 10
-1.334492
 20
2.893756
  0
SEQEND
  8
0
  0
POLYLINE
  8
PLAN_1
 62
     5
  6
CONTINUOUS
 66
     1
 40
0.003000
 41
0.003000
  0
VERTEX
  8
PLAN_1
 62
     5
  6
CONTINUOUS
 10
-1.336803
 20
2.887291
  0
VERTEX
  8
PLAN_1
 62
     5
  6
CONTINUOUS
 10
-1.336803
 20
2.878976
  0
SEQEND
  8
0
  0
POLYLINE
  8
PLAN_1
 62
     5
  6
CONTINUOUS
 66
     1
 40
0.003000
 41
0.003000
  0
VERTEX
  8
PLAN_1
 62
     5
  6
CONTINUOUS
 10
-1.337264
 20
2.870665
  0
VERTEX
  8
PLAN_1
 62
     5
  6
CONTINUOUS
 10
-1.337264
 20
2.862350
  0
SEQEND
  8
0
  0
POLYLINE
  8
PLAN_1
 62
     5
  6
CONTINUOUS
 66
     1
 40
0.003000
 41
0.003000
  0
VERTEX
  8
PLAN_1
 62
     5
  6
CONTINUOUS
 10
-1.339575
 20
2.856346
  0
VERTEX
  8
PLAN_1
 62
     5
  6
CONTINUOUS
 10
-1.347886
 20
2.856346
  0
SEQEND
  8
0
  0
POLYLINE
  8
PLAN_1
 62
     5
  6
CONTINUOUS
 66
     1
 40
0.003000
 41
0.003000
  0
VERTEX
  8
PLAN_1
 62
     5
  6
CONTINUOUS
 10
-1.356201
 20
2.855886
  0
VERTEX
  8
PLAN_1
 62
     5
  6
CONTINUOUS
 10
-1.364516
 20
2.855886
  0
SEQEND
  8
0
  0
POLYLINE
  8
PLAN_1
 62
     5
  6
CONTINUOUS
 66
     1
 40
0.003000
 41
0.003000
  0
VERTEX
  8
PLAN_1
 62
     5
  6
CONTINUOUS
 10
-1.370520
 20
2.858193
  0
VERTEX
  8
PLAN_1
 62
     5
  6
CONTINUOUS
 10
-1.370520
 20
2.866508
  0
SEQEND
  8
0
  0
POLYLINE
  8
PLAN_1
 62
     5
  6
CONTINUOUS
 66
     1
 40
0.003000
 41
0.003000
  0
VERTEX
  8
PLAN_1
 62
     5
  6
CONTINUOUS
 10
-1.370520
 20
2.874823
  0
VERTEX
  8
PLAN_1
 62
     5
  6
CONTINUOUS
 10
-1.370520
 20
2.883134
  0
SEQEND
  8
0
  0
POLYLINE
  8
PLAN_1
 62
     5
  6
CONTINUOUS
 66
     1
 40
0.003000
 41
0.003000
  0
VERTEX
  8
PLAN_1
 62
     5
  6
CONTINUOUS
 10
-1.370520
 20
2.891449
  0
VERTEX
  8
PLAN_1
 62
     5
  6
CONTINUOUS
 10
-1.370520
 20
2.899760
  0
SEQEND
  8
0
  0
POLYLINE
  8
PLAN_1
 62
     5
  6
CONTINUOUS
 66
     1
 40
0.003000
 41
0.003000
  0
VERTEX
  8
PLAN_1
 62
     5
  6
CONTINUOUS
 10
-1.370520
 20
2.908075
  0
VERTEX
  8
PLAN_1
 62
     5
  6
CONTINUOUS
 10
-1.370520
 20
2.916390
  0
SEQEND
  8
0
  0
POLYLINE
  8
PLAN_1
 62
     5
  6
CONTINUOUS
 66
     1
 40
0.003000
 41
0.003000
  0
VERTEX
  8
PLAN_1
 62
     5
  6
CONTINUOUS
 10
-1.370520
 20
2.924701
  0
VERTEX
  8
PLAN_1
 62
     5
  6
CONTINUOUS
 10
-1.370520
 20
2.933016
  0
SEQEND
  8
0
  0
POLYLINE
  8
PLAN_1
 62
     5
  6
CONTINUOUS
 66
     1
 40
0.003000
 41
0.003000
  0
VERTEX
  8
PLAN_1
 62
     5
  6
CONTINUOUS
 10
-1.370520
 20
2.941327
  0
VERTEX
  8
PLAN_1
 62
     5
  6
CONTINUOUS
 10
-1.370520
 20
2.949642
  0
SEQEND
  8
0
  0
POLYLINE
  8
PLAN_1
 62
     5
  6
CONTINUOUS
 66
     1
 40
0.003000
 41
0.003000
  0
VERTEX
  8
PLAN_1
 62
     5
  6
CONTINUOUS
 10
-1.370520
 20
2.958417
  0
VERTEX
  8
PLAN_1
 62
     5
  6
CONTINUOUS
 10
-1.370520
 20
2.966728
  0
SEQEND
  8
0
  0
POLYLINE
  8
PLAN_1
 62
     5
  6
CONTINUOUS
 66
     1
 40
0.003000
 41
0.003000
  0
VERTEX
  8
PLAN_1
 62
     5
  6
CONTINUOUS
 10
-1.370520
 20
2.975043
  0
VERTEX
  8
PLAN_1
 62
     5
  6
CONTINUOUS
 10
-1.370520
 20
2.983358
  0
SEQEND
  8
0
  0
POLYLINE
  8
PLAN_1
 62
     5
  6
CONTINUOUS
 66
     1
 40
0.003000
 41
0.003000
  0
VERTEX
  8
PLAN_1
 62
     5
  6
CONTINUOUS
 10
-1.370520
 20
2.991669
  0
VERTEX
  8
PLAN_1
 62
     5
  6
CONTINUOUS
 10
-1.370520
 20
2.999984
  0
SEQEND
  8
0
  0
POLYLINE
  8
PLAN_1
 62
     5
  6
CONTINUOUS
 66
     1
 40
0.003000
 41
0.003000
  0
VERTEX
  8
PLAN_1
 62
     5
  6
CONTINUOUS
 10
-1.370520
 20
3.008295
  0
VERTEX
  8
PLAN_1
 62
     5
  6
CONTINUOUS
 10
-1.370520
 20
3.016610
  0
SEQEND
  8
0
  0
POLYLINE
  8
PLAN_1
 62
     5
  6
CONTINUOUS
 66
     1
 40
0.003000
 41
0.003000
  0
VERTEX
  8
PLAN_1
 62
     5
  6
CONTINUOUS
 10
-1.370520
 20
3.024925
  0
VERTEX
  8
PLAN_1
 62
     5
  6
CONTINUOUS
 10
-1.370520
 20
3.033236
  0
SEQEND
  8
0
  0
POLYLINE
  8
PLAN_1
 62
     5
  6
CONTINUOUS
 66
     1
 40
0.003000
 41
0.003000
  0
VERTEX
  8
PLAN_1
 62
     5
  6
CONTINUOUS
 10
-1.370520
 20
3.041551
  0
VERTEX
  8
PLAN_1
 62
     5
  6
CONTINUOUS
 10
-1.370520
 20
3.049866
  0
SEQEND
  8
0
  0
POLYLINE
  8
PLAN_1
 62
     5
  6
CONTINUOUS
 66
     1
 40
0.003000
 41
0.003000
  0
VERTEX
  8
PLAN_1
 62
     5
  6
CONTINUOUS
 10
-1.370520
 20
3.058177
  0
VERTEX
  8
PLAN_1
 62
     5
  6
CONTINUOUS
 10
-1.370520
 20
3.066492
  0
SEQEND
  8
0
  0
POLYLINE
  8
PLAN_1
 62
     5
  6
CONTINUOUS
 66
     1
 40
0.003000
 41
0.003000
  0
VERTEX
  8
PLAN_1
 62
     5
  6
CONTINUOUS
 10
-1.370520
 20
3.074803
  0
VERTEX
  8
PLAN_1
 62
     5
  6
CONTINUOUS
 10
-1.370520
 20
3.083118
  0
SEQEND
  8
0
  0
POLYLINE
  8
PLAN_1
 62
     5
  6
CONTINUOUS
 66
     1
 40
0.003000
 41
0.003000
  0
VERTEX
  8
PLAN_1
 62
     5
  6
CONTINUOUS
 10
-1.373752
 20
3.088197
  0
VERTEX
  8
PLAN_1
 62
     5
  6
CONTINUOUS
 10
-1.382063
 20
3.088197
  0
SEQEND
  8
0
  0
POLYLINE
  8
PLAN_1
 62
     5
  6
CONTINUOUS
 66
     1
 40
0.003000
 41
0.003000
  0
VERTEX
  8
PLAN_1
 62
     5
  6
CONTINUOUS
 10
-1.390378
 20
3.088197
  0
VERTEX
  8
PLAN_1
 62
     5
  6
CONTINUOUS
 10
-1.398693
 20
3.088197
  0
SEQEND
  8
0
  0
POLYLINE
  8
PLAN_1
 62
     5
  6
CONTINUOUS
 66
     1
 40
0.003000
 41
0.003000
  0
VERTEX
  8
PLAN_1
 62
     5
  6
CONTINUOUS
 10
-1.407004
 20
3.088197
  0
VERTEX
  8
PLAN_1
 62
     5
  6
CONTINUOUS
 10
-1.415319
 20
3.088197
  0
SEQEND
  8
0
  0
POLYLINE
  8
PLAN_1
 62
     5
  6
CONTINUOUS
 66
     1
 40
0.003000
 41
0.003000
  0
VERTEX
  8
PLAN_1
 62
     5
  6
CONTINUOUS
 10
-1.423630
 20
3.088197
  0
VERTEX
  8
PLAN_1
 62
     5
  6
CONTINUOUS
 10
-1.431945
 20
3.088197
  0
SEQEND
  8
0
  0
POLYLINE
  8
PLAN_1
 62
     5
  6
CONTINUOUS
 66
     1
 40
0.003000
 41
0.003000
  0
VERTEX
  8
PLAN_1
 62
     5
  6
CONTINUOUS
 10
-1.440260
 20
3.088197
  0
VERTEX
  8
PLAN_1
 62
     5
  6
CONTINUOUS
 10
-1.448571
 20
3.088197
  0
SEQEND
  8
0
  0
POLYLINE
  8
PLAN_1
 62
     5
  6
CONTINUOUS
 66
     1
 40
0.003000
 41
0.003000
  0
VERTEX
  8
PLAN_1
 62
     5
  6
CONTINUOUS
 10
-1.456886
 20
3.088197
  0
VERTEX
  8
PLAN_1
 62
     5
  6
CONTINUOUS
 10
-1.465197
 20
3.088197
  0
SEQEND
  8
0
  0
POLYLINE
  8
PLAN_1
 62
     5
  6
CONTINUOUS
 66
     1
 40
0.003000
 41
0.003000
  0
VERTEX
  8
PLAN_1
 62
     5
  6
CONTINUOUS
 10
-1.473512
 20
3.088197
  0
VERTEX
  8
PLAN_1
 62
     5
  6
CONTINUOUS
 10
-1.481827
 20
3.088197
  0
SEQEND
  8
0
  0
POLYLINE
  8
PLAN_1
 62
     5
  6
CONTINUOUS
 66
     1
 40
0.003000
 41
0.003000
  0
VERTEX
  8
PLAN_1
 62
     5
  6
CONTINUOUS
 10
-1.490138
 20
3.088197
  0
VERTEX
  8
PLAN_1
 62
     5
  6
CONTINUOUS
 10
-1.498913
 20
3.088197
  0
SEQEND
  8
0
  0
POLYLINE
  8
PLAN_1
 62
     5
  6
CONTINUOUS
 66
     1
 40
0.003000
 41
0.003000
  0
VERTEX
  8
PLAN_1
 62
     5
  6
CONTINUOUS
 10
-1.507228
 20
3.088197
  0
VERTEX
  8
PLAN_1
 62
     5
  6
CONTINUOUS
 10
-1.515539
 20
3.088197
  0
SEQEND
  8
0
  0
POLYLINE
  8
PLAN_1
 62
     5
  6
CONTINUOUS
 66
     1
 40
0.003000
 41
0.003000
  0
VERTEX
  8
PLAN_1
 62
     5
  6
CONTINUOUS
 10
-1.523854
 20
3.088197
  0
VERTEX
  8
PLAN_1
 62
     5
  6
CONTINUOUS
 10
-1.532169
 20
3.088197
  0
SEQEND
  8
0
  0
POLYLINE
  8
PLAN_1
 62
     5
  6
CONTINUOUS
 66
     1
 40
0.003000
 41
0.003000
  0
VERTEX
  8
PLAN_1
 62
     5
  6
CONTINUOUS
 10
-1.540480
 20
3.088197
  0
VERTEX
  8
PLAN_1
 62
     5
  6
CONTINUOUS
 10
-1.548795
 20
3.088197
  0
SEQEND
  8
0
  0
POLYLINE
  8
PLAN_1
 62
     5
  6
CONTINUOUS
 66
     1
 40
0.003000
 41
0.003000
  0
VERTEX
  8
PLAN_1
 62
     5
  6
CONTINUOUS
 10
-1.557106
 20
3.088197
  0
VERTEX
  8
PLAN_1
 62
     5
  6
CONTINUOUS
 10
-1.564496
 20
3.088197
  0
VERTEX
  8
PLAN_1
 62
     5
  6
CONTINUOUS
 10
-1.564496
 20
3.087736
  0
SEQEND
  8
0
  0
POLYLINE
  8
PLAN_1
 62
     5
  6
CONTINUOUS
 66
     1
 40
0.003000
 41
0.003000
  0
VERTEX
  8
PLAN_1
 62
     5
  6
CONTINUOUS
 10
-1.564496
 20
3.079421
  0
VERTEX
  8
PLAN_1
 62
     5
  6
CONTINUOUS
 10
-1.564496
 20
3.070650
  0
SEQEND
  8
0
  0
POLYLINE
  8
PLAN_1
 62
     5
  6
CONTINUOUS
 66
     1
 40
0.003000
 41
0.003000
  0
VERTEX
  8
PLAN_1
 62
     5
  6
CONTINUOUS
 10
-1.564496
 20
3.062335
  0
VERTEX
  8
PLAN_1
 62
     5
  6
CONTINUOUS
 10
-1.564496
 20
3.054020
  0
SEQEND
  8
0
  0
POLYLINE
  8
PLAN_1
 62
     5
  6
CONTINUOUS
 66
     1
 40
0.003000
 41
0.003000
  0
VERTEX
  8
PLAN_1
 62
     5
  6
CONTINUOUS
 10
-1.564496
 20
3.045709
  0
VERTEX
  8
PLAN_1
 62
     5
  6
CONTINUOUS
 10
-1.564496
 20
3.037394
  0
SEQEND
  8
0
  0
POLYLINE
  8
PLAN_1
 62
     5
  6
CONTINUOUS
 66
     1
 40
0.003000
 41
0.003000
  0
VERTEX
  8
PLAN_1
 62
     5
  6
CONTINUOUS
 10
-1.564496
 20
3.029083
  0
VERTEX
  8
PLAN_1
 62
     5
  6
CONTINUOUS
 10
-1.564496
 20
3.020768
  0
SEQEND
  8
0
  0
POLYLINE
  8
PLAN_1
 62
     5
  6
CONTINUOUS
 66
     1
 40
0.003000
 41
0.003000
  0
VERTEX
  8
PLAN_1
 62
     5
  6
CONTINUOUS
 10
-1.564496
 20
3.012453
  0
VERTEX
  8
PLAN_1
 62
     5
  6
CONTINUOUS
 10
-1.564496
 20
3.004142
  0
SEQEND
  8
0
  0
POLYLINE
  8
PLAN_1
 62
     5
  6
CONTINUOUS
 66
     1
 40
0.003000
 41
0.003000
  0
VERTEX
  8
PLAN_1
 62
     5
  6
CONTINUOUS
 10
-1.564496
 20
2.995827
  0
VERTEX
  8
PLAN_1
 62
     5
  6
CONTINUOUS
 10
-1.564496
 20
2.987512
  0
SEQEND
  8
0
  0
POLYLINE
  8
PLAN_1
 62
     5
  6
CONTINUOUS
 66
     1
 40
0.003000
 41
0.003000
  0
VERTEX
  8
PLAN_1
 62
     5
  6
CONTINUOUS
 10
-1.564496
 20
2.979201
  0
VERTEX
  8
PLAN_1
 62
     5
  6
CONTINUOUS
 10
-1.564496
 20
2.970886
  0
SEQEND
  8
0
  0
POLYLINE
  8
PLAN_1
 62
     5
  6
CONTINUOUS
 66
     1
 40
0.003000
 41
0.003000
  0
VERTEX
  8
PLAN_1
 62
     5
  6
CONTINUOUS
 10
-1.564496
 20
2.962575
  0
VERTEX
  8
PLAN_1
 62
     5
  6
CONTINUOUS
 10
-1.564496
 20
2.954260
  0
SEQEND
  8
0
  0
POLYLINE
  8
PLAN_1
 62
     5
  6
CONTINUOUS
 66
     1
 40
0.003000
 41
0.003000
  0
VERTEX
  8
PLAN_1
 62
     5
  6
CONTINUOUS
 10
-1.564496
 20
2.945945
  0
VERTEX
  8
PLAN_1
 62
     5
  6
CONTINUOUS
 10
-1.564496
 20
2.937634
  0
SEQEND
  8
0
  0
POLYLINE
  8
PLAN_1
 62
     5
  6
CONTINUOUS
 66
     1
 40
0.003000
 41
0.003000
  0
VERTEX
  8
PLAN_1
 62
     5
  6
CONTINUOUS
 10
-1.564496
 20
2.929319
  0
VERTEX
  8
PLAN_1
 62
     5
  6
CONTINUOUS
 10
-1.564496
 20
2.921008
  0
SEQEND
  8
0
  0
POLYLINE
  8
PLAN_1
 62
     5
  6
CONTINUOUS
 66
     1
 40
0.003000
 41
0.003000
  0
VERTEX
  8
PLAN_1
 62
     5
  6
CONTINUOUS
 10
-1.564496
 20
2.912693
  0
VERTEX
  8
PLAN_1
 62
     5
  6
CONTINUOUS
 10
-1.564496
 20
2.904378
  0
SEQEND
  8
0
  0
POLYLINE
  8
PLAN_1
 62
     5
  6
CONTINUOUS
 66
     1
 40
0.003000
 41
0.003000
  0
VERTEX
  8
PLAN_1
 62
     5
  6
CONTINUOUS
 10
-1.564496
 20
2.896067
  0
VERTEX
  8
PLAN_1
 62
     5
  6
CONTINUOUS
 10
-1.564496
 20
2.887752
  0
SEQEND
  8
0
  0
POLYLINE
  8
PLAN_1
 62
     5
  6
CONTINUOUS
 66
     1
 40
0.003000
 41
0.003000
  0
VERTEX
  8
PLAN_1
 62
     5
  6
CONTINUOUS
 10
-1.564496
 20
2.879441
  0
VERTEX
  8
PLAN_1
 62
     5
  6
CONTINUOUS
 10
-1.564496
 20
2.871126
  0
SEQEND
  8
0
  0
POLYLINE
  8
PLAN_1
 62
     5
  6
CONTINUOUS
 66
     1
 40
0.003000
 41
0.003000
  0
VERTEX
  8
PLAN_1
 62
     5
  6
CONTINUOUS
 10
-1.564496
 20
2.862811
  0
VERTEX
  8
PLAN_1
 62
     5
  6
CONTINUOUS
 10
-1.564496
 20
2.854500
  0
SEQEND
  8
0
  0
POLYLINE
  8
PLAN_1
 62
     5
  6
CONTINUOUS
 66
     1
 40
0.003000
 41
0.003000
  0
VERTEX
  8
PLAN_1
 62
     5
  6
CONTINUOUS
 10
-1.564496
 20
2.846185
  0
VERTEX
  8
PLAN_1
 62
     5
  6
CONTINUOUS
 10
-1.564496
 20
2.837409
  0
SEQEND
  8
0
  0
POLYLINE
  8
PLAN_1
 62
     5
  6
CONTINUOUS
 66
     1
 40
0.003000
 41
0.003000
  0
VERTEX
  8
PLAN_1
 62
     5
  6
CONTINUOUS
 10
-1.564496
 20
2.829098
  0
VERTEX
  8
PLAN_1
 62
     5
  6
CONTINUOUS
 10
-1.564496
 20
2.820783
  0
SEQEND
  8
0
  0
POLYLINE
  8
PLAN_1
 62
     5
  6
CONTINUOUS
 66
     1
 40
0.003000
 41
0.003000
  0
VERTEX
  8
PLAN_1
 62
     5
  6
CONTINUOUS
 10
-1.564496
 20
2.812472
  0
VERTEX
  8
PLAN_1
 62
     5
  6
CONTINUOUS
 10
-1.564496
 20
2.804157
  0
SEQEND
  8
0
  0
POLYLINE
  8
PLAN_1
 62
     5
  6
CONTINUOUS
 66
     1
 40
0.003000
 41
0.003000
  0
VERTEX
  8
PLAN_1
 62
     5
  6
CONTINUOUS
 10
-1.564496
 20
2.795843
  0
VERTEX
  8
PLAN_1
 62
     5
  6
CONTINUOUS
 10
-1.564496
 20
2.787531
  0
SEQEND
  8
0
  0
POLYLINE
  8
PLAN_1
 62
     5
  6
CONTINUOUS
 66
     1
 40
0.003000
 41
0.003000
  0
VERTEX
  8
PLAN_1
 62
     5
  6
CONTINUOUS
 10
-1.564496
 20
2.779217
  0
VERTEX
  8
PLAN_1
 62
     5
  6
CONTINUOUS
 10
-1.564496
 20
2.770902
  0
SEQEND
  8
0
  0
POLYLINE
  8
PLAN_1
 62
     5
  6
CONTINUOUS
 66
     1
 40
0.003000
 41
0.003000
  0
VERTEX
  8
PLAN_1
 62
     5
  6
CONTINUOUS
 10
-1.564496
 20
2.762591
  0
VERTEX
  8
PLAN_1
 62
     5
  6
CONTINUOUS
 10
-1.564496
 20
2.754276
  0
SEQEND
  8
0
  0
POLYLINE
  8
PLAN_1
 62
     5
  6
CONTINUOUS
 66
     1
 40
0.003000
 41
0.003000
  0
VERTEX
  8
PLAN_1
 62
     5
  6
CONTINUOUS
 10
-1.564496
 20
2.745965
  0
VERTEX
  8
PLAN_1
 62
     5
  6
CONTINUOUS
 10
-1.564496
 20
2.737650
  0
SEQEND
  8
0
  0
POLYLINE
  8
PLAN_1
 62
     5
  6
CONTINUOUS
 66
     1
 40
0.003000
 41
0.003000
  0
VERTEX
  8
PLAN_1
 62
     5
  6
CONTINUOUS
 10
-1.564496
 20
2.729335
  0
VERTEX
  8
PLAN_1
 62
     5
  6
CONTINUOUS
 10
-1.564496
 20
2.721024
  0
SEQEND
  8
0
  0
POLYLINE
  8
PLAN_1
 62
     5
  6
CONTINUOUS
 66
     1
 40
0.003000
 41
0.003000
  0
VERTEX
  8
PLAN_1
 62
     5
  6
CONTINUOUS
 10
-1.564496
 20
2.712709
  0
VERTEX
  8
PLAN_1
 62
     5
  6
CONTINUOUS
 10
-1.564496
 20
2.704398
  0
SEQEND
  8
0
  0
POLYLINE
  8
PLAN_1
 62
     5
  6
CONTINUOUS
 66
     1
 40
0.003000
 41
0.003000
  0
VERTEX
  8
PLAN_1
 62
     5
  6
CONTINUOUS
 10
-1.564496
 20
2.696083
  0
VERTEX
  8
PLAN_1
 62
     5
  6
CONTINUOUS
 10
-1.564496
 20
2.687768
  0
SEQEND
  8
0
  0
POLYLINE
  8
PLAN_1
 62
     5
  6
CONTINUOUS
 66
     1
 40
0.003000
 41
0.003000
  0
VERTEX
  8
PLAN_1
 62
     5
  6
CONTINUOUS
 10
-1.564496
 20
2.679457
  0
VERTEX
  8
PLAN_1
 62
     5
  6
CONTINUOUS
 10
-1.564496
 20
2.671142
  0
SEQEND
  8
0
  0
POLYLINE
  8
PLAN_1
 62
     5
  6
CONTINUOUS
 66
     1
 40
0.003000
 41
0.003000
  0
VERTEX
  8
PLAN_1
 62
     5
  6
CONTINUOUS
 10
-1.564496
 20
2.662831
  0
VERTEX
  8
PLAN_1
 62
     5
  6
CONTINUOUS
 10
-1.564496
 20
2.654516
  0
SEQEND
  8
0
  0
POLYLINE
  8
PLAN_1
 62
     5
  6
CONTINUOUS
 66
     1
 40
0.003000
 41
0.003000
  0
VERTEX
  8
PLAN_1
 62
     5
  6
CONTINUOUS
 10
-1.564496
 20
2.646201
  0
VERTEX
  8
PLAN_1
 62
     5
  6
CONTINUOUS
 10
-1.564496
 20
2.637890
  0
SEQEND
  8
0
  0
POLYLINE
  8
PLAN_1
 62
     5
  6
CONTINUOUS
 66
     1
 40
0.003000
 41
0.003000
  0
VERTEX
  8
PLAN_1
 62
     5
  6
CONTINUOUS
 10
-1.564496
 20
2.629575
  0
VERTEX
  8
PLAN_1
 62
     5
  6
CONTINUOUS
 10
-1.564496
 20
2.621264
  0
SEQEND
  8
0
  0
POLYLINE
  8
PLAN_1
 62
     5
  6
CONTINUOUS
 66
     1
 40
0.003000
 41
0.003000
  0
VERTEX
  8
PLAN_1
 62
     5
  6
CONTINUOUS
 10
-1.564496
 20
2.612949
  0
VERTEX
  8
PLAN_1
 62
     5
  6
CONTINUOUS
 10
-1.564496
 20
2.604634
  0
SEQEND
  8
0
  0
POLYLINE
  8
PLAN_1
 62
     5
  6
CONTINUOUS
 66
     1
 40
0.003000
 41
0.003000
  0
VERTEX
  8
PLAN_1
 62
     5
  6
CONTINUOUS
 10
-1.564496
 20
2.595862
  0
VERTEX
  8
PLAN_1
 62
     5
  6
CONTINUOUS
 10
-1.564496
 20
2.587547
  0
SEQEND
  8
0
  0
POLYLINE
  8
PLAN_1
 62
     5
  6
CONTINUOUS
 66
     1
 40
0.003000
 41
0.003000
  0
VERTEX
  8
PLAN_1
 62
     5
  6
CONTINUOUS
 10
-1.564496
 20
2.579232
  0
VERTEX
  8
PLAN_1
 62
     5
  6
CONTINUOUS
 10
-1.564496
 20
2.570921
  0
SEQEND
  8
0
  0
POLYLINE
  8
PLAN_1
 62
     5
  6
CONTINUOUS
 66
     1
 40
0.003000
 41
0.003000
  0
VERTEX
  8
PLAN_1
 62
     5
  6
CONTINUOUS
 10
-1.564496
 20
2.562606
  0
VERTEX
  8
PLAN_1
 62
     5
  6
CONTINUOUS
 10
-1.564496
 20
2.554291
  0
SEQEND
  8
0
  0
POLYLINE
  8
PLAN_1
 62
     5
  6
CONTINUOUS
 66
     1
 40
0.003000
 41
0.003000
  0
VERTEX
  8
PLAN_1
 62
     5
  6
CONTINUOUS
 10
-1.564496
 20
2.545980
  0
VERTEX
  8
PLAN_1
 62
     5
  6
CONTINUOUS
 10
-1.564496
 20
2.537665
  0
SEQEND
  8
0
  0
POLYLINE
  8
PLAN_1
 62
     5
  6
CONTINUOUS
 66
     1
 40
0.003000
 41
0.003000
  0
VERTEX
  8
PLAN_1
 62
     5
  6
CONTINUOUS
 10
-1.564496
 20
2.529354
  0
VERTEX
  8
PLAN_1
 62
     5
  6
CONTINUOUS
 10
-1.564496
 20
2.521039
  0
SEQEND
  8
0
  0
POLYLINE
  8
PLAN_1
 62
     5
  6
CONTINUOUS
 66
     1
 40
0.003000
 41
0.003000
  0
VERTEX
  8
PLAN_1
 62
     5
  6
CONTINUOUS
 10
-1.564496
 20
2.512724
  0
VERTEX
  8
PLAN_1
 62
     5
  6
CONTINUOUS
 10
-1.564496
 20
2.504413
  0
SEQEND
  8
0
  0
POLYLINE
  8
PLAN_1
 62
     5
  6
CONTINUOUS
 66
     1
 40
0.003000
 41
0.003000
  0
VERTEX
  8
PLAN_1
 62
     5
  6
CONTINUOUS
 10
-1.564496
 20
2.496098
  0
VERTEX
  8
PLAN_1
 62
     5
  6
CONTINUOUS
 10
-1.564496
 20
2.487787
  0
SEQEND
  8
0
  0
POLYLINE
  8
PLAN_1
 62
     5
  6
CONTINUOUS
 66
     1
 40
0.003000
 41
0.003000
  0
VERTEX
  8
PLAN_1
 62
     5
  6
CONTINUOUS
 10
-1.564496
 20
2.479472
  0
VERTEX
  8
PLAN_1
 62
     5
  6
CONTINUOUS
 10
-1.564496
 20
2.471157
  0
SEQEND
  8
0
  0
POLYLINE
  8
PLAN_1
 62
     5
  6
CONTINUOUS
 66
     1
 40
0.003000
 41
0.003000
  0
VERTEX
  8
PLAN_1
 62
     5
  6
CONTINUOUS
 10
-1.564496
 20
2.462846
  0
VERTEX
  8
PLAN_1
 62
     5
  6
CONTINUOUS
 10
-1.564496
 20
2.454531
  0
SEQEND
  8
0
  0
POLYLINE
  8
PLAN_1
 62
     5
  6
CONTINUOUS
 66
     1
 40
0.003000
 41
0.003000
  0
VERTEX
  8
PLAN_1
 62
     5
  6
CONTINUOUS
 10
-1.564496
 20
2.446220
  0
VERTEX
  8
PLAN_1
 62
     5
  6
CONTINUOUS
 10
-1.564496
 20
2.437906
  0
SEQEND
  8
0
  0
POLYLINE
  8
PLAN_1
 62
     5
  6
CONTINUOUS
 66
     1
 40
0.003000
 41
0.003000
  0
VERTEX
  8
PLAN_1
 62
     5
  6
CONTINUOUS
 10
-1.564496
 20
2.429591
  0
VERTEX
  8
PLAN_1
 62
     5
  6
CONTINUOUS
 10
-1.564496
 20
2.421280
  0
SEQEND
  8
0
  0
POLYLINE
  8
PLAN_1
 62
     5
  6
CONTINUOUS
 66
     1
 40
0.003000
 41
0.003000
  0
VERTEX
  8
PLAN_1
 62
     5
  6
CONTINUOUS
 10
-1.564496
 20
2.412965
  0
VERTEX
  8
PLAN_1
 62
     5
  6
CONTINUOUS
 10
-1.564496
 20
2.404654
  0
SEQEND
  8
0
  0
POLYLINE
  8
PLAN_1
 62
     5
  6
CONTINUOUS
 66
     1
 40
0.003000
 41
0.003000
  0
VERTEX
  8
PLAN_1
 62
     5
  6
CONTINUOUS
 10
-1.564496
 20
2.396339
  0
VERTEX
  8
PLAN_1
 62
     5
  6
CONTINUOUS
 10
-1.564496
 20
2.388024
  0
SEQEND
  8
0
  0
POLYLINE
  8
PLAN_1
 62
     5
  6
CONTINUOUS
 66
     1
 40
0.003000
 41
0.003000
  0
VERTEX
  8
PLAN_1
 62
     5
  6
CONTINUOUS
 10
-1.564496
 20
2.379713
  0
VERTEX
  8
PLAN_1
 62
     5
  6
CONTINUOUS
 10
-1.564496
 20
2.371398
  0
SEQEND
  8
0
  0
POLYLINE
  8
PLAN_1
 62
     5
  6
CONTINUOUS
 66
     1
 40
0.003000
 41
0.003000
  0
VERTEX
  8
PLAN_1
 62
     5
  6
CONTINUOUS
 10
-1.564496
 20
2.362622
  0
VERTEX
  8
PLAN_1
 62
     5
  6
CONTINUOUS
 10
-1.564496
 20
2.354311
  0
SEQEND
  8
0
  0
POLYLINE
  8
PLAN_1
 62
     5
  6
CONTINUOUS
 66
     1
 40
0.003000
 41
0.003000
  0
VERTEX
  8
PLAN_1
 62
     5
  6
CONTINUOUS
 10
-1.564496
 20
2.345996
  0
VERTEX
  8
PLAN_1
 62
     5
  6
CONTINUOUS
 10
-1.564496
 20
2.337685
  0
SEQEND
  8
0
  0
POLYLINE
  8
PLAN_1
 62
     5
  6
CONTINUOUS
 66
     1
 40
0.003000
 41
0.003000
  0
VERTEX
  8
PLAN_1
 62
     5
  6
CONTINUOUS
 10
-1.564496
 20
2.329370
  0
VERTEX
  8
PLAN_1
 62
     5
  6
CONTINUOUS
 10
-1.564496
 20
2.321055
  0
SEQEND
  8
0
  0
POLYLINE
  8
PLAN_1
 62
     5
  6
CONTINUOUS
 66
     1
 40
0.003000
 41
0.003000
  0
VERTEX
  8
PLAN_1
 62
     5
  6
CONTINUOUS
 10
-1.564496
 20
2.312744
  0
VERTEX
  8
PLAN_1
 62
     5
  6
CONTINUOUS
 10
-1.564496
 20
2.304429
  0
SEQEND
  8
0
  0
POLYLINE
  8
PLAN_1
 62
     5
  6
CONTINUOUS
 66
     1
 40
0.003000
 41
0.003000
  0
VERTEX
  8
PLAN_1
 62
     5
  6
CONTINUOUS
 10
-1.564496
 20
2.296114
  0
VERTEX
  8
PLAN_1
 62
     5
  6
CONTINUOUS
 10
-1.564496
 20
2.287803
  0
SEQEND
  8
0
  0
POLYLINE
  8
PLAN_1
 62
     5
  6
CONTINUOUS
 66
     1
 40
0.003000
 41
0.003000
  0
VERTEX
  8
PLAN_1
 62
     5
  6
CONTINUOUS
 10
-1.564496
 20
2.279488
  0
VERTEX
  8
PLAN_1
 62
     5
  6
CONTINUOUS
 10
-1.564496
 20
2.271177
  0
SEQEND
  8
0
  0
POLYLINE
  8
PLAN_1
 62
     5
  6
CONTINUOUS
 66
     1
 40
0.003000
 41
0.003000
  0
VERTEX
  8
PLAN_1
 62
     5
  6
CONTINUOUS
 10
-1.564496
 20
2.262862
  0
VERTEX
  8
PLAN_1
 62
     5
  6
CONTINUOUS
 10
-1.564496
 20
2.254547
  0
SEQEND
  8
0
  0
POLYLINE
  8
PLAN_1
 62
     5
  6
CONTINUOUS
 66
     1
 40
0.003000
 41
0.003000
  0
VERTEX
  8
PLAN_1
 62
     5
  6
CONTINUOUS
 10
-1.564496
 20
2.246236
  0
VERTEX
  8
PLAN_1
 62
     5
  6
CONTINUOUS
 10
-1.564496
 20
2.237921
  0
SEQEND
  8
0
  0
POLYLINE
  8
PLAN_1
 62
     5
  6
CONTINUOUS
 66
     1
 40
0.003000
 41
0.003000
  0
VERTEX
  8
PLAN_1
 62
     5
  6
CONTINUOUS
 10
-1.564496
 20
2.229610
  0
VERTEX
  8
PLAN_1
 62
     5
  6
CONTINUOUS
 10
-1.564496
 20
2.221295
  0
SEQEND
  8
0
  0
POLYLINE
  8
PLAN_1
 62
     5
  6
CONTINUOUS
 66
     1
 40
0.003000
 41
0.003000
  0
VERTEX
  8
PLAN_1
 62
     5
  6
CONTINUOUS
 10
-1.557571
 20
2.219909
  0
VERTEX
  8
PLAN_1
 62
     5
  6
CONTINUOUS
 10
-1.549256
 20
2.219909
  0
SEQEND
  8
0
  0
POLYLINE
  8
PLAN_1
 62
     5
  6
CONTINUOUS
 66
     1
 40
0.003000
 41
0.003000
  0
VERTEX
  8
PLAN_1
 62
     5
  6
CONTINUOUS
 10
-1.540941
 20
2.219909
  0
VERTEX
  8
PLAN_1
 62
     5
  6
CONTINUOUS
 10
-1.532630
 20
2.219909
  0
SEQEND
  8
0
  0
POLYLINE
  8
PLAN_1
 62
     5
  6
CONTINUOUS
 66
     1
 40
0.003000
 41
0.003000
  0
VERTEX
  8
PLAN_1
 62
     5
  6
CONTINUOUS
 10
-1.524315
 20
2.219909
  0
VERTEX
  8
PLAN_1
 62
     5
  6
CONTINUOUS
 10
-1.516004
 20
2.219909
  0
SEQEND
  8
0
  0
POLYLINE
  8
PLAN_1
 62
     5
  6
CONTINUOUS
 66
     1
 40
0.003000
 41
0.003000
  0
VERTEX
  8
PLAN_1
 62
     5
  6
CONTINUOUS
 10
-1.507689
 20
2.219909
  0
VERTEX
  8
PLAN_1
 62
     5
  6
CONTINUOUS
 10
-1.499374
 20
2.219909
  0
SEQEND
  8
0
  0
POLYLINE
  8
PLAN_1
 62
     5
  6
CONTINUOUS
 66
     1
 40
0.003000
 41
0.003000
  0
VERTEX
  8
PLAN_1
 62
     5
  6
CONTINUOUS
 10
-1.491063
 20
2.219909
  0
VERTEX
  8
PLAN_1
 62
     5
  6
CONTINUOUS
 10
-1.482748
 20
2.219909
  0
SEQEND
  8
0
  0
POLYLINE
  8
PLAN_1
 62
     5
  6
CONTINUOUS
 66
     1
 40
0.003000
 41
0.003000
  0
VERTEX
  8
PLAN_1
 62
     5
  6
CONTINUOUS
 10
-1.474437
 20
2.219909
  0
VERTEX
  8
PLAN_1
 62
     5
  6
CONTINUOUS
 10
-1.466122
 20
2.219909
  0
SEQEND
  8
0
  0
POLYLINE
  8
PLAN_1
 62
     5
  6
CONTINUOUS
 66
     1
 40
0.003000
 41
0.003000
  0
VERTEX
  8
PLAN_1
 62
     5
  6
CONTINUOUS
 10
-1.457807
 20
2.219909
  0
VERTEX
  8
PLAN_1
 62
     5
  6
CONTINUOUS
 10
-1.449496
 20
2.219909
  0
SEQEND
  8
0
  0
POLYLINE
  8
PLAN_1
 62
     5
  6
CONTINUOUS
 66
     1
 40
0.003000
 41
0.003000
  0
VERTEX
  8
PLAN_1
 62
     5
  6
CONTINUOUS
 10
-1.441181
 20
2.219909
  0
VERTEX
  8
PLAN_1
 62
     5
  6
CONTINUOUS
 10
-1.432870
 20
2.219909
  0
SEQEND
  8
0
  0
POLYLINE
  8
PLAN_1
 62
     5
  6
CONTINUOUS
 66
     1
 40
0.003000
 41
0.003000
  0
VERTEX
  8
PLAN_1
 62
     5
  6
CONTINUOUS
 10
-1.424555
 20
2.219909
  0
VERTEX
  8
PLAN_1
 62
     5
  6
CONTINUOUS
 10
-1.416240
 20
2.219909
  0
SEQEND
  8
0
  0
POLYLINE
  8
PLAN_1
 62
     5
  6
CONTINUOUS
 66
     1
 40
0.003000
 41
0.003000
  0
VERTEX
  8
PLAN_1
 62
     5
  6
CONTINUOUS
 10
-1.407929
 20
2.219909
  0
VERTEX
  8
PLAN_1
 62
     5
  6
CONTINUOUS
 10
-1.399614
 20
2.219909
  0
SEQEND
  8
0
  0
POLYLINE
  8
PLAN_1
 62
     5
  6
CONTINUOUS
 66
     1
 40
0.003000
 41
0.003000
  0
VERTEX
  8
PLAN_1
 62
     5
  6
CONTINUOUS
 10
-1.391303
 20
2.219909
  0
VERTEX
  8
PLAN_1
 62
     5
  6
CONTINUOUS
 10
-1.382988
 20
2.219909
  0
SEQEND
  8
0
  0
POLYLINE
  8
PLAN_1
 62
     5
  6
CONTINUOUS
 66
     1
 40
0.003000
 41
0.003000
  0
VERTEX
  8
PLAN_1
 62
     5
  6
CONTINUOUS
 10
-1.374673
 20
2.219909
  0
VERTEX
  8
PLAN_1
 62
     5
  6
CONTINUOUS
 10
-1.370520
 20
2.219909
  0
VERTEX
  8
PLAN_1
 62
     5
  6
CONTINUOUS
 10
-1.370520
 20
2.224067
  0
SEQEND
  8
0
  0
POLYLINE
  8
PLAN_1
 62
     5
  6
CONTINUOUS
 66
     1
 40
0.003000
 41
0.003000
  0
VERTEX
  8
PLAN_1
 62
     5
  6
CONTINUOUS
 10
-1.370520
 20
2.232382
  0
VERTEX
  8
PLAN_1
 62
     5
  6
CONTINUOUS
 10
-1.370520
 20
2.240693
  0
SEQEND
  8
0
  0
POLYLINE
  8
PLAN_1
 62
     5
  6
CONTINUOUS
 66
     1
 40
0.003000
 41
0.003000
  0
VERTEX
  8
PLAN_1
 62
     5
  6
CONTINUOUS
 10
-1.370520
 20
2.249008
  0
VERTEX
  8
PLAN_1
 62
     5
  6
CONTINUOUS
 10
-1.370520
 20
2.257319
  0
SEQEND
  8
0
  0
POLYLINE
  8
PLAN_1
 62
     5
  6
CONTINUOUS
 66
     1
 40
0.003000
 41
0.003000
  0
VERTEX
  8
PLAN_1
 62
     5
  6
CONTINUOUS
 10
-1.370520
 20
2.265634
  0
VERTEX
  8
PLAN_1
 62
     5
  6
CONTINUOUS
 10
-1.370520
 20
2.273949
  0
SEQEND
  8
0
  0
POLYLINE
  8
PLAN_1
 62
     5
  6
CONTINUOUS
 66
     1
 40
0.003000
 41
0.003000
  0
VERTEX
  8
PLAN_1
 62
     5
  6
CONTINUOUS
 10
-1.370520
 20
2.282260
  0
VERTEX
  8
PLAN_1
 62
     5
  6
CONTINUOUS
 10
-1.370520
 20
2.290575
  0
SEQEND
  8
0
  0
POLYLINE
  8
PLAN_1
 62
     5
  6
CONTINUOUS
 66
     1
 40
0.003000
 41
0.003000
  0
VERTEX
  8
PLAN_1
 62
     5
  6
CONTINUOUS
 10
-1.370520
 20
2.298886
  0
VERTEX
  8
PLAN_1
 62
     5
  6
CONTINUOUS
 10
-1.370520
 20
2.307201
  0
SEQEND
  8
0
  0
POLYLINE
  8
PLAN_1
 62
     5
  6
CONTINUOUS
 66
     1
 40
0.003000
 41
0.003000
  0
VERTEX
  8
PLAN_1
 62
     5
  6
CONTINUOUS
 10
-1.370520
 20
2.315516
  0
VERTEX
  8
PLAN_1
 62
     5
  6
CONTINUOUS
 10
-1.370520
 20
2.323827
  0
SEQEND
  8
0
  0
POLYLINE
  8
PLAN_1
 62
     5
  6
CONTINUOUS
 66
     1
 40
0.003000
 41
0.003000
  0
VERTEX
  8
PLAN_1
 62
     5
  6
CONTINUOUS
 10
-1.370520
 20
2.332142
  0
VERTEX
  8
PLAN_1
 62
     5
  6
CONTINUOUS
 10
-1.370520
 20
2.340453
  0
SEQEND
  8
0
  0
POLYLINE
  8
PLAN_1
 62
     5
  6
CONTINUOUS
 66
     1
 40
0.003000
 41
0.003000
  0
VERTEX
  8
PLAN_1
 62
     5
  6
CONTINUOUS
 10
-1.370520
 20
2.348768
  0
VERTEX
  8
PLAN_1
 62
     5
  6
CONTINUOUS
 10
-1.370520
 20
2.357543
  0
SEQEND
  8
0
  0
POLYLINE
  8
PLAN_1
 62
     5
  6
CONTINUOUS
 66
     1
 40
0.003000
 41
0.003000
  0
VERTEX
  8
PLAN_1
 62
     5
  6
CONTINUOUS
 10
-1.370520
 20
2.365854
  0
VERTEX
  8
PLAN_1
 62
     5
  6
CONTINUOUS
 10
-1.370520
 20
2.374169
  0
SEQEND
  8
0
  0
POLYLINE
  8
PLAN_1
 62
     5
  6
CONTINUOUS
 66
     1
 40
0.003000
 41
0.003000
  0
VERTEX
  8
PLAN_1
 62
     5
  6
CONTINUOUS
 10
-1.370520
 20
2.382484
  0
VERTEX
  8
PLAN_1
 62
     5
  6
CONTINUOUS
 10
-1.370520
 20
2.390795
  0
SEQEND
  8
0
  0
POLYLINE
  8
PLAN_1
 62
     5
  6
CONTINUOUS
 66
     1
 40
0.003000
 41
0.003000
  0
VERTEX
  8
PLAN_1
 62
     5
  6
CONTINUOUS
 10
-1.370520
 20
2.399110
  0
VERTEX
  8
PLAN_1
 62
     5
  6
CONTINUOUS
 10
-1.370520
 20
2.407425
  0
SEQEND
  8
0
  0
POLYLINE
  8
PLAN_1
 62
     5
  6
CONTINUOUS
 66
     1
 40
0.003000
 41
0.003000
  0
VERTEX
  8
PLAN_1
 62
     5
  6
CONTINUOUS
 10
-1.370520
 20
2.415736
  0
VERTEX
  8
PLAN_1
 62
     5
  6
CONTINUOUS
 10
-1.370520
 20
2.424051
  0
SEQEND
  8
0
  0
POLYLINE
  8
PLAN_1
 62
     5
  6
CONTINUOUS
 66
     1
 40
0.003000
 41
0.003000
  0
VERTEX
  8
PLAN_1
 62
     5
  6
CONTINUOUS
 10
-1.370520
 20
2.432362
  0
VERTEX
  8
PLAN_1
 62
     5
  6
CONTINUOUS
 10
-1.370520
 20
2.440677
  0
SEQEND
  8
0
  0
POLYLINE
  8
PLAN_1
 62
     5
  6
CONTINUOUS
 66
     1
 40
0.003000
 41
0.003000
  0
VERTEX
  8
PLAN_1
 62
     5
  6
CONTINUOUS
 10
-1.370520
 20
2.448992
  0
VERTEX
  8
PLAN_1
 62
     5
  6
CONTINUOUS
 10
-1.370520
 20
2.449453
  0
VERTEX
  8
PLAN_1
 62
     5
  6
CONTINUOUS
 10
-1.362665
 20
2.449453
  0
SEQEND
  8
0
  0
POLYLINE
  8
PLAN_1
 62
     5
  6
CONTINUOUS
 66
     1
 40
0.003000
 41
0.003000
  0
VERTEX
  8
PLAN_1
 62
     5
  6
CONTINUOUS
 10
-1.354354
 20
2.449453
  0
VERTEX
  8
PLAN_1
 62
     5
  6
CONTINUOUS
 10
-1.346039
 20
2.449453
  0
SEQEND
  8
0
  0
POLYLINE
  8
PLAN_1
 62
     5
  6
CONTINUOUS
 66
     1
 40
0.003000
 41
0.003000
  0
VERTEX
  8
PLAN_1
 62
     5
  6
CONTINUOUS
 10
-1.337724
 20
2.449453
  0
VERTEX
  8
PLAN_1
 62
     5
  6
CONTINUOUS
 10
-1.337264
 20
2.449453
  0
VERTEX
  8
PLAN_1
 62
     5
  6
CONTINUOUS
 10
-1.337264
 20
2.442063
  0
SEQEND
  8
0
  0
POLYLINE
  8
PLAN_1
 62
     5
  6
CONTINUOUS
 66
     1
 40
0.003000
 41
0.003000
  0
VERTEX
  8
PLAN_1
 62
     5
  6
CONTINUOUS
 10
-1.337264
 20
2.433748
  0
VERTEX
  8
PLAN_1
 62
     5
  6
CONTINUOUS
 10
-1.336803
 20
2.425437
  0
SEQEND
  8
0
  0
POLYLINE
  8
PLAN_1
 62
     5
  6
CONTINUOUS
 66
     1
 40
0.003000
 41
0.003000
  0
VERTEX
  8
PLAN_1
 62
     5
  6
CONTINUOUS
 10
-1.336803
 20
2.417122
  0
VERTEX
  8
PLAN_1
 62
     5
  6
CONTINUOUS
 10
-1.336803
 20
2.411579
  0
SEQEND
  8
0
  0
POLYLINE
  8
PLAN_1
 62
     5
  6
CONTINUOUS
 66
     1
 40
0.003000
 41
0.003000
  0
VERTEX
  8
PLAN_1
 62
     5
  6
CONTINUOUS
 10
-1.336803
 20
2.417122
  0
VERTEX
  8
PLAN_1
 62
     5
  6
CONTINUOUS
 10
-1.336803
 20
2.411579
  0
SEQEND
  8
0
  0
POLYLINE
  8
PLAN_1
  6
CONTINUOUS
 66
     1
 40
0.008311
 41
0.008311
  0
VERTEX
  8
PLAN_1
  6
CONTINUOUS
 10
-1.562650
 20
2.500717
  0
VERTEX
  8
PLAN_1
  6
CONTINUOUS
 10
-1.562650
 20
2.837874
  0
VERTEX
  8
PLAN_1
  6
CONTINUOUS
 10
-1.642551
 20
2.837874
  0
VERTEX
  8
PLAN_1
  6
CONTINUOUS
 10
-1.642551
 20
2.500717
  0
VERTEX
  8
PLAN_1
  6
CONTINUOUS
 10
-1.562650
 20
2.500717
  0
SEQEND
  8
0
  0
POLYLINE
  8
PLAN_1
  6
CONTINUOUS
 66
     1
 40
0.008311
 41
0.008311
  0
VERTEX
  8
PLAN_1
  6
CONTINUOUS
 10
-1.642551
 20
2.750118
  0
VERTEX
  8
PLAN_1
  6
CONTINUOUS
 10
-1.563110
 20
2.750118
  0
SEQEND
  8
0
  0
POLYLINE
  8
PLAN_1
  6
CONTINUOUS
 66
     1
 40
0.008311
 41
0.008311
  0
VERTEX
  8
PLAN_1
  6
CONTINUOUS
 10
-1.642551
 20
2.589394
  0
VERTEX
  8
PLAN_1
  6
CONTINUOUS
 10
-1.563110
 20
2.589394
  0
SEQEND
  8
0
  0
POLYLINE
  8
PLAN_1
  6
CONTINUOUS
 66
     1
 40
0.008311
 41
0.008311
  0
VERTEX
  8
PLAN_1
  6
CONTINUOUS
 10
-1.572350
 20
2.501642
  0
VERTEX
  8
PLAN_1
  6
CONTINUOUS
 10
-1.571886
 20
2.503488
  0
VERTEX
  8
PLAN_1
  6
CONTINUOUS
 10
-1.569579
 20
2.509492
  0
VERTEX
  8
PLAN_1
  6
CONTINUOUS
 10
-1.566807
 20
2.517807
  0
VERTEX
  8
PLAN_1
  6
CONTINUOUS
 10
-1.564496
 20
2.528890
  0
VERTEX
  8
PLAN_1
  6
CONTINUOUS
 10
-1.563575
 20
2.535358
  0
VERTEX
  8
PLAN_1
  6
CONTINUOUS
 10
-1.563110
 20
2.542283
  0
VERTEX
  8
PLAN_1
  6
CONTINUOUS
 10
-1.563110
 20
2.549673
  0
VERTEX
  8
PLAN_1
  6
CONTINUOUS
 10
-1.563575
 20
2.557063
  0
VERTEX
  8
PLAN_1
  6
CONTINUOUS
 10
-1.564496
 20
2.564917
  0
VERTEX
  8
PLAN_1
  6
CONTINUOUS
 10
-1.566346
 20
2.572768
  0
VERTEX
  8
PLAN_1
  6
CONTINUOUS
 10
-1.569114
 20
2.580618
  0
VERTEX
  8
PLAN_1
  6
CONTINUOUS
 10
-1.572350
 20
2.588933
  0
SEQEND
  8
0
  0
POLYLINE
  8
PLAN_1
 62
     5
  6
CONTINUOUS
 66
     1
 40
0.003000
 41
0.003000
  0
VERTEX
  8
PLAN_1
 62
     5
  6
CONTINUOUS
 10
-1.571886
 20
2.750583
  0
VERTEX
  8
PLAN_1
 62
     5
  6
CONTINUOUS
 10
-1.570965
 20
2.752429
  0
VERTEX
  8
PLAN_1
 62
     5
  6
CONTINUOUS
 10
-1.568654
 20
2.757972
  0
VERTEX
  8
PLAN_1
 62
     5
  6
CONTINUOUS
 10
-1.568654
 20
2.758433
  0
SEQEND
  8
0
  0
POLYLINE
  8
PLAN_1
 62
     5
  6
CONTINUOUS
 66
     1
 40
0.003000
 41
0.003000
  0
VERTEX
  8
PLAN_1
 62
     5
  6
CONTINUOUS
 10
-1.566346
 20
2.766283
  0
VERTEX
  8
PLAN_1
 62
     5
  6
CONTINUOUS
 10
-1.565882
 20
2.766748
  0
VERTEX
  8
PLAN_1
 62
     5
  6
CONTINUOUS
 10
-1.564496
 20
2.774138
  0
SEQEND
  8
0
  0
POLYLINE
  8
PLAN_1
 62
     5
  6
CONTINUOUS
 66
     1
 40
0.003000
 41
0.003000
  0
VERTEX
  8
PLAN_1
 62
     5
  6
CONTINUOUS
 10
-1.563110
 20
2.782449
  0
VERTEX
  8
PLAN_1
 62
     5
  6
CONTINUOUS
 10
-1.563110
 20
2.784299
  0
VERTEX
  8
PLAN_1
 62
     5
  6
CONTINUOUS
 10
-1.562189
 20
2.790764
  0
SEQEND
  8
0
  0
POLYLINE
  8
PLAN_1
 62
     5
  6
CONTINUOUS
 66
     1
 40
0.003000
 41
0.003000
  0
VERTEX
  8
PLAN_1
 62
     5
  6
CONTINUOUS
 10
-1.562189
 20
2.799075
  0
VERTEX
  8
PLAN_1
 62
     5
  6
CONTINUOUS
 10
-1.562650
 20
2.806004
  0
VERTEX
  8
PLAN_1
 62
     5
  6
CONTINUOUS
 10
-1.563110
 20
2.807390
  0
SEQEND
  8
0
  0
POLYLINE
  8
PLAN_1
 62
     5
  6
CONTINUOUS
 66
     1
 40
0.003000
 41
0.003000
  0
VERTEX
  8
PLAN_1
 62
     5
  6
CONTINUOUS
 10
-1.564496
 20
2.815705
  0
VERTEX
  8
PLAN_1
 62
     5
  6
CONTINUOUS
 10
-1.565421
 20
2.821709
  0
VERTEX
  8
PLAN_1
 62
     5
  6
CONTINUOUS
 10
-1.566346
 20
2.824016
  0
SEQEND
  8
0
  0
POLYLINE
  8
PLAN_1
 62
     5
  6
CONTINUOUS
 66
     1
 40
0.003000
 41
0.003000
  0
VERTEX
  8
PLAN_1
 62
     5
  6
CONTINUOUS
 10
-1.569114
 20
2.831870
  0
VERTEX
  8
PLAN_1
 62
     5
  6
CONTINUOUS
 10
-1.571886
 20
2.837874
  0
SEQEND
  8
0
  0
POLYLINE
  8
PLAN_1
 62
     5
  6
CONTINUOUS
 66
     1
 40
0.003000
 41
0.003000
  0
VERTEX
  8
PLAN_1
 62
     5
  6
CONTINUOUS
 10
-1.569114
 20
2.831870
  0
VERTEX
  8
PLAN_1
 62
     5
  6
CONTINUOUS
 10
-1.571886
 20
2.837874
  0
SEQEND
  8
0
  0
POLYLINE
  8
PLAN_1
 62
     5
  6
CONTINUOUS
 66
     1
 40
0.003000
 41
0.003000
  0
VERTEX
  8
PLAN_1
 62
     5
  6
CONTINUOUS
 10
-1.571886
 20
2.588933
  0
VERTEX
  8
PLAN_1
 62
     5
  6
CONTINUOUS
 10
-1.570965
 20
2.592165
  0
VERTEX
  8
PLAN_1
 62
     5
  6
CONTINUOUS
 10
-1.570039
 20
2.597244
  0
SEQEND
  8
0
  0
POLYLINE
  8
PLAN_1
 62
     5
  6
CONTINUOUS
 66
     1
 40
0.003000
 41
0.003000
  0
VERTEX
  8
PLAN_1
 62
     5
  6
CONTINUOUS
 10
-1.568654
 20
2.605098
  0
VERTEX
  8
PLAN_1
 62
     5
  6
CONTINUOUS
 10
-1.567268
 20
2.613409
  0
SEQEND
  8
0
  0
POLYLINE
  8
PLAN_1
 62
     5
  6
CONTINUOUS
 66
     1
 40
0.003000
 41
0.003000
  0
VERTEX
  8
PLAN_1
 62
     5
  6
CONTINUOUS
 10
-1.565882
 20
2.621724
  0
VERTEX
  8
PLAN_1
 62
     5
  6
CONTINUOUS
 10
-1.564961
 20
2.630039
  0
SEQEND
  8
0
  0
POLYLINE
  8
PLAN_1
 62
     5
  6
CONTINUOUS
 66
     1
 40
0.003000
 41
0.003000
  0
VERTEX
  8
PLAN_1
 62
     5
  6
CONTINUOUS
 10
-1.564035
 20
2.638350
  0
VERTEX
  8
PLAN_1
 62
     5
  6
CONTINUOUS
 10
-1.563575
 20
2.646665
  0
SEQEND
  8
0
  0
POLYLINE
  8
PLAN_1
 62
     5
  6
CONTINUOUS
 66
     1
 40
0.003000
 41
0.003000
  0
VERTEX
  8
PLAN_1
 62
     5
  6
CONTINUOUS
 10
-1.563110
 20
2.654976
  0
VERTEX
  8
PLAN_1
 62
     5
  6
CONTINUOUS
 10
-1.563110
 20
2.661906
  0
VERTEX
  8
PLAN_1
 62
     5
  6
CONTINUOUS
 10
-1.563110
 20
2.663291
  0
SEQEND
  8
0
  0
POLYLINE
  8
PLAN_1
 62
     5
  6
CONTINUOUS
 66
     1
 40
0.003000
 41
0.003000
  0
VERTEX
  8
PLAN_1
 62
     5
  6
CONTINUOUS
 10
-1.562650
 20
2.671606
  0
VERTEX
  8
PLAN_1
 62
     5
  6
CONTINUOUS
 10
-1.562650
 20
2.675299
  0
VERTEX
  8
PLAN_1
 62
     5
  6
CONTINUOUS
 10
-1.563110
 20
2.679917
  0
SEQEND
  8
0
  0
POLYLINE
  8
PLAN_1
 62
     5
  6
CONTINUOUS
 66
     1
 40
0.003000
 41
0.003000
  0
VERTEX
  8
PLAN_1
 62
     5
  6
CONTINUOUS
 10
-1.563110
 20
2.688232
  0
VERTEX
  8
PLAN_1
 62
     5
  6
CONTINUOUS
 10
-1.563110
 20
2.689618
  0
VERTEX
  8
PLAN_1
 62
     5
  6
CONTINUOUS
 10
-1.564035
 20
2.696543
  0
SEQEND
  8
0
  0
POLYLINE
  8
PLAN_1
 62
     5
  6
CONTINUOUS
 66
     1
 40
0.003000
 41
0.003000
  0
VERTEX
  8
PLAN_1
 62
     5
  6
CONTINUOUS
 10
-1.564496
 20
2.704858
  0
VERTEX
  8
PLAN_1
 62
     5
  6
CONTINUOUS
 10
-1.565421
 20
2.713173
  0
SEQEND
  8
0
  0
POLYLINE
  8
PLAN_1
 62
     5
  6
CONTINUOUS
 66
     1
 40
0.003000
 41
0.003000
  0
VERTEX
  8
PLAN_1
 62
     5
  6
CONTINUOUS
 10
-1.566346
 20
2.721484
  0
VERTEX
  8
PLAN_1
 62
     5
  6
CONTINUOUS
 10
-1.567728
 20
2.729335
  0
SEQEND
  8
0
  0
POLYLINE
  8
PLAN_1
 62
     5
  6
CONTINUOUS
 66
     1
 40
0.003000
 41
0.003000
  0
VERTEX
  8
PLAN_1
 62
     5
  6
CONTINUOUS
 10
-1.569579
 20
2.737650
  0
VERTEX
  8
PLAN_1
 62
     5
  6
CONTINUOUS
 10
-1.571425
 20
2.745965
  0
SEQEND
  8
0
  0
POLYLINE
  8
PLAN_1
  6
CONTINUOUS
 66
     1
 40
0.008311
 41
0.008311
  0
VERTEX
  8
PLAN_1
  6
CONTINUOUS
 10
-1.989406
 20
1.292965
  0
VERTEX
  8
PLAN_1
  6
CONTINUOUS
 10
-1.989406
 20
1.726650
  0
VERTEX
  8
PLAN_1
  6
CONTINUOUS
 10
-2.091937
 20
1.726650
  0
VERTEX
  8
PLAN_1
  6
CONTINUOUS
 10
-2.091937
 20
1.292965
  0
VERTEX
  8
PLAN_1
  6
CONTINUOUS
 10
-1.989406
 20
1.292965
  0
SEQEND
  8
0
  0
POLYLINE
  8
PLAN_1
  6
CONTINUOUS
 66
     1
 40
0.008311
 41
0.008311
  0
VERTEX
  8
PLAN_1
  6
CONTINUOUS
 10
-2.091472
 20
1.615803
  0
VERTEX
  8
PLAN_1
  6
CONTINUOUS
 10
-1.992177
 20
1.615803
  0
SEQEND
  8
0
  0
POLYLINE
  8
PLAN_1
  6
CONTINUOUS
 66
     1
 40
0.008311
 41
0.008311
  0
VERTEX
  8
PLAN_1
  6
CONTINUOUS
 10
-2.091472
 20
1.403350
  0
VERTEX
  8
PLAN_1
  6
CONTINUOUS
 10
-1.992177
 20
1.403350
  0
SEQEND
  8
0
  0
POLYLINE
  8
PLAN_1
  6
CONTINUOUS
 66
     1
 40
0.008311
 41
0.008311
  0
VERTEX
  8
PLAN_1
  6
CONTINUOUS
 10
-2.079929
 20
1.726650
  0
VERTEX
  8
PLAN_1
  6
CONTINUOUS
 10
-2.080850
 20
1.723878
  0
VERTEX
  8
PLAN_1
  6
CONTINUOUS
 10
-2.084083
 20
1.716949
  0
VERTEX
  8
PLAN_1
  6
CONTINUOUS
 10
-2.085469
 20
1.711870
  0
VERTEX
  8
PLAN_1
  6
CONTINUOUS
 10
-2.087319
 20
1.705866
  0
VERTEX
  8
PLAN_1
  6
CONTINUOUS
 10
-2.089165
 20
1.698937
  0
VERTEX
  8
PLAN_1
  6
CONTINUOUS
 10
-2.090551
 20
1.691547
  0
VERTEX
  8
PLAN_1
  6
CONTINUOUS
 10
-2.091472
 20
1.683232
  0
VERTEX
  8
PLAN_1
  6
CONTINUOUS
 10
-2.091937
 20
1.674921
  0
VERTEX
  8
PLAN_1
  6
CONTINUOUS
 10
-2.091937
 20
1.665685
  0
VERTEX
  8
PLAN_1
  6
CONTINUOUS
 10
-2.091012
 20
1.655984
  0
VERTEX
  8
PLAN_1
  6
CONTINUOUS
 10
-2.090551
 20
1.650906
  0
VERTEX
  8
PLAN_1
  6
CONTINUOUS
 10
-2.089626
 20
1.646287
  0
VERTEX
  8
PLAN_1
  6
CONTINUOUS
 10
-2.088240
 20
1.641205
  0
VERTEX
  8
PLAN_1
  6
CONTINUOUS
 10
-2.086854
 20
1.636126
  0
VERTEX
  8
PLAN_1
  6
CONTINUOUS
 10
-2.085008
 20
1.631043
  0
VERTEX
  8
PLAN_1
  6
CONTINUOUS
 10
-2.082701
 20
1.625965
  0
VERTEX
  8
PLAN_1
  6
CONTINUOUS
 10
-2.080390
 20
1.620882
  0
VERTEX
  8
PLAN_1
  6
CONTINUOUS
 10
-2.077618
 20
1.615803
  0
VERTEX
  8
PLAN_1
  6
CONTINUOUS
 10
-2.079004
 20
1.611646
  0
VERTEX
  8
PLAN_1
  6
CONTINUOUS
 10
-2.081776
 20
1.600563
  0
VERTEX
  8
PLAN_1
  6
CONTINUOUS
 10
-2.084083
 20
1.591787
  0
VERTEX
  8
PLAN_1
  6
CONTINUOUS
 10
-2.085933
 20
1.582087
  0
VERTEX
  8
PLAN_1
  6
CONTINUOUS
 10
-2.087780
 20
1.570079
  0
VERTEX
  8
PLAN_1
  6
CONTINUOUS
 10
-2.089626
 20
1.557146
  0
VERTEX
  8
PLAN_1
  6
CONTINUOUS
 10
-2.091012
 20
1.542366
  0
VERTEX
  8
PLAN_1
  6
CONTINUOUS
 10
-2.091937
 20
1.526205
  0
VERTEX
  8
PLAN_1
  6
CONTINUOUS
 10
-2.092398
 20
1.508654
  0
VERTEX
  8
PLAN_1
  6
CONTINUOUS
 10
-2.091937
 20
1.490177
  0
VERTEX
  8
PLAN_1
  6
CONTINUOUS
 10
-2.090551
 20
1.469858
  0
VERTEX
  8
PLAN_1
  6
CONTINUOUS
 10
-2.088240
 20
1.449075
  0
VERTEX
  8
PLAN_1
  6
CONTINUOUS
 10
-2.086854
 20
1.437988
  0
VERTEX
  8
PLAN_1
  6
CONTINUOUS
 10
-2.085008
 20
1.426441
  0
VERTEX
  8
PLAN_1
  6
CONTINUOUS
 10
-2.082701
 20
1.414898
  0
VERTEX
  8
PLAN_1
  6
CONTINUOUS
 10
-2.080390
 20
1.403350
  0
VERTEX
  8
PLAN_1
  6
CONTINUOUS
 10
-2.081315
 20
1.401039
  0
VERTEX
  8
PLAN_1
  6
CONTINUOUS
 10
-2.084083
 20
1.394114
  0
VERTEX
  8
PLAN_1
  6
CONTINUOUS
 10
-2.085933
 20
1.389031
  0
VERTEX
  8
PLAN_1
  6
CONTINUOUS
 10
-2.087780
 20
1.383028
  0
VERTEX
  8
PLAN_1
  6
CONTINUOUS
 10
-2.089626
 20
1.376563
  0
VERTEX
  8
PLAN_1
  6
CONTINUOUS
 10
-2.091012
 20
1.369173
  0
VERTEX
  8
PLAN_1
  6
CONTINUOUS
 10
-2.091937
 20
1.361319
  0
VERTEX
  8
PLAN_1
  6
CONTINUOUS
 10
-2.092398
 20
1.352547
  0
VERTEX
  8
PLAN_1
  6
CONTINUOUS
 10
-2.092398
 20
1.343772
  0
VERTEX
  8
PLAN_1
  6
CONTINUOUS
 10
-2.091472
 20
1.334071
  0
VERTEX
  8
PLAN_1
  6
CONTINUOUS
 10
-2.091012
 20
1.329453
  0
VERTEX
  8
PLAN_1
  6
CONTINUOUS
 10
-2.089626
 20
1.324374
  0
VERTEX
  8
PLAN_1
  6
CONTINUOUS
 10
-2.088705
 20
1.319291
  0
VERTEX
  8
PLAN_1
  6
CONTINUOUS
 10
-2.086854
 20
1.314673
  0
VERTEX
  8
PLAN_1
  6
CONTINUOUS
 10
-2.085008
 20
1.309594
  0
VERTEX
  8
PLAN_1
  6
CONTINUOUS
 10
-2.083161
 20
1.304512
  0
VERTEX
  8
PLAN_1
  6
CONTINUOUS
 10
-2.080850
 20
1.299433
  0
VERTEX
  8
PLAN_1
  6
CONTINUOUS
 10
-2.078079
 20
1.293890
  0
SEQEND
  8
0
  0
POLYLINE
  8
PLAN_1
  6
CONTINUOUS
 66
     1
 40
0.006925
 41
0.006925
  0
VERTEX
  8
PLAN_1
  6
CONTINUOUS
 10
-1.314173
 20
1.919705
  0
VERTEX
  8
PLAN_1
  6
CONTINUOUS
 10
-1.314173
 20
1.119772
  0
SEQEND
  8
0
  0
POLYLINE
  8
PLAN_1
  6
CONTINUOUS
 66
     1
 40
0.006925
 41
0.006925
  0
VERTEX
  8
PLAN_1
  6
CONTINUOUS
 10
-1.563575
 20
1.143787
  0
VERTEX
  8
PLAN_1
  6
CONTINUOUS
 10
-1.563575
 20
1.880445
  0
SEQEND
  8
0
  0
POLYLINE
  8
PLAN_1
  6
CONTINUOUS
 66
     1
 40
0.006925
 41
0.006925
  0
VERTEX
  8
PLAN_1
  6
CONTINUOUS
 10
-2.139969
 20
1.631508
  0
VERTEX
  8
PLAN_1
  6
CONTINUOUS
 10
-2.139969
 20
1.385339
  0
SEQEND
  8
0
  0
POLYLINE
  8
PLAN_1
  6
CONTINUOUS
 66
     1
 40
0.008311
 41
0.008311
  0
VERTEX
  8
PLAN_1
  6
CONTINUOUS
 10
-2.139969
 20
1.385339
  0
VERTEX
  8
PLAN_1
  6
CONTINUOUS
 10
-2.148744
 20
1.394114
  0
VERTEX
  8
PLAN_1
  6
CONTINUOUS
 10
-2.148744
 20
1.622268
  0
VERTEX
  8
PLAN_1
  6
CONTINUOUS
 10
-2.139969
 20
1.630583
  0
VERTEX
  8
PLAN_1
  6
CONTINUOUS
 10
-2.092398
 20
1.631508
  0
VERTEX
  8
PLAN_1
  6
CONTINUOUS
 10
-2.092398
 20
1.385339
  0
VERTEX
  8
PLAN_1
  6
CONTINUOUS
 10
-2.139969
 20
1.385339
  0
SEQEND
  8
0
  0
POLYLINE
  8
PLAN_1
  6
CONTINUOUS
 66
     1
 40
0.008311
 41
0.008311
  0
VERTEX
  8
PLAN_1
  6
CONTINUOUS
 10
-1.660563
 20
2.424972
  0
VERTEX
  8
PLAN_1
  6
CONTINUOUS
 10
-1.641165
 20
2.424972
  0
VERTEX
  8
PLAN_1
  6
CONTINUOUS
 10
-1.641165
 20
2.890063
  0
VERTEX
  8
PLAN_1
  6
CONTINUOUS
 10
-1.912276
 20
2.890063
  0
VERTEX
  8
PLAN_1
  6
CONTINUOUS
 10
-1.912276
 20
2.424972
  0
VERTEX
  8
PLAN_1
  6
CONTINUOUS
 10
-1.892878
 20
2.424972
  0
SEQEND
  8
0
  0
POLYLINE
  8
PLAN_1
  6
CONTINUOUS
 66
     1
 40
0.008311
 41
0.008311
  0
VERTEX
  8
PLAN_1
  6
CONTINUOUS
 10
-1.892878
 20
1.880445
  0
VERTEX
  8
PLAN_1
  6
CONTINUOUS
 10
-1.989866
 20
1.880445
  0
VERTEX
  8
PLAN_1
  6
CONTINUOUS
 10
-1.989866
 20
1.143787
  0
VERTEX
  8
PLAN_1
  6
CONTINUOUS
 10
-1.563575
 20
1.143787
  0
VERTEX
  8
PLAN_1
  6
CONTINUOUS
 10
-1.315094
 20
1.111917
  0
VERTEX
  8
PLAN_1
  6
CONTINUOUS
 10
-1.212563
 20
1.111917
  0
VERTEX
  8
PLAN_1
  6
CONTINUOUS
 10
-1.212102
 20
1.920165
  0
VERTEX
  8
PLAN_1
  6
CONTINUOUS
 10
-1.314173
 20
1.919705
  0
VERTEX
  8
PLAN_1
  6
CONTINUOUS
 10
-1.563575
 20
1.880445
  0
VERTEX
  8
PLAN_1
  6
CONTINUOUS
 10
-1.660563
 20
1.880445
  0
SEQEND
  8
0
  0
POLYLINE
  8
PLAN_1
  6
CONTINUOUS
 66
     1
 40
0.008311
 41
0.008311
  0
VERTEX
  8
PLAN_1
  6
CONTINUOUS
 10
-1.892878
 20
2.539051
  0
VERTEX
  8
PLAN_1
  6
CONTINUOUS
 10
-1.892878
 20
2.424972
  0
SEQEND
  8
0
  0
POLYLINE
  8
PLAN_1
  6
CONTINUOUS
 66
     1
 40
0.008311
 41
0.008311
  0
VERTEX
  8
PLAN_1
  6
CONTINUOUS
 10
-1.892878
 20
1.880445
  0
VERTEX
  8
PLAN_1
  6
CONTINUOUS
 10
-1.892878
 20
2.424972
  0
SEQEND
  8
0
  0
POLYLINE
  8
PLAN_1
  6
CONTINUOUS
 66
     1
 40
0.008311
 41
0.008311
  0
VERTEX
  8
PLAN_1
  6
CONTINUOUS
 10
-1.892878
 20
1.880445
  0
VERTEX
  8
PLAN_1
  6
CONTINUOUS
 10
-1.892878
 20
1.732654
  0
SEQEND
  8
0
  0
POLYLINE
  8
PLAN_1
  6
CONTINUOUS
 66
     1
 40
0.008311
 41
0.008311
  0
VERTEX
  8
PLAN_1
  6
CONTINUOUS
 10
-1.660563
 20
1.732654
  0
VERTEX
  8
PLAN_1
  6
CONTINUOUS
 10
-1.660563
 20
1.880445
  0
SEQEND
  8
0
  0
POLYLINE
  8
PLAN_1
  6
CONTINUOUS
 66
     1
 40
0.008311
 41
0.008311
  0
VERTEX
  8
PLAN_1
  6
CONTINUOUS
 10
-1.660563
 20
2.424972
  0
VERTEX
  8
PLAN_1
  6
CONTINUOUS
 10
-1.660563
 20
2.539051
  0
SEQEND
  8
0
  0
POLYLINE
  8
PLAN_1
  6
CONTINUOUS
 66
     1
 40
0.008311
 41
0.008311
  0
VERTEX
  8
PLAN_1
  6
CONTINUOUS
 10
-1.660563
 20
1.880445
  0
VERTEX
  8
PLAN_1
  6
CONTINUOUS
 10
-1.660563
 20
2.424972
  0
SEQEND
  8
0
  0
POLYLINE
  8
PLAN_1
  6
CONTINUOUS
 66
     1
 40
0.008311
 41
0.008311
  0
VERTEX
  8
PLAN_1
  6
CONTINUOUS
 10
0.112500
 20
0.975209
  0
VERTEX
  8
PLAN_1
  6
CONTINUOUS
 10
0.112500
 20
1.919705
  0
VERTEX
  8
PLAN_1
  6
CONTINUOUS
 10
-1.213949
 20
1.919705
  0
VERTEX
  8
PLAN_1
  6
CONTINUOUS
 10
-1.213949
 20
0.975209
  0
VERTEX
  8
PLAN_1
  6
CONTINUOUS
 10
0.112500
 20
0.975209
  0
SEQEND
  8
0
  0
POLYLINE
  8
PLAN_1
  6
CONTINUOUS
 66
     1
 40
0.008311
 41
0.008311
  0
VERTEX
  8
PLAN_1
  6
CONTINUOUS
 10
-0.337346
 20
0.551689
  0
VERTEX
  8
PLAN_1
  6
CONTINUOUS
 10
-0.337346
 20
0.598799
  0
VERTEX
  8
PLAN_1
  6
CONTINUOUS
 10
-0.742858
 20
0.598799
  0
VERTEX
  8
PLAN_1
  6
CONTINUOUS
 10
-0.742858
 20
0.551689
  0
VERTEX
  8
PLAN_1
  6
CONTINUOUS
 10
-0.337346
 20
0.551689
  0
SEQEND
  8
0
  0
POLYLINE
  8
PLAN_1
  6
CONTINUOUS
 66
     1
 40
0.008311
 41
0.008311
  0
VERTEX
  8
PLAN_1
  6
CONTINUOUS
 10
0.004425
 20
0.949807
  0
VERTEX
  8
PLAN_1
  6
CONTINUOUS
 10
0.004425
 20
0.970591
  0
VERTEX
  8
PLAN_1
  6
CONTINUOUS
 10
-1.084630
 20
0.970591
  0
VERTEX
  8
PLAN_1
  6
CONTINUOUS
 10
-1.084630
 20
0.949807
  0
VERTEX
  8
PLAN_1
  6
CONTINUOUS
 10
0.004425
 20
0.949807
  0
SEQEND
  8
0
  0
POLYLINE
  8
PLAN_1
  6
CONTINUOUS
 66
     1
 40
0.008311
 41
0.008311
  0
VERTEX
  8
PLAN_1
  6
CONTINUOUS
 10
-0.235276
 20
0.598799
  0
VERTEX
  8
PLAN_1
  6
CONTINUOUS
 10
-0.235276
 20
0.949807
  0
VERTEX
  8
PLAN_1
  6
CONTINUOUS
 10
-0.864787
 20
0.949807
  0
VERTEX
  8
PLAN_1
  6
CONTINUOUS
 10
-0.864787
 20
0.598799
  0
VERTEX
  8
PLAN_1
  6
CONTINUOUS
 10
-0.235276
 20
0.598799
  0
SEQEND
  8
0
  0
POLYLINE
  8
PLAN_1
 62
     5
  6
CONTINUOUS
 66
     1
 40
0.003000
 41
0.003000
  0
VERTEX
  8
PLAN_1
 62
     5
  6
CONTINUOUS
 10
-1.382988
 20
0.264413
  0
VERTEX
  8
PLAN_1
 62
     5
  6
CONTINUOUS
 10
-1.382988
 20
0.272728
  0
SEQEND
  8
0
  0
POLYLINE
  8
PLAN_1
 62
     5
  6
CONTINUOUS
 66
     1
 40
0.003000
 41
0.003000
  0
VERTEX
  8
PLAN_1
 62
     5
  6
CONTINUOUS
 10
-1.382988
 20
0.281039
  0
VERTEX
  8
PLAN_1
 62
     5
  6
CONTINUOUS
 10
-1.382988
 20
0.289354
  0
SEQEND
  8
0
  0
POLYLINE
  8
PLAN_1
 62
     5
  6
CONTINUOUS
 66
     1
 40
0.003000
 41
0.003000
  0
VERTEX
  8
PLAN_1
 62
     5
  6
CONTINUOUS
 10
-1.382988
 20
0.297669
  0
VERTEX
  8
PLAN_1
 62
     5
  6
CONTINUOUS
 10
-1.382988
 20
0.305980
  0
SEQEND
  8
0
  0
POLYLINE
  8
PLAN_1
 62
     5
  6
CONTINUOUS
 66
     1
 40
0.003000
 41
0.003000
  0
VERTEX
  8
PLAN_1
 62
     5
  6
CONTINUOUS
 10
-1.382988
 20
0.314295
  0
VERTEX
  8
PLAN_1
 62
     5
  6
CONTINUOUS
 10
-1.382988
 20
0.322606
  0
SEQEND
  8
0
  0
POLYLINE
  8
PLAN_1
 62
     5
  6
CONTINUOUS
 66
     1
 40
0.003000
 41
0.003000
  0
VERTEX
  8
PLAN_1
 62
     5
  6
CONTINUOUS
 10
-1.382988
 20
0.330921
  0
VERTEX
  8
PLAN_1
 62
     5
  6
CONTINUOUS
 10
-1.382988
 20
0.339236
  0
SEQEND
  8
0
  0
POLYLINE
  8
PLAN_1
 62
     5
  6
CONTINUOUS
 66
     1
 40
0.003000
 41
0.003000
  0
VERTEX
  8
PLAN_1
 62
     5
  6
CONTINUOUS
 10
-1.382988
 20
0.347547
  0
VERTEX
  8
PLAN_1
 62
     5
  6
CONTINUOUS
 10
-1.382988
 20
0.355862
  0
SEQEND
  8
0
  0
POLYLINE
  8
PLAN_1
 62
     5
  6
CONTINUOUS
 66
     1
 40
0.003000
 41
0.003000
  0
VERTEX
  8
PLAN_1
 62
     5
  6
CONTINUOUS
 10
-1.382988
 20
0.364173
  0
VERTEX
  8
PLAN_1
 62
     5
  6
CONTINUOUS
 10
-1.382988
 20
0.372488
  0
SEQEND
  8
0
  0
POLYLINE
  8
PLAN_1
 62
     5
  6
CONTINUOUS
 66
     1
 40
0.003000
 41
0.003000
  0
VERTEX
  8
PLAN_1
 62
     5
  6
CONTINUOUS
 10
-1.382988
 20
0.380803
  0
VERTEX
  8
PLAN_1
 62
     5
  6
CONTINUOUS
 10
-1.382988
 20
0.389114
  0
SEQEND
  8
0
  0
POLYLINE
  8
PLAN_1
 62
     5
  6
CONTINUOUS
 66
     1
 40
0.003000
 41
0.003000
  0
VERTEX
  8
PLAN_1
 62
     5
  6
CONTINUOUS
 10
-1.382988
 20
0.397429
  0
VERTEX
  8
PLAN_1
 62
     5
  6
CONTINUOUS
 10
-1.382988
 20
0.405740
  0
SEQEND
  8
0
  0
POLYLINE
  8
PLAN_1
 62
     5
  6
CONTINUOUS
 66
     1
 40
0.003000
 41
0.003000
  0
VERTEX
  8
PLAN_1
 62
     5
  6
CONTINUOUS
 10
-1.382988
 20
0.414055
  0
VERTEX
  8
PLAN_1
 62
     5
  6
CONTINUOUS
 10
-1.382988
 20
0.422370
  0
SEQEND
  8
0
  0
POLYLINE
  8
PLAN_1
 62
     5
  6
CONTINUOUS
 66
     1
 40
0.003000
 41
0.003000
  0
VERTEX
  8
PLAN_1
 62
     5
  6
CONTINUOUS
 10
-1.382988
 20
0.430681
  0
VERTEX
  8
PLAN_1
 62
     5
  6
CONTINUOUS
 10
-1.382988
 20
0.438996
  0
SEQEND
  8
0
  0
POLYLINE
  8
PLAN_1
 62
     5
  6
CONTINUOUS
 66
     1
 40
0.003000
 41
0.003000
  0
VERTEX
  8
PLAN_1
 62
     5
  6
CONTINUOUS
 10
-1.382988
 20
0.447307
  0
VERTEX
  8
PLAN_1
 62
     5
  6
CONTINUOUS
 10
-1.382988
 20
0.455622
  0
SEQEND
  8
0
  0
POLYLINE
  8
PLAN_1
 62
     5
  6
CONTINUOUS
 66
     1
 40
0.003000
 41
0.003000
  0
VERTEX
  8
PLAN_1
 62
     5
  6
CONTINUOUS
 10
-1.382988
 20
0.463937
  0
VERTEX
  8
PLAN_1
 62
     5
  6
CONTINUOUS
 10
-1.382988
 20
0.472248
  0
SEQEND
  8
0
  0
POLYLINE
  8
PLAN_1
 62
     5
  6
CONTINUOUS
 66
     1
 40
0.003000
 41
0.003000
  0
VERTEX
  8
PLAN_1
 62
     5
  6
CONTINUOUS
 10
-1.382988
 20
0.480563
  0
VERTEX
  8
PLAN_1
 62
     5
  6
CONTINUOUS
 10
-1.382988
 20
0.488874
  0
SEQEND
  8
0
  0
POLYLINE
  8
PLAN_1
 62
     5
  6
CONTINUOUS
 66
     1
 40
0.003000
 41
0.003000
  0
VERTEX
  8
PLAN_1
 62
     5
  6
CONTINUOUS
 10
-1.382988
 20
0.497650
  0
VERTEX
  8
PLAN_1
 62
     5
  6
CONTINUOUS
 10
-1.382988
 20
0.505965
  0
SEQEND
  8
0
  0
POLYLINE
  8
PLAN_1
 62
     5
  6
CONTINUOUS
 66
     1
 40
0.003000
 41
0.003000
  0
VERTEX
  8
PLAN_1
 62
     5
  6
CONTINUOUS
 10
-1.382988
 20
0.514280
  0
VERTEX
  8
PLAN_1
 62
     5
  6
CONTINUOUS
 10
-1.382988
 20
0.522591
  0
SEQEND
  8
0
  0
POLYLINE
  8
PLAN_1
 62
     5
  6
CONTINUOUS
 66
     1
 40
0.003000
 41
0.003000
  0
VERTEX
  8
PLAN_1
 62
     5
  6
CONTINUOUS
 10
-1.382988
 20
0.530906
  0
VERTEX
  8
PLAN_1
 62
     5
  6
CONTINUOUS
 10
-1.382988
 20
0.539217
  0
SEQEND
  8
0
  0
POLYLINE
  8
PLAN_1
 62
     5
  6
CONTINUOUS
 66
     1
 40
0.003000
 41
0.003000
  0
VERTEX
  8
PLAN_1
 62
     5
  6
CONTINUOUS
 10
-1.382988
 20
0.547531
  0
VERTEX
  8
PLAN_1
 62
     5
  6
CONTINUOUS
 10
-1.382988
 20
0.555846
  0
SEQEND
  8
0
  0
POLYLINE
  8
PLAN_1
 62
     5
  6
CONTINUOUS
 66
     1
 40
0.003000
 41
0.003000
  0
VERTEX
  8
PLAN_1
 62
     5
  6
CONTINUOUS
 10
-1.382988
 20
0.564157
  0
VERTEX
  8
PLAN_1
 62
     5
  6
CONTINUOUS
 10
-1.382988
 20
0.572472
  0
SEQEND
  8
0
  0
POLYLINE
  8
PLAN_1
 62
     5
  6
CONTINUOUS
 66
     1
 40
0.003000
 41
0.003000
  0
VERTEX
  8
PLAN_1
 62
     5
  6
CONTINUOUS
 10
-1.382988
 20
0.580783
  0
VERTEX
  8
PLAN_1
 62
     5
  6
CONTINUOUS
 10
-1.382988
 20
0.589098
  0
SEQEND
  8
0
  0
POLYLINE
  8
PLAN_1
 62
     5
  6
CONTINUOUS
 66
     1
 40
0.003000
 41
0.003000
  0
VERTEX
  8
PLAN_1
 62
     5
  6
CONTINUOUS
 10
-1.382988
 20
0.597413
  0
VERTEX
  8
PLAN_1
 62
     5
  6
CONTINUOUS
 10
-1.382988
 20
0.605724
  0
SEQEND
  8
0
  0
POLYLINE
  8
PLAN_1
 62
     5
  6
CONTINUOUS
 66
     1
 40
0.003000
 41
0.003000
  0
VERTEX
  8
PLAN_1
 62
     5
  6
CONTINUOUS
 10
-1.382988
 20
0.614039
  0
VERTEX
  8
PLAN_1
 62
     5
  6
CONTINUOUS
 10
-1.382988
 20
0.622350
  0
SEQEND
  8
0
  0
POLYLINE
  8
PLAN_1
 62
     5
  6
CONTINUOUS
 66
     1
 40
0.003000
 41
0.003000
  0
VERTEX
  8
PLAN_1
 62
     5
  6
CONTINUOUS
 10
-1.382988
 20
0.630665
  0
VERTEX
  8
PLAN_1
 62
     5
  6
CONTINUOUS
 10
-1.382988
 20
0.638980
  0
SEQEND
  8
0
  0
POLYLINE
  8
PLAN_1
 62
     5
  6
CONTINUOUS
 66
     1
 40
0.003000
 41
0.003000
  0
VERTEX
  8
PLAN_1
 62
     5
  6
CONTINUOUS
 10
-1.382988
 20
0.647291
  0
VERTEX
  8
PLAN_1
 62
     5
  6
CONTINUOUS
 10
-1.382988
 20
0.655606
  0
SEQEND
  8
0
  0
POLYLINE
  8
PLAN_1
 62
     5
  6
CONTINUOUS
 66
     1
 40
0.003000
 41
0.003000
  0
VERTEX
  8
PLAN_1
 62
     5
  6
CONTINUOUS
 10
-1.382988
 20
0.663917
  0
VERTEX
  8
PLAN_1
 62
     5
  6
CONTINUOUS
 10
-1.382988
 20
0.672232
  0
SEQEND
  8
0
  0
POLYLINE
  8
PLAN_1
 62
     5
  6
CONTINUOUS
 66
     1
 40
0.003000
 41
0.003000
  0
VERTEX
  8
PLAN_1
 62
     5
  6
CONTINUOUS
 10
-1.382988
 20
0.680547
  0
VERTEX
  8
PLAN_1
 62
     5
  6
CONTINUOUS
 10
-1.382988
 20
0.688858
  0
SEQEND
  8
0
  0
POLYLINE
  8
PLAN_1
 62
     5
  6
CONTINUOUS
 66
     1
 40
0.003000
 41
0.003000
  0
VERTEX
  8
PLAN_1
 62
     5
  6
CONTINUOUS
 10
-1.382988
 20
0.697173
  0
VERTEX
  8
PLAN_1
 62
     5
  6
CONTINUOUS
 10
-1.382988
 20
0.705484
  0
SEQEND
  8
0
  0
POLYLINE
  8
PLAN_1
 62
     5
  6
CONTINUOUS
 66
     1
 40
0.003000
 41
0.003000
  0
VERTEX
  8
PLAN_1
 62
     5
  6
CONTINUOUS
 10
-1.382988
 20
0.713799
  0
VERTEX
  8
PLAN_1
 62
     5
  6
CONTINUOUS
 10
-1.382988
 20
0.722114
  0
SEQEND
  8
0
  0
POLYLINE
  8
PLAN_1
 62
     5
  6
CONTINUOUS
 66
     1
 40
0.003000
 41
0.003000
  0
VERTEX
  8
PLAN_1
 62
     5
  6
CONTINUOUS
 10
-1.382988
 20
0.730890
  0
VERTEX
  8
PLAN_1
 62
     5
  6
CONTINUOUS
 10
-1.382988
 20
0.739201
  0
SEQEND
  8
0
  0
POLYLINE
  8
PLAN_1
 62
     5
  6
CONTINUOUS
 66
     1
 40
0.003000
 41
0.003000
  0
VERTEX
  8
PLAN_1
 62
     5
  6
CONTINUOUS
 10
-1.382988
 20
0.747516
  0
VERTEX
  8
PLAN_1
 62
     5
  6
CONTINUOUS
 10
-1.382988
 20
0.755827
  0
SEQEND
  8
0
  0
POLYLINE
  8
PLAN_1
 62
     5
  6
CONTINUOUS
 66
     1
 40
0.003000
 41
0.003000
  0
VERTEX
  8
PLAN_1
 62
     5
  6
CONTINUOUS
 10
-1.382988
 20
0.764142
  0
VERTEX
  8
PLAN_1
 62
     5
  6
CONTINUOUS
 10
-1.382988
 20
0.772457
  0
SEQEND
  8
0
  0
POLYLINE
  8
PLAN_1
 62
     5
  6
CONTINUOUS
 66
     1
 40
0.003000
 41
0.003000
  0
VERTEX
  8
PLAN_1
 62
     5
  6
CONTINUOUS
 10
-1.382988
 20
0.780768
  0
VERTEX
  8
PLAN_1
 62
     5
  6
CONTINUOUS
 10
-1.382988
 20
0.789083
  0
SEQEND
  8
0
  0
POLYLINE
  8
PLAN_1
 62
     5
  6
CONTINUOUS
 66
     1
 40
0.003000
 41
0.003000
  0
VERTEX
  8
PLAN_1
 62
     5
  6
CONTINUOUS
 10
-1.382988
 20
0.797394
  0
VERTEX
  8
PLAN_1
 62
     5
  6
CONTINUOUS
 10
-1.382988
 20
0.805709
  0
SEQEND
  8
0
  0
POLYLINE
  8
PLAN_1
 62
     5
  6
CONTINUOUS
 66
     1
 40
0.003000
 41
0.003000
  0
VERTEX
  8
PLAN_1
 62
     5
  6
CONTINUOUS
 10
-1.382988
 20
0.814024
  0
VERTEX
  8
PLAN_1
 62
     5
  6
CONTINUOUS
 10
-1.382988
 20
0.822335
  0
SEQEND
  8
0
  0
POLYLINE
  8
PLAN_1
 62
     5
  6
CONTINUOUS
 66
     1
 40
0.003000
 41
0.003000
  0
VERTEX
  8
PLAN_1
 62
     5
  6
CONTINUOUS
 10
-1.382988
 20
0.830650
  0
VERTEX
  8
PLAN_1
 62
     5
  6
CONTINUOUS
 10
-1.382988
 20
0.838961
  0
SEQEND
  8
0
  0
POLYLINE
  8
PLAN_1
 62
     5
  6
CONTINUOUS
 66
     1
 40
0.003000
 41
0.003000
  0
VERTEX
  8
PLAN_1
 62
     5
  6
CONTINUOUS
 10
-1.382988
 20
0.847276
  0
VERTEX
  8
PLAN_1
 62
     5
  6
CONTINUOUS
 10
-1.382988
 20
0.855591
  0
SEQEND
  8
0
  0
POLYLINE
  8
PLAN_1
 62
     5
  6
CONTINUOUS
 66
     1
 40
0.003000
 41
0.003000
  0
VERTEX
  8
PLAN_1
 62
     5
  6
CONTINUOUS
 10
-1.382988
 20
0.863902
  0
VERTEX
  8
PLAN_1
 62
     5
  6
CONTINUOUS
 10
-1.382988
 20
0.872217
  0
SEQEND
  8
0
  0
POLYLINE
  8
PLAN_1
 62
     5
  6
CONTINUOUS
 66
     1
 40
0.003000
 41
0.003000
  0
VERTEX
  8
PLAN_1
 62
     5
  6
CONTINUOUS
 10
-1.382988
 20
0.880528
  0
VERTEX
  8
PLAN_1
 62
     5
  6
CONTINUOUS
 10
-1.382988
 20
0.888843
  0
SEQEND
  8
0
  0
POLYLINE
  8
PLAN_1
 62
     5
  6
CONTINUOUS
 66
     1
 40
0.003000
 41
0.003000
  0
VERTEX
  8
PLAN_1
 62
     5
  6
CONTINUOUS
 10
-1.382988
 20
0.897157
  0
VERTEX
  8
PLAN_1
 62
     5
  6
CONTINUOUS
 10
-1.382988
 20
0.905469
  0
SEQEND
  8
0
  0
POLYLINE
  8
PLAN_1
 62
     5
  6
CONTINUOUS
 66
     1
 40
0.003000
 41
0.003000
  0
VERTEX
  8
PLAN_1
 62
     5
  6
CONTINUOUS
 10
-1.382988
 20
0.913783
  0
VERTEX
  8
PLAN_1
 62
     5
  6
CONTINUOUS
 10
-1.382988
 20
0.922094
  0
SEQEND
  8
0
  0
POLYLINE
  8
PLAN_1
 62
     5
  6
CONTINUOUS
 66
     1
 40
0.003000
 41
0.003000
  0
VERTEX
  8
PLAN_1
 62
     5
  6
CONTINUOUS
 10
-1.382988
 20
0.930409
  0
VERTEX
  8
PLAN_1
 62
     5
  6
CONTINUOUS
 10
-1.382988
 20
0.938724
  0
SEQEND
  8
0
  0
POLYLINE
  8
PLAN_1
 62
     5
  6
CONTINUOUS
 66
     1
 40
0.003000
 41
0.003000
  0
VERTEX
  8
PLAN_1
 62
     5
  6
CONTINUOUS
 10
-1.382988
 20
0.947035
  0
VERTEX
  8
PLAN_1
 62
     5
  6
CONTINUOUS
 10
-1.382988
 20
0.955350
  0
SEQEND
  8
0
  0
POLYLINE
  8
PLAN_1
 62
     5
  6
CONTINUOUS
 66
     1
 40
0.003000
 41
0.003000
  0
VERTEX
  8
PLAN_1
 62
     5
  6
CONTINUOUS
 10
-1.382988
 20
0.963661
  0
VERTEX
  8
PLAN_1
 62
     5
  6
CONTINUOUS
 10
-1.382988
 20
0.972437
  0
SEQEND
  8
0
  0
POLYLINE
  8
PLAN_1
 62
     5
  6
CONTINUOUS
 66
     1
 40
0.003000
 41
0.003000
  0
VERTEX
  8
PLAN_1
 62
     5
  6
CONTINUOUS
 10
-1.377909
 20
0.975209
  0
VERTEX
  8
PLAN_1
 62
     5
  6
CONTINUOUS
 10
-1.369594
 20
0.975209
  0
SEQEND
  8
0
  0
POLYLINE
  8
PLAN_1
 62
     5
  6
CONTINUOUS
 66
     1
 40
0.003000
 41
0.003000
  0
VERTEX
  8
PLAN_1
 62
     5
  6
CONTINUOUS
 10
-1.361280
 20
0.975209
  0
VERTEX
  8
PLAN_1
 62
     5
  6
CONTINUOUS
 10
-1.352969
 20
0.975209
  0
SEQEND
  8
0
  0
POLYLINE
  8
PLAN_1
 62
     5
  6
CONTINUOUS
 66
     1
 40
0.003000
 41
0.003000
  0
VERTEX
  8
PLAN_1
 62
     5
  6
CONTINUOUS
 10
-1.344654
 20
0.975209
  0
VERTEX
  8
PLAN_1
 62
     5
  6
CONTINUOUS
 10
-1.336343
 20
0.975209
  0
SEQEND
  8
0
  0
POLYLINE
  8
PLAN_1
 62
     5
  6
CONTINUOUS
 66
     1
 40
0.003000
 41
0.003000
  0
VERTEX
  8
PLAN_1
 62
     5
  6
CONTINUOUS
 10
-1.328028
 20
0.975209
  0
VERTEX
  8
PLAN_1
 62
     5
  6
CONTINUOUS
 10
-1.319713
 20
0.975209
  0
SEQEND
  8
0
  0
POLYLINE
  8
PLAN_1
 62
     5
  6
CONTINUOUS
 66
     1
 40
0.003000
 41
0.003000
  0
VERTEX
  8
PLAN_1
 62
     5
  6
CONTINUOUS
 10
-1.311402
 20
0.975209
  0
VERTEX
  8
PLAN_1
 62
     5
  6
CONTINUOUS
 10
-1.303087
 20
0.975209
  0
SEQEND
  8
0
  0
POLYLINE
  8
PLAN_1
 62
     5
  6
CONTINUOUS
 66
     1
 40
0.003000
 41
0.003000
  0
VERTEX
  8
PLAN_1
 62
     5
  6
CONTINUOUS
 10
-1.294776
 20
0.975209
  0
VERTEX
  8
PLAN_1
 62
     5
  6
CONTINUOUS
 10
-1.286461
 20
0.975209
  0
SEQEND
  8
0
  0
POLYLINE
  8
PLAN_1
 62
     5
  6
CONTINUOUS
 66
     1
 40
0.003000
 41
0.003000
  0
VERTEX
  8
PLAN_1
 62
     5
  6
CONTINUOUS
 10
-1.278146
 20
0.975209
  0
VERTEX
  8
PLAN_1
 62
     5
  6
CONTINUOUS
 10
-1.269370
 20
0.975209
  0
SEQEND
  8
0
  0
POLYLINE
  8
PLAN_1
 62
     5
  6
CONTINUOUS
 66
     1
 40
0.003000
 41
0.003000
  0
VERTEX
  8
PLAN_1
 62
     5
  6
CONTINUOUS
 10
-1.261059
 20
0.975209
  0
VERTEX
  8
PLAN_1
 62
     5
  6
CONTINUOUS
 10
-1.252744
 20
0.975209
  0
SEQEND
  8
0
  0
POLYLINE
  8
PLAN_1
 62
     5
  6
CONTINUOUS
 66
     1
 40
0.003000
 41
0.003000
  0
VERTEX
  8
PLAN_1
 62
     5
  6
CONTINUOUS
 10
-1.244433
 20
0.975209
  0
VERTEX
  8
PLAN_1
 62
     5
  6
CONTINUOUS
 10
-1.236118
 20
0.975209
  0
SEQEND
  8
0
  0
POLYLINE
  8
PLAN_1
 62
     5
  6
CONTINUOUS
 66
     1
 40
0.003000
 41
0.003000
  0
VERTEX
  8
PLAN_1
 62
     5
  6
CONTINUOUS
 10
-1.227803
 20
0.975209
  0
VERTEX
  8
PLAN_1
 62
     5
  6
CONTINUOUS
 10
-1.219492
 20
0.975209
  0
SEQEND
  8
0
  0
POLYLINE
  8
PLAN_1
 62
     5
  6
CONTINUOUS
 66
     1
 40
0.003000
 41
0.003000
  0
VERTEX
  8
PLAN_1
 62
     5
  6
CONTINUOUS
 10
-1.211177
 20
0.975209
  0
VERTEX
  8
PLAN_1
 62
     5
  6
CONTINUOUS
 10
-1.202866
 20
0.975209
  0
SEQEND
  8
0
  0
POLYLINE
  8
PLAN_1
 62
     5
  6
CONTINUOUS
 66
     1
 40
0.003000
 41
0.003000
  0
VERTEX
  8
PLAN_1
 62
     5
  6
CONTINUOUS
 10
-1.194551
 20
0.975209
  0
VERTEX
  8
PLAN_1
 62
     5
  6
CONTINUOUS
 10
-1.186236
 20
0.975209
  0
SEQEND
  8
0
  0
POLYLINE
  8
PLAN_1
 62
     5
  6
CONTINUOUS
 66
     1
 40
0.003000
 41
0.003000
  0
VERTEX
  8
PLAN_1
 62
     5
  6
CONTINUOUS
 10
-1.177925
 20
0.975209
  0
VERTEX
  8
PLAN_1
 62
     5
  6
CONTINUOUS
 10
-1.169610
 20
0.975209
  0
SEQEND
  8
0
  0
POLYLINE
  8
PLAN_1
 62
     5
  6
CONTINUOUS
 66
     1
 40
0.003000
 41
0.003000
  0
VERTEX
  8
PLAN_1
 62
     5
  6
CONTINUOUS
 10
-1.161299
 20
0.975209
  0
VERTEX
  8
PLAN_1
 62
     5
  6
CONTINUOUS
 10
-1.152984
 20
0.975209
  0
SEQEND
  8
0
  0
POLYLINE
  8
PLAN_1
 62
     5
  6
CONTINUOUS
 66
     1
 40
0.003000
 41
0.003000
  0
VERTEX
  8
PLAN_1
 62
     5
  6
CONTINUOUS
 10
-1.144669
 20
0.975209
  0
VERTEX
  8
PLAN_1
 62
     5
  6
CONTINUOUS
 10
-1.136358
 20
0.975209
  0
SEQEND
  8
0
  0
POLYLINE
  8
PLAN_1
 62
     5
  6
CONTINUOUS
 66
     1
 40
0.003000
 41
0.003000
  0
VERTEX
  8
PLAN_1
 62
     5
  6
CONTINUOUS
 10
-1.128043
 20
0.975209
  0
VERTEX
  8
PLAN_1
 62
     5
  6
CONTINUOUS
 10
-1.119732
 20
0.975209
  0
SEQEND
  8
0
  0
POLYLINE
  8
PLAN_1
 62
     5
  6
CONTINUOUS
 66
     1
 40
0.003000
 41
0.003000
  0
VERTEX
  8
PLAN_1
 62
     5
  6
CONTINUOUS
 10
-1.111417
 20
0.975209
  0
VERTEX
  8
PLAN_1
 62
     5
  6
CONTINUOUS
 10
-1.103102
 20
0.975209
  0
SEQEND
  8
0
  0
POLYLINE
  8
PLAN_1
 62
     5
  6
CONTINUOUS
 66
     1
 40
0.003000
 41
0.003000
  0
VERTEX
  8
PLAN_1
 62
     5
  6
CONTINUOUS
 10
-1.094791
 20
0.975209
  0
VERTEX
  8
PLAN_1
 62
     5
  6
CONTINUOUS
 10
-1.086476
 20
0.975209
  0
SEQEND
  8
0
  0
POLYLINE
  8
PLAN_1
 62
     5
  6
CONTINUOUS
 66
     1
 40
0.003000
 41
0.003000
  0
VERTEX
  8
PLAN_1
 62
     5
  6
CONTINUOUS
 10
-1.078165
 20
0.975209
  0
VERTEX
  8
PLAN_1
 62
     5
  6
CONTINUOUS
 10
-1.069850
 20
0.975209
  0
SEQEND
  8
0
  0
POLYLINE
  8
PLAN_1
 62
     5
  6
CONTINUOUS
 66
     1
 40
0.003000
 41
0.003000
  0
VERTEX
  8
PLAN_1
 62
     5
  6
CONTINUOUS
 10
-1.061535
 20
0.975209
  0
VERTEX
  8
PLAN_1
 62
     5
  6
CONTINUOUS
 10
-1.053224
 20
0.975209
  0
SEQEND
  8
0
  0
POLYLINE
  8
PLAN_1
 62
     5
  6
CONTINUOUS
 66
     1
 40
0.003000
 41
0.003000
  0
VERTEX
  8
PLAN_1
 62
     5
  6
CONTINUOUS
 10
-1.044909
 20
0.975209
  0
VERTEX
  8
PLAN_1
 62
     5
  6
CONTINUOUS
 10
-1.036594
 20
0.975209
  0
SEQEND
  8
0
  0
POLYLINE
  8
PLAN_1
 62
     5
  6
CONTINUOUS
 66
     1
 40
0.003000
 41
0.003000
  0
VERTEX
  8
PLAN_1
 62
     5
  6
CONTINUOUS
 10
-1.027823
 20
0.975209
  0
VERTEX
  8
PLAN_1
 62
     5
  6
CONTINUOUS
 10
-1.019508
 20
0.975209
  0
SEQEND
  8
0
  0
POLYLINE
  8
PLAN_1
 62
     5
  6
CONTINUOUS
 66
     1
 40
0.003000
 41
0.003000
  0
VERTEX
  8
PLAN_1
 62
     5
  6
CONTINUOUS
 10
-1.011193
 20
0.975209
  0
VERTEX
  8
PLAN_1
 62
     5
  6
CONTINUOUS
 10
-1.002882
 20
0.975209
  0
SEQEND
  8
0
  0
POLYLINE
  8
PLAN_1
 62
     5
  6
CONTINUOUS
 66
     1
 40
0.003000
 41
0.003000
  0
VERTEX
  8
PLAN_1
 62
     5
  6
CONTINUOUS
 10
-0.994567
 20
0.975209
  0
VERTEX
  8
PLAN_1
 62
     5
  6
CONTINUOUS
 10
-0.986256
 20
0.975209
  0
SEQEND
  8
0
  0
POLYLINE
  8
PLAN_1
 62
     5
  6
CONTINUOUS
 66
     1
 40
0.003000
 41
0.003000
  0
VERTEX
  8
PLAN_1
 62
     5
  6
CONTINUOUS
 10
-0.977941
 20
0.975209
  0
VERTEX
  8
PLAN_1
 62
     5
  6
CONTINUOUS
 10
-0.969626
 20
0.975209
  0
SEQEND
  8
0
  0
POLYLINE
  8
PLAN_1
 62
     5
  6
CONTINUOUS
 66
     1
 40
0.003000
 41
0.003000
  0
VERTEX
  8
PLAN_1
 62
     5
  6
CONTINUOUS
 10
-0.961315
 20
0.975209
  0
VERTEX
  8
PLAN_1
 62
     5
  6
CONTINUOUS
 10
-0.953000
 20
0.975209
  0
SEQEND
  8
0
  0
POLYLINE
  8
PLAN_1
 62
     5
  6
CONTINUOUS
 66
     1
 40
0.003000
 41
0.003000
  0
VERTEX
  8
PLAN_1
 62
     5
  6
CONTINUOUS
 10
-0.944689
 20
0.975209
  0
VERTEX
  8
PLAN_1
 62
     5
  6
CONTINUOUS
 10
-0.936374
 20
0.975209
  0
SEQEND
  8
0
  0
POLYLINE
  8
PLAN_1
 62
     5
  6
CONTINUOUS
 66
     1
 40
0.003000
 41
0.003000
  0
VERTEX
  8
PLAN_1
 62
     5
  6
CONTINUOUS
 10
-0.928059
 20
0.975209
  0
VERTEX
  8
PLAN_1
 62
     5
  6
CONTINUOUS
 10
-0.919748
 20
0.975209
  0
SEQEND
  8
0
  0
POLYLINE
  8
PLAN_1
 62
     5
  6
CONTINUOUS
 66
     1
 40
0.003000
 41
0.003000
  0
VERTEX
  8
PLAN_1
 62
     5
  6
CONTINUOUS
 10
-0.911433
 20
0.975209
  0
VERTEX
  8
PLAN_1
 62
     5
  6
CONTINUOUS
 10
-0.903122
 20
0.975209
  0
SEQEND
  8
0
  0
POLYLINE
  8
PLAN_1
 62
     5
  6
CONTINUOUS
 66
     1
 40
0.003000
 41
0.003000
  0
VERTEX
  8
PLAN_1
 62
     5
  6
CONTINUOUS
 10
-0.894807
 20
0.975209
  0
VERTEX
  8
PLAN_1
 62
     5
  6
CONTINUOUS
 10
-0.886492
 20
0.975209
  0
SEQEND
  8
0
  0
POLYLINE
  8
PLAN_1
 62
     5
  6
CONTINUOUS
 66
     1
 40
0.003000
 41
0.003000
  0
VERTEX
  8
PLAN_1
 62
     5
  6
CONTINUOUS
 10
-0.878181
 20
0.975209
  0
VERTEX
  8
PLAN_1
 62
     5
  6
CONTINUOUS
 10
-0.869866
 20
0.975209
  0
SEQEND
  8
0
  0
POLYLINE
  8
PLAN_1
 62
     5
  6
CONTINUOUS
 66
     1
 40
0.003000
 41
0.003000
  0
VERTEX
  8
PLAN_1
 62
     5
  6
CONTINUOUS
 10
-0.861555
 20
0.975209
  0
VERTEX
  8
PLAN_1
 62
     5
  6
CONTINUOUS
 10
-0.853240
 20
0.975209
  0
SEQEND
  8
0
  0
POLYLINE
  8
PLAN_1
 62
     5
  6
CONTINUOUS
 66
     1
 40
0.003000
 41
0.003000
  0
VERTEX
  8
PLAN_1
 62
     5
  6
CONTINUOUS
 10
-0.844925
 20
0.975209
  0
VERTEX
  8
PLAN_1
 62
     5
  6
CONTINUOUS
 10
-0.836614
 20
0.975209
  0
SEQEND
  8
0
  0
POLYLINE
  8
PLAN_1
 62
     5
  6
CONTINUOUS
 66
     1
 40
0.003000
 41
0.003000
  0
VERTEX
  8
PLAN_1
 62
     5
  6
CONTINUOUS
 10
-0.828299
 20
0.975209
  0
VERTEX
  8
PLAN_1
 62
     5
  6
CONTINUOUS
 10
-0.819988
 20
0.975209
  0
SEQEND
  8
0
  0
POLYLINE
  8
PLAN_1
 62
     5
  6
CONTINUOUS
 66
     1
 40
0.003000
 41
0.003000
  0
VERTEX
  8
PLAN_1
 62
     5
  6
CONTINUOUS
 10
-0.811673
 20
0.975209
  0
VERTEX
  8
PLAN_1
 62
     5
  6
CONTINUOUS
 10
-0.803358
 20
0.975209
  0
SEQEND
  8
0
  0
POLYLINE
  8
PLAN_1
 62
     5
  6
CONTINUOUS
 66
     1
 40
0.003000
 41
0.003000
  0
VERTEX
  8
PLAN_1
 62
     5
  6
CONTINUOUS
 10
-0.795047
 20
0.975209
  0
VERTEX
  8
PLAN_1
 62
     5
  6
CONTINUOUS
 10
-0.786272
 20
0.975209
  0
SEQEND
  8
0
  0
POLYLINE
  8
PLAN_1
 62
     5
  6
CONTINUOUS
 66
     1
 40
0.003000
 41
0.003000
  0
VERTEX
  8
PLAN_1
 62
     5
  6
CONTINUOUS
 10
-0.777957
 20
0.975209
  0
VERTEX
  8
PLAN_1
 62
     5
  6
CONTINUOUS
 10
-0.769646
 20
0.975209
  0
SEQEND
  8
0
  0
POLYLINE
  8
PLAN_1
 62
     5
  6
CONTINUOUS
 66
     1
 40
0.003000
 41
0.003000
  0
VERTEX
  8
PLAN_1
 62
     5
  6
CONTINUOUS
 10
-0.761331
 20
0.975209
  0
VERTEX
  8
PLAN_1
 62
     5
  6
CONTINUOUS
 10
-0.753016
 20
0.975209
  0
SEQEND
  8
0
  0
POLYLINE
  8
PLAN_1
 62
     5
  6
CONTINUOUS
 66
     1
 40
0.003000
 41
0.003000
  0
VERTEX
  8
PLAN_1
 62
     5
  6
CONTINUOUS
 10
-0.744705
 20
0.975209
  0
VERTEX
  8
PLAN_1
 62
     5
  6
CONTINUOUS
 10
-0.736390
 20
0.975209
  0
SEQEND
  8
0
  0
POLYLINE
  8
PLAN_1
 62
     5
  6
CONTINUOUS
 66
     1
 40
0.003000
 41
0.003000
  0
VERTEX
  8
PLAN_1
 62
     5
  6
CONTINUOUS
 10
-0.728079
 20
0.975209
  0
VERTEX
  8
PLAN_1
 62
     5
  6
CONTINUOUS
 10
-0.719764
 20
0.975209
  0
SEQEND
  8
0
  0
POLYLINE
  8
PLAN_1
 62
     5
  6
CONTINUOUS
 66
     1
 40
0.003000
 41
0.003000
  0
VERTEX
  8
PLAN_1
 62
     5
  6
CONTINUOUS
 10
-0.711449
 20
0.975209
  0
VERTEX
  8
PLAN_1
 62
     5
  6
CONTINUOUS
 10
-0.703138
 20
0.975209
  0
SEQEND
  8
0
  0
POLYLINE
  8
PLAN_1
 62
     5
  6
CONTINUOUS
 66
     1
 40
0.003000
 41
0.003000
  0
VERTEX
  8
PLAN_1
 62
     5
  6
CONTINUOUS
 10
-0.694823
 20
0.975209
  0
VERTEX
  8
PLAN_1
 62
     5
  6
CONTINUOUS
 10
-0.686512
 20
0.975209
  0
SEQEND
  8
0
  0
POLYLINE
  8
PLAN_1
 62
     5
  6
CONTINUOUS
 66
     1
 40
0.003000
 41
0.003000
  0
VERTEX
  8
PLAN_1
 62
     5
  6
CONTINUOUS
 10
-0.678197
 20
0.975209
  0
VERTEX
  8
PLAN_1
 62
     5
  6
CONTINUOUS
 10
-0.669882
 20
0.975209
  0
SEQEND
  8
0
  0
POLYLINE
  8
PLAN_1
 62
     5
  6
CONTINUOUS
 66
     1
 40
0.003000
 41
0.003000
  0
VERTEX
  8
PLAN_1
 62
     5
  6
CONTINUOUS
 10
-0.661571
 20
0.975209
  0
VERTEX
  8
PLAN_1
 62
     5
  6
CONTINUOUS
 10
-0.653256
 20
0.975209
  0
SEQEND
  8
0
  0
POLYLINE
  8
PLAN_1
 62
     5
  6
CONTINUOUS
 66
     1
 40
0.003000
 41
0.003000
  0
VERTEX
  8
PLAN_1
 62
     5
  6
CONTINUOUS
 10
-0.644945
 20
0.975209
  0
VERTEX
  8
PLAN_1
 62
     5
  6
CONTINUOUS
 10
-0.636630
 20
0.975209
  0
SEQEND
  8
0
  0
POLYLINE
  8
PLAN_1
 62
     5
  6
CONTINUOUS
 66
     1
 40
0.003000
 41
0.003000
  0
VERTEX
  8
PLAN_1
 62
     5
  6
CONTINUOUS
 10
-0.628315
 20
0.975209
  0
VERTEX
  8
PLAN_1
 62
     5
  6
CONTINUOUS
 10
-0.620004
 20
0.975209
  0
SEQEND
  8
0
  0
POLYLINE
  8
PLAN_1
 62
     5
  6
CONTINUOUS
 66
     1
 40
0.003000
 41
0.003000
  0
VERTEX
  8
PLAN_1
 62
     5
  6
CONTINUOUS
 10
-0.611689
 20
0.975209
  0
VERTEX
  8
PLAN_1
 62
     5
  6
CONTINUOUS
 10
-0.603378
 20
0.975209
  0
SEQEND
  8
0
  0
POLYLINE
  8
PLAN_1
 62
     5
  6
CONTINUOUS
 66
     1
 40
0.003000
 41
0.003000
  0
VERTEX
  8
PLAN_1
 62
     5
  6
CONTINUOUS
 10
-0.595063
 20
0.975209
  0
VERTEX
  8
PLAN_1
 62
     5
  6
CONTINUOUS
 10
-0.586748
 20
0.975209
  0
SEQEND
  8
0
  0
POLYLINE
  8
PLAN_1
 62
     5
  6
CONTINUOUS
 66
     1
 40
0.003000
 41
0.003000
  0
VERTEX
  8
PLAN_1
 62
     5
  6
CONTINUOUS
 10
-0.578437
 20
0.975209
  0
VERTEX
  8
PLAN_1
 62
     5
  6
CONTINUOUS
 10
-0.570122
 20
0.975209
  0
SEQEND
  8
0
  0
POLYLINE
  8
PLAN_1
 62
     5
  6
CONTINUOUS
 66
     1
 40
0.003000
 41
0.003000
  0
VERTEX
  8
PLAN_1
 62
     5
  6
CONTINUOUS
 10
-0.561807
 20
0.975209
  0
VERTEX
  8
PLAN_1
 62
     5
  6
CONTINUOUS
 10
-0.553496
 20
0.975209
  0
SEQEND
  8
0
  0
POLYLINE
  8
PLAN_1
 62
     5
  6
CONTINUOUS
 66
     1
 40
0.003000
 41
0.003000
  0
VERTEX
  8
PLAN_1
 62
     5
  6
CONTINUOUS
 10
-0.544720
 20
0.975209
  0
VERTEX
  8
PLAN_1
 62
     5
  6
CONTINUOUS
 10
-0.536406
 20
0.975209
  0
SEQEND
  8
0
  0
POLYLINE
  8
PLAN_1
 62
     5
  6
CONTINUOUS
 66
     1
 40
0.003000
 41
0.003000
  0
VERTEX
  8
PLAN_1
 62
     5
  6
CONTINUOUS
 10
-0.528094
 20
0.975209
  0
VERTEX
  8
PLAN_1
 62
     5
  6
CONTINUOUS
 10
-0.519780
 20
0.975209
  0
SEQEND
  8
0
  0
POLYLINE
  8
PLAN_1
 62
     5
  6
CONTINUOUS
 66
     1
 40
0.003000
 41
0.003000
  0
VERTEX
  8
PLAN_1
 62
     5
  6
CONTINUOUS
 10
-0.511469
 20
0.975209
  0
VERTEX
  8
PLAN_1
 62
     5
  6
CONTINUOUS
 10
-0.503154
 20
0.975209
  0
SEQEND
  8
0
  0
POLYLINE
  8
PLAN_1
 62
     5
  6
CONTINUOUS
 66
     1
 40
0.003000
 41
0.003000
  0
VERTEX
  8
PLAN_1
 62
     5
  6
CONTINUOUS
 10
-0.494839
 20
0.975209
  0
VERTEX
  8
PLAN_1
 62
     5
  6
CONTINUOUS
 10
-0.486528
 20
0.975209
  0
SEQEND
  8
0
  0
POLYLINE
  8
PLAN_1
 62
     5
  6
CONTINUOUS
 66
     1
 40
0.003000
 41
0.003000
  0
VERTEX
  8
PLAN_1
 62
     5
  6
CONTINUOUS
 10
-0.478213
 20
0.975209
  0
VERTEX
  8
PLAN_1
 62
     5
  6
CONTINUOUS
 10
-0.469902
 20
0.975209
  0
SEQEND
  8
0
  0
POLYLINE
  8
PLAN_1
 62
     5
  6
CONTINUOUS
 66
     1
 40
0.003000
 41
0.003000
  0
VERTEX
  8
PLAN_1
 62
     5
  6
CONTINUOUS
 10
-0.461587
 20
0.975209
  0
VERTEX
  8
PLAN_1
 62
     5
  6
CONTINUOUS
 10
-0.453272
 20
0.975209
  0
SEQEND
  8
0
  0
POLYLINE
  8
PLAN_1
 62
     5
  6
CONTINUOUS
 66
     1
 40
0.003000
 41
0.003000
  0
VERTEX
  8
PLAN_1
 62
     5
  6
CONTINUOUS
 10
-0.444961
 20
0.975209
  0
VERTEX
  8
PLAN_1
 62
     5
  6
CONTINUOUS
 10
-0.436646
 20
0.975209
  0
SEQEND
  8
0
  0
POLYLINE
  8
PLAN_1
 62
     5
  6
CONTINUOUS
 66
     1
 40
0.003000
 41
0.003000
  0
VERTEX
  8
PLAN_1
 62
     5
  6
CONTINUOUS
 10
-0.428335
 20
0.975209
  0
VERTEX
  8
PLAN_1
 62
     5
  6
CONTINUOUS
 10
-0.420020
 20
0.975209
  0
SEQEND
  8
0
  0
POLYLINE
  8
PLAN_1
 62
     5
  6
CONTINUOUS
 66
     1
 40
0.003000
 41
0.003000
  0
VERTEX
  8
PLAN_1
 62
     5
  6
CONTINUOUS
 10
-0.411705
 20
0.975209
  0
VERTEX
  8
PLAN_1
 62
     5
  6
CONTINUOUS
 10
-0.403394
 20
0.975209
  0
SEQEND
  8
0
  0
POLYLINE
  8
PLAN_1
 62
     5
  6
CONTINUOUS
 66
     1
 40
0.003000
 41
0.003000
  0
VERTEX
  8
PLAN_1
 62
     5
  6
CONTINUOUS
 10
-0.395079
 20
0.975209
  0
VERTEX
  8
PLAN_1
 62
     5
  6
CONTINUOUS
 10
-0.386768
 20
0.975209
  0
SEQEND
  8
0
  0
POLYLINE
  8
PLAN_1
 62
     5
  6
CONTINUOUS
 66
     1
 40
0.003000
 41
0.003000
  0
VERTEX
  8
PLAN_1
 62
     5
  6
CONTINUOUS
 10
-0.378453
 20
0.975209
  0
VERTEX
  8
PLAN_1
 62
     5
  6
CONTINUOUS
 10
-0.370138
 20
0.975209
  0
SEQEND
  8
0
  0
POLYLINE
  8
PLAN_1
 62
     5
  6
CONTINUOUS
 66
     1
 40
0.003000
 41
0.003000
  0
VERTEX
  8
PLAN_1
 62
     5
  6
CONTINUOUS
 10
-0.361827
 20
0.975209
  0
VERTEX
  8
PLAN_1
 62
     5
  6
CONTINUOUS
 10
-0.353512
 20
0.975209
  0
SEQEND
  8
0
  0
POLYLINE
  8
PLAN_1
 62
     5
  6
CONTINUOUS
 66
     1
 40
0.003000
 41
0.003000
  0
VERTEX
  8
PLAN_1
 62
     5
  6
CONTINUOUS
 10
-0.345197
 20
0.975209
  0
VERTEX
  8
PLAN_1
 62
     5
  6
CONTINUOUS
 10
-0.336886
 20
0.975209
  0
SEQEND
  8
0
  0
POLYLINE
  8
PLAN_1
 62
     5
  6
CONTINUOUS
 66
     1
 40
0.003000
 41
0.003000
  0
VERTEX
  8
PLAN_1
 62
     5
  6
CONTINUOUS
 10
-0.328571
 20
0.975209
  0
VERTEX
  8
PLAN_1
 62
     5
  6
CONTINUOUS
 10
-0.320260
 20
0.975209
  0
SEQEND
  8
0
  0
POLYLINE
  8
PLAN_1
 62
     5
  6
CONTINUOUS
 66
     1
 40
0.003000
 41
0.003000
  0
VERTEX
  8
PLAN_1
 62
     5
  6
CONTINUOUS
 10
-0.311945
 20
0.975209
  0
VERTEX
  8
PLAN_1
 62
     5
  6
CONTINUOUS
 10
-0.303169
 20
0.975209
  0
SEQEND
  8
0
  0
POLYLINE
  8
PLAN_1
 62
     5
  6
CONTINUOUS
 66
     1
 40
0.003000
 41
0.003000
  0
VERTEX
  8
PLAN_1
 62
     5
  6
CONTINUOUS
 10
-0.294858
 20
0.975209
  0
VERTEX
  8
PLAN_1
 62
     5
  6
CONTINUOUS
 10
-0.286543
 20
0.975209
  0
SEQEND
  8
0
  0
POLYLINE
  8
PLAN_1
 62
     5
  6
CONTINUOUS
 66
     1
 40
0.003000
 41
0.003000
  0
VERTEX
  8
PLAN_1
 62
     5
  6
CONTINUOUS
 10
-0.278228
 20
0.975209
  0
VERTEX
  8
PLAN_1
 62
     5
  6
CONTINUOUS
 10
-0.269917
 20
0.975209
  0
SEQEND
  8
0
  0
POLYLINE
  8
PLAN_1
 62
     5
  6
CONTINUOUS
 66
     1
 40
0.003000
 41
0.003000
  0
VERTEX
  8
PLAN_1
 62
     5
  6
CONTINUOUS
 10
-0.261602
 20
0.975209
  0
VERTEX
  8
PLAN_1
 62
     5
  6
CONTINUOUS
 10
-0.253291
 20
0.975209
  0
SEQEND
  8
0
  0
POLYLINE
  8
PLAN_1
 62
     5
  6
CONTINUOUS
 66
     1
 40
0.003000
 41
0.003000
  0
VERTEX
  8
PLAN_1
 62
     5
  6
CONTINUOUS
 10
-0.244976
 20
0.975209
  0
VERTEX
  8
PLAN_1
 62
     5
  6
CONTINUOUS
 10
-0.236661
 20
0.975209
  0
SEQEND
  8
0
  0
POLYLINE
  8
PLAN_1
 62
     5
  6
CONTINUOUS
 66
     1
 40
0.003000
 41
0.003000
  0
VERTEX
  8
PLAN_1
 62
     5
  6
CONTINUOUS
 10
-0.228350
 20
0.975209
  0
VERTEX
  8
PLAN_1
 62
     5
  6
CONTINUOUS
 10
-0.220035
 20
0.975209
  0
SEQEND
  8
0
  0
POLYLINE
  8
PLAN_1
 62
     5
  6
CONTINUOUS
 66
     1
 40
0.003000
 41
0.003000
  0
VERTEX
  8
PLAN_1
 62
     5
  6
CONTINUOUS
 10
-0.211724
 20
0.975209
  0
VERTEX
  8
PLAN_1
 62
     5
  6
CONTINUOUS
 10
-0.203409
 20
0.975209
  0
SEQEND
  8
0
  0
POLYLINE
  8
PLAN_1
 62
     5
  6
CONTINUOUS
 66
     1
 40
0.003000
 41
0.003000
  0
VERTEX
  8
PLAN_1
 62
     5
  6
CONTINUOUS
 10
-0.195094
 20
0.975209
  0
VERTEX
  8
PLAN_1
 62
     5
  6
CONTINUOUS
 10
-0.186783
 20
0.975209
  0
SEQEND
  8
0
  0
POLYLINE
  8
PLAN_1
 62
     5
  6
CONTINUOUS
 66
     1
 40
0.003000
 41
0.003000
  0
VERTEX
  8
PLAN_1
 62
     5
  6
CONTINUOUS
 10
-0.178469
 20
0.975209
  0
VERTEX
  8
PLAN_1
 62
     5
  6
CONTINUOUS
 10
-0.170157
 20
0.975209
  0
SEQEND
  8
0
  0
POLYLINE
  8
PLAN_1
 62
     5
  6
CONTINUOUS
 66
     1
 40
0.003000
 41
0.003000
  0
VERTEX
  8
PLAN_1
 62
     5
  6
CONTINUOUS
 10
-0.161843
 20
0.975209
  0
VERTEX
  8
PLAN_1
 62
     5
  6
CONTINUOUS
 10
-0.153528
 20
0.975209
  0
SEQEND
  8
0
  0
POLYLINE
  8
PLAN_1
 62
     5
  6
CONTINUOUS
 66
     1
 40
0.003000
 41
0.003000
  0
VERTEX
  8
PLAN_1
 62
     5
  6
CONTINUOUS
 10
-0.145217
 20
0.975209
  0
VERTEX
  8
PLAN_1
 62
     5
  6
CONTINUOUS
 10
-0.136902
 20
0.975209
  0
SEQEND
  8
0
  0
POLYLINE
  8
PLAN_1
 62
     5
  6
CONTINUOUS
 66
     1
 40
0.003000
 41
0.003000
  0
VERTEX
  8
PLAN_1
 62
     5
  6
CONTINUOUS
 10
-0.128591
 20
0.975209
  0
VERTEX
  8
PLAN_1
 62
     5
  6
CONTINUOUS
 10
-0.120276
 20
0.975209
  0
SEQEND
  8
0
  0
POLYLINE
  8
PLAN_1
 62
     5
  6
CONTINUOUS
 66
     1
 40
0.003000
 41
0.003000
  0
VERTEX
  8
PLAN_1
 62
     5
  6
CONTINUOUS
 10
-0.111961
 20
0.975209
  0
VERTEX
  8
PLAN_1
 62
     5
  6
CONTINUOUS
 10
-0.103650
 20
0.975209
  0
SEQEND
  8
0
  0
POLYLINE
  8
PLAN_1
 62
     5
  6
CONTINUOUS
 66
     1
 40
0.003000
 41
0.003000
  0
VERTEX
  8
PLAN_1
 62
     5
  6
CONTINUOUS
 10
-0.095335
 20
0.975209
  0
VERTEX
  8
PLAN_1
 62
     5
  6
CONTINUOUS
 10
-0.087020
 20
0.975209
  0
SEQEND
  8
0
  0
POLYLINE
  8
PLAN_1
 62
     5
  6
CONTINUOUS
 66
     1
 40
0.003000
 41
0.003000
  0
VERTEX
  8
PLAN_1
 62
     5
  6
CONTINUOUS
 10
-0.078709
 20
0.975209
  0
VERTEX
  8
PLAN_1
 62
     5
  6
CONTINUOUS
 10
-0.070394
 20
0.975209
  0
SEQEND
  8
0
  0
POLYLINE
  8
PLAN_1
 62
     5
  6
CONTINUOUS
 66
     1
 40
0.003000
 41
0.003000
  0
VERTEX
  8
PLAN_1
 62
     5
  6
CONTINUOUS
 10
-0.062083
 20
0.975209
  0
VERTEX
  8
PLAN_1
 62
     5
  6
CONTINUOUS
 10
-0.053307
 20
0.975209
  0
SEQEND
  8
0
  0
POLYLINE
  8
PLAN_1
 62
     5
  6
CONTINUOUS
 66
     1
 40
0.003000
 41
0.003000
  0
VERTEX
  8
PLAN_1
 62
     5
  6
CONTINUOUS
 10
-0.044992
 20
0.975209
  0
VERTEX
  8
PLAN_1
 62
     5
  6
CONTINUOUS
 10
-0.036681
 20
0.975209
  0
SEQEND
  8
0
  0
POLYLINE
  8
PLAN_1
 62
     5
  6
CONTINUOUS
 66
     1
 40
0.003000
 41
0.003000
  0
VERTEX
  8
PLAN_1
 62
     5
  6
CONTINUOUS
 10
-0.028366
 20
0.975209
  0
VERTEX
  8
PLAN_1
 62
     5
  6
CONTINUOUS
 10
-0.020051
 20
0.975209
  0
SEQEND
  8
0
  0
POLYLINE
  8
PLAN_1
 62
     5
  6
CONTINUOUS
 66
     1
 40
0.003000
 41
0.003000
  0
VERTEX
  8
PLAN_1
 62
     5
  6
CONTINUOUS
 10
-0.011740
 20
0.975209
  0
VERTEX
  8
PLAN_1
 62
     5
  6
CONTINUOUS
 10
-0.003425
 20
0.975209
  0
SEQEND
  8
0
  0
POLYLINE
  8
PLAN_1
 62
     5
  6
CONTINUOUS
 66
     1
 40
0.003000
 41
0.003000
  0
VERTEX
  8
PLAN_1
 62
     5
  6
CONTINUOUS
 10
0.004886
 20
0.975209
  0
VERTEX
  8
PLAN_1
 62
     5
  6
CONTINUOUS
 10
0.013201
 20
0.975209
  0
SEQEND
  8
0
  0
POLYLINE
  8
PLAN_1
 62
     5
  6
CONTINUOUS
 66
     1
 40
0.003000
 41
0.003000
  0
VERTEX
  8
PLAN_1
 62
     5
  6
CONTINUOUS
 10
0.021516
 20
0.975209
  0
VERTEX
  8
PLAN_1
 62
     5
  6
CONTINUOUS
 10
0.029827
 20
0.975209
  0
SEQEND
  8
0
  0
POLYLINE
  8
PLAN_1
 62
     5
  6
CONTINUOUS
 66
     1
 40
0.003000
 41
0.003000
  0
VERTEX
  8
PLAN_1
 62
     5
  6
CONTINUOUS
 10
0.038142
 20
0.975209
  0
VERTEX
  8
PLAN_1
 62
     5
  6
CONTINUOUS
 10
0.046453
 20
0.975209
  0
SEQEND
  8
0
  0
POLYLINE
  8
PLAN_1
 62
     5
  6
CONTINUOUS
 66
     1
 40
0.003000
 41
0.003000
  0
VERTEX
  8
PLAN_1
 62
     5
  6
CONTINUOUS
 10
0.054768
 20
0.975209
  0
VERTEX
  8
PLAN_1
 62
     5
  6
CONTINUOUS
 10
0.063083
 20
0.975209
  0
SEQEND
  8
0
  0
POLYLINE
  8
PLAN_1
 62
     5
  6
CONTINUOUS
 66
     1
 40
0.003000
 41
0.003000
  0
VERTEX
  8
PLAN_1
 62
     5
  6
CONTINUOUS
 10
0.071394
 20
0.975209
  0
VERTEX
  8
PLAN_1
 62
     5
  6
CONTINUOUS
 10
0.079709
 20
0.975209
  0
SEQEND
  8
0
  0
POLYLINE
  8
PLAN_1
 62
     5
  6
CONTINUOUS
 66
     1
 40
0.003000
 41
0.003000
  0
VERTEX
  8
PLAN_1
 62
     5
  6
CONTINUOUS
 10
0.088020
 20
0.975209
  0
VERTEX
  8
PLAN_1
 62
     5
  6
CONTINUOUS
 10
0.096335
 20
0.975209
  0
SEQEND
  8
0
  0
POLYLINE
  8
PLAN_1
 62
     5
  6
CONTINUOUS
 66
     1
 40
0.003000
 41
0.003000
  0
VERTEX
  8
PLAN_1
 62
     5
  6
CONTINUOUS
 10
0.104650
 20
0.975209
  0
VERTEX
  8
PLAN_1
 62
     5
  6
CONTINUOUS
 10
0.111114
 20
0.975209
  0
VERTEX
  8
PLAN_1
 62
     5
  6
CONTINUOUS
 10
0.111114
 20
0.973362
  0
SEQEND
  8
0
  0
POLYLINE
  8
PLAN_1
 62
     5
  6
CONTINUOUS
 66
     1
 40
0.003000
 41
0.003000
  0
VERTEX
  8
PLAN_1
 62
     5
  6
CONTINUOUS
 10
0.111114
 20
0.965047
  0
VERTEX
  8
PLAN_1
 62
     5
  6
CONTINUOUS
 10
0.111114
 20
0.956736
  0
SEQEND
  8
0
  0
POLYLINE
  8
PLAN_1
 62
     5
  6
CONTINUOUS
 66
     1
 40
0.003000
 41
0.003000
  0
VERTEX
  8
PLAN_1
 62
     5
  6
CONTINUOUS
 10
0.111114
 20
0.948421
  0
VERTEX
  8
PLAN_1
 62
     5
  6
CONTINUOUS
 10
0.111114
 20
0.940110
  0
SEQEND
  8
0
  0
POLYLINE
  8
PLAN_1
 62
     5
  6
CONTINUOUS
 66
     1
 40
0.003000
 41
0.003000
  0
VERTEX
  8
PLAN_1
 62
     5
  6
CONTINUOUS
 10
0.111114
 20
0.931795
  0
VERTEX
  8
PLAN_1
 62
     5
  6
CONTINUOUS
 10
0.111114
 20
0.923480
  0
SEQEND
  8
0
  0
POLYLINE
  8
PLAN_1
 62
     5
  6
CONTINUOUS
 66
     1
 40
0.003000
 41
0.003000
  0
VERTEX
  8
PLAN_1
 62
     5
  6
CONTINUOUS
 10
0.111114
 20
0.914705
  0
VERTEX
  8
PLAN_1
 62
     5
  6
CONTINUOUS
 10
0.111114
 20
0.906394
  0
SEQEND
  8
0
  0
POLYLINE
  8
PLAN_1
 62
     5
  6
CONTINUOUS
 66
     1
 40
0.003000
 41
0.003000
  0
VERTEX
  8
PLAN_1
 62
     5
  6
CONTINUOUS
 10
0.111114
 20
0.898079
  0
VERTEX
  8
PLAN_1
 62
     5
  6
CONTINUOUS
 10
0.111114
 20
0.889768
  0
SEQEND
  8
0
  0
POLYLINE
  8
PLAN_1
 62
     5
  6
CONTINUOUS
 66
     1
 40
0.003000
 41
0.003000
  0
VERTEX
  8
PLAN_1
 62
     5
  6
CONTINUOUS
 10
0.111114
 20
0.881453
  0
VERTEX
  8
PLAN_1
 62
     5
  6
CONTINUOUS
 10
0.111114
 20
0.873138
  0
SEQEND
  8
0
  0
POLYLINE
  8
PLAN_1
 62
     5
  6
CONTINUOUS
 66
     1
 40
0.003000
 41
0.003000
  0
VERTEX
  8
PLAN_1
 62
     5
  6
CONTINUOUS
 10
0.111114
 20
0.864827
  0
VERTEX
  8
PLAN_1
 62
     5
  6
CONTINUOUS
 10
0.111114
 20
0.856512
  0
SEQEND
  8
0
  0
POLYLINE
  8
PLAN_1
 62
     5
  6
CONTINUOUS
 66
     1
 40
0.003000
 41
0.003000
  0
VERTEX
  8
PLAN_1
 62
     5
  6
CONTINUOUS
 10
0.111114
 20
0.848201
  0
VERTEX
  8
PLAN_1
 62
     5
  6
CONTINUOUS
 10
0.111114
 20
0.839886
  0
SEQEND
  8
0
  0
POLYLINE
  8
PLAN_1
 62
     5
  6
CONTINUOUS
 66
     1
 40
0.003000
 41
0.003000
  0
VERTEX
  8
PLAN_1
 62
     5
  6
CONTINUOUS
 10
0.111114
 20
0.831571
  0
VERTEX
  8
PLAN_1
 62
     5
  6
CONTINUOUS
 10
0.111114
 20
0.830650
  0
VERTEX
  8
PLAN_1
 62
     5
  6
CONTINUOUS
 10
0.118043
 20
0.830650
  0
SEQEND
  8
0
  0
POLYLINE
  8
PLAN_1
 62
     5
  6
CONTINUOUS
 66
     1
 40
0.003000
 41
0.003000
  0
VERTEX
  8
PLAN_1
 62
     5
  6
CONTINUOUS
 10
0.126819
 20
0.830650
  0
VERTEX
  8
PLAN_1
 62
     5
  6
CONTINUOUS
 10
0.135130
 20
0.830650
  0
SEQEND
  8
0
  0
POLYLINE
  8
PLAN_1
 62
     5
  6
CONTINUOUS
 66
     1
 40
0.003000
 41
0.003000
  0
VERTEX
  8
PLAN_1
 62
     5
  6
CONTINUOUS
 10
0.143445
 20
0.830650
  0
VERTEX
  8
PLAN_1
 62
     5
  6
CONTINUOUS
 10
0.150835
 20
0.830650
  0
VERTEX
  8
PLAN_1
 62
     5
  6
CONTINUOUS
 10
0.150835
 20
0.829724
  0
SEQEND
  8
0
  0
POLYLINE
  8
PLAN_1
 62
     5
  6
CONTINUOUS
 66
     1
 40
0.003000
 41
0.003000
  0
VERTEX
  8
PLAN_1
 62
     5
  6
CONTINUOUS
 10
0.150835
 20
0.821413
  0
VERTEX
  8
PLAN_1
 62
     5
  6
CONTINUOUS
 10
0.150835
 20
0.813098
  0
SEQEND
  8
0
  0
POLYLINE
  8
PLAN_1
 62
     5
  6
CONTINUOUS
 66
     1
 40
0.003000
 41
0.003000
  0
VERTEX
  8
PLAN_1
 62
     5
  6
CONTINUOUS
 10
0.150835
 20
0.804783
  0
VERTEX
  8
PLAN_1
 62
     5
  6
CONTINUOUS
 10
0.150835
 20
0.796472
  0
SEQEND
  8
0
  0
POLYLINE
  8
PLAN_1
 62
     5
  6
CONTINUOUS
 66
     1
 40
0.003000
 41
0.003000
  0
VERTEX
  8
PLAN_1
 62
     5
  6
CONTINUOUS
 10
0.150835
 20
0.788157
  0
VERTEX
  8
PLAN_1
 62
     5
  6
CONTINUOUS
 10
0.150835
 20
0.779846
  0
SEQEND
  8
0
  0
POLYLINE
  8
PLAN_1
 62
     5
  6
CONTINUOUS
 66
     1
 40
0.003000
 41
0.003000
  0
VERTEX
  8
PLAN_1
 62
     5
  6
CONTINUOUS
 10
0.150835
 20
0.771531
  0
VERTEX
  8
PLAN_1
 62
     5
  6
CONTINUOUS
 10
0.150835
 20
0.763217
  0
SEQEND
  8
0
  0
POLYLINE
  8
PLAN_1
 62
     5
  6
CONTINUOUS
 66
     1
 40
0.003000
 41
0.003000
  0
VERTEX
  8
PLAN_1
 62
     5
  6
CONTINUOUS
 10
0.150835
 20
0.754906
  0
VERTEX
  8
PLAN_1
 62
     5
  6
CONTINUOUS
 10
0.150835
 20
0.746591
  0
SEQEND
  8
0
  0
POLYLINE
  8
PLAN_1
 62
     5
  6
CONTINUOUS
 66
     1
 40
0.003000
 41
0.003000
  0
VERTEX
  8
PLAN_1
 62
     5
  6
CONTINUOUS
 10
0.150835
 20
0.738280
  0
VERTEX
  8
PLAN_1
 62
     5
  6
CONTINUOUS
 10
0.150835
 20
0.729965
  0
SEQEND
  8
0
  0
POLYLINE
  8
PLAN_1
 62
     5
  6
CONTINUOUS
 66
     1
 40
0.003000
 41
0.003000
  0
VERTEX
  8
PLAN_1
 62
     5
  6
CONTINUOUS
 10
0.150835
 20
0.721650
  0
VERTEX
  8
PLAN_1
 62
     5
  6
CONTINUOUS
 10
0.150835
 20
0.713339
  0
SEQEND
  8
0
  0
POLYLINE
  8
PLAN_1
 62
     5
  6
CONTINUOUS
 66
     1
 40
0.003000
 41
0.003000
  0
VERTEX
  8
PLAN_1
 62
     5
  6
CONTINUOUS
 10
0.150835
 20
0.705024
  0
VERTEX
  8
PLAN_1
 62
     5
  6
CONTINUOUS
 10
0.150835
 20
0.696709
  0
SEQEND
  8
0
  0
POLYLINE
  8
PLAN_1
 62
     5
  6
CONTINUOUS
 66
     1
 40
0.003000
 41
0.003000
  0
VERTEX
  8
PLAN_1
 62
     5
  6
CONTINUOUS
 10
0.150835
 20
0.688398
  0
VERTEX
  8
PLAN_1
 62
     5
  6
CONTINUOUS
 10
0.150835
 20
0.679622
  0
SEQEND
  8
0
  0
POLYLINE
  8
PLAN_1
 62
     5
  6
CONTINUOUS
 66
     1
 40
0.003000
 41
0.003000
  0
VERTEX
  8
PLAN_1
 62
     5
  6
CONTINUOUS
 10
0.150835
 20
0.671307
  0
VERTEX
  8
PLAN_1
 62
     5
  6
CONTINUOUS
 10
0.150835
 20
0.662996
  0
SEQEND
  8
0
  0
POLYLINE
  8
PLAN_1
 62
     5
  6
CONTINUOUS
 66
     1
 40
0.003000
 41
0.003000
  0
VERTEX
  8
PLAN_1
 62
     5
  6
CONTINUOUS
 10
0.150835
 20
0.654681
  0
VERTEX
  8
PLAN_1
 62
     5
  6
CONTINUOUS
 10
0.150835
 20
0.646370
  0
SEQEND
  8
0
  0
POLYLINE
  8
PLAN_1
 62
     5
  6
CONTINUOUS
 66
     1
 40
0.003000
 41
0.003000
  0
VERTEX
  8
PLAN_1
 62
     5
  6
CONTINUOUS
 10
0.150835
 20
0.638055
  0
VERTEX
  8
PLAN_1
 62
     5
  6
CONTINUOUS
 10
0.150835
 20
0.629740
  0
SEQEND
  8
0
  0
POLYLINE
  8
PLAN_1
 62
     5
  6
CONTINUOUS
 66
     1
 40
0.003000
 41
0.003000
  0
VERTEX
  8
PLAN_1
 62
     5
  6
CONTINUOUS
 10
0.150835
 20
0.621429
  0
VERTEX
  8
PLAN_1
 62
     5
  6
CONTINUOUS
 10
0.150835
 20
0.613114
  0
SEQEND
  8
0
  0
POLYLINE
  8
PLAN_1
 62
     5
  6
CONTINUOUS
 66
     1
 40
0.003000
 41
0.003000
  0
VERTEX
  8
PLAN_1
 62
     5
  6
CONTINUOUS
 10
0.150835
 20
0.604803
  0
VERTEX
  8
PLAN_1
 62
     5
  6
CONTINUOUS
 10
0.150835
 20
0.596488
  0
SEQEND
  8
0
  0
POLYLINE
  8
PLAN_1
 62
     5
  6
CONTINUOUS
 66
     1
 40
0.003000
 41
0.003000
  0
VERTEX
  8
PLAN_1
 62
     5
  6
CONTINUOUS
 10
0.150835
 20
0.588173
  0
VERTEX
  8
PLAN_1
 62
     5
  6
CONTINUOUS
 10
0.150835
 20
0.579862
  0
SEQEND
  8
0
  0
POLYLINE
  8
PLAN_1
 62
     5
  6
CONTINUOUS
 66
     1
 40
0.003000
 41
0.003000
  0
VERTEX
  8
PLAN_1
 62
     5
  6
CONTINUOUS
 10
0.150835
 20
0.571547
  0
VERTEX
  8
PLAN_1
 62
     5
  6
CONTINUOUS
 10
0.150835
 20
0.563236
  0
SEQEND
  8
0
  0
POLYLINE
  8
PLAN_1
 62
     5
  6
CONTINUOUS
 66
     1
 40
0.003000
 41
0.003000
  0
VERTEX
  8
PLAN_1
 62
     5
  6
CONTINUOUS
 10
0.150835
 20
0.554921
  0
VERTEX
  8
PLAN_1
 62
     5
  6
CONTINUOUS
 10
0.150835
 20
0.546606
  0
SEQEND
  8
0
  0
POLYLINE
  8
PLAN_1
 62
     5
  6
CONTINUOUS
 66
     1
 40
0.003000
 41
0.003000
  0
VERTEX
  8
PLAN_1
 62
     5
  6
CONTINUOUS
 10
0.148063
 20
0.541067
  0
VERTEX
  8
PLAN_1
 62
     5
  6
CONTINUOUS
 10
0.139748
 20
0.541067
  0
SEQEND
  8
0
  0
POLYLINE
  8
PLAN_1
 62
     5
  6
CONTINUOUS
 66
     1
 40
0.003000
 41
0.003000
  0
VERTEX
  8
PLAN_1
 62
     5
  6
CONTINUOUS
 10
0.131437
 20
0.541067
  0
VERTEX
  8
PLAN_1
 62
     5
  6
CONTINUOUS
 10
0.123122
 20
0.541067
  0
SEQEND
  8
0
  0
POLYLINE
  8
PLAN_1
 62
     5
  6
CONTINUOUS
 66
     1
 40
0.003000
 41
0.003000
  0
VERTEX
  8
PLAN_1
 62
     5
  6
CONTINUOUS
 10
0.114811
 20
0.541067
  0
VERTEX
  8
PLAN_1
 62
     5
  6
CONTINUOUS
 10
0.111114
 20
0.541067
  0
VERTEX
  8
PLAN_1
 62
     5
  6
CONTINUOUS
 10
0.111114
 20
0.536445
  0
SEQEND
  8
0
  0
POLYLINE
  8
PLAN_1
 62
     5
  6
CONTINUOUS
 66
     1
 40
0.003000
 41
0.003000
  0
VERTEX
  8
PLAN_1
 62
     5
  6
CONTINUOUS
 10
0.111114
 20
0.528134
  0
VERTEX
  8
PLAN_1
 62
     5
  6
CONTINUOUS
 10
0.111114
 20
0.519819
  0
SEQEND
  8
0
  0
POLYLINE
  8
PLAN_1
 62
     5
  6
CONTINUOUS
 66
     1
 40
0.003000
 41
0.003000
  0
VERTEX
  8
PLAN_1
 62
     5
  6
CONTINUOUS
 10
0.111114
 20
0.511508
  0
VERTEX
  8
PLAN_1
 62
     5
  6
CONTINUOUS
 10
0.111114
 20
0.503193
  0
SEQEND
  8
0
  0
POLYLINE
  8
PLAN_1
 62
     5
  6
CONTINUOUS
 66
     1
 40
0.003000
 41
0.003000
  0
VERTEX
  8
PLAN_1
 62
     5
  6
CONTINUOUS
 10
0.111114
 20
0.494878
  0
VERTEX
  8
PLAN_1
 62
     5
  6
CONTINUOUS
 10
0.111114
 20
0.486567
  0
SEQEND
  8
0
  0
POLYLINE
  8
PLAN_1
 62
     5
  6
CONTINUOUS
 66
     1
 40
0.003000
 41
0.003000
  0
VERTEX
  8
PLAN_1
 62
     5
  6
CONTINUOUS
 10
0.111114
 20
0.478252
  0
VERTEX
  8
PLAN_1
 62
     5
  6
CONTINUOUS
 10
0.111114
 20
0.469941
  0
SEQEND
  8
0
  0
POLYLINE
  8
PLAN_1
 62
     5
  6
CONTINUOUS
 66
     1
 40
0.003000
 41
0.003000
  0
VERTEX
  8
PLAN_1
 62
     5
  6
CONTINUOUS
 10
0.111114
 20
0.461626
  0
VERTEX
  8
PLAN_1
 62
     5
  6
CONTINUOUS
 10
0.111114
 20
0.453311
  0
SEQEND
  8
0
  0
POLYLINE
  8
PLAN_1
 62
     5
  6
CONTINUOUS
 66
     1
 40
0.003000
 41
0.003000
  0
VERTEX
  8
PLAN_1
 62
     5
  6
CONTINUOUS
 10
0.111114
 20
0.445000
  0
VERTEX
  8
PLAN_1
 62
     5
  6
CONTINUOUS
 10
0.111114
 20
0.436224
  0
SEQEND
  8
0
  0
POLYLINE
  8
PLAN_1
 62
     5
  6
CONTINUOUS
 66
     1
 40
0.003000
 41
0.003000
  0
VERTEX
  8
PLAN_1
 62
     5
  6
CONTINUOUS
 10
0.111114
 20
0.427909
  0
VERTEX
  8
PLAN_1
 62
     5
  6
CONTINUOUS
 10
0.111114
 20
0.419598
  0
SEQEND
  8
0
  0
POLYLINE
  8
PLAN_1
 62
     5
  6
CONTINUOUS
 66
     1
 40
0.003000
 41
0.003000
  0
VERTEX
  8
PLAN_1
 62
     5
  6
CONTINUOUS
 10
0.111114
 20
0.411283
  0
VERTEX
  8
PLAN_1
 62
     5
  6
CONTINUOUS
 10
0.111114
 20
0.402972
  0
SEQEND
  8
0
  0
POLYLINE
  8
PLAN_1
 62
     5
  6
CONTINUOUS
 66
     1
 40
0.003000
 41
0.003000
  0
VERTEX
  8
PLAN_1
 62
     5
  6
CONTINUOUS
 10
0.111114
 20
0.394657
  0
VERTEX
  8
PLAN_1
 62
     5
  6
CONTINUOUS
 10
0.111114
 20
0.386343
  0
SEQEND
  8
0
  0
POLYLINE
  8
PLAN_1
 62
     5
  6
CONTINUOUS
 66
     1
 40
0.003000
 41
0.003000
  0
VERTEX
  8
PLAN_1
 62
     5
  6
CONTINUOUS
 10
0.111114
 20
0.378031
  0
VERTEX
  8
PLAN_1
 62
     5
  6
CONTINUOUS
 10
0.111114
 20
0.369717
  0
SEQEND
  8
0
  0
POLYLINE
  8
PLAN_1
 62
     5
  6
CONTINUOUS
 66
     1
 40
0.003000
 41
0.003000
  0
VERTEX
  8
PLAN_1
 62
     5
  6
CONTINUOUS
 10
0.111114
 20
0.361406
  0
VERTEX
  8
PLAN_1
 62
     5
  6
CONTINUOUS
 10
0.111114
 20
0.353091
  0
SEQEND
  8
0
  0
POLYLINE
  8
PLAN_1
 62
     5
  6
CONTINUOUS
 66
     1
 40
0.003000
 41
0.003000
  0
VERTEX
  8
PLAN_1
 62
     5
  6
CONTINUOUS
 10
0.111114
 20
0.344776
  0
VERTEX
  8
PLAN_1
 62
     5
  6
CONTINUOUS
 10
0.111114
 20
0.336465
  0
SEQEND
  8
0
  0
POLYLINE
  8
PLAN_1
 62
     5
  6
CONTINUOUS
 66
     1
 40
0.003000
 41
0.003000
  0
VERTEX
  8
PLAN_1
 62
     5
  6
CONTINUOUS
 10
0.111114
 20
0.328150
  0
VERTEX
  8
PLAN_1
 62
     5
  6
CONTINUOUS
 10
0.111114
 20
0.319835
  0
SEQEND
  8
0
  0
POLYLINE
  8
PLAN_1
 62
     5
  6
CONTINUOUS
 66
     1
 40
0.003000
 41
0.003000
  0
VERTEX
  8
PLAN_1
 62
     5
  6
CONTINUOUS
 10
0.111114
 20
0.311524
  0
VERTEX
  8
PLAN_1
 62
     5
  6
CONTINUOUS
 10
0.111114
 20
0.303209
  0
SEQEND
  8
0
  0
POLYLINE
  8
PLAN_1
 62
     5
  6
CONTINUOUS
 66
     1
 40
0.003000
 41
0.003000
  0
VERTEX
  8
PLAN_1
 62
     5
  6
CONTINUOUS
 10
0.111114
 20
0.294898
  0
VERTEX
  8
PLAN_1
 62
     5
  6
CONTINUOUS
 10
0.111114
 20
0.286583
  0
SEQEND
  8
0
  0
POLYLINE
  8
PLAN_1
 62
     5
  6
CONTINUOUS
 66
     1
 40
0.003000
 41
0.003000
  0
VERTEX
  8
PLAN_1
 62
     5
  6
CONTINUOUS
 10
0.111114
 20
0.278268
  0
VERTEX
  8
PLAN_1
 62
     5
  6
CONTINUOUS
 10
0.111114
 20
0.269957
  0
SEQEND
  8
0
  0
POLYLINE
  8
PLAN_1
  6
CONTINUOUS
 66
     1
 40
0.008311
 41
0.008311
  0
VERTEX
  8
PLAN_1
  6
CONTINUOUS
 10
-0.864323
 20
0.976594
  0
VERTEX
  8
PLAN_1
  6
CONTINUOUS
 10
-0.864323
 20
1.152563
  0
VERTEX
  8
PLAN_1
  6
CONTINUOUS
 10
-1.218567
 20
1.152563
  0
SEQEND
  8
0
  0
POLYLINE
  8
PLAN_1
  6
CONTINUOUS
 66
     1
 40
0.008311
 41
0.008311
  0
VERTEX
  8
PLAN_1
  6
CONTINUOUS
 10
0.113425
 20
1.152563
  0
VERTEX
  8
PLAN_1
  6
CONTINUOUS
 10
-0.221421
 20
1.152563
  0
VERTEX
  8
PLAN_1
  6
CONTINUOUS
 10
-0.221421
 20
0.976594
  0
SEQEND
  8
0
  0
POLYLINE
  8
PLAN_1
  6
CONTINUOUS
 66
     1
 40
0.008311
 41
0.008311
  0
VERTEX
  8
PLAN_1
  6
CONTINUOUS
 10
-0.970551
 20
0.978906
  0
VERTEX
  8
PLAN_1
  6
CONTINUOUS
 10
-0.970551
 20
1.152563
  0
SEQEND
  8
0
  0
POLYLINE
  8
PLAN_1
  6
CONTINUOUS
 66
     1
 40
0.008311
 41
0.008311
  0
VERTEX
  8
PLAN_1
  6
CONTINUOUS
 10
-0.131358
 20
0.978906
  0
VERTEX
  8
PLAN_1
  6
CONTINUOUS
 10
-0.131358
 20
1.152563
  0
SEQEND
  8
0
  0
POLYLINE
  8
PLAN_1
 62
     2
  6
CONTINUOUS
 66
     1
 40
0.004154
 41
0.004154
  0
VERTEX
  8
PLAN_1
 62
     2
  6
CONTINUOUS
 10
-1.534937
 20
3.260469
  0
VERTEX
  8
PLAN_1
 62
     2
  6
CONTINUOUS
 10
0.119429
 20
3.260469
  0
SEQEND
  8
0
  0
SOLID
  8
PLAN_1
 62
     2
 10
0.148988
 20
3.260469
 11
0.089870
 21
3.276634
 12
0.148988
 22
3.260469
 13
0.089870
 23
3.244768
  0
POLYLINE
  8
PLAN_1
 62
     2
  6
CONTINUOUS
 66
     1
 40
0.003000
 41
0.003000
  0
VERTEX
  8
PLAN_1
 62
     2
  6
CONTINUOUS
 10
0.148988
 20
3.260469
  0
VERTEX
  8
PLAN_1
 62
     2
  6
CONTINUOUS
 10
0.089870
 20
3.276634
  0
VERTEX
  8
PLAN_1
 62
     2
  6
CONTINUOUS
 10
0.089870
 20
3.244768
  0
VERTEX
  8
PLAN_1
 62
     2
  6
CONTINUOUS
 10
0.148988
 20
3.260469
  0
SEQEND
  8
0
  0
SOLID
  8
PLAN_1
 62
     2
 10
-1.564496
 20
3.260469
 11
-1.505378
 21
3.276634
 12
-1.564496
 22
3.260469
 13
-1.505378
 23
3.244768
  0
POLYLINE
  8
PLAN_1
 62
     2
  6
CONTINUOUS
 66
     1
 40
0.003000
 41
0.003000
  0
VERTEX
  8
PLAN_1
 62
     2
  6
CONTINUOUS
 10
-1.564496
 20
3.260469
  0
VERTEX
  8
PLAN_1
 62
     2
  6
CONTINUOUS
 10
-1.505378
 20
3.276634
  0
VERTEX
  8
PLAN_1
 62
     2
  6
CONTINUOUS
 10
-1.505378
 20
3.244768
  0
VERTEX
  8
PLAN_1
 62
     2
  6
CONTINUOUS
 10
-1.564496
 20
3.260469
  0
SEQEND
  8
0
  0
POLYLINE
  8
PLAN_1
 62
     2
  6
CONTINUOUS
 66
     1
 40
0.003000
 41
0.003000
  0
VERTEX
  8
PLAN_1
 62
     2
  6
CONTINUOUS
 10
-0.722075
 20
3.302035
  0
VERTEX
  8
PLAN_1
 62
     2
  6
CONTINUOUS
 10
-0.722075
 20
3.284488
  0
VERTEX
  8
PLAN_1
 62
     2
  6
CONTINUOUS
 10
-0.731311
 20
3.284488
  0
VERTEX
  8
PLAN_1
 62
     2
  6
CONTINUOUS
 10
-0.731311
 20
3.302035
  0
VERTEX
  8
PLAN_1
 62
     2
  6
CONTINUOUS
 10
-0.763177
 20
3.302035
  0
VERTEX
  8
PLAN_1
 62
     2
  6
CONTINUOUS
 10
-0.763177
 20
3.311276
  0
VERTEX
  8
PLAN_1
 62
     2
  6
CONTINUOUS
 10
-0.729461
 20
3.357461
  0
VERTEX
  8
PLAN_1
 62
     2
  6
CONTINUOUS
 10
-0.722075
 20
3.357461
  0
VERTEX
  8
PLAN_1
 62
     2
  6
CONTINUOUS
 10
-0.722075
 20
3.309890
  0
VERTEX
  8
PLAN_1
 62
     2
  6
CONTINUOUS
 10
-0.711449
 20
3.309890
  0
VERTEX
  8
PLAN_1
 62
     2
  6
CONTINUOUS
 10
-0.711449
 20
3.302035
  0
VERTEX
  8
PLAN_1
 62
     2
  6
CONTINUOUS
 10
-0.722075
 20
3.302035
  0
SEQEND
  8
0
  0
SOLID
  8
PLAN_1
 62
     2
 10
-0.754866
 20
3.309890
 11
-0.731311
 21
3.309890
 12
-0.754866
 22
3.309890
 13
-0.731311
 23
3.343142
  0
POLYLINE
  8
PLAN_1
 62
     2
  6
CONTINUOUS
 66
     1
 40
0.003000
 41
0.003000
  0
VERTEX
  8
PLAN_1
 62
     2
  6
CONTINUOUS
 10
-0.754866
 20
3.309890
  0
VERTEX
  8
PLAN_1
 62
     2
  6
CONTINUOUS
 10
-0.731311
 20
3.309890
  0
VERTEX
  8
PLAN_1
 62
     2
  6
CONTINUOUS
 10
-0.731311
 20
3.343142
  0
VERTEX
  8
PLAN_1
 62
     2
  6
CONTINUOUS
 10
-0.754866
 20
3.309890
  0
SEQEND
  8
0
  0
POLYLINE
  8
PLAN_1
 62
     2
  6
CONTINUOUS
 66
     1
 40
0.003000
 41
0.003000
  0
VERTEX
  8
PLAN_1
 62
     2
  6
CONTINUOUS
 10
-0.670346
 20
3.284488
  0
VERTEX
  8
PLAN_1
 62
     2
  6
CONTINUOUS
 10
-0.680504
 20
3.284488
  0
VERTEX
  8
PLAN_1
 62
     2
  6
CONTINUOUS
 10
-0.680504
 20
3.336217
  0
VERTEX
  8
PLAN_1
 62
     2
  6
CONTINUOUS
 10
-0.697134
 20
3.336217
  0
VERTEX
  8
PLAN_1
 62
     2
  6
CONTINUOUS
 10
-0.697134
 20
3.343602
  0
VERTEX
  8
PLAN_1
 62
     2
  6
CONTINUOUS
 10
-0.693437
 20
3.344067
  0
VERTEX
  8
PLAN_1
 62
     2
  6
CONTINUOUS
 10
-0.689744
 20
3.344528
  0
VERTEX
  8
PLAN_1
 62
     2
  6
CONTINUOUS
 10
-0.686512
 20
3.344988
  0
VERTEX
  8
PLAN_1
 62
     2
  6
CONTINUOUS
 10
-0.684201
 20
3.346374
  0
VERTEX
  8
PLAN_1
 62
     2
  6
CONTINUOUS
 10
-0.681890
 20
3.348224
  0
VERTEX
  8
PLAN_1
 62
     2
  6
CONTINUOUS
 10
-0.680504
 20
3.350531
  0
VERTEX
  8
PLAN_1
 62
     2
  6
CONTINUOUS
 10
-0.679122
 20
3.353303
  0
VERTEX
  8
PLAN_1
 62
     2
  6
CONTINUOUS
 10
-0.677736
 20
3.357461
  0
VERTEX
  8
PLAN_1
 62
     2
  6
CONTINUOUS
 10
-0.670346
 20
3.357461
  0
VERTEX
  8
PLAN_1
 62
     2
  6
CONTINUOUS
 10
-0.670346
 20
3.284488
  0
SEQEND
  8
0
  0
POLYLINE
  8
PLAN_1
 62
     2
  6
CONTINUOUS
 66
     1
 40
0.004154
 41
0.004154
  0
VERTEX
  8
PLAN_1
 62
     2
  6
CONTINUOUS
 10
-2.148283
 20
3.260469
  0
VERTEX
  8
PLAN_1
 62
     2
  6
CONTINUOUS
 10
-2.015728
 20
3.260469
  0
SEQEND
  8
0
  0
SOLID
  8
PLAN_1
 62
     2
 10
-1.986173
 20
3.260469
 11
-2.045287
 21
3.276634
 12
-1.986173
 22
3.260469
 13
-2.045287
 23
3.244768
  0
POLYLINE
  8
PLAN_1
 62
     2
  6
CONTINUOUS
 66
     1
 40
0.003000
 41
0.003000
  0
VERTEX
  8
PLAN_1
 62
     2
  6
CONTINUOUS
 10
-1.986173
 20
3.260469
  0
VERTEX
  8
PLAN_1
 62
     2
  6
CONTINUOUS
 10
-2.045287
 20
3.276634
  0
VERTEX
  8
PLAN_1
 62
     2
  6
CONTINUOUS
 10
-2.045287
 20
3.244768
  0
VERTEX
  8
PLAN_1
 62
     2
  6
CONTINUOUS
 10
-1.986173
 20
3.260469
  0
SEQEND
  8
0
  0
SOLID
  8
PLAN_1
 62
     2
 10
-2.177843
 20
3.260469
 11
-2.118724
 21
3.276634
 12
-2.177843
 22
3.260469
 13
-2.118724
 23
3.244768
  0
POLYLINE
  8
PLAN_1
 62
     2
  6
CONTINUOUS
 66
     1
 40
0.003000
 41
0.003000
  0
VERTEX
  8
PLAN_1
 62
     2
  6
CONTINUOUS
 10
-2.177843
 20
3.260469
  0
VERTEX
  8
PLAN_1
 62
     2
  6
CONTINUOUS
 10
-2.118724
 20
3.276634
  0
VERTEX
  8
PLAN_1
 62
     2
  6
CONTINUOUS
 10
-2.118724
 20
3.244768
  0
VERTEX
  8
PLAN_1
 62
     2
  6
CONTINUOUS
 10
-2.177843
 20
3.260469
  0
SEQEND
  8
0
  0
POLYLINE
  8
PLAN_1
 62
     2
  6
CONTINUOUS
 66
     1
 40
0.003000
 41
0.003000
  0
VERTEX
  8
PLAN_1
 62
     2
  6
CONTINUOUS
 10
-2.095630
 20
3.326976
  0
VERTEX
  8
PLAN_1
 62
     2
  6
CONTINUOUS
 10
-2.094709
 20
3.327902
  0
VERTEX
  8
PLAN_1
 62
     2
  6
CONTINUOUS
 10
-2.093323
 20
3.328362
  0
VERTEX
  8
PLAN_1
 62
     2
  6
CONTINUOUS
 10
-2.091472
 20
3.329287
  0
VERTEX
  8
PLAN_1
 62
     2
  6
CONTINUOUS
 10
-2.090091
 20
3.330209
  0
VERTEX
  8
PLAN_1
 62
     2
  6
CONTINUOUS
 10
-2.088240
 20
3.330673
  0
VERTEX
  8
PLAN_1
 62
     2
  6
CONTINUOUS
 10
-2.085933
 20
3.331134
  0
VERTEX
  8
PLAN_1
 62
     2
  6
CONTINUOUS
 10
-2.084083
 20
3.331134
  0
VERTEX
  8
PLAN_1
 62
     2
  6
CONTINUOUS
 10
-2.081776
 20
3.331594
  0
VERTEX
  8
PLAN_1
 62
     2
  6
CONTINUOUS
 10
-2.077157
 20
3.331134
  0
VERTEX
  8
PLAN_1
 62
     2
  6
CONTINUOUS
 10
-2.073000
 20
3.329748
  0
VERTEX
  8
PLAN_1
 62
     2
  6
CONTINUOUS
 10
-2.068843
 20
3.327902
  0
VERTEX
  8
PLAN_1
 62
     2
  6
CONTINUOUS
 10
-2.065150
 20
3.325591
  0
VERTEX
  8
PLAN_1
 62
     2
  6
CONTINUOUS
 10
-2.063299
 20
3.323744
  0
VERTEX
  8
PLAN_1
 62
     2
  6
CONTINUOUS
 10
-2.061917
 20
3.321898
  0
VERTEX
  8
PLAN_1
 62
     2
  6
CONTINUOUS
 10
-2.060531
 20
3.320051
  0
VERTEX
  8
PLAN_1
 62
     2
  6
CONTINUOUS
 10
-2.059606
 20
3.318201
  0
VERTEX
  8
PLAN_1
 62
     2
  6
CONTINUOUS
 10
-2.058681
 20
3.315894
  0
VERTEX
  8
PLAN_1
 62
     2
  6
CONTINUOUS
 10
-2.058220
 20
3.313583
  0
VERTEX
  8
PLAN_1
 62
     2
  6
CONTINUOUS
 10
-2.057760
 20
3.310811
  0
VERTEX
  8
PLAN_1
 62
     2
  6
CONTINUOUS
 10
-2.057760
 20
3.308043
  0
VERTEX
  8
PLAN_1
 62
     2
  6
CONTINUOUS
 10
-2.057760
 20
3.304807
  0
VERTEX
  8
PLAN_1
 62
     2
  6
CONTINUOUS
 10
-2.058681
 20
3.300654
  0
VERTEX
  8
PLAN_1
 62
     2
  6
CONTINUOUS
 10
-2.060067
 20
3.296496
  0
VERTEX
  8
PLAN_1
 62
     2
  6
CONTINUOUS
 10
-2.062378
 20
3.292339
  0
VERTEX
  8
PLAN_1
 62
     2
  6
CONTINUOUS
 10
-2.063764
 20
3.290028
  0
VERTEX
  8
PLAN_1
 62
     2
  6
CONTINUOUS
 10
-2.065610
 20
3.288181
  0
VERTEX
  8
PLAN_1
 62
     2
  6
CONTINUOUS
 10
-2.067921
 20
3.286795
  0
VERTEX
  8
PLAN_1
 62
     2
  6
CONTINUOUS
 10
-2.070228
 20
3.285409
  0
VERTEX
  8
PLAN_1
 62
     2
  6
CONTINUOUS
 10
-2.073000
 20
3.284024
  0
VERTEX
  8
PLAN_1
 62
     2
  6
CONTINUOUS
 10
-2.076232
 20
3.283102
  0
VERTEX
  8
PLAN_1
 62
     2
  6
CONTINUOUS
 10
-2.079929
 20
3.282638
  0
VERTEX
  8
PLAN_1
 62
     2
  6
CONTINUOUS
 10
-2.084083
 20
3.282177
  0
VERTEX
  8
PLAN_1
 62
     2
  6
CONTINUOUS
 10
-2.087780
 20
3.282638
  0
VERTEX
  8
PLAN_1
 62
     2
  6
CONTINUOUS
 10
-2.091472
 20
3.283102
  0
VERTEX
  8
PLAN_1
 62
     2
  6
CONTINUOUS
 10
-2.095169
 20
3.284488
  0
VERTEX
  8
PLAN_1
 62
     2
  6
CONTINUOUS
 10
-2.098862
 20
3.286335
  0
VERTEX
  8
PLAN_1
 62
     2
  6
CONTINUOUS
 10
-2.100248
 20
3.287720
  0
VERTEX
  8
PLAN_1
 62
     2
  6
CONTINUOUS
 10
-2.102098
 20
3.289106
  0
VERTEX
  8
PLAN_1
 62
     2
  6
CONTINUOUS
 10
-2.103484
 20
3.290492
  0
VERTEX
  8
PLAN_1
 62
     2
  6
CONTINUOUS
 10
-2.104406
 20
3.292339
  0
VERTEX
  8
PLAN_1
 62
     2
  6
CONTINUOUS
 10
-2.105791
 20
3.294646
  0
VERTEX
  8
PLAN_1
 62
     2
  6
CONTINUOUS
 10
-2.106717
 20
3.296957
  0
VERTEX
  8
PLAN_1
 62
     2
  6
CONTINUOUS
 10
-2.107177
 20
3.299728
  0
VERTEX
  8
PLAN_1
 62
     2
  6
CONTINUOUS
 10
-2.107638
 20
3.302500
  0
VERTEX
  8
PLAN_1
 62
     2
  6
CONTINUOUS
 10
-2.098402
 20
3.302500
  0
VERTEX
  8
PLAN_1
 62
     2
  6
CONTINUOUS
 10
-2.097480
 20
3.299728
  0
VERTEX
  8
PLAN_1
 62
     2
  6
CONTINUOUS
 10
-2.096555
 20
3.296957
  0
VERTEX
  8
PLAN_1
 62
     2
  6
CONTINUOUS
 10
-2.095169
 20
3.295110
  0
VERTEX
  8
PLAN_1
 62
     2
  6
CONTINUOUS
 10
-2.093323
 20
3.293264
  0
VERTEX
  8
PLAN_1
 62
     2
  6
CONTINUOUS
 10
-2.091012
 20
3.291878
  0
VERTEX
  8
PLAN_1
 62
     2
  6
CONTINUOUS
 10
-2.088705
 20
3.290953
  0
VERTEX
  8
PLAN_1
 62
     2
  6
CONTINUOUS
 10
-2.085933
 20
3.290492
  0
VERTEX
  8
PLAN_1
 62
     2
  6
CONTINUOUS
 10
-2.082701
 20
3.290028
  0
VERTEX
  8
PLAN_1
 62
     2
  6
CONTINUOUS
 10
-2.079465
 20
3.290492
  0
VERTEX
  8
PLAN_1
 62
     2
  6
CONTINUOUS
 10
-2.076232
 20
3.291413
  0
VERTEX
  8
PLAN_1
 62
     2
  6
CONTINUOUS
 10
-2.073461
 20
3.293264
  0
VERTEX
  8
PLAN_1
 62
     2
  6
CONTINUOUS
 10
-2.071614
 20
3.295110
  0
VERTEX
  8
PLAN_1
 62
     2
  6
CONTINUOUS
 10
-2.069768
 20
3.297882
  0
VERTEX
  8
PLAN_1
 62
     2
  6
CONTINUOUS
 10
-2.068382
 20
3.300654
  0
VERTEX
  8
PLAN_1
 62
     2
  6
CONTINUOUS
 10
-2.067457
 20
3.303421
  0
VERTEX
  8
PLAN_1
 62
     2
  6
CONTINUOUS
 10
-2.067457
 20
3.307118
  0
VERTEX
  8
PLAN_1
 62
     2
  6
CONTINUOUS
 10
-2.067457
 20
3.310811
  0
VERTEX
  8
PLAN_1
 62
     2
  6
CONTINUOUS
 10
-2.068382
 20
3.314047
  0
VERTEX
  8
PLAN_1
 62
     2
  6
CONTINUOUS
 10
-2.070228
 20
3.316815
  0
VERTEX
  8
PLAN_1
 62
     2
  6
CONTINUOUS
 10
-2.072075
 20
3.319126
  0
VERTEX
  8
PLAN_1
 62
     2
  6
CONTINUOUS
 10
-2.074386
 20
3.320972
  0
VERTEX
  8
PLAN_1
 62
     2
  6
CONTINUOUS
 10
-2.077157
 20
3.322358
  0
VERTEX
  8
PLAN_1
 62
     2
  6
CONTINUOUS
 10
-2.080390
 20
3.322819
  0
VERTEX
  8
PLAN_1
 62
     2
  6
CONTINUOUS
 10
-2.083622
 20
3.323283
  0
VERTEX
  8
PLAN_1
 62
     2
  6
CONTINUOUS
 10
-2.085469
 20
3.323283
  0
VERTEX
  8
PLAN_1
 62
     2
  6
CONTINUOUS
 10
-2.087319
 20
3.322819
  0
VERTEX
  8
PLAN_1
 62
     2
  6
CONTINUOUS
 10
-2.089165
 20
3.322358
  0
VERTEX
  8
PLAN_1
 62
     2
  6
CONTINUOUS
 10
-2.091012
 20
3.321437
  0
VERTEX
  8
PLAN_1
 62
     2
  6
CONTINUOUS
 10
-2.092858
 20
3.320512
  0
VERTEX
  8
PLAN_1
 62
     2
  6
CONTINUOUS
 10
-2.094244
 20
3.319126
  0
VERTEX
  8
PLAN_1
 62
     2
  6
CONTINUOUS
 10
-2.095630
 20
3.317740
  0
VERTEX
  8
PLAN_1
 62
     2
  6
CONTINUOUS
 10
-2.097016
 20
3.316354
  0
VERTEX
  8
PLAN_1
 62
     2
  6
CONTINUOUS
 10
-2.104870
 20
3.316815
  0
VERTEX
  8
PLAN_1
 62
     2
  6
CONTINUOUS
 10
-2.099327
 20
3.356075
  0
VERTEX
  8
PLAN_1
 62
     2
  6
CONTINUOUS
 10
-2.061453
 20
3.356075
  0
VERTEX
  8
PLAN_1
 62
     2
  6
CONTINUOUS
 10
-2.061453
 20
3.346839
  0
VERTEX
  8
PLAN_1
 62
     2
  6
CONTINUOUS
 10
-2.092398
 20
3.346839
  0
VERTEX
  8
PLAN_1
 62
     2
  6
CONTINUOUS
 10
-2.095630
 20
3.326976
  0
SEQEND
  8
0
  0
POLYLINE
  8
PLAN_1
 62
     2
  6
CONTINUOUS
 66
     1
 40
0.004154
 41
0.004154
  0
VERTEX
  8
PLAN_1
 62
     2
  6
CONTINUOUS
 10
-2.059606
 20
3.441980
  0
VERTEX
  8
PLAN_1
 62
     2
  6
CONTINUOUS
 10
0.119429
 20
3.441980
  0
SEQEND
  8
0
  0
SOLID
  8
PLAN_1
 62
     2
 10
0.148988
 20
3.441980
 11
0.089870
 21
3.457681
 12
0.148988
 22
3.441980
 13
0.089870
 23
3.425815
  0
POLYLINE
  8
PLAN_1
 62
     2
  6
CONTINUOUS
 66
     1
 40
0.003000
 41
0.003000
  0
VERTEX
  8
PLAN_1
 62
     2
  6
CONTINUOUS
 10
0.148988
 20
3.441980
  0
VERTEX
  8
PLAN_1
 62
     2
  6
CONTINUOUS
 10
0.089870
 20
3.457681
  0
VERTEX
  8
PLAN_1
 62
     2
  6
CONTINUOUS
 10
0.089870
 20
3.425815
  0
VERTEX
  8
PLAN_1
 62
     2
  6
CONTINUOUS
 10
0.148988
 20
3.441980
  0
SEQEND
  8
0
  0
SOLID
  8
PLAN_1
 62
     2
 10
-2.082236
 20
3.441980
 11
-2.023118
 21
3.457681
 12
-2.082236
 22
3.441980
 13
-2.023118
 23
3.425815
  0
POLYLINE
  8
PLAN_1
 62
     2
  6
CONTINUOUS
 66
     1
 40
0.003000
 41
0.003000
  0
VERTEX
  8
PLAN_1
 62
     2
  6
CONTINUOUS
 10
-2.082236
 20
3.441980
  0
VERTEX
  8
PLAN_1
 62
     2
  6
CONTINUOUS
 10
-2.023118
 20
3.457681
  0
VERTEX
  8
PLAN_1
 62
     2
  6
CONTINUOUS
 10
-2.023118
 20
3.425815
  0
VERTEX
  8
PLAN_1
 62
     2
  6
CONTINUOUS
 10
-2.082236
 20
3.441980
  0
SEQEND
  8
0
  0
POLYLINE
  8
PLAN_1
 62
     2
  6
CONTINUOUS
 66
     1
 40
0.003000
 41
0.003000
  0
VERTEX
  8
PLAN_1
 62
     2
  6
CONTINUOUS
 10
-1.012579
 20
3.508024
  0
VERTEX
  8
PLAN_1
 62
     2
  6
CONTINUOUS
 10
-1.011193
 20
3.508949
  0
VERTEX
  8
PLAN_1
 62
     2
  6
CONTINUOUS
 10
-1.010272
 20
3.509874
  0
VERTEX
  8
PLAN_1
 62
     2
  6
CONTINUOUS
 10
-1.008425
 20
3.510335
  0
VERTEX
  8
PLAN_1
 62
     2
  6
CONTINUOUS
 10
-1.007039
 20
3.511256
  0
VERTEX
  8
PLAN_1
 62
     2
  6
CONTINUOUS
 10
-1.005189
 20
3.511720
  0
VERTEX
  8
PLAN_1
 62
     2
  6
CONTINUOUS
 10
-1.002882
 20
3.512181
  0
VERTEX
  8
PLAN_1
 62
     2
  6
CONTINUOUS
 10
-1.001035
 20
3.512642
  0
VERTEX
  8
PLAN_1
 62
     2
  6
CONTINUOUS
 10
-0.998724
 20
3.512642
  0
VERTEX
  8
PLAN_1
 62
     2
  6
CONTINUOUS
 10
-0.994106
 20
3.512181
  0
VERTEX
  8
PLAN_1
 62
     2
  6
CONTINUOUS
 10
-0.989949
 20
3.510795
  0
VERTEX
  8
PLAN_1
 62
     2
  6
CONTINUOUS
 10
-0.985791
 20
3.508949
  0
VERTEX
  8
PLAN_1
 62
     2
  6
CONTINUOUS
 10
-0.982098
 20
3.506638
  0
VERTEX
  8
PLAN_1
 62
     2
  6
CONTINUOUS
 10
-0.980252
 20
3.504791
  0
VERTEX
  8
PLAN_1
 62
     2
  6
CONTINUOUS
 10
-0.978866
 20
3.502945
  0
VERTEX
  8
PLAN_1
 62
     2
  6
CONTINUOUS
 10
-0.977480
 20
3.501098
  0
VERTEX
  8
PLAN_1
 62
     2
  6
CONTINUOUS
 10
-0.976555
 20
3.499248
  0
VERTEX
  8
PLAN_1
 62
     2
  6
CONTINUOUS
 10
-0.975630
 20
3.496941
  0
VERTEX
  8
PLAN_1
 62
     2
  6
CONTINUOUS
 10
-0.975169
 20
3.494630
  0
VERTEX
  8
PLAN_1
 62
     2
  6
CONTINUOUS
 10
-0.974709
 20
3.491858
  0
VERTEX
  8
PLAN_1
 62
     2
  6
CONTINUOUS
 10
-0.974244
 20
3.489091
  0
VERTEX
  8
PLAN_1
 62
     2
  6
CONTINUOUS
 10
-0.974709
 20
3.485854
  0
VERTEX
  8
PLAN_1
 62
     2
  6
CONTINUOUS
 10
-0.975169
 20
3.481701
  0
VERTEX
  8
PLAN_1
 62
     2
  6
CONTINUOUS
 10
-0.977016
 20
3.477543
  0
VERTEX
  8
PLAN_1
 62
     2
  6
CONTINUOUS
 10
-0.979327
 20
3.473386
  0
VERTEX
  8
PLAN_1
 62
     2
  6
CONTINUOUS
 10
-0.980713
 20
3.471075
  0
VERTEX
  8
PLAN_1
 62
     2
  6
CONTINUOUS
 10
-0.982559
 20
3.469228
  0
VERTEX
  8
PLAN_1
 62
     2
  6
CONTINUOUS
 10
-0.984870
 20
3.467843
  0
VERTEX
  8
PLAN_1
 62
     2
  6
CONTINUOUS
 10
-0.987177
 20
3.466457
  0
VERTEX
  8
PLAN_1
 62
     2
  6
CONTINUOUS
 10
-0.989949
 20
3.465071
  0
VERTEX
  8
PLAN_1
 62
     2
  6
CONTINUOUS
 10
-0.993181
 20
3.464150
  0
VERTEX
  8
PLAN_1
 62
     2
  6
CONTINUOUS
 10
-0.996878
 20
3.463685
  0
VERTEX
  8
PLAN_1
 62
     2
  6
CONTINUOUS
 10
-1.001035
 20
3.463224
  0
VERTEX
  8
PLAN_1
 62
     2
  6
CONTINUOUS
 10
-1.004728
 20
3.463685
  0
VERTEX
  8
PLAN_1
 62
     2
  6
CONTINUOUS
 10
-1.008425
 20
3.464150
  0
VERTEX
  8
PLAN_1
 62
     2
  6
CONTINUOUS
 10
-1.012118
 20
3.465535
  0
VERTEX
  8
PLAN_1
 62
     2
  6
CONTINUOUS
 10
-1.015811
 20
3.467382
  0
VERTEX
  8
PLAN_1
 62
     2
  6
CONTINUOUS
 10
-1.017197
 20
3.468768
  0
VERTEX
  8
PLAN_1
 62
     2
  6
CONTINUOUS
 10
-1.019047
 20
3.470154
  0
VERTEX
  8
PLAN_1
 62
     2
  6
CONTINUOUS
 10
-1.020433
 20
3.471539
  0
VERTEX
  8
PLAN_1
 62
     2
  6
CONTINUOUS
 10
-1.021354
 20
3.473386
  0
VERTEX
  8
PLAN_1
 62
     2
  6
CONTINUOUS
 10
-1.022740
 20
3.475697
  0
VERTEX
  8
PLAN_1
 62
     2
  6
CONTINUOUS
 10
-1.023665
 20
3.478004
  0
VERTEX
  8
PLAN_1
 62
     2
  6
CONTINUOUS
 10
-1.024126
 20
3.480776
  0
VERTEX
  8
PLAN_1
 62
     2
  6
CONTINUOUS
 10
-1.024587
 20
3.483547
  0
VERTEX
  8
PLAN_1
 62
     2
  6
CONTINUOUS
 10
-1.015350
 20
3.483547
  0
VERTEX
  8
PLAN_1
 62
     2
  6
CONTINUOUS
 10
-1.014429
 20
3.480776
  0
VERTEX
  8
PLAN_1
 62
     2
  6
CONTINUOUS
 10
-1.013504
 20
3.478004
  0
VERTEX
  8
PLAN_1
 62
     2
  6
CONTINUOUS
 10
-1.012118
 20
3.476157
  0
VERTEX
  8
PLAN_1
 62
     2
  6
CONTINUOUS
 10
-1.010272
 20
3.474311
  0
VERTEX
  8
PLAN_1
 62
     2
  6
CONTINUOUS
 10
-1.007961
 20
3.472925
  0
VERTEX
  8
PLAN_1
 62
     2
  6
CONTINUOUS
 10
-1.005189
 20
3.472000
  0
VERTEX
  8
PLAN_1
 62
     2
  6
CONTINUOUS
 10
-1.002417
 20
3.471539
  0
VERTEX
  8
PLAN_1
 62
     2
  6
CONTINUOUS
 10
-0.999650
 20
3.471539
  0
VERTEX
  8
PLAN_1
 62
     2
  6
CONTINUOUS
 10
-0.996413
 20
3.471539
  0
VERTEX
  8
PLAN_1
 62
     2
  6
CONTINUOUS
 10
-0.993181
 20
3.472461
  0
VERTEX
  8
PLAN_1
 62
     2
  6
CONTINUOUS
 10
-0.990409
 20
3.474311
  0
VERTEX
  8
PLAN_1
 62
     2
  6
CONTINUOUS
 10
-0.988563
 20
3.476157
  0
VERTEX
  8
PLAN_1
 62
     2
  6
CONTINUOUS
 10
-0.986717
 20
3.478929
  0
VERTEX
  8
PLAN_1
 62
     2
  6
CONTINUOUS
 10
-0.985331
 20
3.481701
  0
VERTEX
  8
PLAN_1
 62
     2
  6
CONTINUOUS
 10
-0.984406
 20
3.484933
  0
VERTEX
  8
PLAN_1
 62
     2
  6
CONTINUOUS
 10
-0.984406
 20
3.488165
  0
VERTEX
  8
PLAN_1
 62
     2
  6
CONTINUOUS
 10
-0.984406
 20
3.491858
  0
VERTEX
  8
PLAN_1
 62
     2
  6
CONTINUOUS
 10
-0.985331
 20
3.495094
  0
VERTEX
  8
PLAN_1
 62
     2
  6
CONTINUOUS
 10
-0.987177
 20
3.497862
  0
VERTEX
  8
PLAN_1
 62
     2
  6
CONTINUOUS
 10
-0.989024
 20
3.500173
  0
VERTEX
  8
PLAN_1
 62
     2
  6
CONTINUOUS
 10
-0.991335
 20
3.502020
  0
VERTEX
  8
PLAN_1
 62
     2
  6
CONTINUOUS
 10
-0.994106
 20
3.503406
  0
VERTEX
  8
PLAN_1
 62
     2
  6
CONTINUOUS
 10
-0.997339
 20
3.503870
  0
VERTEX
  8
PLAN_1
 62
     2
  6
CONTINUOUS
 10
-1.000571
 20
3.504331
  0
VERTEX
  8
PLAN_1
 62
     2
  6
CONTINUOUS
 10
-1.002417
 20
3.504331
  0
VERTEX
  8
PLAN_1
 62
     2
  6
CONTINUOUS
 10
-1.004268
 20
3.503870
  0
VERTEX
  8
PLAN_1
 62
     2
  6
CONTINUOUS
 10
-1.006114
 20
3.503406
  0
VERTEX
  8
PLAN_1
 62
     2
  6
CONTINUOUS
 10
-1.007961
 20
3.502484
  0
VERTEX
  8
PLAN_1
 62
     2
  6
CONTINUOUS
 10
-1.009807
 20
3.501559
  0
VERTEX
  8
PLAN_1
 62
     2
  6
CONTINUOUS
 10
-1.011193
 20
3.500173
  0
VERTEX
  8
PLAN_1
 62
     2
  6
CONTINUOUS
 10
-1.012579
 20
3.498787
  0
VERTEX
  8
PLAN_1
 62
     2
  6
CONTINUOUS
 10
-1.013965
 20
3.497402
  0
VERTEX
  8
PLAN_1
 62
     2
  6
CONTINUOUS
 10
-1.021819
 20
3.497862
  0
VERTEX
  8
PLAN_1
 62
     2
  6
CONTINUOUS
 10
-1.016276
 20
3.537122
  0
VERTEX
  8
PLAN_1
 62
     2
  6
CONTINUOUS
 10
-0.978402
 20
3.537122
  0
VERTEX
  8
PLAN_1
 62
     2
  6
CONTINUOUS
 10
-0.978402
 20
3.527886
  0
VERTEX
  8
PLAN_1
 62
     2
  6
CONTINUOUS
 10
-1.009346
 20
3.527886
  0
VERTEX
  8
PLAN_1
 62
     2
  6
CONTINUOUS
 10
-1.012579
 20
3.508024
  0
SEQEND
  8
0
  0
POLYLINE
  8
PLAN_1
 62
     2
  6
CONTINUOUS
 66
     1
 40
0.003000
 41
0.003000
  0
VERTEX
  8
PLAN_1
 62
     2
  6
CONTINUOUS
 10
-0.966394
 20
3.537122
  0
VERTEX
  8
PLAN_1
 62
     2
  6
CONTINUOUS
 10
-0.915591
 20
3.537122
  0
VERTEX
  8
PLAN_1
 62
     2
  6
CONTINUOUS
 10
-0.915591
 20
3.528807
  0
VERTEX
  8
PLAN_1
 62
     2
  6
CONTINUOUS
 10
-0.918823
 20
3.525575
  0
VERTEX
  8
PLAN_1
 62
     2
  6
CONTINUOUS
 10
-0.922520
 20
3.520496
  0
VERTEX
  8
PLAN_1
 62
     2
  6
CONTINUOUS
 10
-0.927138
 20
3.514028
  0
VERTEX
  8
PLAN_1
 62
     2
  6
CONTINUOUS
 10
-0.931295
 20
3.506638
  0
VERTEX
  8
PLAN_1
 62
     2
  6
CONTINUOUS
 10
-0.935913
 20
3.497862
  0
VERTEX
  8
PLAN_1
 62
     2
  6
CONTINUOUS
 10
-0.939606
 20
3.488165
  0
VERTEX
  8
PLAN_1
 62
     2
  6
CONTINUOUS
 10
-0.941453
 20
3.482622
  0
VERTEX
  8
PLAN_1
 62
     2
  6
CONTINUOUS
 10
-0.943303
 20
3.477079
  0
VERTEX
  8
PLAN_1
 62
     2
  6
CONTINUOUS
 10
-0.944689
 20
3.471539
  0
VERTEX
  8
PLAN_1
 62
     2
  6
CONTINUOUS
 10
-0.945610
 20
3.465535
  0
VERTEX
  8
PLAN_1
 62
     2
  6
CONTINUOUS
 10
-0.955772
 20
3.465535
  0
VERTEX
  8
PLAN_1
 62
     2
  6
CONTINUOUS
 10
-0.954386
 20
3.473386
  0
VERTEX
  8
PLAN_1
 62
     2
  6
CONTINUOUS
 10
-0.952079
 20
3.481236
  0
VERTEX
  8
PLAN_1
 62
     2
  6
CONTINUOUS
 10
-0.948843
 20
3.489551
  0
VERTEX
  8
PLAN_1
 62
     2
  6
CONTINUOUS
 10
-0.945150
 20
3.498327
  0
VERTEX
  8
PLAN_1
 62
     2
  6
CONTINUOUS
 10
-0.940992
 20
3.506177
  0
VERTEX
  8
PLAN_1
 62
     2
  6
CONTINUOUS
 10
-0.936374
 20
3.514028
  0
VERTEX
  8
PLAN_1
 62
     2
  6
CONTINUOUS
 10
-0.931295
 20
3.521417
  0
VERTEX
  8
PLAN_1
 62
     2
  6
CONTINUOUS
 10
-0.925752
 20
3.527886
  0
VERTEX
  8
PLAN_1
 62
     2
  6
CONTINUOUS
 10
-0.966394
 20
3.527886
  0
VERTEX
  8
PLAN_1
 62
     2
  6
CONTINUOUS
 10
-0.966394
 20
3.537122
  0
SEQEND
  8
0
  0
POLYLINE
  8
PLAN_1
 62
     2
  6
CONTINUOUS
 66
     1
 40
0.004154
 41
0.004154
  0
VERTEX
  8
PLAN_1
 62
     2
  6
CONTINUOUS
 10
-2.263283
 20
3.599012
  0
VERTEX
  8
PLAN_1
 62
     2
  6
CONTINUOUS
 10
0.119429
 20
3.599012
  0
SEQEND
  8
0
  0
SOLID
  8
PLAN_1
 62
     2
 10
0.148988
 20
3.599012
 11
0.089870
 21
3.615177
 12
0.148988
 22
3.599012
 13
0.089870
 23
3.583307
  0
POLYLINE
  8
PLAN_1
 62
     2
  6
CONTINUOUS
 66
     1
 40
0.003000
 41
0.003000
  0
VERTEX
  8
PLAN_1
 62
     2
  6
CONTINUOUS
 10
0.148988
 20
3.599012
  0
VERTEX
  8
PLAN_1
 62
     2
  6
CONTINUOUS
 10
0.089870
 20
3.615177
  0
VERTEX
  8
PLAN_1
 62
     2
  6
CONTINUOUS
 10
0.089870
 20
3.583307
  0
VERTEX
  8
PLAN_1
 62
     2
  6
CONTINUOUS
 10
0.148988
 20
3.599012
  0
SEQEND
  8
0
  0
SOLID
  8
PLAN_1
 62
     2
 10
-2.292843
 20
3.599012
 11
-2.233724
 21
3.615177
 12
-2.292843
 22
3.599012
 13
-2.233724
 23
3.583307
  0
POLYLINE
  8
PLAN_1
 62
     2
  6
CONTINUOUS
 66
     1
 40
0.003000
 41
0.003000
  0
VERTEX
  8
PLAN_1
 62
     2
  6
CONTINUOUS
 10
-2.292843
 20
3.599012
  0
VERTEX
  8
PLAN_1
 62
     2
  6
CONTINUOUS
 10
-2.233724
 20
3.615177
  0
VERTEX
  8
PLAN_1
 62
     2
  6
CONTINUOUS
 10
-2.233724
 20
3.583307
  0
VERTEX
  8
PLAN_1
 62
     2
  6
CONTINUOUS
 10
-2.292843
 20
3.599012
  0
SEQEND
  8
0
  0
POLYLINE
  8
PLAN_1
 62
     2
  6
CONTINUOUS
 66
     1
 40
0.003000
 41
0.003000
  0
VERTEX
  8
PLAN_1
 62
     2
  6
CONTINUOUS
 10
-1.086476
 20
3.676602
  0
VERTEX
  8
PLAN_1
 62
     2
  6
CONTINUOUS
 10
-1.086937
 20
3.678909
  0
VERTEX
  8
PLAN_1
 62
     2
  6
CONTINUOUS
 10
-1.087862
 20
3.681220
  0
VERTEX
  8
PLAN_1
 62
     2
  6
CONTINUOUS
 10
-1.088787
 20
3.683067
  0
VERTEX
  8
PLAN_1
 62
     2
  6
CONTINUOUS
 10
-1.090173
 20
3.684453
  0
VERTEX
  8
PLAN_1
 62
     2
  6
CONTINUOUS
 10
-1.092020
 20
3.685839
  0
VERTEX
  8
PLAN_1
 62
     2
  6
CONTINUOUS
 10
-1.093866
 20
3.686764
  0
VERTEX
  8
PLAN_1
 62
     2
  6
CONTINUOUS
 10
-1.096177
 20
3.687685
  0
VERTEX
  8
PLAN_1
 62
     2
  6
CONTINUOUS
 10
-1.098949
 20
3.687685
  0
VERTEX
  8
PLAN_1
 62
     2
  6
CONTINUOUS
 10
-1.101717
 20
3.687685
  0
VERTEX
  8
PLAN_1
 62
     2
  6
CONTINUOUS
 10
-1.104028
 20
3.686764
  0
VERTEX
  8
PLAN_1
 62
     2
  6
CONTINUOUS
 10
-1.105874
 20
3.685839
  0
VERTEX
  8
PLAN_1
 62
     2
  6
CONTINUOUS
 10
-1.107720
 20
3.684453
  0
VERTEX
  8
PLAN_1
 62
     2
  6
CONTINUOUS
 10
-1.109571
 20
3.683067
  0
VERTEX
  8
PLAN_1
 62
     2
  6
CONTINUOUS
 10
-1.110957
 20
3.681220
  0
VERTEX
  8
PLAN_1
 62
     2
  6
CONTINUOUS
 10
-1.111878
 20
3.679374
  0
VERTEX
  8
PLAN_1
 62
     2
  6
CONTINUOUS
 10
-1.113264
 20
3.677063
  0
VERTEX
  8
PLAN_1
 62
     2
  6
CONTINUOUS
 10
-1.114650
 20
3.672445
  0
VERTEX
  8
PLAN_1
 62
     2
  6
CONTINUOUS
 10
-1.115575
 20
3.668287
  0
VERTEX
  8
PLAN_1
 62
     2
  6
CONTINUOUS
 10
-1.116496
 20
3.664134
  0
VERTEX
  8
PLAN_1
 62
     2
  6
CONTINUOUS
 10
-1.116496
 20
3.660898
  0
VERTEX
  8
PLAN_1
 62
     2
  6
CONTINUOUS
 10
-1.116035
 20
3.660437
  0
VERTEX
  8
PLAN_1
 62
     2
  6
CONTINUOUS
 10
-1.115110
 20
3.661823
  0
VERTEX
  8
PLAN_1
 62
     2
  6
CONTINUOUS
 10
-1.114189
 20
3.663669
  0
VERTEX
  8
PLAN_1
 62
     2
  6
CONTINUOUS
 10
-1.112343
 20
3.665055
  0
VERTEX
  8
PLAN_1
 62
     2
  6
CONTINUOUS
 10
-1.110492
 20
3.666441
  0
VERTEX
  8
PLAN_1
 62
     2
  6
CONTINUOUS
 10
-1.108185
 20
3.667827
  0
VERTEX
  8
PLAN_1
 62
     2
  6
CONTINUOUS
 10
-1.105413
 20
3.668752
  0
VERTEX
  8
PLAN_1
 62
     2
  6
CONTINUOUS
 10
-1.102181
 20
3.669213
  0
VERTEX
  8
PLAN_1
 62
     2
  6
CONTINUOUS
 10
-1.098949
 20
3.669673
  0
VERTEX
  8
PLAN_1
 62
     2
  6
CONTINUOUS
 10
-1.095252
 20
3.669213
  0
VERTEX
  8
PLAN_1
 62
     2
  6
CONTINUOUS
 10
-1.091559
 20
3.668287
  0
VERTEX
  8
PLAN_1
 62
     2
  6
CONTINUOUS
 10
-1.087862
 20
3.666902
  0
VERTEX
  8
PLAN_1
 62
     2
  6
CONTINUOUS
 10
-1.084169
 20
3.664594
  0
VERTEX
  8
PLAN_1
 62
     2
  6
CONTINUOUS
 10
-1.082319
 20
3.662748
  0
VERTEX
  8
PLAN_1
 62
     2
  6
CONTINUOUS
 10
-1.080933
 20
3.661362
  0
VERTEX
  8
PLAN_1
 62
     2
  6
CONTINUOUS
 10
-1.079547
 20
3.659512
  0
VERTEX
  8
PLAN_1
 62
     2
  6
CONTINUOUS
 10
-1.078165
 20
3.657205
  0
VERTEX
  8
PLAN_1
 62
     2
  6
CONTINUOUS
 10
-1.077240
 20
3.654894
  0
VERTEX
  8
PLAN_1
 62
     2
  6
CONTINUOUS
 10
-1.076780
 20
3.652122
  0
VERTEX
  8
PLAN_1
 62
     2
  6
CONTINUOUS
 10
-1.076315
 20
3.649354
  0
VERTEX
  8
PLAN_1
 62
     2
  6
CONTINUOUS
 10
-1.075854
 20
3.646118
  0
VERTEX
  8
PLAN_1
 62
     2
  6
CONTINUOUS
 10
-1.075854
 20
3.643350
  0
VERTEX
  8
PLAN_1
 62
     2
  6
CONTINUOUS
 10
-1.076315
 20
3.641039
  0
VERTEX
  8
PLAN_1
 62
     2
  6
CONTINUOUS
 10
-1.076780
 20
3.638728
  0
VERTEX
  8
PLAN_1
 62
     2
  6
CONTINUOUS
 10
-1.077701
 20
3.636421
  0
VERTEX
  8
PLAN_1
 62
     2
  6
CONTINUOUS
 10
-1.078626
 20
3.634110
  0
VERTEX
  8
PLAN_1
 62
     2
  6
CONTINUOUS
 10
-1.079547
 20
3.632264
  0
VERTEX
  8
PLAN_1
 62
     2
  6
CONTINUOUS
 10
-1.081398
 20
3.629953
  0
VERTEX
  8
PLAN_1
 62
     2
  6
CONTINUOUS
 10
-1.082783
 20
3.628106
  0
VERTEX
  8
PLAN_1
 62
     2
  6
CONTINUOUS
 10
-1.084630
 20
3.626260
  0
VERTEX
  8
PLAN_1
 62
     2
  6
CONTINUOUS
 10
-1.086016
 20
3.624874
  0
VERTEX
  8
PLAN_1
 62
     2
  6
CONTINUOUS
 10
-1.087862
 20
3.623949
  0
VERTEX
  8
PLAN_1
 62
     2
  6
CONTINUOUS
 10
-1.089709
 20
3.623028
  0
VERTEX
  8
PLAN_1
 62
     2
  6
CONTINUOUS
 10
-1.092020
 20
3.622102
  0
VERTEX
  8
PLAN_1
 62
     2
  6
CONTINUOUS
 10
-1.094791
 20
3.621181
  0
VERTEX
  8
PLAN_1
 62
     2
  6
CONTINUOUS
 10
-1.098024
 20
3.621181
  0
VERTEX
  8
PLAN_1
 62
     2
  6
CONTINUOUS
 10
-1.101256
 20
3.620717
  0
VERTEX
  8
PLAN_1
 62
     2
  6
CONTINUOUS
 10
-1.103567
 20
3.621181
  0
VERTEX
  8
PLAN_1
 62
     2
  6
CONTINUOUS
 10
-1.105874
 20
3.621181
  0
VERTEX
  8
PLAN_1
 62
     2
  6
CONTINUOUS
 10
-1.108646
 20
3.622102
  0
VERTEX
  8
PLAN_1
 62
     2
  6
CONTINUOUS
 10
-1.110957
 20
3.623028
  0
VERTEX
  8
PLAN_1
 62
     2
  6
CONTINUOUS
 10
-1.113724
 20
3.624413
  0
VERTEX
  8
PLAN_1
 62
     2
  6
CONTINUOUS
 10
-1.116035
 20
3.626260
  0
VERTEX
  8
PLAN_1
 62
     2
  6
CONTINUOUS
 10
-1.118346
 20
3.628571
  0
VERTEX
  8
PLAN_1
 62
     2
  6
CONTINUOUS
 10
-1.120193
 20
3.631339
  0
VERTEX
  8
PLAN_1
 62
     2
  6
CONTINUOUS
 10
-1.121579
 20
3.634110
  0
VERTEX
  8
PLAN_1
 62
     2
  6
CONTINUOUS
 10
-1.122965
 20
3.636882
  0
VERTEX
  8
PLAN_1
 62
     2
  6
CONTINUOUS
 10
-1.123886
 20
3.640114
  0
VERTEX
  8
PLAN_1
 62
     2
  6
CONTINUOUS
 10
-1.124811
 20
3.643350
  0
VERTEX
  8
PLAN_1
 62
     2
  6
CONTINUOUS
 10
-1.125272
 20
3.646583
  0
VERTEX
  8
PLAN_1
 62
     2
  6
CONTINUOUS
 10
-1.125736
 20
3.649815
  0
VERTEX
  8
PLAN_1
 62
     2
  6
CONTINUOUS
 10
-1.125736
 20
3.653508
  0
VERTEX
  8
PLAN_1
 62
     2
  6
CONTINUOUS
 10
-1.125736
 20
3.656744
  0
VERTEX
  8
PLAN_1
 62
     2
  6
CONTINUOUS
 10
-1.125736
 20
3.663209
  0
VERTEX
  8
PLAN_1
 62
     2
  6
CONTINUOUS
 10
-1.124811
 20
3.669673
  0
VERTEX
  8
PLAN_1
 62
     2
  6
CONTINUOUS
 10
-1.123886
 20
3.672906
  0
VERTEX
  8
PLAN_1
 62
     2
  6
CONTINUOUS
 10
-1.122965
 20
3.676142
  0
VERTEX
  8
PLAN_1
 62
     2
  6
CONTINUOUS
 10
-1.122039
 20
3.679374
  0
VERTEX
  8
PLAN_1
 62
     2
  6
CONTINUOUS
 10
-1.120654
 20
3.682606
  0
VERTEX
  8
PLAN_1
 62
     2
  6
CONTINUOUS
 10
-1.118807
 20
3.685378
  0
VERTEX
  8
PLAN_1
 62
     2
  6
CONTINUOUS
 10
-1.116961
 20
3.687685
  0
VERTEX
  8
PLAN_1
 62
     2
  6
CONTINUOUS
 10
-1.114650
 20
3.689996
  0
VERTEX
  8
PLAN_1
 62
     2
  6
CONTINUOUS
 10
-1.112343
 20
3.692307
  0
VERTEX
  8
PLAN_1
 62
     2
  6
CONTINUOUS
 10
-1.109571
 20
3.693689
  0
VERTEX
  8
PLAN_1
 62
     2
  6
CONTINUOUS
 10
-1.106339
 20
3.695075
  0
VERTEX
  8
PLAN_1
 62
     2
  6
CONTINUOUS
 10
-1.102642
 20
3.695539
  0
VERTEX
  8
PLAN_1
 62
     2
  6
CONTINUOUS
 10
-1.098949
 20
3.696000
  0
VERTEX
  8
PLAN_1
 62
     2
  6
CONTINUOUS
 10
-1.095713
 20
3.695539
  0
VERTEX
  8
PLAN_1
 62
     2
  6
CONTINUOUS
 10
-1.092020
 20
3.695075
  0
VERTEX
  8
PLAN_1
 62
     2
  6
CONTINUOUS
 10
-1.088787
 20
3.693689
  0
VERTEX
  8
PLAN_1
 62
     2
  6
CONTINUOUS
 10
-1.085551
 20
3.691843
  0
VERTEX
  8
PLAN_1
 62
     2
  6
CONTINUOUS
 10
-1.082319
 20
3.689071
  0
VERTEX
  8
PLAN_1
 62
     2
  6
CONTINUOUS
 10
-1.080012
 20
3.685839
  0
VERTEX
  8
PLAN_1
 62
     2
  6
CONTINUOUS
 10
-1.079087
 20
3.683992
  0
VERTEX
  8
PLAN_1
 62
     2
  6
CONTINUOUS
 10
-1.078165
 20
3.681681
  0
VERTEX
  8
PLAN_1
 62
     2
  6
CONTINUOUS
 10
-1.077701
 20
3.679374
  0
VERTEX
  8
PLAN_1
 62
     2
  6
CONTINUOUS
 10
-1.077701
 20
3.676602
  0
VERTEX
  8
PLAN_1
 62
     2
  6
CONTINUOUS
 10
-1.086476
 20
3.676602
  0
SEQEND
  8
0
  0
POLYLINE
  8
PLAN_1
 62
     2
  6
CONTINUOUS
 66
     1
 40
0.003000
 41
0.003000
  0
VERTEX
  8
PLAN_1
 62
     2
  6
CONTINUOUS
 10
-1.099870
 20
3.629031
  0
VERTEX
  8
PLAN_1
 62
     2
  6
CONTINUOUS
 10
-1.096638
 20
3.629492
  0
VERTEX
  8
PLAN_1
 62
     2
  6
CONTINUOUS
 10
-1.093866
 20
3.630417
  0
VERTEX
  8
PLAN_1
 62
     2
  6
CONTINUOUS
 10
-1.091559
 20
3.631803
  0
VERTEX
  8
PLAN_1
 62
     2
  6
CONTINUOUS
 10
-1.089248
 20
3.633650
  0
VERTEX
  8
PLAN_1
 62
     2
  6
CONTINUOUS
 10
-1.087862
 20
3.636421
  0
VERTEX
  8
PLAN_1
 62
     2
  6
CONTINUOUS
 10
-1.086476
 20
3.639193
  0
VERTEX
  8
PLAN_1
 62
     2
  6
CONTINUOUS
 10
-1.085551
 20
3.642425
  0
VERTEX
  8
PLAN_1
 62
     2
  6
CONTINUOUS
 10
-1.085551
 20
3.645657
  0
VERTEX
  8
PLAN_1
 62
     2
  6
CONTINUOUS
 10
-1.085551
 20
3.648429
  0
VERTEX
  8
PLAN_1
 62
     2
  6
CONTINUOUS
 10
-1.086016
 20
3.651201
  0
VERTEX
  8
PLAN_1
 62
     2
  6
CONTINUOUS
 10
-1.086937
 20
3.653508
  0
VERTEX
  8
PLAN_1
 62
     2
  6
CONTINUOUS
 10
-1.088787
 20
3.655819
  0
VERTEX
  8
PLAN_1
 62
     2
  6
CONTINUOUS
 10
-1.090634
 20
3.658126
  0
VERTEX
  8
PLAN_1
 62
     2
  6
CONTINUOUS
 10
-1.092941
 20
3.659976
  0
VERTEX
  8
PLAN_1
 62
     2
  6
CONTINUOUS
 10
-1.096177
 20
3.660898
  0
VERTEX
  8
PLAN_1
 62
     2
  6
CONTINUOUS
 10
-1.100331
 20
3.661362
  0
VERTEX
  8
PLAN_1
 62
     2
  6
CONTINUOUS
 10
-1.103567
 20
3.660898
  0
VERTEX
  8
PLAN_1
 62
     2
  6
CONTINUOUS
 10
-1.106799
 20
3.659976
  0
VERTEX
  8
PLAN_1
 62
     2
  6
CONTINUOUS
 10
-1.109571
 20
3.658591
  0
VERTEX
  8
PLAN_1
 62
     2
  6
CONTINUOUS
 10
-1.111417
 20
3.656744
  0
VERTEX
  8
PLAN_1
 62
     2
  6
CONTINUOUS
 10
-1.113264
 20
3.653972
  0
VERTEX
  8
PLAN_1
 62
     2
  6
CONTINUOUS
 10
-1.114189
 20
3.651661
  0
VERTEX
  8
PLAN_1
 62
     2
  6
CONTINUOUS
 10
-1.115110
 20
3.648429
  0
VERTEX
  8
PLAN_1
 62
     2
  6
CONTINUOUS
 10
-1.115110
 20
3.645197
  0
VERTEX
  8
PLAN_1
 62
     2
  6
CONTINUOUS
 10
-1.115110
 20
3.642425
  0
VERTEX
  8
PLAN_1
 62
     2
  6
CONTINUOUS
 10
-1.114189
 20
3.639654
  0
VERTEX
  8
PLAN_1
 62
     2
  6
CONTINUOUS
 10
-1.113264
 20
3.636882
  0
VERTEX
  8
PLAN_1
 62
     2
  6
CONTINUOUS
 10
-1.111417
 20
3.634110
  0
VERTEX
  8
PLAN_1
 62
     2
  6
CONTINUOUS
 10
-1.109571
 20
3.632264
  0
VERTEX
  8
PLAN_1
 62
     2
  6
CONTINUOUS
 10
-1.106799
 20
3.630417
  0
VERTEX
  8
PLAN_1
 62
     2
  6
CONTINUOUS
 10
-1.103567
 20
3.629492
  0
VERTEX
  8
PLAN_1
 62
     2
  6
CONTINUOUS
 10
-1.099870
 20
3.629031
  0
SEQEND
  8
0
  0
POLYLINE
  8
PLAN_1
 62
     2
  6
CONTINUOUS
 66
     1
 40
0.003000
 41
0.003000
  0
VERTEX
  8
PLAN_1
 62
     2
  6
CONTINUOUS
 10
-1.067539
 20
3.669673
  0
VERTEX
  8
PLAN_1
 62
     2
  6
CONTINUOUS
 10
-1.067079
 20
3.673831
  0
VERTEX
  8
PLAN_1
 62
     2
  6
CONTINUOUS
 10
-1.066618
 20
3.677528
  0
VERTEX
  8
PLAN_1
 62
     2
  6
CONTINUOUS
 10
-1.065693
 20
3.681220
  0
VERTEX
  8
PLAN_1
 62
     2
  6
CONTINUOUS
 10
-1.064768
 20
3.683992
  0
VERTEX
  8
PLAN_1
 62
     2
  6
CONTINUOUS
 10
-1.062921
 20
3.686299
  0
VERTEX
  8
PLAN_1
 62
     2
  6
CONTINUOUS
 10
-1.061535
 20
3.688610
  0
VERTEX
  8
PLAN_1
 62
     2
  6
CONTINUOUS
 10
-1.059689
 20
3.690457
  0
VERTEX
  8
PLAN_1
 62
     2
  6
CONTINUOUS
 10
-1.057843
 20
3.691843
  0
VERTEX
  8
PLAN_1
 62
     2
  6
CONTINUOUS
 10
-1.053685
 20
3.694154
  0
VERTEX
  8
PLAN_1
 62
     2
  6
CONTINUOUS
 10
-1.049528
 20
3.695075
  0
VERTEX
  8
PLAN_1
 62
     2
  6
CONTINUOUS
 10
-1.045370
 20
3.696000
  0
VERTEX
  8
PLAN_1
 62
     2
  6
CONTINUOUS
 10
-1.042138
 20
3.696000
  0
VERTEX
  8
PLAN_1
 62
     2
  6
CONTINUOUS
 10
-1.037520
 20
3.695539
  0
VERTEX
  8
PLAN_1
 62
     2
  6
CONTINUOUS
 10
-1.033362
 20
3.694614
  0
VERTEX
  8
PLAN_1
 62
     2
  6
CONTINUOUS
 10
-1.029209
 20
3.692768
  0
VERTEX
  8
PLAN_1
 62
     2
  6
CONTINUOUS
 10
-1.025972
 20
3.689996
  0
VERTEX
  8
PLAN_1
 62
     2
  6
CONTINUOUS
 10
-1.023201
 20
3.687224
  0
VERTEX
  8
PLAN_1
 62
     2
  6
CONTINUOUS
 10
-1.020894
 20
3.683531
  0
VERTEX
  8
PLAN_1
 62
     2
  6
CONTINUOUS
 10
-1.020433
 20
3.681220
  0
VERTEX
  8
PLAN_1
 62
     2
  6
CONTINUOUS
 10
-1.019508
 20
3.678909
  0
VERTEX
  8
PLAN_1
 62
     2
  6
CONTINUOUS
 10
-1.019508
 20
3.676602
  0
VERTEX
  8
PLAN_1
 62
     2
  6
CONTINUOUS
 10
-1.019047
 20
3.674291
  0
VERTEX
  8
PLAN_1
 62
     2
  6
CONTINUOUS
 10
-1.019508
 20
3.669673
  0
VERTEX
  8
PLAN_1
 62
     2
  6
CONTINUOUS
 10
-1.020894
 20
3.665516
  0
VERTEX
  8
PLAN_1
 62
     2
  6
CONTINUOUS
 10
-1.022740
 20
3.662283
  0
VERTEX
  8
PLAN_1
 62
     2
  6
CONTINUOUS
 10
-1.025051
 20
3.659051
  0
VERTEX
  8
PLAN_1
 62
     2
  6
CONTINUOUS
 10
-1.027823
 20
3.656744
  0
VERTEX
  8
PLAN_1
 62
     2
  6
CONTINUOUS
 10
-1.031055
 20
3.653972
  0
VERTEX
  8
PLAN_1
 62
     2
  6
CONTINUOUS
 10
-1.034748
 20
3.651661
  0
VERTEX
  8
PLAN_1
 62
     2
  6
CONTINUOUS
 10
-1.038906
 20
3.649815
  0
VERTEX
  8
PLAN_1
 62
     2
  6
CONTINUOUS
 10
-1.046295
 20
3.645657
  0
VERTEX
  8
PLAN_1
 62
     2
  6
CONTINUOUS
 10
-1.049992
 20
3.643350
  0
VERTEX
  8
PLAN_1
 62
     2
  6
CONTINUOUS
 10
-1.052299
 20
3.641500
  0
VERTEX
  8
PLAN_1
 62
     2
  6
CONTINUOUS
 10
-1.054610
 20
3.639193
  0
VERTEX
  8
PLAN_1
 62
     2
  6
CONTINUOUS
 10
-1.056457
 20
3.637343
  0
VERTEX
  8
PLAN_1
 62
     2
  6
CONTINUOUS
 10
-1.057382
 20
3.635496
  0
VERTEX
  8
PLAN_1
 62
     2
  6
CONTINUOUS
 10
-1.058303
 20
3.634110
  0
VERTEX
  8
PLAN_1
 62
     2
  6
CONTINUOUS
 10
-1.058764
 20
3.632724
  0
VERTEX
  8
PLAN_1
 62
     2
  6
CONTINUOUS
 10
-1.058764
 20
3.631339
  0
VERTEX
  8
PLAN_1
 62
     2
  6
CONTINUOUS
 10
-1.019047
 20
3.631339
  0
VERTEX
  8
PLAN_1
 62
     2
  6
CONTINUOUS
 10
-1.019047
 20
3.623028
  0
VERTEX
  8
PLAN_1
 62
     2
  6
CONTINUOUS
 10
-1.069390
 20
3.623028
  0
VERTEX
  8
PLAN_1
 62
     2
  6
CONTINUOUS
 10
-1.068925
 20
3.628106
  0
VERTEX
  8
PLAN_1
 62
     2
  6
CONTINUOUS
 10
-1.067539
 20
3.633189
  0
VERTEX
  8
PLAN_1
 62
     2
  6
CONTINUOUS
 10
-1.066154
 20
3.637343
  0
VERTEX
  8
PLAN_1
 62
     2
  6
CONTINUOUS
 10
-1.064307
 20
3.641039
  0
VERTEX
  8
PLAN_1
 62
     2
  6
CONTINUOUS
 10
-1.061535
 20
3.644272
  0
VERTEX
  8
PLAN_1
 62
     2
  6
CONTINUOUS
 10
-1.058764
 20
3.647043
  0
VERTEX
  8
PLAN_1
 62
     2
  6
CONTINUOUS
 10
-1.055531
 20
3.649815
  0
VERTEX
  8
PLAN_1
 62
     2
  6
CONTINUOUS
 10
-1.052299
 20
3.651661
  0
VERTEX
  8
PLAN_1
 62
     2
  6
CONTINUOUS
 10
-1.042602
 20
3.657665
  0
VERTEX
  8
PLAN_1
 62
     2
  6
CONTINUOUS
 10
-1.039831
 20
3.659051
  0
VERTEX
  8
PLAN_1
 62
     2
  6
CONTINUOUS
 10
-1.037059
 20
3.660898
  0
VERTEX
  8
PLAN_1
 62
     2
  6
CONTINUOUS
 10
-1.034748
 20
3.662283
  0
VERTEX
  8
PLAN_1
 62
     2
  6
CONTINUOUS
 10
-1.032902
 20
3.664134
  0
VERTEX
  8
PLAN_1
 62
     2
  6
CONTINUOUS
 10
-1.031055
 20
3.665980
  0
VERTEX
  8
PLAN_1
 62
     2
  6
CONTINUOUS
 10
-1.030130
 20
3.668287
  0
VERTEX
  8
PLAN_1
 62
     2
  6
CONTINUOUS
 10
-1.029209
 20
3.671059
  0
VERTEX
  8
PLAN_1
 62
     2
  6
CONTINUOUS
 10
-1.029209
 20
3.674756
  0
VERTEX
  8
PLAN_1
 62
     2
  6
CONTINUOUS
 10
-1.029209
 20
3.676602
  0
VERTEX
  8
PLAN_1
 62
     2
  6
CONTINUOUS
 10
-1.029669
 20
3.678909
  0
VERTEX
  8
PLAN_1
 62
     2
  6
CONTINUOUS
 10
-1.030591
 20
3.681220
  0
VERTEX
  8
PLAN_1
 62
     2
  6
CONTINUOUS
 10
-1.032441
 20
3.683531
  0
VERTEX
  8
PLAN_1
 62
     2
  6
CONTINUOUS
 10
-1.034287
 20
3.684917
  0
VERTEX
  8
PLAN_1
 62
     2
  6
CONTINUOUS
 10
-1.036594
 20
3.686764
  0
VERTEX
  8
PLAN_1
 62
     2
  6
CONTINUOUS
 10
-1.039831
 20
3.687224
  0
VERTEX
  8
PLAN_1
 62
     2
  6
CONTINUOUS
 10
-1.043524
 20
3.687685
  0
VERTEX
  8
PLAN_1
 62
     2
  6
CONTINUOUS
 10
-1.045835
 20
3.687685
  0
VERTEX
  8
PLAN_1
 62
     2
  6
CONTINUOUS
 10
-1.048142
 20
3.687224
  0
VERTEX
  8
PLAN_1
 62
     2
  6
CONTINUOUS
 10
-1.049992
 20
3.686764
  0
VERTEX
  8
PLAN_1
 62
     2
  6
CONTINUOUS
 10
-1.051374
 20
3.685839
  0
VERTEX
  8
PLAN_1
 62
     2
  6
CONTINUOUS
 10
-1.054146
 20
3.683531
  0
VERTEX
  8
PLAN_1
 62
     2
  6
CONTINUOUS
 10
-1.055996
 20
3.680760
  0
VERTEX
  8
PLAN_1
 62
     2
  6
CONTINUOUS
 10
-1.056917
 20
3.677528
  0
VERTEX
  8
PLAN_1
 62
     2
  6
CONTINUOUS
 10
-1.057843
 20
3.674756
  0
VERTEX
  8
PLAN_1
 62
     2
  6
CONTINUOUS
 10
-1.058303
 20
3.671984
  0
VERTEX
  8
PLAN_1
 62
     2
  6
CONTINUOUS
 10
-1.058303
 20
3.669673
  0
VERTEX
  8
PLAN_1
 62
     2
  6
CONTINUOUS
 10
-1.067539
 20
3.669673
  0
SEQEND
  8
0
  0
POLYLINE
  8
PLAN_1
 62
     2
  6
CONTINUOUS
 66
     1
 40
0.004154
 41
0.004154
  0
VERTEX
  8
PLAN_1
 62
     2
  6
CONTINUOUS
 10
-2.177843
 20
3.284488
  0
VERTEX
  8
PLAN_1
 62
     2
  6
CONTINUOUS
 10
-2.177843
 20
3.124224
  0
SEQEND
  8
0
  0
POLYLINE
  8
PLAN_1
 62
     2
  6
CONTINUOUS
 66
     1
 40
0.004154
 41
0.004154
  0
VERTEX
  8
PLAN_1
 62
     2
  6
CONTINUOUS
 10
-1.986173
 20
3.284488
  0
VERTEX
  8
PLAN_1
 62
     2
  6
CONTINUOUS
 10
-1.986173
 20
3.124224
  0
SEQEND
  8
0
  0
POLYLINE
  8
PLAN_1
 62
     2
  6
CONTINUOUS
 66
     1
 40
0.004154
 41
0.004154
  0
VERTEX
  8
PLAN_1
 62
     2
  6
CONTINUOUS
 10
-1.564496
 20
3.284488
  0
VERTEX
  8
PLAN_1
 62
     2
  6
CONTINUOUS
 10
-1.564496
 20
3.111752
  0
SEQEND
  8
0
  0
POLYLINE
  8
PLAN_1
 62
     2
  6
CONTINUOUS
 66
     1
 40
0.004154
 41
0.004154
  0
VERTEX
  8
PLAN_1
 62
     2
  6
CONTINUOUS
 10
0.148988
 20
0.854205
  0
VERTEX
  8
PLAN_1
 62
     2
  6
CONTINUOUS
 10
0.148988
 20
3.623028
  0
SEQEND
  8
0
  0
POLYLINE
  8
PLAN_1
 62
     2
  6
CONTINUOUS
 66
     1
 40
0.004154
 41
0.004154
  0
VERTEX
  8
PLAN_1
 62
     2
  6
CONTINUOUS
 10
-2.292843
 20
3.623028
  0
VERTEX
  8
PLAN_1
 62
     2
  6
CONTINUOUS
 10
-2.292843
 20
2.927012
  0
SEQEND
  8
0
  0
POLYLINE
  8
PLAN_1
 62
     2
  6
CONTINUOUS
 66
     1
 40
0.004154
 41
0.004154
  0
VERTEX
  8
PLAN_1
 62
     2
  6
CONTINUOUS
 10
-2.082236
 20
3.465535
  0
VERTEX
  8
PLAN_1
 62
     2
  6
CONTINUOUS
 10
-2.082236
 20
3.393484
  0
SEQEND
  8
0
  0
POLYLINE
  8
PLAN_1
 62
     2
  6
CONTINUOUS
 66
     1
 40
0.004154
 41
0.004154
  0
VERTEX
  8
PLAN_1
 62
     2
  6
CONTINUOUS
 10
-2.082236
 20
3.020307
  0
VERTEX
  8
PLAN_1
 62
     2
  6
CONTINUOUS
 10
-2.082236
 20
3.158862
  0
SEQEND
  8
0
  0
ENDSEC
  0
EOF
