  0
SECTION
  2
HEADER
  9
$ACADVER
  1
AC1006
  9
$EXTMIN
 10
-1.993480
 20
-4.040882
  9
$EXTMAX
 10
1.997000
 20
4.035000
  9
$LTSCALE
 40
0.000394
  9
$PDMODE
 70
    35
  9
$PDSIZE
 40
0.000315
  0
ENDSEC
  0
SECTION
  2
TABLES
  0
TABLE
  2
LTYPE
 70
     9
  0
LTYPE
  2
CONTINUOUS
 70
    64
  3
Solid line
 72
    65
 73
     0
 40
0.000000
  0
LTYPE
  2
DASHED
 70
    64
  3
__ __ __ __ __ __ __ __ __ __ __ __ __ __ __
 72
    65
 73
     2
 40
0.000003
 49
0.000002
 49
-0.000001
  0
LTYPE
  2
HIDDEN
 70
    64
  3
 _ _ _ _ _ _ _ _ _ _ _ _ _ _ _ _ _ _ _ _ _ _
 72
    65
 73
     2
 40
0.000001
 49
0.000001
 49
-0.000000
  0
LTYPE
  2
CENTER
 70
    64
  3
____ _ ____ _ ____ _ ____ _ ____ _ ____ _ ____
 72
    65
 73
     4
 40
0.000008
 49
0.000005
 49
-0.000001
 49
0.000001
 49
-0.000001
  0
LTYPE
  2
PHANTOM
 70
    64
  3
_____ _ _ _____ _ _ _____ _ _ _____ _ _ ____
 72
    65
 73
     6
 40
0.000010
 49
0.000005
 49
-0.000001
 49
0.000001
 49
-0.000001
 49
0.000001
 49
-0.000001
  0
LTYPE
  2
DOT
 70
    64
  3
...............................................
 72
    65
 73
     2
 40
0.000001
 49
0.000000
 49
-0.000001
  0
LTYPE
  2
DASHDOT
 70
    64
  3
__ . __ . __ . __ . __ . __ . __ . __ . __ . __
 72
    65
 73
     4
 40
0.000004
 49
0.000002
 49
-0.000001
 49
0.000000
 49
-0.000001
  0
LTYPE
  2
BORDER
 70
    64
  3
__ __ . __ __ . __ __ . __ __ . __ __ . __ __
 72
    65
 73
     6
 40
0.000007
 49
0.000002
 49
-0.000001
 49
0.000002
 49
-0.000001
 49
0.000000
 49
-0.000001
  0
LTYPE
  2
DIVIDE
 70
    64
  3
__ . . __ . . __ . . __ . . __ . . __ . . __
 72
    65
 73
     6
 40
0.000005
 49
0.000002
 49
-0.000001
 49
0.000000
 49
-0.000001
 49
0.000000
 49
-0.000001
  0
LTYPE
  2
DOTDOT
 70
    64
  3
 . .  . .  . .  . .  . .  . . 
 72
    65
 73
     5
 40
0.000002
 49
-0.000001
 49
0.000000
 49
-0.000001
 49
0.000000
 49
-0.000001
  0
ENDTAB
  0
TABLE
  2
STYLE
 70
     0
  0
ENDTAB
  0
TABLE
  2
LAYER
 70
     3
  0
LAYER
  2
FOREGROUND
 70
    64
 62
     7
  6
CONTINUOUS
  0
LAYER
  2
BACKGROUND
 70
    65
 62
    -7
  6
CONTINUOUS
  0
LAYER
  2
PLAN_1
 70
    64
 62
     7
  6
CONTINUOUS
  0
ENDTAB
  0
ENDSEC
  0
SECTION
  2
ENTITIES
  0
POLYLINE
  8
PLAN_1
  6
CONTINUOUS
 66
     1
 40
0.003000
 41
0.003000
  0
VERTEX
  8
PLAN_1
  6
CONTINUOUS
 10
0.136016
 20
-4.006055
  0
VERTEX
  8
PLAN_1
  6
CONTINUOUS
 10
-0.020457
 20
-4.006055
  0
VERTEX
  8
PLAN_1
  6
CONTINUOUS
 10
-0.020457
 20
-3.983846
  0
VERTEX
  8
PLAN_1
  6
CONTINUOUS
 10
0.101693
 20
-3.830909
  0
VERTEX
  8
PLAN_1
  6
CONTINUOUS
 10
-0.011370
 20
-3.830909
  0
VERTEX
  8
PLAN_1
  6
CONTINUOUS
 10
-0.011370
 20
-3.806681
  0
VERTEX
  8
PLAN_1
  6
CONTINUOUS
 10
0.136016
 20
-3.806681
  0
VERTEX
  8
PLAN_1
  6
CONTINUOUS
 10
0.136016
 20
-3.830406
  0
VERTEX
  8
PLAN_1
  6
CONTINUOUS
 10
0.013362
 20
-3.982331
  0
VERTEX
  8
PLAN_1
  6
CONTINUOUS
 10
0.136016
 20
-3.982331
  0
VERTEX
  8
PLAN_1
  6
CONTINUOUS
 10
0.136016
 20
-4.006055
  0
SEQEND
  8
0
  0
POLYLINE
  8
PLAN_1
  6
CONTINUOUS
 66
     1
 40
0.003000
 41
0.003000
  0
VERTEX
  8
PLAN_1
  6
CONTINUOUS
 10
0.303587
 20
-3.866744
  0
VERTEX
  8
PLAN_1
  6
CONTINUOUS
 10
0.302075
 20
-3.860689
  0
VERTEX
  8
PLAN_1
  6
CONTINUOUS
 10
0.300055
 20
-3.855138
  0
VERTEX
  8
PLAN_1
  6
CONTINUOUS
 10
0.297531
 20
-3.850091
  0
VERTEX
  8
PLAN_1
  6
CONTINUOUS
 10
0.294504
 20
-3.845547
  0
VERTEX
  8
PLAN_1
  6
CONTINUOUS
 10
0.291476
 20
-3.841508
  0
VERTEX
  8
PLAN_1
  6
CONTINUOUS
 10
0.287941
 20
-3.838480
  0
VERTEX
  8
PLAN_1
  6
CONTINUOUS
 10
0.283902
 20
-3.835453
  0
VERTEX
  8
PLAN_1
  6
CONTINUOUS
 10
0.279866
 20
-3.832929
  0
VERTEX
  8
PLAN_1
  6
CONTINUOUS
 10
0.275827
 20
-3.830909
  0
VERTEX
  8
PLAN_1
  6
CONTINUOUS
 10
0.271791
 20
-3.829394
  0
VERTEX
  8
PLAN_1
  6
CONTINUOUS
 10
0.267752
 20
-3.827882
  0
VERTEX
  8
PLAN_1
  6
CONTINUOUS
 10
0.263713
 20
-3.826870
  0
VERTEX
  8
PLAN_1
  6
CONTINUOUS
 10
0.255638
 20
-3.825862
  0
VERTEX
  8
PLAN_1
  6
CONTINUOUS
 10
0.248067
 20
-3.825358
  0
VERTEX
  8
PLAN_1
  6
CONTINUOUS
 10
0.241000
 20
-3.825862
  0
VERTEX
  8
PLAN_1
  6
CONTINUOUS
 10
0.234437
 20
-3.826870
  0
VERTEX
  8
PLAN_1
  6
CONTINUOUS
 10
0.228382
 20
-3.828386
  0
VERTEX
  8
PLAN_1
  6
CONTINUOUS
 10
0.222327
 20
-3.830406
  0
VERTEX
  8
PLAN_1
  6
CONTINUOUS
 10
0.216772
 20
-3.833433
  0
VERTEX
  8
PLAN_1
  6
CONTINUOUS
 10
0.211220
 20
-3.836461
  0
VERTEX
  8
PLAN_1
  6
CONTINUOUS
 10
0.206173
 20
-3.840500
  0
VERTEX
  8
PLAN_1
  6
CONTINUOUS
 10
0.201630
 20
-3.845547
  0
VERTEX
  8
PLAN_1
  6
CONTINUOUS
 10
0.197591
 20
-3.850594
  0
VERTEX
  8
PLAN_1
  6
CONTINUOUS
 10
0.193555
 20
-3.856650
  0
VERTEX
  8
PLAN_1
  6
CONTINUOUS
 10
0.190528
 20
-3.863213
  0
VERTEX
  8
PLAN_1
  6
CONTINUOUS
 10
0.187496
 20
-3.870280
  0
VERTEX
  8
PLAN_1
  6
CONTINUOUS
 10
0.185480
 20
-3.877850
  0
VERTEX
  8
PLAN_1
  6
CONTINUOUS
 10
0.183965
 20
-3.885925
  0
VERTEX
  8
PLAN_1
  6
CONTINUOUS
 10
0.182957
 20
-3.895012
  0
VERTEX
  8
PLAN_1
  6
CONTINUOUS
 10
0.182449
 20
-3.904602
  0
VERTEX
  8
PLAN_1
  6
CONTINUOUS
 10
0.182957
 20
-3.913181
  0
VERTEX
  8
PLAN_1
  6
CONTINUOUS
 10
0.183461
 20
-3.921764
  0
VERTEX
  8
PLAN_1
  6
CONTINUOUS
 10
0.184469
 20
-3.929839
  0
VERTEX
  8
PLAN_1
  6
CONTINUOUS
 10
0.185984
 20
-3.937409
  0
VERTEX
  8
PLAN_1
  6
CONTINUOUS
 10
0.188004
 20
-3.944476
  0
VERTEX
  8
PLAN_1
  6
CONTINUOUS
 10
0.190528
 20
-3.951543
  0
VERTEX
  8
PLAN_1
  6
CONTINUOUS
 10
0.193555
 20
-3.957598
  0
VERTEX
  8
PLAN_1
  6
CONTINUOUS
 10
0.197087
 20
-3.963657
  0
VERTEX
  8
PLAN_1
  6
CONTINUOUS
 10
0.201126
 20
-3.969209
  0
VERTEX
  8
PLAN_1
  6
CONTINUOUS
 10
0.206173
 20
-3.973752
  0
VERTEX
  8
PLAN_1
  6
CONTINUOUS
 10
0.211220
 20
-3.977787
  0
VERTEX
  8
PLAN_1
  6
CONTINUOUS
 10
0.217276
 20
-3.981323
  0
VERTEX
  8
PLAN_1
  6
CONTINUOUS
 10
0.224343
 20
-3.983846
  0
VERTEX
  8
PLAN_1
  6
CONTINUOUS
 10
0.231409
 20
-3.985866
  0
VERTEX
  8
PLAN_1
  6
CONTINUOUS
 10
0.239992
 20
-3.987378
  0
VERTEX
  8
PLAN_1
  6
CONTINUOUS
 10
0.248571
 20
-3.987378
  0
VERTEX
  8
PLAN_1
  6
CONTINUOUS
 10
0.252106
 20
-3.987378
  0
VERTEX
  8
PLAN_1
  6
CONTINUOUS
 10
0.255638
 20
-3.987378
  0
VERTEX
  8
PLAN_1
  6
CONTINUOUS
 10
0.259677
 20
-3.986370
  0
VERTEX
  8
PLAN_1
  6
CONTINUOUS
 10
0.263713
 20
-3.985362
  0
VERTEX
  8
PLAN_1
  6
CONTINUOUS
 10
0.267752
 20
-3.984350
  0
VERTEX
  8
PLAN_1
  6
CONTINUOUS
 10
0.271791
 20
-3.982331
  0
VERTEX
  8
PLAN_1
  6
CONTINUOUS
 10
0.276331
 20
-3.980315
  0
VERTEX
  8
PLAN_1
  6
CONTINUOUS
 10
0.280370
 20
-3.977787
  0
VERTEX
  8
PLAN_1
  6
CONTINUOUS
 10
0.284409
 20
-3.974256
  0
VERTEX
  8
PLAN_1
  6
CONTINUOUS
 10
0.287941
 20
-3.970724
  0
VERTEX
  8
PLAN_1
  6
CONTINUOUS
 10
0.291980
 20
-3.966181
  0
VERTEX
  8
PLAN_1
  6
CONTINUOUS
 10
0.295512
 20
-3.961134
  0
VERTEX
  8
PLAN_1
  6
CONTINUOUS
 10
0.298539
 20
-3.955075
  0
VERTEX
  8
PLAN_1
  6
CONTINUOUS
 10
0.301063
 20
-3.948516
  0
VERTEX
  8
PLAN_1
  6
CONTINUOUS
 10
0.303587
 20
-3.940945
  0
VERTEX
  8
PLAN_1
  6
CONTINUOUS
 10
0.305606
 20
-3.932866
  0
VERTEX
  8
PLAN_1
  6
CONTINUOUS
 10
0.331854
 20
-3.932866
  0
VERTEX
  8
PLAN_1
  6
CONTINUOUS
 10
0.330339
 20
-3.939933
  0
VERTEX
  8
PLAN_1
  6
CONTINUOUS
 10
0.328827
 20
-3.945992
  0
VERTEX
  8
PLAN_1
  6
CONTINUOUS
 10
0.327311
 20
-3.952047
  0
VERTEX
  8
PLAN_1
  6
CONTINUOUS
 10
0.325291
 20
-3.958106
  0
VERTEX
  8
PLAN_1
  6
CONTINUOUS
 10
0.323272
 20
-3.963154
  0
VERTEX
  8
PLAN_1
  6
CONTINUOUS
 10
0.320748
 20
-3.968201
  0
VERTEX
  8
PLAN_1
  6
CONTINUOUS
 10
0.318224
 20
-3.972740
  0
VERTEX
  8
PLAN_1
  6
CONTINUOUS
 10
0.315701
 20
-3.976780
  0
VERTEX
  8
PLAN_1
  6
CONTINUOUS
 10
0.312673
 20
-3.980819
  0
VERTEX
  8
PLAN_1
  6
CONTINUOUS
 10
0.309646
 20
-3.984350
  0
VERTEX
  8
PLAN_1
  6
CONTINUOUS
 10
0.306618
 20
-3.987886
  0
VERTEX
  8
PLAN_1
  6
CONTINUOUS
 10
0.303083
 20
-3.990913
  0
VERTEX
  8
PLAN_1
  6
CONTINUOUS
 10
0.296524
 20
-3.995961
  0
VERTEX
  8
PLAN_1
  6
CONTINUOUS
 10
0.289457
 20
-4.000504
  0
VERTEX
  8
PLAN_1
  6
CONTINUOUS
 10
0.282390
 20
-4.004035
  0
VERTEX
  8
PLAN_1
  6
CONTINUOUS
 10
0.275827
 20
-4.006559
  0
VERTEX
  8
PLAN_1
  6
CONTINUOUS
 10
0.269268
 20
-4.008579
  0
VERTEX
  8
PLAN_1
  6
CONTINUOUS
 10
0.262705
 20
-4.009587
  0
VERTEX
  8
PLAN_1
  6
CONTINUOUS
 10
0.252106
 20
-4.011102
  0
VERTEX
  8
PLAN_1
  6
CONTINUOUS
 10
0.244535
 20
-4.011606
  0
VERTEX
  8
PLAN_1
  6
CONTINUOUS
 10
0.235953
 20
-4.011102
  0
VERTEX
  8
PLAN_1
  6
CONTINUOUS
 10
0.227878
 20
-4.010094
  0
VERTEX
  8
PLAN_1
  6
CONTINUOUS
 10
0.219295
 20
-4.008075
  0
VERTEX
  8
PLAN_1
  6
CONTINUOUS
 10
0.211220
 20
-4.005551
  0
VERTEX
  8
PLAN_1
  6
CONTINUOUS
 10
0.203650
 20
-4.002524
  0
VERTEX
  8
PLAN_1
  6
CONTINUOUS
 10
0.196079
 20
-3.997980
  0
VERTEX
  8
PLAN_1
  6
CONTINUOUS
 10
0.189012
 20
-3.992933
  0
VERTEX
  8
PLAN_1
  6
CONTINUOUS
 10
0.182957
 20
-3.987378
  0
VERTEX
  8
PLAN_1
  6
CONTINUOUS
 10
0.179421
 20
-3.983846
  0
VERTEX
  8
PLAN_1
  6
CONTINUOUS
 10
0.176898
 20
-3.980315
  0
VERTEX
  8
PLAN_1
  6
CONTINUOUS
 10
0.173870
 20
-3.976780
  0
VERTEX
  8
PLAN_1
  6
CONTINUOUS
 10
0.171346
 20
-3.972740
  0
VERTEX
  8
PLAN_1
  6
CONTINUOUS
 10
0.168823
 20
-3.968201
  0
VERTEX
  8
PLAN_1
  6
CONTINUOUS
 10
0.166299
 20
-3.964161
  0
VERTEX
  8
PLAN_1
  6
CONTINUOUS
 10
0.164280
 20
-3.959114
  0
VERTEX
  8
PLAN_1
  6
CONTINUOUS
 10
0.162260
 20
-3.954571
  0
VERTEX
  8
PLAN_1
  6
CONTINUOUS
 10
0.160748
 20
-3.949020
  0
VERTEX
  8
PLAN_1
  6
CONTINUOUS
 10
0.159232
 20
-3.943469
  0
VERTEX
  8
PLAN_1
  6
CONTINUOUS
 10
0.157717
 20
-3.937913
  0
VERTEX
  8
PLAN_1
  6
CONTINUOUS
 10
0.156709
 20
-3.931858
  0
VERTEX
  8
PLAN_1
  6
CONTINUOUS
 10
0.156205
 20
-3.925799
  0
VERTEX
  8
PLAN_1
  6
CONTINUOUS
 10
0.155193
 20
-3.919240
  0
VERTEX
  8
PLAN_1
  6
CONTINUOUS
 10
0.155193
 20
-3.912677
  0
VERTEX
  8
PLAN_1
  6
CONTINUOUS
 10
0.154689
 20
-3.905610
  0
VERTEX
  8
PLAN_1
  6
CONTINUOUS
 10
0.155193
 20
-3.894004
  0
VERTEX
  8
PLAN_1
  6
CONTINUOUS
 10
0.156709
 20
-3.883402
  0
VERTEX
  8
PLAN_1
  6
CONTINUOUS
 10
0.158224
 20
-3.873307
  0
VERTEX
  8
PLAN_1
  6
CONTINUOUS
 10
0.161252
 20
-3.863213
  0
VERTEX
  8
PLAN_1
  6
CONTINUOUS
 10
0.164783
 20
-3.854126
  0
VERTEX
  8
PLAN_1
  6
CONTINUOUS
 10
0.168823
 20
-3.845547
  0
VERTEX
  8
PLAN_1
  6
CONTINUOUS
 10
0.173870
 20
-3.837976
  0
VERTEX
  8
PLAN_1
  6
CONTINUOUS
 10
0.179421
 20
-3.830406
  0
VERTEX
  8
PLAN_1
  6
CONTINUOUS
 10
0.185984
 20
-3.823843
  0
VERTEX
  8
PLAN_1
  6
CONTINUOUS
 10
0.193051
 20
-3.818291
  0
VERTEX
  8
PLAN_1
  6
CONTINUOUS
 10
0.196583
 20
-3.815768
  0
VERTEX
  8
PLAN_1
  6
CONTINUOUS
 10
0.200622
 20
-3.813244
  0
VERTEX
  8
PLAN_1
  6
CONTINUOUS
 10
0.204657
 20
-3.811224
  0
VERTEX
  8
PLAN_1
  6
CONTINUOUS
 10
0.208697
 20
-3.809205
  0
VERTEX
  8
PLAN_1
  6
CONTINUOUS
 10
0.213240
 20
-3.807693
  0
VERTEX
  8
PLAN_1
  6
CONTINUOUS
 10
0.217783
 20
-3.806177
  0
VERTEX
  8
PLAN_1
  6
CONTINUOUS
 10
0.222327
 20
-3.804661
  0
VERTEX
  8
PLAN_1
  6
CONTINUOUS
 10
0.227374
 20
-3.803654
  0
VERTEX
  8
PLAN_1
  6
CONTINUOUS
 10
0.237469
 20
-3.802138
  0
VERTEX
  8
PLAN_1
  6
CONTINUOUS
 10
0.248067
 20
-3.801634
  0
VERTEX
  8
PLAN_1
  6
CONTINUOUS
 10
0.257154
 20
-3.802138
  0
VERTEX
  8
PLAN_1
  6
CONTINUOUS
 10
0.265732
 20
-3.803150
  0
VERTEX
  8
PLAN_1
  6
CONTINUOUS
 10
0.274315
 20
-3.804661
  0
VERTEX
  8
PLAN_1
  6
CONTINUOUS
 10
0.281886
 20
-3.807185
  0
VERTEX
  8
PLAN_1
  6
CONTINUOUS
 10
0.288953
 20
-3.810217
  0
VERTEX
  8
PLAN_1
  6
CONTINUOUS
 10
0.295512
 20
-3.813244
  0
VERTEX
  8
PLAN_1
  6
CONTINUOUS
 10
0.301063
 20
-3.817280
  0
VERTEX
  8
PLAN_1
  6
CONTINUOUS
 10
0.306618
 20
-3.821823
  0
VERTEX
  8
PLAN_1
  6
CONTINUOUS
 10
0.311161
 20
-3.826366
  0
VERTEX
  8
PLAN_1
  6
CONTINUOUS
 10
0.315701
 20
-3.831413
  0
VERTEX
  8
PLAN_1
  6
CONTINUOUS
 10
0.319236
 20
-3.836965
  0
VERTEX
  8
PLAN_1
  6
CONTINUOUS
 10
0.322264
 20
-3.842520
  0
VERTEX
  8
PLAN_1
  6
CONTINUOUS
 10
0.325291
 20
-3.848575
  0
VERTEX
  8
PLAN_1
  6
CONTINUOUS
 10
0.327311
 20
-3.854634
  0
VERTEX
  8
PLAN_1
  6
CONTINUOUS
 10
0.328827
 20
-3.860689
  0
VERTEX
  8
PLAN_1
  6
CONTINUOUS
 10
0.329835
 20
-3.866744
  0
VERTEX
  8
PLAN_1
  6
CONTINUOUS
 10
0.303587
 20
-3.866744
  0
SEQEND
  8
0
  0
POLYLINE
  8
PLAN_1
  6
CONTINUOUS
 66
     1
 40
0.003000
 41
0.003000
  0
VERTEX
  8
PLAN_1
  6
CONTINUOUS
 10
0.390909
 20
-4.006055
  0
VERTEX
  8
PLAN_1
  6
CONTINUOUS
 10
0.364157
 20
-4.006055
  0
VERTEX
  8
PLAN_1
  6
CONTINUOUS
 10
0.364157
 20
-3.806681
  0
VERTEX
  8
PLAN_1
  6
CONTINUOUS
 10
0.390909
 20
-3.806681
  0
VERTEX
  8
PLAN_1
  6
CONTINUOUS
 10
0.390909
 20
-3.903591
  0
VERTEX
  8
PLAN_1
  6
CONTINUOUS
 10
0.487819
 20
-3.806681
  0
VERTEX
  8
PLAN_1
  6
CONTINUOUS
 10
0.525169
 20
-3.806681
  0
VERTEX
  8
PLAN_1
  6
CONTINUOUS
 10
0.441890
 20
-3.887441
  0
VERTEX
  8
PLAN_1
  6
CONTINUOUS
 10
0.527189
 20
-4.006055
  0
VERTEX
  8
PLAN_1
  6
CONTINUOUS
 10
0.492362
 20
-4.006055
  0
VERTEX
  8
PLAN_1
  6
CONTINUOUS
 10
0.422709
 20
-3.906114
  0
VERTEX
  8
PLAN_1
  6
CONTINUOUS
 10
0.390909
 20
-3.936402
  0
VERTEX
  8
PLAN_1
  6
CONTINUOUS
 10
0.390909
 20
-4.006055
  0
SEQEND
  8
0
  0
POLYLINE
  8
PLAN_1
  6
CONTINUOUS
 66
     1
 40
0.003000
 41
0.003000
  0
VERTEX
  8
PLAN_1
  6
CONTINUOUS
 10
0.699307
 20
-4.006055
  0
VERTEX
  8
PLAN_1
  6
CONTINUOUS
 10
0.552425
 20
-4.006055
  0
VERTEX
  8
PLAN_1
  6
CONTINUOUS
 10
0.552425
 20
-3.806681
  0
VERTEX
  8
PLAN_1
  6
CONTINUOUS
 10
0.697287
 20
-3.806681
  0
VERTEX
  8
PLAN_1
  6
CONTINUOUS
 10
0.697287
 20
-3.830909
  0
VERTEX
  8
PLAN_1
  6
CONTINUOUS
 10
0.579177
 20
-3.830909
  0
VERTEX
  8
PLAN_1
  6
CONTINUOUS
 10
0.579177
 20
-3.891984
  0
VERTEX
  8
PLAN_1
  6
CONTINUOUS
 10
0.688201
 20
-3.891984
  0
VERTEX
  8
PLAN_1
  6
CONTINUOUS
 10
0.688201
 20
-3.915705
  0
VERTEX
  8
PLAN_1
  6
CONTINUOUS
 10
0.579177
 20
-3.915705
  0
VERTEX
  8
PLAN_1
  6
CONTINUOUS
 10
0.579177
 20
-3.982331
  0
VERTEX
  8
PLAN_1
  6
CONTINUOUS
 10
0.699307
 20
-3.982331
  0
VERTEX
  8
PLAN_1
  6
CONTINUOUS
 10
0.699307
 20
-4.006055
  0
SEQEND
  8
0
  0
POLYLINE
  8
PLAN_1
  6
CONTINUOUS
 66
     1
 40
0.003000
 41
0.003000
  0
VERTEX
  8
PLAN_1
  6
CONTINUOUS
 10
0.790665
 20
-4.011606
  0
VERTEX
  8
PLAN_1
  6
CONTINUOUS
 10
0.785618
 20
-4.011102
  0
VERTEX
  8
PLAN_1
  6
CONTINUOUS
 10
0.780571
 20
-4.010598
  0
VERTEX
  8
PLAN_1
  6
CONTINUOUS
 10
0.776028
 20
-4.010094
  0
VERTEX
  8
PLAN_1
  6
CONTINUOUS
 10
0.771988
 20
-4.008579
  0
VERTEX
  8
PLAN_1
  6
CONTINUOUS
 10
0.767449
 20
-4.007571
  0
VERTEX
  8
PLAN_1
  6
CONTINUOUS
 10
0.763913
 20
-4.005551
  0
VERTEX
  8
PLAN_1
  6
CONTINUOUS
 10
0.759874
 20
-4.003531
  0
VERTEX
  8
PLAN_1
  6
CONTINUOUS
 10
0.756846
 20
-4.001512
  0
VERTEX
  8
PLAN_1
  6
CONTINUOUS
 10
0.753315
 20
-3.998988
  0
VERTEX
  8
PLAN_1
  6
CONTINUOUS
 10
0.750287
 20
-3.996465
  0
VERTEX
  8
PLAN_1
  6
CONTINUOUS
 10
0.747764
 20
-3.993437
  0
VERTEX
  8
PLAN_1
  6
CONTINUOUS
 10
0.744732
 20
-3.990409
  0
VERTEX
  8
PLAN_1
  6
CONTINUOUS
 10
0.740189
 20
-3.983846
  0
VERTEX
  8
PLAN_1
  6
CONTINUOUS
 10
0.736154
 20
-3.976780
  0
VERTEX
  8
PLAN_1
  6
CONTINUOUS
 10
0.733126
 20
-3.968705
  0
VERTEX
  8
PLAN_1
  6
CONTINUOUS
 10
0.730094
 20
-3.960630
  0
VERTEX
  8
PLAN_1
  6
CONTINUOUS
 10
0.728079
 20
-3.952551
  0
VERTEX
  8
PLAN_1
  6
CONTINUOUS
 10
0.726563
 20
-3.943972
  0
VERTEX
  8
PLAN_1
  6
CONTINUOUS
 10
0.725047
 20
-3.935390
  0
VERTEX
  8
PLAN_1
  6
CONTINUOUS
 10
0.724543
 20
-3.927315
  0
VERTEX
  8
PLAN_1
  6
CONTINUOUS
 10
0.724039
 20
-3.919240
  0
VERTEX
  8
PLAN_1
  6
CONTINUOUS
 10
0.724039
 20
-3.911161
  0
VERTEX
  8
PLAN_1
  6
CONTINUOUS
 10
0.724039
 20
-3.903591
  0
VERTEX
  8
PLAN_1
  6
CONTINUOUS
 10
0.724543
 20
-3.895516
  0
VERTEX
  8
PLAN_1
  6
CONTINUOUS
 10
0.725047
 20
-3.886937
  0
VERTEX
  8
PLAN_1
  6
CONTINUOUS
 10
0.726563
 20
-3.878354
  0
VERTEX
  8
PLAN_1
  6
CONTINUOUS
 10
0.728079
 20
-3.870280
  0
VERTEX
  8
PLAN_1
  6
CONTINUOUS
 10
0.730094
 20
-3.861697
  0
VERTEX
  8
PLAN_1
  6
CONTINUOUS
 10
0.733126
 20
-3.853622
  0
VERTEX
  8
PLAN_1
  6
CONTINUOUS
 10
0.736154
 20
-3.846051
  0
VERTEX
  8
PLAN_1
  6
CONTINUOUS
 10
0.740189
 20
-3.838480
  0
VERTEX
  8
PLAN_1
  6
CONTINUOUS
 10
0.744732
 20
-3.831917
  0
VERTEX
  8
PLAN_1
  6
CONTINUOUS
 10
0.747764
 20
-3.828890
  0
VERTEX
  8
PLAN_1
  6
CONTINUOUS
 10
0.750287
 20
-3.826366
  0
VERTEX
  8
PLAN_1
  6
CONTINUOUS
 10
0.753315
 20
-3.823339
  0
VERTEX
  8
PLAN_1
  6
CONTINUOUS
 10
0.756846
 20
-3.820815
  0
VERTEX
  8
PLAN_1
  6
CONTINUOUS
 10
0.759874
 20
-3.818795
  0
VERTEX
  8
PLAN_1
  6
CONTINUOUS
 10
0.763913
 20
-3.816776
  0
VERTEX
  8
PLAN_1
  6
CONTINUOUS
 10
0.767449
 20
-3.815264
  0
VERTEX
  8
PLAN_1
  6
CONTINUOUS
 10
0.771988
 20
-3.813748
  0
VERTEX
  8
PLAN_1
  6
CONTINUOUS
 10
0.776028
 20
-3.812740
  0
VERTEX
  8
PLAN_1
  6
CONTINUOUS
 10
0.780571
 20
-3.811728
  0
VERTEX
  8
PLAN_1
  6
CONTINUOUS
 10
0.785618
 20
-3.811224
  0
VERTEX
  8
PLAN_1
  6
CONTINUOUS
 10
0.790665
 20
-3.811224
  0
VERTEX
  8
PLAN_1
  6
CONTINUOUS
 10
0.795713
 20
-3.811224
  0
VERTEX
  8
PLAN_1
  6
CONTINUOUS
 10
0.800760
 20
-3.811728
  0
VERTEX
  8
PLAN_1
  6
CONTINUOUS
 10
0.805303
 20
-3.812740
  0
VERTEX
  8
PLAN_1
  6
CONTINUOUS
 10
0.809846
 20
-3.813748
  0
VERTEX
  8
PLAN_1
  6
CONTINUOUS
 10
0.813882
 20
-3.815264
  0
VERTEX
  8
PLAN_1
  6
CONTINUOUS
 10
0.817921
 20
-3.816776
  0
VERTEX
  8
PLAN_1
  6
CONTINUOUS
 10
0.821453
 20
-3.818795
  0
VERTEX
  8
PLAN_1
  6
CONTINUOUS
 10
0.824988
 20
-3.820815
  0
VERTEX
  8
PLAN_1
  6
CONTINUOUS
 10
0.828016
 20
-3.823339
  0
VERTEX
  8
PLAN_1
  6
CONTINUOUS
 10
0.831043
 20
-3.826366
  0
VERTEX
  8
PLAN_1
  6
CONTINUOUS
 10
0.834075
 20
-3.828890
  0
VERTEX
  8
PLAN_1
  6
CONTINUOUS
 10
0.836598
 20
-3.831917
  0
VERTEX
  8
PLAN_1
  6
CONTINUOUS
 10
0.841138
 20
-3.838480
  0
VERTEX
  8
PLAN_1
  6
CONTINUOUS
 10
0.845177
 20
-3.846051
  0
VERTEX
  8
PLAN_1
  6
CONTINUOUS
 10
0.848709
 20
-3.853622
  0
VERTEX
  8
PLAN_1
  6
CONTINUOUS
 10
0.851232
 20
-3.861697
  0
VERTEX
  8
PLAN_1
  6
CONTINUOUS
 10
0.853252
 20
-3.870280
  0
VERTEX
  8
PLAN_1
  6
CONTINUOUS
 10
0.855272
 20
-3.878354
  0
VERTEX
  8
PLAN_1
  6
CONTINUOUS
 10
0.856283
 20
-3.886937
  0
VERTEX
  8
PLAN_1
  6
CONTINUOUS
 10
0.857291
 20
-3.895516
  0
VERTEX
  8
PLAN_1
  6
CONTINUOUS
 10
0.857291
 20
-3.903591
  0
VERTEX
  8
PLAN_1
  6
CONTINUOUS
 10
0.857795
 20
-3.911161
  0
VERTEX
  8
PLAN_1
  6
CONTINUOUS
 10
0.857291
 20
-3.919240
  0
VERTEX
  8
PLAN_1
  6
CONTINUOUS
 10
0.857291
 20
-3.927315
  0
VERTEX
  8
PLAN_1
  6
CONTINUOUS
 10
0.856283
 20
-3.935390
  0
VERTEX
  8
PLAN_1
  6
CONTINUOUS
 10
0.855272
 20
-3.943972
  0
VERTEX
  8
PLAN_1
  6
CONTINUOUS
 10
0.853252
 20
-3.952551
  0
VERTEX
  8
PLAN_1
  6
CONTINUOUS
 10
0.851232
 20
-3.960630
  0
VERTEX
  8
PLAN_1
  6
CONTINUOUS
 10
0.848709
 20
-3.968705
  0
VERTEX
  8
PLAN_1
  6
CONTINUOUS
 10
0.845177
 20
-3.976780
  0
VERTEX
  8
PLAN_1
  6
CONTINUOUS
 10
0.841138
 20
-3.983846
  0
VERTEX
  8
PLAN_1
  6
CONTINUOUS
 10
0.836598
 20
-3.990409
  0
VERTEX
  8
PLAN_1
  6
CONTINUOUS
 10
0.834075
 20
-3.993437
  0
VERTEX
  8
PLAN_1
  6
CONTINUOUS
 10
0.831043
 20
-3.996465
  0
VERTEX
  8
PLAN_1
  6
CONTINUOUS
 10
0.828016
 20
-3.998988
  0
VERTEX
  8
PLAN_1
  6
CONTINUOUS
 10
0.824988
 20
-4.001512
  0
VERTEX
  8
PLAN_1
  6
CONTINUOUS
 10
0.821453
 20
-4.003531
  0
VERTEX
  8
PLAN_1
  6
CONTINUOUS
 10
0.817921
 20
-4.005551
  0
VERTEX
  8
PLAN_1
  6
CONTINUOUS
 10
0.813882
 20
-4.007571
  0
VERTEX
  8
PLAN_1
  6
CONTINUOUS
 10
0.809846
 20
-4.008579
  0
VERTEX
  8
PLAN_1
  6
CONTINUOUS
 10
0.805303
 20
-4.010094
  0
VERTEX
  8
PLAN_1
  6
CONTINUOUS
 10
0.800760
 20
-4.010598
  0
VERTEX
  8
PLAN_1
  6
CONTINUOUS
 10
0.795713
 20
-4.011102
  0
VERTEX
  8
PLAN_1
  6
CONTINUOUS
 10
0.790665
 20
-4.011606
  0
SEQEND
  8
0
  0
POLYLINE
  8
PLAN_1
  6
CONTINUOUS
 66
     1
 40
0.003000
 41
0.003000
  0
VERTEX
  8
PLAN_1
  6
CONTINUOUS
 10
0.790665
 20
-3.832929
  0
VERTEX
  8
PLAN_1
  6
CONTINUOUS
 10
0.785618
 20
-3.833433
  0
VERTEX
  8
PLAN_1
  6
CONTINUOUS
 10
0.781075
 20
-3.834441
  0
VERTEX
  8
PLAN_1
  6
CONTINUOUS
 10
0.776531
 20
-3.835957
  0
VERTEX
  8
PLAN_1
  6
CONTINUOUS
 10
0.772496
 20
-3.838480
  0
VERTEX
  8
PLAN_1
  6
CONTINUOUS
 10
0.768961
 20
-3.841508
  0
VERTEX
  8
PLAN_1
  6
CONTINUOUS
 10
0.765429
 20
-3.845043
  0
VERTEX
  8
PLAN_1
  6
CONTINUOUS
 10
0.762398
 20
-3.849079
  0
VERTEX
  8
PLAN_1
  6
CONTINUOUS
 10
0.759874
 20
-3.853622
  0
VERTEX
  8
PLAN_1
  6
CONTINUOUS
 10
0.757350
 20
-3.859173
  0
VERTEX
  8
PLAN_1
  6
CONTINUOUS
 10
0.755335
 20
-3.865232
  0
VERTEX
  8
PLAN_1
  6
CONTINUOUS
 10
0.753819
 20
-3.871287
  0
VERTEX
  8
PLAN_1
  6
CONTINUOUS
 10
0.752303
 20
-3.878354
  0
VERTEX
  8
PLAN_1
  6
CONTINUOUS
 10
0.751295
 20
-3.885925
  0
VERTEX
  8
PLAN_1
  6
CONTINUOUS
 10
0.750791
 20
-3.894004
  0
VERTEX
  8
PLAN_1
  6
CONTINUOUS
 10
0.750287
 20
-3.902079
  0
VERTEX
  8
PLAN_1
  6
CONTINUOUS
 10
0.749780
 20
-3.911161
  0
VERTEX
  8
PLAN_1
  6
CONTINUOUS
 10
0.750287
 20
-3.920248
  0
VERTEX
  8
PLAN_1
  6
CONTINUOUS
 10
0.750791
 20
-3.928831
  0
VERTEX
  8
PLAN_1
  6
CONTINUOUS
 10
0.751295
 20
-3.936402
  0
VERTEX
  8
PLAN_1
  6
CONTINUOUS
 10
0.752303
 20
-3.943972
  0
VERTEX
  8
PLAN_1
  6
CONTINUOUS
 10
0.753819
 20
-3.951039
  0
VERTEX
  8
PLAN_1
  6
CONTINUOUS
 10
0.755335
 20
-3.957598
  0
VERTEX
  8
PLAN_1
  6
CONTINUOUS
 10
0.757350
 20
-3.963154
  0
VERTEX
  8
PLAN_1
  6
CONTINUOUS
 10
0.759874
 20
-3.968705
  0
VERTEX
  8
PLAN_1
  6
CONTINUOUS
 10
0.762398
 20
-3.973248
  0
VERTEX
  8
PLAN_1
  6
CONTINUOUS
 10
0.765429
 20
-3.977787
  0
VERTEX
  8
PLAN_1
  6
CONTINUOUS
 10
0.768961
 20
-3.981323
  0
VERTEX
  8
PLAN_1
  6
CONTINUOUS
 10
0.772496
 20
-3.984350
  0
VERTEX
  8
PLAN_1
  6
CONTINUOUS
 10
0.776531
 20
-3.986370
  0
VERTEX
  8
PLAN_1
  6
CONTINUOUS
 10
0.781075
 20
-3.988390
  0
VERTEX
  8
PLAN_1
  6
CONTINUOUS
 10
0.785618
 20
-3.989398
  0
VERTEX
  8
PLAN_1
  6
CONTINUOUS
 10
0.790665
 20
-3.989398
  0
VERTEX
  8
PLAN_1
  6
CONTINUOUS
 10
0.795713
 20
-3.989398
  0
VERTEX
  8
PLAN_1
  6
CONTINUOUS
 10
0.800760
 20
-3.988390
  0
VERTEX
  8
PLAN_1
  6
CONTINUOUS
 10
0.804799
 20
-3.986370
  0
VERTEX
  8
PLAN_1
  6
CONTINUOUS
 10
0.808835
 20
-3.984350
  0
VERTEX
  8
PLAN_1
  6
CONTINUOUS
 10
0.812874
 20
-3.981323
  0
VERTEX
  8
PLAN_1
  6
CONTINUOUS
 10
0.815902
 20
-3.977787
  0
VERTEX
  8
PLAN_1
  6
CONTINUOUS
 10
0.818929
 20
-3.973248
  0
VERTEX
  8
PLAN_1
  6
CONTINUOUS
 10
0.821453
 20
-3.968705
  0
VERTEX
  8
PLAN_1
  6
CONTINUOUS
 10
0.823976
 20
-3.963154
  0
VERTEX
  8
PLAN_1
  6
CONTINUOUS
 10
0.825996
 20
-3.957598
  0
VERTEX
  8
PLAN_1
  6
CONTINUOUS
 10
0.827512
 20
-3.951039
  0
VERTEX
  8
PLAN_1
  6
CONTINUOUS
 10
0.829024
 20
-3.943972
  0
VERTEX
  8
PLAN_1
  6
CONTINUOUS
 10
0.830035
 20
-3.936402
  0
VERTEX
  8
PLAN_1
  6
CONTINUOUS
 10
0.831043
 20
-3.928831
  0
VERTEX
  8
PLAN_1
  6
CONTINUOUS
 10
0.831551
 20
-3.920248
  0
VERTEX
  8
PLAN_1
  6
CONTINUOUS
 10
0.831551
 20
-3.911161
  0
VERTEX
  8
PLAN_1
  6
CONTINUOUS
 10
0.831551
 20
-3.902079
  0
VERTEX
  8
PLAN_1
  6
CONTINUOUS
 10
0.831043
 20
-3.894004
  0
VERTEX
  8
PLAN_1
  6
CONTINUOUS
 10
0.830035
 20
-3.885925
  0
VERTEX
  8
PLAN_1
  6
CONTINUOUS
 10
0.829024
 20
-3.878354
  0
VERTEX
  8
PLAN_1
  6
CONTINUOUS
 10
0.827512
 20
-3.871287
  0
VERTEX
  8
PLAN_1
  6
CONTINUOUS
 10
0.825996
 20
-3.865232
  0
VERTEX
  8
PLAN_1
  6
CONTINUOUS
 10
0.823976
 20
-3.859173
  0
VERTEX
  8
PLAN_1
  6
CONTINUOUS
 10
0.821453
 20
-3.853622
  0
VERTEX
  8
PLAN_1
  6
CONTINUOUS
 10
0.818929
 20
-3.849079
  0
VERTEX
  8
PLAN_1
  6
CONTINUOUS
 10
0.815902
 20
-3.845043
  0
VERTEX
  8
PLAN_1
  6
CONTINUOUS
 10
0.812874
 20
-3.841508
  0
VERTEX
  8
PLAN_1
  6
CONTINUOUS
 10
0.808835
 20
-3.838480
  0
VERTEX
  8
PLAN_1
  6
CONTINUOUS
 10
0.804799
 20
-3.835957
  0
VERTEX
  8
PLAN_1
  6
CONTINUOUS
 10
0.800760
 20
-3.834441
  0
VERTEX
  8
PLAN_1
  6
CONTINUOUS
 10
0.795713
 20
-3.833433
  0
VERTEX
  8
PLAN_1
  6
CONTINUOUS
 10
0.790665
 20
-3.832929
  0
SEQEND
  8
0
  0
POLYLINE
  8
PLAN_1
  6
CONTINUOUS
 66
     1
 40
0.003000
 41
0.003000
  0
VERTEX
  8
PLAN_1
  6
CONTINUOUS
 10
0.983980
 20
-3.862709
  0
VERTEX
  8
PLAN_1
  6
CONTINUOUS
 10
0.982469
 20
-3.856650
  0
VERTEX
  8
PLAN_1
  6
CONTINUOUS
 10
0.979945
 20
-3.851098
  0
VERTEX
  8
PLAN_1
  6
CONTINUOUS
 10
0.978933
 20
-3.848575
  0
VERTEX
  8
PLAN_1
  6
CONTINUOUS
 10
0.977421
 20
-3.846051
  0
VERTEX
  8
PLAN_1
  6
CONTINUOUS
 10
0.975402
 20
-3.843528
  0
VERTEX
  8
PLAN_1
  6
CONTINUOUS
 10
0.973886
 20
-3.841508
  0
VERTEX
  8
PLAN_1
  6
CONTINUOUS
 10
0.971362
 20
-3.839488
  0
VERTEX
  8
PLAN_1
  6
CONTINUOUS
 10
0.969343
 20
-3.837976
  0
VERTEX
  8
PLAN_1
  6
CONTINUOUS
 10
0.966819
 20
-3.836461
  0
VERTEX
  8
PLAN_1
  6
CONTINUOUS
 10
0.963791
 20
-3.835453
  0
VERTEX
  8
PLAN_1
  6
CONTINUOUS
 10
0.960764
 20
-3.834441
  0
VERTEX
  8
PLAN_1
  6
CONTINUOUS
 10
0.957736
 20
-3.833433
  0
VERTEX
  8
PLAN_1
  6
CONTINUOUS
 10
0.954201
 20
-3.832929
  0
VERTEX
  8
PLAN_1
  6
CONTINUOUS
 10
0.950165
 20
-3.832929
  0
VERTEX
  8
PLAN_1
  6
CONTINUOUS
 10
0.946630
 20
-3.832929
  0
VERTEX
  8
PLAN_1
  6
CONTINUOUS
 10
0.943098
 20
-3.833433
  0
VERTEX
  8
PLAN_1
  6
CONTINUOUS
 10
0.940071
 20
-3.834441
  0
VERTEX
  8
PLAN_1
  6
CONTINUOUS
 10
0.937039
 20
-3.835453
  0
VERTEX
  8
PLAN_1
  6
CONTINUOUS
 10
0.934516
 20
-3.836461
  0
VERTEX
  8
PLAN_1
  6
CONTINUOUS
 10
0.931488
 20
-3.837976
  0
VERTEX
  8
PLAN_1
  6
CONTINUOUS
 10
0.928965
 20
-3.839488
  0
VERTEX
  8
PLAN_1
  6
CONTINUOUS
 10
0.926945
 20
-3.841508
  0
VERTEX
  8
PLAN_1
  6
CONTINUOUS
 10
0.922402
 20
-3.845547
  0
VERTEX
  8
PLAN_1
  6
CONTINUOUS
 10
0.918870
 20
-3.850594
  0
VERTEX
  8
PLAN_1
  6
CONTINUOUS
 10
0.915335
 20
-3.855642
  0
VERTEX
  8
PLAN_1
  6
CONTINUOUS
 10
0.912811
 20
-3.861193
  0
VERTEX
  8
PLAN_1
  6
CONTINUOUS
 10
0.910287
 20
-3.867252
  0
VERTEX
  8
PLAN_1
  6
CONTINUOUS
 10
0.908272
 20
-3.873307
  0
VERTEX
  8
PLAN_1
  6
CONTINUOUS
 10
0.906756
 20
-3.879366
  0
VERTEX
  8
PLAN_1
  6
CONTINUOUS
 10
0.905748
 20
-3.885421
  0
VERTEX
  8
PLAN_1
  6
CONTINUOUS
 10
0.904232
 20
-3.896020
  0
VERTEX
  8
PLAN_1
  6
CONTINUOUS
 10
0.903728
 20
-3.905106
  0
VERTEX
  8
PLAN_1
  6
CONTINUOUS
 10
0.904232
 20
-3.905610
  0
VERTEX
  8
PLAN_1
  6
CONTINUOUS
 10
0.907260
 20
-3.901575
  0
VERTEX
  8
PLAN_1
  6
CONTINUOUS
 10
0.910287
 20
-3.897535
  0
VERTEX
  8
PLAN_1
  6
CONTINUOUS
 10
0.914831
 20
-3.893496
  0
VERTEX
  8
PLAN_1
  6
CONTINUOUS
 10
0.919878
 20
-3.889965
  0
VERTEX
  8
PLAN_1
  6
CONTINUOUS
 10
0.922909
 20
-3.887945
  0
VERTEX
  8
PLAN_1
  6
CONTINUOUS
 10
0.925937
 20
-3.886429
  0
VERTEX
  8
PLAN_1
  6
CONTINUOUS
 10
0.929469
 20
-3.885421
  0
VERTEX
  8
PLAN_1
  6
CONTINUOUS
 10
0.933004
 20
-3.883906
  0
VERTEX
  8
PLAN_1
  6
CONTINUOUS
 10
0.937039
 20
-3.882898
  0
VERTEX
  8
PLAN_1
  6
CONTINUOUS
 10
0.941079
 20
-3.882394
  0
VERTEX
  8
PLAN_1
  6
CONTINUOUS
 10
0.945622
 20
-3.881890
  0
VERTEX
  8
PLAN_1
  6
CONTINUOUS
 10
0.950669
 20
-3.881890
  0
VERTEX
  8
PLAN_1
  6
CONTINUOUS
 10
0.955213
 20
-3.881890
  0
VERTEX
  8
PLAN_1
  6
CONTINUOUS
 10
0.960260
 20
-3.882394
  0
VERTEX
  8
PLAN_1
  6
CONTINUOUS
 10
0.965307
 20
-3.883402
  0
VERTEX
  8
PLAN_1
  6
CONTINUOUS
 10
0.970354
 20
-3.884917
  0
VERTEX
  8
PLAN_1
  6
CONTINUOUS
 10
0.975402
 20
-3.886937
  0
VERTEX
  8
PLAN_1
  6
CONTINUOUS
 10
0.980449
 20
-3.888953
  0
VERTEX
  8
PLAN_1
  6
CONTINUOUS
 10
0.985496
 20
-3.891984
  0
VERTEX
  8
PLAN_1
  6
CONTINUOUS
 10
0.990039
 20
-3.895516
  0
VERTEX
  8
PLAN_1
  6
CONTINUOUS
 10
0.994583
 20
-3.899051
  0
VERTEX
  8
PLAN_1
  6
CONTINUOUS
 10
0.998618
 20
-3.903591
  0
VERTEX
  8
PLAN_1
  6
CONTINUOUS
 10
1.002657
 20
-3.908638
  0
VERTEX
  8
PLAN_1
  6
CONTINUOUS
 10
1.005685
 20
-3.914193
  0
VERTEX
  8
PLAN_1
  6
CONTINUOUS
 10
1.008209
 20
-3.920752
  0
VERTEX
  8
PLAN_1
  6
CONTINUOUS
 10
1.010228
 20
-3.927819
  0
VERTEX
  8
PLAN_1
  6
CONTINUOUS
 10
1.011236
 20
-3.935390
  0
VERTEX
  8
PLAN_1
  6
CONTINUOUS
 10
1.011744
 20
-3.943972
  0
VERTEX
  8
PLAN_1
  6
CONTINUOUS
 10
1.011744
 20
-3.951039
  0
VERTEX
  8
PLAN_1
  6
CONTINUOUS
 10
1.010732
 20
-3.957598
  0
VERTEX
  8
PLAN_1
  6
CONTINUOUS
 10
1.009220
 20
-3.964161
  0
VERTEX
  8
PLAN_1
  6
CONTINUOUS
 10
1.007705
 20
-3.970217
  0
VERTEX
  8
PLAN_1
  6
CONTINUOUS
 10
1.004677
 20
-3.976276
  0
VERTEX
  8
PLAN_1
  6
CONTINUOUS
 10
1.001646
 20
-3.981827
  0
VERTEX
  8
PLAN_1
  6
CONTINUOUS
 10
0.997610
 20
-3.987378
  0
VERTEX
  8
PLAN_1
  6
CONTINUOUS
 10
0.993067
 20
-3.992425
  0
VERTEX
  8
PLAN_1
  6
CONTINUOUS
 10
0.989028
 20
-3.996465
  0
VERTEX
  8
PLAN_1
  6
CONTINUOUS
 10
0.984992
 20
-4.000504
  0
VERTEX
  8
PLAN_1
  6
CONTINUOUS
 10
0.980449
 20
-4.003531
  0
VERTEX
  8
PLAN_1
  6
CONTINUOUS
 10
0.974898
 20
-4.006055
  0
VERTEX
  8
PLAN_1
  6
CONTINUOUS
 10
0.968839
 20
-4.008579
  0
VERTEX
  8
PLAN_1
  6
CONTINUOUS
 10
0.961772
 20
-4.010094
  0
VERTEX
  8
PLAN_1
  6
CONTINUOUS
 10
0.953193
 20
-4.011102
  0
VERTEX
  8
PLAN_1
  6
CONTINUOUS
 10
0.943602
 20
-4.011606
  0
VERTEX
  8
PLAN_1
  6
CONTINUOUS
 10
0.938051
 20
-4.011102
  0
VERTEX
  8
PLAN_1
  6
CONTINUOUS
 10
0.931488
 20
-4.010094
  0
VERTEX
  8
PLAN_1
  6
CONTINUOUS
 10
0.924925
 20
-4.008075
  0
VERTEX
  8
PLAN_1
  6
CONTINUOUS
 10
0.918366
 20
-4.005551
  0
VERTEX
  8
PLAN_1
  6
CONTINUOUS
 10
0.914831
 20
-4.003531
  0
VERTEX
  8
PLAN_1
  6
CONTINUOUS
 10
0.911803
 20
-4.001512
  0
VERTEX
  8
PLAN_1
  6
CONTINUOUS
 10
0.908272
 20
-3.999492
  0
VERTEX
  8
PLAN_1
  6
CONTINUOUS
 10
0.905240
 20
-3.996465
  0
VERTEX
  8
PLAN_1
  6
CONTINUOUS
 10
0.902213
 20
-3.993941
  0
VERTEX
  8
PLAN_1
  6
CONTINUOUS
 10
0.899185
 20
-3.990409
  0
VERTEX
  8
PLAN_1
  6
CONTINUOUS
 10
0.896157
 20
-3.986874
  0
VERTEX
  8
PLAN_1
  6
CONTINUOUS
 10
0.893634
 20
-3.983343
  0
VERTEX
  8
PLAN_1
  6
CONTINUOUS
 10
0.889594
 20
-3.976276
  0
VERTEX
  8
PLAN_1
  6
CONTINUOUS
 10
0.886063
 20
-3.968201
  0
VERTEX
  8
PLAN_1
  6
CONTINUOUS
 10
0.883539
 20
-3.960630
  0
VERTEX
  8
PLAN_1
  6
CONTINUOUS
 10
0.881520
 20
-3.952047
  0
VERTEX
  8
PLAN_1
  6
CONTINUOUS
 10
0.880004
 20
-3.943469
  0
VERTEX
  8
PLAN_1
  6
CONTINUOUS
 10
0.879500
 20
-3.934382
  0
VERTEX
  8
PLAN_1
  6
CONTINUOUS
 10
0.878492
 20
-3.924791
  0
VERTEX
  8
PLAN_1
  6
CONTINUOUS
 10
0.878492
 20
-3.915201
  0
VERTEX
  8
PLAN_1
  6
CONTINUOUS
 10
0.878492
 20
-3.907126
  0
VERTEX
  8
PLAN_1
  6
CONTINUOUS
 10
0.879500
 20
-3.898543
  0
VERTEX
  8
PLAN_1
  6
CONTINUOUS
 10
0.880004
 20
-3.889965
  0
VERTEX
  8
PLAN_1
  6
CONTINUOUS
 10
0.881520
 20
-3.880878
  0
VERTEX
  8
PLAN_1
  6
CONTINUOUS
 10
0.883539
 20
-3.872299
  0
VERTEX
  8
PLAN_1
  6
CONTINUOUS
 10
0.886063
 20
-3.863717
  0
VERTEX
  8
PLAN_1
  6
CONTINUOUS
 10
0.889091
 20
-3.855138
  0
VERTEX
  8
PLAN_1
  6
CONTINUOUS
 10
0.892622
 20
-3.847059
  0
VERTEX
  8
PLAN_1
  6
CONTINUOUS
 10
0.897165
 20
-3.839488
  0
VERTEX
  8
PLAN_1
  6
CONTINUOUS
 10
0.902213
 20
-3.832929
  0
VERTEX
  8
PLAN_1
  6
CONTINUOUS
 10
0.905240
 20
-3.829394
  0
VERTEX
  8
PLAN_1
  6
CONTINUOUS
 10
0.908272
 20
-3.826870
  0
VERTEX
  8
PLAN_1
  6
CONTINUOUS
 10
0.911299
 20
-3.823843
  0
VERTEX
  8
PLAN_1
  6
CONTINUOUS
 10
0.914831
 20
-3.821319
  0
VERTEX
  8
PLAN_1
  6
CONTINUOUS
 10
0.918366
 20
-3.819299
  0
VERTEX
  8
PLAN_1
  6
CONTINUOUS
 10
0.922402
 20
-3.816776
  0
VERTEX
  8
PLAN_1
  6
CONTINUOUS
 10
0.926441
 20
-3.815264
  0
VERTEX
  8
PLAN_1
  6
CONTINUOUS
 10
0.930984
 20
-3.813748
  0
VERTEX
  8
PLAN_1
  6
CONTINUOUS
 10
0.935528
 20
-3.812740
  0
VERTEX
  8
PLAN_1
  6
CONTINUOUS
 10
0.940071
 20
-3.811728
  0
VERTEX
  8
PLAN_1
  6
CONTINUOUS
 10
0.945622
 20
-3.811224
  0
VERTEX
  8
PLAN_1
  6
CONTINUOUS
 10
0.950669
 20
-3.811224
  0
VERTEX
  8
PLAN_1
  6
CONTINUOUS
 10
0.955213
 20
-3.811224
  0
VERTEX
  8
PLAN_1
  6
CONTINUOUS
 10
0.959752
 20
-3.811728
  0
VERTEX
  8
PLAN_1
  6
CONTINUOUS
 10
0.964295
 20
-3.812232
  0
VERTEX
  8
PLAN_1
  6
CONTINUOUS
 10
0.968839
 20
-3.813748
  0
VERTEX
  8
PLAN_1
  6
CONTINUOUS
 10
0.973382
 20
-3.815264
  0
VERTEX
  8
PLAN_1
  6
CONTINUOUS
 10
0.977925
 20
-3.816776
  0
VERTEX
  8
PLAN_1
  6
CONTINUOUS
 10
0.982469
 20
-3.819299
  0
VERTEX
  8
PLAN_1
  6
CONTINUOUS
 10
0.986504
 20
-3.822327
  0
VERTEX
  8
PLAN_1
  6
CONTINUOUS
 10
0.990543
 20
-3.825358
  0
VERTEX
  8
PLAN_1
  6
CONTINUOUS
 10
0.994583
 20
-3.828890
  0
VERTEX
  8
PLAN_1
  6
CONTINUOUS
 10
0.997610
 20
-3.833433
  0
VERTEX
  8
PLAN_1
  6
CONTINUOUS
 10
1.000638
 20
-3.837976
  0
VERTEX
  8
PLAN_1
  6
CONTINUOUS
 10
1.003161
 20
-3.843528
  0
VERTEX
  8
PLAN_1
  6
CONTINUOUS
 10
1.005181
 20
-3.849079
  0
VERTEX
  8
PLAN_1
  6
CONTINUOUS
 10
1.006697
 20
-3.855642
  0
VERTEX
  8
PLAN_1
  6
CONTINUOUS
 10
1.007705
 20
-3.862709
  0
VERTEX
  8
PLAN_1
  6
CONTINUOUS
 10
0.983980
 20
-3.862709
  0
SEQEND
  8
0
  0
POLYLINE
  8
PLAN_1
  6
CONTINUOUS
 66
     1
 40
0.003000
 41
0.003000
  0
VERTEX
  8
PLAN_1
  6
CONTINUOUS
 10
0.948146
 20
-3.989398
  0
VERTEX
  8
PLAN_1
  6
CONTINUOUS
 10
0.952689
 20
-3.989398
  0
VERTEX
  8
PLAN_1
  6
CONTINUOUS
 10
0.956724
 20
-3.988894
  0
VERTEX
  8
PLAN_1
  6
CONTINUOUS
 10
0.960260
 20
-3.987886
  0
VERTEX
  8
PLAN_1
  6
CONTINUOUS
 10
0.963791
 20
-3.986370
  0
VERTEX
  8
PLAN_1
  6
CONTINUOUS
 10
0.967327
 20
-3.984350
  0
VERTEX
  8
PLAN_1
  6
CONTINUOUS
 10
0.970354
 20
-3.982331
  0
VERTEX
  8
PLAN_1
  6
CONTINUOUS
 10
0.973382
 20
-3.979807
  0
VERTEX
  8
PLAN_1
  6
CONTINUOUS
 10
0.975906
 20
-3.977283
  0
VERTEX
  8
PLAN_1
  6
CONTINUOUS
 10
0.978429
 20
-3.973752
  0
VERTEX
  8
PLAN_1
  6
CONTINUOUS
 10
0.980449
 20
-3.970724
  0
VERTEX
  8
PLAN_1
  6
CONTINUOUS
 10
0.982469
 20
-3.966685
  0
VERTEX
  8
PLAN_1
  6
CONTINUOUS
 10
0.983980
 20
-3.963154
  0
VERTEX
  8
PLAN_1
  6
CONTINUOUS
 10
0.984992
 20
-3.958610
  0
VERTEX
  8
PLAN_1
  6
CONTINUOUS
 10
0.986000
 20
-3.954571
  0
VERTEX
  8
PLAN_1
  6
CONTINUOUS
 10
0.986504
 20
-3.949524
  0
VERTEX
  8
PLAN_1
  6
CONTINUOUS
 10
0.986504
 20
-3.944980
  0
VERTEX
  8
PLAN_1
  6
CONTINUOUS
 10
0.986000
 20
-3.937913
  0
VERTEX
  8
PLAN_1
  6
CONTINUOUS
 10
0.984488
 20
-3.931354
  0
VERTEX
  8
PLAN_1
  6
CONTINUOUS
 10
0.983476
 20
-3.927819
  0
VERTEX
  8
PLAN_1
  6
CONTINUOUS
 10
0.981961
 20
-3.924287
  0
VERTEX
  8
PLAN_1
  6
CONTINUOUS
 10
0.980449
 20
-3.920752
  0
VERTEX
  8
PLAN_1
  6
CONTINUOUS
 10
0.977925
 20
-3.917724
  0
VERTEX
  8
PLAN_1
  6
CONTINUOUS
 10
0.975906
 20
-3.914697
  0
VERTEX
  8
PLAN_1
  6
CONTINUOUS
 10
0.972878
 20
-3.912173
  0
VERTEX
  8
PLAN_1
  6
CONTINUOUS
 10
0.969850
 20
-3.909650
  0
VERTEX
  8
PLAN_1
  6
CONTINUOUS
 10
0.965811
 20
-3.907630
  0
VERTEX
  8
PLAN_1
  6
CONTINUOUS
 10
0.961772
 20
-3.906114
  0
VERTEX
  8
PLAN_1
  6
CONTINUOUS
 10
0.957736
 20
-3.904602
  0
VERTEX
  8
PLAN_1
  6
CONTINUOUS
 10
0.952689
 20
-3.904098
  0
VERTEX
  8
PLAN_1
  6
CONTINUOUS
 10
0.947134
 20
-3.903591
  0
VERTEX
  8
PLAN_1
  6
CONTINUOUS
 10
0.942087
 20
-3.904098
  0
VERTEX
  8
PLAN_1
  6
CONTINUOUS
 10
0.937543
 20
-3.904602
  0
VERTEX
  8
PLAN_1
  6
CONTINUOUS
 10
0.933508
 20
-3.905610
  0
VERTEX
  8
PLAN_1
  6
CONTINUOUS
 10
0.929469
 20
-3.907126
  0
VERTEX
  8
PLAN_1
  6
CONTINUOUS
 10
0.925937
 20
-3.909146
  0
VERTEX
  8
PLAN_1
  6
CONTINUOUS
 10
0.922402
 20
-3.911161
  0
VERTEX
  8
PLAN_1
  6
CONTINUOUS
 10
0.919878
 20
-3.913685
  0
VERTEX
  8
PLAN_1
  6
CONTINUOUS
 10
0.916850
 20
-3.916213
  0
VERTEX
  8
PLAN_1
  6
CONTINUOUS
 10
0.914831
 20
-3.919240
  0
VERTEX
  8
PLAN_1
  6
CONTINUOUS
 10
0.912811
 20
-3.922772
  0
VERTEX
  8
PLAN_1
  6
CONTINUOUS
 10
0.910795
 20
-3.926307
  0
VERTEX
  8
PLAN_1
  6
CONTINUOUS
 10
0.909783
 20
-3.929839
  0
VERTEX
  8
PLAN_1
  6
CONTINUOUS
 10
0.908272
 20
-3.933878
  0
VERTEX
  8
PLAN_1
  6
CONTINUOUS
 10
0.907764
 20
-3.937913
  0
VERTEX
  8
PLAN_1
  6
CONTINUOUS
 10
0.907260
 20
-3.941953
  0
VERTEX
  8
PLAN_1
  6
CONTINUOUS
 10
0.907260
 20
-3.945992
  0
VERTEX
  8
PLAN_1
  6
CONTINUOUS
 10
0.907260
 20
-3.950028
  0
VERTEX
  8
PLAN_1
  6
CONTINUOUS
 10
0.907764
 20
-3.954067
  0
VERTEX
  8
PLAN_1
  6
CONTINUOUS
 10
0.908272
 20
-3.958106
  0
VERTEX
  8
PLAN_1
  6
CONTINUOUS
 10
0.909783
 20
-3.961638
  0
VERTEX
  8
PLAN_1
  6
CONTINUOUS
 10
0.910795
 20
-3.965677
  0
VERTEX
  8
PLAN_1
  6
CONTINUOUS
 10
0.912811
 20
-3.969209
  0
VERTEX
  8
PLAN_1
  6
CONTINUOUS
 10
0.914831
 20
-3.972740
  0
VERTEX
  8
PLAN_1
  6
CONTINUOUS
 10
0.916850
 20
-3.975772
  0
VERTEX
  8
PLAN_1
  6
CONTINUOUS
 10
0.919878
 20
-3.978799
  0
VERTEX
  8
PLAN_1
  6
CONTINUOUS
 10
0.922402
 20
-3.981323
  0
VERTEX
  8
PLAN_1
  6
CONTINUOUS
 10
0.925937
 20
-3.983846
  0
VERTEX
  8
PLAN_1
  6
CONTINUOUS
 10
0.929972
 20
-3.985866
  0
VERTEX
  8
PLAN_1
  6
CONTINUOUS
 10
0.934012
 20
-3.987378
  0
VERTEX
  8
PLAN_1
  6
CONTINUOUS
 10
0.938051
 20
-3.988390
  0
VERTEX
  8
PLAN_1
  6
CONTINUOUS
 10
0.943098
 20
-3.989398
  0
VERTEX
  8
PLAN_1
  6
CONTINUOUS
 10
0.948146
 20
-3.989398
  0
SEQEND
  8
0
  0
SOLID
  8
PLAN_1
 10
1.022343
 20
-4.040882
 11
1.022343
 21
-4.027256
 12
1.176791
 22
-4.040882
 13
1.176791
 23
-4.027256
  0
POLYLINE
  8
PLAN_1
  6
CONTINUOUS
 66
     1
 40
0.003000
 41
0.003000
  0
VERTEX
  8
PLAN_1
  6
CONTINUOUS
 10
1.022343
 20
-4.040882
  0
VERTEX
  8
PLAN_1
  6
CONTINUOUS
 10
1.022343
 20
-4.027256
  0
VERTEX
  8
PLAN_1
  6
CONTINUOUS
 10
1.176791
 20
-4.027256
  0
VERTEX
  8
PLAN_1
  6
CONTINUOUS
 10
1.176791
 20
-4.040882
  0
VERTEX
  8
PLAN_1
  6
CONTINUOUS
 10
1.022343
 20
-4.040882
  0
SEQEND
  8
0
  0
POLYLINE
  8
PLAN_1
  6
CONTINUOUS
 66
     1
 40
0.003000
 41
0.003000
  0
VERTEX
  8
PLAN_1
  6
CONTINUOUS
 10
1.228276
 20
-4.006055
  0
VERTEX
  8
PLAN_1
  6
CONTINUOUS
 10
1.201020
 20
-4.006055
  0
VERTEX
  8
PLAN_1
  6
CONTINUOUS
 10
1.201020
 20
-3.806681
  0
VERTEX
  8
PLAN_1
  6
CONTINUOUS
 10
1.293390
 20
-3.806681
  0
VERTEX
  8
PLAN_1
  6
CONTINUOUS
 10
1.299445
 20
-3.807185
  0
VERTEX
  8
PLAN_1
  6
CONTINUOUS
 10
1.305504
 20
-3.807693
  0
VERTEX
  8
PLAN_1
  6
CONTINUOUS
 10
1.311559
 20
-3.808197
  0
VERTEX
  8
PLAN_1
  6
CONTINUOUS
 10
1.317618
 20
-3.809205
  0
VERTEX
  8
PLAN_1
  6
CONTINUOUS
 10
1.323169
 20
-3.810720
  0
VERTEX
  8
PLAN_1
  6
CONTINUOUS
 10
1.328720
 20
-3.812740
  0
VERTEX
  8
PLAN_1
  6
CONTINUOUS
 10
1.333768
 20
-3.815264
  0
VERTEX
  8
PLAN_1
  6
CONTINUOUS
 10
1.338311
 20
-3.817787
  0
VERTEX
  8
PLAN_1
  6
CONTINUOUS
 10
1.342854
 20
-3.821319
  0
VERTEX
  8
PLAN_1
  6
CONTINUOUS
 10
1.346890
 20
-3.824850
  0
VERTEX
  8
PLAN_1
  6
CONTINUOUS
 10
1.350425
 20
-3.829394
  0
VERTEX
  8
PLAN_1
  6
CONTINUOUS
 10
1.353453
 20
-3.834441
  0
VERTEX
  8
PLAN_1
  6
CONTINUOUS
 10
1.355472
 20
-3.839996
  0
VERTEX
  8
PLAN_1
  6
CONTINUOUS
 10
1.357492
 20
-3.846051
  0
VERTEX
  8
PLAN_1
  6
CONTINUOUS
 10
1.358500
 20
-3.853118
  0
VERTEX
  8
PLAN_1
  6
CONTINUOUS
 10
1.359004
 20
-3.860689
  0
VERTEX
  8
PLAN_1
  6
CONTINUOUS
 10
1.358500
 20
-3.865736
  0
VERTEX
  8
PLAN_1
  6
CONTINUOUS
 10
1.357996
 20
-3.870783
  0
VERTEX
  8
PLAN_1
  6
CONTINUOUS
 10
1.357492
 20
-3.875327
  0
VERTEX
  8
PLAN_1
  6
CONTINUOUS
 10
1.356480
 20
-3.879366
  0
VERTEX
  8
PLAN_1
  6
CONTINUOUS
 10
1.354969
 20
-3.882898
  0
VERTEX
  8
PLAN_1
  6
CONTINUOUS
 10
1.353453
 20
-3.886429
  0
VERTEX
  8
PLAN_1
  6
CONTINUOUS
 10
1.351937
 20
-3.889461
  0
VERTEX
  8
PLAN_1
  6
CONTINUOUS
 10
1.349921
 20
-3.892488
  0
VERTEX
  8
PLAN_1
  6
CONTINUOUS
 10
1.345378
 20
-3.897535
  0
VERTEX
  8
PLAN_1
  6
CONTINUOUS
 10
1.340835
 20
-3.901575
  0
VERTEX
  8
PLAN_1
  6
CONTINUOUS
 10
1.335787
 20
-3.905106
  0
VERTEX
  8
PLAN_1
  6
CONTINUOUS
 10
1.331244
 20
-3.908134
  0
VERTEX
  8
PLAN_1
  6
CONTINUOUS
 10
1.335283
 20
-3.910154
  0
VERTEX
  8
PLAN_1
  6
CONTINUOUS
 10
1.339319
 20
-3.912173
  0
VERTEX
  8
PLAN_1
  6
CONTINUOUS
 10
1.343358
 20
-3.914697
  0
VERTEX
  8
PLAN_1
  6
CONTINUOUS
 10
1.346890
 20
-3.918228
  0
VERTEX
  8
PLAN_1
  6
CONTINUOUS
 10
1.348406
 20
-3.920248
  0
VERTEX
  8
PLAN_1
  6
CONTINUOUS
 10
1.349921
 20
-3.922772
  0
VERTEX
  8
PLAN_1
  6
CONTINUOUS
 10
1.351433
 20
-3.925799
  0
VERTEX
  8
PLAN_1
  6
CONTINUOUS
 10
1.352445
 20
-3.928831
  0
VERTEX
  8
PLAN_1
  6
CONTINUOUS
 10
1.353453
 20
-3.932362
  0
VERTEX
  8
PLAN_1
  6
CONTINUOUS
 10
1.353957
 20
-3.936402
  0
VERTEX
  8
PLAN_1
  6
CONTINUOUS
 10
1.354465
 20
-3.940945
  0
VERTEX
  8
PLAN_1
  6
CONTINUOUS
 10
1.354969
 20
-3.945484
  0
VERTEX
  8
PLAN_1
  6
CONTINUOUS
 10
1.356480
 20
-3.981827
  0
VERTEX
  8
PLAN_1
  6
CONTINUOUS
 10
1.356988
 20
-3.985866
  0
VERTEX
  8
PLAN_1
  6
CONTINUOUS
 10
1.356988
 20
-3.988894
  0
VERTEX
  8
PLAN_1
  6
CONTINUOUS
 10
1.357492
 20
-3.991921
  0
VERTEX
  8
PLAN_1
  6
CONTINUOUS
 10
1.358500
 20
-3.993941
  0
VERTEX
  8
PLAN_1
  6
CONTINUOUS
 10
1.360016
 20
-3.996465
  0
VERTEX
  8
PLAN_1
  6
CONTINUOUS
 10
1.361528
 20
-3.997980
  0
VERTEX
  8
PLAN_1
  6
CONTINUOUS
 10
1.364051
 20
-3.999996
  0
VERTEX
  8
PLAN_1
  6
CONTINUOUS
 10
1.366575
 20
-4.001512
  0
VERTEX
  8
PLAN_1
  6
CONTINUOUS
 10
1.366575
 20
-4.006055
  0
VERTEX
  8
PLAN_1
  6
CONTINUOUS
 10
1.333768
 20
-4.006055
  0
VERTEX
  8
PLAN_1
  6
CONTINUOUS
 10
1.332256
 20
-4.001008
  0
VERTEX
  8
PLAN_1
  6
CONTINUOUS
 10
1.331244
 20
-3.994445
  0
VERTEX
  8
PLAN_1
  6
CONTINUOUS
 10
1.330236
 20
-3.986874
  0
VERTEX
  8
PLAN_1
  6
CONTINUOUS
 10
1.329728
 20
-3.979303
  0
VERTEX
  8
PLAN_1
  6
CONTINUOUS
 10
1.329224
 20
-3.972236
  0
VERTEX
  8
PLAN_1
  6
CONTINUOUS
 10
1.329224
 20
-3.965677
  0
VERTEX
  8
PLAN_1
  6
CONTINUOUS
 10
1.328720
 20
-3.960122
  0
VERTEX
  8
PLAN_1
  6
CONTINUOUS
 10
1.328720
 20
-3.956087
  0
VERTEX
  8
PLAN_1
  6
CONTINUOUS
 10
1.328720
 20
-3.950028
  0
VERTEX
  8
PLAN_1
  6
CONTINUOUS
 10
1.327713
 20
-3.943972
  0
VERTEX
  8
PLAN_1
  6
CONTINUOUS
 10
1.327205
 20
-3.940945
  0
VERTEX
  8
PLAN_1
  6
CONTINUOUS
 10
1.326197
 20
-3.937913
  0
VERTEX
  8
PLAN_1
  6
CONTINUOUS
 10
1.324681
 20
-3.934886
  0
VERTEX
  8
PLAN_1
  6
CONTINUOUS
 10
1.323169
 20
-3.932362
  0
VERTEX
  8
PLAN_1
  6
CONTINUOUS
 10
1.321150
 20
-3.929839
  0
VERTEX
  8
PLAN_1
  6
CONTINUOUS
 10
1.318626
 20
-3.927819
  0
VERTEX
  8
PLAN_1
  6
CONTINUOUS
 10
1.316102
 20
-3.925799
  0
VERTEX
  8
PLAN_1
  6
CONTINUOUS
 10
1.312571
 20
-3.923783
  0
VERTEX
  8
PLAN_1
  6
CONTINUOUS
 10
1.308531
 20
-3.922772
  0
VERTEX
  8
PLAN_1
  6
CONTINUOUS
 10
1.303988
 20
-3.921764
  0
VERTEX
  8
PLAN_1
  6
CONTINUOUS
 10
1.298941
 20
-3.920752
  0
VERTEX
  8
PLAN_1
  6
CONTINUOUS
 10
1.293390
 20
-3.920752
  0
VERTEX
  8
PLAN_1
  6
CONTINUOUS
 10
1.228276
 20
-3.920752
  0
VERTEX
  8
PLAN_1
  6
CONTINUOUS
 10
1.228276
 20
-4.006055
  0
SEQEND
  8
0
  0
POLYLINE
  8
PLAN_1
  6
CONTINUOUS
 66
     1
 40
0.003000
 41
0.003000
  0
VERTEX
  8
PLAN_1
  6
CONTINUOUS
 10
1.228276
 20
-3.897535
  0
VERTEX
  8
PLAN_1
  6
CONTINUOUS
 10
1.290362
 20
-3.897535
  0
VERTEX
  8
PLAN_1
  6
CONTINUOUS
 10
1.297933
 20
-3.897535
  0
VERTEX
  8
PLAN_1
  6
CONTINUOUS
 10
1.304996
 20
-3.896528
  0
VERTEX
  8
PLAN_1
  6
CONTINUOUS
 10
1.308531
 20
-3.895516
  0
VERTEX
  8
PLAN_1
  6
CONTINUOUS
 10
1.312063
 20
-3.894508
  0
VERTEX
  8
PLAN_1
  6
CONTINUOUS
 10
1.315094
 20
-3.892992
  0
VERTEX
  8
PLAN_1
  6
CONTINUOUS
 10
1.318122
 20
-3.891476
  0
VERTEX
  8
PLAN_1
  6
CONTINUOUS
 10
1.321150
 20
-3.889461
  0
VERTEX
  8
PLAN_1
  6
CONTINUOUS
 10
1.323673
 20
-3.886937
  0
VERTEX
  8
PLAN_1
  6
CONTINUOUS
 10
1.325693
 20
-3.884413
  0
VERTEX
  8
PLAN_1
  6
CONTINUOUS
 10
1.327713
 20
-3.880878
  0
VERTEX
  8
PLAN_1
  6
CONTINUOUS
 10
1.329224
 20
-3.877346
  0
VERTEX
  8
PLAN_1
  6
CONTINUOUS
 10
1.330236
 20
-3.873307
  0
VERTEX
  8
PLAN_1
  6
CONTINUOUS
 10
1.330740
 20
-3.868260
  0
VERTEX
  8
PLAN_1
  6
CONTINUOUS
 10
1.331244
 20
-3.863213
  0
VERTEX
  8
PLAN_1
  6
CONTINUOUS
 10
1.330740
 20
-3.857661
  0
VERTEX
  8
PLAN_1
  6
CONTINUOUS
 10
1.330236
 20
-3.853118
  0
VERTEX
  8
PLAN_1
  6
CONTINUOUS
 10
1.328720
 20
-3.848575
  0
VERTEX
  8
PLAN_1
  6
CONTINUOUS
 10
1.327205
 20
-3.845043
  0
VERTEX
  8
PLAN_1
  6
CONTINUOUS
 10
1.325693
 20
-3.842012
  0
VERTEX
  8
PLAN_1
  6
CONTINUOUS
 10
1.323169
 20
-3.838984
  0
VERTEX
  8
PLAN_1
  6
CONTINUOUS
 10
1.320646
 20
-3.836965
  0
VERTEX
  8
PLAN_1
  6
CONTINUOUS
 10
1.318122
 20
-3.834949
  0
VERTEX
  8
PLAN_1
  6
CONTINUOUS
 10
1.315598
 20
-3.833433
  0
VERTEX
  8
PLAN_1
  6
CONTINUOUS
 10
1.312571
 20
-3.832425
  0
VERTEX
  8
PLAN_1
  6
CONTINUOUS
 10
1.309539
 20
-3.831413
  0
VERTEX
  8
PLAN_1
  6
CONTINUOUS
 10
1.306512
 20
-3.830909
  0
VERTEX
  8
PLAN_1
  6
CONTINUOUS
 10
1.300457
 20
-3.829902
  0
VERTEX
  8
PLAN_1
  6
CONTINUOUS
 10
1.295409
 20
-3.829902
  0
VERTEX
  8
PLAN_1
  6
CONTINUOUS
 10
1.228276
 20
-3.829902
  0
VERTEX
  8
PLAN_1
  6
CONTINUOUS
 10
1.228276
 20
-3.897535
  0
SEQEND
  8
0
  0
SOLID
  8
PLAN_1
 10
1.430173
 20
-4.006055
 11
1.401406
 21
-4.006055
 12
1.430173
 22
-3.976780
 13
1.401406
 23
-3.976780
  0
POLYLINE
  8
PLAN_1
  6
CONTINUOUS
 66
     1
 40
0.003000
 41
0.003000
  0
VERTEX
  8
PLAN_1
  6
CONTINUOUS
 10
1.430173
 20
-4.006055
  0
VERTEX
  8
PLAN_1
  6
CONTINUOUS
 10
1.401406
 20
-4.006055
  0
VERTEX
  8
PLAN_1
  6
CONTINUOUS
 10
1.401406
 20
-3.976780
  0
VERTEX
  8
PLAN_1
  6
CONTINUOUS
 10
1.430173
 20
-3.976780
  0
VERTEX
  8
PLAN_1
  6
CONTINUOUS
 10
1.430173
 20
-4.006055
  0
SEQEND
  8
0
  0
POLYLINE
  8
PLAN_1
  6
CONTINUOUS
 66
     1
 40
0.003000
 41
0.003000
  0
VERTEX
  8
PLAN_1
  6
CONTINUOUS
 10
1.625508
 20
-4.006055
  0
VERTEX
  8
PLAN_1
  6
CONTINUOUS
 10
1.478126
 20
-4.006055
  0
VERTEX
  8
PLAN_1
  6
CONTINUOUS
 10
1.478126
 20
-3.806681
  0
VERTEX
  8
PLAN_1
  6
CONTINUOUS
 10
1.623492
 20
-3.806681
  0
VERTEX
  8
PLAN_1
  6
CONTINUOUS
 10
1.623492
 20
-3.830909
  0
VERTEX
  8
PLAN_1
  6
CONTINUOUS
 10
1.505382
 20
-3.830909
  0
VERTEX
  8
PLAN_1
  6
CONTINUOUS
 10
1.505382
 20
-3.891984
  0
VERTEX
  8
PLAN_1
  6
CONTINUOUS
 10
1.614406
 20
-3.891984
  0
VERTEX
  8
PLAN_1
  6
CONTINUOUS
 10
1.614406
 20
-3.915705
  0
VERTEX
  8
PLAN_1
  6
CONTINUOUS
 10
1.505382
 20
-3.915705
  0
VERTEX
  8
PLAN_1
  6
CONTINUOUS
 10
1.505382
 20
-3.982331
  0
VERTEX
  8
PLAN_1
  6
CONTINUOUS
 10
1.625508
 20
-3.982331
  0
VERTEX
  8
PLAN_1
  6
CONTINUOUS
 10
1.625508
 20
-4.006055
  0
SEQEND
  8
0
  0
POLYLINE
  8
PLAN_1
  6
CONTINUOUS
 66
     1
 40
0.003000
 41
0.003000
  0
VERTEX
  8
PLAN_1
  6
CONTINUOUS
 10
1.690622
 20
-4.006055
  0
VERTEX
  8
PLAN_1
  6
CONTINUOUS
 10
1.663366
 20
-4.006055
  0
VERTEX
  8
PLAN_1
  6
CONTINUOUS
 10
1.663366
 20
-3.806681
  0
VERTEX
  8
PLAN_1
  6
CONTINUOUS
 10
1.753209
 20
-3.806681
  0
VERTEX
  8
PLAN_1
  6
CONTINUOUS
 10
1.759772
 20
-3.807185
  0
VERTEX
  8
PLAN_1
  6
CONTINUOUS
 10
1.766331
 20
-3.808197
  0
VERTEX
  8
PLAN_1
  6
CONTINUOUS
 10
1.772390
 20
-3.809205
  0
VERTEX
  8
PLAN_1
  6
CONTINUOUS
 10
1.777941
 20
-3.811224
  0
VERTEX
  8
PLAN_1
  6
CONTINUOUS
 10
1.783492
 20
-3.813244
  0
VERTEX
  8
PLAN_1
  6
CONTINUOUS
 10
1.788035
 20
-3.816272
  0
VERTEX
  8
PLAN_1
  6
CONTINUOUS
 10
1.792579
 20
-3.819299
  0
VERTEX
  8
PLAN_1
  6
CONTINUOUS
 10
1.796618
 20
-3.822835
  0
VERTEX
  8
PLAN_1
  6
CONTINUOUS
 10
1.800150
 20
-3.826870
  0
VERTEX
  8
PLAN_1
  6
CONTINUOUS
 10
1.803177
 20
-3.830909
  0
VERTEX
  8
PLAN_1
  6
CONTINUOUS
 10
1.806209
 20
-3.835453
  0
VERTEX
  8
PLAN_1
  6
CONTINUOUS
 10
1.808224
 20
-3.840500
  0
VERTEX
  8
PLAN_1
  6
CONTINUOUS
 10
1.810244
 20
-3.846051
  0
VERTEX
  8
PLAN_1
  6
CONTINUOUS
 10
1.811256
 20
-3.851098
  0
VERTEX
  8
PLAN_1
  6
CONTINUOUS
 10
1.812264
 20
-3.857157
  0
VERTEX
  8
PLAN_1
  6
CONTINUOUS
 10
1.812264
 20
-3.862709
  0
VERTEX
  8
PLAN_1
  6
CONTINUOUS
 10
1.812264
 20
-3.868260
  0
VERTEX
  8
PLAN_1
  6
CONTINUOUS
 10
1.811760
 20
-3.873307
  0
VERTEX
  8
PLAN_1
  6
CONTINUOUS
 10
1.810748
 20
-3.878858
  0
VERTEX
  8
PLAN_1
  6
CONTINUOUS
 10
1.809236
 20
-3.883906
  0
VERTEX
  8
PLAN_1
  6
CONTINUOUS
 10
1.807217
 20
-3.888953
  0
VERTEX
  8
PLAN_1
  6
CONTINUOUS
 10
1.805197
 20
-3.894004
  0
VERTEX
  8
PLAN_1
  6
CONTINUOUS
 10
1.802169
 20
-3.898543
  0
VERTEX
  8
PLAN_1
  6
CONTINUOUS
 10
1.799142
 20
-3.903087
  0
VERTEX
  8
PLAN_1
  6
CONTINUOUS
 10
1.795102
 20
-3.907126
  0
VERTEX
  8
PLAN_1
  6
CONTINUOUS
 10
1.791067
 20
-3.910657
  0
VERTEX
  8
PLAN_1
  6
CONTINUOUS
 10
1.786016
 20
-3.914193
  0
VERTEX
  8
PLAN_1
  6
CONTINUOUS
 10
1.780465
 20
-3.916717
  0
VERTEX
  8
PLAN_1
  6
CONTINUOUS
 10
1.774913
 20
-3.919240
  0
VERTEX
  8
PLAN_1
  6
CONTINUOUS
 10
1.768350
 20
-3.920752
  0
VERTEX
  8
PLAN_1
  6
CONTINUOUS
 10
1.760780
 20
-3.921764
  0
VERTEX
  8
PLAN_1
  6
CONTINUOUS
 10
1.753209
 20
-3.922268
  0
VERTEX
  8
PLAN_1
  6
CONTINUOUS
 10
1.690622
 20
-3.922268
  0
VERTEX
  8
PLAN_1
  6
CONTINUOUS
 10
1.690622
 20
-4.006055
  0
SEQEND
  8
0
  0
POLYLINE
  8
PLAN_1
  6
CONTINUOUS
 66
     1
 40
0.003000
 41
0.003000
  0
VERTEX
  8
PLAN_1
  6
CONTINUOUS
 10
1.690622
 20
-3.899051
  0
VERTEX
  8
PLAN_1
  6
CONTINUOUS
 10
1.744122
 20
-3.899051
  0
VERTEX
  8
PLAN_1
  6
CONTINUOUS
 10
1.748665
 20
-3.899051
  0
VERTEX
  8
PLAN_1
  6
CONTINUOUS
 10
1.752705
 20
-3.898543
  0
VERTEX
  8
PLAN_1
  6
CONTINUOUS
 10
1.756744
 20
-3.898039
  0
VERTEX
  8
PLAN_1
  6
CONTINUOUS
 10
1.760780
 20
-3.897031
  0
VERTEX
  8
PLAN_1
  6
CONTINUOUS
 10
1.764315
 20
-3.896020
  0
VERTEX
  8
PLAN_1
  6
CONTINUOUS
 10
1.767343
 20
-3.895012
  0
VERTEX
  8
PLAN_1
  6
CONTINUOUS
 10
1.770370
 20
-3.892992
  0
VERTEX
  8
PLAN_1
  6
CONTINUOUS
 10
1.773398
 20
-3.891476
  0
VERTEX
  8
PLAN_1
  6
CONTINUOUS
 10
1.775921
 20
-3.888953
  0
VERTEX
  8
PLAN_1
  6
CONTINUOUS
 10
1.777941
 20
-3.886429
  0
VERTEX
  8
PLAN_1
  6
CONTINUOUS
 10
1.779961
 20
-3.883402
  0
VERTEX
  8
PLAN_1
  6
CONTINUOUS
 10
1.781476
 20
-3.880374
  0
VERTEX
  8
PLAN_1
  6
CONTINUOUS
 10
1.782988
 20
-3.876335
  0
VERTEX
  8
PLAN_1
  6
CONTINUOUS
 10
1.784000
 20
-3.872299
  0
VERTEX
  8
PLAN_1
  6
CONTINUOUS
 10
1.784504
 20
-3.868260
  0
VERTEX
  8
PLAN_1
  6
CONTINUOUS
 10
1.784504
 20
-3.863213
  0
VERTEX
  8
PLAN_1
  6
CONTINUOUS
 10
1.784504
 20
-3.858669
  0
VERTEX
  8
PLAN_1
  6
CONTINUOUS
 10
1.784000
 20
-3.854634
  0
VERTEX
  8
PLAN_1
  6
CONTINUOUS
 10
1.782988
 20
-3.850594
  0
VERTEX
  8
PLAN_1
  6
CONTINUOUS
 10
1.781476
 20
-3.847567
  0
VERTEX
  8
PLAN_1
  6
CONTINUOUS
 10
1.779961
 20
-3.844535
  0
VERTEX
  8
PLAN_1
  6
CONTINUOUS
 10
1.777941
 20
-3.841508
  0
VERTEX
  8
PLAN_1
  6
CONTINUOUS
 10
1.775921
 20
-3.838984
  0
VERTEX
  8
PLAN_1
  6
CONTINUOUS
 10
1.773398
 20
-3.836965
  0
VERTEX
  8
PLAN_1
  6
CONTINUOUS
 10
1.770370
 20
-3.835453
  0
VERTEX
  8
PLAN_1
  6
CONTINUOUS
 10
1.767343
 20
-3.833937
  0
VERTEX
  8
PLAN_1
  6
CONTINUOUS
 10
1.764315
 20
-3.832425
  0
VERTEX
  8
PLAN_1
  6
CONTINUOUS
 10
1.760780
 20
-3.831413
  0
VERTEX
  8
PLAN_1
  6
CONTINUOUS
 10
1.753209
 20
-3.830406
  0
VERTEX
  8
PLAN_1
  6
CONTINUOUS
 10
1.745134
 20
-3.829902
  0
VERTEX
  8
PLAN_1
  6
CONTINUOUS
 10
1.690622
 20
-3.829902
  0
VERTEX
  8
PLAN_1
  6
CONTINUOUS
 10
1.690622
 20
-3.899051
  0
SEQEND
  8
0
  0
POLYLINE
  8
PLAN_1
  6
CONTINUOUS
 66
     1
 40
0.003000
 41
0.003000
  0
VERTEX
  8
PLAN_1
  6
CONTINUOUS
 10
1.966213
 20
-3.865232
  0
VERTEX
  8
PLAN_1
  6
CONTINUOUS
 10
1.965705
 20
-3.859681
  0
VERTEX
  8
PLAN_1
  6
CONTINUOUS
 10
1.964697
 20
-3.854634
  0
VERTEX
  8
PLAN_1
  6
CONTINUOUS
 10
1.963181
 20
-3.850091
  0
VERTEX
  8
PLAN_1
  6
CONTINUOUS
 10
1.961161
 20
-3.846051
  0
VERTEX
  8
PLAN_1
  6
CONTINUOUS
 10
1.958638
 20
-3.842012
  0
VERTEX
  8
PLAN_1
  6
CONTINUOUS
 10
1.956114
 20
-3.838984
  0
VERTEX
  8
PLAN_1
  6
CONTINUOUS
 10
1.952583
 20
-3.835957
  0
VERTEX
  8
PLAN_1
  6
CONTINUOUS
 10
1.949555
 20
-3.833433
  0
VERTEX
  8
PLAN_1
  6
CONTINUOUS
 10
1.945516
 20
-3.831413
  0
VERTEX
  8
PLAN_1
  6
CONTINUOUS
 10
1.941984
 20
-3.829394
  0
VERTEX
  8
PLAN_1
  6
CONTINUOUS
 10
1.937945
 20
-3.827882
  0
VERTEX
  8
PLAN_1
  6
CONTINUOUS
 10
1.933906
 20
-3.826870
  0
VERTEX
  8
PLAN_1
  6
CONTINUOUS
 10
1.929366
 20
-3.825862
  0
VERTEX
  8
PLAN_1
  6
CONTINUOUS
 10
1.925327
 20
-3.825358
  0
VERTEX
  8
PLAN_1
  6
CONTINUOUS
 10
1.920783
 20
-3.824850
  0
VERTEX
  8
PLAN_1
  6
CONTINUOUS
 10
1.916744
 20
-3.824850
  0
VERTEX
  8
PLAN_1
  6
CONTINUOUS
 10
1.910185
 20
-3.824850
  0
VERTEX
  8
PLAN_1
  6
CONTINUOUS
 10
1.902614
 20
-3.825862
  0
VERTEX
  8
PLAN_1
  6
CONTINUOUS
 10
1.898575
 20
-3.826870
  0
VERTEX
  8
PLAN_1
  6
CONTINUOUS
 10
1.895043
 20
-3.827882
  0
VERTEX
  8
PLAN_1
  6
CONTINUOUS
 10
1.891004
 20
-3.828890
  0
VERTEX
  8
PLAN_1
  6
CONTINUOUS
 10
1.887472
 20
-3.830909
  0
VERTEX
  8
PLAN_1
  6
CONTINUOUS
 10
1.884441
 20
-3.832929
  0
VERTEX
  8
PLAN_1
  6
CONTINUOUS
 10
1.881413
 20
-3.835453
  0
VERTEX
  8
PLAN_1
  6
CONTINUOUS
 10
1.878386
 20
-3.837976
  0
VERTEX
  8
PLAN_1
  6
CONTINUOUS
 10
1.875862
 20
-3.841508
  0
VERTEX
  8
PLAN_1
  6
CONTINUOUS
 10
1.873843
 20
-3.845043
  0
VERTEX
  8
PLAN_1
  6
CONTINUOUS
 10
1.872327
 20
-3.849587
  0
VERTEX
  8
PLAN_1
  6
CONTINUOUS
 10
1.871823
 20
-3.854126
  0
VERTEX
  8
PLAN_1
  6
CONTINUOUS
 10
1.871319
 20
-3.859681
  0
VERTEX
  8
PLAN_1
  6
CONTINUOUS
 10
1.871319
 20
-3.862709
  0
VERTEX
  8
PLAN_1
  6
CONTINUOUS
 10
1.871823
 20
-3.865232
  0
VERTEX
  8
PLAN_1
  6
CONTINUOUS
 10
1.872327
 20
-3.868260
  0
VERTEX
  8
PLAN_1
  6
CONTINUOUS
 10
1.873339
 20
-3.870280
  0
VERTEX
  8
PLAN_1
  6
CONTINUOUS
 10
1.874346
 20
-3.872299
  0
VERTEX
  8
PLAN_1
  6
CONTINUOUS
 10
1.875862
 20
-3.874319
  0
VERTEX
  8
PLAN_1
  6
CONTINUOUS
 10
1.876870
 20
-3.875831
  0
VERTEX
  8
PLAN_1
  6
CONTINUOUS
 10
1.878890
 20
-3.877346
  0
VERTEX
  8
PLAN_1
  6
CONTINUOUS
 10
1.882425
 20
-3.880374
  0
VERTEX
  8
PLAN_1
  6
CONTINUOUS
 10
1.886461
 20
-3.882394
  0
VERTEX
  8
PLAN_1
  6
CONTINUOUS
 10
1.890500
 20
-3.883906
  0
VERTEX
  8
PLAN_1
  6
CONTINUOUS
 10
1.895043
 20
-3.884917
  0
VERTEX
  8
PLAN_1
  6
CONTINUOUS
 10
1.951575
 20
-3.898039
  0
VERTEX
  8
PLAN_1
  6
CONTINUOUS
 10
1.956622
 20
-3.899051
  0
VERTEX
  8
PLAN_1
  6
CONTINUOUS
 10
1.961161
 20
-3.900563
  0
VERTEX
  8
PLAN_1
  6
CONTINUOUS
 10
1.965705
 20
-3.902583
  0
VERTEX
  8
PLAN_1
  6
CONTINUOUS
 10
1.969744
 20
-3.904602
  0
VERTEX
  8
PLAN_1
  6
CONTINUOUS
 10
1.973783
 20
-3.906622
  0
VERTEX
  8
PLAN_1
  6
CONTINUOUS
 10
1.977315
 20
-3.909146
  0
VERTEX
  8
PLAN_1
  6
CONTINUOUS
 10
1.980846
 20
-3.912173
  0
VERTEX
  8
PLAN_1
  6
CONTINUOUS
 10
1.983878
 20
-3.915201
  0
VERTEX
  8
PLAN_1
  6
CONTINUOUS
 10
1.986906
 20
-3.918228
  0
VERTEX
  8
PLAN_1
  6
CONTINUOUS
 10
1.989429
 20
-3.922268
  0
VERTEX
  8
PLAN_1
  6
CONTINUOUS
 10
1.991449
 20
-3.926307
  0
VERTEX
  8
PLAN_1
  6
CONTINUOUS
 10
1.993469
 20
-3.930343
  0
VERTEX
  8
PLAN_1
  6
CONTINUOUS
 10
1.994980
 20
-3.934886
  0
VERTEX
  8
PLAN_1
  6
CONTINUOUS
 10
1.995992
 20
-3.939933
  0
VERTEX
  8
PLAN_1
  6
CONTINUOUS
 10
1.997000
 20
-3.945484
  0
VERTEX
  8
PLAN_1
  6
CONTINUOUS
 10
1.997000
 20
-3.951039
  0
VERTEX
  8
PLAN_1
  6
CONTINUOUS
 10
1.997000
 20
-3.955579
  0
VERTEX
  8
PLAN_1
  6
CONTINUOUS
 10
1.996496
 20
-3.959618
  0
VERTEX
  8
PLAN_1
  6
CONTINUOUS
 10
1.995992
 20
-3.963657
  0
VERTEX
  8
PLAN_1
  6
CONTINUOUS
 10
1.994980
 20
-3.967189
  0
VERTEX
  8
PLAN_1
  6
CONTINUOUS
 10
1.992961
 20
-3.974256
  0
VERTEX
  8
PLAN_1
  6
CONTINUOUS
 10
1.989429
 20
-3.980315
  0
VERTEX
  8
PLAN_1
  6
CONTINUOUS
 10
1.985894
 20
-3.985866
  0
VERTEX
  8
PLAN_1
  6
CONTINUOUS
 10
1.981354
 20
-3.990913
  0
VERTEX
  8
PLAN_1
  6
CONTINUOUS
 10
1.976307
 20
-3.995457
  0
VERTEX
  8
PLAN_1
  6
CONTINUOUS
 10
1.970752
 20
-3.998988
  0
VERTEX
  8
PLAN_1
  6
CONTINUOUS
 10
1.964697
 20
-4.002016
  0
VERTEX
  8
PLAN_1
  6
CONTINUOUS
 10
1.958638
 20
-4.005047
  0
VERTEX
  8
PLAN_1
  6
CONTINUOUS
 10
1.952079
 20
-4.007063
  0
VERTEX
  8
PLAN_1
  6
CONTINUOUS
 10
1.945516
 20
-4.008579
  0
VERTEX
  8
PLAN_1
  6
CONTINUOUS
 10
1.938953
 20
-4.010094
  0
VERTEX
  8
PLAN_1
  6
CONTINUOUS
 10
1.932394
 20
-4.010598
  0
VERTEX
  8
PLAN_1
  6
CONTINUOUS
 10
1.925327
 20
-4.011102
  0
VERTEX
  8
PLAN_1
  6
CONTINUOUS
 10
1.918764
 20
-4.011606
  0
VERTEX
  8
PLAN_1
  6
CONTINUOUS
 10
1.912205
 20
-4.011102
  0
VERTEX
  8
PLAN_1
  6
CONTINUOUS
 10
1.906146
 20
-4.011102
  0
VERTEX
  8
PLAN_1
  6
CONTINUOUS
 10
1.900594
 20
-4.010598
  0
VERTEX
  8
PLAN_1
  6
CONTINUOUS
 10
1.895043
 20
-4.009587
  0
VERTEX
  8
PLAN_1
  6
CONTINUOUS
 10
1.885957
 20
-4.007571
  0
VERTEX
  8
PLAN_1
  6
CONTINUOUS
 10
1.878386
 20
-4.005047
  0
VERTEX
  8
PLAN_1
  6
CONTINUOUS
 10
1.871823
 20
-4.002016
  0
VERTEX
  8
PLAN_1
  6
CONTINUOUS
 10
1.866776
 20
-3.998484
  0
VERTEX
  8
PLAN_1
  6
CONTINUOUS
 10
1.862232
 20
-3.995457
  0
VERTEX
  8
PLAN_1
  6
CONTINUOUS
 10
1.858701
 20
-3.992425
  0
VERTEX
  8
PLAN_1
  6
CONTINUOUS
 10
1.853150
 20
-3.986370
  0
VERTEX
  8
PLAN_1
  6
CONTINUOUS
 10
1.848606
 20
-3.980819
  0
VERTEX
  8
PLAN_1
  6
CONTINUOUS
 10
1.845071
 20
-3.974760
  0
VERTEX
  8
PLAN_1
  6
CONTINUOUS
 10
1.842043
 20
-3.968201
  0
VERTEX
  8
PLAN_1
  6
CONTINUOUS
 10
1.840531
 20
-3.962142
  0
VERTEX
  8
PLAN_1
  6
CONTINUOUS
 10
1.839520
 20
-3.955579
  0
VERTEX
  8
PLAN_1
  6
CONTINUOUS
 10
1.838512
 20
-3.948516
  0
VERTEX
  8
PLAN_1
  6
CONTINUOUS
 10
1.838512
 20
-3.941953
  0
VERTEX
  8
PLAN_1
  6
CONTINUOUS
 10
1.863748
 20
-3.941953
  0
VERTEX
  8
PLAN_1
  6
CONTINUOUS
 10
1.864252
 20
-3.948516
  0
VERTEX
  8
PLAN_1
  6
CONTINUOUS
 10
1.865264
 20
-3.954067
  0
VERTEX
  8
PLAN_1
  6
CONTINUOUS
 10
1.866776
 20
-3.959618
  0
VERTEX
  8
PLAN_1
  6
CONTINUOUS
 10
1.868795
 20
-3.964161
  0
VERTEX
  8
PLAN_1
  6
CONTINUOUS
 10
1.871319
 20
-3.968705
  0
VERTEX
  8
PLAN_1
  6
CONTINUOUS
 10
1.874346
 20
-3.972236
  0
VERTEX
  8
PLAN_1
  6
CONTINUOUS
 10
1.877882
 20
-3.975772
  0
VERTEX
  8
PLAN_1
  6
CONTINUOUS
 10
1.881917
 20
-3.978799
  0
VERTEX
  8
PLAN_1
  6
CONTINUOUS
 10
1.885957
 20
-3.981323
  0
VERTEX
  8
PLAN_1
  6
CONTINUOUS
 10
1.889996
 20
-3.983343
  0
VERTEX
  8
PLAN_1
  6
CONTINUOUS
 10
1.894535
 20
-3.984854
  0
VERTEX
  8
PLAN_1
  6
CONTINUOUS
 10
1.899587
 20
-3.986370
  0
VERTEX
  8
PLAN_1
  6
CONTINUOUS
 10
1.904126
 20
-3.987378
  0
VERTEX
  8
PLAN_1
  6
CONTINUOUS
 10
1.909173
 20
-3.987886
  0
VERTEX
  8
PLAN_1
  6
CONTINUOUS
 10
1.913717
 20
-3.988390
  0
VERTEX
  8
PLAN_1
  6
CONTINUOUS
 10
1.918764
 20
-3.988390
  0
VERTEX
  8
PLAN_1
  6
CONTINUOUS
 10
1.926335
 20
-3.988390
  0
VERTEX
  8
PLAN_1
  6
CONTINUOUS
 10
1.934917
 20
-3.987378
  0
VERTEX
  8
PLAN_1
  6
CONTINUOUS
 10
1.939461
 20
-3.986370
  0
VERTEX
  8
PLAN_1
  6
CONTINUOUS
 10
1.944004
 20
-3.985362
  0
VERTEX
  8
PLAN_1
  6
CONTINUOUS
 10
1.948039
 20
-3.983846
  0
VERTEX
  8
PLAN_1
  6
CONTINUOUS
 10
1.952079
 20
-3.982331
  0
VERTEX
  8
PLAN_1
  6
CONTINUOUS
 10
1.956114
 20
-3.980315
  0
VERTEX
  8
PLAN_1
  6
CONTINUOUS
 10
1.959650
 20
-3.977787
  0
VERTEX
  8
PLAN_1
  6
CONTINUOUS
 10
1.962677
 20
-3.975264
  0
VERTEX
  8
PLAN_1
  6
CONTINUOUS
 10
1.965705
 20
-3.972236
  0
VERTEX
  8
PLAN_1
  6
CONTINUOUS
 10
1.967724
 20
-3.968705
  0
VERTEX
  8
PLAN_1
  6
CONTINUOUS
 10
1.969240
 20
-3.964665
  0
VERTEX
  8
PLAN_1
  6
CONTINUOUS
 10
1.970752
 20
-3.960122
  0
VERTEX
  8
PLAN_1
  6
CONTINUOUS
 10
1.970752
 20
-3.955075
  0
VERTEX
  8
PLAN_1
  6
CONTINUOUS
 10
1.970752
 20
-3.951039
  0
VERTEX
  8
PLAN_1
  6
CONTINUOUS
 10
1.970248
 20
-3.947504
  0
VERTEX
  8
PLAN_1
  6
CONTINUOUS
 10
1.969744
 20
-3.944476
  0
VERTEX
  8
PLAN_1
  6
CONTINUOUS
 10
1.968736
 20
-3.941449
  0
VERTEX
  8
PLAN_1
  6
CONTINUOUS
 10
1.967724
 20
-3.938925
  0
VERTEX
  8
PLAN_1
  6
CONTINUOUS
 10
1.966213
 20
-3.936402
  0
VERTEX
  8
PLAN_1
  6
CONTINUOUS
 10
1.964193
 20
-3.934382
  0
VERTEX
  8
PLAN_1
  6
CONTINUOUS
 10
1.962173
 20
-3.932362
  0
VERTEX
  8
PLAN_1
  6
CONTINUOUS
 10
1.959146
 20
-3.930343
  0
VERTEX
  8
PLAN_1
  6
CONTINUOUS
 10
1.956114
 20
-3.928831
  0
VERTEX
  8
PLAN_1
  6
CONTINUOUS
 10
1.952583
 20
-3.926811
  0
VERTEX
  8
PLAN_1
  6
CONTINUOUS
 10
1.949051
 20
-3.925295
  0
VERTEX
  8
PLAN_1
  6
CONTINUOUS
 10
1.939461
 20
-3.922268
  0
VERTEX
  8
PLAN_1
  6
CONTINUOUS
 10
1.928354
 20
-3.919744
  0
VERTEX
  8
PLAN_1
  6
CONTINUOUS
 10
1.887472
 20
-3.910154
  0
VERTEX
  8
PLAN_1
  6
CONTINUOUS
 10
1.881917
 20
-3.908638
  0
VERTEX
  8
PLAN_1
  6
CONTINUOUS
 10
1.875358
 20
-3.906622
  0
VERTEX
  8
PLAN_1
  6
CONTINUOUS
 10
1.871823
 20
-3.905106
  0
VERTEX
  8
PLAN_1
  6
CONTINUOUS
 10
1.868291
 20
-3.903087
  0
VERTEX
  8
PLAN_1
  6
CONTINUOUS
 10
1.864756
 20
-3.901067
  0
VERTEX
  8
PLAN_1
  6
CONTINUOUS
 10
1.861728
 20
-3.898543
  0
VERTEX
  8
PLAN_1
  6
CONTINUOUS
 10
1.858197
 20
-3.895516
  0
VERTEX
  8
PLAN_1
  6
CONTINUOUS
 10
1.855165
 20
-3.892488
  0
VERTEX
  8
PLAN_1
  6
CONTINUOUS
 10
1.852138
 20
-3.888953
  0
VERTEX
  8
PLAN_1
  6
CONTINUOUS
 10
1.850118
 20
-3.884917
  0
VERTEX
  8
PLAN_1
  6
CONTINUOUS
 10
1.848102
 20
-3.880374
  0
VERTEX
  8
PLAN_1
  6
CONTINUOUS
 10
1.846587
 20
-3.875327
  0
VERTEX
  8
PLAN_1
  6
CONTINUOUS
 10
1.845579
 20
-3.869268
  0
VERTEX
  8
PLAN_1
  6
CONTINUOUS
 10
1.845071
 20
-3.863213
  0
VERTEX
  8
PLAN_1
  6
CONTINUOUS
 10
1.845579
 20
-3.857661
  0
VERTEX
  8
PLAN_1
  6
CONTINUOUS
 10
1.846083
 20
-3.851602
  0
VERTEX
  8
PLAN_1
  6
CONTINUOUS
 10
1.847594
 20
-3.846051
  0
VERTEX
  8
PLAN_1
  6
CONTINUOUS
 10
1.849110
 20
-3.840500
  0
VERTEX
  8
PLAN_1
  6
CONTINUOUS
 10
1.851130
 20
-3.834949
  0
VERTEX
  8
PLAN_1
  6
CONTINUOUS
 10
1.854157
 20
-3.829902
  0
VERTEX
  8
PLAN_1
  6
CONTINUOUS
 10
1.857693
 20
-3.825358
  0
VERTEX
  8
PLAN_1
  6
CONTINUOUS
 10
1.861224
 20
-3.820815
  0
VERTEX
  8
PLAN_1
  6
CONTINUOUS
 10
1.865768
 20
-3.816776
  0
VERTEX
  8
PLAN_1
  6
CONTINUOUS
 10
1.870815
 20
-3.812740
  0
VERTEX
  8
PLAN_1
  6
CONTINUOUS
 10
1.876366
 20
-3.809709
  0
VERTEX
  8
PLAN_1
  6
CONTINUOUS
 10
1.882425
 20
-3.806681
  0
VERTEX
  8
PLAN_1
  6
CONTINUOUS
 10
1.889488
 20
-3.804661
  0
VERTEX
  8
PLAN_1
  6
CONTINUOUS
 10
1.897059
 20
-3.803150
  0
VERTEX
  8
PLAN_1
  6
CONTINUOUS
 10
1.905138
 20
-3.802138
  0
VERTEX
  8
PLAN_1
  6
CONTINUOUS
 10
1.913717
 20
-3.801634
  0
VERTEX
  8
PLAN_1
  6
CONTINUOUS
 10
1.925831
 20
-3.802138
  0
VERTEX
  8
PLAN_1
  6
CONTINUOUS
 10
1.936937
 20
-3.803654
  0
VERTEX
  8
PLAN_1
  6
CONTINUOUS
 10
1.946528
 20
-3.805673
  0
VERTEX
  8
PLAN_1
  6
CONTINUOUS
 10
1.955106
 20
-3.808701
  0
VERTEX
  8
PLAN_1
  6
CONTINUOUS
 10
1.962173
 20
-3.811728
  0
VERTEX
  8
PLAN_1
  6
CONTINUOUS
 10
1.968736
 20
-3.815768
  0
VERTEX
  8
PLAN_1
  6
CONTINUOUS
 10
1.973783
 20
-3.820311
  0
VERTEX
  8
PLAN_1
  6
CONTINUOUS
 10
1.978323
 20
-3.825358
  0
VERTEX
  8
PLAN_1
  6
CONTINUOUS
 10
1.981858
 20
-3.830406
  0
VERTEX
  8
PLAN_1
  6
CONTINUOUS
 10
1.984886
 20
-3.835453
  0
VERTEX
  8
PLAN_1
  6
CONTINUOUS
 10
1.986906
 20
-3.840500
  0
VERTEX
  8
PLAN_1
  6
CONTINUOUS
 10
1.988421
 20
-3.846051
  0
VERTEX
  8
PLAN_1
  6
CONTINUOUS
 10
1.989933
 20
-3.851098
  0
VERTEX
  8
PLAN_1
  6
CONTINUOUS
 10
1.990437
 20
-3.856146
  0
VERTEX
  8
PLAN_1
  6
CONTINUOUS
 10
1.990945
 20
-3.860689
  0
VERTEX
  8
PLAN_1
  6
CONTINUOUS
 10
1.991449
 20
-3.865232
  0
VERTEX
  8
PLAN_1
  6
CONTINUOUS
 10
1.966213
 20
-3.865232
  0
SEQEND
  8
0
  0
POLYLINE
  8
PLAN_1
  6
CONTINUOUS
 66
     1
 40
0.008579
 41
0.008579
  0
VERTEX
  8
PLAN_1
  6
CONTINUOUS
 10
-0.213268
 20
0.075799
  0
VERTEX
  8
PLAN_1
  6
CONTINUOUS
 10
-0.213268
 20
1.290209
  0
VERTEX
  8
PLAN_1
  6
CONTINUOUS
 10
-1.790591
 20
1.290209
  0
VERTEX
  8
PLAN_1
  6
CONTINUOUS
 10
-1.790591
 20
0.075799
  0
VERTEX
  8
PLAN_1
  6
CONTINUOUS
 10
-0.213268
 20
0.075799
  0
SEQEND
  8
0
  0
POLYLINE
  8
PLAN_1
  6
CONTINUOUS
 66
     1
 40
0.008579
 41
0.008579
  0
VERTEX
  8
PLAN_1
  6
CONTINUOUS
 10
-0.916374
 20
-0.668193
  0
VERTEX
  8
PLAN_1
  6
CONTINUOUS
 10
-0.916374
 20
-0.530398
  0
VERTEX
  8
PLAN_1
  6
CONTINUOUS
 10
-1.081929
 20
-0.530398
  0
VERTEX
  8
PLAN_1
  6
CONTINUOUS
 10
-1.081929
 20
-0.668193
  0
VERTEX
  8
PLAN_1
  6
CONTINUOUS
 10
-0.916374
 20
-0.668193
  0
SEQEND
  8
0
  0
POLYLINE
  8
PLAN_1
  6
CONTINUOUS
 66
     1
 40
0.008579
 41
0.008579
  0
VERTEX
  8
PLAN_1
  6
CONTINUOUS
 10
-0.341472
 20
0.045516
  0
VERTEX
  8
PLAN_1
  6
CONTINUOUS
 10
-0.341472
 20
0.070248
  0
VERTEX
  8
PLAN_1
  6
CONTINUOUS
 10
-1.636642
 20
0.070248
  0
VERTEX
  8
PLAN_1
  6
CONTINUOUS
 10
-1.636642
 20
0.045516
  0
VERTEX
  8
PLAN_1
  6
CONTINUOUS
 10
-0.341472
 20
0.045516
  0
SEQEND
  8
0
  0
POLYLINE
  8
PLAN_1
  6
CONTINUOUS
 66
     1
 40
0.008579
 41
0.008579
  0
VERTEX
  8
PLAN_1
  6
CONTINUOUS
 10
-0.666024
 20
-0.530398
  0
VERTEX
  8
PLAN_1
  6
CONTINUOUS
 10
-0.666024
 20
0.045516
  0
VERTEX
  8
PLAN_1
  6
CONTINUOUS
 10
-1.339854
 20
0.045516
  0
VERTEX
  8
PLAN_1
  6
CONTINUOUS
 10
-1.339854
 20
-0.530398
  0
VERTEX
  8
PLAN_1
  6
CONTINUOUS
 10
-0.666024
 20
-0.530398
  0
SEQEND
  8
0
  0
POLYLINE
  8
PLAN_1
 62
     5
  6
CONTINUOUS
 66
     1
 40
0.003000
 41
0.003000
  0
VERTEX
  8
PLAN_1
 62
     5
  6
CONTINUOUS
 10
-1.991980
 20
-0.769646
  0
VERTEX
  8
PLAN_1
 62
     5
  6
CONTINUOUS
 10
-1.991980
 20
-0.761571
  0
SEQEND
  8
0
  0
POLYLINE
  8
PLAN_1
 62
     5
  6
CONTINUOUS
 66
     1
 40
0.003000
 41
0.003000
  0
VERTEX
  8
PLAN_1
 62
     5
  6
CONTINUOUS
 10
-1.991980
 20
-0.752988
  0
VERTEX
  8
PLAN_1
 62
     5
  6
CONTINUOUS
 10
-1.991980
 20
-0.744913
  0
SEQEND
  8
0
  0
POLYLINE
  8
PLAN_1
 62
     5
  6
CONTINUOUS
 66
     1
 40
0.003000
 41
0.003000
  0
VERTEX
  8
PLAN_1
 62
     5
  6
CONTINUOUS
 10
-1.991980
 20
-0.736331
  0
VERTEX
  8
PLAN_1
 62
     5
  6
CONTINUOUS
 10
-1.991980
 20
-0.728256
  0
SEQEND
  8
0
  0
POLYLINE
  8
PLAN_1
 62
     5
  6
CONTINUOUS
 66
     1
 40
0.003000
 41
0.003000
  0
VERTEX
  8
PLAN_1
 62
     5
  6
CONTINUOUS
 10
-1.991980
 20
-0.719677
  0
VERTEX
  8
PLAN_1
 62
     5
  6
CONTINUOUS
 10
-1.991980
 20
-0.711598
  0
SEQEND
  8
0
  0
POLYLINE
  8
PLAN_1
 62
     5
  6
CONTINUOUS
 66
     1
 40
0.003000
 41
0.003000
  0
VERTEX
  8
PLAN_1
 62
     5
  6
CONTINUOUS
 10
-1.991980
 20
-0.703020
  0
VERTEX
  8
PLAN_1
 62
     5
  6
CONTINUOUS
 10
-1.991980
 20
-0.694945
  0
SEQEND
  8
0
  0
POLYLINE
  8
PLAN_1
 62
     5
  6
CONTINUOUS
 66
     1
 40
0.003000
 41
0.003000
  0
VERTEX
  8
PLAN_1
 62
     5
  6
CONTINUOUS
 10
-1.991980
 20
-0.686362
  0
VERTEX
  8
PLAN_1
 62
     5
  6
CONTINUOUS
 10
-1.991980
 20
-0.678287
  0
SEQEND
  8
0
  0
POLYLINE
  8
PLAN_1
 62
     5
  6
CONTINUOUS
 66
     1
 40
0.003000
 41
0.003000
  0
VERTEX
  8
PLAN_1
 62
     5
  6
CONTINUOUS
 10
-1.991980
 20
-0.669705
  0
VERTEX
  8
PLAN_1
 62
     5
  6
CONTINUOUS
 10
-1.991980
 20
-0.661630
  0
SEQEND
  8
0
  0
POLYLINE
  8
PLAN_1
 62
     5
  6
CONTINUOUS
 66
     1
 40
0.003000
 41
0.003000
  0
VERTEX
  8
PLAN_1
 62
     5
  6
CONTINUOUS
 10
-1.991980
 20
-0.653051
  0
VERTEX
  8
PLAN_1
 62
     5
  6
CONTINUOUS
 10
-1.991980
 20
-0.644972
  0
SEQEND
  8
0
  0
POLYLINE
  8
PLAN_1
 62
     5
  6
CONTINUOUS
 66
     1
 40
0.003000
 41
0.003000
  0
VERTEX
  8
PLAN_1
 62
     5
  6
CONTINUOUS
 10
-1.991980
 20
-0.636394
  0
VERTEX
  8
PLAN_1
 62
     5
  6
CONTINUOUS
 10
-1.991980
 20
-0.628319
  0
SEQEND
  8
0
  0
POLYLINE
  8
PLAN_1
 62
     5
  6
CONTINUOUS
 66
     1
 40
0.003000
 41
0.003000
  0
VERTEX
  8
PLAN_1
 62
     5
  6
CONTINUOUS
 10
-1.991980
 20
-0.619736
  0
VERTEX
  8
PLAN_1
 62
     5
  6
CONTINUOUS
 10
-1.991980
 20
-0.611661
  0
SEQEND
  8
0
  0
POLYLINE
  8
PLAN_1
 62
     5
  6
CONTINUOUS
 66
     1
 40
0.003000
 41
0.003000
  0
VERTEX
  8
PLAN_1
 62
     5
  6
CONTINUOUS
 10
-1.991980
 20
-0.603079
  0
VERTEX
  8
PLAN_1
 62
     5
  6
CONTINUOUS
 10
-1.991980
 20
-0.595004
  0
SEQEND
  8
0
  0
POLYLINE
  8
PLAN_1
 62
     5
  6
CONTINUOUS
 66
     1
 40
0.003000
 41
0.003000
  0
VERTEX
  8
PLAN_1
 62
     5
  6
CONTINUOUS
 10
-1.991980
 20
-0.586425
  0
VERTEX
  8
PLAN_1
 62
     5
  6
CONTINUOUS
 10
-1.991980
 20
-0.578346
  0
SEQEND
  8
0
  0
POLYLINE
  8
PLAN_1
 62
     5
  6
CONTINUOUS
 66
     1
 40
0.003000
 41
0.003000
  0
VERTEX
  8
PLAN_1
 62
     5
  6
CONTINUOUS
 10
-1.991980
 20
-0.569768
  0
VERTEX
  8
PLAN_1
 62
     5
  6
CONTINUOUS
 10
-1.991980
 20
-0.561693
  0
SEQEND
  8
0
  0
POLYLINE
  8
PLAN_1
 62
     5
  6
CONTINUOUS
 66
     1
 40
0.003000
 41
0.003000
  0
VERTEX
  8
PLAN_1
 62
     5
  6
CONTINUOUS
 10
-1.991980
 20
-0.553110
  0
VERTEX
  8
PLAN_1
 62
     5
  6
CONTINUOUS
 10
-1.991980
 20
-0.545035
  0
SEQEND
  8
0
  0
POLYLINE
  8
PLAN_1
 62
     5
  6
CONTINUOUS
 66
     1
 40
0.003000
 41
0.003000
  0
VERTEX
  8
PLAN_1
 62
     5
  6
CONTINUOUS
 10
-1.991980
 20
-0.536453
  0
VERTEX
  8
PLAN_1
 62
     5
  6
CONTINUOUS
 10
-1.991980
 20
-0.528378
  0
SEQEND
  8
0
  0
POLYLINE
  8
PLAN_1
 62
     5
  6
CONTINUOUS
 66
     1
 40
0.003000
 41
0.003000
  0
VERTEX
  8
PLAN_1
 62
     5
  6
CONTINUOUS
 10
-1.991980
 20
-0.519799
  0
VERTEX
  8
PLAN_1
 62
     5
  6
CONTINUOUS
 10
-1.991980
 20
-0.511720
  0
SEQEND
  8
0
  0
POLYLINE
  8
PLAN_1
 62
     5
  6
CONTINUOUS
 66
     1
 40
0.003000
 41
0.003000
  0
VERTEX
  8
PLAN_1
 62
     5
  6
CONTINUOUS
 10
-1.991980
 20
-0.503142
  0
VERTEX
  8
PLAN_1
 62
     5
  6
CONTINUOUS
 10
-1.991980
 20
-0.495067
  0
SEQEND
  8
0
  0
POLYLINE
  8
PLAN_1
 62
     5
  6
CONTINUOUS
 66
     1
 40
0.003000
 41
0.003000
  0
VERTEX
  8
PLAN_1
 62
     5
  6
CONTINUOUS
 10
-1.991980
 20
-0.486484
  0
VERTEX
  8
PLAN_1
 62
     5
  6
CONTINUOUS
 10
-1.991980
 20
-0.478409
  0
SEQEND
  8
0
  0
POLYLINE
  8
PLAN_1
 62
     5
  6
CONTINUOUS
 66
     1
 40
0.003000
 41
0.003000
  0
VERTEX
  8
PLAN_1
 62
     5
  6
CONTINUOUS
 10
-1.991980
 20
-0.469827
  0
VERTEX
  8
PLAN_1
 62
     5
  6
CONTINUOUS
 10
-1.991980
 20
-0.461752
  0
SEQEND
  8
0
  0
POLYLINE
  8
PLAN_1
 62
     5
  6
CONTINUOUS
 66
     1
 40
0.003000
 41
0.003000
  0
VERTEX
  8
PLAN_1
 62
     5
  6
CONTINUOUS
 10
-1.991980
 20
-0.453173
  0
VERTEX
  8
PLAN_1
 62
     5
  6
CONTINUOUS
 10
-1.991980
 20
-0.445094
  0
SEQEND
  8
0
  0
POLYLINE
  8
PLAN_1
 62
     5
  6
CONTINUOUS
 66
     1
 40
0.003000
 41
0.003000
  0
VERTEX
  8
PLAN_1
 62
     5
  6
CONTINUOUS
 10
-1.991980
 20
-0.436516
  0
VERTEX
  8
PLAN_1
 62
     5
  6
CONTINUOUS
 10
-1.991980
 20
-0.428441
  0
SEQEND
  8
0
  0
POLYLINE
  8
PLAN_1
 62
     5
  6
CONTINUOUS
 66
     1
 40
0.003000
 41
0.003000
  0
VERTEX
  8
PLAN_1
 62
     5
  6
CONTINUOUS
 10
-1.991980
 20
-0.419858
  0
VERTEX
  8
PLAN_1
 62
     5
  6
CONTINUOUS
 10
-1.991980
 20
-0.411783
  0
SEQEND
  8
0
  0
POLYLINE
  8
PLAN_1
 62
     5
  6
CONTINUOUS
 66
     1
 40
0.003000
 41
0.003000
  0
VERTEX
  8
PLAN_1
 62
     5
  6
CONTINUOUS
 10
-1.991980
 20
-0.403201
  0
VERTEX
  8
PLAN_1
 62
     5
  6
CONTINUOUS
 10
-1.991980
 20
-0.395126
  0
SEQEND
  8
0
  0
POLYLINE
  8
PLAN_1
 62
     5
  6
CONTINUOUS
 66
     1
 40
0.003000
 41
0.003000
  0
VERTEX
  8
PLAN_1
 62
     5
  6
CONTINUOUS
 10
-1.991980
 20
-0.386547
  0
VERTEX
  8
PLAN_1
 62
     5
  6
CONTINUOUS
 10
-1.991980
 20
-0.378469
  0
SEQEND
  8
0
  0
POLYLINE
  8
PLAN_1
 62
     5
  6
CONTINUOUS
 66
     1
 40
0.003000
 41
0.003000
  0
VERTEX
  8
PLAN_1
 62
     5
  6
CONTINUOUS
 10
-1.991980
 20
-0.369890
  0
VERTEX
  8
PLAN_1
 62
     5
  6
CONTINUOUS
 10
-1.991980
 20
-0.361815
  0
SEQEND
  8
0
  0
POLYLINE
  8
PLAN_1
 62
     5
  6
CONTINUOUS
 66
     1
 40
0.003000
 41
0.003000
  0
VERTEX
  8
PLAN_1
 62
     5
  6
CONTINUOUS
 10
-1.991980
 20
-0.353232
  0
VERTEX
  8
PLAN_1
 62
     5
  6
CONTINUOUS
 10
-1.991980
 20
-0.345157
  0
SEQEND
  8
0
  0
POLYLINE
  8
PLAN_1
 62
     5
  6
CONTINUOUS
 66
     1
 40
0.003000
 41
0.003000
  0
VERTEX
  8
PLAN_1
 62
     5
  6
CONTINUOUS
 10
-1.991980
 20
-0.336575
  0
VERTEX
  8
PLAN_1
 62
     5
  6
CONTINUOUS
 10
-1.991980
 20
-0.328500
  0
SEQEND
  8
0
  0
POLYLINE
  8
PLAN_1
 62
     5
  6
CONTINUOUS
 66
     1
 40
0.003000
 41
0.003000
  0
VERTEX
  8
PLAN_1
 62
     5
  6
CONTINUOUS
 10
-1.991980
 20
-0.319921
  0
VERTEX
  8
PLAN_1
 62
     5
  6
CONTINUOUS
 10
-1.991980
 20
-0.311843
  0
SEQEND
  8
0
  0
POLYLINE
  8
PLAN_1
 62
     5
  6
CONTINUOUS
 66
     1
 40
0.003000
 41
0.003000
  0
VERTEX
  8
PLAN_1
 62
     5
  6
CONTINUOUS
 10
-1.991980
 20
-0.303264
  0
VERTEX
  8
PLAN_1
 62
     5
  6
CONTINUOUS
 10
-1.991980
 20
-0.295189
  0
SEQEND
  8
0
  0
POLYLINE
  8
PLAN_1
 62
     5
  6
CONTINUOUS
 66
     1
 40
0.003000
 41
0.003000
  0
VERTEX
  8
PLAN_1
 62
     5
  6
CONTINUOUS
 10
-1.991980
 20
-0.286606
  0
VERTEX
  8
PLAN_1
 62
     5
  6
CONTINUOUS
 10
-1.991980
 20
-0.278531
  0
SEQEND
  8
0
  0
POLYLINE
  8
PLAN_1
 62
     5
  6
CONTINUOUS
 66
     1
 40
0.003000
 41
0.003000
  0
VERTEX
  8
PLAN_1
 62
     5
  6
CONTINUOUS
 10
-1.991980
 20
-0.269949
  0
VERTEX
  8
PLAN_1
 62
     5
  6
CONTINUOUS
 10
-1.991980
 20
-0.261874
  0
SEQEND
  8
0
  0
POLYLINE
  8
PLAN_1
 62
     5
  6
CONTINUOUS
 66
     1
 40
0.003000
 41
0.003000
  0
VERTEX
  8
PLAN_1
 62
     5
  6
CONTINUOUS
 10
-1.991980
 20
-0.253295
  0
VERTEX
  8
PLAN_1
 62
     5
  6
CONTINUOUS
 10
-1.991980
 20
-0.245217
  0
SEQEND
  8
0
  0
POLYLINE
  8
PLAN_1
 62
     5
  6
CONTINUOUS
 66
     1
 40
0.003000
 41
0.003000
  0
VERTEX
  8
PLAN_1
 62
     5
  6
CONTINUOUS
 10
-1.991980
 20
-0.236638
  0
VERTEX
  8
PLAN_1
 62
     5
  6
CONTINUOUS
 10
-1.991980
 20
-0.228559
  0
SEQEND
  8
0
  0
POLYLINE
  8
PLAN_1
 62
     5
  6
CONTINUOUS
 66
     1
 40
0.003000
 41
0.003000
  0
VERTEX
  8
PLAN_1
 62
     5
  6
CONTINUOUS
 10
-1.991980
 20
-0.219980
  0
VERTEX
  8
PLAN_1
 62
     5
  6
CONTINUOUS
 10
-1.991980
 20
-0.211906
  0
SEQEND
  8
0
  0
POLYLINE
  8
PLAN_1
 62
     5
  6
CONTINUOUS
 66
     1
 40
0.003000
 41
0.003000
  0
VERTEX
  8
PLAN_1
 62
     5
  6
CONTINUOUS
 10
-1.991980
 20
-0.203323
  0
VERTEX
  8
PLAN_1
 62
     5
  6
CONTINUOUS
 10
-1.991980
 20
-0.195248
  0
SEQEND
  8
0
  0
POLYLINE
  8
PLAN_1
 62
     5
  6
CONTINUOUS
 66
     1
 40
0.003000
 41
0.003000
  0
VERTEX
  8
PLAN_1
 62
     5
  6
CONTINUOUS
 10
-1.991980
 20
-0.186669
  0
VERTEX
  8
PLAN_1
 62
     5
  6
CONTINUOUS
 10
-1.991980
 20
-0.178591
  0
SEQEND
  8
0
  0
POLYLINE
  8
PLAN_1
 62
     5
  6
CONTINUOUS
 66
     1
 40
0.003000
 41
0.003000
  0
VERTEX
  8
PLAN_1
 62
     5
  6
CONTINUOUS
 10
-1.991980
 20
-0.170012
  0
VERTEX
  8
PLAN_1
 62
     5
  6
CONTINUOUS
 10
-1.991980
 20
-0.161933
  0
SEQEND
  8
0
  0
POLYLINE
  8
PLAN_1
 62
     5
  6
CONTINUOUS
 66
     1
 40
0.003000
 41
0.003000
  0
VERTEX
  8
PLAN_1
 62
     5
  6
CONTINUOUS
 10
-1.991980
 20
-0.153354
  0
VERTEX
  8
PLAN_1
 62
     5
  6
CONTINUOUS
 10
-1.991980
 20
-0.145280
  0
SEQEND
  8
0
  0
POLYLINE
  8
PLAN_1
 62
     5
  6
CONTINUOUS
 66
     1
 40
0.003000
 41
0.003000
  0
VERTEX
  8
PLAN_1
 62
     5
  6
CONTINUOUS
 10
-1.991980
 20
-0.136697
  0
VERTEX
  8
PLAN_1
 62
     5
  6
CONTINUOUS
 10
-1.991980
 20
-0.128622
  0
SEQEND
  8
0
  0
POLYLINE
  8
PLAN_1
 62
     5
  6
CONTINUOUS
 66
     1
 40
0.003000
 41
0.003000
  0
VERTEX
  8
PLAN_1
 62
     5
  6
CONTINUOUS
 10
-1.991980
 20
-0.120043
  0
VERTEX
  8
PLAN_1
 62
     5
  6
CONTINUOUS
 10
-1.991980
 20
-0.111965
  0
SEQEND
  8
0
  0
POLYLINE
  8
PLAN_1
 62
     5
  6
CONTINUOUS
 66
     1
 40
0.003000
 41
0.003000
  0
VERTEX
  8
PLAN_1
 62
     5
  6
CONTINUOUS
 10
-1.991980
 20
-0.103386
  0
VERTEX
  8
PLAN_1
 62
     5
  6
CONTINUOUS
 10
-1.991980
 20
-0.095307
  0
SEQEND
  8
0
  0
POLYLINE
  8
PLAN_1
 62
     5
  6
CONTINUOUS
 66
     1
 40
0.003000
 41
0.003000
  0
VERTEX
  8
PLAN_1
 62
     5
  6
CONTINUOUS
 10
-1.991980
 20
-0.086728
  0
VERTEX
  8
PLAN_1
 62
     5
  6
CONTINUOUS
 10
-1.991980
 20
-0.078654
  0
SEQEND
  8
0
  0
POLYLINE
  8
PLAN_1
 62
     5
  6
CONTINUOUS
 66
     1
 40
0.003000
 41
0.003000
  0
VERTEX
  8
PLAN_1
 62
     5
  6
CONTINUOUS
 10
-1.991980
 20
-0.070071
  0
VERTEX
  8
PLAN_1
 62
     5
  6
CONTINUOUS
 10
-1.991980
 20
-0.061996
  0
SEQEND
  8
0
  0
POLYLINE
  8
PLAN_1
 62
     5
  6
CONTINUOUS
 66
     1
 40
0.003000
 41
0.003000
  0
VERTEX
  8
PLAN_1
 62
     5
  6
CONTINUOUS
 10
-1.991980
 20
-0.053413
  0
VERTEX
  8
PLAN_1
 62
     5
  6
CONTINUOUS
 10
-1.991980
 20
-0.045339
  0
SEQEND
  8
0
  0
POLYLINE
  8
PLAN_1
 62
     5
  6
CONTINUOUS
 66
     1
 40
0.003000
 41
0.003000
  0
VERTEX
  8
PLAN_1
 62
     5
  6
CONTINUOUS
 10
-1.991980
 20
-0.036760
  0
VERTEX
  8
PLAN_1
 62
     5
  6
CONTINUOUS
 10
-1.991980
 20
-0.028681
  0
SEQEND
  8
0
  0
POLYLINE
  8
PLAN_1
 62
     5
  6
CONTINUOUS
 66
     1
 40
0.003000
 41
0.003000
  0
VERTEX
  8
PLAN_1
 62
     5
  6
CONTINUOUS
 10
-1.991980
 20
-0.020102
  0
VERTEX
  8
PLAN_1
 62
     5
  6
CONTINUOUS
 10
-1.991980
 20
-0.012028
  0
SEQEND
  8
0
  0
POLYLINE
  8
PLAN_1
 62
     5
  6
CONTINUOUS
 66
     1
 40
0.003000
 41
0.003000
  0
VERTEX
  8
PLAN_1
 62
     5
  6
CONTINUOUS
 10
-1.991980
 20
-0.003445
  0
VERTEX
  8
PLAN_1
 62
     5
  6
CONTINUOUS
 10
-1.991980
 20
0.004630
  0
SEQEND
  8
0
  0
POLYLINE
  8
PLAN_1
 62
     5
  6
CONTINUOUS
 66
     1
 40
0.003000
 41
0.003000
  0
VERTEX
  8
PLAN_1
 62
     5
  6
CONTINUOUS
 10
-1.991980
 20
0.013213
  0
VERTEX
  8
PLAN_1
 62
     5
  6
CONTINUOUS
 10
-1.991980
 20
0.021287
  0
SEQEND
  8
0
  0
POLYLINE
  8
PLAN_1
 62
     5
  6
CONTINUOUS
 66
     1
 40
0.003000
 41
0.003000
  0
VERTEX
  8
PLAN_1
 62
     5
  6
CONTINUOUS
 10
-1.991980
 20
0.029866
  0
VERTEX
  8
PLAN_1
 62
     5
  6
CONTINUOUS
 10
-1.991980
 20
0.037945
  0
SEQEND
  8
0
  0
POLYLINE
  8
PLAN_1
 62
     5
  6
CONTINUOUS
 66
     1
 40
0.003000
 41
0.003000
  0
VERTEX
  8
PLAN_1
 62
     5
  6
CONTINUOUS
 10
-1.991980
 20
0.046524
  0
VERTEX
  8
PLAN_1
 62
     5
  6
CONTINUOUS
 10
-1.991980
 20
0.054598
  0
SEQEND
  8
0
  0
POLYLINE
  8
PLAN_1
 62
     5
  6
CONTINUOUS
 66
     1
 40
0.003000
 41
0.003000
  0
VERTEX
  8
PLAN_1
 62
     5
  6
CONTINUOUS
 10
-1.991980
 20
0.063181
  0
VERTEX
  8
PLAN_1
 62
     5
  6
CONTINUOUS
 10
-1.991980
 20
0.071256
  0
SEQEND
  8
0
  0
POLYLINE
  8
PLAN_1
 62
     5
  6
CONTINUOUS
 66
     1
 40
0.003000
 41
0.003000
  0
VERTEX
  8
PLAN_1
 62
     5
  6
CONTINUOUS
 10
-1.987945
 20
0.075799
  0
VERTEX
  8
PLAN_1
 62
     5
  6
CONTINUOUS
 10
-1.979362
 20
0.075799
  0
SEQEND
  8
0
  0
POLYLINE
  8
PLAN_1
 62
     5
  6
CONTINUOUS
 66
     1
 40
0.003000
 41
0.003000
  0
VERTEX
  8
PLAN_1
 62
     5
  6
CONTINUOUS
 10
-1.971287
 20
0.075799
  0
VERTEX
  8
PLAN_1
 62
     5
  6
CONTINUOUS
 10
-1.962705
 20
0.075799
  0
SEQEND
  8
0
  0
POLYLINE
  8
PLAN_1
 62
     5
  6
CONTINUOUS
 66
     1
 40
0.003000
 41
0.003000
  0
VERTEX
  8
PLAN_1
 62
     5
  6
CONTINUOUS
 10
-1.954630
 20
0.075799
  0
VERTEX
  8
PLAN_1
 62
     5
  6
CONTINUOUS
 10
-1.946051
 20
0.075799
  0
SEQEND
  8
0
  0
POLYLINE
  8
PLAN_1
 62
     5
  6
CONTINUOUS
 66
     1
 40
0.003000
 41
0.003000
  0
VERTEX
  8
PLAN_1
 62
     5
  6
CONTINUOUS
 10
-1.937972
 20
0.075799
  0
VERTEX
  8
PLAN_1
 62
     5
  6
CONTINUOUS
 10
-1.929394
 20
0.075799
  0
SEQEND
  8
0
  0
POLYLINE
  8
PLAN_1
 62
     5
  6
CONTINUOUS
 66
     1
 40
0.003000
 41
0.003000
  0
VERTEX
  8
PLAN_1
 62
     5
  6
CONTINUOUS
 10
-1.921319
 20
0.075799
  0
VERTEX
  8
PLAN_1
 62
     5
  6
CONTINUOUS
 10
-1.912736
 20
0.075799
  0
SEQEND
  8
0
  0
POLYLINE
  8
PLAN_1
 62
     5
  6
CONTINUOUS
 66
     1
 40
0.003000
 41
0.003000
  0
VERTEX
  8
PLAN_1
 62
     5
  6
CONTINUOUS
 10
-1.904661
 20
0.075799
  0
VERTEX
  8
PLAN_1
 62
     5
  6
CONTINUOUS
 10
-1.896079
 20
0.075799
  0
SEQEND
  8
0
  0
POLYLINE
  8
PLAN_1
 62
     5
  6
CONTINUOUS
 66
     1
 40
0.003000
 41
0.003000
  0
VERTEX
  8
PLAN_1
 62
     5
  6
CONTINUOUS
 10
-1.888004
 20
0.075799
  0
VERTEX
  8
PLAN_1
 62
     5
  6
CONTINUOUS
 10
-1.879425
 20
0.075799
  0
SEQEND
  8
0
  0
POLYLINE
  8
PLAN_1
 62
     5
  6
CONTINUOUS
 66
     1
 40
0.003000
 41
0.003000
  0
VERTEX
  8
PLAN_1
 62
     5
  6
CONTINUOUS
 10
-1.871346
 20
0.075799
  0
VERTEX
  8
PLAN_1
 62
     5
  6
CONTINUOUS
 10
-1.862768
 20
0.075799
  0
SEQEND
  8
0
  0
POLYLINE
  8
PLAN_1
 62
     5
  6
CONTINUOUS
 66
     1
 40
0.003000
 41
0.003000
  0
VERTEX
  8
PLAN_1
 62
     5
  6
CONTINUOUS
 10
-1.854693
 20
0.075799
  0
VERTEX
  8
PLAN_1
 62
     5
  6
CONTINUOUS
 10
-1.846110
 20
0.075799
  0
SEQEND
  8
0
  0
POLYLINE
  8
PLAN_1
 62
     5
  6
CONTINUOUS
 66
     1
 40
0.003000
 41
0.003000
  0
VERTEX
  8
PLAN_1
 62
     5
  6
CONTINUOUS
 10
-1.838035
 20
0.075799
  0
VERTEX
  8
PLAN_1
 62
     5
  6
CONTINUOUS
 10
-1.829453
 20
0.075799
  0
SEQEND
  8
0
  0
POLYLINE
  8
PLAN_1
 62
     5
  6
CONTINUOUS
 66
     1
 40
0.003000
 41
0.003000
  0
VERTEX
  8
PLAN_1
 62
     5
  6
CONTINUOUS
 10
-1.821378
 20
0.075799
  0
VERTEX
  8
PLAN_1
 62
     5
  6
CONTINUOUS
 10
-1.812799
 20
0.075799
  0
SEQEND
  8
0
  0
POLYLINE
  8
PLAN_1
 62
     5
  6
CONTINUOUS
 66
     1
 40
0.003000
 41
0.003000
  0
VERTEX
  8
PLAN_1
 62
     5
  6
CONTINUOUS
 10
-1.804720
 20
0.075799
  0
VERTEX
  8
PLAN_1
 62
     5
  6
CONTINUOUS
 10
-1.796142
 20
0.075799
  0
SEQEND
  8
0
  0
POLYLINE
  8
PLAN_1
 62
     5
  6
CONTINUOUS
 66
     1
 40
0.003000
 41
0.003000
  0
VERTEX
  8
PLAN_1
 62
     5
  6
CONTINUOUS
 10
-1.788067
 20
0.075799
  0
VERTEX
  8
PLAN_1
 62
     5
  6
CONTINUOUS
 10
-1.779484
 20
0.075799
  0
SEQEND
  8
0
  0
POLYLINE
  8
PLAN_1
 62
     5
  6
CONTINUOUS
 66
     1
 40
0.003000
 41
0.003000
  0
VERTEX
  8
PLAN_1
 62
     5
  6
CONTINUOUS
 10
-1.771409
 20
0.075799
  0
VERTEX
  8
PLAN_1
 62
     5
  6
CONTINUOUS
 10
-1.762827
 20
0.075799
  0
SEQEND
  8
0
  0
POLYLINE
  8
PLAN_1
 62
     5
  6
CONTINUOUS
 66
     1
 40
0.003000
 41
0.003000
  0
VERTEX
  8
PLAN_1
 62
     5
  6
CONTINUOUS
 10
-1.754752
 20
0.075799
  0
VERTEX
  8
PLAN_1
 62
     5
  6
CONTINUOUS
 10
-1.746173
 20
0.075799
  0
SEQEND
  8
0
  0
POLYLINE
  8
PLAN_1
 62
     5
  6
CONTINUOUS
 66
     1
 40
0.003000
 41
0.003000
  0
VERTEX
  8
PLAN_1
 62
     5
  6
CONTINUOUS
 10
-1.738094
 20
0.075799
  0
VERTEX
  8
PLAN_1
 62
     5
  6
CONTINUOUS
 10
-1.729516
 20
0.075799
  0
SEQEND
  8
0
  0
POLYLINE
  8
PLAN_1
 62
     5
  6
CONTINUOUS
 66
     1
 40
0.003000
 41
0.003000
  0
VERTEX
  8
PLAN_1
 62
     5
  6
CONTINUOUS
 10
-1.721441
 20
0.075799
  0
VERTEX
  8
PLAN_1
 62
     5
  6
CONTINUOUS
 10
-1.712858
 20
0.075799
  0
SEQEND
  8
0
  0
POLYLINE
  8
PLAN_1
 62
     5
  6
CONTINUOUS
 66
     1
 40
0.003000
 41
0.003000
  0
VERTEX
  8
PLAN_1
 62
     5
  6
CONTINUOUS
 10
-1.704783
 20
0.075799
  0
VERTEX
  8
PLAN_1
 62
     5
  6
CONTINUOUS
 10
-1.696201
 20
0.075799
  0
SEQEND
  8
0
  0
POLYLINE
  8
PLAN_1
 62
     5
  6
CONTINUOUS
 66
     1
 40
0.003000
 41
0.003000
  0
VERTEX
  8
PLAN_1
 62
     5
  6
CONTINUOUS
 10
-1.688126
 20
0.075799
  0
VERTEX
  8
PLAN_1
 62
     5
  6
CONTINUOUS
 10
-1.679547
 20
0.075799
  0
SEQEND
  8
0
  0
POLYLINE
  8
PLAN_1
 62
     5
  6
CONTINUOUS
 66
     1
 40
0.003000
 41
0.003000
  0
VERTEX
  8
PLAN_1
 62
     5
  6
CONTINUOUS
 10
-1.671469
 20
0.075799
  0
VERTEX
  8
PLAN_1
 62
     5
  6
CONTINUOUS
 10
-1.662890
 20
0.075799
  0
SEQEND
  8
0
  0
POLYLINE
  8
PLAN_1
 62
     5
  6
CONTINUOUS
 66
     1
 40
0.003000
 41
0.003000
  0
VERTEX
  8
PLAN_1
 62
     5
  6
CONTINUOUS
 10
-1.654811
 20
0.075799
  0
VERTEX
  8
PLAN_1
 62
     5
  6
CONTINUOUS
 10
-1.646232
 20
0.075799
  0
SEQEND
  8
0
  0
POLYLINE
  8
PLAN_1
 62
     5
  6
CONTINUOUS
 66
     1
 40
0.003000
 41
0.003000
  0
VERTEX
  8
PLAN_1
 62
     5
  6
CONTINUOUS
 10
-1.638157
 20
0.075799
  0
VERTEX
  8
PLAN_1
 62
     5
  6
CONTINUOUS
 10
-1.629575
 20
0.075799
  0
SEQEND
  8
0
  0
POLYLINE
  8
PLAN_1
 62
     5
  6
CONTINUOUS
 66
     1
 40
0.003000
 41
0.003000
  0
VERTEX
  8
PLAN_1
 62
     5
  6
CONTINUOUS
 10
-1.621500
 20
0.075799
  0
VERTEX
  8
PLAN_1
 62
     5
  6
CONTINUOUS
 10
-1.612921
 20
0.075799
  0
SEQEND
  8
0
  0
POLYLINE
  8
PLAN_1
 62
     5
  6
CONTINUOUS
 66
     1
 40
0.003000
 41
0.003000
  0
VERTEX
  8
PLAN_1
 62
     5
  6
CONTINUOUS
 10
-1.604843
 20
0.075799
  0
VERTEX
  8
PLAN_1
 62
     5
  6
CONTINUOUS
 10
-1.596264
 20
0.075799
  0
SEQEND
  8
0
  0
POLYLINE
  8
PLAN_1
 62
     5
  6
CONTINUOUS
 66
     1
 40
0.003000
 41
0.003000
  0
VERTEX
  8
PLAN_1
 62
     5
  6
CONTINUOUS
 10
-1.588185
 20
0.075799
  0
VERTEX
  8
PLAN_1
 62
     5
  6
CONTINUOUS
 10
-1.579606
 20
0.075799
  0
SEQEND
  8
0
  0
POLYLINE
  8
PLAN_1
 62
     5
  6
CONTINUOUS
 66
     1
 40
0.003000
 41
0.003000
  0
VERTEX
  8
PLAN_1
 62
     5
  6
CONTINUOUS
 10
-1.571531
 20
0.075799
  0
VERTEX
  8
PLAN_1
 62
     5
  6
CONTINUOUS
 10
-1.562949
 20
0.075799
  0
SEQEND
  8
0
  0
POLYLINE
  8
PLAN_1
 62
     5
  6
CONTINUOUS
 66
     1
 40
0.003000
 41
0.003000
  0
VERTEX
  8
PLAN_1
 62
     5
  6
CONTINUOUS
 10
-1.554874
 20
0.075799
  0
VERTEX
  8
PLAN_1
 62
     5
  6
CONTINUOUS
 10
-1.546291
 20
0.075799
  0
SEQEND
  8
0
  0
POLYLINE
  8
PLAN_1
 62
     5
  6
CONTINUOUS
 66
     1
 40
0.003000
 41
0.003000
  0
VERTEX
  8
PLAN_1
 62
     5
  6
CONTINUOUS
 10
-1.538217
 20
0.075799
  0
VERTEX
  8
PLAN_1
 62
     5
  6
CONTINUOUS
 10
-1.529638
 20
0.075799
  0
SEQEND
  8
0
  0
POLYLINE
  8
PLAN_1
 62
     5
  6
CONTINUOUS
 66
     1
 40
0.003000
 41
0.003000
  0
VERTEX
  8
PLAN_1
 62
     5
  6
CONTINUOUS
 10
-1.521559
 20
0.075799
  0
VERTEX
  8
PLAN_1
 62
     5
  6
CONTINUOUS
 10
-1.512980
 20
0.075799
  0
SEQEND
  8
0
  0
POLYLINE
  8
PLAN_1
 62
     5
  6
CONTINUOUS
 66
     1
 40
0.003000
 41
0.003000
  0
VERTEX
  8
PLAN_1
 62
     5
  6
CONTINUOUS
 10
-1.504906
 20
0.075799
  0
VERTEX
  8
PLAN_1
 62
     5
  6
CONTINUOUS
 10
-1.496323
 20
0.075799
  0
SEQEND
  8
0
  0
POLYLINE
  8
PLAN_1
 62
     5
  6
CONTINUOUS
 66
     1
 40
0.003000
 41
0.003000
  0
VERTEX
  8
PLAN_1
 62
     5
  6
CONTINUOUS
 10
-1.488248
 20
0.075799
  0
VERTEX
  8
PLAN_1
 62
     5
  6
CONTINUOUS
 10
-1.479665
 20
0.075799
  0
SEQEND
  8
0
  0
POLYLINE
  8
PLAN_1
 62
     5
  6
CONTINUOUS
 66
     1
 40
0.003000
 41
0.003000
  0
VERTEX
  8
PLAN_1
 62
     5
  6
CONTINUOUS
 10
-1.471591
 20
0.075799
  0
VERTEX
  8
PLAN_1
 62
     5
  6
CONTINUOUS
 10
-1.463012
 20
0.075799
  0
SEQEND
  8
0
  0
POLYLINE
  8
PLAN_1
 62
     5
  6
CONTINUOUS
 66
     1
 40
0.003000
 41
0.003000
  0
VERTEX
  8
PLAN_1
 62
     5
  6
CONTINUOUS
 10
-1.454933
 20
0.075799
  0
VERTEX
  8
PLAN_1
 62
     5
  6
CONTINUOUS
 10
-1.446354
 20
0.075799
  0
SEQEND
  8
0
  0
POLYLINE
  8
PLAN_1
 62
     5
  6
CONTINUOUS
 66
     1
 40
0.003000
 41
0.003000
  0
VERTEX
  8
PLAN_1
 62
     5
  6
CONTINUOUS
 10
-1.438280
 20
0.075799
  0
VERTEX
  8
PLAN_1
 62
     5
  6
CONTINUOUS
 10
-1.429697
 20
0.075799
  0
SEQEND
  8
0
  0
POLYLINE
  8
PLAN_1
 62
     5
  6
CONTINUOUS
 66
     1
 40
0.003000
 41
0.003000
  0
VERTEX
  8
PLAN_1
 62
     5
  6
CONTINUOUS
 10
-1.421622
 20
0.075799
  0
VERTEX
  8
PLAN_1
 62
     5
  6
CONTINUOUS
 10
-1.413039
 20
0.075799
  0
SEQEND
  8
0
  0
POLYLINE
  8
PLAN_1
 62
     5
  6
CONTINUOUS
 66
     1
 40
0.003000
 41
0.003000
  0
VERTEX
  8
PLAN_1
 62
     5
  6
CONTINUOUS
 10
-1.404965
 20
0.075799
  0
VERTEX
  8
PLAN_1
 62
     5
  6
CONTINUOUS
 10
-1.396386
 20
0.075799
  0
SEQEND
  8
0
  0
POLYLINE
  8
PLAN_1
 62
     5
  6
CONTINUOUS
 66
     1
 40
0.003000
 41
0.003000
  0
VERTEX
  8
PLAN_1
 62
     5
  6
CONTINUOUS
 10
-1.388307
 20
0.075799
  0
VERTEX
  8
PLAN_1
 62
     5
  6
CONTINUOUS
 10
-1.379728
 20
0.075799
  0
SEQEND
  8
0
  0
POLYLINE
  8
PLAN_1
 62
     5
  6
CONTINUOUS
 66
     1
 40
0.003000
 41
0.003000
  0
VERTEX
  8
PLAN_1
 62
     5
  6
CONTINUOUS
 10
-1.371654
 20
0.075799
  0
VERTEX
  8
PLAN_1
 62
     5
  6
CONTINUOUS
 10
-1.363071
 20
0.075799
  0
SEQEND
  8
0
  0
POLYLINE
  8
PLAN_1
 62
     5
  6
CONTINUOUS
 66
     1
 40
0.003000
 41
0.003000
  0
VERTEX
  8
PLAN_1
 62
     5
  6
CONTINUOUS
 10
-1.354996
 20
0.075799
  0
VERTEX
  8
PLAN_1
 62
     5
  6
CONTINUOUS
 10
-1.346413
 20
0.075799
  0
SEQEND
  8
0
  0
POLYLINE
  8
PLAN_1
 62
     5
  6
CONTINUOUS
 66
     1
 40
0.003000
 41
0.003000
  0
VERTEX
  8
PLAN_1
 62
     5
  6
CONTINUOUS
 10
-1.338339
 20
0.075799
  0
VERTEX
  8
PLAN_1
 62
     5
  6
CONTINUOUS
 10
-1.329760
 20
0.075799
  0
SEQEND
  8
0
  0
POLYLINE
  8
PLAN_1
 62
     5
  6
CONTINUOUS
 66
     1
 40
0.003000
 41
0.003000
  0
VERTEX
  8
PLAN_1
 62
     5
  6
CONTINUOUS
 10
-1.321681
 20
0.075799
  0
VERTEX
  8
PLAN_1
 62
     5
  6
CONTINUOUS
 10
-1.313102
 20
0.075799
  0
SEQEND
  8
0
  0
POLYLINE
  8
PLAN_1
 62
     5
  6
CONTINUOUS
 66
     1
 40
0.003000
 41
0.003000
  0
VERTEX
  8
PLAN_1
 62
     5
  6
CONTINUOUS
 10
-1.305028
 20
0.075799
  0
VERTEX
  8
PLAN_1
 62
     5
  6
CONTINUOUS
 10
-1.296445
 20
0.075799
  0
SEQEND
  8
0
  0
POLYLINE
  8
PLAN_1
 62
     5
  6
CONTINUOUS
 66
     1
 40
0.003000
 41
0.003000
  0
VERTEX
  8
PLAN_1
 62
     5
  6
CONTINUOUS
 10
-1.288370
 20
0.075799
  0
VERTEX
  8
PLAN_1
 62
     5
  6
CONTINUOUS
 10
-1.279787
 20
0.075799
  0
SEQEND
  8
0
  0
POLYLINE
  8
PLAN_1
 62
     5
  6
CONTINUOUS
 66
     1
 40
0.003000
 41
0.003000
  0
VERTEX
  8
PLAN_1
 62
     5
  6
CONTINUOUS
 10
-1.271713
 20
0.075799
  0
VERTEX
  8
PLAN_1
 62
     5
  6
CONTINUOUS
 10
-1.263134
 20
0.075799
  0
SEQEND
  8
0
  0
POLYLINE
  8
PLAN_1
 62
     5
  6
CONTINUOUS
 66
     1
 40
0.003000
 41
0.003000
  0
VERTEX
  8
PLAN_1
 62
     5
  6
CONTINUOUS
 10
-1.255055
 20
0.075799
  0
VERTEX
  8
PLAN_1
 62
     5
  6
CONTINUOUS
 10
-1.246476
 20
0.075799
  0
SEQEND
  8
0
  0
POLYLINE
  8
PLAN_1
 62
     5
  6
CONTINUOUS
 66
     1
 40
0.003000
 41
0.003000
  0
VERTEX
  8
PLAN_1
 62
     5
  6
CONTINUOUS
 10
-1.238402
 20
0.075799
  0
VERTEX
  8
PLAN_1
 62
     5
  6
CONTINUOUS
 10
-1.229819
 20
0.075799
  0
SEQEND
  8
0
  0
POLYLINE
  8
PLAN_1
 62
     5
  6
CONTINUOUS
 66
     1
 40
0.003000
 41
0.003000
  0
VERTEX
  8
PLAN_1
 62
     5
  6
CONTINUOUS
 10
-1.221744
 20
0.075799
  0
VERTEX
  8
PLAN_1
 62
     5
  6
CONTINUOUS
 10
-1.213161
 20
0.075799
  0
SEQEND
  8
0
  0
POLYLINE
  8
PLAN_1
 62
     5
  6
CONTINUOUS
 66
     1
 40
0.003000
 41
0.003000
  0
VERTEX
  8
PLAN_1
 62
     5
  6
CONTINUOUS
 10
-1.205087
 20
0.075799
  0
VERTEX
  8
PLAN_1
 62
     5
  6
CONTINUOUS
 10
-1.196508
 20
0.075799
  0
SEQEND
  8
0
  0
POLYLINE
  8
PLAN_1
 62
     5
  6
CONTINUOUS
 66
     1
 40
0.003000
 41
0.003000
  0
VERTEX
  8
PLAN_1
 62
     5
  6
CONTINUOUS
 10
-1.188429
 20
0.075799
  0
VERTEX
  8
PLAN_1
 62
     5
  6
CONTINUOUS
 10
-1.179850
 20
0.075799
  0
SEQEND
  8
0
  0
POLYLINE
  8
PLAN_1
 62
     5
  6
CONTINUOUS
 66
     1
 40
0.003000
 41
0.003000
  0
VERTEX
  8
PLAN_1
 62
     5
  6
CONTINUOUS
 10
-1.171776
 20
0.075799
  0
VERTEX
  8
PLAN_1
 62
     5
  6
CONTINUOUS
 10
-1.163193
 20
0.075799
  0
SEQEND
  8
0
  0
POLYLINE
  8
PLAN_1
 62
     5
  6
CONTINUOUS
 66
     1
 40
0.003000
 41
0.003000
  0
VERTEX
  8
PLAN_1
 62
     5
  6
CONTINUOUS
 10
-1.155118
 20
0.075799
  0
VERTEX
  8
PLAN_1
 62
     5
  6
CONTINUOUS
 10
-1.146535
 20
0.075799
  0
SEQEND
  8
0
  0
POLYLINE
  8
PLAN_1
 62
     5
  6
CONTINUOUS
 66
     1
 40
0.003000
 41
0.003000
  0
VERTEX
  8
PLAN_1
 62
     5
  6
CONTINUOUS
 10
-1.138461
 20
0.075799
  0
VERTEX
  8
PLAN_1
 62
     5
  6
CONTINUOUS
 10
-1.129882
 20
0.075799
  0
SEQEND
  8
0
  0
POLYLINE
  8
PLAN_1
 62
     5
  6
CONTINUOUS
 66
     1
 40
0.003000
 41
0.003000
  0
VERTEX
  8
PLAN_1
 62
     5
  6
CONTINUOUS
 10
-1.121803
 20
0.075799
  0
VERTEX
  8
PLAN_1
 62
     5
  6
CONTINUOUS
 10
-1.113224
 20
0.075799
  0
SEQEND
  8
0
  0
POLYLINE
  8
PLAN_1
 62
     5
  6
CONTINUOUS
 66
     1
 40
0.003000
 41
0.003000
  0
VERTEX
  8
PLAN_1
 62
     5
  6
CONTINUOUS
 10
-1.105150
 20
0.075799
  0
VERTEX
  8
PLAN_1
 62
     5
  6
CONTINUOUS
 10
-1.096567
 20
0.075799
  0
SEQEND
  8
0
  0
POLYLINE
  8
PLAN_1
 62
     5
  6
CONTINUOUS
 66
     1
 40
0.003000
 41
0.003000
  0
VERTEX
  8
PLAN_1
 62
     5
  6
CONTINUOUS
 10
-1.088492
 20
0.075799
  0
VERTEX
  8
PLAN_1
 62
     5
  6
CONTINUOUS
 10
-1.079909
 20
0.075799
  0
SEQEND
  8
0
  0
POLYLINE
  8
PLAN_1
 62
     5
  6
CONTINUOUS
 66
     1
 40
0.003000
 41
0.003000
  0
VERTEX
  8
PLAN_1
 62
     5
  6
CONTINUOUS
 10
-1.071835
 20
0.075799
  0
VERTEX
  8
PLAN_1
 62
     5
  6
CONTINUOUS
 10
-1.063256
 20
0.075799
  0
SEQEND
  8
0
  0
POLYLINE
  8
PLAN_1
 62
     5
  6
CONTINUOUS
 66
     1
 40
0.003000
 41
0.003000
  0
VERTEX
  8
PLAN_1
 62
     5
  6
CONTINUOUS
 10
-1.055177
 20
0.075799
  0
VERTEX
  8
PLAN_1
 62
     5
  6
CONTINUOUS
 10
-1.046598
 20
0.075799
  0
SEQEND
  8
0
  0
POLYLINE
  8
PLAN_1
 62
     5
  6
CONTINUOUS
 66
     1
 40
0.003000
 41
0.003000
  0
VERTEX
  8
PLAN_1
 62
     5
  6
CONTINUOUS
 10
-1.038524
 20
0.075799
  0
VERTEX
  8
PLAN_1
 62
     5
  6
CONTINUOUS
 10
-1.029941
 20
0.075799
  0
SEQEND
  8
0
  0
POLYLINE
  8
PLAN_1
 62
     5
  6
CONTINUOUS
 66
     1
 40
0.003000
 41
0.003000
  0
VERTEX
  8
PLAN_1
 62
     5
  6
CONTINUOUS
 10
-1.021866
 20
0.075799
  0
VERTEX
  8
PLAN_1
 62
     5
  6
CONTINUOUS
 10
-1.013283
 20
0.075799
  0
SEQEND
  8
0
  0
POLYLINE
  8
PLAN_1
 62
     5
  6
CONTINUOUS
 66
     1
 40
0.003000
 41
0.003000
  0
VERTEX
  8
PLAN_1
 62
     5
  6
CONTINUOUS
 10
-1.005209
 20
0.075799
  0
VERTEX
  8
PLAN_1
 62
     5
  6
CONTINUOUS
 10
-0.996630
 20
0.075799
  0
SEQEND
  8
0
  0
POLYLINE
  8
PLAN_1
 62
     5
  6
CONTINUOUS
 66
     1
 40
0.003000
 41
0.003000
  0
VERTEX
  8
PLAN_1
 62
     5
  6
CONTINUOUS
 10
-0.988551
 20
0.075799
  0
VERTEX
  8
PLAN_1
 62
     5
  6
CONTINUOUS
 10
-0.979972
 20
0.075799
  0
SEQEND
  8
0
  0
POLYLINE
  8
PLAN_1
 62
     5
  6
CONTINUOUS
 66
     1
 40
0.003000
 41
0.003000
  0
VERTEX
  8
PLAN_1
 62
     5
  6
CONTINUOUS
 10
-0.971898
 20
0.075799
  0
VERTEX
  8
PLAN_1
 62
     5
  6
CONTINUOUS
 10
-0.963315
 20
0.075799
  0
SEQEND
  8
0
  0
POLYLINE
  8
PLAN_1
 62
     5
  6
CONTINUOUS
 66
     1
 40
0.003000
 41
0.003000
  0
VERTEX
  8
PLAN_1
 62
     5
  6
CONTINUOUS
 10
-0.955240
 20
0.075799
  0
VERTEX
  8
PLAN_1
 62
     5
  6
CONTINUOUS
 10
-0.946657
 20
0.075799
  0
SEQEND
  8
0
  0
POLYLINE
  8
PLAN_1
 62
     5
  6
CONTINUOUS
 66
     1
 40
0.003000
 41
0.003000
  0
VERTEX
  8
PLAN_1
 62
     5
  6
CONTINUOUS
 10
-0.938583
 20
0.075799
  0
VERTEX
  8
PLAN_1
 62
     5
  6
CONTINUOUS
 10
-0.930004
 20
0.075799
  0
SEQEND
  8
0
  0
POLYLINE
  8
PLAN_1
 62
     5
  6
CONTINUOUS
 66
     1
 40
0.003000
 41
0.003000
  0
VERTEX
  8
PLAN_1
 62
     5
  6
CONTINUOUS
 10
-0.921925
 20
0.075799
  0
VERTEX
  8
PLAN_1
 62
     5
  6
CONTINUOUS
 10
-0.913346
 20
0.075799
  0
SEQEND
  8
0
  0
POLYLINE
  8
PLAN_1
 62
     5
  6
CONTINUOUS
 66
     1
 40
0.003000
 41
0.003000
  0
VERTEX
  8
PLAN_1
 62
     5
  6
CONTINUOUS
 10
-0.905272
 20
0.075799
  0
VERTEX
  8
PLAN_1
 62
     5
  6
CONTINUOUS
 10
-0.896689
 20
0.075799
  0
SEQEND
  8
0
  0
POLYLINE
  8
PLAN_1
 62
     5
  6
CONTINUOUS
 66
     1
 40
0.003000
 41
0.003000
  0
VERTEX
  8
PLAN_1
 62
     5
  6
CONTINUOUS
 10
-0.888614
 20
0.075799
  0
VERTEX
  8
PLAN_1
 62
     5
  6
CONTINUOUS
 10
-0.880031
 20
0.075799
  0
SEQEND
  8
0
  0
POLYLINE
  8
PLAN_1
 62
     5
  6
CONTINUOUS
 66
     1
 40
0.003000
 41
0.003000
  0
VERTEX
  8
PLAN_1
 62
     5
  6
CONTINUOUS
 10
-0.871957
 20
0.075799
  0
VERTEX
  8
PLAN_1
 62
     5
  6
CONTINUOUS
 10
-0.863378
 20
0.075799
  0
SEQEND
  8
0
  0
POLYLINE
  8
PLAN_1
 62
     5
  6
CONTINUOUS
 66
     1
 40
0.003000
 41
0.003000
  0
VERTEX
  8
PLAN_1
 62
     5
  6
CONTINUOUS
 10
-0.855299
 20
0.075799
  0
VERTEX
  8
PLAN_1
 62
     5
  6
CONTINUOUS
 10
-0.846720
 20
0.075799
  0
SEQEND
  8
0
  0
POLYLINE
  8
PLAN_1
 62
     5
  6
CONTINUOUS
 66
     1
 40
0.003000
 41
0.003000
  0
VERTEX
  8
PLAN_1
 62
     5
  6
CONTINUOUS
 10
-0.838646
 20
0.075799
  0
VERTEX
  8
PLAN_1
 62
     5
  6
CONTINUOUS
 10
-0.830063
 20
0.075799
  0
SEQEND
  8
0
  0
POLYLINE
  8
PLAN_1
 62
     5
  6
CONTINUOUS
 66
     1
 40
0.003000
 41
0.003000
  0
VERTEX
  8
PLAN_1
 62
     5
  6
CONTINUOUS
 10
-0.821988
 20
0.075799
  0
VERTEX
  8
PLAN_1
 62
     5
  6
CONTINUOUS
 10
-0.813406
 20
0.075799
  0
SEQEND
  8
0
  0
POLYLINE
  8
PLAN_1
 62
     5
  6
CONTINUOUS
 66
     1
 40
0.003000
 41
0.003000
  0
VERTEX
  8
PLAN_1
 62
     5
  6
CONTINUOUS
 10
-0.805331
 20
0.075799
  0
VERTEX
  8
PLAN_1
 62
     5
  6
CONTINUOUS
 10
-0.796752
 20
0.075799
  0
SEQEND
  8
0
  0
POLYLINE
  8
PLAN_1
 62
     5
  6
CONTINUOUS
 66
     1
 40
0.003000
 41
0.003000
  0
VERTEX
  8
PLAN_1
 62
     5
  6
CONTINUOUS
 10
-0.788673
 20
0.075799
  0
VERTEX
  8
PLAN_1
 62
     5
  6
CONTINUOUS
 10
-0.780094
 20
0.075799
  0
SEQEND
  8
0
  0
POLYLINE
  8
PLAN_1
 62
     5
  6
CONTINUOUS
 66
     1
 40
0.003000
 41
0.003000
  0
VERTEX
  8
PLAN_1
 62
     5
  6
CONTINUOUS
 10
-0.772020
 20
0.075799
  0
VERTEX
  8
PLAN_1
 62
     5
  6
CONTINUOUS
 10
-0.763437
 20
0.075799
  0
SEQEND
  8
0
  0
POLYLINE
  8
PLAN_1
 62
     5
  6
CONTINUOUS
 66
     1
 40
0.003000
 41
0.003000
  0
VERTEX
  8
PLAN_1
 62
     5
  6
CONTINUOUS
 10
-0.755362
 20
0.075799
  0
VERTEX
  8
PLAN_1
 62
     5
  6
CONTINUOUS
 10
-0.746780
 20
0.075799
  0
SEQEND
  8
0
  0
POLYLINE
  8
PLAN_1
 62
     5
  6
CONTINUOUS
 66
     1
 40
0.003000
 41
0.003000
  0
VERTEX
  8
PLAN_1
 62
     5
  6
CONTINUOUS
 10
-0.738705
 20
0.075799
  0
VERTEX
  8
PLAN_1
 62
     5
  6
CONTINUOUS
 10
-0.730126
 20
0.075799
  0
SEQEND
  8
0
  0
POLYLINE
  8
PLAN_1
 62
     5
  6
CONTINUOUS
 66
     1
 40
0.003000
 41
0.003000
  0
VERTEX
  8
PLAN_1
 62
     5
  6
CONTINUOUS
 10
-0.722047
 20
0.075799
  0
VERTEX
  8
PLAN_1
 62
     5
  6
CONTINUOUS
 10
-0.713469
 20
0.075799
  0
SEQEND
  8
0
  0
POLYLINE
  8
PLAN_1
 62
     5
  6
CONTINUOUS
 66
     1
 40
0.003000
 41
0.003000
  0
VERTEX
  8
PLAN_1
 62
     5
  6
CONTINUOUS
 10
-0.705394
 20
0.075799
  0
VERTEX
  8
PLAN_1
 62
     5
  6
CONTINUOUS
 10
-0.696811
 20
0.075799
  0
SEQEND
  8
0
  0
POLYLINE
  8
PLAN_1
 62
     5
  6
CONTINUOUS
 66
     1
 40
0.003000
 41
0.003000
  0
VERTEX
  8
PLAN_1
 62
     5
  6
CONTINUOUS
 10
-0.688736
 20
0.075799
  0
VERTEX
  8
PLAN_1
 62
     5
  6
CONTINUOUS
 10
-0.680154
 20
0.075799
  0
SEQEND
  8
0
  0
POLYLINE
  8
PLAN_1
 62
     5
  6
CONTINUOUS
 66
     1
 40
0.003000
 41
0.003000
  0
VERTEX
  8
PLAN_1
 62
     5
  6
CONTINUOUS
 10
-0.672079
 20
0.075799
  0
VERTEX
  8
PLAN_1
 62
     5
  6
CONTINUOUS
 10
-0.663500
 20
0.075799
  0
SEQEND
  8
0
  0
POLYLINE
  8
PLAN_1
 62
     5
  6
CONTINUOUS
 66
     1
 40
0.003000
 41
0.003000
  0
VERTEX
  8
PLAN_1
 62
     5
  6
CONTINUOUS
 10
-0.655421
 20
0.075799
  0
VERTEX
  8
PLAN_1
 62
     5
  6
CONTINUOUS
 10
-0.646843
 20
0.075799
  0
SEQEND
  8
0
  0
POLYLINE
  8
PLAN_1
 62
     5
  6
CONTINUOUS
 66
     1
 40
0.003000
 41
0.003000
  0
VERTEX
  8
PLAN_1
 62
     5
  6
CONTINUOUS
 10
-0.638768
 20
0.075799
  0
VERTEX
  8
PLAN_1
 62
     5
  6
CONTINUOUS
 10
-0.630185
 20
0.075799
  0
SEQEND
  8
0
  0
POLYLINE
  8
PLAN_1
 62
     5
  6
CONTINUOUS
 66
     1
 40
0.003000
 41
0.003000
  0
VERTEX
  8
PLAN_1
 62
     5
  6
CONTINUOUS
 10
-0.622110
 20
0.075799
  0
VERTEX
  8
PLAN_1
 62
     5
  6
CONTINUOUS
 10
-0.613528
 20
0.075799
  0
SEQEND
  8
0
  0
POLYLINE
  8
PLAN_1
 62
     5
  6
CONTINUOUS
 66
     1
 40
0.003000
 41
0.003000
  0
VERTEX
  8
PLAN_1
 62
     5
  6
CONTINUOUS
 10
-0.605453
 20
0.075799
  0
VERTEX
  8
PLAN_1
 62
     5
  6
CONTINUOUS
 10
-0.596874
 20
0.075799
  0
SEQEND
  8
0
  0
POLYLINE
  8
PLAN_1
 62
     5
  6
CONTINUOUS
 66
     1
 40
0.003000
 41
0.003000
  0
VERTEX
  8
PLAN_1
 62
     5
  6
CONTINUOUS
 10
-0.588795
 20
0.075799
  0
VERTEX
  8
PLAN_1
 62
     5
  6
CONTINUOUS
 10
-0.580217
 20
0.075799
  0
SEQEND
  8
0
  0
POLYLINE
  8
PLAN_1
 62
     5
  6
CONTINUOUS
 66
     1
 40
0.003000
 41
0.003000
  0
VERTEX
  8
PLAN_1
 62
     5
  6
CONTINUOUS
 10
-0.572142
 20
0.075799
  0
VERTEX
  8
PLAN_1
 62
     5
  6
CONTINUOUS
 10
-0.563559
 20
0.075799
  0
SEQEND
  8
0
  0
POLYLINE
  8
PLAN_1
 62
     5
  6
CONTINUOUS
 66
     1
 40
0.003000
 41
0.003000
  0
VERTEX
  8
PLAN_1
 62
     5
  6
CONTINUOUS
 10
-0.555484
 20
0.075799
  0
VERTEX
  8
PLAN_1
 62
     5
  6
CONTINUOUS
 10
-0.546902
 20
0.075799
  0
SEQEND
  8
0
  0
POLYLINE
  8
PLAN_1
 62
     5
  6
CONTINUOUS
 66
     1
 40
0.003000
 41
0.003000
  0
VERTEX
  8
PLAN_1
 62
     5
  6
CONTINUOUS
 10
-0.538827
 20
0.075799
  0
VERTEX
  8
PLAN_1
 62
     5
  6
CONTINUOUS
 10
-0.530248
 20
0.075799
  0
SEQEND
  8
0
  0
POLYLINE
  8
PLAN_1
 62
     5
  6
CONTINUOUS
 66
     1
 40
0.003000
 41
0.003000
  0
VERTEX
  8
PLAN_1
 62
     5
  6
CONTINUOUS
 10
-0.522169
 20
0.075799
  0
VERTEX
  8
PLAN_1
 62
     5
  6
CONTINUOUS
 10
-0.513591
 20
0.075799
  0
SEQEND
  8
0
  0
POLYLINE
  8
PLAN_1
 62
     5
  6
CONTINUOUS
 66
     1
 40
0.003000
 41
0.003000
  0
VERTEX
  8
PLAN_1
 62
     5
  6
CONTINUOUS
 10
-0.505516
 20
0.075799
  0
VERTEX
  8
PLAN_1
 62
     5
  6
CONTINUOUS
 10
-0.496933
 20
0.075799
  0
SEQEND
  8
0
  0
POLYLINE
  8
PLAN_1
 62
     5
  6
CONTINUOUS
 66
     1
 40
0.003000
 41
0.003000
  0
VERTEX
  8
PLAN_1
 62
     5
  6
CONTINUOUS
 10
-0.488858
 20
0.075799
  0
VERTEX
  8
PLAN_1
 62
     5
  6
CONTINUOUS
 10
-0.480276
 20
0.075799
  0
SEQEND
  8
0
  0
POLYLINE
  8
PLAN_1
 62
     5
  6
CONTINUOUS
 66
     1
 40
0.003000
 41
0.003000
  0
VERTEX
  8
PLAN_1
 62
     5
  6
CONTINUOUS
 10
-0.472201
 20
0.075799
  0
VERTEX
  8
PLAN_1
 62
     5
  6
CONTINUOUS
 10
-0.463622
 20
0.075799
  0
SEQEND
  8
0
  0
POLYLINE
  8
PLAN_1
 62
     5
  6
CONTINUOUS
 66
     1
 40
0.003000
 41
0.003000
  0
VERTEX
  8
PLAN_1
 62
     5
  6
CONTINUOUS
 10
-0.455543
 20
0.075799
  0
VERTEX
  8
PLAN_1
 62
     5
  6
CONTINUOUS
 10
-0.446965
 20
0.075799
  0
SEQEND
  8
0
  0
POLYLINE
  8
PLAN_1
 62
     5
  6
CONTINUOUS
 66
     1
 40
0.003000
 41
0.003000
  0
VERTEX
  8
PLAN_1
 62
     5
  6
CONTINUOUS
 10
-0.438890
 20
0.075799
  0
VERTEX
  8
PLAN_1
 62
     5
  6
CONTINUOUS
 10
-0.430307
 20
0.075799
  0
SEQEND
  8
0
  0
POLYLINE
  8
PLAN_1
 62
     5
  6
CONTINUOUS
 66
     1
 40
0.003000
 41
0.003000
  0
VERTEX
  8
PLAN_1
 62
     5
  6
CONTINUOUS
 10
-0.422232
 20
0.075799
  0
VERTEX
  8
PLAN_1
 62
     5
  6
CONTINUOUS
 10
-0.413650
 20
0.075799
  0
SEQEND
  8
0
  0
POLYLINE
  8
PLAN_1
 62
     5
  6
CONTINUOUS
 66
     1
 40
0.003000
 41
0.003000
  0
VERTEX
  8
PLAN_1
 62
     5
  6
CONTINUOUS
 10
-0.405575
 20
0.075799
  0
VERTEX
  8
PLAN_1
 62
     5
  6
CONTINUOUS
 10
-0.396996
 20
0.075799
  0
SEQEND
  8
0
  0
POLYLINE
  8
PLAN_1
 62
     5
  6
CONTINUOUS
 66
     1
 40
0.003000
 41
0.003000
  0
VERTEX
  8
PLAN_1
 62
     5
  6
CONTINUOUS
 10
-0.388917
 20
0.075799
  0
VERTEX
  8
PLAN_1
 62
     5
  6
CONTINUOUS
 10
-0.380339
 20
0.075799
  0
SEQEND
  8
0
  0
POLYLINE
  8
PLAN_1
 62
     5
  6
CONTINUOUS
 66
     1
 40
0.003000
 41
0.003000
  0
VERTEX
  8
PLAN_1
 62
     5
  6
CONTINUOUS
 10
-0.372264
 20
0.075799
  0
VERTEX
  8
PLAN_1
 62
     5
  6
CONTINUOUS
 10
-0.363681
 20
0.075799
  0
SEQEND
  8
0
  0
POLYLINE
  8
PLAN_1
 62
     5
  6
CONTINUOUS
 66
     1
 40
0.003000
 41
0.003000
  0
VERTEX
  8
PLAN_1
 62
     5
  6
CONTINUOUS
 10
-0.355606
 20
0.075799
  0
VERTEX
  8
PLAN_1
 62
     5
  6
CONTINUOUS
 10
-0.347024
 20
0.075799
  0
SEQEND
  8
0
  0
POLYLINE
  8
PLAN_1
 62
     5
  6
CONTINUOUS
 66
     1
 40
0.003000
 41
0.003000
  0
VERTEX
  8
PLAN_1
 62
     5
  6
CONTINUOUS
 10
-0.338949
 20
0.075799
  0
VERTEX
  8
PLAN_1
 62
     5
  6
CONTINUOUS
 10
-0.330370
 20
0.075799
  0
SEQEND
  8
0
  0
POLYLINE
  8
PLAN_1
 62
     5
  6
CONTINUOUS
 66
     1
 40
0.003000
 41
0.003000
  0
VERTEX
  8
PLAN_1
 62
     5
  6
CONTINUOUS
 10
-0.322291
 20
0.075799
  0
VERTEX
  8
PLAN_1
 62
     5
  6
CONTINUOUS
 10
-0.313713
 20
0.075799
  0
SEQEND
  8
0
  0
POLYLINE
  8
PLAN_1
 62
     5
  6
CONTINUOUS
 66
     1
 40
0.003000
 41
0.003000
  0
VERTEX
  8
PLAN_1
 62
     5
  6
CONTINUOUS
 10
-0.305638
 20
0.075799
  0
VERTEX
  8
PLAN_1
 62
     5
  6
CONTINUOUS
 10
-0.297055
 20
0.075799
  0
SEQEND
  8
0
  0
POLYLINE
  8
PLAN_1
 62
     5
  6
CONTINUOUS
 66
     1
 40
0.003000
 41
0.003000
  0
VERTEX
  8
PLAN_1
 62
     5
  6
CONTINUOUS
 10
-0.288980
 20
0.075799
  0
VERTEX
  8
PLAN_1
 62
     5
  6
CONTINUOUS
 10
-0.280398
 20
0.075799
  0
SEQEND
  8
0
  0
POLYLINE
  8
PLAN_1
 62
     5
  6
CONTINUOUS
 66
     1
 40
0.003000
 41
0.003000
  0
VERTEX
  8
PLAN_1
 62
     5
  6
CONTINUOUS
 10
-0.272323
 20
0.075799
  0
VERTEX
  8
PLAN_1
 62
     5
  6
CONTINUOUS
 10
-0.263744
 20
0.075799
  0
SEQEND
  8
0
  0
POLYLINE
  8
PLAN_1
 62
     5
  6
CONTINUOUS
 66
     1
 40
0.003000
 41
0.003000
  0
VERTEX
  8
PLAN_1
 62
     5
  6
CONTINUOUS
 10
-0.255665
 20
0.075799
  0
VERTEX
  8
PLAN_1
 62
     5
  6
CONTINUOUS
 10
-0.247087
 20
0.075799
  0
SEQEND
  8
0
  0
POLYLINE
  8
PLAN_1
 62
     5
  6
CONTINUOUS
 66
     1
 40
0.003000
 41
0.003000
  0
VERTEX
  8
PLAN_1
 62
     5
  6
CONTINUOUS
 10
-0.239012
 20
0.075799
  0
VERTEX
  8
PLAN_1
 62
     5
  6
CONTINUOUS
 10
-0.230429
 20
0.075799
  0
SEQEND
  8
0
  0
POLYLINE
  8
PLAN_1
 62
     5
  6
CONTINUOUS
 66
     1
 40
0.003000
 41
0.003000
  0
VERTEX
  8
PLAN_1
 62
     5
  6
CONTINUOUS
 10
-0.222354
 20
0.075799
  0
VERTEX
  8
PLAN_1
 62
     5
  6
CONTINUOUS
 10
-0.214783
 20
0.075799
  0
VERTEX
  8
PLAN_1
 62
     5
  6
CONTINUOUS
 10
-0.214783
 20
0.074787
  0
SEQEND
  8
0
  0
POLYLINE
  8
PLAN_1
 62
     5
  6
CONTINUOUS
 66
     1
 40
0.003000
 41
0.003000
  0
VERTEX
  8
PLAN_1
 62
     5
  6
CONTINUOUS
 10
-0.214783
 20
0.066209
  0
VERTEX
  8
PLAN_1
 62
     5
  6
CONTINUOUS
 10
-0.214783
 20
0.058134
  0
SEQEND
  8
0
  0
POLYLINE
  8
PLAN_1
 62
     5
  6
CONTINUOUS
 66
     1
 40
0.003000
 41
0.003000
  0
VERTEX
  8
PLAN_1
 62
     5
  6
CONTINUOUS
 10
-0.214783
 20
0.049551
  0
VERTEX
  8
PLAN_1
 62
     5
  6
CONTINUOUS
 10
-0.214783
 20
0.041476
  0
SEQEND
  8
0
  0
POLYLINE
  8
PLAN_1
 62
     5
  6
CONTINUOUS
 66
     1
 40
0.003000
 41
0.003000
  0
VERTEX
  8
PLAN_1
 62
     5
  6
CONTINUOUS
 10
-0.214783
 20
0.032894
  0
VERTEX
  8
PLAN_1
 62
     5
  6
CONTINUOUS
 10
-0.214783
 20
0.024819
  0
SEQEND
  8
0
  0
POLYLINE
  8
PLAN_1
 62
     5
  6
CONTINUOUS
 66
     1
 40
0.003000
 41
0.003000
  0
VERTEX
  8
PLAN_1
 62
     5
  6
CONTINUOUS
 10
-0.214783
 20
0.016240
  0
VERTEX
  8
PLAN_1
 62
     5
  6
CONTINUOUS
 10
-0.214783
 20
0.008161
  0
SEQEND
  8
0
  0
POLYLINE
  8
PLAN_1
 62
     5
  6
CONTINUOUS
 66
     1
 40
0.003000
 41
0.003000
  0
VERTEX
  8
PLAN_1
 62
     5
  6
CONTINUOUS
 10
-0.214783
 20
-0.000417
  0
VERTEX
  8
PLAN_1
 62
     5
  6
CONTINUOUS
 10
-0.214783
 20
-0.008492
  0
SEQEND
  8
0
  0
POLYLINE
  8
PLAN_1
 62
     5
  6
CONTINUOUS
 66
     1
 40
0.003000
 41
0.003000
  0
VERTEX
  8
PLAN_1
 62
     5
  6
CONTINUOUS
 10
-0.214783
 20
-0.017075
  0
VERTEX
  8
PLAN_1
 62
     5
  6
CONTINUOUS
 10
-0.214783
 20
-0.025150
  0
SEQEND
  8
0
  0
POLYLINE
  8
PLAN_1
 62
     5
  6
CONTINUOUS
 66
     1
 40
0.003000
 41
0.003000
  0
VERTEX
  8
PLAN_1
 62
     5
  6
CONTINUOUS
 10
-0.214783
 20
-0.033732
  0
VERTEX
  8
PLAN_1
 62
     5
  6
CONTINUOUS
 10
-0.214783
 20
-0.041807
  0
SEQEND
  8
0
  0
POLYLINE
  8
PLAN_1
 62
     5
  6
CONTINUOUS
 66
     1
 40
0.003000
 41
0.003000
  0
VERTEX
  8
PLAN_1
 62
     5
  6
CONTINUOUS
 10
-0.214783
 20
-0.050386
  0
VERTEX
  8
PLAN_1
 62
     5
  6
CONTINUOUS
 10
-0.214783
 20
-0.058465
  0
SEQEND
  8
0
  0
POLYLINE
  8
PLAN_1
 62
     5
  6
CONTINUOUS
 66
     1
 40
0.003000
 41
0.003000
  0
VERTEX
  8
PLAN_1
 62
     5
  6
CONTINUOUS
 10
-0.214783
 20
-0.067043
  0
VERTEX
  8
PLAN_1
 62
     5
  6
CONTINUOUS
 10
-0.214783
 20
-0.075118
  0
SEQEND
  8
0
  0
POLYLINE
  8
PLAN_1
 62
     5
  6
CONTINUOUS
 66
     1
 40
0.003000
 41
0.003000
  0
VERTEX
  8
PLAN_1
 62
     5
  6
CONTINUOUS
 10
-0.214783
 20
-0.083701
  0
VERTEX
  8
PLAN_1
 62
     5
  6
CONTINUOUS
 10
-0.214783
 20
-0.091776
  0
SEQEND
  8
0
  0
POLYLINE
  8
PLAN_1
 62
     5
  6
CONTINUOUS
 66
     1
 40
0.003000
 41
0.003000
  0
VERTEX
  8
PLAN_1
 62
     5
  6
CONTINUOUS
 10
-0.210744
 20
-0.096319
  0
VERTEX
  8
PLAN_1
 62
     5
  6
CONTINUOUS
 10
-0.202669
 20
-0.096319
  0
SEQEND
  8
0
  0
POLYLINE
  8
PLAN_1
 62
     5
  6
CONTINUOUS
 66
     1
 40
0.003000
 41
0.003000
  0
VERTEX
  8
PLAN_1
 62
     5
  6
CONTINUOUS
 10
-0.194087
 20
-0.096319
  0
VERTEX
  8
PLAN_1
 62
     5
  6
CONTINUOUS
 10
-0.186012
 20
-0.096319
  0
SEQEND
  8
0
  0
POLYLINE
  8
PLAN_1
 62
     5
  6
CONTINUOUS
 66
     1
 40
0.003000
 41
0.003000
  0
VERTEX
  8
PLAN_1
 62
     5
  6
CONTINUOUS
 10
-0.177433
 20
-0.096319
  0
VERTEX
  8
PLAN_1
 62
     5
  6
CONTINUOUS
 10
-0.169354
 20
-0.096319
  0
SEQEND
  8
0
  0
POLYLINE
  8
PLAN_1
 62
     5
  6
CONTINUOUS
 66
     1
 40
0.003000
 41
0.003000
  0
VERTEX
  8
PLAN_1
 62
     5
  6
CONTINUOUS
 10
-0.167335
 20
-0.102882
  0
VERTEX
  8
PLAN_1
 62
     5
  6
CONTINUOUS
 10
-0.167335
 20
-0.111461
  0
SEQEND
  8
0
  0
POLYLINE
  8
PLAN_1
 62
     5
  6
CONTINUOUS
 66
     1
 40
0.003000
 41
0.003000
  0
VERTEX
  8
PLAN_1
 62
     5
  6
CONTINUOUS
 10
-0.167335
 20
-0.119535
  0
VERTEX
  8
PLAN_1
 62
     5
  6
CONTINUOUS
 10
-0.167335
 20
-0.128118
  0
SEQEND
  8
0
  0
POLYLINE
  8
PLAN_1
 62
     5
  6
CONTINUOUS
 66
     1
 40
0.003000
 41
0.003000
  0
VERTEX
  8
PLAN_1
 62
     5
  6
CONTINUOUS
 10
-0.167335
 20
-0.136193
  0
VERTEX
  8
PLAN_1
 62
     5
  6
CONTINUOUS
 10
-0.167335
 20
-0.144776
  0
SEQEND
  8
0
  0
POLYLINE
  8
PLAN_1
 62
     5
  6
CONTINUOUS
 66
     1
 40
0.003000
 41
0.003000
  0
VERTEX
  8
PLAN_1
 62
     5
  6
CONTINUOUS
 10
-0.167335
 20
-0.152850
  0
VERTEX
  8
PLAN_1
 62
     5
  6
CONTINUOUS
 10
-0.167335
 20
-0.161429
  0
SEQEND
  8
0
  0
POLYLINE
  8
PLAN_1
 62
     5
  6
CONTINUOUS
 66
     1
 40
0.003000
 41
0.003000
  0
VERTEX
  8
PLAN_1
 62
     5
  6
CONTINUOUS
 10
-0.167335
 20
-0.169508
  0
VERTEX
  8
PLAN_1
 62
     5
  6
CONTINUOUS
 10
-0.167335
 20
-0.178087
  0
SEQEND
  8
0
  0
POLYLINE
  8
PLAN_1
 62
     5
  6
CONTINUOUS
 66
     1
 40
0.003000
 41
0.003000
  0
VERTEX
  8
PLAN_1
 62
     5
  6
CONTINUOUS
 10
-0.167335
 20
-0.186161
  0
VERTEX
  8
PLAN_1
 62
     5
  6
CONTINUOUS
 10
-0.167335
 20
-0.194744
  0
SEQEND
  8
0
  0
POLYLINE
  8
PLAN_1
 62
     5
  6
CONTINUOUS
 66
     1
 40
0.003000
 41
0.003000
  0
VERTEX
  8
PLAN_1
 62
     5
  6
CONTINUOUS
 10
-0.167335
 20
-0.202819
  0
VERTEX
  8
PLAN_1
 62
     5
  6
CONTINUOUS
 10
-0.167335
 20
-0.211402
  0
SEQEND
  8
0
  0
POLYLINE
  8
PLAN_1
 62
     5
  6
CONTINUOUS
 66
     1
 40
0.003000
 41
0.003000
  0
VERTEX
  8
PLAN_1
 62
     5
  6
CONTINUOUS
 10
-0.167335
 20
-0.219476
  0
VERTEX
  8
PLAN_1
 62
     5
  6
CONTINUOUS
 10
-0.167335
 20
-0.228055
  0
SEQEND
  8
0
  0
POLYLINE
  8
PLAN_1
 62
     5
  6
CONTINUOUS
 66
     1
 40
0.003000
 41
0.003000
  0
VERTEX
  8
PLAN_1
 62
     5
  6
CONTINUOUS
 10
-0.167335
 20
-0.236134
  0
VERTEX
  8
PLAN_1
 62
     5
  6
CONTINUOUS
 10
-0.167335
 20
-0.244713
  0
SEQEND
  8
0
  0
POLYLINE
  8
PLAN_1
 62
     5
  6
CONTINUOUS
 66
     1
 40
0.003000
 41
0.003000
  0
VERTEX
  8
PLAN_1
 62
     5
  6
CONTINUOUS
 10
-0.167335
 20
-0.252787
  0
VERTEX
  8
PLAN_1
 62
     5
  6
CONTINUOUS
 10
-0.167335
 20
-0.261370
  0
SEQEND
  8
0
  0
POLYLINE
  8
PLAN_1
 62
     5
  6
CONTINUOUS
 66
     1
 40
0.003000
 41
0.003000
  0
VERTEX
  8
PLAN_1
 62
     5
  6
CONTINUOUS
 10
-0.167335
 20
-0.269445
  0
VERTEX
  8
PLAN_1
 62
     5
  6
CONTINUOUS
 10
-0.167335
 20
-0.278028
  0
SEQEND
  8
0
  0
POLYLINE
  8
PLAN_1
 62
     5
  6
CONTINUOUS
 66
     1
 40
0.003000
 41
0.003000
  0
VERTEX
  8
PLAN_1
 62
     5
  6
CONTINUOUS
 10
-0.167335
 20
-0.286102
  0
VERTEX
  8
PLAN_1
 62
     5
  6
CONTINUOUS
 10
-0.167335
 20
-0.294681
  0
SEQEND
  8
0
  0
POLYLINE
  8
PLAN_1
 62
     5
  6
CONTINUOUS
 66
     1
 40
0.003000
 41
0.003000
  0
VERTEX
  8
PLAN_1
 62
     5
  6
CONTINUOUS
 10
-0.167335
 20
-0.302760
  0
VERTEX
  8
PLAN_1
 62
     5
  6
CONTINUOUS
 10
-0.167335
 20
-0.311339
  0
SEQEND
  8
0
  0
POLYLINE
  8
PLAN_1
 62
     5
  6
CONTINUOUS
 66
     1
 40
0.003000
 41
0.003000
  0
VERTEX
  8
PLAN_1
 62
     5
  6
CONTINUOUS
 10
-0.167335
 20
-0.319413
  0
VERTEX
  8
PLAN_1
 62
     5
  6
CONTINUOUS
 10
-0.167335
 20
-0.327996
  0
SEQEND
  8
0
  0
POLYLINE
  8
PLAN_1
 62
     5
  6
CONTINUOUS
 66
     1
 40
0.003000
 41
0.003000
  0
VERTEX
  8
PLAN_1
 62
     5
  6
CONTINUOUS
 10
-0.167335
 20
-0.336071
  0
VERTEX
  8
PLAN_1
 62
     5
  6
CONTINUOUS
 10
-0.167335
 20
-0.344654
  0
SEQEND
  8
0
  0
POLYLINE
  8
PLAN_1
 62
     5
  6
CONTINUOUS
 66
     1
 40
0.003000
 41
0.003000
  0
VERTEX
  8
PLAN_1
 62
     5
  6
CONTINUOUS
 10
-0.167335
 20
-0.352728
  0
VERTEX
  8
PLAN_1
 62
     5
  6
CONTINUOUS
 10
-0.167335
 20
-0.361307
  0
SEQEND
  8
0
  0
POLYLINE
  8
PLAN_1
 62
     5
  6
CONTINUOUS
 66
     1
 40
0.003000
 41
0.003000
  0
VERTEX
  8
PLAN_1
 62
     5
  6
CONTINUOUS
 10
-0.167335
 20
-0.369386
  0
VERTEX
  8
PLAN_1
 62
     5
  6
CONTINUOUS
 10
-0.167335
 20
-0.377965
  0
SEQEND
  8
0
  0
POLYLINE
  8
PLAN_1
 62
     5
  6
CONTINUOUS
 66
     1
 40
0.003000
 41
0.003000
  0
VERTEX
  8
PLAN_1
 62
     5
  6
CONTINUOUS
 10
-0.167335
 20
-0.386039
  0
VERTEX
  8
PLAN_1
 62
     5
  6
CONTINUOUS
 10
-0.167335
 20
-0.394622
  0
SEQEND
  8
0
  0
POLYLINE
  8
PLAN_1
 62
     5
  6
CONTINUOUS
 66
     1
 40
0.003000
 41
0.003000
  0
VERTEX
  8
PLAN_1
 62
     5
  6
CONTINUOUS
 10
-0.167335
 20
-0.402697
  0
VERTEX
  8
PLAN_1
 62
     5
  6
CONTINUOUS
 10
-0.167335
 20
-0.411280
  0
SEQEND
  8
0
  0
POLYLINE
  8
PLAN_1
 62
     5
  6
CONTINUOUS
 66
     1
 40
0.003000
 41
0.003000
  0
VERTEX
  8
PLAN_1
 62
     5
  6
CONTINUOUS
 10
-0.167335
 20
-0.419354
  0
VERTEX
  8
PLAN_1
 62
     5
  6
CONTINUOUS
 10
-0.167335
 20
-0.427933
  0
SEQEND
  8
0
  0
POLYLINE
  8
PLAN_1
 62
     5
  6
CONTINUOUS
 66
     1
 40
0.003000
 41
0.003000
  0
VERTEX
  8
PLAN_1
 62
     5
  6
CONTINUOUS
 10
-0.167335
 20
-0.436012
  0
VERTEX
  8
PLAN_1
 62
     5
  6
CONTINUOUS
 10
-0.167335
 20
-0.440551
  0
VERTEX
  8
PLAN_1
 62
     5
  6
CONTINUOUS
 10
-0.171374
 20
-0.440551
  0
SEQEND
  8
0
  0
POLYLINE
  8
PLAN_1
 62
     5
  6
CONTINUOUS
 66
     1
 40
0.003000
 41
0.003000
  0
VERTEX
  8
PLAN_1
 62
     5
  6
CONTINUOUS
 10
-0.179449
 20
-0.440551
  0
VERTEX
  8
PLAN_1
 62
     5
  6
CONTINUOUS
 10
-0.188031
 20
-0.440551
  0
SEQEND
  8
0
  0
POLYLINE
  8
PLAN_1
 62
     5
  6
CONTINUOUS
 66
     1
 40
0.003000
 41
0.003000
  0
VERTEX
  8
PLAN_1
 62
     5
  6
CONTINUOUS
 10
-0.196106
 20
-0.440551
  0
VERTEX
  8
PLAN_1
 62
     5
  6
CONTINUOUS
 10
-0.204689
 20
-0.440551
  0
SEQEND
  8
0
  0
POLYLINE
  8
PLAN_1
 62
     5
  6
CONTINUOUS
 66
     1
 40
0.003000
 41
0.003000
  0
VERTEX
  8
PLAN_1
 62
     5
  6
CONTINUOUS
 10
-0.212764
 20
-0.440551
  0
VERTEX
  8
PLAN_1
 62
     5
  6
CONTINUOUS
 10
-0.214783
 20
-0.440551
  0
VERTEX
  8
PLAN_1
 62
     5
  6
CONTINUOUS
 10
-0.214783
 20
-0.447114
  0
SEQEND
  8
0
  0
POLYLINE
  8
PLAN_1
 62
     5
  6
CONTINUOUS
 66
     1
 40
0.003000
 41
0.003000
  0
VERTEX
  8
PLAN_1
 62
     5
  6
CONTINUOUS
 10
-0.214783
 20
-0.455189
  0
VERTEX
  8
PLAN_1
 62
     5
  6
CONTINUOUS
 10
-0.214783
 20
-0.463772
  0
SEQEND
  8
0
  0
POLYLINE
  8
PLAN_1
 62
     5
  6
CONTINUOUS
 66
     1
 40
0.003000
 41
0.003000
  0
VERTEX
  8
PLAN_1
 62
     5
  6
CONTINUOUS
 10
-0.214783
 20
-0.471846
  0
VERTEX
  8
PLAN_1
 62
     5
  6
CONTINUOUS
 10
-0.214783
 20
-0.480429
  0
SEQEND
  8
0
  0
POLYLINE
  8
PLAN_1
 62
     5
  6
CONTINUOUS
 66
     1
 40
0.003000
 41
0.003000
  0
VERTEX
  8
PLAN_1
 62
     5
  6
CONTINUOUS
 10
-0.214783
 20
-0.488504
  0
VERTEX
  8
PLAN_1
 62
     5
  6
CONTINUOUS
 10
-0.214783
 20
-0.497083
  0
SEQEND
  8
0
  0
POLYLINE
  8
PLAN_1
 62
     5
  6
CONTINUOUS
 66
     1
 40
0.003000
 41
0.003000
  0
VERTEX
  8
PLAN_1
 62
     5
  6
CONTINUOUS
 10
-0.214783
 20
-0.505161
  0
VERTEX
  8
PLAN_1
 62
     5
  6
CONTINUOUS
 10
-0.214783
 20
-0.513740
  0
SEQEND
  8
0
  0
POLYLINE
  8
PLAN_1
 62
     5
  6
CONTINUOUS
 66
     1
 40
0.003000
 41
0.003000
  0
VERTEX
  8
PLAN_1
 62
     5
  6
CONTINUOUS
 10
-0.214783
 20
-0.521815
  0
VERTEX
  8
PLAN_1
 62
     5
  6
CONTINUOUS
 10
-0.214783
 20
-0.530398
  0
SEQEND
  8
0
  0
POLYLINE
  8
PLAN_1
 62
     5
  6
CONTINUOUS
 66
     1
 40
0.003000
 41
0.003000
  0
VERTEX
  8
PLAN_1
 62
     5
  6
CONTINUOUS
 10
-0.214783
 20
-0.538472
  0
VERTEX
  8
PLAN_1
 62
     5
  6
CONTINUOUS
 10
-0.214783
 20
-0.547055
  0
SEQEND
  8
0
  0
POLYLINE
  8
PLAN_1
 62
     5
  6
CONTINUOUS
 66
     1
 40
0.003000
 41
0.003000
  0
VERTEX
  8
PLAN_1
 62
     5
  6
CONTINUOUS
 10
-0.214783
 20
-0.555130
  0
VERTEX
  8
PLAN_1
 62
     5
  6
CONTINUOUS
 10
-0.214783
 20
-0.563709
  0
SEQEND
  8
0
  0
POLYLINE
  8
PLAN_1
 62
     5
  6
CONTINUOUS
 66
     1
 40
0.003000
 41
0.003000
  0
VERTEX
  8
PLAN_1
 62
     5
  6
CONTINUOUS
 10
-0.214783
 20
-0.571787
  0
VERTEX
  8
PLAN_1
 62
     5
  6
CONTINUOUS
 10
-0.214783
 20
-0.580366
  0
SEQEND
  8
0
  0
POLYLINE
  8
PLAN_1
 62
     5
  6
CONTINUOUS
 66
     1
 40
0.003000
 41
0.003000
  0
VERTEX
  8
PLAN_1
 62
     5
  6
CONTINUOUS
 10
-0.214783
 20
-0.588441
  0
VERTEX
  8
PLAN_1
 62
     5
  6
CONTINUOUS
 10
-0.214783
 20
-0.597024
  0
SEQEND
  8
0
  0
POLYLINE
  8
PLAN_1
 62
     5
  6
CONTINUOUS
 66
     1
 40
0.003000
 41
0.003000
  0
VERTEX
  8
PLAN_1
 62
     5
  6
CONTINUOUS
 10
-0.214783
 20
-0.605098
  0
VERTEX
  8
PLAN_1
 62
     5
  6
CONTINUOUS
 10
-0.214783
 20
-0.613681
  0
SEQEND
  8
0
  0
POLYLINE
  8
PLAN_1
 62
     5
  6
CONTINUOUS
 66
     1
 40
0.003000
 41
0.003000
  0
VERTEX
  8
PLAN_1
 62
     5
  6
CONTINUOUS
 10
-0.214783
 20
-0.621756
  0
VERTEX
  8
PLAN_1
 62
     5
  6
CONTINUOUS
 10
-0.214783
 20
-0.630335
  0
SEQEND
  8
0
  0
POLYLINE
  8
PLAN_1
 62
     5
  6
CONTINUOUS
 66
     1
 40
0.003000
 41
0.003000
  0
VERTEX
  8
PLAN_1
 62
     5
  6
CONTINUOUS
 10
-0.214783
 20
-0.638413
  0
VERTEX
  8
PLAN_1
 62
     5
  6
CONTINUOUS
 10
-0.214783
 20
-0.646992
  0
SEQEND
  8
0
  0
POLYLINE
  8
PLAN_1
 62
     5
  6
CONTINUOUS
 66
     1
 40
0.003000
 41
0.003000
  0
VERTEX
  8
PLAN_1
 62
     5
  6
CONTINUOUS
 10
-0.214783
 20
-0.655067
  0
VERTEX
  8
PLAN_1
 62
     5
  6
CONTINUOUS
 10
-0.214783
 20
-0.663650
  0
SEQEND
  8
0
  0
POLYLINE
  8
PLAN_1
 62
     5
  6
CONTINUOUS
 66
     1
 40
0.003000
 41
0.003000
  0
VERTEX
  8
PLAN_1
 62
     5
  6
CONTINUOUS
 10
-0.214783
 20
-0.671724
  0
VERTEX
  8
PLAN_1
 62
     5
  6
CONTINUOUS
 10
-0.214783
 20
-0.680307
  0
SEQEND
  8
0
  0
POLYLINE
  8
PLAN_1
 62
     5
  6
CONTINUOUS
 66
     1
 40
0.003000
 41
0.003000
  0
VERTEX
  8
PLAN_1
 62
     5
  6
CONTINUOUS
 10
-0.214783
 20
-0.688382
  0
VERTEX
  8
PLAN_1
 62
     5
  6
CONTINUOUS
 10
-0.214783
 20
-0.696961
  0
SEQEND
  8
0
  0
POLYLINE
  8
PLAN_1
 62
     5
  6
CONTINUOUS
 66
     1
 40
0.003000
 41
0.003000
  0
VERTEX
  8
PLAN_1
 62
     5
  6
CONTINUOUS
 10
-0.214783
 20
-0.705039
  0
VERTEX
  8
PLAN_1
 62
     5
  6
CONTINUOUS
 10
-0.214783
 20
-0.713618
  0
SEQEND
  8
0
  0
POLYLINE
  8
PLAN_1
 62
     5
  6
CONTINUOUS
 66
     1
 40
0.003000
 41
0.003000
  0
VERTEX
  8
PLAN_1
 62
     5
  6
CONTINUOUS
 10
-0.214783
 20
-0.721693
  0
VERTEX
  8
PLAN_1
 62
     5
  6
CONTINUOUS
 10
-0.214783
 20
-0.730276
  0
SEQEND
  8
0
  0
POLYLINE
  8
PLAN_1
 62
     5
  6
CONTINUOUS
 66
     1
 40
0.003000
 41
0.003000
  0
VERTEX
  8
PLAN_1
 62
     5
  6
CONTINUOUS
 10
-0.214783
 20
-0.738350
  0
VERTEX
  8
PLAN_1
 62
     5
  6
CONTINUOUS
 10
-0.214783
 20
-0.746933
  0
SEQEND
  8
0
  0
POLYLINE
  8
PLAN_1
 62
     5
  6
CONTINUOUS
 66
     1
 40
0.003000
 41
0.003000
  0
VERTEX
  8
PLAN_1
 62
     5
  6
CONTINUOUS
 10
-0.214783
 20
-0.755008
  0
VERTEX
  8
PLAN_1
 62
     5
  6
CONTINUOUS
 10
-0.214783
 20
-0.763587
  0
SEQEND
  8
0
  0
POLYLINE
  8
PLAN_1
  6
CONTINUOUS
 66
     1
 40
0.008579
 41
0.008579
  0
VERTEX
  8
PLAN_1
  6
CONTINUOUS
 10
-1.374681
 20
0.077819
  0
VERTEX
  8
PLAN_1
  6
CONTINUOUS
 10
-1.374681
 20
0.301925
  0
VERTEX
  8
PLAN_1
  6
CONTINUOUS
 10
-1.796142
 20
0.301925
  0
SEQEND
  8
0
  0
POLYLINE
  8
PLAN_1
  6
CONTINUOUS
 66
     1
 40
0.008579
 41
0.008579
  0
VERTEX
  8
PLAN_1
  6
CONTINUOUS
 10
-0.212260
 20
0.301925
  0
VERTEX
  8
PLAN_1
  6
CONTINUOUS
 10
-0.610500
 20
0.301925
  0
VERTEX
  8
PLAN_1
  6
CONTINUOUS
 10
-0.610500
 20
0.077819
  0
SEQEND
  8
0
  0
POLYLINE
  8
PLAN_1
  6
CONTINUOUS
 66
     1
 40
0.008579
 41
0.008579
  0
VERTEX
  8
PLAN_1
  6
CONTINUOUS
 10
-1.501370
 20
0.079839
  0
VERTEX
  8
PLAN_1
  6
CONTINUOUS
 10
-1.501370
 20
0.302429
  0
SEQEND
  8
0
  0
POLYLINE
  8
PLAN_1
  6
CONTINUOUS
 66
     1
 40
0.008579
 41
0.008579
  0
VERTEX
  8
PLAN_1
  6
CONTINUOUS
 10
-0.502992
 20
0.079839
  0
VERTEX
  8
PLAN_1
  6
CONTINUOUS
 10
-0.502992
 20
0.302429
  0
SEQEND
  8
0
  0
POLYLINE
  8
PLAN_1
  6
CONTINUOUS
 66
     1
 40
0.008579
 41
0.008579
  0
VERTEX
  8
PLAN_1
  6
CONTINUOUS
 10
-1.789075
 20
1.042382
  0
VERTEX
  8
PLAN_1
  6
CONTINUOUS
 10
-0.218819
 20
1.042382
  0
SEQEND
  8
0
  0
POLYLINE
  8
PLAN_1
  6
CONTINUOUS
 66
     1
 40
0.008579
 41
0.008579
  0
VERTEX
  8
PLAN_1
  6
CONTINUOUS
 10
-0.859339
 20
2.117484
  0
VERTEX
  8
PLAN_1
  6
CONTINUOUS
 10
-0.854291
 20
2.122024
  0
VERTEX
  8
PLAN_1
  6
CONTINUOUS
 10
-0.850760
 20
2.126567
  0
VERTEX
  8
PLAN_1
  6
CONTINUOUS
 10
-0.848740
 20
2.130606
  0
VERTEX
  8
PLAN_1
  6
CONTINUOUS
 10
-0.847224
 20
2.135150
  0
VERTEX
  8
PLAN_1
  6
CONTINUOUS
 10
-0.846217
 20
2.139185
  0
VERTEX
  8
PLAN_1
  6
CONTINUOUS
 10
-0.846720
 20
2.142720
  0
VERTEX
  8
PLAN_1
  6
CONTINUOUS
 10
-0.847224
 20
2.146252
  0
VERTEX
  8
PLAN_1
  6
CONTINUOUS
 10
-0.848232
 20
2.149787
  0
VERTEX
  8
PLAN_1
  6
CONTINUOUS
 10
-0.849748
 20
2.152815
  0
VERTEX
  8
PLAN_1
  6
CONTINUOUS
 10
-0.851768
 20
2.155339
  0
VERTEX
  8
PLAN_1
  6
CONTINUOUS
 10
-0.853283
 20
2.157862
  0
VERTEX
  8
PLAN_1
  6
CONTINUOUS
 10
-0.855299
 20
2.159882
  0
VERTEX
  8
PLAN_1
  6
CONTINUOUS
 10
-0.858331
 20
2.162909
  0
VERTEX
  8
PLAN_1
  6
CONTINUOUS
 10
-0.859339
 20
2.163917
  0
SEQEND
  8
0
  0
POLYLINE
  8
PLAN_1
  6
CONTINUOUS
 66
     1
 40
0.008579
 41
0.008579
  0
VERTEX
  8
PLAN_1
  6
CONTINUOUS
 10
-0.859339
 20
2.163917
  0
VERTEX
  8
PLAN_1
  6
CONTINUOUS
 10
-1.143508
 20
2.163917
  0
SEQEND
  8
0
  0
POLYLINE
  8
PLAN_1
  6
CONTINUOUS
 66
     1
 40
0.008579
 41
0.008579
  0
VERTEX
  8
PLAN_1
  6
CONTINUOUS
 10
-1.143508
 20
2.163917
  0
VERTEX
  8
PLAN_1
  6
CONTINUOUS
 10
-1.144520
 20
2.162909
  0
VERTEX
  8
PLAN_1
  6
CONTINUOUS
 10
-1.147043
 20
2.160386
  0
VERTEX
  8
PLAN_1
  6
CONTINUOUS
 10
-1.150071
 20
2.155843
  0
VERTEX
  8
PLAN_1
  6
CONTINUOUS
 10
-1.153098
 20
2.150291
  0
VERTEX
  8
PLAN_1
  6
CONTINUOUS
 10
-1.154106
 20
2.147264
  0
VERTEX
  8
PLAN_1
  6
CONTINUOUS
 10
-1.154614
 20
2.143728
  0
VERTEX
  8
PLAN_1
  6
CONTINUOUS
 10
-1.154614
 20
2.139693
  0
VERTEX
  8
PLAN_1
  6
CONTINUOUS
 10
-1.154106
 20
2.135654
  0
VERTEX
  8
PLAN_1
  6
CONTINUOUS
 10
-1.152594
 20
2.131614
  0
VERTEX
  8
PLAN_1
  6
CONTINUOUS
 10
-1.150575
 20
2.127075
  0
VERTEX
  8
PLAN_1
  6
CONTINUOUS
 10
-1.147547
 20
2.122531
  0
VERTEX
  8
PLAN_1
  6
CONTINUOUS
 10
-1.143508
 20
2.117484
  0
SEQEND
  8
0
  0
POLYLINE
  8
PLAN_1
  6
CONTINUOUS
 66
     1
 40
0.008579
 41
0.008579
  0
VERTEX
  8
PLAN_1
  6
CONTINUOUS
 10
-1.143508
 20
2.117484
  0
VERTEX
  8
PLAN_1
  6
CONTINUOUS
 10
-0.859339
 20
2.117484
  0
SEQEND
  8
0
  0
POLYLINE
  8
PLAN_1
  6
CONTINUOUS
 66
     1
 40
0.008579
 41
0.008579
  0
VERTEX
  8
PLAN_1
  6
CONTINUOUS
 10
-0.858835
 20
2.072055
  0
VERTEX
  8
PLAN_1
  6
CONTINUOUS
 10
-0.854291
 20
2.076598
  0
VERTEX
  8
PLAN_1
  6
CONTINUOUS
 10
-0.850760
 20
2.080638
  0
VERTEX
  8
PLAN_1
  6
CONTINUOUS
 10
-0.848232
 20
2.085181
  0
VERTEX
  8
PLAN_1
  6
CONTINUOUS
 10
-0.846720
 20
2.089217
  0
VERTEX
  8
PLAN_1
  6
CONTINUOUS
 10
-0.846217
 20
2.093256
  0
VERTEX
  8
PLAN_1
  6
CONTINUOUS
 10
-0.846217
 20
2.096787
  0
VERTEX
  8
PLAN_1
  6
CONTINUOUS
 10
-0.846720
 20
2.100827
  0
VERTEX
  8
PLAN_1
  6
CONTINUOUS
 10
-0.847728
 20
2.103854
  0
VERTEX
  8
PLAN_1
  6
CONTINUOUS
 10
-0.849244
 20
2.106882
  0
VERTEX
  8
PLAN_1
  6
CONTINUOUS
 10
-0.851264
 20
2.109913
  0
VERTEX
  8
PLAN_1
  6
CONTINUOUS
 10
-0.852776
 20
2.112437
  0
VERTEX
  8
PLAN_1
  6
CONTINUOUS
 10
-0.854795
 20
2.114453
  0
VERTEX
  8
PLAN_1
  6
CONTINUOUS
 10
-0.857823
 20
2.116976
  0
VERTEX
  8
PLAN_1
  6
CONTINUOUS
 10
-0.858835
 20
2.117988
  0
SEQEND
  8
0
  0
POLYLINE
  8
PLAN_1
  6
CONTINUOUS
 66
     1
 40
0.008579
 41
0.008579
  0
VERTEX
  8
PLAN_1
  6
CONTINUOUS
 10
-0.858835
 20
2.117988
  0
VERTEX
  8
PLAN_1
  6
CONTINUOUS
 10
-1.143004
 20
2.117988
  0
SEQEND
  8
0
  0
POLYLINE
  8
PLAN_1
  6
CONTINUOUS
 66
     1
 40
0.008579
 41
0.008579
  0
VERTEX
  8
PLAN_1
  6
CONTINUOUS
 10
-1.143004
 20
2.117988
  0
VERTEX
  8
PLAN_1
  6
CONTINUOUS
 10
-1.144012
 20
2.116976
  0
VERTEX
  8
PLAN_1
  6
CONTINUOUS
 10
-1.146535
 20
2.114453
  0
VERTEX
  8
PLAN_1
  6
CONTINUOUS
 10
-1.149567
 20
2.110417
  0
VERTEX
  8
PLAN_1
  6
CONTINUOUS
 10
-1.152594
 20
2.104862
  0
VERTEX
  8
PLAN_1
  6
CONTINUOUS
 10
-1.153602
 20
2.101331
  0
VERTEX
  8
PLAN_1
  6
CONTINUOUS
 10
-1.154106
 20
2.097799
  0
VERTEX
  8
PLAN_1
  6
CONTINUOUS
 10
-1.154106
 20
2.093760
  0
VERTEX
  8
PLAN_1
  6
CONTINUOUS
 10
-1.153602
 20
2.089720
  0
VERTEX
  8
PLAN_1
  6
CONTINUOUS
 10
-1.152594
 20
2.085685
  0
VERTEX
  8
PLAN_1
  6
CONTINUOUS
 10
-1.150071
 20
2.081142
  0
VERTEX
  8
PLAN_1
  6
CONTINUOUS
 10
-1.147043
 20
2.076598
  0
VERTEX
  8
PLAN_1
  6
CONTINUOUS
 10
-1.143004
 20
2.072055
  0
SEQEND
  8
0
  0
POLYLINE
  8
PLAN_1
  6
CONTINUOUS
 66
     1
 40
0.008579
 41
0.008579
  0
VERTEX
  8
PLAN_1
  6
CONTINUOUS
 10
-1.143004
 20
2.072055
  0
VERTEX
  8
PLAN_1
  6
CONTINUOUS
 10
-0.858835
 20
2.072055
  0
SEQEND
  8
0
  0
POLYLINE
  8
PLAN_1
  6
CONTINUOUS
 66
     1
 40
0.008579
 41
0.008579
  0
VERTEX
  8
PLAN_1
  6
CONTINUOUS
 10
-0.858835
 20
2.025618
  0
VERTEX
  8
PLAN_1
  6
CONTINUOUS
 10
-0.854291
 20
2.030161
  0
VERTEX
  8
PLAN_1
  6
CONTINUOUS
 10
-0.850760
 20
2.034201
  0
VERTEX
  8
PLAN_1
  6
CONTINUOUS
 10
-0.848232
 20
2.038744
  0
VERTEX
  8
PLAN_1
  6
CONTINUOUS
 10
-0.846720
 20
2.042780
  0
VERTEX
  8
PLAN_1
  6
CONTINUOUS
 10
-0.846217
 20
2.046819
  0
VERTEX
  8
PLAN_1
  6
CONTINUOUS
 10
-0.846217
 20
2.050858
  0
VERTEX
  8
PLAN_1
  6
CONTINUOUS
 10
-0.847224
 20
2.054390
  0
VERTEX
  8
PLAN_1
  6
CONTINUOUS
 10
-0.848232
 20
2.057417
  0
VERTEX
  8
PLAN_1
  6
CONTINUOUS
 10
-0.849748
 20
2.060445
  0
VERTEX
  8
PLAN_1
  6
CONTINUOUS
 10
-0.851264
 20
2.063476
  0
VERTEX
  8
PLAN_1
  6
CONTINUOUS
 10
-0.853283
 20
2.066000
  0
VERTEX
  8
PLAN_1
  6
CONTINUOUS
 10
-0.854795
 20
2.068020
  0
VERTEX
  8
PLAN_1
  6
CONTINUOUS
 10
-0.857823
 20
2.070543
  0
VERTEX
  8
PLAN_1
  6
CONTINUOUS
 10
-0.858835
 20
2.071551
  0
SEQEND
  8
0
  0
POLYLINE
  8
PLAN_1
  6
CONTINUOUS
 66
     1
 40
0.008579
 41
0.008579
  0
VERTEX
  8
PLAN_1
  6
CONTINUOUS
 10
-0.858835
 20
2.071551
  0
VERTEX
  8
PLAN_1
  6
CONTINUOUS
 10
-1.143004
 20
2.071551
  0
SEQEND
  8
0
  0
POLYLINE
  8
PLAN_1
  6
CONTINUOUS
 66
     1
 40
0.008579
 41
0.008579
  0
VERTEX
  8
PLAN_1
  6
CONTINUOUS
 10
-1.143004
 20
2.071551
  0
VERTEX
  8
PLAN_1
  6
CONTINUOUS
 10
-1.144012
 20
2.070543
  0
VERTEX
  8
PLAN_1
  6
CONTINUOUS
 10
-1.146535
 20
2.068020
  0
VERTEX
  8
PLAN_1
  6
CONTINUOUS
 10
-1.150071
 20
2.063980
  0
VERTEX
  8
PLAN_1
  6
CONTINUOUS
 10
-1.152594
 20
2.058429
  0
VERTEX
  8
PLAN_1
  6
CONTINUOUS
 10
-1.153602
 20
2.054894
  0
VERTEX
  8
PLAN_1
  6
CONTINUOUS
 10
-1.154106
 20
2.051362
  0
VERTEX
  8
PLAN_1
  6
CONTINUOUS
 10
-1.154614
 20
2.047323
  0
VERTEX
  8
PLAN_1
  6
CONTINUOUS
 10
-1.154106
 20
2.043287
  0
VERTEX
  8
PLAN_1
  6
CONTINUOUS
 10
-1.152594
 20
2.039248
  0
VERTEX
  8
PLAN_1
  6
CONTINUOUS
 10
-1.150575
 20
2.034705
  0
VERTEX
  8
PLAN_1
  6
CONTINUOUS
 10
-1.147043
 20
2.030161
  0
VERTEX
  8
PLAN_1
  6
CONTINUOUS
 10
-1.143004
 20
2.025618
  0
SEQEND
  8
0
  0
POLYLINE
  8
PLAN_1
  6
CONTINUOUS
 66
     1
 40
0.008579
 41
0.008579
  0
VERTEX
  8
PLAN_1
  6
CONTINUOUS
 10
-1.143004
 20
2.025618
  0
VERTEX
  8
PLAN_1
  6
CONTINUOUS
 10
-0.858835
 20
2.025618
  0
SEQEND
  8
0
  0
POLYLINE
  8
PLAN_1
  6
CONTINUOUS
 66
     1
 40
0.008579
 41
0.008579
  0
VERTEX
  8
PLAN_1
  6
CONTINUOUS
 10
-0.858835
 20
1.979689
  0
VERTEX
  8
PLAN_1
  6
CONTINUOUS
 10
-0.853787
 20
1.984232
  0
VERTEX
  8
PLAN_1
  6
CONTINUOUS
 10
-0.850252
 20
1.988772
  0
VERTEX
  8
PLAN_1
  6
CONTINUOUS
 10
-0.847728
 20
1.992811
  0
VERTEX
  8
PLAN_1
  6
CONTINUOUS
 10
-0.846217
 20
1.996850
  0
VERTEX
  8
PLAN_1
  6
CONTINUOUS
 10
-0.845709
 20
2.000886
  0
VERTEX
  8
PLAN_1
  6
CONTINUOUS
 10
-0.845709
 20
2.004925
  0
VERTEX
  8
PLAN_1
  6
CONTINUOUS
 10
-0.846720
 20
2.008457
  0
VERTEX
  8
PLAN_1
  6
CONTINUOUS
 10
-0.847728
 20
2.011992
  0
VERTEX
  8
PLAN_1
  6
CONTINUOUS
 10
-0.849244
 20
2.015020
  0
VERTEX
  8
PLAN_1
  6
CONTINUOUS
 10
-0.850760
 20
2.017543
  0
VERTEX
  8
PLAN_1
  6
CONTINUOUS
 10
-0.852776
 20
2.020067
  0
VERTEX
  8
PLAN_1
  6
CONTINUOUS
 10
-0.854795
 20
2.022087
  0
VERTEX
  8
PLAN_1
  6
CONTINUOUS
 10
-0.857319
 20
2.025114
  0
VERTEX
  8
PLAN_1
  6
CONTINUOUS
 10
-0.858835
 20
2.026126
  0
SEQEND
  8
0
  0
POLYLINE
  8
PLAN_1
  6
CONTINUOUS
 66
     1
 40
0.008579
 41
0.008579
  0
VERTEX
  8
PLAN_1
  6
CONTINUOUS
 10
-0.858835
 20
2.026126
  0
VERTEX
  8
PLAN_1
  6
CONTINUOUS
 10
-1.142500
 20
2.026126
  0
SEQEND
  8
0
  0
POLYLINE
  8
PLAN_1
  6
CONTINUOUS
 66
     1
 40
0.008579
 41
0.008579
  0
VERTEX
  8
PLAN_1
  6
CONTINUOUS
 10
-1.142500
 20
2.026126
  0
VERTEX
  8
PLAN_1
  6
CONTINUOUS
 10
-1.143508
 20
2.025114
  0
VERTEX
  8
PLAN_1
  6
CONTINUOUS
 10
-1.146031
 20
2.022087
  0
VERTEX
  8
PLAN_1
  6
CONTINUOUS
 10
-1.149567
 20
2.018047
  0
VERTEX
  8
PLAN_1
  6
CONTINUOUS
 10
-1.152091
 20
2.012496
  0
VERTEX
  8
PLAN_1
  6
CONTINUOUS
 10
-1.153098
 20
2.008965
  0
VERTEX
  8
PLAN_1
  6
CONTINUOUS
 10
-1.154106
 20
2.005429
  0
VERTEX
  8
PLAN_1
  6
CONTINUOUS
 10
-1.154106
 20
2.001898
  0
VERTEX
  8
PLAN_1
  6
CONTINUOUS
 10
-1.153602
 20
1.997858
  0
VERTEX
  8
PLAN_1
  6
CONTINUOUS
 10
-1.152091
 20
1.993315
  0
VERTEX
  8
PLAN_1
  6
CONTINUOUS
 10
-1.150071
 20
1.989280
  0
VERTEX
  8
PLAN_1
  6
CONTINUOUS
 10
-1.147043
 20
1.984232
  0
VERTEX
  8
PLAN_1
  6
CONTINUOUS
 10
-1.142500
 20
1.979689
  0
SEQEND
  8
0
  0
POLYLINE
  8
PLAN_1
  6
CONTINUOUS
 66
     1
 40
0.008579
 41
0.008579
  0
VERTEX
  8
PLAN_1
  6
CONTINUOUS
 10
-1.142500
 20
1.979689
  0
VERTEX
  8
PLAN_1
  6
CONTINUOUS
 10
-0.858835
 20
1.979689
  0
SEQEND
  8
0
  0
POLYLINE
  8
PLAN_1
  6
CONTINUOUS
 66
     1
 40
0.008579
 41
0.008579
  0
VERTEX
  8
PLAN_1
  6
CONTINUOUS
 10
-0.858835
 20
1.933756
  0
VERTEX
  8
PLAN_1
  6
CONTINUOUS
 10
-0.854291
 20
1.938299
  0
VERTEX
  8
PLAN_1
  6
CONTINUOUS
 10
-0.850760
 20
1.942843
  0
VERTEX
  8
PLAN_1
  6
CONTINUOUS
 10
-0.848232
 20
1.946878
  0
VERTEX
  8
PLAN_1
  6
CONTINUOUS
 10
-0.846720
 20
1.951421
  0
VERTEX
  8
PLAN_1
  6
CONTINUOUS
 10
-0.846217
 20
1.955461
  0
VERTEX
  8
PLAN_1
  6
CONTINUOUS
 10
-0.846217
 20
1.958992
  0
VERTEX
  8
PLAN_1
  6
CONTINUOUS
 10
-0.847224
 20
1.962528
  0
VERTEX
  8
PLAN_1
  6
CONTINUOUS
 10
-0.848232
 20
1.966059
  0
VERTEX
  8
PLAN_1
  6
CONTINUOUS
 10
-0.849748
 20
1.969087
  0
VERTEX
  8
PLAN_1
  6
CONTINUOUS
 10
-0.851264
 20
1.971610
  0
VERTEX
  8
PLAN_1
  6
CONTINUOUS
 10
-0.853283
 20
1.974138
  0
VERTEX
  8
PLAN_1
  6
CONTINUOUS
 10
-0.854795
 20
1.976154
  0
VERTEX
  8
PLAN_1
  6
CONTINUOUS
 10
-0.857823
 20
1.979185
  0
VERTEX
  8
PLAN_1
  6
CONTINUOUS
 10
-0.858835
 20
1.980193
  0
SEQEND
  8
0
  0
POLYLINE
  8
PLAN_1
  6
CONTINUOUS
 66
     1
 40
0.008579
 41
0.008579
  0
VERTEX
  8
PLAN_1
  6
CONTINUOUS
 10
-0.858835
 20
1.980193
  0
VERTEX
  8
PLAN_1
  6
CONTINUOUS
 10
-1.143004
 20
1.980193
  0
SEQEND
  8
0
  0
POLYLINE
  8
PLAN_1
  6
CONTINUOUS
 66
     1
 40
0.008579
 41
0.008579
  0
VERTEX
  8
PLAN_1
  6
CONTINUOUS
 10
-1.143004
 20
1.980193
  0
VERTEX
  8
PLAN_1
  6
CONTINUOUS
 10
-1.144012
 20
1.979185
  0
VERTEX
  8
PLAN_1
  6
CONTINUOUS
 10
-1.146535
 20
1.976661
  0
VERTEX
  8
PLAN_1
  6
CONTINUOUS
 10
-1.150071
 20
1.972118
  0
VERTEX
  8
PLAN_1
  6
CONTINUOUS
 10
-1.152594
 20
1.966563
  0
VERTEX
  8
PLAN_1
  6
CONTINUOUS
 10
-1.153602
 20
1.963535
  0
VERTEX
  8
PLAN_1
  6
CONTINUOUS
 10
-1.154106
 20
1.960004
  0
VERTEX
  8
PLAN_1
  6
CONTINUOUS
 10
-1.154614
 20
1.955965
  0
VERTEX
  8
PLAN_1
  6
CONTINUOUS
 10
-1.154106
 20
1.951925
  0
VERTEX
  8
PLAN_1
  6
CONTINUOUS
 10
-1.152594
 20
1.947890
  0
VERTEX
  8
PLAN_1
  6
CONTINUOUS
 10
-1.150575
 20
1.943346
  0
VERTEX
  8
PLAN_1
  6
CONTINUOUS
 10
-1.147043
 20
1.938803
  0
VERTEX
  8
PLAN_1
  6
CONTINUOUS
 10
-1.143004
 20
1.933756
  0
SEQEND
  8
0
  0
POLYLINE
  8
PLAN_1
  6
CONTINUOUS
 66
     1
 40
0.008579
 41
0.008579
  0
VERTEX
  8
PLAN_1
  6
CONTINUOUS
 10
-1.143004
 20
1.933756
  0
VERTEX
  8
PLAN_1
  6
CONTINUOUS
 10
-0.858835
 20
1.933756
  0
SEQEND
  8
0
  0
POLYLINE
  8
PLAN_1
  6
CONTINUOUS
 66
     1
 40
0.008579
 41
0.008579
  0
VERTEX
  8
PLAN_1
  6
CONTINUOUS
 10
-0.858835
 20
1.888331
  0
VERTEX
  8
PLAN_1
  6
CONTINUOUS
 10
-0.853787
 20
1.892874
  0
VERTEX
  8
PLAN_1
  6
CONTINUOUS
 10
-0.850252
 20
1.896909
  0
VERTEX
  8
PLAN_1
  6
CONTINUOUS
 10
-0.847728
 20
1.901453
  0
VERTEX
  8
PLAN_1
  6
CONTINUOUS
 10
-0.846217
 20
1.905492
  0
VERTEX
  8
PLAN_1
  6
CONTINUOUS
 10
-0.845709
 20
1.909528
  0
VERTEX
  8
PLAN_1
  6
CONTINUOUS
 10
-0.845709
 20
1.913567
  0
VERTEX
  8
PLAN_1
  6
CONTINUOUS
 10
-0.846720
 20
1.917098
  0
VERTEX
  8
PLAN_1
  6
CONTINUOUS
 10
-0.847728
 20
1.920130
  0
VERTEX
  8
PLAN_1
  6
CONTINUOUS
 10
-0.849244
 20
1.923157
  0
VERTEX
  8
PLAN_1
  6
CONTINUOUS
 10
-0.850760
 20
1.926185
  0
VERTEX
  8
PLAN_1
  6
CONTINUOUS
 10
-0.852776
 20
1.928709
  0
VERTEX
  8
PLAN_1
  6
CONTINUOUS
 10
-0.854795
 20
1.930728
  0
VERTEX
  8
PLAN_1
  6
CONTINUOUS
 10
-0.857319
 20
1.933252
  0
VERTEX
  8
PLAN_1
  6
CONTINUOUS
 10
-0.858835
 20
1.934260
  0
SEQEND
  8
0
  0
POLYLINE
  8
PLAN_1
  6
CONTINUOUS
 66
     1
 40
0.008579
 41
0.008579
  0
VERTEX
  8
PLAN_1
  6
CONTINUOUS
 10
-0.858835
 20
1.934260
  0
VERTEX
  8
PLAN_1
  6
CONTINUOUS
 10
-1.142500
 20
1.934260
  0
SEQEND
  8
0
  0
POLYLINE
  8
PLAN_1
  6
CONTINUOUS
 66
     1
 40
0.008579
 41
0.008579
  0
VERTEX
  8
PLAN_1
  6
CONTINUOUS
 10
-1.142500
 20
1.934260
  0
VERTEX
  8
PLAN_1
  6
CONTINUOUS
 10
-1.143508
 20
1.933252
  0
VERTEX
  8
PLAN_1
  6
CONTINUOUS
 10
-1.146031
 20
1.930728
  0
VERTEX
  8
PLAN_1
  6
CONTINUOUS
 10
-1.149567
 20
1.926689
  0
VERTEX
  8
PLAN_1
  6
CONTINUOUS
 10
-1.152091
 20
1.921138
  0
VERTEX
  8
PLAN_1
  6
CONTINUOUS
 10
-1.153098
 20
1.917606
  0
VERTEX
  8
PLAN_1
  6
CONTINUOUS
 10
-1.154106
 20
1.914071
  0
VERTEX
  8
PLAN_1
  6
CONTINUOUS
 10
-1.154106
 20
1.910035
  0
VERTEX
  8
PLAN_1
  6
CONTINUOUS
 10
-1.153602
 20
1.905996
  0
VERTEX
  8
PLAN_1
  6
CONTINUOUS
 10
-1.152091
 20
1.901957
  0
VERTEX
  8
PLAN_1
  6
CONTINUOUS
 10
-1.150071
 20
1.897413
  0
VERTEX
  8
PLAN_1
  6
CONTINUOUS
 10
-1.147043
 20
1.892874
  0
VERTEX
  8
PLAN_1
  6
CONTINUOUS
 10
-1.142500
 20
1.888331
  0
SEQEND
  8
0
  0
POLYLINE
  8
PLAN_1
  6
CONTINUOUS
 66
     1
 40
0.008579
 41
0.008579
  0
VERTEX
  8
PLAN_1
  6
CONTINUOUS
 10
-1.142500
 20
1.888331
  0
VERTEX
  8
PLAN_1
  6
CONTINUOUS
 10
-0.858835
 20
1.888331
  0
SEQEND
  8
0
  0
POLYLINE
  8
PLAN_1
  6
CONTINUOUS
 66
     1
 40
0.008579
 41
0.008579
  0
VERTEX
  8
PLAN_1
  6
CONTINUOUS
 10
-0.858835
 20
1.842398
  0
VERTEX
  8
PLAN_1
  6
CONTINUOUS
 10
-0.854291
 20
1.846941
  0
VERTEX
  8
PLAN_1
  6
CONTINUOUS
 10
-0.850760
 20
1.851484
  0
VERTEX
  8
PLAN_1
  6
CONTINUOUS
 10
-0.848232
 20
1.855520
  0
VERTEX
  8
PLAN_1
  6
CONTINUOUS
 10
-0.846720
 20
1.859559
  0
VERTEX
  8
PLAN_1
  6
CONTINUOUS
 10
-0.846217
 20
1.863598
  0
VERTEX
  8
PLAN_1
  6
CONTINUOUS
 10
-0.846217
 20
1.867634
  0
VERTEX
  8
PLAN_1
  6
CONTINUOUS
 10
-0.847224
 20
1.871169
  0
VERTEX
  8
PLAN_1
  6
CONTINUOUS
 10
-0.848232
 20
1.874701
  0
VERTEX
  8
PLAN_1
  6
CONTINUOUS
 10
-0.849748
 20
1.877728
  0
VERTEX
  8
PLAN_1
  6
CONTINUOUS
 10
-0.851264
 20
1.880252
  0
VERTEX
  8
PLAN_1
  6
CONTINUOUS
 10
-0.853283
 20
1.882776
  0
VERTEX
  8
PLAN_1
  6
CONTINUOUS
 10
-0.854795
 20
1.884795
  0
VERTEX
  8
PLAN_1
  6
CONTINUOUS
 10
-0.857823
 20
1.887827
  0
VERTEX
  8
PLAN_1
  6
CONTINUOUS
 10
-0.858835
 20
1.888835
  0
SEQEND
  8
0
  0
POLYLINE
  8
PLAN_1
  6
CONTINUOUS
 66
     1
 40
0.008579
 41
0.008579
  0
VERTEX
  8
PLAN_1
  6
CONTINUOUS
 10
-0.858835
 20
1.888835
  0
VERTEX
  8
PLAN_1
  6
CONTINUOUS
 10
-1.143004
 20
1.888835
  0
SEQEND
  8
0
  0
POLYLINE
  8
PLAN_1
  6
CONTINUOUS
 66
     1
 40
0.008579
 41
0.008579
  0
VERTEX
  8
PLAN_1
  6
CONTINUOUS
 10
-1.143004
 20
1.888835
  0
VERTEX
  8
PLAN_1
  6
CONTINUOUS
 10
-1.144012
 20
1.887827
  0
VERTEX
  8
PLAN_1
  6
CONTINUOUS
 10
-1.146535
 20
1.884795
  0
VERTEX
  8
PLAN_1
  6
CONTINUOUS
 10
-1.150071
 20
1.880760
  0
VERTEX
  8
PLAN_1
  6
CONTINUOUS
 10
-1.152594
 20
1.875205
  0
VERTEX
  8
PLAN_1
  6
CONTINUOUS
 10
-1.153602
 20
1.871673
  0
VERTEX
  8
PLAN_1
  6
CONTINUOUS
 10
-1.154106
 20
1.868142
  0
VERTEX
  8
PLAN_1
  6
CONTINUOUS
 10
-1.154614
 20
1.864606
  0
VERTEX
  8
PLAN_1
  6
CONTINUOUS
 10
-1.154106
 20
1.860567
  0
VERTEX
  8
PLAN_1
  6
CONTINUOUS
 10
-1.152594
 20
1.856028
  0
VERTEX
  8
PLAN_1
  6
CONTINUOUS
 10
-1.150575
 20
1.851988
  0
VERTEX
  8
PLAN_1
  6
CONTINUOUS
 10
-1.147043
 20
1.846941
  0
VERTEX
  8
PLAN_1
  6
CONTINUOUS
 10
-1.143004
 20
1.842398
  0
SEQEND
  8
0
  0
POLYLINE
  8
PLAN_1
  6
CONTINUOUS
 66
     1
 40
0.008579
 41
0.008579
  0
VERTEX
  8
PLAN_1
  6
CONTINUOUS
 10
-1.143004
 20
1.842398
  0
VERTEX
  8
PLAN_1
  6
CONTINUOUS
 10
-0.858835
 20
1.842398
  0
SEQEND
  8
0
  0
POLYLINE
  8
PLAN_1
  6
CONTINUOUS
 66
     1
 40
0.008579
 41
0.008579
  0
VERTEX
  8
PLAN_1
  6
CONTINUOUS
 10
-0.858835
 20
1.796465
  0
VERTEX
  8
PLAN_1
  6
CONTINUOUS
 10
-0.853787
 20
1.801008
  0
VERTEX
  8
PLAN_1
  6
CONTINUOUS
 10
-0.850252
 20
1.805551
  0
VERTEX
  8
PLAN_1
  6
CONTINUOUS
 10
-0.847728
 20
1.809591
  0
VERTEX
  8
PLAN_1
  6
CONTINUOUS
 10
-0.846217
 20
1.814134
  0
VERTEX
  8
PLAN_1
  6
CONTINUOUS
 10
-0.845709
 20
1.818169
  0
VERTEX
  8
PLAN_1
  6
CONTINUOUS
 10
-0.845709
 20
1.821705
  0
VERTEX
  8
PLAN_1
  6
CONTINUOUS
 10
-0.846720
 20
1.825236
  0
VERTEX
  8
PLAN_1
  6
CONTINUOUS
 10
-0.847728
 20
1.828772
  0
VERTEX
  8
PLAN_1
  6
CONTINUOUS
 10
-0.849244
 20
1.831799
  0
VERTEX
  8
PLAN_1
  6
CONTINUOUS
 10
-0.850760
 20
1.834323
  0
VERTEX
  8
PLAN_1
  6
CONTINUOUS
 10
-0.852776
 20
1.836846
  0
VERTEX
  8
PLAN_1
  6
CONTINUOUS
 10
-0.854795
 20
1.838866
  0
VERTEX
  8
PLAN_1
  6
CONTINUOUS
 10
-0.857319
 20
1.841894
  0
VERTEX
  8
PLAN_1
  6
CONTINUOUS
 10
-0.858835
 20
1.842902
  0
SEQEND
  8
0
  0
POLYLINE
  8
PLAN_1
  6
CONTINUOUS
 66
     1
 40
0.008579
 41
0.008579
  0
VERTEX
  8
PLAN_1
  6
CONTINUOUS
 10
-0.858835
 20
1.842902
  0
VERTEX
  8
PLAN_1
  6
CONTINUOUS
 10
-1.142500
 20
1.842902
  0
SEQEND
  8
0
  0
POLYLINE
  8
PLAN_1
  6
CONTINUOUS
 66
     1
 40
0.008579
 41
0.008579
  0
VERTEX
  8
PLAN_1
  6
CONTINUOUS
 10
-1.142500
 20
1.842902
  0
VERTEX
  8
PLAN_1
  6
CONTINUOUS
 10
-1.143508
 20
1.841894
  0
VERTEX
  8
PLAN_1
  6
CONTINUOUS
 10
-1.146031
 20
1.839370
  0
VERTEX
  8
PLAN_1
  6
CONTINUOUS
 10
-1.149567
 20
1.834827
  0
VERTEX
  8
PLAN_1
  6
CONTINUOUS
 10
-1.152091
 20
1.829276
  0
VERTEX
  8
PLAN_1
  6
CONTINUOUS
 10
-1.153098
 20
1.826248
  0
VERTEX
  8
PLAN_1
  6
CONTINUOUS
 10
-1.154106
 20
1.822713
  0
VERTEX
  8
PLAN_1
  6
CONTINUOUS
 10
-1.154106
 20
1.818673
  0
VERTEX
  8
PLAN_1
  6
CONTINUOUS
 10
-1.153602
 20
1.814638
  0
VERTEX
  8
PLAN_1
  6
CONTINUOUS
 10
-1.152091
 20
1.810598
  0
VERTEX
  8
PLAN_1
  6
CONTINUOUS
 10
-1.150071
 20
1.806055
  0
VERTEX
  8
PLAN_1
  6
CONTINUOUS
 10
-1.147043
 20
1.801516
  0
VERTEX
  8
PLAN_1
  6
CONTINUOUS
 10
-1.142500
 20
1.796465
  0
SEQEND
  8
0
  0
POLYLINE
  8
PLAN_1
  6
CONTINUOUS
 66
     1
 40
0.008579
 41
0.008579
  0
VERTEX
  8
PLAN_1
  6
CONTINUOUS
 10
-1.142500
 20
1.796465
  0
VERTEX
  8
PLAN_1
  6
CONTINUOUS
 10
-0.858835
 20
1.796465
  0
SEQEND
  8
0
  0
POLYLINE
  8
PLAN_1
  6
CONTINUOUS
 66
     1
 40
0.008579
 41
0.008579
  0
VERTEX
  8
PLAN_1
  6
CONTINUOUS
 10
-0.858835
 20
1.751039
  0
VERTEX
  8
PLAN_1
  6
CONTINUOUS
 10
-0.854291
 20
1.755583
  0
VERTEX
  8
PLAN_1
  6
CONTINUOUS
 10
-0.850760
 20
1.759622
  0
VERTEX
  8
PLAN_1
  6
CONTINUOUS
 10
-0.848232
 20
1.764161
  0
VERTEX
  8
PLAN_1
  6
CONTINUOUS
 10
-0.846720
 20
1.768201
  0
VERTEX
  8
PLAN_1
  6
CONTINUOUS
 10
-0.846217
 20
1.772240
  0
VERTEX
  8
PLAN_1
  6
CONTINUOUS
 10
-0.846217
 20
1.776276
  0
VERTEX
  8
PLAN_1
  6
CONTINUOUS
 10
-0.847224
 20
1.779811
  0
VERTEX
  8
PLAN_1
  6
CONTINUOUS
 10
-0.848232
 20
1.782839
  0
VERTEX
  8
PLAN_1
  6
CONTINUOUS
 10
-0.849748
 20
1.785866
  0
VERTEX
  8
PLAN_1
  6
CONTINUOUS
 10
-0.851264
 20
1.788894
  0
VERTEX
  8
PLAN_1
  6
CONTINUOUS
 10
-0.853283
 20
1.791417
  0
VERTEX
  8
PLAN_1
  6
CONTINUOUS
 10
-0.854795
 20
1.793437
  0
VERTEX
  8
PLAN_1
  6
CONTINUOUS
 10
-0.857823
 20
1.795961
  0
VERTEX
  8
PLAN_1
  6
CONTINUOUS
 10
-0.858835
 20
1.796972
  0
SEQEND
  8
0
  0
POLYLINE
  8
PLAN_1
  6
CONTINUOUS
 66
     1
 40
0.008579
 41
0.008579
  0
VERTEX
  8
PLAN_1
  6
CONTINUOUS
 10
-0.858835
 20
1.796972
  0
VERTEX
  8
PLAN_1
  6
CONTINUOUS
 10
-1.143004
 20
1.796972
  0
SEQEND
  8
0
  0
POLYLINE
  8
PLAN_1
  6
CONTINUOUS
 66
     1
 40
0.008579
 41
0.008579
  0
VERTEX
  8
PLAN_1
  6
CONTINUOUS
 10
-1.143004
 20
1.796972
  0
VERTEX
  8
PLAN_1
  6
CONTINUOUS
 10
-1.144012
 20
1.795961
  0
VERTEX
  8
PLAN_1
  6
CONTINUOUS
 10
-1.146535
 20
1.793437
  0
VERTEX
  8
PLAN_1
  6
CONTINUOUS
 10
-1.150071
 20
1.789402
  0
VERTEX
  8
PLAN_1
  6
CONTINUOUS
 10
-1.152594
 20
1.783846
  0
VERTEX
  8
PLAN_1
  6
CONTINUOUS
 10
-1.153602
 20
1.780315
  0
VERTEX
  8
PLAN_1
  6
CONTINUOUS
 10
-1.154106
 20
1.776780
  0
VERTEX
  8
PLAN_1
  6
CONTINUOUS
 10
-1.154614
 20
1.772744
  0
VERTEX
  8
PLAN_1
  6
CONTINUOUS
 10
-1.154106
 20
1.768705
  0
VERTEX
  8
PLAN_1
  6
CONTINUOUS
 10
-1.152594
 20
1.764669
  0
VERTEX
  8
PLAN_1
  6
CONTINUOUS
 10
-1.150575
 20
1.760126
  0
VERTEX
  8
PLAN_1
  6
CONTINUOUS
 10
-1.147043
 20
1.755583
  0
VERTEX
  8
PLAN_1
  6
CONTINUOUS
 10
-1.143004
 20
1.751039
  0
SEQEND
  8
0
  0
POLYLINE
  8
PLAN_1
  6
CONTINUOUS
 66
     1
 40
0.008579
 41
0.008579
  0
VERTEX
  8
PLAN_1
  6
CONTINUOUS
 10
-1.143004
 20
1.751039
  0
VERTEX
  8
PLAN_1
  6
CONTINUOUS
 10
-0.858835
 20
1.751039
  0
SEQEND
  8
0
  0
POLYLINE
  8
PLAN_1
  6
CONTINUOUS
 66
     1
 40
0.008579
 41
0.008579
  0
VERTEX
  8
PLAN_1
  6
CONTINUOUS
 10
-0.858835
 20
1.705106
  0
VERTEX
  8
PLAN_1
  6
CONTINUOUS
 10
-0.853787
 20
1.709650
  0
VERTEX
  8
PLAN_1
  6
CONTINUOUS
 10
-0.850252
 20
1.714193
  0
VERTEX
  8
PLAN_1
  6
CONTINUOUS
 10
-0.847728
 20
1.718232
  0
VERTEX
  8
PLAN_1
  6
CONTINUOUS
 10
-0.846217
 20
1.722268
  0
VERTEX
  8
PLAN_1
  6
CONTINUOUS
 10
-0.845709
 20
1.726307
  0
VERTEX
  8
PLAN_1
  6
CONTINUOUS
 10
-0.845709
 20
1.730346
  0
VERTEX
  8
PLAN_1
  6
CONTINUOUS
 10
-0.846720
 20
1.733878
  0
VERTEX
  8
PLAN_1
  6
CONTINUOUS
 10
-0.847728
 20
1.737413
  0
VERTEX
  8
PLAN_1
  6
CONTINUOUS
 10
-0.849244
 20
1.740441
  0
VERTEX
  8
PLAN_1
  6
CONTINUOUS
 10
-0.850760
 20
1.742965
  0
VERTEX
  8
PLAN_1
  6
CONTINUOUS
 10
-0.852776
 20
1.745488
  0
VERTEX
  8
PLAN_1
  6
CONTINUOUS
 10
-0.854795
 20
1.747508
  0
VERTEX
  8
PLAN_1
  6
CONTINUOUS
 10
-0.857319
 20
1.750535
  0
VERTEX
  8
PLAN_1
  6
CONTINUOUS
 10
-0.858835
 20
1.751543
  0
SEQEND
  8
0
  0
POLYLINE
  8
PLAN_1
  6
CONTINUOUS
 66
     1
 40
0.008579
 41
0.008579
  0
VERTEX
  8
PLAN_1
  6
CONTINUOUS
 10
-0.858835
 20
1.751543
  0
VERTEX
  8
PLAN_1
  6
CONTINUOUS
 10
-1.142500
 20
1.751543
  0
SEQEND
  8
0
  0
POLYLINE
  8
PLAN_1
  6
CONTINUOUS
 66
     1
 40
0.008579
 41
0.008579
  0
VERTEX
  8
PLAN_1
  6
CONTINUOUS
 10
-1.142500
 20
1.751543
  0
VERTEX
  8
PLAN_1
  6
CONTINUOUS
 10
-1.143508
 20
1.750535
  0
VERTEX
  8
PLAN_1
  6
CONTINUOUS
 10
-1.146031
 20
1.747508
  0
VERTEX
  8
PLAN_1
  6
CONTINUOUS
 10
-1.149567
 20
1.743469
  0
VERTEX
  8
PLAN_1
  6
CONTINUOUS
 10
-1.152091
 20
1.737917
  0
VERTEX
  8
PLAN_1
  6
CONTINUOUS
 10
-1.153098
 20
1.734382
  0
VERTEX
  8
PLAN_1
  6
CONTINUOUS
 10
-1.154106
 20
1.730850
  0
VERTEX
  8
PLAN_1
  6
CONTINUOUS
 10
-1.154106
 20
1.727315
  0
VERTEX
  8
PLAN_1
  6
CONTINUOUS
 10
-1.153602
 20
1.723280
  0
VERTEX
  8
PLAN_1
  6
CONTINUOUS
 10
-1.152091
 20
1.718736
  0
VERTEX
  8
PLAN_1
  6
CONTINUOUS
 10
-1.150071
 20
1.714697
  0
VERTEX
  8
PLAN_1
  6
CONTINUOUS
 10
-1.147043
 20
1.709650
  0
VERTEX
  8
PLAN_1
  6
CONTINUOUS
 10
-1.142500
 20
1.705106
  0
SEQEND
  8
0
  0
POLYLINE
  8
PLAN_1
  6
CONTINUOUS
 66
     1
 40
0.008579
 41
0.008579
  0
VERTEX
  8
PLAN_1
  6
CONTINUOUS
 10
-1.142500
 20
1.705106
  0
VERTEX
  8
PLAN_1
  6
CONTINUOUS
 10
-0.858835
 20
1.705106
  0
SEQEND
  8
0
  0
POLYLINE
  8
PLAN_1
  6
CONTINUOUS
 66
     1
 40
0.008579
 41
0.008579
  0
VERTEX
  8
PLAN_1
  6
CONTINUOUS
 10
-0.858835
 20
1.659177
  0
VERTEX
  8
PLAN_1
  6
CONTINUOUS
 10
-0.854291
 20
1.663720
  0
VERTEX
  8
PLAN_1
  6
CONTINUOUS
 10
-0.850760
 20
1.668260
  0
VERTEX
  8
PLAN_1
  6
CONTINUOUS
 10
-0.848232
 20
1.672299
  0
VERTEX
  8
PLAN_1
  6
CONTINUOUS
 10
-0.846720
 20
1.676843
  0
VERTEX
  8
PLAN_1
  6
CONTINUOUS
 10
-0.846217
 20
1.680882
  0
VERTEX
  8
PLAN_1
  6
CONTINUOUS
 10
-0.846217
 20
1.684413
  0
VERTEX
  8
PLAN_1
  6
CONTINUOUS
 10
-0.847224
 20
1.687945
  0
VERTEX
  8
PLAN_1
  6
CONTINUOUS
 10
-0.848232
 20
1.691480
  0
VERTEX
  8
PLAN_1
  6
CONTINUOUS
 10
-0.849748
 20
1.694508
  0
VERTEX
  8
PLAN_1
  6
CONTINUOUS
 10
-0.851264
 20
1.697031
  0
VERTEX
  8
PLAN_1
  6
CONTINUOUS
 10
-0.853283
 20
1.699555
  0
VERTEX
  8
PLAN_1
  6
CONTINUOUS
 10
-0.854795
 20
1.701575
  0
VERTEX
  8
PLAN_1
  6
CONTINUOUS
 10
-0.857823
 20
1.704602
  0
VERTEX
  8
PLAN_1
  6
CONTINUOUS
 10
-0.858835
 20
1.705614
  0
SEQEND
  8
0
  0
POLYLINE
  8
PLAN_1
  6
CONTINUOUS
 66
     1
 40
0.008579
 41
0.008579
  0
VERTEX
  8
PLAN_1
  6
CONTINUOUS
 10
-0.858835
 20
1.705614
  0
VERTEX
  8
PLAN_1
  6
CONTINUOUS
 10
-1.143004
 20
1.705614
  0
SEQEND
  8
0
  0
POLYLINE
  8
PLAN_1
  6
CONTINUOUS
 66
     1
 40
0.008579
 41
0.008579
  0
VERTEX
  8
PLAN_1
  6
CONTINUOUS
 10
-1.143004
 20
1.705614
  0
VERTEX
  8
PLAN_1
  6
CONTINUOUS
 10
-1.144012
 20
1.704602
  0
VERTEX
  8
PLAN_1
  6
CONTINUOUS
 10
-1.146535
 20
1.702079
  0
VERTEX
  8
PLAN_1
  6
CONTINUOUS
 10
-1.150071
 20
1.697535
  0
VERTEX
  8
PLAN_1
  6
CONTINUOUS
 10
-1.152594
 20
1.691984
  0
VERTEX
  8
PLAN_1
  6
CONTINUOUS
 10
-1.153602
 20
1.688957
  0
VERTEX
  8
PLAN_1
  6
CONTINUOUS
 10
-1.154106
 20
1.685421
  0
VERTEX
  8
PLAN_1
  6
CONTINUOUS
 10
-1.154614
 20
1.681386
  0
VERTEX
  8
PLAN_1
  6
CONTINUOUS
 10
-1.154106
 20
1.677346
  0
VERTEX
  8
PLAN_1
  6
CONTINUOUS
 10
-1.152594
 20
1.673311
  0
VERTEX
  8
PLAN_1
  6
CONTINUOUS
 10
-1.150575
 20
1.668768
  0
VERTEX
  8
PLAN_1
  6
CONTINUOUS
 10
-1.147043
 20
1.664224
  0
VERTEX
  8
PLAN_1
  6
CONTINUOUS
 10
-1.143004
 20
1.659177
  0
SEQEND
  8
0
  0
POLYLINE
  8
PLAN_1
  6
CONTINUOUS
 66
     1
 40
0.008579
 41
0.008579
  0
VERTEX
  8
PLAN_1
  6
CONTINUOUS
 10
-1.143004
 20
1.659177
  0
VERTEX
  8
PLAN_1
  6
CONTINUOUS
 10
-0.858835
 20
1.659177
  0
SEQEND
  8
0
  0
POLYLINE
  8
PLAN_1
  6
CONTINUOUS
 66
     1
 40
0.008579
 41
0.008579
  0
VERTEX
  8
PLAN_1
  6
CONTINUOUS
 10
-0.858835
 20
1.613748
  0
VERTEX
  8
PLAN_1
  6
CONTINUOUS
 10
-0.853787
 20
1.618291
  0
VERTEX
  8
PLAN_1
  6
CONTINUOUS
 10
-0.850252
 20
1.622331
  0
VERTEX
  8
PLAN_1
  6
CONTINUOUS
 10
-0.847728
 20
1.626874
  0
VERTEX
  8
PLAN_1
  6
CONTINUOUS
 10
-0.846217
 20
1.630909
  0
VERTEX
  8
PLAN_1
  6
CONTINUOUS
 10
-0.845709
 20
1.634949
  0
VERTEX
  8
PLAN_1
  6
CONTINUOUS
 10
-0.845709
 20
1.638988
  0
VERTEX
  8
PLAN_1
  6
CONTINUOUS
 10
-0.846720
 20
1.642520
  0
VERTEX
  8
PLAN_1
  6
CONTINUOUS
 10
-0.847728
 20
1.645547
  0
VERTEX
  8
PLAN_1
  6
CONTINUOUS
 10
-0.849244
 20
1.648579
  0
VERTEX
  8
PLAN_1
  6
CONTINUOUS
 10
-0.850760
 20
1.651606
  0
VERTEX
  8
PLAN_1
  6
CONTINUOUS
 10
-0.852776
 20
1.654130
  0
VERTEX
  8
PLAN_1
  6
CONTINUOUS
 10
-0.854795
 20
1.656150
  0
VERTEX
  8
PLAN_1
  6
CONTINUOUS
 10
-0.857319
 20
1.658673
  0
VERTEX
  8
PLAN_1
  6
CONTINUOUS
 10
-0.858835
 20
1.659681
  0
SEQEND
  8
0
  0
POLYLINE
  8
PLAN_1
  6
CONTINUOUS
 66
     1
 40
0.008579
 41
0.008579
  0
VERTEX
  8
PLAN_1
  6
CONTINUOUS
 10
-0.858835
 20
1.659681
  0
VERTEX
  8
PLAN_1
  6
CONTINUOUS
 10
-1.142500
 20
1.659681
  0
SEQEND
  8
0
  0
POLYLINE
  8
PLAN_1
  6
CONTINUOUS
 66
     1
 40
0.008579
 41
0.008579
  0
VERTEX
  8
PLAN_1
  6
CONTINUOUS
 10
-1.142500
 20
1.659681
  0
VERTEX
  8
PLAN_1
  6
CONTINUOUS
 10
-1.143508
 20
1.658673
  0
VERTEX
  8
PLAN_1
  6
CONTINUOUS
 10
-1.146031
 20
1.656150
  0
VERTEX
  8
PLAN_1
  6
CONTINUOUS
 10
-1.149567
 20
1.652110
  0
VERTEX
  8
PLAN_1
  6
CONTINUOUS
 10
-1.152091
 20
1.646559
  0
VERTEX
  8
PLAN_1
  6
CONTINUOUS
 10
-1.153098
 20
1.643024
  0
VERTEX
  8
PLAN_1
  6
CONTINUOUS
 10
-1.154106
 20
1.639492
  0
VERTEX
  8
PLAN_1
  6
CONTINUOUS
 10
-1.154106
 20
1.635453
  0
VERTEX
  8
PLAN_1
  6
CONTINUOUS
 10
-1.153602
 20
1.631417
  0
VERTEX
  8
PLAN_1
  6
CONTINUOUS
 10
-1.152091
 20
1.627378
  0
VERTEX
  8
PLAN_1
  6
CONTINUOUS
 10
-1.150071
 20
1.622835
  0
VERTEX
  8
PLAN_1
  6
CONTINUOUS
 10
-1.147043
 20
1.618291
  0
VERTEX
  8
PLAN_1
  6
CONTINUOUS
 10
-1.142500
 20
1.613748
  0
SEQEND
  8
0
  0
POLYLINE
  8
PLAN_1
  6
CONTINUOUS
 66
     1
 40
0.008579
 41
0.008579
  0
VERTEX
  8
PLAN_1
  6
CONTINUOUS
 10
-1.142500
 20
1.613748
  0
VERTEX
  8
PLAN_1
  6
CONTINUOUS
 10
-0.858835
 20
1.613748
  0
SEQEND
  8
0
  0
POLYLINE
  8
PLAN_1
  6
CONTINUOUS
 66
     1
 40
0.008579
 41
0.008579
  0
VERTEX
  8
PLAN_1
  6
CONTINUOUS
 10
-0.858835
 20
1.567819
  0
VERTEX
  8
PLAN_1
  6
CONTINUOUS
 10
-0.854291
 20
1.572362
  0
VERTEX
  8
PLAN_1
  6
CONTINUOUS
 10
-0.850760
 20
1.576902
  0
VERTEX
  8
PLAN_1
  6
CONTINUOUS
 10
-0.848232
 20
1.580941
  0
VERTEX
  8
PLAN_1
  6
CONTINUOUS
 10
-0.846720
 20
1.584980
  0
VERTEX
  8
PLAN_1
  6
CONTINUOUS
 10
-0.846217
 20
1.589016
  0
VERTEX
  8
PLAN_1
  6
CONTINUOUS
 10
-0.846217
 20
1.593055
  0
VERTEX
  8
PLAN_1
  6
CONTINUOUS
 10
-0.847224
 20
1.596587
  0
VERTEX
  8
PLAN_1
  6
CONTINUOUS
 10
-0.848232
 20
1.600122
  0
VERTEX
  8
PLAN_1
  6
CONTINUOUS
 10
-0.849748
 20
1.603150
  0
VERTEX
  8
PLAN_1
  6
CONTINUOUS
 10
-0.851264
 20
1.605673
  0
VERTEX
  8
PLAN_1
  6
CONTINUOUS
 10
-0.853283
 20
1.608197
  0
VERTEX
  8
PLAN_1
  6
CONTINUOUS
 10
-0.854795
 20
1.610217
  0
VERTEX
  8
PLAN_1
  6
CONTINUOUS
 10
-0.857823
 20
1.613244
  0
VERTEX
  8
PLAN_1
  6
CONTINUOUS
 10
-0.858835
 20
1.614256
  0
SEQEND
  8
0
  0
POLYLINE
  8
PLAN_1
  6
CONTINUOUS
 66
     1
 40
0.008579
 41
0.008579
  0
VERTEX
  8
PLAN_1
  6
CONTINUOUS
 10
-0.858835
 20
1.614256
  0
VERTEX
  8
PLAN_1
  6
CONTINUOUS
 10
-1.143004
 20
1.614256
  0
SEQEND
  8
0
  0
POLYLINE
  8
PLAN_1
  6
CONTINUOUS
 66
     1
 40
0.008579
 41
0.008579
  0
VERTEX
  8
PLAN_1
  6
CONTINUOUS
 10
-1.143004
 20
1.614256
  0
VERTEX
  8
PLAN_1
  6
CONTINUOUS
 10
-1.144012
 20
1.613244
  0
VERTEX
  8
PLAN_1
  6
CONTINUOUS
 10
-1.146535
 20
1.610217
  0
VERTEX
  8
PLAN_1
  6
CONTINUOUS
 10
-1.150071
 20
1.606177
  0
VERTEX
  8
PLAN_1
  6
CONTINUOUS
 10
-1.152594
 20
1.600626
  0
VERTEX
  8
PLAN_1
  6
CONTINUOUS
 10
-1.153602
 20
1.597094
  0
VERTEX
  8
PLAN_1
  6
CONTINUOUS
 10
-1.154106
 20
1.593559
  0
VERTEX
  8
PLAN_1
  6
CONTINUOUS
 10
-1.154614
 20
1.590028
  0
VERTEX
  8
PLAN_1
  6
CONTINUOUS
 10
-1.154106
 20
1.585988
  0
VERTEX
  8
PLAN_1
  6
CONTINUOUS
 10
-1.152594
 20
1.581445
  0
VERTEX
  8
PLAN_1
  6
CONTINUOUS
 10
-1.150575
 20
1.577409
  0
VERTEX
  8
PLAN_1
  6
CONTINUOUS
 10
-1.147043
 20
1.572362
  0
VERTEX
  8
PLAN_1
  6
CONTINUOUS
 10
-1.143004
 20
1.567819
  0
SEQEND
  8
0
  0
POLYLINE
  8
PLAN_1
  6
CONTINUOUS
 66
     1
 40
0.008579
 41
0.008579
  0
VERTEX
  8
PLAN_1
  6
CONTINUOUS
 10
-1.143004
 20
1.567819
  0
VERTEX
  8
PLAN_1
  6
CONTINUOUS
 10
-0.858835
 20
1.567819
  0
SEQEND
  8
0
  0
POLYLINE
  8
PLAN_1
  6
CONTINUOUS
 66
     1
 40
0.008579
 41
0.008579
  0
VERTEX
  8
PLAN_1
  6
CONTINUOUS
 10
-0.858835
 20
1.521886
  0
VERTEX
  8
PLAN_1
  6
CONTINUOUS
 10
-0.853787
 20
1.526429
  0
VERTEX
  8
PLAN_1
  6
CONTINUOUS
 10
-0.850252
 20
1.530972
  0
VERTEX
  8
PLAN_1
  6
CONTINUOUS
 10
-0.847728
 20
1.535008
  0
VERTEX
  8
PLAN_1
  6
CONTINUOUS
 10
-0.846217
 20
1.539551
  0
VERTEX
  8
PLAN_1
  6
CONTINUOUS
 10
-0.845709
 20
1.543591
  0
VERTEX
  8
PLAN_1
  6
CONTINUOUS
 10
-0.845709
 20
1.547122
  0
VERTEX
  8
PLAN_1
  6
CONTINUOUS
 10
-0.846720
 20
1.550657
  0
VERTEX
  8
PLAN_1
  6
CONTINUOUS
 10
-0.847728
 20
1.554189
  0
VERTEX
  8
PLAN_1
  6
CONTINUOUS
 10
-0.849244
 20
1.557217
  0
VERTEX
  8
PLAN_1
  6
CONTINUOUS
 10
-0.850760
 20
1.559744
  0
VERTEX
  8
PLAN_1
  6
CONTINUOUS
 10
-0.852776
 20
1.562268
  0
VERTEX
  8
PLAN_1
  6
CONTINUOUS
 10
-0.854795
 20
1.564283
  0
VERTEX
  8
PLAN_1
  6
CONTINUOUS
 10
-0.857319
 20
1.567315
  0
VERTEX
  8
PLAN_1
  6
CONTINUOUS
 10
-0.858835
 20
1.568323
  0
SEQEND
  8
0
  0
POLYLINE
  8
PLAN_1
  6
CONTINUOUS
 66
     1
 40
0.008579
 41
0.008579
  0
VERTEX
  8
PLAN_1
  6
CONTINUOUS
 10
-0.858835
 20
1.568323
  0
VERTEX
  8
PLAN_1
  6
CONTINUOUS
 10
-1.142500
 20
1.568323
  0
SEQEND
  8
0
  0
POLYLINE
  8
PLAN_1
  6
CONTINUOUS
 66
     1
 40
0.008579
 41
0.008579
  0
VERTEX
  8
PLAN_1
  6
CONTINUOUS
 10
-1.142500
 20
1.568323
  0
VERTEX
  8
PLAN_1
  6
CONTINUOUS
 10
-1.143508
 20
1.567315
  0
VERTEX
  8
PLAN_1
  6
CONTINUOUS
 10
-1.146031
 20
1.564791
  0
VERTEX
  8
PLAN_1
  6
CONTINUOUS
 10
-1.149567
 20
1.560248
  0
VERTEX
  8
PLAN_1
  6
CONTINUOUS
 10
-1.152091
 20
1.554693
  0
VERTEX
  8
PLAN_1
  6
CONTINUOUS
 10
-1.153098
 20
1.551665
  0
VERTEX
  8
PLAN_1
  6
CONTINUOUS
 10
-1.154106
 20
1.548134
  0
VERTEX
  8
PLAN_1
  6
CONTINUOUS
 10
-1.154106
 20
1.544094
  0
VERTEX
  8
PLAN_1
  6
CONTINUOUS
 10
-1.153602
 20
1.540059
  0
VERTEX
  8
PLAN_1
  6
CONTINUOUS
 10
-1.152091
 20
1.536020
  0
VERTEX
  8
PLAN_1
  6
CONTINUOUS
 10
-1.150071
 20
1.531476
  0
VERTEX
  8
PLAN_1
  6
CONTINUOUS
 10
-1.147043
 20
1.526933
  0
VERTEX
  8
PLAN_1
  6
CONTINUOUS
 10
-1.142500
 20
1.521886
  0
SEQEND
  8
0
  0
POLYLINE
  8
PLAN_1
  6
CONTINUOUS
 66
     1
 40
0.008579
 41
0.008579
  0
VERTEX
  8
PLAN_1
  6
CONTINUOUS
 10
-1.142500
 20
1.521886
  0
VERTEX
  8
PLAN_1
  6
CONTINUOUS
 10
-0.858835
 20
1.521886
  0
SEQEND
  8
0
  0
POLYLINE
  8
PLAN_1
  6
CONTINUOUS
 66
     1
 40
0.008579
 41
0.008579
  0
VERTEX
  8
PLAN_1
  6
CONTINUOUS
 10
-0.858835
 20
2.759012
  0
VERTEX
  8
PLAN_1
  6
CONTINUOUS
 10
-0.854291
 20
2.763555
  0
VERTEX
  8
PLAN_1
  6
CONTINUOUS
 10
-0.850760
 20
2.768094
  0
VERTEX
  8
PLAN_1
  6
CONTINUOUS
 10
-0.848232
 20
2.772134
  0
VERTEX
  8
PLAN_1
  6
CONTINUOUS
 10
-0.846720
 20
2.776173
  0
VERTEX
  8
PLAN_1
  6
CONTINUOUS
 10
-0.846217
 20
2.780209
  0
VERTEX
  8
PLAN_1
  6
CONTINUOUS
 10
-0.846217
 20
2.784248
  0
VERTEX
  8
PLAN_1
  6
CONTINUOUS
 10
-0.846720
 20
2.787780
  0
VERTEX
  8
PLAN_1
  6
CONTINUOUS
 10
-0.848232
 20
2.791315
  0
VERTEX
  8
PLAN_1
  6
CONTINUOUS
 10
-0.849748
 20
2.794343
  0
VERTEX
  8
PLAN_1
  6
CONTINUOUS
 10
-0.851264
 20
2.796866
  0
VERTEX
  8
PLAN_1
  6
CONTINUOUS
 10
-0.853283
 20
2.799390
  0
VERTEX
  8
PLAN_1
  6
CONTINUOUS
 10
-0.854795
 20
2.801409
  0
VERTEX
  8
PLAN_1
  6
CONTINUOUS
 10
-0.857823
 20
2.804437
  0
VERTEX
  8
PLAN_1
  6
CONTINUOUS
 10
-0.858835
 20
2.805449
  0
SEQEND
  8
0
  0
POLYLINE
  8
PLAN_1
  6
CONTINUOUS
 66
     1
 40
0.008579
 41
0.008579
  0
VERTEX
  8
PLAN_1
  6
CONTINUOUS
 10
-0.858835
 20
2.805449
  0
VERTEX
  8
PLAN_1
  6
CONTINUOUS
 10
-1.143004
 20
2.805449
  0
SEQEND
  8
0
  0
POLYLINE
  8
PLAN_1
  6
CONTINUOUS
 66
     1
 40
0.008579
 41
0.008579
  0
VERTEX
  8
PLAN_1
  6
CONTINUOUS
 10
-1.143004
 20
2.805449
  0
VERTEX
  8
PLAN_1
  6
CONTINUOUS
 10
-1.144012
 20
2.804437
  0
VERTEX
  8
PLAN_1
  6
CONTINUOUS
 10
-1.146535
 20
2.801913
  0
VERTEX
  8
PLAN_1
  6
CONTINUOUS
 10
-1.149567
 20
2.797370
  0
VERTEX
  8
PLAN_1
  6
CONTINUOUS
 10
-1.152594
 20
2.791819
  0
VERTEX
  8
PLAN_1
  6
CONTINUOUS
 10
-1.153602
 20
2.788287
  0
VERTEX
  8
PLAN_1
  6
CONTINUOUS
 10
-1.154106
 20
2.784752
  0
VERTEX
  8
PLAN_1
  6
CONTINUOUS
 10
-1.154106
 20
2.781220
  0
VERTEX
  8
PLAN_1
  6
CONTINUOUS
 10
-1.153602
 20
2.777181
  0
VERTEX
  8
PLAN_1
  6
CONTINUOUS
 10
-1.152594
 20
2.772638
  0
VERTEX
  8
PLAN_1
  6
CONTINUOUS
 10
-1.150575
 20
2.768602
  0
VERTEX
  8
PLAN_1
  6
CONTINUOUS
 10
-1.147043
 20
2.764059
  0
VERTEX
  8
PLAN_1
  6
CONTINUOUS
 10
-1.143004
 20
2.759012
  0
SEQEND
  8
0
  0
POLYLINE
  8
PLAN_1
  6
CONTINUOUS
 66
     1
 40
0.008579
 41
0.008579
  0
VERTEX
  8
PLAN_1
  6
CONTINUOUS
 10
-1.143004
 20
2.759012
  0
VERTEX
  8
PLAN_1
  6
CONTINUOUS
 10
-0.858835
 20
2.759012
  0
SEQEND
  8
0
  0
POLYLINE
  8
PLAN_1
  6
CONTINUOUS
 66
     1
 40
0.008579
 41
0.008579
  0
VERTEX
  8
PLAN_1
  6
CONTINUOUS
 10
-0.858331
 20
2.713583
  0
VERTEX
  8
PLAN_1
  6
CONTINUOUS
 10
-0.853787
 20
2.717622
  0
VERTEX
  8
PLAN_1
  6
CONTINUOUS
 10
-0.850252
 20
2.722165
  0
VERTEX
  8
PLAN_1
  6
CONTINUOUS
 10
-0.847728
 20
2.726709
  0
VERTEX
  8
PLAN_1
  6
CONTINUOUS
 10
-0.846217
 20
2.730744
  0
VERTEX
  8
PLAN_1
  6
CONTINUOUS
 10
-0.845709
 20
2.734783
  0
VERTEX
  8
PLAN_1
  6
CONTINUOUS
 10
-0.845709
 20
2.738315
  0
VERTEX
  8
PLAN_1
  6
CONTINUOUS
 10
-0.846720
 20
2.741850
  0
VERTEX
  8
PLAN_1
  6
CONTINUOUS
 10
-0.847728
 20
2.745382
  0
VERTEX
  8
PLAN_1
  6
CONTINUOUS
 10
-0.849244
 20
2.748409
  0
VERTEX
  8
PLAN_1
  6
CONTINUOUS
 10
-0.850760
 20
2.751441
  0
VERTEX
  8
PLAN_1
  6
CONTINUOUS
 10
-0.852776
 20
2.753457
  0
VERTEX
  8
PLAN_1
  6
CONTINUOUS
 10
-0.854291
 20
2.755476
  0
VERTEX
  8
PLAN_1
  6
CONTINUOUS
 10
-0.857319
 20
2.758504
  0
VERTEX
  8
PLAN_1
  6
CONTINUOUS
 10
-0.858331
 20
2.759516
  0
SEQEND
  8
0
  0
POLYLINE
  8
PLAN_1
  6
CONTINUOUS
 66
     1
 40
0.008579
 41
0.008579
  0
VERTEX
  8
PLAN_1
  6
CONTINUOUS
 10
-0.858331
 20
2.759516
  0
VERTEX
  8
PLAN_1
  6
CONTINUOUS
 10
-1.142500
 20
2.759516
  0
SEQEND
  8
0
  0
POLYLINE
  8
PLAN_1
  6
CONTINUOUS
 66
     1
 40
0.008579
 41
0.008579
  0
VERTEX
  8
PLAN_1
  6
CONTINUOUS
 10
-1.142500
 20
2.759516
  0
VERTEX
  8
PLAN_1
  6
CONTINUOUS
 10
-1.143508
 20
2.758504
  0
VERTEX
  8
PLAN_1
  6
CONTINUOUS
 10
-1.146031
 20
2.755980
  0
VERTEX
  8
PLAN_1
  6
CONTINUOUS
 10
-1.149059
 20
2.751441
  0
VERTEX
  8
PLAN_1
  6
CONTINUOUS
 10
-1.152091
 20
2.745886
  0
VERTEX
  8
PLAN_1
  6
CONTINUOUS
 10
-1.153098
 20
2.742858
  0
VERTEX
  8
PLAN_1
  6
CONTINUOUS
 10
-1.153602
 20
2.739327
  0
VERTEX
  8
PLAN_1
  6
CONTINUOUS
 10
-1.154106
 20
2.735287
  0
VERTEX
  8
PLAN_1
  6
CONTINUOUS
 10
-1.153602
 20
2.731248
  0
VERTEX
  8
PLAN_1
  6
CONTINUOUS
 10
-1.152091
 20
2.727213
  0
VERTEX
  8
PLAN_1
  6
CONTINUOUS
 10
-1.150071
 20
2.722669
  0
VERTEX
  8
PLAN_1
  6
CONTINUOUS
 10
-1.146535
 20
2.718126
  0
VERTEX
  8
PLAN_1
  6
CONTINUOUS
 10
-1.142500
 20
2.713583
  0
SEQEND
  8
0
  0
POLYLINE
  8
PLAN_1
  6
CONTINUOUS
 66
     1
 40
0.008579
 41
0.008579
  0
VERTEX
  8
PLAN_1
  6
CONTINUOUS
 10
-1.142500
 20
2.713583
  0
VERTEX
  8
PLAN_1
  6
CONTINUOUS
 10
-0.858331
 20
2.713583
  0
SEQEND
  8
0
  0
POLYLINE
  8
PLAN_1
  6
CONTINUOUS
 66
     1
 40
0.008579
 41
0.008579
  0
VERTEX
  8
PLAN_1
  6
CONTINUOUS
 10
-0.858835
 20
2.667146
  0
VERTEX
  8
PLAN_1
  6
CONTINUOUS
 10
-0.853787
 20
2.671185
  0
VERTEX
  8
PLAN_1
  6
CONTINUOUS
 10
-0.850252
 20
2.675728
  0
VERTEX
  8
PLAN_1
  6
CONTINUOUS
 10
-0.847728
 20
2.680272
  0
VERTEX
  8
PLAN_1
  6
CONTINUOUS
 10
-0.846720
 20
2.684307
  0
VERTEX
  8
PLAN_1
  6
CONTINUOUS
 10
-0.845709
 20
2.688346
  0
VERTEX
  8
PLAN_1
  6
CONTINUOUS
 10
-0.846217
 20
2.691878
  0
VERTEX
  8
PLAN_1
  6
CONTINUOUS
 10
-0.846720
 20
2.695413
  0
VERTEX
  8
PLAN_1
  6
CONTINUOUS
 10
-0.847728
 20
2.698945
  0
VERTEX
  8
PLAN_1
  6
CONTINUOUS
 10
-0.849244
 20
2.701976
  0
VERTEX
  8
PLAN_1
  6
CONTINUOUS
 10
-0.851264
 20
2.705004
  0
VERTEX
  8
PLAN_1
  6
CONTINUOUS
 10
-0.852776
 20
2.707024
  0
VERTEX
  8
PLAN_1
  6
CONTINUOUS
 10
-0.854795
 20
2.709039
  0
VERTEX
  8
PLAN_1
  6
CONTINUOUS
 10
-0.857319
 20
2.712071
  0
VERTEX
  8
PLAN_1
  6
CONTINUOUS
 10
-0.858835
 20
2.713079
  0
SEQEND
  8
0
  0
POLYLINE
  8
PLAN_1
  6
CONTINUOUS
 66
     1
 40
0.008579
 41
0.008579
  0
VERTEX
  8
PLAN_1
  6
CONTINUOUS
 10
-0.858835
 20
2.713079
  0
VERTEX
  8
PLAN_1
  6
CONTINUOUS
 10
-1.142500
 20
2.713079
  0
SEQEND
  8
0
  0
POLYLINE
  8
PLAN_1
  6
CONTINUOUS
 66
     1
 40
0.008579
 41
0.008579
  0
VERTEX
  8
PLAN_1
  6
CONTINUOUS
 10
-1.142500
 20
2.713079
  0
VERTEX
  8
PLAN_1
  6
CONTINUOUS
 10
-1.144012
 20
2.712071
  0
VERTEX
  8
PLAN_1
  6
CONTINUOUS
 10
-1.146535
 20
2.709547
  0
VERTEX
  8
PLAN_1
  6
CONTINUOUS
 10
-1.149567
 20
2.705508
  0
VERTEX
  8
PLAN_1
  6
CONTINUOUS
 10
-1.152594
 20
2.699453
  0
VERTEX
  8
PLAN_1
  6
CONTINUOUS
 10
-1.153602
 20
2.696421
  0
VERTEX
  8
PLAN_1
  6
CONTINUOUS
 10
-1.154106
 20
2.692890
  0
VERTEX
  8
PLAN_1
  6
CONTINUOUS
 10
-1.154106
 20
2.688850
  0
VERTEX
  8
PLAN_1
  6
CONTINUOUS
 10
-1.153602
 20
2.684815
  0
VERTEX
  8
PLAN_1
  6
CONTINUOUS
 10
-1.152091
 20
2.680776
  0
VERTEX
  8
PLAN_1
  6
CONTINUOUS
 10
-1.150071
 20
2.676232
  0
VERTEX
  8
PLAN_1
  6
CONTINUOUS
 10
-1.147043
 20
2.671689
  0
VERTEX
  8
PLAN_1
  6
CONTINUOUS
 10
-1.142500
 20
2.667146
  0
SEQEND
  8
0
  0
POLYLINE
  8
PLAN_1
  6
CONTINUOUS
 66
     1
 40
0.008579
 41
0.008579
  0
VERTEX
  8
PLAN_1
  6
CONTINUOUS
 10
-1.142500
 20
2.667146
  0
VERTEX
  8
PLAN_1
  6
CONTINUOUS
 10
-0.858835
 20
2.667146
  0
SEQEND
  8
0
  0
POLYLINE
  8
PLAN_1
  6
CONTINUOUS
 66
     1
 40
0.008579
 41
0.008579
  0
VERTEX
  8
PLAN_1
  6
CONTINUOUS
 10
-0.858331
 20
2.621217
  0
VERTEX
  8
PLAN_1
  6
CONTINUOUS
 10
-0.853787
 20
2.625760
  0
VERTEX
  8
PLAN_1
  6
CONTINUOUS
 10
-0.849748
 20
2.629795
  0
VERTEX
  8
PLAN_1
  6
CONTINUOUS
 10
-0.847728
 20
2.634339
  0
VERTEX
  8
PLAN_1
  6
CONTINUOUS
 10
-0.846217
 20
2.638378
  0
VERTEX
  8
PLAN_1
  6
CONTINUOUS
 10
-0.845205
 20
2.642413
  0
VERTEX
  8
PLAN_1
  6
CONTINUOUS
 10
-0.845709
 20
2.646453
  0
VERTEX
  8
PLAN_1
  6
CONTINUOUS
 10
-0.846217
 20
2.649984
  0
VERTEX
  8
PLAN_1
  6
CONTINUOUS
 10
-0.847224
 20
2.653016
  0
VERTEX
  8
PLAN_1
  6
CONTINUOUS
 10
-0.848740
 20
2.656547
  0
VERTEX
  8
PLAN_1
  6
CONTINUOUS
 10
-0.850760
 20
2.659071
  0
VERTEX
  8
PLAN_1
  6
CONTINUOUS
 10
-0.852272
 20
2.661594
  0
VERTEX
  8
PLAN_1
  6
CONTINUOUS
 10
-0.854291
 20
2.663614
  0
VERTEX
  8
PLAN_1
  6
CONTINUOUS
 10
-0.857319
 20
2.666138
  0
VERTEX
  8
PLAN_1
  6
CONTINUOUS
 10
-0.858331
 20
2.667146
  0
SEQEND
  8
0
  0
POLYLINE
  8
PLAN_1
  6
CONTINUOUS
 66
     1
 40
0.008579
 41
0.008579
  0
VERTEX
  8
PLAN_1
  6
CONTINUOUS
 10
-0.858331
 20
2.667146
  0
VERTEX
  8
PLAN_1
  6
CONTINUOUS
 10
-1.142500
 20
2.667146
  0
SEQEND
  8
0
  0
POLYLINE
  8
PLAN_1
  6
CONTINUOUS
 66
     1
 40
0.008579
 41
0.008579
  0
VERTEX
  8
PLAN_1
  6
CONTINUOUS
 10
-1.142500
 20
2.667146
  0
VERTEX
  8
PLAN_1
  6
CONTINUOUS
 10
-1.143508
 20
2.666642
  0
VERTEX
  8
PLAN_1
  6
CONTINUOUS
 10
-1.146031
 20
2.663614
  0
VERTEX
  8
PLAN_1
  6
CONTINUOUS
 10
-1.149059
 20
2.659575
  0
VERTEX
  8
PLAN_1
  6
CONTINUOUS
 10
-1.152091
 20
2.654024
  0
VERTEX
  8
PLAN_1
  6
CONTINUOUS
 10
-1.153098
 20
2.650492
  0
VERTEX
  8
PLAN_1
  6
CONTINUOUS
 10
-1.153602
 20
2.646957
  0
VERTEX
  8
PLAN_1
  6
CONTINUOUS
 10
-1.153602
 20
2.643425
  0
VERTEX
  8
PLAN_1
  6
CONTINUOUS
 10
-1.153098
 20
2.639386
  0
VERTEX
  8
PLAN_1
  6
CONTINUOUS
 10
-1.152091
 20
2.634843
  0
VERTEX
  8
PLAN_1
  6
CONTINUOUS
 10
-1.149567
 20
2.630303
  0
VERTEX
  8
PLAN_1
  6
CONTINUOUS
 10
-1.146535
 20
2.625760
  0
VERTEX
  8
PLAN_1
  6
CONTINUOUS
 10
-1.142500
 20
2.621217
  0
SEQEND
  8
0
  0
POLYLINE
  8
PLAN_1
  6
CONTINUOUS
 66
     1
 40
0.008579
 41
0.008579
  0
VERTEX
  8
PLAN_1
  6
CONTINUOUS
 10
-1.142500
 20
2.621217
  0
VERTEX
  8
PLAN_1
  6
CONTINUOUS
 10
-0.858331
 20
2.621217
  0
SEQEND
  8
0
  0
POLYLINE
  8
PLAN_1
  6
CONTINUOUS
 66
     1
 40
0.008579
 41
0.008579
  0
VERTEX
  8
PLAN_1
  6
CONTINUOUS
 10
-0.858835
 20
2.575283
  0
VERTEX
  8
PLAN_1
  6
CONTINUOUS
 10
-0.853787
 20
2.579827
  0
VERTEX
  8
PLAN_1
  6
CONTINUOUS
 10
-0.850252
 20
2.584370
  0
VERTEX
  8
PLAN_1
  6
CONTINUOUS
 10
-0.847728
 20
2.588409
  0
VERTEX
  8
PLAN_1
  6
CONTINUOUS
 10
-0.846720
 20
2.592949
  0
VERTEX
  8
PLAN_1
  6
CONTINUOUS
 10
-0.845709
 20
2.596484
  0
VERTEX
  8
PLAN_1
  6
CONTINUOUS
 10
-0.846217
 20
2.600520
  0
VERTEX
  8
PLAN_1
  6
CONTINUOUS
 10
-0.846720
 20
2.604055
  0
VERTEX
  8
PLAN_1
  6
CONTINUOUS
 10
-0.847728
 20
2.607587
  0
VERTEX
  8
PLAN_1
  6
CONTINUOUS
 10
-0.849244
 20
2.610618
  0
VERTEX
  8
PLAN_1
  6
CONTINUOUS
 10
-0.851264
 20
2.613142
  0
VERTEX
  8
PLAN_1
  6
CONTINUOUS
 10
-0.852776
 20
2.615665
  0
VERTEX
  8
PLAN_1
  6
CONTINUOUS
 10
-0.854795
 20
2.617681
  0
VERTEX
  8
PLAN_1
  6
CONTINUOUS
 10
-0.857319
 20
2.620713
  0
VERTEX
  8
PLAN_1
  6
CONTINUOUS
 10
-0.858835
 20
2.621720
  0
SEQEND
  8
0
  0
POLYLINE
  8
PLAN_1
  6
CONTINUOUS
 66
     1
 40
0.008579
 41
0.008579
  0
VERTEX
  8
PLAN_1
  6
CONTINUOUS
 10
-0.858835
 20
2.621720
  0
VERTEX
  8
PLAN_1
  6
CONTINUOUS
 10
-1.142500
 20
2.621720
  0
SEQEND
  8
0
  0
POLYLINE
  8
PLAN_1
  6
CONTINUOUS
 66
     1
 40
0.008579
 41
0.008579
  0
VERTEX
  8
PLAN_1
  6
CONTINUOUS
 10
-1.142500
 20
2.621720
  0
VERTEX
  8
PLAN_1
  6
CONTINUOUS
 10
-1.144012
 20
2.620713
  0
VERTEX
  8
PLAN_1
  6
CONTINUOUS
 10
-1.146535
 20
2.618189
  0
VERTEX
  8
PLAN_1
  6
CONTINUOUS
 10
-1.149567
 20
2.613646
  0
VERTEX
  8
PLAN_1
  6
CONTINUOUS
 10
-1.152594
 20
2.608094
  0
VERTEX
  8
PLAN_1
  6
CONTINUOUS
 10
-1.153602
 20
2.605063
  0
VERTEX
  8
PLAN_1
  6
CONTINUOUS
 10
-1.154106
 20
2.601531
  0
VERTEX
  8
PLAN_1
  6
CONTINUOUS
 10
-1.154106
 20
2.597492
  0
VERTEX
  8
PLAN_1
  6
CONTINUOUS
 10
-1.153602
 20
2.593457
  0
VERTEX
  8
PLAN_1
  6
CONTINUOUS
 10
-1.152091
 20
2.589417
  0
VERTEX
  8
PLAN_1
  6
CONTINUOUS
 10
-1.150071
 20
2.584874
  0
VERTEX
  8
PLAN_1
  6
CONTINUOUS
 10
-1.147043
 20
2.580331
  0
VERTEX
  8
PLAN_1
  6
CONTINUOUS
 10
-1.142500
 20
2.575283
  0
SEQEND
  8
0
  0
POLYLINE
  8
PLAN_1
  6
CONTINUOUS
 66
     1
 40
0.008579
 41
0.008579
  0
VERTEX
  8
PLAN_1
  6
CONTINUOUS
 10
-1.142500
 20
2.575283
  0
VERTEX
  8
PLAN_1
  6
CONTINUOUS
 10
-0.858835
 20
2.575283
  0
SEQEND
  8
0
  0
POLYLINE
  8
PLAN_1
  6
CONTINUOUS
 66
     1
 40
0.008579
 41
0.008579
  0
VERTEX
  8
PLAN_1
  6
CONTINUOUS
 10
-0.858331
 20
2.529858
  0
VERTEX
  8
PLAN_1
  6
CONTINUOUS
 10
-0.853787
 20
2.533894
  0
VERTEX
  8
PLAN_1
  6
CONTINUOUS
 10
-0.849748
 20
2.538437
  0
VERTEX
  8
PLAN_1
  6
CONTINUOUS
 10
-0.847728
 20
2.542980
  0
VERTEX
  8
PLAN_1
  6
CONTINUOUS
 10
-0.846217
 20
2.547020
  0
VERTEX
  8
PLAN_1
  6
CONTINUOUS
 10
-0.845205
 20
2.551055
  0
VERTEX
  8
PLAN_1
  6
CONTINUOUS
 10
-0.845709
 20
2.554591
  0
VERTEX
  8
PLAN_1
  6
CONTINUOUS
 10
-0.846217
 20
2.558122
  0
VERTEX
  8
PLAN_1
  6
CONTINUOUS
 10
-0.847224
 20
2.561657
  0
VERTEX
  8
PLAN_1
  6
CONTINUOUS
 10
-0.848740
 20
2.564685
  0
VERTEX
  8
PLAN_1
  6
CONTINUOUS
 10
-0.850760
 20
2.567713
  0
VERTEX
  8
PLAN_1
  6
CONTINUOUS
 10
-0.852272
 20
2.569732
  0
VERTEX
  8
PLAN_1
  6
CONTINUOUS
 10
-0.854291
 20
2.571752
  0
VERTEX
  8
PLAN_1
  6
CONTINUOUS
 10
-0.857319
 20
2.574780
  0
VERTEX
  8
PLAN_1
  6
CONTINUOUS
 10
-0.858331
 20
2.575787
  0
SEQEND
  8
0
  0
POLYLINE
  8
PLAN_1
  6
CONTINUOUS
 66
     1
 40
0.008579
 41
0.008579
  0
VERTEX
  8
PLAN_1
  6
CONTINUOUS
 10
-0.858331
 20
2.575787
  0
VERTEX
  8
PLAN_1
  6
CONTINUOUS
 10
-1.142500
 20
2.575787
  0
SEQEND
  8
0
  0
POLYLINE
  8
PLAN_1
  6
CONTINUOUS
 66
     1
 40
0.008579
 41
0.008579
  0
VERTEX
  8
PLAN_1
  6
CONTINUOUS
 10
-1.142500
 20
2.575787
  0
VERTEX
  8
PLAN_1
  6
CONTINUOUS
 10
-1.143508
 20
2.574780
  0
VERTEX
  8
PLAN_1
  6
CONTINUOUS
 10
-1.146031
 20
2.572256
  0
VERTEX
  8
PLAN_1
  6
CONTINUOUS
 10
-1.149059
 20
2.568217
  0
VERTEX
  8
PLAN_1
  6
CONTINUOUS
 10
-1.152091
 20
2.562161
  0
VERTEX
  8
PLAN_1
  6
CONTINUOUS
 10
-1.153098
 20
2.559134
  0
VERTEX
  8
PLAN_1
  6
CONTINUOUS
 10
-1.153602
 20
2.555598
  0
VERTEX
  8
PLAN_1
  6
CONTINUOUS
 10
-1.153602
 20
2.551563
  0
VERTEX
  8
PLAN_1
  6
CONTINUOUS
 10
-1.153098
 20
2.547524
  0
VERTEX
  8
PLAN_1
  6
CONTINUOUS
 10
-1.152091
 20
2.543484
  0
VERTEX
  8
PLAN_1
  6
CONTINUOUS
 10
-1.149567
 20
2.538941
  0
VERTEX
  8
PLAN_1
  6
CONTINUOUS
 10
-1.146535
 20
2.534402
  0
VERTEX
  8
PLAN_1
  6
CONTINUOUS
 10
-1.142500
 20
2.529858
  0
SEQEND
  8
0
  0
POLYLINE
  8
PLAN_1
  6
CONTINUOUS
 66
     1
 40
0.008579
 41
0.008579
  0
VERTEX
  8
PLAN_1
  6
CONTINUOUS
 10
-1.142500
 20
2.529858
  0
VERTEX
  8
PLAN_1
  6
CONTINUOUS
 10
-0.858331
 20
2.529858
  0
SEQEND
  8
0
  0
POLYLINE
  8
PLAN_1
  6
CONTINUOUS
 66
     1
 40
0.008579
 41
0.008579
  0
VERTEX
  8
PLAN_1
  6
CONTINUOUS
 10
-0.858835
 20
2.483925
  0
VERTEX
  8
PLAN_1
  6
CONTINUOUS
 10
-0.853787
 20
2.488469
  0
VERTEX
  8
PLAN_1
  6
CONTINUOUS
 10
-0.850252
 20
2.492508
  0
VERTEX
  8
PLAN_1
  6
CONTINUOUS
 10
-0.847728
 20
2.497047
  0
VERTEX
  8
PLAN_1
  6
CONTINUOUS
 10
-0.846720
 20
2.501087
  0
VERTEX
  8
PLAN_1
  6
CONTINUOUS
 10
-0.845709
 20
2.505126
  0
VERTEX
  8
PLAN_1
  6
CONTINUOUS
 10
-0.846217
 20
2.509161
  0
VERTEX
  8
PLAN_1
  6
CONTINUOUS
 10
-0.846720
 20
2.512697
  0
VERTEX
  8
PLAN_1
  6
CONTINUOUS
 10
-0.847728
 20
2.515724
  0
VERTEX
  8
PLAN_1
  6
CONTINUOUS
 10
-0.849244
 20
2.518752
  0
VERTEX
  8
PLAN_1
  6
CONTINUOUS
 10
-0.851264
 20
2.521783
  0
VERTEX
  8
PLAN_1
  6
CONTINUOUS
 10
-0.852776
 20
2.524307
  0
VERTEX
  8
PLAN_1
  6
CONTINUOUS
 10
-0.854795
 20
2.526323
  0
VERTEX
  8
PLAN_1
  6
CONTINUOUS
 10
-0.857319
 20
2.528846
  0
VERTEX
  8
PLAN_1
  6
CONTINUOUS
 10
-0.858835
 20
2.529858
  0
SEQEND
  8
0
  0
POLYLINE
  8
PLAN_1
  6
CONTINUOUS
 66
     1
 40
0.008579
 41
0.008579
  0
VERTEX
  8
PLAN_1
  6
CONTINUOUS
 10
-0.858835
 20
2.529858
  0
VERTEX
  8
PLAN_1
  6
CONTINUOUS
 10
-1.142500
 20
2.529858
  0
SEQEND
  8
0
  0
POLYLINE
  8
PLAN_1
  6
CONTINUOUS
 66
     1
 40
0.008579
 41
0.008579
  0
VERTEX
  8
PLAN_1
  6
CONTINUOUS
 10
-1.142500
 20
2.529858
  0
VERTEX
  8
PLAN_1
  6
CONTINUOUS
 10
-1.144012
 20
2.529354
  0
VERTEX
  8
PLAN_1
  6
CONTINUOUS
 10
-1.146535
 20
2.526323
  0
VERTEX
  8
PLAN_1
  6
CONTINUOUS
 10
-1.149567
 20
2.522287
  0
VERTEX
  8
PLAN_1
  6
CONTINUOUS
 10
-1.152594
 20
2.516732
  0
VERTEX
  8
PLAN_1
  6
CONTINUOUS
 10
-1.153602
 20
2.513201
  0
VERTEX
  8
PLAN_1
  6
CONTINUOUS
 10
-1.154106
 20
2.509669
  0
VERTEX
  8
PLAN_1
  6
CONTINUOUS
 10
-1.154106
 20
2.506134
  0
VERTEX
  8
PLAN_1
  6
CONTINUOUS
 10
-1.153602
 20
2.502098
  0
VERTEX
  8
PLAN_1
  6
CONTINUOUS
 10
-1.152091
 20
2.497555
  0
VERTEX
  8
PLAN_1
  6
CONTINUOUS
 10
-1.150071
 20
2.493012
  0
VERTEX
  8
PLAN_1
  6
CONTINUOUS
 10
-1.147043
 20
2.488469
  0
VERTEX
  8
PLAN_1
  6
CONTINUOUS
 10
-1.142500
 20
2.483925
  0
SEQEND
  8
0
  0
POLYLINE
  8
PLAN_1
  6
CONTINUOUS
 66
     1
 40
0.008579
 41
0.008579
  0
VERTEX
  8
PLAN_1
  6
CONTINUOUS
 10
-1.142500
 20
2.483925
  0
VERTEX
  8
PLAN_1
  6
CONTINUOUS
 10
-0.858835
 20
2.483925
  0
SEQEND
  8
0
  0
POLYLINE
  8
PLAN_1
  6
CONTINUOUS
 66
     1
 40
0.008579
 41
0.008579
  0
VERTEX
  8
PLAN_1
  6
CONTINUOUS
 10
-0.858331
 20
2.437996
  0
VERTEX
  8
PLAN_1
  6
CONTINUOUS
 10
-0.853787
 20
2.442535
  0
VERTEX
  8
PLAN_1
  6
CONTINUOUS
 10
-0.849748
 20
2.447079
  0
VERTEX
  8
PLAN_1
  6
CONTINUOUS
 10
-0.847728
 20
2.451118
  0
VERTEX
  8
PLAN_1
  6
CONTINUOUS
 10
-0.846217
 20
2.455661
  0
VERTEX
  8
PLAN_1
  6
CONTINUOUS
 10
-0.845205
 20
2.459193
  0
VERTEX
  8
PLAN_1
  6
CONTINUOUS
 10
-0.845709
 20
2.463232
  0
VERTEX
  8
PLAN_1
  6
CONTINUOUS
 10
-0.846217
 20
2.466764
  0
VERTEX
  8
PLAN_1
  6
CONTINUOUS
 10
-0.847224
 20
2.470299
  0
VERTEX
  8
PLAN_1
  6
CONTINUOUS
 10
-0.848740
 20
2.473327
  0
VERTEX
  8
PLAN_1
  6
CONTINUOUS
 10
-0.850760
 20
2.475850
  0
VERTEX
  8
PLAN_1
  6
CONTINUOUS
 10
-0.852272
 20
2.478374
  0
VERTEX
  8
PLAN_1
  6
CONTINUOUS
 10
-0.854291
 20
2.480394
  0
VERTEX
  8
PLAN_1
  6
CONTINUOUS
 10
-0.857319
 20
2.483421
  0
VERTEX
  8
PLAN_1
  6
CONTINUOUS
 10
-0.858331
 20
2.484429
  0
SEQEND
  8
0
  0
POLYLINE
  8
PLAN_1
  6
CONTINUOUS
 66
     1
 40
0.008579
 41
0.008579
  0
VERTEX
  8
PLAN_1
  6
CONTINUOUS
 10
-0.858331
 20
2.484429
  0
VERTEX
  8
PLAN_1
  6
CONTINUOUS
 10
-1.142500
 20
2.484429
  0
SEQEND
  8
0
  0
POLYLINE
  8
PLAN_1
  6
CONTINUOUS
 66
     1
 40
0.008579
 41
0.008579
  0
VERTEX
  8
PLAN_1
  6
CONTINUOUS
 10
-1.142500
 20
2.484429
  0
VERTEX
  8
PLAN_1
  6
CONTINUOUS
 10
-1.143508
 20
2.483421
  0
VERTEX
  8
PLAN_1
  6
CONTINUOUS
 10
-1.146031
 20
2.480898
  0
VERTEX
  8
PLAN_1
  6
CONTINUOUS
 10
-1.149059
 20
2.476354
  0
VERTEX
  8
PLAN_1
  6
CONTINUOUS
 10
-1.152091
 20
2.470803
  0
VERTEX
  8
PLAN_1
  6
CONTINUOUS
 10
-1.153098
 20
2.467776
  0
VERTEX
  8
PLAN_1
  6
CONTINUOUS
 10
-1.153602
 20
2.464240
  0
VERTEX
  8
PLAN_1
  6
CONTINUOUS
 10
-1.153602
 20
2.460205
  0
VERTEX
  8
PLAN_1
  6
CONTINUOUS
 10
-1.153098
 20
2.456165
  0
VERTEX
  8
PLAN_1
  6
CONTINUOUS
 10
-1.152091
 20
2.452126
  0
VERTEX
  8
PLAN_1
  6
CONTINUOUS
 10
-1.149567
 20
2.447583
  0
VERTEX
  8
PLAN_1
  6
CONTINUOUS
 10
-1.146535
 20
2.443043
  0
VERTEX
  8
PLAN_1
  6
CONTINUOUS
 10
-1.142500
 20
2.437996
  0
SEQEND
  8
0
  0
POLYLINE
  8
PLAN_1
  6
CONTINUOUS
 66
     1
 40
0.008579
 41
0.008579
  0
VERTEX
  8
PLAN_1
  6
CONTINUOUS
 10
-1.142500
 20
2.437996
  0
VERTEX
  8
PLAN_1
  6
CONTINUOUS
 10
-0.858331
 20
2.437996
  0
SEQEND
  8
0
  0
POLYLINE
  8
PLAN_1
  6
CONTINUOUS
 66
     1
 40
0.008579
 41
0.008579
  0
VERTEX
  8
PLAN_1
  6
CONTINUOUS
 10
-0.858835
 20
2.392567
  0
VERTEX
  8
PLAN_1
  6
CONTINUOUS
 10
-0.853787
 20
2.396606
  0
VERTEX
  8
PLAN_1
  6
CONTINUOUS
 10
-0.850252
 20
2.401150
  0
VERTEX
  8
PLAN_1
  6
CONTINUOUS
 10
-0.847728
 20
2.405689
  0
VERTEX
  8
PLAN_1
  6
CONTINUOUS
 10
-0.846720
 20
2.409728
  0
VERTEX
  8
PLAN_1
  6
CONTINUOUS
 10
-0.845709
 20
2.413768
  0
VERTEX
  8
PLAN_1
  6
CONTINUOUS
 10
-0.846217
 20
2.417299
  0
VERTEX
  8
PLAN_1
  6
CONTINUOUS
 10
-0.846720
 20
2.420835
  0
VERTEX
  8
PLAN_1
  6
CONTINUOUS
 10
-0.847728
 20
2.424366
  0
VERTEX
  8
PLAN_1
  6
CONTINUOUS
 10
-0.849244
 20
2.427394
  0
VERTEX
  8
PLAN_1
  6
CONTINUOUS
 10
-0.851264
 20
2.430421
  0
VERTEX
  8
PLAN_1
  6
CONTINUOUS
 10
-0.852776
 20
2.432441
  0
VERTEX
  8
PLAN_1
  6
CONTINUOUS
 10
-0.854795
 20
2.434461
  0
VERTEX
  8
PLAN_1
  6
CONTINUOUS
 10
-0.857319
 20
2.437488
  0
VERTEX
  8
PLAN_1
  6
CONTINUOUS
 10
-0.858835
 20
2.438500
  0
SEQEND
  8
0
  0
POLYLINE
  8
PLAN_1
  6
CONTINUOUS
 66
     1
 40
0.008579
 41
0.008579
  0
VERTEX
  8
PLAN_1
  6
CONTINUOUS
 10
-0.858835
 20
2.438500
  0
VERTEX
  8
PLAN_1
  6
CONTINUOUS
 10
-1.142500
 20
2.438500
  0
SEQEND
  8
0
  0
POLYLINE
  8
PLAN_1
  6
CONTINUOUS
 66
     1
 40
0.008579
 41
0.008579
  0
VERTEX
  8
PLAN_1
  6
CONTINUOUS
 10
-1.142500
 20
2.438500
  0
VERTEX
  8
PLAN_1
  6
CONTINUOUS
 10
-1.144012
 20
2.437488
  0
VERTEX
  8
PLAN_1
  6
CONTINUOUS
 10
-1.146535
 20
2.434965
  0
VERTEX
  8
PLAN_1
  6
CONTINUOUS
 10
-1.149567
 20
2.430929
  0
VERTEX
  8
PLAN_1
  6
CONTINUOUS
 10
-1.152594
 20
2.424870
  0
VERTEX
  8
PLAN_1
  6
CONTINUOUS
 10
-1.153602
 20
2.421843
  0
VERTEX
  8
PLAN_1
  6
CONTINUOUS
 10
-1.154106
 20
2.418311
  0
VERTEX
  8
PLAN_1
  6
CONTINUOUS
 10
-1.154106
 20
2.414272
  0
VERTEX
  8
PLAN_1
  6
CONTINUOUS
 10
-1.153602
 20
2.410232
  0
VERTEX
  8
PLAN_1
  6
CONTINUOUS
 10
-1.152091
 20
2.406197
  0
VERTEX
  8
PLAN_1
  6
CONTINUOUS
 10
-1.150071
 20
2.401654
  0
VERTEX
  8
PLAN_1
  6
CONTINUOUS
 10
-1.147043
 20
2.397110
  0
VERTEX
  8
PLAN_1
  6
CONTINUOUS
 10
-1.142500
 20
2.392567
  0
SEQEND
  8
0
  0
POLYLINE
  8
PLAN_1
  6
CONTINUOUS
 66
     1
 40
0.008579
 41
0.008579
  0
VERTEX
  8
PLAN_1
  6
CONTINUOUS
 10
-1.142500
 20
2.392567
  0
VERTEX
  8
PLAN_1
  6
CONTINUOUS
 10
-0.858835
 20
2.392567
  0
SEQEND
  8
0
  0
POLYLINE
  8
PLAN_1
  6
CONTINUOUS
 66
     1
 40
0.008579
 41
0.008579
  0
VERTEX
  8
PLAN_1
  6
CONTINUOUS
 10
-0.858331
 20
2.346638
  0
VERTEX
  8
PLAN_1
  6
CONTINUOUS
 10
-0.853787
 20
2.351177
  0
VERTEX
  8
PLAN_1
  6
CONTINUOUS
 10
-0.849748
 20
2.355217
  0
VERTEX
  8
PLAN_1
  6
CONTINUOUS
 10
-0.847728
 20
2.359760
  0
VERTEX
  8
PLAN_1
  6
CONTINUOUS
 10
-0.846217
 20
2.363795
  0
VERTEX
  8
PLAN_1
  6
CONTINUOUS
 10
-0.845205
 20
2.367835
  0
VERTEX
  8
PLAN_1
  6
CONTINUOUS
 10
-0.845709
 20
2.371874
  0
VERTEX
  8
PLAN_1
  6
CONTINUOUS
 10
-0.846217
 20
2.375406
  0
VERTEX
  8
PLAN_1
  6
CONTINUOUS
 10
-0.847224
 20
2.378433
  0
VERTEX
  8
PLAN_1
  6
CONTINUOUS
 10
-0.848740
 20
2.381465
  0
VERTEX
  8
PLAN_1
  6
CONTINUOUS
 10
-0.850760
 20
2.384492
  0
VERTEX
  8
PLAN_1
  6
CONTINUOUS
 10
-0.852272
 20
2.387016
  0
VERTEX
  8
PLAN_1
  6
CONTINUOUS
 10
-0.854291
 20
2.389035
  0
VERTEX
  8
PLAN_1
  6
CONTINUOUS
 10
-0.857319
 20
2.391559
  0
VERTEX
  8
PLAN_1
  6
CONTINUOUS
 10
-0.858331
 20
2.392567
  0
SEQEND
  8
0
  0
POLYLINE
  8
PLAN_1
  6
CONTINUOUS
 66
     1
 40
0.008579
 41
0.008579
  0
VERTEX
  8
PLAN_1
  6
CONTINUOUS
 10
-0.858331
 20
2.392567
  0
VERTEX
  8
PLAN_1
  6
CONTINUOUS
 10
-1.142500
 20
2.392567
  0
SEQEND
  8
0
  0
POLYLINE
  8
PLAN_1
  6
CONTINUOUS
 66
     1
 40
0.008579
 41
0.008579
  0
VERTEX
  8
PLAN_1
  6
CONTINUOUS
 10
-1.142500
 20
2.392567
  0
VERTEX
  8
PLAN_1
  6
CONTINUOUS
 10
-1.143508
 20
2.392063
  0
VERTEX
  8
PLAN_1
  6
CONTINUOUS
 10
-1.146031
 20
2.389035
  0
VERTEX
  8
PLAN_1
  6
CONTINUOUS
 10
-1.149059
 20
2.384996
  0
VERTEX
  8
PLAN_1
  6
CONTINUOUS
 10
-1.152091
 20
2.379445
  0
VERTEX
  8
PLAN_1
  6
CONTINUOUS
 10
-1.153098
 20
2.375909
  0
VERTEX
  8
PLAN_1
  6
CONTINUOUS
 10
-1.153602
 20
2.372378
  0
VERTEX
  8
PLAN_1
  6
CONTINUOUS
 10
-1.153602
 20
2.368846
  0
VERTEX
  8
PLAN_1
  6
CONTINUOUS
 10
-1.153098
 20
2.364807
  0
VERTEX
  8
PLAN_1
  6
CONTINUOUS
 10
-1.152091
 20
2.360264
  0
VERTEX
  8
PLAN_1
  6
CONTINUOUS
 10
-1.149567
 20
2.355720
  0
VERTEX
  8
PLAN_1
  6
CONTINUOUS
 10
-1.146535
 20
2.351177
  0
VERTEX
  8
PLAN_1
  6
CONTINUOUS
 10
-1.142500
 20
2.346638
  0
SEQEND
  8
0
  0
POLYLINE
  8
PLAN_1
  6
CONTINUOUS
 66
     1
 40
0.008579
 41
0.008579
  0
VERTEX
  8
PLAN_1
  6
CONTINUOUS
 10
-1.142500
 20
2.346638
  0
VERTEX
  8
PLAN_1
  6
CONTINUOUS
 10
-0.858331
 20
2.346638
  0
SEQEND
  8
0
  0
POLYLINE
  8
PLAN_1
  6
CONTINUOUS
 66
     1
 40
0.008579
 41
0.008579
  0
VERTEX
  8
PLAN_1
  6
CONTINUOUS
 10
-0.858835
 20
2.300705
  0
VERTEX
  8
PLAN_1
  6
CONTINUOUS
 10
-0.853787
 20
2.305248
  0
VERTEX
  8
PLAN_1
  6
CONTINUOUS
 10
-0.850252
 20
2.309791
  0
VERTEX
  8
PLAN_1
  6
CONTINUOUS
 10
-0.847728
 20
2.313827
  0
VERTEX
  8
PLAN_1
  6
CONTINUOUS
 10
-0.846720
 20
2.318370
  0
VERTEX
  8
PLAN_1
  6
CONTINUOUS
 10
-0.845709
 20
2.321902
  0
VERTEX
  8
PLAN_1
  6
CONTINUOUS
 10
-0.846217
 20
2.325941
  0
VERTEX
  8
PLAN_1
  6
CONTINUOUS
 10
-0.846720
 20
2.329476
  0
VERTEX
  8
PLAN_1
  6
CONTINUOUS
 10
-0.847728
 20
2.333008
  0
VERTEX
  8
PLAN_1
  6
CONTINUOUS
 10
-0.849244
 20
2.336035
  0
VERTEX
  8
PLAN_1
  6
CONTINUOUS
 10
-0.851264
 20
2.338559
  0
VERTEX
  8
PLAN_1
  6
CONTINUOUS
 10
-0.852776
 20
2.341083
  0
VERTEX
  8
PLAN_1
  6
CONTINUOUS
 10
-0.854795
 20
2.343102
  0
VERTEX
  8
PLAN_1
  6
CONTINUOUS
 10
-0.857319
 20
2.346130
  0
VERTEX
  8
PLAN_1
  6
CONTINUOUS
 10
-0.858835
 20
2.347142
  0
SEQEND
  8
0
  0
POLYLINE
  8
PLAN_1
  6
CONTINUOUS
 66
     1
 40
0.008579
 41
0.008579
  0
VERTEX
  8
PLAN_1
  6
CONTINUOUS
 10
-0.858835
 20
2.347142
  0
VERTEX
  8
PLAN_1
  6
CONTINUOUS
 10
-1.142500
 20
2.347142
  0
SEQEND
  8
0
  0
POLYLINE
  8
PLAN_1
  6
CONTINUOUS
 66
     1
 40
0.008579
 41
0.008579
  0
VERTEX
  8
PLAN_1
  6
CONTINUOUS
 10
-1.142500
 20
2.347142
  0
VERTEX
  8
PLAN_1
  6
CONTINUOUS
 10
-1.144012
 20
2.346130
  0
VERTEX
  8
PLAN_1
  6
CONTINUOUS
 10
-1.146535
 20
2.343606
  0
VERTEX
  8
PLAN_1
  6
CONTINUOUS
 10
-1.149567
 20
2.339063
  0
VERTEX
  8
PLAN_1
  6
CONTINUOUS
 10
-1.152594
 20
2.333512
  0
VERTEX
  8
PLAN_1
  6
CONTINUOUS
 10
-1.153602
 20
2.330484
  0
VERTEX
  8
PLAN_1
  6
CONTINUOUS
 10
-1.154106
 20
2.326953
  0
VERTEX
  8
PLAN_1
  6
CONTINUOUS
 10
-1.154106
 20
2.322913
  0
VERTEX
  8
PLAN_1
  6
CONTINUOUS
 10
-1.153602
 20
2.318874
  0
VERTEX
  8
PLAN_1
  6
CONTINUOUS
 10
-1.152091
 20
2.314839
  0
VERTEX
  8
PLAN_1
  6
CONTINUOUS
 10
-1.150071
 20
2.310295
  0
VERTEX
  8
PLAN_1
  6
CONTINUOUS
 10
-1.147043
 20
2.305752
  0
VERTEX
  8
PLAN_1
  6
CONTINUOUS
 10
-1.142500
 20
2.300705
  0
SEQEND
  8
0
  0
POLYLINE
  8
PLAN_1
  6
CONTINUOUS
 66
     1
 40
0.008579
 41
0.008579
  0
VERTEX
  8
PLAN_1
  6
CONTINUOUS
 10
-1.142500
 20
2.300705
  0
VERTEX
  8
PLAN_1
  6
CONTINUOUS
 10
-0.858835
 20
2.300705
  0
SEQEND
  8
0
  0
POLYLINE
  8
PLAN_1
  6
CONTINUOUS
 66
     1
 40
0.008579
 41
0.008579
  0
VERTEX
  8
PLAN_1
  6
CONTINUOUS
 10
-0.858331
 20
2.255276
  0
VERTEX
  8
PLAN_1
  6
CONTINUOUS
 10
-0.853787
 20
2.259315
  0
VERTEX
  8
PLAN_1
  6
CONTINUOUS
 10
-0.849748
 20
2.263858
  0
VERTEX
  8
PLAN_1
  6
CONTINUOUS
 10
-0.847728
 20
2.268402
  0
VERTEX
  8
PLAN_1
  6
CONTINUOUS
 10
-0.846217
 20
2.272437
  0
VERTEX
  8
PLAN_1
  6
CONTINUOUS
 10
-0.845205
 20
2.276476
  0
VERTEX
  8
PLAN_1
  6
CONTINUOUS
 10
-0.845709
 20
2.280012
  0
VERTEX
  8
PLAN_1
  6
CONTINUOUS
 10
-0.846217
 20
2.283543
  0
VERTEX
  8
PLAN_1
  6
CONTINUOUS
 10
-0.847224
 20
2.287075
  0
VERTEX
  8
PLAN_1
  6
CONTINUOUS
 10
-0.848740
 20
2.290106
  0
VERTEX
  8
PLAN_1
  6
CONTINUOUS
 10
-0.850760
 20
2.293134
  0
VERTEX
  8
PLAN_1
  6
CONTINUOUS
 10
-0.852272
 20
2.295154
  0
VERTEX
  8
PLAN_1
  6
CONTINUOUS
 10
-0.854291
 20
2.297169
  0
VERTEX
  8
PLAN_1
  6
CONTINUOUS
 10
-0.857319
 20
2.300201
  0
VERTEX
  8
PLAN_1
  6
CONTINUOUS
 10
-0.858331
 20
2.301209
  0
SEQEND
  8
0
  0
POLYLINE
  8
PLAN_1
  6
CONTINUOUS
 66
     1
 40
0.008579
 41
0.008579
  0
VERTEX
  8
PLAN_1
  6
CONTINUOUS
 10
-0.858331
 20
2.301209
  0
VERTEX
  8
PLAN_1
  6
CONTINUOUS
 10
-1.142500
 20
2.301209
  0
SEQEND
  8
0
  0
POLYLINE
  8
PLAN_1
  6
CONTINUOUS
 66
     1
 40
0.008579
 41
0.008579
  0
VERTEX
  8
PLAN_1
  6
CONTINUOUS
 10
-1.142500
 20
2.301209
  0
VERTEX
  8
PLAN_1
  6
CONTINUOUS
 10
-1.143508
 20
2.300201
  0
VERTEX
  8
PLAN_1
  6
CONTINUOUS
 10
-1.146031
 20
2.297677
  0
VERTEX
  8
PLAN_1
  6
CONTINUOUS
 10
-1.149059
 20
2.293638
  0
VERTEX
  8
PLAN_1
  6
CONTINUOUS
 10
-1.152091
 20
2.287583
  0
VERTEX
  8
PLAN_1
  6
CONTINUOUS
 10
-1.153098
 20
2.284551
  0
VERTEX
  8
PLAN_1
  6
CONTINUOUS
 10
-1.153602
 20
2.281020
  0
VERTEX
  8
PLAN_1
  6
CONTINUOUS
 10
-1.153602
 20
2.276980
  0
VERTEX
  8
PLAN_1
  6
CONTINUOUS
 10
-1.153098
 20
2.272945
  0
VERTEX
  8
PLAN_1
  6
CONTINUOUS
 10
-1.152091
 20
2.268906
  0
VERTEX
  8
PLAN_1
  6
CONTINUOUS
 10
-1.149567
 20
2.264362
  0
VERTEX
  8
PLAN_1
  6
CONTINUOUS
 10
-1.146535
 20
2.259819
  0
VERTEX
  8
PLAN_1
  6
CONTINUOUS
 10
-1.142500
 20
2.255276
  0
SEQEND
  8
0
  0
POLYLINE
  8
PLAN_1
  6
CONTINUOUS
 66
     1
 40
0.008579
 41
0.008579
  0
VERTEX
  8
PLAN_1
  6
CONTINUOUS
 10
-1.142500
 20
2.255276
  0
VERTEX
  8
PLAN_1
  6
CONTINUOUS
 10
-0.858331
 20
2.255276
  0
SEQEND
  8
0
  0
POLYLINE
  8
PLAN_1
  6
CONTINUOUS
 66
     1
 40
0.008579
 41
0.008579
  0
VERTEX
  8
PLAN_1
  6
CONTINUOUS
 10
-0.858835
 20
2.209346
  0
VERTEX
  8
PLAN_1
  6
CONTINUOUS
 10
-0.853787
 20
2.213890
  0
VERTEX
  8
PLAN_1
  6
CONTINUOUS
 10
-0.850252
 20
2.217925
  0
VERTEX
  8
PLAN_1
  6
CONTINUOUS
 10
-0.847728
 20
2.222469
  0
VERTEX
  8
PLAN_1
  6
CONTINUOUS
 10
-0.846720
 20
2.226508
  0
VERTEX
  8
PLAN_1
  6
CONTINUOUS
 10
-0.845709
 20
2.230543
  0
VERTEX
  8
PLAN_1
  6
CONTINUOUS
 10
-0.846217
 20
2.234583
  0
VERTEX
  8
PLAN_1
  6
CONTINUOUS
 10
-0.846720
 20
2.238118
  0
VERTEX
  8
PLAN_1
  6
CONTINUOUS
 10
-0.847728
 20
2.241146
  0
VERTEX
  8
PLAN_1
  6
CONTINUOUS
 10
-0.849244
 20
2.244173
  0
VERTEX
  8
PLAN_1
  6
CONTINUOUS
 10
-0.851264
 20
2.247201
  0
VERTEX
  8
PLAN_1
  6
CONTINUOUS
 10
-0.852776
 20
2.249724
  0
VERTEX
  8
PLAN_1
  6
CONTINUOUS
 10
-0.854795
 20
2.251744
  0
VERTEX
  8
PLAN_1
  6
CONTINUOUS
 10
-0.857319
 20
2.254268
  0
VERTEX
  8
PLAN_1
  6
CONTINUOUS
 10
-0.858835
 20
2.255276
  0
SEQEND
  8
0
  0
POLYLINE
  8
PLAN_1
  6
CONTINUOUS
 66
     1
 40
0.008579
 41
0.008579
  0
VERTEX
  8
PLAN_1
  6
CONTINUOUS
 10
-0.858835
 20
2.255276
  0
VERTEX
  8
PLAN_1
  6
CONTINUOUS
 10
-1.142500
 20
2.255276
  0
SEQEND
  8
0
  0
POLYLINE
  8
PLAN_1
  6
CONTINUOUS
 66
     1
 40
0.008579
 41
0.008579
  0
VERTEX
  8
PLAN_1
  6
CONTINUOUS
 10
-1.142500
 20
2.255276
  0
VERTEX
  8
PLAN_1
  6
CONTINUOUS
 10
-1.144012
 20
2.254772
  0
VERTEX
  8
PLAN_1
  6
CONTINUOUS
 10
-1.146535
 20
2.251744
  0
VERTEX
  8
PLAN_1
  6
CONTINUOUS
 10
-1.149567
 20
2.247705
  0
VERTEX
  8
PLAN_1
  6
CONTINUOUS
 10
-1.152594
 20
2.242154
  0
VERTEX
  8
PLAN_1
  6
CONTINUOUS
 10
-1.153602
 20
2.238622
  0
VERTEX
  8
PLAN_1
  6
CONTINUOUS
 10
-1.154106
 20
2.235087
  0
VERTEX
  8
PLAN_1
  6
CONTINUOUS
 10
-1.154106
 20
2.231555
  0
VERTEX
  8
PLAN_1
  6
CONTINUOUS
 10
-1.153602
 20
2.227516
  0
VERTEX
  8
PLAN_1
  6
CONTINUOUS
 10
-1.152091
 20
2.222972
  0
VERTEX
  8
PLAN_1
  6
CONTINUOUS
 10
-1.150071
 20
2.218433
  0
VERTEX
  8
PLAN_1
  6
CONTINUOUS
 10
-1.147043
 20
2.213890
  0
VERTEX
  8
PLAN_1
  6
CONTINUOUS
 10
-1.142500
 20
2.209346
  0
SEQEND
  8
0
  0
POLYLINE
  8
PLAN_1
  6
CONTINUOUS
 66
     1
 40
0.008579
 41
0.008579
  0
VERTEX
  8
PLAN_1
  6
CONTINUOUS
 10
-1.142500
 20
2.209346
  0
VERTEX
  8
PLAN_1
  6
CONTINUOUS
 10
-0.858835
 20
2.209346
  0
SEQEND
  8
0
  0
POLYLINE
  8
PLAN_1
  6
CONTINUOUS
 66
     1
 40
0.008579
 41
0.008579
  0
VERTEX
  8
PLAN_1
  6
CONTINUOUS
 10
-0.858331
 20
2.163413
  0
VERTEX
  8
PLAN_1
  6
CONTINUOUS
 10
-0.853787
 20
2.167957
  0
VERTEX
  8
PLAN_1
  6
CONTINUOUS
 10
-0.849748
 20
2.172500
  0
VERTEX
  8
PLAN_1
  6
CONTINUOUS
 10
-0.847728
 20
2.176539
  0
VERTEX
  8
PLAN_1
  6
CONTINUOUS
 10
-0.846217
 20
2.181079
  0
VERTEX
  8
PLAN_1
  6
CONTINUOUS
 10
-0.845205
 20
2.184614
  0
VERTEX
  8
PLAN_1
  6
CONTINUOUS
 10
-0.845709
 20
2.188650
  0
VERTEX
  8
PLAN_1
  6
CONTINUOUS
 10
-0.846217
 20
2.192185
  0
VERTEX
  8
PLAN_1
  6
CONTINUOUS
 10
-0.847224
 20
2.195717
  0
VERTEX
  8
PLAN_1
  6
CONTINUOUS
 10
-0.848740
 20
2.198748
  0
VERTEX
  8
PLAN_1
  6
CONTINUOUS
 10
-0.850760
 20
2.201272
  0
VERTEX
  8
PLAN_1
  6
CONTINUOUS
 10
-0.852272
 20
2.203795
  0
VERTEX
  8
PLAN_1
  6
CONTINUOUS
 10
-0.854291
 20
2.205811
  0
VERTEX
  8
PLAN_1
  6
CONTINUOUS
 10
-0.857319
 20
2.208843
  0
VERTEX
  8
PLAN_1
  6
CONTINUOUS
 10
-0.858331
 20
2.209850
  0
SEQEND
  8
0
  0
POLYLINE
  8
PLAN_1
  6
CONTINUOUS
 66
     1
 40
0.008579
 41
0.008579
  0
VERTEX
  8
PLAN_1
  6
CONTINUOUS
 10
-0.858331
 20
2.209850
  0
VERTEX
  8
PLAN_1
  6
CONTINUOUS
 10
-1.142500
 20
2.209850
  0
SEQEND
  8
0
  0
POLYLINE
  8
PLAN_1
  6
CONTINUOUS
 66
     1
 40
0.008579
 41
0.008579
  0
VERTEX
  8
PLAN_1
  6
CONTINUOUS
 10
-1.142500
 20
2.209850
  0
VERTEX
  8
PLAN_1
  6
CONTINUOUS
 10
-1.143508
 20
2.208843
  0
VERTEX
  8
PLAN_1
  6
CONTINUOUS
 10
-1.146031
 20
2.206319
  0
VERTEX
  8
PLAN_1
  6
CONTINUOUS
 10
-1.149059
 20
2.201776
  0
VERTEX
  8
PLAN_1
  6
CONTINUOUS
 10
-1.152091
 20
2.196224
  0
VERTEX
  8
PLAN_1
  6
CONTINUOUS
 10
-1.153098
 20
2.193193
  0
VERTEX
  8
PLAN_1
  6
CONTINUOUS
 10
-1.153602
 20
2.189661
  0
VERTEX
  8
PLAN_1
  6
CONTINUOUS
 10
-1.153602
 20
2.185622
  0
VERTEX
  8
PLAN_1
  6
CONTINUOUS
 10
-1.153098
 20
2.181587
  0
VERTEX
  8
PLAN_1
  6
CONTINUOUS
 10
-1.152091
 20
2.177547
  0
VERTEX
  8
PLAN_1
  6
CONTINUOUS
 10
-1.149567
 20
2.173004
  0
VERTEX
  8
PLAN_1
  6
CONTINUOUS
 10
-1.146535
 20
2.168461
  0
VERTEX
  8
PLAN_1
  6
CONTINUOUS
 10
-1.142500
 20
2.163413
  0
SEQEND
  8
0
  0
POLYLINE
  8
PLAN_1
  6
CONTINUOUS
 66
     1
 40
0.008579
 41
0.008579
  0
VERTEX
  8
PLAN_1
  6
CONTINUOUS
 10
-1.142500
 20
2.163413
  0
VERTEX
  8
PLAN_1
  6
CONTINUOUS
 10
-0.858331
 20
2.163413
  0
SEQEND
  8
0
  0
POLYLINE
  8
PLAN_1
  6
CONTINUOUS
 66
     1
 40
0.008579
 41
0.008579
  0
VERTEX
  8
PLAN_1
  6
CONTINUOUS
 10
-1.122311
 20
3.543382
  0
VERTEX
  8
PLAN_1
  6
CONTINUOUS
 10
-1.122311
 20
3.780106
  0
VERTEX
  8
PLAN_1
  6
CONTINUOUS
 10
-1.074862
 20
3.780106
  0
VERTEX
  8
PLAN_1
  6
CONTINUOUS
 10
-1.074862
 20
3.569626
  0
SEQEND
  8
0
  0
POLYLINE
  8
PLAN_1
  6
CONTINUOUS
 66
     1
 40
0.008579
 41
0.008579
  0
VERTEX
  8
PLAN_1
  6
CONTINUOUS
 10
-1.075370
 20
3.341484
  0
VERTEX
  8
PLAN_1
  6
CONTINUOUS
 10
-1.075874
 20
2.897815
  0
SEQEND
  8
0
  0
POLYLINE
  8
PLAN_1
  6
CONTINUOUS
 66
     1
 40
0.008579
 41
0.008579
  0
VERTEX
  8
PLAN_1
  6
CONTINUOUS
 10
-1.075874
 20
2.897815
  0
VERTEX
  8
PLAN_1
  6
CONTINUOUS
 10
-1.074862
 20
2.895291
  0
VERTEX
  8
PLAN_1
  6
CONTINUOUS
 10
-1.072846
 20
2.889740
  0
VERTEX
  8
PLAN_1
  6
CONTINUOUS
 10
-1.069815
 20
2.882169
  0
VERTEX
  8
PLAN_1
  6
CONTINUOUS
 10
-1.066283
 20
2.873083
  0
VERTEX
  8
PLAN_1
  6
CONTINUOUS
 10
-1.063256
 20
2.863996
  0
VERTEX
  8
PLAN_1
  6
CONTINUOUS
 10
-1.060224
 20
2.855921
  0
VERTEX
  8
PLAN_1
  6
CONTINUOUS
 10
-1.058209
 20
2.850370
  0
VERTEX
  8
PLAN_1
  6
CONTINUOUS
 10
-1.057701
 20
2.848350
  0
SEQEND
  8
0
  0
POLYLINE
  8
PLAN_1
  6
CONTINUOUS
 66
     1
 40
0.008579
 41
0.008579
  0
VERTEX
  8
PLAN_1
  6
CONTINUOUS
 10
-1.057701
 20
2.848350
  0
VERTEX
  8
PLAN_1
  6
CONTINUOUS
 10
-0.972402
 20
2.805449
  0
VERTEX
  8
PLAN_1
  6
CONTINUOUS
 10
-1.042055
 20
2.805449
  0
SEQEND
  8
0
  0
POLYLINE
  8
PLAN_1
  6
CONTINUOUS
 66
     1
 40
0.008579
 41
0.008579
  0
VERTEX
  8
PLAN_1
  6
CONTINUOUS
 10
-1.042055
 20
2.805449
  0
VERTEX
  8
PLAN_1
  6
CONTINUOUS
 10
-1.049122
 20
2.805449
  0
VERTEX
  8
PLAN_1
  6
CONTINUOUS
 10
-1.055685
 20
2.805953
  0
VERTEX
  8
PLAN_1
  6
CONTINUOUS
 10
-1.061740
 20
2.806457
  0
VERTEX
  8
PLAN_1
  6
CONTINUOUS
 10
-1.067291
 20
2.807465
  0
VERTEX
  8
PLAN_1
  6
CONTINUOUS
 10
-1.072846
 20
2.808476
  0
VERTEX
  8
PLAN_1
  6
CONTINUOUS
 10
-1.077894
 20
2.809988
  0
VERTEX
  8
PLAN_1
  6
CONTINUOUS
 10
-1.082433
 20
2.811504
  0
VERTEX
  8
PLAN_1
  6
CONTINUOUS
 10
-1.086976
 20
2.813020
  0
VERTEX
  8
PLAN_1
  6
CONTINUOUS
 10
-1.094547
 20
2.817055
  0
VERTEX
  8
PLAN_1
  6
CONTINUOUS
 10
-1.101110
 20
2.821094
  0
VERTEX
  8
PLAN_1
  6
CONTINUOUS
 10
-1.106661
 20
2.825638
  0
VERTEX
  8
PLAN_1
  6
CONTINUOUS
 10
-1.110701
 20
2.830181
  0
VERTEX
  8
PLAN_1
  6
CONTINUOUS
 10
-1.114232
 20
2.835228
  0
VERTEX
  8
PLAN_1
  6
CONTINUOUS
 10
-1.117264
 20
2.839768
  0
VERTEX
  8
PLAN_1
  6
CONTINUOUS
 10
-1.119280
 20
2.843807
  0
VERTEX
  8
PLAN_1
  6
CONTINUOUS
 10
-1.120795
 20
2.847343
  0
VERTEX
  8
PLAN_1
  6
CONTINUOUS
 10
-1.122311
 20
2.853398
  0
VERTEX
  8
PLAN_1
  6
CONTINUOUS
 10
-1.122311
 20
2.855417
  0
SEQEND
  8
0
  0
POLYLINE
  8
PLAN_1
  6
CONTINUOUS
 66
     1
 40
0.008579
 41
0.008579
  0
VERTEX
  8
PLAN_1
  6
CONTINUOUS
 10
-1.122311
 20
2.855417
  0
VERTEX
  8
PLAN_1
  6
CONTINUOUS
 10
-1.122311
 20
3.311201
  0
SEQEND
  8
0
  0
POLYLINE
  8
PLAN_1
 62
     5
  6
CONTINUOUS
 66
     1
 40
0.003000
 41
0.003000
  0
VERTEX
  8
PLAN_1
 62
     5
  6
CONTINUOUS
 10
-1.336319
 20
3.417701
  0
VERTEX
  8
PLAN_1
 62
     5
  6
CONTINUOUS
 10
-1.328748
 20
3.421736
  0
SEQEND
  8
0
  0
POLYLINE
  8
PLAN_1
 62
     5
  6
CONTINUOUS
 66
     1
 40
0.003000
 41
0.003000
  0
VERTEX
  8
PLAN_1
 62
     5
  6
CONTINUOUS
 10
-1.321681
 20
3.425776
  0
VERTEX
  8
PLAN_1
 62
     5
  6
CONTINUOUS
 10
-1.314618
 20
3.430319
  0
SEQEND
  8
0
  0
POLYLINE
  8
PLAN_1
 62
     5
  6
CONTINUOUS
 66
     1
 40
0.003000
 41
0.003000
  0
VERTEX
  8
PLAN_1
 62
     5
  6
CONTINUOUS
 10
-1.307551
 20
3.434354
  0
VERTEX
  8
PLAN_1
 62
     5
  6
CONTINUOUS
 10
-1.299980
 20
3.438394
  0
SEQEND
  8
0
  0
POLYLINE
  8
PLAN_1
 62
     5
  6
CONTINUOUS
 66
     1
 40
0.003000
 41
0.003000
  0
VERTEX
  8
PLAN_1
 62
     5
  6
CONTINUOUS
 10
-1.292913
 20
3.442433
  0
VERTEX
  8
PLAN_1
 62
     5
  6
CONTINUOUS
 10
-1.285846
 20
3.446976
  0
SEQEND
  8
0
  0
POLYLINE
  8
PLAN_1
 62
     5
  6
CONTINUOUS
 66
     1
 40
0.003000
 41
0.003000
  0
VERTEX
  8
PLAN_1
 62
     5
  6
CONTINUOUS
 10
-1.278276
 20
3.451012
  0
VERTEX
  8
PLAN_1
 62
     5
  6
CONTINUOUS
 10
-1.271209
 20
3.455051
  0
SEQEND
  8
0
  0
POLYLINE
  8
PLAN_1
 62
     5
  6
CONTINUOUS
 66
     1
 40
0.003000
 41
0.003000
  0
VERTEX
  8
PLAN_1
 62
     5
  6
CONTINUOUS
 10
-1.264142
 20
3.459594
  0
VERTEX
  8
PLAN_1
 62
     5
  6
CONTINUOUS
 10
-1.257075
 20
3.463630
  0
SEQEND
  8
0
  0
POLYLINE
  8
PLAN_1
 62
     5
  6
CONTINUOUS
 66
     1
 40
0.003000
 41
0.003000
  0
VERTEX
  8
PLAN_1
 62
     5
  6
CONTINUOUS
 10
-1.249504
 20
3.467669
  0
VERTEX
  8
PLAN_1
 62
     5
  6
CONTINUOUS
 10
-1.242437
 20
3.471709
  0
SEQEND
  8
0
  0
POLYLINE
  8
PLAN_1
 62
     5
  6
CONTINUOUS
 66
     1
 40
0.003000
 41
0.003000
  0
VERTEX
  8
PLAN_1
 62
     5
  6
CONTINUOUS
 10
-1.235370
 20
3.476248
  0
VERTEX
  8
PLAN_1
 62
     5
  6
CONTINUOUS
 10
-1.228307
 20
3.480287
  0
SEQEND
  8
0
  0
POLYLINE
  8
PLAN_1
 62
     5
  6
CONTINUOUS
 66
     1
 40
0.003000
 41
0.003000
  0
VERTEX
  8
PLAN_1
 62
     5
  6
CONTINUOUS
 10
-1.220736
 20
3.484327
  0
VERTEX
  8
PLAN_1
 62
     5
  6
CONTINUOUS
 10
-1.213669
 20
3.488870
  0
SEQEND
  8
0
  0
POLYLINE
  8
PLAN_1
 62
     5
  6
CONTINUOUS
 66
     1
 40
0.003000
 41
0.003000
  0
VERTEX
  8
PLAN_1
 62
     5
  6
CONTINUOUS
 10
-1.206602
 20
3.492906
  0
VERTEX
  8
PLAN_1
 62
     5
  6
CONTINUOUS
 10
-1.199535
 20
3.496945
  0
SEQEND
  8
0
  0
POLYLINE
  8
PLAN_1
 62
     5
  6
CONTINUOUS
 66
     1
 40
0.003000
 41
0.003000
  0
VERTEX
  8
PLAN_1
 62
     5
  6
CONTINUOUS
 10
-1.191965
 20
3.501488
  0
VERTEX
  8
PLAN_1
 62
     5
  6
CONTINUOUS
 10
-1.184898
 20
3.505524
  0
SEQEND
  8
0
  0
POLYLINE
  8
PLAN_1
 62
     5
  6
CONTINUOUS
 66
     1
 40
0.003000
 41
0.003000
  0
VERTEX
  8
PLAN_1
 62
     5
  6
CONTINUOUS
 10
-1.177831
 20
3.509563
  0
VERTEX
  8
PLAN_1
 62
     5
  6
CONTINUOUS
 10
-1.170764
 20
3.513602
  0
SEQEND
  8
0
  0
POLYLINE
  8
PLAN_1
 62
     5
  6
CONTINUOUS
 66
     1
 40
0.003000
 41
0.003000
  0
VERTEX
  8
PLAN_1
 62
     5
  6
CONTINUOUS
 10
-1.163193
 20
3.518142
  0
VERTEX
  8
PLAN_1
 62
     5
  6
CONTINUOUS
 10
-1.156126
 20
3.522181
  0
SEQEND
  8
0
  0
POLYLINE
  8
PLAN_1
 62
     5
  6
CONTINUOUS
 66
     1
 40
0.003000
 41
0.003000
  0
VERTEX
  8
PLAN_1
 62
     5
  6
CONTINUOUS
 10
-1.149059
 20
3.526220
  0
VERTEX
  8
PLAN_1
 62
     5
  6
CONTINUOUS
 10
-1.141488
 20
3.530764
  0
SEQEND
  8
0
  0
POLYLINE
  8
PLAN_1
 62
     5
  6
CONTINUOUS
 66
     1
 40
0.003000
 41
0.003000
  0
VERTEX
  8
PLAN_1
 62
     5
  6
CONTINUOUS
 10
-1.134425
 20
3.534799
  0
VERTEX
  8
PLAN_1
 62
     5
  6
CONTINUOUS
 10
-1.127358
 20
3.538839
  0
SEQEND
  8
0
  0
POLYLINE
  8
PLAN_1
 62
     5
  6
CONTINUOUS
 66
     1
 40
0.003000
 41
0.003000
  0
VERTEX
  8
PLAN_1
 62
     5
  6
CONTINUOUS
 10
-1.120291
 20
3.542874
  0
VERTEX
  8
PLAN_1
 62
     5
  6
CONTINUOUS
 10
-1.112720
 20
3.547417
  0
SEQEND
  8
0
  0
POLYLINE
  8
PLAN_1
 62
     5
  6
CONTINUOUS
 66
     1
 40
0.003000
 41
0.003000
  0
VERTEX
  8
PLAN_1
 62
     5
  6
CONTINUOUS
 10
-1.105654
 20
3.551457
  0
VERTEX
  8
PLAN_1
 62
     5
  6
CONTINUOUS
 10
-1.098587
 20
3.555496
  0
SEQEND
  8
0
  0
POLYLINE
  8
PLAN_1
 62
     5
  6
CONTINUOUS
 66
     1
 40
0.003000
 41
0.003000
  0
VERTEX
  8
PLAN_1
 62
     5
  6
CONTINUOUS
 10
-1.091520
 20
3.560035
  0
VERTEX
  8
PLAN_1
 62
     5
  6
CONTINUOUS
 10
-1.083949
 20
3.564075
  0
SEQEND
  8
0
  0
POLYLINE
  8
PLAN_1
 62
     5
  6
CONTINUOUS
 66
     1
 40
0.003000
 41
0.003000
  0
VERTEX
  8
PLAN_1
 62
     5
  6
CONTINUOUS
 10
-1.076882
 20
3.568114
  0
VERTEX
  8
PLAN_1
 62
     5
  6
CONTINUOUS
 10
-1.069815
 20
3.572150
  0
SEQEND
  8
0
  0
POLYLINE
  8
PLAN_1
 62
     5
  6
CONTINUOUS
 66
     1
 40
0.003000
 41
0.003000
  0
VERTEX
  8
PLAN_1
 62
     5
  6
CONTINUOUS
 10
-1.062748
 20
3.576693
  0
VERTEX
  8
PLAN_1
 62
     5
  6
CONTINUOUS
 10
-1.055177
 20
3.580732
  0
SEQEND
  8
0
  0
POLYLINE
  8
PLAN_1
 62
     5
  6
CONTINUOUS
 66
     1
 40
0.003000
 41
0.003000
  0
VERTEX
  8
PLAN_1
 62
     5
  6
CONTINUOUS
 10
-1.048114
 20
3.584768
  0
VERTEX
  8
PLAN_1
 62
     5
  6
CONTINUOUS
 10
-1.041047
 20
3.589311
  0
SEQEND
  8
0
  0
POLYLINE
  8
PLAN_1
 62
     5
  6
CONTINUOUS
 66
     1
 40
0.003000
 41
0.003000
  0
VERTEX
  8
PLAN_1
 62
     5
  6
CONTINUOUS
 10
-1.033476
 20
3.593350
  0
VERTEX
  8
PLAN_1
 62
     5
  6
CONTINUOUS
 10
-1.026409
 20
3.597390
  0
SEQEND
  8
0
  0
POLYLINE
  8
PLAN_1
 62
     5
  6
CONTINUOUS
 66
     1
 40
0.003000
 41
0.003000
  0
VERTEX
  8
PLAN_1
 62
     5
  6
CONTINUOUS
 10
-1.019343
 20
3.601425
  0
VERTEX
  8
PLAN_1
 62
     5
  6
CONTINUOUS
 10
-1.012276
 20
3.605969
  0
SEQEND
  8
0
  0
POLYLINE
  8
PLAN_1
 62
     5
  6
CONTINUOUS
 66
     1
 40
0.003000
 41
0.003000
  0
VERTEX
  8
PLAN_1
 62
     5
  6
CONTINUOUS
 10
-1.004705
 20
3.610008
  0
VERTEX
  8
PLAN_1
 62
     5
  6
CONTINUOUS
 10
-0.997638
 20
3.614043
  0
SEQEND
  8
0
  0
POLYLINE
  8
PLAN_1
 62
     5
  6
CONTINUOUS
 66
     1
 40
0.003000
 41
0.003000
  0
VERTEX
  8
PLAN_1
 62
     5
  6
CONTINUOUS
 10
-0.990571
 20
3.618587
  0
VERTEX
  8
PLAN_1
 62
     5
  6
CONTINUOUS
 10
-0.983504
 20
3.622626
  0
SEQEND
  8
0
  0
POLYLINE
  8
PLAN_1
 62
     5
  6
CONTINUOUS
 66
     1
 40
0.003000
 41
0.003000
  0
VERTEX
  8
PLAN_1
 62
     5
  6
CONTINUOUS
 10
-0.975933
 20
3.626661
  0
VERTEX
  8
PLAN_1
 62
     5
  6
CONTINUOUS
 10
-0.968866
 20
3.631205
  0
SEQEND
  8
0
  0
POLYLINE
  8
PLAN_1
 62
     5
  6
CONTINUOUS
 66
     1
 40
0.003000
 41
0.003000
  0
VERTEX
  8
PLAN_1
 62
     5
  6
CONTINUOUS
 10
-0.961803
 20
3.635244
  0
VERTEX
  8
PLAN_1
 62
     5
  6
CONTINUOUS
 10
-0.954736
 20
3.639283
  0
SEQEND
  8
0
  0
POLYLINE
  8
PLAN_1
 62
     5
  6
CONTINUOUS
 66
     1
 40
0.003000
 41
0.003000
  0
VERTEX
  8
PLAN_1
 62
     5
  6
CONTINUOUS
 10
-0.947165
 20
3.643319
  0
VERTEX
  8
PLAN_1
 62
     5
  6
CONTINUOUS
 10
-0.940098
 20
3.647862
  0
SEQEND
  8
0
  0
POLYLINE
  8
PLAN_1
 62
     5
  6
CONTINUOUS
 66
     1
 40
0.003000
 41
0.003000
  0
VERTEX
  8
PLAN_1
 62
     5
  6
CONTINUOUS
 10
-0.933031
 20
3.651902
  0
VERTEX
  8
PLAN_1
 62
     5
  6
CONTINUOUS
 10
-0.925461
 20
3.655937
  0
SEQEND
  8
0
  0
POLYLINE
  8
PLAN_1
 62
     5
  6
CONTINUOUS
 66
     1
 40
0.003000
 41
0.003000
  0
VERTEX
  8
PLAN_1
 62
     5
  6
CONTINUOUS
 10
-0.918394
 20
3.660480
  0
VERTEX
  8
PLAN_1
 62
     5
  6
CONTINUOUS
 10
-0.911327
 20
3.664520
  0
SEQEND
  8
0
  0
POLYLINE
  8
PLAN_1
 62
     5
  6
CONTINUOUS
 66
     1
 40
0.003000
 41
0.003000
  0
VERTEX
  8
PLAN_1
 62
     5
  6
CONTINUOUS
 10
-0.904260
 20
3.668555
  0
VERTEX
  8
PLAN_1
 62
     5
  6
CONTINUOUS
 10
-0.896689
 20
3.673098
  0
SEQEND
  8
0
  0
POLYLINE
  8
PLAN_1
 62
     5
  6
CONTINUOUS
 66
     1
 40
0.003000
 41
0.003000
  0
VERTEX
  8
PLAN_1
 62
     5
  6
CONTINUOUS
 10
-0.889622
 20
3.677138
  0
VERTEX
  8
PLAN_1
 62
     5
  6
CONTINUOUS
 10
-0.882555
 20
3.681177
  0
SEQEND
  8
0
  0
POLYLINE
  8
PLAN_1
 62
     5
  6
CONTINUOUS
 66
     1
 40
0.003000
 41
0.003000
  0
VERTEX
  8
PLAN_1
 62
     5
  6
CONTINUOUS
 10
-0.875492
 20
3.685213
  0
VERTEX
  8
PLAN_1
 62
     5
  6
CONTINUOUS
 10
-0.867917
 20
3.689756
  0
SEQEND
  8
0
  0
POLYLINE
  8
PLAN_1
 62
     5
  6
CONTINUOUS
 66
     1
 40
0.003000
 41
0.003000
  0
VERTEX
  8
PLAN_1
 62
     5
  6
CONTINUOUS
 10
-1.336319
 20
3.189051
  0
VERTEX
  8
PLAN_1
 62
     5
  6
CONTINUOUS
 10
-1.328748
 20
3.193091
  0
SEQEND
  8
0
  0
POLYLINE
  8
PLAN_1
 62
     5
  6
CONTINUOUS
 66
     1
 40
0.003000
 41
0.003000
  0
VERTEX
  8
PLAN_1
 62
     5
  6
CONTINUOUS
 10
-1.321681
 20
3.197634
  0
VERTEX
  8
PLAN_1
 62
     5
  6
CONTINUOUS
 10
-1.314618
 20
3.201669
  0
SEQEND
  8
0
  0
POLYLINE
  8
PLAN_1
 62
     5
  6
CONTINUOUS
 66
     1
 40
0.003000
 41
0.003000
  0
VERTEX
  8
PLAN_1
 62
     5
  6
CONTINUOUS
 10
-1.307551
 20
3.205709
  0
VERTEX
  8
PLAN_1
 62
     5
  6
CONTINUOUS
 10
-1.299980
 20
3.209744
  0
SEQEND
  8
0
  0
POLYLINE
  8
PLAN_1
 62
     5
  6
CONTINUOUS
 66
     1
 40
0.003000
 41
0.003000
  0
VERTEX
  8
PLAN_1
 62
     5
  6
CONTINUOUS
 10
-1.292913
 20
3.214287
  0
VERTEX
  8
PLAN_1
 62
     5
  6
CONTINUOUS
 10
-1.285846
 20
3.218327
  0
SEQEND
  8
0
  0
POLYLINE
  8
PLAN_1
 62
     5
  6
CONTINUOUS
 66
     1
 40
0.003000
 41
0.003000
  0
VERTEX
  8
PLAN_1
 62
     5
  6
CONTINUOUS
 10
-1.278276
 20
3.222366
  0
VERTEX
  8
PLAN_1
 62
     5
  6
CONTINUOUS
 10
-1.271209
 20
3.226906
  0
SEQEND
  8
0
  0
POLYLINE
  8
PLAN_1
 62
     5
  6
CONTINUOUS
 66
     1
 40
0.003000
 41
0.003000
  0
VERTEX
  8
PLAN_1
 62
     5
  6
CONTINUOUS
 10
-1.264142
 20
3.230945
  0
VERTEX
  8
PLAN_1
 62
     5
  6
CONTINUOUS
 10
-1.257075
 20
3.234984
  0
SEQEND
  8
0
  0
POLYLINE
  8
PLAN_1
 62
     5
  6
CONTINUOUS
 66
     1
 40
0.003000
 41
0.003000
  0
VERTEX
  8
PLAN_1
 62
     5
  6
CONTINUOUS
 10
-1.249504
 20
3.239528
  0
VERTEX
  8
PLAN_1
 62
     5
  6
CONTINUOUS
 10
-1.242437
 20
3.243563
  0
SEQEND
  8
0
  0
POLYLINE
  8
PLAN_1
 62
     5
  6
CONTINUOUS
 66
     1
 40
0.003000
 41
0.003000
  0
VERTEX
  8
PLAN_1
 62
     5
  6
CONTINUOUS
 10
-1.235370
 20
3.247602
  0
VERTEX
  8
PLAN_1
 62
     5
  6
CONTINUOUS
 10
-1.228307
 20
3.251638
  0
SEQEND
  8
0
  0
POLYLINE
  8
PLAN_1
 62
     5
  6
CONTINUOUS
 66
     1
 40
0.003000
 41
0.003000
  0
VERTEX
  8
PLAN_1
 62
     5
  6
CONTINUOUS
 10
-1.220736
 20
3.256181
  0
VERTEX
  8
PLAN_1
 62
     5
  6
CONTINUOUS
 10
-1.213669
 20
3.260220
  0
SEQEND
  8
0
  0
POLYLINE
  8
PLAN_1
 62
     5
  6
CONTINUOUS
 66
     1
 40
0.003000
 41
0.003000
  0
VERTEX
  8
PLAN_1
 62
     5
  6
CONTINUOUS
 10
-1.206602
 20
3.264260
  0
VERTEX
  8
PLAN_1
 62
     5
  6
CONTINUOUS
 10
-1.199535
 20
3.268799
  0
SEQEND
  8
0
  0
POLYLINE
  8
PLAN_1
 62
     5
  6
CONTINUOUS
 66
     1
 40
0.003000
 41
0.003000
  0
VERTEX
  8
PLAN_1
 62
     5
  6
CONTINUOUS
 10
-1.191965
 20
3.272839
  0
VERTEX
  8
PLAN_1
 62
     5
  6
CONTINUOUS
 10
-1.184898
 20
3.276878
  0
SEQEND
  8
0
  0
POLYLINE
  8
PLAN_1
 62
     5
  6
CONTINUOUS
 66
     1
 40
0.003000
 41
0.003000
  0
VERTEX
  8
PLAN_1
 62
     5
  6
CONTINUOUS
 10
-1.177831
 20
3.280913
  0
VERTEX
  8
PLAN_1
 62
     5
  6
CONTINUOUS
 10
-1.170764
 20
3.285457
  0
SEQEND
  8
0
  0
POLYLINE
  8
PLAN_1
 62
     5
  6
CONTINUOUS
 66
     1
 40
0.003000
 41
0.003000
  0
VERTEX
  8
PLAN_1
 62
     5
  6
CONTINUOUS
 10
-1.163193
 20
3.289496
  0
VERTEX
  8
PLAN_1
 62
     5
  6
CONTINUOUS
 10
-1.156126
 20
3.293531
  0
SEQEND
  8
0
  0
POLYLINE
  8
PLAN_1
 62
     5
  6
CONTINUOUS
 66
     1
 40
0.003000
 41
0.003000
  0
VERTEX
  8
PLAN_1
 62
     5
  6
CONTINUOUS
 10
-1.149059
 20
3.298075
  0
VERTEX
  8
PLAN_1
 62
     5
  6
CONTINUOUS
 10
-1.141488
 20
3.302114
  0
SEQEND
  8
0
  0
POLYLINE
  8
PLAN_1
 62
     5
  6
CONTINUOUS
 66
     1
 40
0.003000
 41
0.003000
  0
VERTEX
  8
PLAN_1
 62
     5
  6
CONTINUOUS
 10
-1.134425
 20
3.306154
  0
VERTEX
  8
PLAN_1
 62
     5
  6
CONTINUOUS
 10
-1.127358
 20
3.310189
  0
SEQEND
  8
0
  0
POLYLINE
  8
PLAN_1
 62
     5
  6
CONTINUOUS
 66
     1
 40
0.003000
 41
0.003000
  0
VERTEX
  8
PLAN_1
 62
     5
  6
CONTINUOUS
 10
-1.120291
 20
3.314732
  0
VERTEX
  8
PLAN_1
 62
     5
  6
CONTINUOUS
 10
-1.112720
 20
3.318772
  0
SEQEND
  8
0
  0
POLYLINE
  8
PLAN_1
 62
     5
  6
CONTINUOUS
 66
     1
 40
0.003000
 41
0.003000
  0
VERTEX
  8
PLAN_1
 62
     5
  6
CONTINUOUS
 10
-1.105654
 20
3.322807
  0
VERTEX
  8
PLAN_1
 62
     5
  6
CONTINUOUS
 10
-1.098587
 20
3.327350
  0
SEQEND
  8
0
  0
POLYLINE
  8
PLAN_1
 62
     5
  6
CONTINUOUS
 66
     1
 40
0.003000
 41
0.003000
  0
VERTEX
  8
PLAN_1
 62
     5
  6
CONTINUOUS
 10
-1.091520
 20
3.331390
  0
VERTEX
  8
PLAN_1
 62
     5
  6
CONTINUOUS
 10
-1.083949
 20
3.335425
  0
SEQEND
  8
0
  0
POLYLINE
  8
PLAN_1
 62
     5
  6
CONTINUOUS
 66
     1
 40
0.003000
 41
0.003000
  0
VERTEX
  8
PLAN_1
 62
     5
  6
CONTINUOUS
 10
-1.076882
 20
3.339465
  0
VERTEX
  8
PLAN_1
 62
     5
  6
CONTINUOUS
 10
-1.069815
 20
3.344008
  0
SEQEND
  8
0
  0
POLYLINE
  8
PLAN_1
 62
     5
  6
CONTINUOUS
 66
     1
 40
0.003000
 41
0.003000
  0
VERTEX
  8
PLAN_1
 62
     5
  6
CONTINUOUS
 10
-1.062748
 20
3.348047
  0
VERTEX
  8
PLAN_1
 62
     5
  6
CONTINUOUS
 10
-1.055177
 20
3.352083
  0
SEQEND
  8
0
  0
POLYLINE
  8
PLAN_1
 62
     5
  6
CONTINUOUS
 66
     1
 40
0.003000
 41
0.003000
  0
VERTEX
  8
PLAN_1
 62
     5
  6
CONTINUOUS
 10
-1.048114
 20
3.356626
  0
VERTEX
  8
PLAN_1
 62
     5
  6
CONTINUOUS
 10
-1.041047
 20
3.360665
  0
SEQEND
  8
0
  0
POLYLINE
  8
PLAN_1
 62
     5
  6
CONTINUOUS
 66
     1
 40
0.003000
 41
0.003000
  0
VERTEX
  8
PLAN_1
 62
     5
  6
CONTINUOUS
 10
-1.033476
 20
3.364701
  0
VERTEX
  8
PLAN_1
 62
     5
  6
CONTINUOUS
 10
-1.026409
 20
3.369244
  0
SEQEND
  8
0
  0
POLYLINE
  8
PLAN_1
 62
     5
  6
CONTINUOUS
 66
     1
 40
0.003000
 41
0.003000
  0
VERTEX
  8
PLAN_1
 62
     5
  6
CONTINUOUS
 10
-1.019343
 20
3.373283
  0
VERTEX
  8
PLAN_1
 62
     5
  6
CONTINUOUS
 10
-1.012276
 20
3.377319
  0
SEQEND
  8
0
  0
POLYLINE
  8
PLAN_1
 62
     5
  6
CONTINUOUS
 66
     1
 40
0.003000
 41
0.003000
  0
VERTEX
  8
PLAN_1
 62
     5
  6
CONTINUOUS
 10
-1.004705
 20
3.381358
  0
VERTEX
  8
PLAN_1
 62
     5
  6
CONTINUOUS
 10
-0.997638
 20
3.385902
  0
SEQEND
  8
0
  0
POLYLINE
  8
PLAN_1
 62
     5
  6
CONTINUOUS
 66
     1
 40
0.003000
 41
0.003000
  0
VERTEX
  8
PLAN_1
 62
     5
  6
CONTINUOUS
 10
-0.990571
 20
3.389937
  0
VERTEX
  8
PLAN_1
 62
     5
  6
CONTINUOUS
 10
-0.983504
 20
3.393976
  0
SEQEND
  8
0
  0
POLYLINE
  8
PLAN_1
 62
     5
  6
CONTINUOUS
 66
     1
 40
0.003000
 41
0.003000
  0
VERTEX
  8
PLAN_1
 62
     5
  6
CONTINUOUS
 10
-0.975933
 20
3.398520
  0
VERTEX
  8
PLAN_1
 62
     5
  6
CONTINUOUS
 10
-0.968866
 20
3.402559
  0
SEQEND
  8
0
  0
POLYLINE
  8
PLAN_1
 62
     5
  6
CONTINUOUS
 66
     1
 40
0.003000
 41
0.003000
  0
VERTEX
  8
PLAN_1
 62
     5
  6
CONTINUOUS
 10
-0.961803
 20
3.406594
  0
VERTEX
  8
PLAN_1
 62
     5
  6
CONTINUOUS
 10
-0.954736
 20
3.410634
  0
SEQEND
  8
0
  0
POLYLINE
  8
PLAN_1
 62
     5
  6
CONTINUOUS
 66
     1
 40
0.003000
 41
0.003000
  0
VERTEX
  8
PLAN_1
 62
     5
  6
CONTINUOUS
 10
-0.947165
 20
3.415177
  0
VERTEX
  8
PLAN_1
 62
     5
  6
CONTINUOUS
 10
-0.940098
 20
3.419213
  0
SEQEND
  8
0
  0
POLYLINE
  8
PLAN_1
 62
     5
  6
CONTINUOUS
 66
     1
 40
0.003000
 41
0.003000
  0
VERTEX
  8
PLAN_1
 62
     5
  6
CONTINUOUS
 10
-0.933031
 20
3.423252
  0
VERTEX
  8
PLAN_1
 62
     5
  6
CONTINUOUS
 10
-0.925461
 20
3.427795
  0
SEQEND
  8
0
  0
POLYLINE
  8
PLAN_1
 62
     5
  6
CONTINUOUS
 66
     1
 40
0.003000
 41
0.003000
  0
VERTEX
  8
PLAN_1
 62
     5
  6
CONTINUOUS
 10
-0.918394
 20
3.431831
  0
VERTEX
  8
PLAN_1
 62
     5
  6
CONTINUOUS
 10
-0.911327
 20
3.435870
  0
SEQEND
  8
0
  0
POLYLINE
  8
PLAN_1
 62
     5
  6
CONTINUOUS
 66
     1
 40
0.003000
 41
0.003000
  0
VERTEX
  8
PLAN_1
 62
     5
  6
CONTINUOUS
 10
-0.904260
 20
3.440413
  0
VERTEX
  8
PLAN_1
 62
     5
  6
CONTINUOUS
 10
-0.896689
 20
3.444453
  0
SEQEND
  8
0
  0
POLYLINE
  8
PLAN_1
 62
     5
  6
CONTINUOUS
 66
     1
 40
0.003000
 41
0.003000
  0
VERTEX
  8
PLAN_1
 62
     5
  6
CONTINUOUS
 10
-0.889622
 20
3.448488
  0
VERTEX
  8
PLAN_1
 62
     5
  6
CONTINUOUS
 10
-0.882555
 20
3.452528
  0
SEQEND
  8
0
  0
POLYLINE
  8
PLAN_1
 62
     5
  6
CONTINUOUS
 66
     1
 40
0.003000
 41
0.003000
  0
VERTEX
  8
PLAN_1
 62
     5
  6
CONTINUOUS
 10
-0.875492
 20
3.457071
  0
VERTEX
  8
PLAN_1
 62
     5
  6
CONTINUOUS
 10
-0.867917
 20
3.461106
  0
SEQEND
  8
0
  0
POLYLINE
  8
PLAN_1
  6
CONTINUOUS
 66
     1
 40
0.008579
 41
0.008579
  0
VERTEX
  8
PLAN_1
  6
CONTINUOUS
 10
-0.859843
 20
1.523402
  0
VERTEX
  8
PLAN_1
  6
CONTINUOUS
 10
-0.850760
 20
1.522898
  0
VERTEX
  8
PLAN_1
  6
CONTINUOUS
 10
-0.841169
 20
1.521886
  0
VERTEX
  8
PLAN_1
  6
CONTINUOUS
 10
-0.832587
 20
1.519866
  0
VERTEX
  8
PLAN_1
  6
CONTINUOUS
 10
-0.824008
 20
1.517343
  0
VERTEX
  8
PLAN_1
  6
CONTINUOUS
 10
-0.815929
 20
1.514315
  0
VERTEX
  8
PLAN_1
  6
CONTINUOUS
 10
-0.808358
 20
1.511287
  0
VERTEX
  8
PLAN_1
  6
CONTINUOUS
 10
-0.801291
 20
1.507752
  0
VERTEX
  8
PLAN_1
  6
CONTINUOUS
 10
-0.794228
 20
1.504220
  0
VERTEX
  8
PLAN_1
  6
CONTINUOUS
 10
-0.783122
 20
1.497154
  0
VERTEX
  8
PLAN_1
  6
CONTINUOUS
 10
-0.774543
 20
1.491098
  0
VERTEX
  8
PLAN_1
  6
CONTINUOUS
 10
-0.768988
 20
1.487059
  0
VERTEX
  8
PLAN_1
  6
CONTINUOUS
 10
-0.766972
 20
1.485543
  0
SEQEND
  8
0
  0
POLYLINE
  8
PLAN_1
  6
CONTINUOUS
 66
     1
 40
0.008579
 41
0.008579
  0
VERTEX
  8
PLAN_1
  6
CONTINUOUS
 10
-0.766972
 20
1.485543
  0
VERTEX
  8
PLAN_1
  6
CONTINUOUS
 10
-0.766972
 20
1.291220
  0
VERTEX
  8
PLAN_1
  6
CONTINUOUS
 10
-1.248496
 20
1.291220
  0
VERTEX
  8
PLAN_1
  6
CONTINUOUS
 10
-1.248496
 20
1.489583
  0
SEQEND
  8
0
  0
POLYLINE
  8
PLAN_1
  6
CONTINUOUS
 66
     1
 40
0.008579
 41
0.008579
  0
VERTEX
  8
PLAN_1
  6
CONTINUOUS
 10
-1.248496
 20
1.489583
  0
VERTEX
  8
PLAN_1
  6
CONTINUOUS
 10
-1.246476
 20
1.491098
  0
VERTEX
  8
PLAN_1
  6
CONTINUOUS
 10
-1.240417
 20
1.494630
  0
VERTEX
  8
PLAN_1
  6
CONTINUOUS
 10
-1.230831
 20
1.500181
  0
VERTEX
  8
PLAN_1
  6
CONTINUOUS
 10
-1.218209
 20
1.506240
  0
VERTEX
  8
PLAN_1
  6
CONTINUOUS
 10
-1.211146
 20
1.509772
  0
VERTEX
  8
PLAN_1
  6
CONTINUOUS
 10
-1.203575
 20
1.512799
  0
VERTEX
  8
PLAN_1
  6
CONTINUOUS
 10
-1.194992
 20
1.515323
  0
VERTEX
  8
PLAN_1
  6
CONTINUOUS
 10
-1.186413
 20
1.517850
  0
VERTEX
  8
PLAN_1
  6
CONTINUOUS
 10
-1.176823
 20
1.520374
  0
VERTEX
  8
PLAN_1
  6
CONTINUOUS
 10
-1.167232
 20
1.521886
  0
VERTEX
  8
PLAN_1
  6
CONTINUOUS
 10
-1.157138
 20
1.522898
  0
VERTEX
  8
PLAN_1
  6
CONTINUOUS
 10
-1.147043
 20
1.523402
  0
SEQEND
  8
0
  0
POLYLINE
  8
PLAN_1
  6
CONTINUOUS
 66
     1
 40
0.008579
 41
0.008579
  0
VERTEX
  8
PLAN_1
  6
CONTINUOUS
 10
-1.147043
 20
1.523402
  0
VERTEX
  8
PLAN_1
  6
CONTINUOUS
 10
-0.859843
 20
1.523402
  0
SEQEND
  8
0
  0
POLYLINE
  8
PLAN_1
 62
     2
  6
CONTINUOUS
 66
     1
 40
0.004035
 41
0.004035
  0
VERTEX
  8
PLAN_1
 62
     2
  6
CONTINUOUS
 10
-1.067799
 20
3.938091
  0
VERTEX
  8
PLAN_1
 62
     2
  6
CONTINUOUS
 10
-0.197118
 20
3.938091
  0
SEQEND
  8
0
  0
SOLID
  8
PLAN_1
 62
     2
 10
-0.167335
 20
3.938091
 11
-0.226390
 21
3.953736
 12
-0.167335
 22
3.938091
 13
-0.226390
 23
3.922441
  0
POLYLINE
  8
PLAN_1
 62
     2
  6
CONTINUOUS
 66
     1
 40
0.003000
 41
0.003000
  0
VERTEX
  8
PLAN_1
 62
     2
  6
CONTINUOUS
 10
-0.167335
 20
3.938091
  0
VERTEX
  8
PLAN_1
 62
     2
  6
CONTINUOUS
 10
-0.226390
 20
3.953736
  0
VERTEX
  8
PLAN_1
 62
     2
  6
CONTINUOUS
 10
-0.226390
 20
3.922441
  0
VERTEX
  8
PLAN_1
 62
     2
  6
CONTINUOUS
 10
-0.167335
 20
3.938091
  0
SEQEND
  8
0
  0
SOLID
  8
PLAN_1
 62
     2
 10
-1.097579
 20
3.938091
 11
-1.038524
 21
3.953736
 12
-1.097579
 22
3.938091
 13
-1.038524
 23
3.922441
  0
POLYLINE
  8
PLAN_1
 62
     2
  6
CONTINUOUS
 66
     1
 40
0.003000
 41
0.003000
  0
VERTEX
  8
PLAN_1
 62
     2
  6
CONTINUOUS
 10
-1.097579
 20
3.938091
  0
VERTEX
  8
PLAN_1
 62
     2
  6
CONTINUOUS
 10
-1.038524
 20
3.953736
  0
VERTEX
  8
PLAN_1
 62
     2
  6
CONTINUOUS
 10
-1.038524
 20
3.922441
  0
VERTEX
  8
PLAN_1
 62
     2
  6
CONTINUOUS
 10
-1.097579
 20
3.938091
  0
SEQEND
  8
0
  0
POLYLINE
  8
PLAN_1
 62
     2
  6
CONTINUOUS
 66
     1
 40
0.003000
 41
0.003000
  0
VERTEX
  8
PLAN_1
 62
     2
  6
CONTINUOUS
 10
-0.652898
 20
3.961811
  0
VERTEX
  8
PLAN_1
 62
     2
  6
CONTINUOUS
 10
-0.662992
 20
3.961811
  0
VERTEX
  8
PLAN_1
 62
     2
  6
CONTINUOUS
 10
-0.662992
 20
4.013799
  0
VERTEX
  8
PLAN_1
 62
     2
  6
CONTINUOUS
 10
-0.680154
 20
4.013799
  0
VERTEX
  8
PLAN_1
 62
     2
  6
CONTINUOUS
 10
-0.680154
 20
4.020866
  0
VERTEX
  8
PLAN_1
 62
     2
  6
CONTINUOUS
 10
-0.675614
 20
4.021370
  0
VERTEX
  8
PLAN_1
 62
     2
  6
CONTINUOUS
 10
-0.672079
 20
4.021878
  0
VERTEX
  8
PLAN_1
 62
     2
  6
CONTINUOUS
 10
-0.669051
 20
4.022886
  0
VERTEX
  8
PLAN_1
 62
     2
  6
CONTINUOUS
 10
-0.666528
 20
4.023894
  0
VERTEX
  8
PLAN_1
 62
     2
  6
CONTINUOUS
 10
-0.664508
 20
4.025409
  0
VERTEX
  8
PLAN_1
 62
     2
  6
CONTINUOUS
 10
-0.662992
 20
4.027933
  0
VERTEX
  8
PLAN_1
 62
     2
  6
CONTINUOUS
 10
-0.661480
 20
4.030961
  0
VERTEX
  8
PLAN_1
 62
     2
  6
CONTINUOUS
 10
-0.660469
 20
4.035000
  0
VERTEX
  8
PLAN_1
 62
     2
  6
CONTINUOUS
 10
-0.652898
 20
4.035000
  0
VERTEX
  8
PLAN_1
 62
     2
  6
CONTINUOUS
 10
-0.652898
 20
3.961811
  0
SEQEND
  8
0
  0
POLYLINE
  8
PLAN_1
 62
     2
  6
CONTINUOUS
 66
     1
 40
0.003000
 41
0.003000
  0
VERTEX
  8
PLAN_1
 62
     2
  6
CONTINUOUS
 10
-0.628669
 20
4.033484
  0
VERTEX
  8
PLAN_1
 62
     2
  6
CONTINUOUS
 10
-0.578197
 20
4.033484
  0
VERTEX
  8
PLAN_1
 62
     2
  6
CONTINUOUS
 10
-0.578197
 20
4.025409
  0
VERTEX
  8
PLAN_1
 62
     2
  6
CONTINUOUS
 10
-0.581224
 20
4.021878
  0
VERTEX
  8
PLAN_1
 62
     2
  6
CONTINUOUS
 10
-0.585264
 20
4.016831
  0
VERTEX
  8
PLAN_1
 62
     2
  6
CONTINUOUS
 10
-0.589303
 20
4.010772
  0
VERTEX
  8
PLAN_1
 62
     2
  6
CONTINUOUS
 10
-0.593843
 20
4.003201
  0
VERTEX
  8
PLAN_1
 62
     2
  6
CONTINUOUS
 10
-0.598386
 20
3.994114
  0
VERTEX
  8
PLAN_1
 62
     2
  6
CONTINUOUS
 10
-0.602425
 20
3.984528
  0
VERTEX
  8
PLAN_1
 62
     2
  6
CONTINUOUS
 10
-0.603937
 20
3.978972
  0
VERTEX
  8
PLAN_1
 62
     2
  6
CONTINUOUS
 10
-0.605453
 20
3.973421
  0
VERTEX
  8
PLAN_1
 62
     2
  6
CONTINUOUS
 10
-0.606969
 20
3.967870
  0
VERTEX
  8
PLAN_1
 62
     2
  6
CONTINUOUS
 10
-0.607976
 20
3.961811
  0
VERTEX
  8
PLAN_1
 62
     2
  6
CONTINUOUS
 10
-0.618071
 20
3.961811
  0
VERTEX
  8
PLAN_1
 62
     2
  6
CONTINUOUS
 10
-0.617063
 20
3.969890
  0
VERTEX
  8
PLAN_1
 62
     2
  6
CONTINUOUS
 10
-0.614539
 20
3.977965
  0
VERTEX
  8
PLAN_1
 62
     2
  6
CONTINUOUS
 10
-0.611512
 20
3.986039
  0
VERTEX
  8
PLAN_1
 62
     2
  6
CONTINUOUS
 10
-0.607472
 20
3.994622
  0
VERTEX
  8
PLAN_1
 62
     2
  6
CONTINUOUS
 10
-0.603433
 20
4.002697
  0
VERTEX
  8
PLAN_1
 62
     2
  6
CONTINUOUS
 10
-0.598890
 20
4.010772
  0
VERTEX
  8
PLAN_1
 62
     2
  6
CONTINUOUS
 10
-0.593843
 20
4.017839
  0
VERTEX
  8
PLAN_1
 62
     2
  6
CONTINUOUS
 10
-0.588291
 20
4.024402
  0
VERTEX
  8
PLAN_1
 62
     2
  6
CONTINUOUS
 10
-0.628669
 20
4.024402
  0
VERTEX
  8
PLAN_1
 62
     2
  6
CONTINUOUS
 10
-0.628669
 20
4.033484
  0
SEQEND
  8
0
  0
POLYLINE
  8
PLAN_1
 62
     2
  6
CONTINUOUS
 66
     1
 40
0.004035
 41
0.004035
  0
VERTEX
  8
PLAN_1
 62
     2
  6
CONTINUOUS
 10
-1.097579
 20
3.791713
  0
VERTEX
  8
PLAN_1
 62
     2
  6
CONTINUOUS
 10
-1.097579
 20
3.961811
  0
SEQEND
  8
0
  0
POLYLINE
  8
PLAN_1
 62
     2
  6
CONTINUOUS
 66
     1
 40
0.004035
 41
0.004035
  0
VERTEX
  8
PLAN_1
 62
     2
  6
CONTINUOUS
 10
-0.167335
 20
-0.063512
  0
VERTEX
  8
PLAN_1
 62
     2
  6
CONTINUOUS
 10
-0.167335
 20
3.961811
  0
SEQEND
  8
0
  0
ENDSEC
  0
EOF
