  0
SECTION
  2
HEADER
  9
$ACADVER
  1
AC1006
  9
$EXTMIN
 10
-1.987000
 20
-3.331728
  9
$EXTMAX
 10
1.980000
 20
3.332000
  9
$LTSCALE
 40
0.000394
  9
$PDMODE
 70
    35
  9
$PDSIZE
 40
0.000315
  0
ENDSEC
  0
SECTION
  2
TABLES
  0
TABLE
  2
LTYPE
 70
     9
  0
LTYPE
  2
CONTINUOUS
 70
    64
  3
Solid line
 72
    65
 73
     0
 40
0.000000
  0
LTYPE
  2
DASHED
 70
    64
  3
__ __ __ __ __ __ __ __ __ __ __ __ __ __ __
 72
    65
 73
     2
 40
0.000003
 49
0.000002
 49
-0.000001
  0
LTYPE
  2
HIDDEN
 70
    64
  3
 _ _ _ _ _ _ _ _ _ _ _ _ _ _ _ _ _ _ _ _ _ _
 72
    65
 73
     2
 40
0.000001
 49
0.000001
 49
-0.000000
  0
LTYPE
  2
CENTER
 70
    64
  3
____ _ ____ _ ____ _ ____ _ ____ _ ____ _ ____
 72
    65
 73
     4
 40
0.000008
 49
0.000005
 49
-0.000001
 49
0.000001
 49
-0.000001
  0
LTYPE
  2
PHANTOM
 70
    64
  3
_____ _ _ _____ _ _ _____ _ _ _____ _ _ ____
 72
    65
 73
     6
 40
0.000010
 49
0.000005
 49
-0.000001
 49
0.000001
 49
-0.000001
 49
0.000001
 49
-0.000001
  0
LTYPE
  2
DOT
 70
    64
  3
...............................................
 72
    65
 73
     2
 40
0.000001
 49
0.000000
 49
-0.000001
  0
LTYPE
  2
DASHDOT
 70
    64
  3
__ . __ . __ . __ . __ . __ . __ . __ . __ . __
 72
    65
 73
     4
 40
0.000004
 49
0.000002
 49
-0.000001
 49
0.000000
 49
-0.000001
  0
LTYPE
  2
BORDER
 70
    64
  3
__ __ . __ __ . __ __ . __ __ . __ __ . __ __
 72
    65
 73
     6
 40
0.000007
 49
0.000002
 49
-0.000001
 49
0.000002
 49
-0.000001
 49
0.000000
 49
-0.000001
  0
LTYPE
  2
DIVIDE
 70
    64
  3
__ . . __ . . __ . . __ . . __ . . __ . . __
 72
    65
 73
     6
 40
0.000005
 49
0.000002
 49
-0.000001
 49
0.000000
 49
-0.000001
 49
0.000000
 49
-0.000001
  0
LTYPE
  2
DOTDOT
 70
    64
  3
 . .  . .  . .  . .  . .  . . 
 72
    65
 73
     5
 40
0.000002
 49
-0.000001
 49
0.000000
 49
-0.000001
 49
0.000000
 49
-0.000001
  0
ENDTAB
  0
TABLE
  2
STYLE
 70
     0
  0
ENDTAB
  0
TABLE
  2
LAYER
 70
     3
  0
LAYER
  2
FOREGROUND
 70
    64
 62
     7
  6
CONTINUOUS
  0
LAYER
  2
BACKGROUND
 70
    65
 62
    -7
  6
CONTINUOUS
  0
LAYER
  2
PLAN_1
 70
    64
 62
     7
  6
CONTINUOUS
  0
ENDTAB
  0
ENDSEC
  0
SECTION
  2
ENTITIES
  0
POLYLINE
  8
PLAN_1
  6
CONTINUOUS
 66
     1
 40
0.003000
 41
0.003000
  0
VERTEX
  8
PLAN_1
  6
CONTINUOUS
 10
0.192039
 20
-3.297157
  0
VERTEX
  8
PLAN_1
  6
CONTINUOUS
 10
0.035024
 20
-3.297157
  0
VERTEX
  8
PLAN_1
  6
CONTINUOUS
 10
0.035024
 20
-3.274669
  0
VERTEX
  8
PLAN_1
  6
CONTINUOUS
 10
0.157472
 20
-3.121819
  0
VERTEX
  8
PLAN_1
  6
CONTINUOUS
 10
0.044189
 20
-3.121819
  0
VERTEX
  8
PLAN_1
  6
CONTINUOUS
 10
0.044189
 20
-3.097665
  0
VERTEX
  8
PLAN_1
  6
CONTINUOUS
 10
0.192039
 20
-3.097665
  0
VERTEX
  8
PLAN_1
  6
CONTINUOUS
 10
0.192039
 20
-3.120988
  0
VERTEX
  8
PLAN_1
  6
CONTINUOUS
 10
0.069177
 20
-3.273004
  0
VERTEX
  8
PLAN_1
  6
CONTINUOUS
 10
0.192039
 20
-3.273004
  0
VERTEX
  8
PLAN_1
  6
CONTINUOUS
 10
0.192039
 20
-3.297157
  0
SEQEND
  8
0
  0
POLYLINE
  8
PLAN_1
  6
CONTINUOUS
 66
     1
 40
0.003000
 41
0.003000
  0
VERTEX
  8
PLAN_1
  6
CONTINUOUS
 10
0.359465
 20
-3.157638
  0
VERTEX
  8
PLAN_1
  6
CONTINUOUS
 10
0.357799
 20
-3.151390
  0
VERTEX
  8
PLAN_1
  6
CONTINUOUS
 10
0.355717
 20
-3.145976
  0
VERTEX
  8
PLAN_1
  6
CONTINUOUS
 10
0.353217
 20
-3.140976
  0
VERTEX
  8
PLAN_1
  6
CONTINUOUS
 10
0.350303
 20
-3.136398
  0
VERTEX
  8
PLAN_1
  6
CONTINUOUS
 10
0.346969
 20
-3.132650
  0
VERTEX
  8
PLAN_1
  6
CONTINUOUS
 10
0.343638
 20
-3.129315
  0
VERTEX
  8
PLAN_1
  6
CONTINUOUS
 10
0.339890
 20
-3.126402
  0
VERTEX
  8
PLAN_1
  6
CONTINUOUS
 10
0.335724
 20
-3.123902
  0
VERTEX
  8
PLAN_1
  6
CONTINUOUS
 10
0.331976
 20
-3.121819
  0
VERTEX
  8
PLAN_1
  6
CONTINUOUS
 10
0.327811
 20
-3.120154
  0
VERTEX
  8
PLAN_1
  6
CONTINUOUS
 10
0.323646
 20
-3.118906
  0
VERTEX
  8
PLAN_1
  6
CONTINUOUS
 10
0.319484
 20
-3.118071
  0
VERTEX
  8
PLAN_1
  6
CONTINUOUS
 10
0.311154
 20
-3.116823
  0
VERTEX
  8
PLAN_1
  6
CONTINUOUS
 10
0.303657
 20
-3.116406
  0
VERTEX
  8
PLAN_1
  6
CONTINUOUS
 10
0.296992
 20
-3.116823
  0
VERTEX
  8
PLAN_1
  6
CONTINUOUS
 10
0.290327
 20
-3.117654
  0
VERTEX
  8
PLAN_1
  6
CONTINUOUS
 10
0.284083
 20
-3.119319
  0
VERTEX
  8
PLAN_1
  6
CONTINUOUS
 10
0.278252
 20
-3.121402
  0
VERTEX
  8
PLAN_1
  6
CONTINUOUS
 10
0.272421
 20
-3.124319
  0
VERTEX
  8
PLAN_1
  6
CONTINUOUS
 10
0.267004
 20
-3.127650
  0
VERTEX
  8
PLAN_1
  6
CONTINUOUS
 10
0.262008
 20
-3.131398
  0
VERTEX
  8
PLAN_1
  6
CONTINUOUS
 10
0.257425
 20
-3.136398
  0
VERTEX
  8
PLAN_1
  6
CONTINUOUS
 10
0.253260
 20
-3.141394
  0
VERTEX
  8
PLAN_1
  6
CONTINUOUS
 10
0.249512
 20
-3.147224
  0
VERTEX
  8
PLAN_1
  6
CONTINUOUS
 10
0.246181
 20
-3.153890
  0
VERTEX
  8
PLAN_1
  6
CONTINUOUS
 10
0.243681
 20
-3.160969
  0
VERTEX
  8
PLAN_1
  6
CONTINUOUS
 10
0.241185
 20
-3.168882
  0
VERTEX
  8
PLAN_1
  6
CONTINUOUS
 10
0.239520
 20
-3.177213
  0
VERTEX
  8
PLAN_1
  6
CONTINUOUS
 10
0.238685
 20
-3.185957
  0
VERTEX
  8
PLAN_1
  6
CONTINUOUS
 10
0.238268
 20
-3.195535
  0
VERTEX
  8
PLAN_1
  6
CONTINUOUS
 10
0.238685
 20
-3.204283
  0
VERTEX
  8
PLAN_1
  6
CONTINUOUS
 10
0.239102
 20
-3.212614
  0
VERTEX
  8
PLAN_1
  6
CONTINUOUS
 10
0.240350
 20
-3.220528
  0
VERTEX
  8
PLAN_1
  6
CONTINUOUS
 10
0.241598
 20
-3.228024
  0
VERTEX
  8
PLAN_1
  6
CONTINUOUS
 10
0.243681
 20
-3.235520
  0
VERTEX
  8
PLAN_1
  6
CONTINUOUS
 10
0.246181
 20
-3.242185
  0
VERTEX
  8
PLAN_1
  6
CONTINUOUS
 10
0.249098
 20
-3.248846
  0
VERTEX
  8
PLAN_1
  6
CONTINUOUS
 10
0.252846
 20
-3.254677
  0
VERTEX
  8
PLAN_1
  6
CONTINUOUS
 10
0.254929
 20
-3.257177
  0
VERTEX
  8
PLAN_1
  6
CONTINUOUS
 10
0.257012
 20
-3.259677
  0
VERTEX
  8
PLAN_1
  6
CONTINUOUS
 10
0.259508
 20
-3.262173
  0
VERTEX
  8
PLAN_1
  6
CONTINUOUS
 10
0.262008
 20
-3.264673
  0
VERTEX
  8
PLAN_1
  6
CONTINUOUS
 10
0.264508
 20
-3.266756
  0
VERTEX
  8
PLAN_1
  6
CONTINUOUS
 10
0.267421
 20
-3.268839
  0
VERTEX
  8
PLAN_1
  6
CONTINUOUS
 10
0.270339
 20
-3.270504
  0
VERTEX
  8
PLAN_1
  6
CONTINUOUS
 10
0.273252
 20
-3.272169
  0
VERTEX
  8
PLAN_1
  6
CONTINUOUS
 10
0.276587
 20
-3.273421
  0
VERTEX
  8
PLAN_1
  6
CONTINUOUS
 10
0.279917
 20
-3.274669
  0
VERTEX
  8
PLAN_1
  6
CONTINUOUS
 10
0.283665
 20
-3.275917
  0
VERTEX
  8
PLAN_1
  6
CONTINUOUS
 10
0.287413
 20
-3.276752
  0
VERTEX
  8
PLAN_1
  6
CONTINUOUS
 10
0.291579
 20
-3.277583
  0
VERTEX
  8
PLAN_1
  6
CONTINUOUS
 10
0.295744
 20
-3.278000
  0
VERTEX
  8
PLAN_1
  6
CONTINUOUS
 10
0.299909
 20
-3.278417
  0
VERTEX
  8
PLAN_1
  6
CONTINUOUS
 10
0.304488
 20
-3.278417
  0
VERTEX
  8
PLAN_1
  6
CONTINUOUS
 10
0.307823
 20
-3.278417
  0
VERTEX
  8
PLAN_1
  6
CONTINUOUS
 10
0.311571
 20
-3.278000
  0
VERTEX
  8
PLAN_1
  6
CONTINUOUS
 10
0.315319
 20
-3.277169
  0
VERTEX
  8
PLAN_1
  6
CONTINUOUS
 10
0.319484
 20
-3.276335
  0
VERTEX
  8
PLAN_1
  6
CONTINUOUS
 10
0.323646
 20
-3.275087
  0
VERTEX
  8
PLAN_1
  6
CONTINUOUS
 10
0.327811
 20
-3.273421
  0
VERTEX
  8
PLAN_1
  6
CONTINUOUS
 10
0.331976
 20
-3.271339
  0
VERTEX
  8
PLAN_1
  6
CONTINUOUS
 10
0.336142
 20
-3.268421
  0
VERTEX
  8
PLAN_1
  6
CONTINUOUS
 10
0.339890
 20
-3.265091
  0
VERTEX
  8
PLAN_1
  6
CONTINUOUS
 10
0.344055
 20
-3.261343
  0
VERTEX
  8
PLAN_1
  6
CONTINUOUS
 10
0.347386
 20
-3.257177
  0
VERTEX
  8
PLAN_1
  6
CONTINUOUS
 10
0.351134
 20
-3.251764
  0
VERTEX
  8
PLAN_1
  6
CONTINUOUS
 10
0.354051
 20
-3.245933
  0
VERTEX
  8
PLAN_1
  6
CONTINUOUS
 10
0.356965
 20
-3.239268
  0
VERTEX
  8
PLAN_1
  6
CONTINUOUS
 10
0.359465
 20
-3.232189
  0
VERTEX
  8
PLAN_1
  6
CONTINUOUS
 10
0.361130
 20
-3.223858
  0
VERTEX
  8
PLAN_1
  6
CONTINUOUS
 10
0.387370
 20
-3.223858
  0
VERTEX
  8
PLAN_1
  6
CONTINUOUS
 10
0.386118
 20
-3.230524
  0
VERTEX
  8
PLAN_1
  6
CONTINUOUS
 10
0.384870
 20
-3.237185
  0
VERTEX
  8
PLAN_1
  6
CONTINUOUS
 10
0.383205
 20
-3.243016
  0
VERTEX
  8
PLAN_1
  6
CONTINUOUS
 10
0.381122
 20
-3.248846
  0
VERTEX
  8
PLAN_1
  6
CONTINUOUS
 10
0.379039
 20
-3.253846
  0
VERTEX
  8
PLAN_1
  6
CONTINUOUS
 10
0.376539
 20
-3.258843
  0
VERTEX
  8
PLAN_1
  6
CONTINUOUS
 10
0.374043
 20
-3.263425
  0
VERTEX
  8
PLAN_1
  6
CONTINUOUS
 10
0.371126
 20
-3.267591
  0
VERTEX
  8
PLAN_1
  6
CONTINUOUS
 10
0.368213
 20
-3.271752
  0
VERTEX
  8
PLAN_1
  6
CONTINUOUS
 10
0.365295
 20
-3.275500
  0
VERTEX
  8
PLAN_1
  6
CONTINUOUS
 10
0.361965
 20
-3.278835
  0
VERTEX
  8
PLAN_1
  6
CONTINUOUS
 10
0.359047
 20
-3.281748
  0
VERTEX
  8
PLAN_1
  6
CONTINUOUS
 10
0.355717
 20
-3.284248
  0
VERTEX
  8
PLAN_1
  6
CONTINUOUS
 10
0.352386
 20
-3.287161
  0
VERTEX
  8
PLAN_1
  6
CONTINUOUS
 10
0.348638
 20
-3.289244
  0
VERTEX
  8
PLAN_1
  6
CONTINUOUS
 10
0.345303
 20
-3.291327
  0
VERTEX
  8
PLAN_1
  6
CONTINUOUS
 10
0.338224
 20
-3.294661
  0
VERTEX
  8
PLAN_1
  6
CONTINUOUS
 10
0.331559
 20
-3.297157
  0
VERTEX
  8
PLAN_1
  6
CONTINUOUS
 10
0.324898
 20
-3.299240
  0
VERTEX
  8
PLAN_1
  6
CONTINUOUS
 10
0.318650
 20
-3.300492
  0
VERTEX
  8
PLAN_1
  6
CONTINUOUS
 10
0.307823
 20
-3.302157
  0
VERTEX
  8
PLAN_1
  6
CONTINUOUS
 10
0.300323
 20
-3.302157
  0
VERTEX
  8
PLAN_1
  6
CONTINUOUS
 10
0.291996
 20
-3.302157
  0
VERTEX
  8
PLAN_1
  6
CONTINUOUS
 10
0.283248
 20
-3.300906
  0
VERTEX
  8
PLAN_1
  6
CONTINUOUS
 10
0.275335
 20
-3.299240
  0
VERTEX
  8
PLAN_1
  6
CONTINUOUS
 10
0.267004
 20
-3.296327
  0
VERTEX
  8
PLAN_1
  6
CONTINUOUS
 10
0.263256
 20
-3.295075
  0
VERTEX
  8
PLAN_1
  6
CONTINUOUS
 10
0.259508
 20
-3.292996
  0
VERTEX
  8
PLAN_1
  6
CONTINUOUS
 10
0.255760
 20
-3.291327
  0
VERTEX
  8
PLAN_1
  6
CONTINUOUS
 10
0.252012
 20
-3.288831
  0
VERTEX
  8
PLAN_1
  6
CONTINUOUS
 10
0.248264
 20
-3.286748
  0
VERTEX
  8
PLAN_1
  6
CONTINUOUS
 10
0.244933
 20
-3.283831
  0
VERTEX
  8
PLAN_1
  6
CONTINUOUS
 10
0.241598
 20
-3.280917
  0
VERTEX
  8
PLAN_1
  6
CONTINUOUS
 10
0.238685
 20
-3.278000
  0
VERTEX
  8
PLAN_1
  6
CONTINUOUS
 10
0.235354
 20
-3.274669
  0
VERTEX
  8
PLAN_1
  6
CONTINUOUS
 10
0.232437
 20
-3.271339
  0
VERTEX
  8
PLAN_1
  6
CONTINUOUS
 10
0.229524
 20
-3.267591
  0
VERTEX
  8
PLAN_1
  6
CONTINUOUS
 10
0.227024
 20
-3.263425
  0
VERTEX
  8
PLAN_1
  6
CONTINUOUS
 10
0.224524
 20
-3.259260
  0
VERTEX
  8
PLAN_1
  6
CONTINUOUS
 10
0.222441
 20
-3.254677
  0
VERTEX
  8
PLAN_1
  6
CONTINUOUS
 10
0.220358
 20
-3.250094
  0
VERTEX
  8
PLAN_1
  6
CONTINUOUS
 10
0.218276
 20
-3.245098
  0
VERTEX
  8
PLAN_1
  6
CONTINUOUS
 10
0.216610
 20
-3.240102
  0
VERTEX
  8
PLAN_1
  6
CONTINUOUS
 10
0.214945
 20
-3.234685
  0
VERTEX
  8
PLAN_1
  6
CONTINUOUS
 10
0.213697
 20
-3.228854
  0
VERTEX
  8
PLAN_1
  6
CONTINUOUS
 10
0.212445
 20
-3.223024
  0
VERTEX
  8
PLAN_1
  6
CONTINUOUS
 10
0.211614
 20
-3.216780
  0
VERTEX
  8
PLAN_1
  6
CONTINUOUS
 10
0.211197
 20
-3.210114
  0
VERTEX
  8
PLAN_1
  6
CONTINUOUS
 10
0.210780
 20
-3.203449
  0
VERTEX
  8
PLAN_1
  6
CONTINUOUS
 10
0.210780
 20
-3.196370
  0
VERTEX
  8
PLAN_1
  6
CONTINUOUS
 10
0.210780
 20
-3.190539
  0
VERTEX
  8
PLAN_1
  6
CONTINUOUS
 10
0.211197
 20
-3.185126
  0
VERTEX
  8
PLAN_1
  6
CONTINUOUS
 10
0.211614
 20
-3.179713
  0
VERTEX
  8
PLAN_1
  6
CONTINUOUS
 10
0.212031
 20
-3.174295
  0
VERTEX
  8
PLAN_1
  6
CONTINUOUS
 10
0.213280
 20
-3.168882
  0
VERTEX
  8
PLAN_1
  6
CONTINUOUS
 10
0.214114
 20
-3.163886
  0
VERTEX
  8
PLAN_1
  6
CONTINUOUS
 10
0.215362
 20
-3.158886
  0
VERTEX
  8
PLAN_1
  6
CONTINUOUS
 10
0.217028
 20
-3.154307
  0
VERTEX
  8
PLAN_1
  6
CONTINUOUS
 10
0.218693
 20
-3.149724
  0
VERTEX
  8
PLAN_1
  6
CONTINUOUS
 10
0.220358
 20
-3.145142
  0
VERTEX
  8
PLAN_1
  6
CONTINUOUS
 10
0.222441
 20
-3.140563
  0
VERTEX
  8
PLAN_1
  6
CONTINUOUS
 10
0.224941
 20
-3.136398
  0
VERTEX
  8
PLAN_1
  6
CONTINUOUS
 10
0.227024
 20
-3.132650
  0
VERTEX
  8
PLAN_1
  6
CONTINUOUS
 10
0.229524
 20
-3.128484
  0
VERTEX
  8
PLAN_1
  6
CONTINUOUS
 10
0.232437
 20
-3.124736
  0
VERTEX
  8
PLAN_1
  6
CONTINUOUS
 10
0.235354
 20
-3.121402
  0
VERTEX
  8
PLAN_1
  6
CONTINUOUS
 10
0.238268
 20
-3.118071
  0
VERTEX
  8
PLAN_1
  6
CONTINUOUS
 10
0.241598
 20
-3.114740
  0
VERTEX
  8
PLAN_1
  6
CONTINUOUS
 10
0.244933
 20
-3.111823
  0
VERTEX
  8
PLAN_1
  6
CONTINUOUS
 10
0.248681
 20
-3.109327
  0
VERTEX
  8
PLAN_1
  6
CONTINUOUS
 10
0.252429
 20
-3.106409
  0
VERTEX
  8
PLAN_1
  6
CONTINUOUS
 10
0.256177
 20
-3.104327
  0
VERTEX
  8
PLAN_1
  6
CONTINUOUS
 10
0.260343
 20
-3.102244
  0
VERTEX
  8
PLAN_1
  6
CONTINUOUS
 10
0.264508
 20
-3.100161
  0
VERTEX
  8
PLAN_1
  6
CONTINUOUS
 10
0.269087
 20
-3.098496
  0
VERTEX
  8
PLAN_1
  6
CONTINUOUS
 10
0.273669
 20
-3.096831
  0
VERTEX
  8
PLAN_1
  6
CONTINUOUS
 10
0.278252
 20
-3.095583
  0
VERTEX
  8
PLAN_1
  6
CONTINUOUS
 10
0.282831
 20
-3.094331
  0
VERTEX
  8
PLAN_1
  6
CONTINUOUS
 10
0.287831
 20
-3.093500
  0
VERTEX
  8
PLAN_1
  6
CONTINUOUS
 10
0.292827
 20
-3.093083
  0
VERTEX
  8
PLAN_1
  6
CONTINUOUS
 10
0.298240
 20
-3.092665
  0
VERTEX
  8
PLAN_1
  6
CONTINUOUS
 10
0.303657
 20
-3.092665
  0
VERTEX
  8
PLAN_1
  6
CONTINUOUS
 10
0.312819
 20
-3.092665
  0
VERTEX
  8
PLAN_1
  6
CONTINUOUS
 10
0.321563
 20
-3.093913
  0
VERTEX
  8
PLAN_1
  6
CONTINUOUS
 10
0.329894
 20
-3.095583
  0
VERTEX
  8
PLAN_1
  6
CONTINUOUS
 10
0.337390
 20
-3.098079
  0
VERTEX
  8
PLAN_1
  6
CONTINUOUS
 10
0.344472
 20
-3.100996
  0
VERTEX
  8
PLAN_1
  6
CONTINUOUS
 10
0.351134
 20
-3.104327
  0
VERTEX
  8
PLAN_1
  6
CONTINUOUS
 10
0.356965
 20
-3.108075
  0
VERTEX
  8
PLAN_1
  6
CONTINUOUS
 10
0.362382
 20
-3.112657
  0
VERTEX
  8
PLAN_1
  6
CONTINUOUS
 10
0.366961
 20
-3.117240
  0
VERTEX
  8
PLAN_1
  6
CONTINUOUS
 10
0.371543
 20
-3.122654
  0
VERTEX
  8
PLAN_1
  6
CONTINUOUS
 10
0.375291
 20
-3.127650
  0
VERTEX
  8
PLAN_1
  6
CONTINUOUS
 10
0.378205
 20
-3.133480
  0
VERTEX
  8
PLAN_1
  6
CONTINUOUS
 10
0.380705
 20
-3.139311
  0
VERTEX
  8
PLAN_1
  6
CONTINUOUS
 10
0.382787
 20
-3.145559
  0
VERTEX
  8
PLAN_1
  6
CONTINUOUS
 10
0.384453
 20
-3.151390
  0
VERTEX
  8
PLAN_1
  6
CONTINUOUS
 10
0.385287
 20
-3.157638
  0
VERTEX
  8
PLAN_1
  6
CONTINUOUS
 10
0.359465
 20
-3.157638
  0
SEQEND
  8
0
  0
POLYLINE
  8
PLAN_1
  6
CONTINUOUS
 66
     1
 40
0.003000
 41
0.003000
  0
VERTEX
  8
PLAN_1
  6
CONTINUOUS
 10
0.446925
 20
-3.297157
  0
VERTEX
  8
PLAN_1
  6
CONTINUOUS
 10
0.419854
 20
-3.297157
  0
VERTEX
  8
PLAN_1
  6
CONTINUOUS
 10
0.419854
 20
-3.097665
  0
VERTEX
  8
PLAN_1
  6
CONTINUOUS
 10
0.446925
 20
-3.097665
  0
VERTEX
  8
PLAN_1
  6
CONTINUOUS
 10
0.446925
 20
-3.194287
  0
VERTEX
  8
PLAN_1
  6
CONTINUOUS
 10
0.543551
 20
-3.097665
  0
VERTEX
  8
PLAN_1
  6
CONTINUOUS
 10
0.580618
 20
-3.097665
  0
VERTEX
  8
PLAN_1
  6
CONTINUOUS
 10
0.497736
 20
-3.178461
  0
VERTEX
  8
PLAN_1
  6
CONTINUOUS
 10
0.582701
 20
-3.297157
  0
VERTEX
  8
PLAN_1
  6
CONTINUOUS
 10
0.547717
 20
-3.297157
  0
VERTEX
  8
PLAN_1
  6
CONTINUOUS
 10
0.478161
 20
-3.197205
  0
VERTEX
  8
PLAN_1
  6
CONTINUOUS
 10
0.446925
 20
-3.227189
  0
VERTEX
  8
PLAN_1
  6
CONTINUOUS
 10
0.446925
 20
-3.297157
  0
SEQEND
  8
0
  0
POLYLINE
  8
PLAN_1
  6
CONTINUOUS
 66
     1
 40
0.003000
 41
0.003000
  0
VERTEX
  8
PLAN_1
  6
CONTINUOUS
 10
0.755122
 20
-3.297157
  0
VERTEX
  8
PLAN_1
  6
CONTINUOUS
 10
0.608106
 20
-3.297157
  0
VERTEX
  8
PLAN_1
  6
CONTINUOUS
 10
0.608106
 20
-3.097665
  0
VERTEX
  8
PLAN_1
  6
CONTINUOUS
 10
0.753039
 20
-3.097665
  0
VERTEX
  8
PLAN_1
  6
CONTINUOUS
 10
0.753039
 20
-3.121819
  0
VERTEX
  8
PLAN_1
  6
CONTINUOUS
 10
0.634760
 20
-3.121819
  0
VERTEX
  8
PLAN_1
  6
CONTINUOUS
 10
0.634760
 20
-3.182626
  0
VERTEX
  8
PLAN_1
  6
CONTINUOUS
 10
0.743878
 20
-3.182626
  0
VERTEX
  8
PLAN_1
  6
CONTINUOUS
 10
0.743878
 20
-3.206366
  0
VERTEX
  8
PLAN_1
  6
CONTINUOUS
 10
0.634760
 20
-3.206366
  0
VERTEX
  8
PLAN_1
  6
CONTINUOUS
 10
0.634760
 20
-3.273004
  0
VERTEX
  8
PLAN_1
  6
CONTINUOUS
 10
0.755122
 20
-3.273004
  0
VERTEX
  8
PLAN_1
  6
CONTINUOUS
 10
0.755122
 20
-3.297157
  0
SEQEND
  8
0
  0
POLYLINE
  8
PLAN_1
  6
CONTINUOUS
 66
     1
 40
0.003000
 41
0.003000
  0
VERTEX
  8
PLAN_1
  6
CONTINUOUS
 10
0.885067
 20
-3.153890
  0
VERTEX
  8
PLAN_1
  6
CONTINUOUS
 10
0.883402
 20
-3.147642
  0
VERTEX
  8
PLAN_1
  6
CONTINUOUS
 10
0.881319
 20
-3.141811
  0
VERTEX
  8
PLAN_1
  6
CONTINUOUS
 10
0.880067
 20
-3.139311
  0
VERTEX
  8
PLAN_1
  6
CONTINUOUS
 10
0.878819
 20
-3.136815
  0
VERTEX
  8
PLAN_1
  6
CONTINUOUS
 10
0.876736
 20
-3.134315
  0
VERTEX
  8
PLAN_1
  6
CONTINUOUS
 10
0.875071
 20
-3.132232
  0
VERTEX
  8
PLAN_1
  6
CONTINUOUS
 10
0.872988
 20
-3.130567
  0
VERTEX
  8
PLAN_1
  6
CONTINUOUS
 10
0.870488
 20
-3.128902
  0
VERTEX
  8
PLAN_1
  6
CONTINUOUS
 10
0.867992
 20
-3.127232
  0
VERTEX
  8
PLAN_1
  6
CONTINUOUS
 10
0.865075
 20
-3.125984
  0
VERTEX
  8
PLAN_1
  6
CONTINUOUS
 10
0.862161
 20
-3.125150
  0
VERTEX
  8
PLAN_1
  6
CONTINUOUS
 10
0.858827
 20
-3.124319
  0
VERTEX
  8
PLAN_1
  6
CONTINUOUS
 10
0.855079
 20
-3.123902
  0
VERTEX
  8
PLAN_1
  6
CONTINUOUS
 10
0.851331
 20
-3.123902
  0
VERTEX
  8
PLAN_1
  6
CONTINUOUS
 10
0.848000
 20
-3.123902
  0
VERTEX
  8
PLAN_1
  6
CONTINUOUS
 10
0.844669
 20
-3.124319
  0
VERTEX
  8
PLAN_1
  6
CONTINUOUS
 10
0.841335
 20
-3.125150
  0
VERTEX
  8
PLAN_1
  6
CONTINUOUS
 10
0.838421
 20
-3.125984
  0
VERTEX
  8
PLAN_1
  6
CONTINUOUS
 10
0.835504
 20
-3.127232
  0
VERTEX
  8
PLAN_1
  6
CONTINUOUS
 10
0.833008
 20
-3.128902
  0
VERTEX
  8
PLAN_1
  6
CONTINUOUS
 10
0.830508
 20
-3.130567
  0
VERTEX
  8
PLAN_1
  6
CONTINUOUS
 10
0.828008
 20
-3.132232
  0
VERTEX
  8
PLAN_1
  6
CONTINUOUS
 10
0.823843
 20
-3.136398
  0
VERTEX
  8
PLAN_1
  6
CONTINUOUS
 10
0.820094
 20
-3.141394
  0
VERTEX
  8
PLAN_1
  6
CONTINUOUS
 10
0.816764
 20
-3.146394
  0
VERTEX
  8
PLAN_1
  6
CONTINUOUS
 10
0.813846
 20
-3.152224
  0
VERTEX
  8
PLAN_1
  6
CONTINUOUS
 10
0.811764
 20
-3.158055
  0
VERTEX
  8
PLAN_1
  6
CONTINUOUS
 10
0.809681
 20
-3.164299
  0
VERTEX
  8
PLAN_1
  6
CONTINUOUS
 10
0.808016
 20
-3.170130
  0
VERTEX
  8
PLAN_1
  6
CONTINUOUS
 10
0.806768
 20
-3.175961
  0
VERTEX
  8
PLAN_1
  6
CONTINUOUS
 10
0.805933
 20
-3.181791
  0
VERTEX
  8
PLAN_1
  6
CONTINUOUS
 10
0.805520
 20
-3.187209
  0
VERTEX
  8
PLAN_1
  6
CONTINUOUS
 10
0.805102
 20
-3.191787
  0
VERTEX
  8
PLAN_1
  6
CONTINUOUS
 10
0.805102
 20
-3.195953
  0
VERTEX
  8
PLAN_1
  6
CONTINUOUS
 10
0.805520
 20
-3.196370
  0
VERTEX
  8
PLAN_1
  6
CONTINUOUS
 10
0.808433
 20
-3.192622
  0
VERTEX
  8
PLAN_1
  6
CONTINUOUS
 10
0.811764
 20
-3.188457
  0
VERTEX
  8
PLAN_1
  6
CONTINUOUS
 10
0.815929
 20
-3.184291
  0
VERTEX
  8
PLAN_1
  6
CONTINUOUS
 10
0.820929
 20
-3.180543
  0
VERTEX
  8
PLAN_1
  6
CONTINUOUS
 10
0.823843
 20
-3.178878
  0
VERTEX
  8
PLAN_1
  6
CONTINUOUS
 10
0.827177
 20
-3.177630
  0
VERTEX
  8
PLAN_1
  6
CONTINUOUS
 10
0.830508
 20
-3.175961
  0
VERTEX
  8
PLAN_1
  6
CONTINUOUS
 10
0.834256
 20
-3.175130
  0
VERTEX
  8
PLAN_1
  6
CONTINUOUS
 10
0.838421
 20
-3.173882
  0
VERTEX
  8
PLAN_1
  6
CONTINUOUS
 10
0.842587
 20
-3.173465
  0
VERTEX
  8
PLAN_1
  6
CONTINUOUS
 10
0.847165
 20
-3.173047
  0
VERTEX
  8
PLAN_1
  6
CONTINUOUS
 10
0.852165
 20
-3.172630
  0
VERTEX
  8
PLAN_1
  6
CONTINUOUS
 10
0.856744
 20
-3.173047
  0
VERTEX
  8
PLAN_1
  6
CONTINUOUS
 10
0.861327
 20
-3.173465
  0
VERTEX
  8
PLAN_1
  6
CONTINUOUS
 10
0.866323
 20
-3.174295
  0
VERTEX
  8
PLAN_1
  6
CONTINUOUS
 10
0.871740
 20
-3.175961
  0
VERTEX
  8
PLAN_1
  6
CONTINUOUS
 10
0.876736
 20
-3.177630
  0
VERTEX
  8
PLAN_1
  6
CONTINUOUS
 10
0.881736
 20
-3.180126
  0
VERTEX
  8
PLAN_1
  6
CONTINUOUS
 10
0.886732
 20
-3.182626
  0
VERTEX
  8
PLAN_1
  6
CONTINUOUS
 10
0.891315
 20
-3.185957
  0
VERTEX
  8
PLAN_1
  6
CONTINUOUS
 10
0.895894
 20
-3.190122
  0
VERTEX
  8
PLAN_1
  6
CONTINUOUS
 10
0.900059
 20
-3.194705
  0
VERTEX
  8
PLAN_1
  6
CONTINUOUS
 10
0.903807
 20
-3.199701
  0
VERTEX
  8
PLAN_1
  6
CONTINUOUS
 10
0.906724
 20
-3.205118
  0
VERTEX
  8
PLAN_1
  6
CONTINUOUS
 10
0.909638
 20
-3.211780
  0
VERTEX
  8
PLAN_1
  6
CONTINUOUS
 10
0.911303
 20
-3.218445
  0
VERTEX
  8
PLAN_1
  6
CONTINUOUS
 10
0.912138
 20
-3.222193
  0
VERTEX
  8
PLAN_1
  6
CONTINUOUS
 10
0.912555
 20
-3.226358
  0
VERTEX
  8
PLAN_1
  6
CONTINUOUS
 10
0.912972
 20
-3.230524
  0
VERTEX
  8
PLAN_1
  6
CONTINUOUS
 10
0.912972
 20
-3.234685
  0
VERTEX
  8
PLAN_1
  6
CONTINUOUS
 10
0.912972
 20
-3.241768
  0
VERTEX
  8
PLAN_1
  6
CONTINUOUS
 10
0.912138
 20
-3.248429
  0
VERTEX
  8
PLAN_1
  6
CONTINUOUS
 10
0.910472
 20
-3.255094
  0
VERTEX
  8
PLAN_1
  6
CONTINUOUS
 10
0.908807
 20
-3.260925
  0
VERTEX
  8
PLAN_1
  6
CONTINUOUS
 10
0.906307
 20
-3.266756
  0
VERTEX
  8
PLAN_1
  6
CONTINUOUS
 10
0.902976
 20
-3.272587
  0
VERTEX
  8
PLAN_1
  6
CONTINUOUS
 10
0.899228
 20
-3.278000
  0
VERTEX
  8
PLAN_1
  6
CONTINUOUS
 10
0.894646
 20
-3.283413
  0
VERTEX
  8
PLAN_1
  6
CONTINUOUS
 10
0.890480
 20
-3.287579
  0
VERTEX
  8
PLAN_1
  6
CONTINUOUS
 10
0.886315
 20
-3.291327
  0
VERTEX
  8
PLAN_1
  6
CONTINUOUS
 10
0.881736
 20
-3.294244
  0
VERTEX
  8
PLAN_1
  6
CONTINUOUS
 10
0.876319
 20
-3.297157
  0
VERTEX
  8
PLAN_1
  6
CONTINUOUS
 10
0.870075
 20
-3.299240
  0
VERTEX
  8
PLAN_1
  6
CONTINUOUS
 10
0.862992
 20
-3.300906
  0
VERTEX
  8
PLAN_1
  6
CONTINUOUS
 10
0.854661
 20
-3.302157
  0
VERTEX
  8
PLAN_1
  6
CONTINUOUS
 10
0.845083
 20
-3.302157
  0
VERTEX
  8
PLAN_1
  6
CONTINUOUS
 10
0.839252
 20
-3.302157
  0
VERTEX
  8
PLAN_1
  6
CONTINUOUS
 10
0.833008
 20
-3.300906
  0
VERTEX
  8
PLAN_1
  6
CONTINUOUS
 10
0.826343
 20
-3.299240
  0
VERTEX
  8
PLAN_1
  6
CONTINUOUS
 10
0.819677
 20
-3.296327
  0
VERTEX
  8
PLAN_1
  6
CONTINUOUS
 10
0.816346
 20
-3.294661
  0
VERTEX
  8
PLAN_1
  6
CONTINUOUS
 10
0.813016
 20
-3.292579
  0
VERTEX
  8
PLAN_1
  6
CONTINUOUS
 10
0.809681
 20
-3.290079
  0
VERTEX
  8
PLAN_1
  6
CONTINUOUS
 10
0.806350
 20
-3.287579
  0
VERTEX
  8
PLAN_1
  6
CONTINUOUS
 10
0.803437
 20
-3.284665
  0
VERTEX
  8
PLAN_1
  6
CONTINUOUS
 10
0.800520
 20
-3.281331
  0
VERTEX
  8
PLAN_1
  6
CONTINUOUS
 10
0.797606
 20
-3.278000
  0
VERTEX
  8
PLAN_1
  6
CONTINUOUS
 10
0.794689
 20
-3.273835
  0
VERTEX
  8
PLAN_1
  6
CONTINUOUS
 10
0.792606
 20
-3.270504
  0
VERTEX
  8
PLAN_1
  6
CONTINUOUS
 10
0.790941
 20
-3.266756
  0
VERTEX
  8
PLAN_1
  6
CONTINUOUS
 10
0.789276
 20
-3.263008
  0
VERTEX
  8
PLAN_1
  6
CONTINUOUS
 10
0.787610
 20
-3.259260
  0
VERTEX
  8
PLAN_1
  6
CONTINUOUS
 10
0.785110
 20
-3.251346
  0
VERTEX
  8
PLAN_1
  6
CONTINUOUS
 10
0.783028
 20
-3.243016
  0
VERTEX
  8
PLAN_1
  6
CONTINUOUS
 10
0.781362
 20
-3.234272
  0
VERTEX
  8
PLAN_1
  6
CONTINUOUS
 10
0.780528
 20
-3.225106
  0
VERTEX
  8
PLAN_1
  6
CONTINUOUS
 10
0.780114
 20
-3.215945
  0
VERTEX
  8
PLAN_1
  6
CONTINUOUS
 10
0.779697
 20
-3.206366
  0
VERTEX
  8
PLAN_1
  6
CONTINUOUS
 10
0.780114
 20
-3.198035
  0
VERTEX
  8
PLAN_1
  6
CONTINUOUS
 10
0.780528
 20
-3.189705
  0
VERTEX
  8
PLAN_1
  6
CONTINUOUS
 10
0.781362
 20
-3.180961
  0
VERTEX
  8
PLAN_1
  6
CONTINUOUS
 10
0.783028
 20
-3.171799
  0
VERTEX
  8
PLAN_1
  6
CONTINUOUS
 10
0.784693
 20
-3.163051
  0
VERTEX
  8
PLAN_1
  6
CONTINUOUS
 10
0.787193
 20
-3.154307
  0
VERTEX
  8
PLAN_1
  6
CONTINUOUS
 10
0.790524
 20
-3.145976
  0
VERTEX
  8
PLAN_1
  6
CONTINUOUS
 10
0.793858
 20
-3.138063
  0
VERTEX
  8
PLAN_1
  6
CONTINUOUS
 10
0.796354
 20
-3.134315
  0
VERTEX
  8
PLAN_1
  6
CONTINUOUS
 10
0.798437
 20
-3.130567
  0
VERTEX
  8
PLAN_1
  6
CONTINUOUS
 10
0.800937
 20
-3.127232
  0
VERTEX
  8
PLAN_1
  6
CONTINUOUS
 10
0.803437
 20
-3.123484
  0
VERTEX
  8
PLAN_1
  6
CONTINUOUS
 10
0.806350
 20
-3.120571
  0
VERTEX
  8
PLAN_1
  6
CONTINUOUS
 10
0.809268
 20
-3.117654
  0
VERTEX
  8
PLAN_1
  6
CONTINUOUS
 10
0.812598
 20
-3.114740
  0
VERTEX
  8
PLAN_1
  6
CONTINUOUS
 10
0.815929
 20
-3.112240
  0
VERTEX
  8
PLAN_1
  6
CONTINUOUS
 10
0.819677
 20
-3.109740
  0
VERTEX
  8
PLAN_1
  6
CONTINUOUS
 10
0.823843
 20
-3.108075
  0
VERTEX
  8
PLAN_1
  6
CONTINUOUS
 10
0.827591
 20
-3.105992
  0
VERTEX
  8
PLAN_1
  6
CONTINUOUS
 10
0.832173
 20
-3.104744
  0
VERTEX
  8
PLAN_1
  6
CONTINUOUS
 10
0.836756
 20
-3.103496
  0
VERTEX
  8
PLAN_1
  6
CONTINUOUS
 10
0.841752
 20
-3.102661
  0
VERTEX
  8
PLAN_1
  6
CONTINUOUS
 10
0.846748
 20
-3.102244
  0
VERTEX
  8
PLAN_1
  6
CONTINUOUS
 10
0.852165
 20
-3.101827
  0
VERTEX
  8
PLAN_1
  6
CONTINUOUS
 10
0.856331
 20
-3.102244
  0
VERTEX
  8
PLAN_1
  6
CONTINUOUS
 10
0.860909
 20
-3.102661
  0
VERTEX
  8
PLAN_1
  6
CONTINUOUS
 10
0.865492
 20
-3.103496
  0
VERTEX
  8
PLAN_1
  6
CONTINUOUS
 10
0.870075
 20
-3.104327
  0
VERTEX
  8
PLAN_1
  6
CONTINUOUS
 10
0.874654
 20
-3.105992
  0
VERTEX
  8
PLAN_1
  6
CONTINUOUS
 10
0.879236
 20
-3.108075
  0
VERTEX
  8
PLAN_1
  6
CONTINUOUS
 10
0.883815
 20
-3.110157
  0
VERTEX
  8
PLAN_1
  6
CONTINUOUS
 10
0.887980
 20
-3.113075
  0
VERTEX
  8
PLAN_1
  6
CONTINUOUS
 10
0.892146
 20
-3.116406
  0
VERTEX
  8
PLAN_1
  6
CONTINUOUS
 10
0.895894
 20
-3.120154
  0
VERTEX
  8
PLAN_1
  6
CONTINUOUS
 10
0.899228
 20
-3.124319
  0
VERTEX
  8
PLAN_1
  6
CONTINUOUS
 10
0.902142
 20
-3.128902
  0
VERTEX
  8
PLAN_1
  6
CONTINUOUS
 10
0.904642
 20
-3.134315
  0
VERTEX
  8
PLAN_1
  6
CONTINUOUS
 10
0.906724
 20
-3.140146
  0
VERTEX
  8
PLAN_1
  6
CONTINUOUS
 10
0.907972
 20
-3.146807
  0
VERTEX
  8
PLAN_1
  6
CONTINUOUS
 10
0.908807
 20
-3.153890
  0
VERTEX
  8
PLAN_1
  6
CONTINUOUS
 10
0.885067
 20
-3.153890
  0
SEQEND
  8
0
  0
POLYLINE
  8
PLAN_1
  6
CONTINUOUS
 66
     1
 40
0.003000
 41
0.003000
  0
VERTEX
  8
PLAN_1
  6
CONTINUOUS
 10
0.849665
 20
-3.280500
  0
VERTEX
  8
PLAN_1
  6
CONTINUOUS
 10
0.853831
 20
-3.280083
  0
VERTEX
  8
PLAN_1
  6
CONTINUOUS
 10
0.857996
 20
-3.279665
  0
VERTEX
  8
PLAN_1
  6
CONTINUOUS
 10
0.861744
 20
-3.278417
  0
VERTEX
  8
PLAN_1
  6
CONTINUOUS
 10
0.865492
 20
-3.277169
  0
VERTEX
  8
PLAN_1
  6
CONTINUOUS
 10
0.868823
 20
-3.275500
  0
VERTEX
  8
PLAN_1
  6
CONTINUOUS
 10
0.871740
 20
-3.273004
  0
VERTEX
  8
PLAN_1
  6
CONTINUOUS
 10
0.874654
 20
-3.270921
  0
VERTEX
  8
PLAN_1
  6
CONTINUOUS
 10
0.877571
 20
-3.268004
  0
VERTEX
  8
PLAN_1
  6
CONTINUOUS
 10
0.879654
 20
-3.264673
  0
VERTEX
  8
PLAN_1
  6
CONTINUOUS
 10
0.881736
 20
-3.261343
  0
VERTEX
  8
PLAN_1
  6
CONTINUOUS
 10
0.883402
 20
-3.257594
  0
VERTEX
  8
PLAN_1
  6
CONTINUOUS
 10
0.885067
 20
-3.253846
  0
VERTEX
  8
PLAN_1
  6
CONTINUOUS
 10
0.886315
 20
-3.249681
  0
VERTEX
  8
PLAN_1
  6
CONTINUOUS
 10
0.887150
 20
-3.245098
  0
VERTEX
  8
PLAN_1
  6
CONTINUOUS
 10
0.887567
 20
-3.240516
  0
VERTEX
  8
PLAN_1
  6
CONTINUOUS
 10
0.887980
 20
-3.235520
  0
VERTEX
  8
PLAN_1
  6
CONTINUOUS
 10
0.887567
 20
-3.232602
  0
VERTEX
  8
PLAN_1
  6
CONTINUOUS
 10
0.887150
 20
-3.228854
  0
VERTEX
  8
PLAN_1
  6
CONTINUOUS
 10
0.886732
 20
-3.225524
  0
VERTEX
  8
PLAN_1
  6
CONTINUOUS
 10
0.885898
 20
-3.222193
  0
VERTEX
  8
PLAN_1
  6
CONTINUOUS
 10
0.884650
 20
-3.218445
  0
VERTEX
  8
PLAN_1
  6
CONTINUOUS
 10
0.883402
 20
-3.215110
  0
VERTEX
  8
PLAN_1
  6
CONTINUOUS
 10
0.881736
 20
-3.211780
  0
VERTEX
  8
PLAN_1
  6
CONTINUOUS
 10
0.879236
 20
-3.208866
  0
VERTEX
  8
PLAN_1
  6
CONTINUOUS
 10
0.877154
 20
-3.205949
  0
VERTEX
  8
PLAN_1
  6
CONTINUOUS
 10
0.874236
 20
-3.203035
  0
VERTEX
  8
PLAN_1
  6
CONTINUOUS
 10
0.870906
 20
-3.200535
  0
VERTEX
  8
PLAN_1
  6
CONTINUOUS
 10
0.867157
 20
-3.198453
  0
VERTEX
  8
PLAN_1
  6
CONTINUOUS
 10
0.863409
 20
-3.196787
  0
VERTEX
  8
PLAN_1
  6
CONTINUOUS
 10
0.858827
 20
-3.195535
  0
VERTEX
  8
PLAN_1
  6
CONTINUOUS
 10
0.853831
 20
-3.194705
  0
VERTEX
  8
PLAN_1
  6
CONTINUOUS
 10
0.848417
 20
-3.194705
  0
VERTEX
  8
PLAN_1
  6
CONTINUOUS
 10
0.843417
 20
-3.194705
  0
VERTEX
  8
PLAN_1
  6
CONTINUOUS
 10
0.838839
 20
-3.195535
  0
VERTEX
  8
PLAN_1
  6
CONTINUOUS
 10
0.834673
 20
-3.196787
  0
VERTEX
  8
PLAN_1
  6
CONTINUOUS
 10
0.830925
 20
-3.198035
  0
VERTEX
  8
PLAN_1
  6
CONTINUOUS
 10
0.827177
 20
-3.199701
  0
VERTEX
  8
PLAN_1
  6
CONTINUOUS
 10
0.823843
 20
-3.202201
  0
VERTEX
  8
PLAN_1
  6
CONTINUOUS
 10
0.820929
 20
-3.204283
  0
VERTEX
  8
PLAN_1
  6
CONTINUOUS
 10
0.818429
 20
-3.207197
  0
VERTEX
  8
PLAN_1
  6
CONTINUOUS
 10
0.815929
 20
-3.210114
  0
VERTEX
  8
PLAN_1
  6
CONTINUOUS
 10
0.813846
 20
-3.213445
  0
VERTEX
  8
PLAN_1
  6
CONTINUOUS
 10
0.812181
 20
-3.217193
  0
VERTEX
  8
PLAN_1
  6
CONTINUOUS
 10
0.810933
 20
-3.220941
  0
VERTEX
  8
PLAN_1
  6
CONTINUOUS
 10
0.809681
 20
-3.224689
  0
VERTEX
  8
PLAN_1
  6
CONTINUOUS
 10
0.808850
 20
-3.228854
  0
VERTEX
  8
PLAN_1
  6
CONTINUOUS
 10
0.808433
 20
-3.233020
  0
VERTEX
  8
PLAN_1
  6
CONTINUOUS
 10
0.808433
 20
-3.237185
  0
VERTEX
  8
PLAN_1
  6
CONTINUOUS
 10
0.808433
 20
-3.240933
  0
VERTEX
  8
PLAN_1
  6
CONTINUOUS
 10
0.808850
 20
-3.245098
  0
VERTEX
  8
PLAN_1
  6
CONTINUOUS
 10
0.809681
 20
-3.248846
  0
VERTEX
  8
PLAN_1
  6
CONTINUOUS
 10
0.810933
 20
-3.252594
  0
VERTEX
  8
PLAN_1
  6
CONTINUOUS
 10
0.812181
 20
-3.256343
  0
VERTEX
  8
PLAN_1
  6
CONTINUOUS
 10
0.813846
 20
-3.260091
  0
VERTEX
  8
PLAN_1
  6
CONTINUOUS
 10
0.815929
 20
-3.263425
  0
VERTEX
  8
PLAN_1
  6
CONTINUOUS
 10
0.818429
 20
-3.266339
  0
VERTEX
  8
PLAN_1
  6
CONTINUOUS
 10
0.820929
 20
-3.269669
  0
VERTEX
  8
PLAN_1
  6
CONTINUOUS
 10
0.823843
 20
-3.272169
  0
VERTEX
  8
PLAN_1
  6
CONTINUOUS
 10
0.827177
 20
-3.274669
  0
VERTEX
  8
PLAN_1
  6
CONTINUOUS
 10
0.830925
 20
-3.276752
  0
VERTEX
  8
PLAN_1
  6
CONTINUOUS
 10
0.835087
 20
-3.278000
  0
VERTEX
  8
PLAN_1
  6
CONTINUOUS
 10
0.839669
 20
-3.279252
  0
VERTEX
  8
PLAN_1
  6
CONTINUOUS
 10
0.844252
 20
-3.280083
  0
VERTEX
  8
PLAN_1
  6
CONTINUOUS
 10
0.849665
 20
-3.280500
  0
SEQEND
  8
0
  0
POLYLINE
  8
PLAN_1
  6
CONTINUOUS
 66
     1
 40
0.003000
 41
0.003000
  0
VERTEX
  8
PLAN_1
  6
CONTINUOUS
 10
0.985854
 20
-3.185957
  0
VERTEX
  8
PLAN_1
  6
CONTINUOUS
 10
0.987520
 20
-3.185957
  0
VERTEX
  8
PLAN_1
  6
CONTINUOUS
 10
0.989189
 20
-3.186374
  0
VERTEX
  8
PLAN_1
  6
CONTINUOUS
 10
0.990437
 20
-3.186374
  0
VERTEX
  8
PLAN_1
  6
CONTINUOUS
 10
0.992102
 20
-3.186374
  0
VERTEX
  8
PLAN_1
  6
CONTINUOUS
 10
0.993768
 20
-3.186374
  0
VERTEX
  8
PLAN_1
  6
CONTINUOUS
 10
0.995433
 20
-3.186374
  0
VERTEX
  8
PLAN_1
  6
CONTINUOUS
 10
0.997098
 20
-3.186374
  0
VERTEX
  8
PLAN_1
  6
CONTINUOUS
 10
0.998768
 20
-3.186374
  0
VERTEX
  8
PLAN_1
  6
CONTINUOUS
 10
1.002098
 20
-3.186374
  0
VERTEX
  8
PLAN_1
  6
CONTINUOUS
 10
1.005429
 20
-3.186374
  0
VERTEX
  8
PLAN_1
  6
CONTINUOUS
 10
1.009177
 20
-3.185543
  0
VERTEX
  8
PLAN_1
  6
CONTINUOUS
 10
1.012512
 20
-3.185126
  0
VERTEX
  8
PLAN_1
  6
CONTINUOUS
 10
1.015425
 20
-3.184291
  0
VERTEX
  8
PLAN_1
  6
CONTINUOUS
 10
1.018756
 20
-3.183043
  0
VERTEX
  8
PLAN_1
  6
CONTINUOUS
 10
1.021673
 20
-3.181378
  0
VERTEX
  8
PLAN_1
  6
CONTINUOUS
 10
1.024173
 20
-3.179713
  0
VERTEX
  8
PLAN_1
  6
CONTINUOUS
 10
1.026669
 20
-3.177630
  0
VERTEX
  8
PLAN_1
  6
CONTINUOUS
 10
1.029169
 20
-3.175547
  0
VERTEX
  8
PLAN_1
  6
CONTINUOUS
 10
1.030835
 20
-3.173047
  0
VERTEX
  8
PLAN_1
  6
CONTINUOUS
 10
1.032500
 20
-3.170130
  0
VERTEX
  8
PLAN_1
  6
CONTINUOUS
 10
1.034165
 20
-3.166799
  0
VERTEX
  8
PLAN_1
  6
CONTINUOUS
 10
1.035000
 20
-3.163051
  0
VERTEX
  8
PLAN_1
  6
CONTINUOUS
 10
1.035417
 20
-3.158886
  0
VERTEX
  8
PLAN_1
  6
CONTINUOUS
 10
1.035835
 20
-3.154720
  0
VERTEX
  8
PLAN_1
  6
CONTINUOUS
 10
1.035417
 20
-3.150142
  0
VERTEX
  8
PLAN_1
  6
CONTINUOUS
 10
1.034165
 20
-3.144724
  0
VERTEX
  8
PLAN_1
  6
CONTINUOUS
 10
1.033335
 20
-3.142228
  0
VERTEX
  8
PLAN_1
  6
CONTINUOUS
 10
1.032087
 20
-3.139728
  0
VERTEX
  8
PLAN_1
  6
CONTINUOUS
 10
1.030417
 20
-3.137228
  0
VERTEX
  8
PLAN_1
  6
CONTINUOUS
 10
1.028752
 20
-3.134732
  0
VERTEX
  8
PLAN_1
  6
CONTINUOUS
 10
1.026669
 20
-3.132650
  0
VERTEX
  8
PLAN_1
  6
CONTINUOUS
 10
1.023756
 20
-3.130567
  0
VERTEX
  8
PLAN_1
  6
CONTINUOUS
 10
1.020839
 20
-3.128484
  0
VERTEX
  8
PLAN_1
  6
CONTINUOUS
 10
1.017508
 20
-3.127232
  0
VERTEX
  8
PLAN_1
  6
CONTINUOUS
 10
1.013760
 20
-3.125567
  0
VERTEX
  8
PLAN_1
  6
CONTINUOUS
 10
1.009594
 20
-3.124736
  0
VERTEX
  8
PLAN_1
  6
CONTINUOUS
 10
1.005012
 20
-3.123902
  0
VERTEX
  8
PLAN_1
  6
CONTINUOUS
 10
0.999598
 20
-3.123902
  0
VERTEX
  8
PLAN_1
  6
CONTINUOUS
 10
0.993768
 20
-3.124319
  0
VERTEX
  8
PLAN_1
  6
CONTINUOUS
 10
0.987937
 20
-3.125150
  0
VERTEX
  8
PLAN_1
  6
CONTINUOUS
 10
0.983358
 20
-3.126402
  0
VERTEX
  8
PLAN_1
  6
CONTINUOUS
 10
0.979193
 20
-3.128484
  0
VERTEX
  8
PLAN_1
  6
CONTINUOUS
 10
0.975858
 20
-3.130980
  0
VERTEX
  8
PLAN_1
  6
CONTINUOUS
 10
0.972528
 20
-3.133480
  0
VERTEX
  8
PLAN_1
  6
CONTINUOUS
 10
0.970028
 20
-3.136398
  0
VERTEX
  8
PLAN_1
  6
CONTINUOUS
 10
0.967945
 20
-3.139728
  0
VERTEX
  8
PLAN_1
  6
CONTINUOUS
 10
0.966280
 20
-3.143059
  0
VERTEX
  8
PLAN_1
  6
CONTINUOUS
 10
0.965031
 20
-3.146394
  0
VERTEX
  8
PLAN_1
  6
CONTINUOUS
 10
0.963783
 20
-3.150142
  0
VERTEX
  8
PLAN_1
  6
CONTINUOUS
 10
0.963366
 20
-3.153472
  0
VERTEX
  8
PLAN_1
  6
CONTINUOUS
 10
0.962114
 20
-3.160138
  0
VERTEX
  8
PLAN_1
  6
CONTINUOUS
 10
0.961701
 20
-3.165969
  0
VERTEX
  8
PLAN_1
  6
CONTINUOUS
 10
0.937961
 20
-3.165969
  0
VERTEX
  8
PLAN_1
  6
CONTINUOUS
 10
0.937961
 20
-3.160138
  0
VERTEX
  8
PLAN_1
  6
CONTINUOUS
 10
0.938378
 20
-3.154720
  0
VERTEX
  8
PLAN_1
  6
CONTINUOUS
 10
0.939209
 20
-3.149307
  0
VERTEX
  8
PLAN_1
  6
CONTINUOUS
 10
0.940457
 20
-3.143894
  0
VERTEX
  8
PLAN_1
  6
CONTINUOUS
 10
0.942126
 20
-3.138480
  0
VERTEX
  8
PLAN_1
  6
CONTINUOUS
 10
0.944209
 20
-3.133063
  0
VERTEX
  8
PLAN_1
  6
CONTINUOUS
 10
0.946705
 20
-3.128067
  0
VERTEX
  8
PLAN_1
  6
CONTINUOUS
 10
0.950039
 20
-3.123071
  0
VERTEX
  8
PLAN_1
  6
CONTINUOUS
 10
0.953787
 20
-3.118488
  0
VERTEX
  8
PLAN_1
  6
CONTINUOUS
 10
0.958366
 20
-3.114740
  0
VERTEX
  8
PLAN_1
  6
CONTINUOUS
 10
0.963366
 20
-3.110992
  0
VERTEX
  8
PLAN_1
  6
CONTINUOUS
 10
0.969197
 20
-3.108075
  0
VERTEX
  8
PLAN_1
  6
CONTINUOUS
 10
0.972528
 20
-3.106409
  0
VERTEX
  8
PLAN_1
  6
CONTINUOUS
 10
0.975858
 20
-3.105579
  0
VERTEX
  8
PLAN_1
  6
CONTINUOUS
 10
0.979606
 20
-3.104327
  0
VERTEX
  8
PLAN_1
  6
CONTINUOUS
 10
0.983358
 20
-3.103496
  0
VERTEX
  8
PLAN_1
  6
CONTINUOUS
 10
0.987520
 20
-3.102661
  0
VERTEX
  8
PLAN_1
  6
CONTINUOUS
 10
0.991685
 20
-3.102244
  0
VERTEX
  8
PLAN_1
  6
CONTINUOUS
 10
0.996268
 20
-3.102244
  0
VERTEX
  8
PLAN_1
  6
CONTINUOUS
 10
1.000850
 20
-3.101827
  0
VERTEX
  8
PLAN_1
  6
CONTINUOUS
 10
1.007512
 20
-3.102244
  0
VERTEX
  8
PLAN_1
  6
CONTINUOUS
 10
1.014177
 20
-3.103079
  0
VERTEX
  8
PLAN_1
  6
CONTINUOUS
 10
1.020425
 20
-3.104327
  0
VERTEX
  8
PLAN_1
  6
CONTINUOUS
 10
1.026256
 20
-3.105579
  0
VERTEX
  8
PLAN_1
  6
CONTINUOUS
 10
1.031669
 20
-3.108075
  0
VERTEX
  8
PLAN_1
  6
CONTINUOUS
 10
1.036248
 20
-3.110157
  0
VERTEX
  8
PLAN_1
  6
CONTINUOUS
 10
1.040831
 20
-3.113075
  0
VERTEX
  8
PLAN_1
  6
CONTINUOUS
 10
1.044996
 20
-3.116406
  0
VERTEX
  8
PLAN_1
  6
CONTINUOUS
 10
1.048744
 20
-3.120154
  0
VERTEX
  8
PLAN_1
  6
CONTINUOUS
 10
1.052075
 20
-3.123902
  0
VERTEX
  8
PLAN_1
  6
CONTINUOUS
 10
1.054575
 20
-3.128067
  0
VERTEX
  8
PLAN_1
  6
CONTINUOUS
 10
1.057075
 20
-3.132650
  0
VERTEX
  8
PLAN_1
  6
CONTINUOUS
 10
1.058740
 20
-3.137646
  0
VERTEX
  8
PLAN_1
  6
CONTINUOUS
 10
1.059988
 20
-3.142646
  0
VERTEX
  8
PLAN_1
  6
CONTINUOUS
 10
1.060823
 20
-3.147642
  0
VERTEX
  8
PLAN_1
  6
CONTINUOUS
 10
1.061240
 20
-3.153472
  0
VERTEX
  8
PLAN_1
  6
CONTINUOUS
 10
1.060823
 20
-3.157638
  0
VERTEX
  8
PLAN_1
  6
CONTINUOUS
 10
1.060406
 20
-3.162217
  0
VERTEX
  8
PLAN_1
  6
CONTINUOUS
 10
1.059571
 20
-3.165969
  0
VERTEX
  8
PLAN_1
  6
CONTINUOUS
 10
1.058740
 20
-3.169717
  0
VERTEX
  8
PLAN_1
  6
CONTINUOUS
 10
1.057492
 20
-3.173047
  0
VERTEX
  8
PLAN_1
  6
CONTINUOUS
 10
1.055823
 20
-3.175961
  0
VERTEX
  8
PLAN_1
  6
CONTINUOUS
 10
1.054157
 20
-3.178878
  0
VERTEX
  8
PLAN_1
  6
CONTINUOUS
 10
1.052492
 20
-3.181378
  0
VERTEX
  8
PLAN_1
  6
CONTINUOUS
 10
1.050409
 20
-3.183874
  0
VERTEX
  8
PLAN_1
  6
CONTINUOUS
 10
1.048744
 20
-3.185957
  0
VERTEX
  8
PLAN_1
  6
CONTINUOUS
 10
1.046661
 20
-3.187622
  0
VERTEX
  8
PLAN_1
  6
CONTINUOUS
 10
1.044579
 20
-3.189291
  0
VERTEX
  8
PLAN_1
  6
CONTINUOUS
 10
1.039996
 20
-3.191787
  0
VERTEX
  8
PLAN_1
  6
CONTINUOUS
 10
1.036248
 20
-3.193453
  0
VERTEX
  8
PLAN_1
  6
CONTINUOUS
 10
1.036248
 20
-3.193870
  0
VERTEX
  8
PLAN_1
  6
CONTINUOUS
 10
1.039583
 20
-3.195122
  0
VERTEX
  8
PLAN_1
  6
CONTINUOUS
 10
1.042913
 20
-3.196787
  0
VERTEX
  8
PLAN_1
  6
CONTINUOUS
 10
1.046244
 20
-3.198453
  0
VERTEX
  8
PLAN_1
  6
CONTINUOUS
 10
1.049161
 20
-3.200118
  0
VERTEX
  8
PLAN_1
  6
CONTINUOUS
 10
1.052075
 20
-3.202201
  0
VERTEX
  8
PLAN_1
  6
CONTINUOUS
 10
1.054575
 20
-3.204283
  0
VERTEX
  8
PLAN_1
  6
CONTINUOUS
 10
1.057075
 20
-3.206783
  0
VERTEX
  8
PLAN_1
  6
CONTINUOUS
 10
1.059157
 20
-3.209280
  0
VERTEX
  8
PLAN_1
  6
CONTINUOUS
 10
1.061240
 20
-3.212197
  0
VERTEX
  8
PLAN_1
  6
CONTINUOUS
 10
1.063323
 20
-3.215528
  0
VERTEX
  8
PLAN_1
  6
CONTINUOUS
 10
1.064988
 20
-3.218858
  0
VERTEX
  8
PLAN_1
  6
CONTINUOUS
 10
1.066236
 20
-3.222193
  0
VERTEX
  8
PLAN_1
  6
CONTINUOUS
 10
1.067071
 20
-3.226358
  0
VERTEX
  8
PLAN_1
  6
CONTINUOUS
 10
1.067902
 20
-3.230524
  0
VERTEX
  8
PLAN_1
  6
CONTINUOUS
 10
1.068319
 20
-3.234685
  0
VERTEX
  8
PLAN_1
  6
CONTINUOUS
 10
1.068319
 20
-3.239685
  0
VERTEX
  8
PLAN_1
  6
CONTINUOUS
 10
1.068319
 20
-3.245516
  0
VERTEX
  8
PLAN_1
  6
CONTINUOUS
 10
1.067484
 20
-3.251346
  0
VERTEX
  8
PLAN_1
  6
CONTINUOUS
 10
1.066236
 20
-3.257177
  0
VERTEX
  8
PLAN_1
  6
CONTINUOUS
 10
1.064571
 20
-3.263008
  0
VERTEX
  8
PLAN_1
  6
CONTINUOUS
 10
1.062071
 20
-3.268421
  0
VERTEX
  8
PLAN_1
  6
CONTINUOUS
 10
1.059571
 20
-3.273421
  0
VERTEX
  8
PLAN_1
  6
CONTINUOUS
 10
1.055823
 20
-3.278417
  0
VERTEX
  8
PLAN_1
  6
CONTINUOUS
 10
1.052075
 20
-3.283000
  0
VERTEX
  8
PLAN_1
  6
CONTINUOUS
 10
1.047496
 20
-3.287161
  0
VERTEX
  8
PLAN_1
  6
CONTINUOUS
 10
1.042496
 20
-3.290913
  0
VERTEX
  8
PLAN_1
  6
CONTINUOUS
 10
1.036665
 20
-3.294244
  0
VERTEX
  8
PLAN_1
  6
CONTINUOUS
 10
1.030417
 20
-3.297157
  0
VERTEX
  8
PLAN_1
  6
CONTINUOUS
 10
1.023339
 20
-3.299240
  0
VERTEX
  8
PLAN_1
  6
CONTINUOUS
 10
1.015425
 20
-3.300906
  0
VERTEX
  8
PLAN_1
  6
CONTINUOUS
 10
1.007094
 20
-3.302157
  0
VERTEX
  8
PLAN_1
  6
CONTINUOUS
 10
0.998350
 20
-3.302157
  0
VERTEX
  8
PLAN_1
  6
CONTINUOUS
 10
0.992937
 20
-3.302157
  0
VERTEX
  8
PLAN_1
  6
CONTINUOUS
 10
0.987937
 20
-3.301740
  0
VERTEX
  8
PLAN_1
  6
CONTINUOUS
 10
0.982941
 20
-3.300906
  0
VERTEX
  8
PLAN_1
  6
CONTINUOUS
 10
0.978358
 20
-3.300075
  0
VERTEX
  8
PLAN_1
  6
CONTINUOUS
 10
0.973776
 20
-3.298827
  0
VERTEX
  8
PLAN_1
  6
CONTINUOUS
 10
0.969614
 20
-3.297157
  0
VERTEX
  8
PLAN_1
  6
CONTINUOUS
 10
0.965862
 20
-3.295492
  0
VERTEX
  8
PLAN_1
  6
CONTINUOUS
 10
0.962114
 20
-3.293827
  0
VERTEX
  8
PLAN_1
  6
CONTINUOUS
 10
0.958366
 20
-3.291327
  0
VERTEX
  8
PLAN_1
  6
CONTINUOUS
 10
0.954618
 20
-3.288831
  0
VERTEX
  8
PLAN_1
  6
CONTINUOUS
 10
0.951705
 20
-3.286331
  0
VERTEX
  8
PLAN_1
  6
CONTINUOUS
 10
0.948787
 20
-3.283413
  0
VERTEX
  8
PLAN_1
  6
CONTINUOUS
 10
0.946287
 20
-3.280083
  0
VERTEX
  8
PLAN_1
  6
CONTINUOUS
 10
0.943791
 20
-3.276752
  0
VERTEX
  8
PLAN_1
  6
CONTINUOUS
 10
0.942126
 20
-3.273421
  0
VERTEX
  8
PLAN_1
  6
CONTINUOUS
 10
0.940043
 20
-3.269669
  0
VERTEX
  8
PLAN_1
  6
CONTINUOUS
 10
0.938791
 20
-3.265921
  0
VERTEX
  8
PLAN_1
  6
CONTINUOUS
 10
0.937126
 20
-3.262173
  0
VERTEX
  8
PLAN_1
  6
CONTINUOUS
 10
0.936295
 20
-3.258008
  0
VERTEX
  8
PLAN_1
  6
CONTINUOUS
 10
0.935461
 20
-3.254260
  0
VERTEX
  8
PLAN_1
  6
CONTINUOUS
 10
0.933795
 20
-3.245933
  0
VERTEX
  8
PLAN_1
  6
CONTINUOUS
 10
0.932961
 20
-3.237185
  0
VERTEX
  8
PLAN_1
  6
CONTINUOUS
 10
0.958366
 20
-3.237185
  0
VERTEX
  8
PLAN_1
  6
CONTINUOUS
 10
0.958783
 20
-3.244681
  0
VERTEX
  8
PLAN_1
  6
CONTINUOUS
 10
0.960031
 20
-3.251764
  0
VERTEX
  8
PLAN_1
  6
CONTINUOUS
 10
0.960866
 20
-3.255512
  0
VERTEX
  8
PLAN_1
  6
CONTINUOUS
 10
0.962114
 20
-3.258843
  0
VERTEX
  8
PLAN_1
  6
CONTINUOUS
 10
0.963783
 20
-3.262591
  0
VERTEX
  8
PLAN_1
  6
CONTINUOUS
 10
0.965862
 20
-3.265921
  0
VERTEX
  8
PLAN_1
  6
CONTINUOUS
 10
0.968362
 20
-3.268839
  0
VERTEX
  8
PLAN_1
  6
CONTINUOUS
 10
0.970862
 20
-3.271752
  0
VERTEX
  8
PLAN_1
  6
CONTINUOUS
 10
0.974193
 20
-3.274252
  0
VERTEX
  8
PLAN_1
  6
CONTINUOUS
 10
0.978358
 20
-3.276335
  0
VERTEX
  8
PLAN_1
  6
CONTINUOUS
 10
0.982524
 20
-3.278000
  0
VERTEX
  8
PLAN_1
  6
CONTINUOUS
 10
0.987937
 20
-3.279252
  0
VERTEX
  8
PLAN_1
  6
CONTINUOUS
 10
0.993350
 20
-3.280083
  0
VERTEX
  8
PLAN_1
  6
CONTINUOUS
 10
1.000016
 20
-3.280500
  0
VERTEX
  8
PLAN_1
  6
CONTINUOUS
 10
1.004598
 20
-3.280083
  0
VERTEX
  8
PLAN_1
  6
CONTINUOUS
 10
1.008760
 20
-3.279665
  0
VERTEX
  8
PLAN_1
  6
CONTINUOUS
 10
1.013343
 20
-3.278835
  0
VERTEX
  8
PLAN_1
  6
CONTINUOUS
 10
1.017091
 20
-3.277583
  0
VERTEX
  8
PLAN_1
  6
CONTINUOUS
 10
1.020839
 20
-3.276335
  0
VERTEX
  8
PLAN_1
  6
CONTINUOUS
 10
1.024587
 20
-3.274252
  0
VERTEX
  8
PLAN_1
  6
CONTINUOUS
 10
1.027504
 20
-3.272169
  0
VERTEX
  8
PLAN_1
  6
CONTINUOUS
 10
1.030417
 20
-3.270087
  0
VERTEX
  8
PLAN_1
  6
CONTINUOUS
 10
1.033335
 20
-3.267173
  0
VERTEX
  8
PLAN_1
  6
CONTINUOUS
 10
1.035417
 20
-3.264673
  0
VERTEX
  8
PLAN_1
  6
CONTINUOUS
 10
1.037500
 20
-3.261343
  0
VERTEX
  8
PLAN_1
  6
CONTINUOUS
 10
1.039165
 20
-3.258008
  0
VERTEX
  8
PLAN_1
  6
CONTINUOUS
 10
1.040831
 20
-3.254677
  0
VERTEX
  8
PLAN_1
  6
CONTINUOUS
 10
1.041665
 20
-3.250512
  0
VERTEX
  8
PLAN_1
  6
CONTINUOUS
 10
1.042079
 20
-3.246764
  0
VERTEX
  8
PLAN_1
  6
CONTINUOUS
 10
1.042496
 20
-3.242598
  0
VERTEX
  8
PLAN_1
  6
CONTINUOUS
 10
1.042079
 20
-3.236768
  0
VERTEX
  8
PLAN_1
  6
CONTINUOUS
 10
1.041248
 20
-3.231772
  0
VERTEX
  8
PLAN_1
  6
CONTINUOUS
 10
1.039583
 20
-3.227189
  0
VERTEX
  8
PLAN_1
  6
CONTINUOUS
 10
1.037500
 20
-3.223024
  0
VERTEX
  8
PLAN_1
  6
CONTINUOUS
 10
1.035417
 20
-3.219693
  0
VERTEX
  8
PLAN_1
  6
CONTINUOUS
 10
1.032500
 20
-3.216780
  0
VERTEX
  8
PLAN_1
  6
CONTINUOUS
 10
1.029169
 20
-3.214280
  0
VERTEX
  8
PLAN_1
  6
CONTINUOUS
 10
1.025839
 20
-3.212614
  0
VERTEX
  8
PLAN_1
  6
CONTINUOUS
 10
1.022504
 20
-3.210949
  0
VERTEX
  8
PLAN_1
  6
CONTINUOUS
 10
1.018756
 20
-3.209697
  0
VERTEX
  8
PLAN_1
  6
CONTINUOUS
 10
1.015008
 20
-3.208449
  0
VERTEX
  8
PLAN_1
  6
CONTINUOUS
 10
1.010843
 20
-3.208031
  0
VERTEX
  8
PLAN_1
  6
CONTINUOUS
 10
1.003764
 20
-3.207197
  0
VERTEX
  8
PLAN_1
  6
CONTINUOUS
 10
0.997098
 20
-3.206783
  0
VERTEX
  8
PLAN_1
  6
CONTINUOUS
 10
0.995433
 20
-3.206783
  0
VERTEX
  8
PLAN_1
  6
CONTINUOUS
 10
0.994185
 20
-3.206783
  0
VERTEX
  8
PLAN_1
  6
CONTINUOUS
 10
0.992937
 20
-3.206783
  0
VERTEX
  8
PLAN_1
  6
CONTINUOUS
 10
0.991268
 20
-3.206783
  0
VERTEX
  8
PLAN_1
  6
CONTINUOUS
 10
0.990020
 20
-3.207197
  0
VERTEX
  8
PLAN_1
  6
CONTINUOUS
 10
0.988772
 20
-3.207197
  0
VERTEX
  8
PLAN_1
  6
CONTINUOUS
 10
0.987106
 20
-3.207197
  0
VERTEX
  8
PLAN_1
  6
CONTINUOUS
 10
0.985854
 20
-3.207197
  0
VERTEX
  8
PLAN_1
  6
CONTINUOUS
 10
0.985854
 20
-3.185957
  0
SEQEND
  8
0
  0
SOLID
  8
PLAN_1
 10
1.077898
 20
-3.331728
 11
1.077898
 21
-3.317984
 12
1.232413
 22
-3.331728
 13
1.232413
 23
-3.317984
  0
POLYLINE
  8
PLAN_1
  6
CONTINUOUS
 66
     1
 40
0.003000
 41
0.003000
  0
VERTEX
  8
PLAN_1
  6
CONTINUOUS
 10
1.077898
 20
-3.331728
  0
VERTEX
  8
PLAN_1
  6
CONTINUOUS
 10
1.077898
 20
-3.317984
  0
VERTEX
  8
PLAN_1
  6
CONTINUOUS
 10
1.232413
 20
-3.317984
  0
VERTEX
  8
PLAN_1
  6
CONTINUOUS
 10
1.232413
 20
-3.331728
  0
VERTEX
  8
PLAN_1
  6
CONTINUOUS
 10
1.077898
 20
-3.331728
  0
SEQEND
  8
0
  0
POLYLINE
  8
PLAN_1
  6
CONTINUOUS
 66
     1
 40
0.003000
 41
0.003000
  0
VERTEX
  8
PLAN_1
  6
CONTINUOUS
 10
1.283224
 20
-3.297157
  0
VERTEX
  8
PLAN_1
  6
CONTINUOUS
 10
1.256154
 20
-3.297157
  0
VERTEX
  8
PLAN_1
  6
CONTINUOUS
 10
1.256154
 20
-3.097665
  0
VERTEX
  8
PLAN_1
  6
CONTINUOUS
 10
1.394008
 20
-3.097665
  0
VERTEX
  8
PLAN_1
  6
CONTINUOUS
 10
1.394008
 20
-3.121819
  0
VERTEX
  8
PLAN_1
  6
CONTINUOUS
 10
1.283224
 20
-3.121819
  0
VERTEX
  8
PLAN_1
  6
CONTINUOUS
 10
1.283224
 20
-3.182626
  0
VERTEX
  8
PLAN_1
  6
CONTINUOUS
 10
1.380681
 20
-3.182626
  0
VERTEX
  8
PLAN_1
  6
CONTINUOUS
 10
1.380681
 20
-3.206366
  0
VERTEX
  8
PLAN_1
  6
CONTINUOUS
 10
1.283224
 20
-3.206366
  0
VERTEX
  8
PLAN_1
  6
CONTINUOUS
 10
1.283224
 20
-3.297157
  0
SEQEND
  8
0
  0
SOLID
  8
PLAN_1
 10
1.413583
 20
-3.297157
 11
1.384429
 21
-3.297157
 12
1.413583
 22
-3.267591
 13
1.384429
 23
-3.267591
  0
POLYLINE
  8
PLAN_1
  6
CONTINUOUS
 66
     1
 40
0.003000
 41
0.003000
  0
VERTEX
  8
PLAN_1
  6
CONTINUOUS
 10
1.413583
 20
-3.297157
  0
VERTEX
  8
PLAN_1
  6
CONTINUOUS
 10
1.384429
 20
-3.297157
  0
VERTEX
  8
PLAN_1
  6
CONTINUOUS
 10
1.384429
 20
-3.267591
  0
VERTEX
  8
PLAN_1
  6
CONTINUOUS
 10
1.413583
 20
-3.267591
  0
VERTEX
  8
PLAN_1
  6
CONTINUOUS
 10
1.413583
 20
-3.297157
  0
SEQEND
  8
0
  0
POLYLINE
  8
PLAN_1
  6
CONTINUOUS
 66
     1
 40
0.003000
 41
0.003000
  0
VERTEX
  8
PLAN_1
  6
CONTINUOUS
 10
1.608496
 20
-3.297157
  0
VERTEX
  8
PLAN_1
  6
CONTINUOUS
 10
1.461480
 20
-3.297157
  0
VERTEX
  8
PLAN_1
  6
CONTINUOUS
 10
1.461480
 20
-3.097665
  0
VERTEX
  8
PLAN_1
  6
CONTINUOUS
 10
1.606413
 20
-3.097665
  0
VERTEX
  8
PLAN_1
  6
CONTINUOUS
 10
1.606413
 20
-3.121819
  0
VERTEX
  8
PLAN_1
  6
CONTINUOUS
 10
1.488134
 20
-3.121819
  0
VERTEX
  8
PLAN_1
  6
CONTINUOUS
 10
1.488134
 20
-3.182626
  0
VERTEX
  8
PLAN_1
  6
CONTINUOUS
 10
1.597252
 20
-3.182626
  0
VERTEX
  8
PLAN_1
  6
CONTINUOUS
 10
1.597252
 20
-3.206366
  0
VERTEX
  8
PLAN_1
  6
CONTINUOUS
 10
1.488134
 20
-3.206366
  0
VERTEX
  8
PLAN_1
  6
CONTINUOUS
 10
1.488134
 20
-3.273004
  0
VERTEX
  8
PLAN_1
  6
CONTINUOUS
 10
1.608496
 20
-3.273004
  0
VERTEX
  8
PLAN_1
  6
CONTINUOUS
 10
1.608496
 20
-3.297157
  0
SEQEND
  8
0
  0
POLYLINE
  8
PLAN_1
  6
CONTINUOUS
 66
     1
 40
0.003000
 41
0.003000
  0
VERTEX
  8
PLAN_1
  6
CONTINUOUS
 10
1.673469
 20
-3.297157
  0
VERTEX
  8
PLAN_1
  6
CONTINUOUS
 10
1.646398
 20
-3.297157
  0
VERTEX
  8
PLAN_1
  6
CONTINUOUS
 10
1.646398
 20
-3.097665
  0
VERTEX
  8
PLAN_1
  6
CONTINUOUS
 10
1.736358
 20
-3.097665
  0
VERTEX
  8
PLAN_1
  6
CONTINUOUS
 10
1.743020
 20
-3.098079
  0
VERTEX
  8
PLAN_1
  6
CONTINUOUS
 10
1.749268
 20
-3.098913
  0
VERTEX
  8
PLAN_1
  6
CONTINUOUS
 10
1.755516
 20
-3.100161
  0
VERTEX
  8
PLAN_1
  6
CONTINUOUS
 10
1.760929
 20
-3.101827
  0
VERTEX
  8
PLAN_1
  6
CONTINUOUS
 10
1.766343
 20
-3.104327
  0
VERTEX
  8
PLAN_1
  6
CONTINUOUS
 10
1.771343
 20
-3.106827
  0
VERTEX
  8
PLAN_1
  6
CONTINUOUS
 10
1.775508
 20
-3.110157
  0
VERTEX
  8
PLAN_1
  6
CONTINUOUS
 10
1.779673
 20
-3.113906
  0
VERTEX
  8
PLAN_1
  6
CONTINUOUS
 10
1.783421
 20
-3.117654
  0
VERTEX
  8
PLAN_1
  6
CONTINUOUS
 10
1.786335
 20
-3.121819
  0
VERTEX
  8
PLAN_1
  6
CONTINUOUS
 10
1.789252
 20
-3.126402
  0
VERTEX
  8
PLAN_1
  6
CONTINUOUS
 10
1.791335
 20
-3.131398
  0
VERTEX
  8
PLAN_1
  6
CONTINUOUS
 10
1.793000
 20
-3.136815
  0
VERTEX
  8
PLAN_1
  6
CONTINUOUS
 10
1.794248
 20
-3.142228
  0
VERTEX
  8
PLAN_1
  6
CONTINUOUS
 10
1.795083
 20
-3.148059
  0
VERTEX
  8
PLAN_1
  6
CONTINUOUS
 10
1.795500
 20
-3.153890
  0
VERTEX
  8
PLAN_1
  6
CONTINUOUS
 10
1.795083
 20
-3.158886
  0
VERTEX
  8
PLAN_1
  6
CONTINUOUS
 10
1.794665
 20
-3.164299
  0
VERTEX
  8
PLAN_1
  6
CONTINUOUS
 10
1.793417
 20
-3.169717
  0
VERTEX
  8
PLAN_1
  6
CONTINUOUS
 10
1.792165
 20
-3.174713
  0
VERTEX
  8
PLAN_1
  6
CONTINUOUS
 10
1.790500
 20
-3.179713
  0
VERTEX
  8
PLAN_1
  6
CONTINUOUS
 10
1.788000
 20
-3.184709
  0
VERTEX
  8
PLAN_1
  6
CONTINUOUS
 10
1.785087
 20
-3.189291
  0
VERTEX
  8
PLAN_1
  6
CONTINUOUS
 10
1.782169
 20
-3.193870
  0
VERTEX
  8
PLAN_1
  6
CONTINUOUS
 10
1.778421
 20
-3.198035
  0
VERTEX
  8
PLAN_1
  6
CONTINUOUS
 10
1.773843
 20
-3.201366
  0
VERTEX
  8
PLAN_1
  6
CONTINUOUS
 10
1.769260
 20
-3.204701
  0
VERTEX
  8
PLAN_1
  6
CONTINUOUS
 10
1.763846
 20
-3.207614
  0
VERTEX
  8
PLAN_1
  6
CONTINUOUS
 10
1.757598
 20
-3.209697
  0
VERTEX
  8
PLAN_1
  6
CONTINUOUS
 10
1.751350
 20
-3.211362
  0
VERTEX
  8
PLAN_1
  6
CONTINUOUS
 10
1.743854
 20
-3.212614
  0
VERTEX
  8
PLAN_1
  6
CONTINUOUS
 10
1.736358
 20
-3.213028
  0
VERTEX
  8
PLAN_1
  6
CONTINUOUS
 10
1.673469
 20
-3.213028
  0
VERTEX
  8
PLAN_1
  6
CONTINUOUS
 10
1.673469
 20
-3.297157
  0
SEQEND
  8
0
  0
POLYLINE
  8
PLAN_1
  6
CONTINUOUS
 66
     1
 40
0.003000
 41
0.003000
  0
VERTEX
  8
PLAN_1
  6
CONTINUOUS
 10
1.673469
 20
-3.189705
  0
VERTEX
  8
PLAN_1
  6
CONTINUOUS
 10
1.727193
 20
-3.189705
  0
VERTEX
  8
PLAN_1
  6
CONTINUOUS
 10
1.731358
 20
-3.189705
  0
VERTEX
  8
PLAN_1
  6
CONTINUOUS
 10
1.735941
 20
-3.189291
  0
VERTEX
  8
PLAN_1
  6
CONTINUOUS
 10
1.739689
 20
-3.188874
  0
VERTEX
  8
PLAN_1
  6
CONTINUOUS
 10
1.743437
 20
-3.188039
  0
VERTEX
  8
PLAN_1
  6
CONTINUOUS
 10
1.747185
 20
-3.187209
  0
VERTEX
  8
PLAN_1
  6
CONTINUOUS
 10
1.750520
 20
-3.185543
  0
VERTEX
  8
PLAN_1
  6
CONTINUOUS
 10
1.753433
 20
-3.183874
  0
VERTEX
  8
PLAN_1
  6
CONTINUOUS
 10
1.756350
 20
-3.182209
  0
VERTEX
  8
PLAN_1
  6
CONTINUOUS
 10
1.758846
 20
-3.179713
  0
VERTEX
  8
PLAN_1
  6
CONTINUOUS
 10
1.760929
 20
-3.177213
  0
VERTEX
  8
PLAN_1
  6
CONTINUOUS
 10
1.763012
 20
-3.174295
  0
VERTEX
  8
PLAN_1
  6
CONTINUOUS
 10
1.764677
 20
-3.170965
  0
VERTEX
  8
PLAN_1
  6
CONTINUOUS
 10
1.765929
 20
-3.167217
  0
VERTEX
  8
PLAN_1
  6
CONTINUOUS
 10
1.766760
 20
-3.163469
  0
VERTEX
  8
PLAN_1
  6
CONTINUOUS
 10
1.767594
 20
-3.158886
  0
VERTEX
  8
PLAN_1
  6
CONTINUOUS
 10
1.767594
 20
-3.154307
  0
VERTEX
  8
PLAN_1
  6
CONTINUOUS
 10
1.767594
 20
-3.149724
  0
VERTEX
  8
PLAN_1
  6
CONTINUOUS
 10
1.766760
 20
-3.145559
  0
VERTEX
  8
PLAN_1
  6
CONTINUOUS
 10
1.765929
 20
-3.141811
  0
VERTEX
  8
PLAN_1
  6
CONTINUOUS
 10
1.764677
 20
-3.138063
  0
VERTEX
  8
PLAN_1
  6
CONTINUOUS
 10
1.763012
 20
-3.135146
  0
VERTEX
  8
PLAN_1
  6
CONTINUOUS
 10
1.760929
 20
-3.132650
  0
VERTEX
  8
PLAN_1
  6
CONTINUOUS
 10
1.758846
 20
-3.130150
  0
VERTEX
  8
PLAN_1
  6
CONTINUOUS
 10
1.756350
 20
-3.128067
  0
VERTEX
  8
PLAN_1
  6
CONTINUOUS
 10
1.753433
 20
-3.126402
  0
VERTEX
  8
PLAN_1
  6
CONTINUOUS
 10
1.750520
 20
-3.124736
  0
VERTEX
  8
PLAN_1
  6
CONTINUOUS
 10
1.747185
 20
-3.123484
  0
VERTEX
  8
PLAN_1
  6
CONTINUOUS
 10
1.743854
 20
-3.122654
  0
VERTEX
  8
PLAN_1
  6
CONTINUOUS
 10
1.740106
 20
-3.121819
  0
VERTEX
  8
PLAN_1
  6
CONTINUOUS
 10
1.736358
 20
-3.121402
  0
VERTEX
  8
PLAN_1
  6
CONTINUOUS
 10
1.732193
 20
-3.120988
  0
VERTEX
  8
PLAN_1
  6
CONTINUOUS
 10
1.728028
 20
-3.120988
  0
VERTEX
  8
PLAN_1
  6
CONTINUOUS
 10
1.673469
 20
-3.120988
  0
VERTEX
  8
PLAN_1
  6
CONTINUOUS
 10
1.673469
 20
-3.189705
  0
SEQEND
  8
0
  0
POLYLINE
  8
PLAN_1
  6
CONTINUOUS
 66
     1
 40
0.003000
 41
0.003000
  0
VERTEX
  8
PLAN_1
  6
CONTINUOUS
 10
1.949181
 20
-3.155972
  0
VERTEX
  8
PLAN_1
  6
CONTINUOUS
 10
1.948764
 20
-3.150555
  0
VERTEX
  8
PLAN_1
  6
CONTINUOUS
 10
1.947516
 20
-3.145559
  0
VERTEX
  8
PLAN_1
  6
CONTINUOUS
 10
1.945846
 20
-3.140976
  0
VERTEX
  8
PLAN_1
  6
CONTINUOUS
 10
1.944181
 20
-3.136815
  0
VERTEX
  8
PLAN_1
  6
CONTINUOUS
 10
1.941685
 20
-3.133063
  0
VERTEX
  8
PLAN_1
  6
CONTINUOUS
 10
1.938768
 20
-3.129732
  0
VERTEX
  8
PLAN_1
  6
CONTINUOUS
 10
1.935854
 20
-3.126819
  0
VERTEX
  8
PLAN_1
  6
CONTINUOUS
 10
1.932520
 20
-3.124319
  0
VERTEX
  8
PLAN_1
  6
CONTINUOUS
 10
1.928772
 20
-3.122236
  0
VERTEX
  8
PLAN_1
  6
CONTINUOUS
 10
1.925024
 20
-3.120154
  0
VERTEX
  8
PLAN_1
  6
CONTINUOUS
 10
1.920858
 20
-3.118906
  0
VERTEX
  8
PLAN_1
  6
CONTINUOUS
 10
1.916693
 20
-3.117654
  0
VERTEX
  8
PLAN_1
  6
CONTINUOUS
 10
1.912531
 20
-3.116823
  0
VERTEX
  8
PLAN_1
  6
CONTINUOUS
 10
1.908366
 20
-3.115988
  0
VERTEX
  8
PLAN_1
  6
CONTINUOUS
 10
1.904201
 20
-3.115571
  0
VERTEX
  8
PLAN_1
  6
CONTINUOUS
 10
1.899618
 20
-3.115571
  0
VERTEX
  8
PLAN_1
  6
CONTINUOUS
 10
1.892957
 20
-3.115988
  0
VERTEX
  8
PLAN_1
  6
CONTINUOUS
 10
1.885457
 20
-3.116823
  0
VERTEX
  8
PLAN_1
  6
CONTINUOUS
 10
1.881709
 20
-3.117654
  0
VERTEX
  8
PLAN_1
  6
CONTINUOUS
 10
1.877961
 20
-3.118488
  0
VERTEX
  8
PLAN_1
  6
CONTINUOUS
 10
1.874213
 20
-3.120154
  0
VERTEX
  8
PLAN_1
  6
CONTINUOUS
 10
1.870882
 20
-3.121819
  0
VERTEX
  8
PLAN_1
  6
CONTINUOUS
 10
1.867134
 20
-3.123902
  0
VERTEX
  8
PLAN_1
  6
CONTINUOUS
 10
1.864217
 20
-3.125984
  0
VERTEX
  8
PLAN_1
  6
CONTINUOUS
 10
1.861303
 20
-3.128902
  0
VERTEX
  8
PLAN_1
  6
CONTINUOUS
 10
1.859220
 20
-3.132232
  0
VERTEX
  8
PLAN_1
  6
CONTINUOUS
 10
1.857138
 20
-3.135980
  0
VERTEX
  8
PLAN_1
  6
CONTINUOUS
 10
1.855472
 20
-3.140146
  0
VERTEX
  8
PLAN_1
  6
CONTINUOUS
 10
1.854638
 20
-3.145142
  0
VERTEX
  8
PLAN_1
  6
CONTINUOUS
 10
1.854220
 20
-3.150555
  0
VERTEX
  8
PLAN_1
  6
CONTINUOUS
 10
1.854220
 20
-3.153472
  0
VERTEX
  8
PLAN_1
  6
CONTINUOUS
 10
1.854638
 20
-3.156386
  0
VERTEX
  8
PLAN_1
  6
CONTINUOUS
 10
1.855472
 20
-3.158886
  0
VERTEX
  8
PLAN_1
  6
CONTINUOUS
 10
1.856303
 20
-3.161386
  0
VERTEX
  8
PLAN_1
  6
CONTINUOUS
 10
1.857555
 20
-3.163469
  0
VERTEX
  8
PLAN_1
  6
CONTINUOUS
 10
1.858803
 20
-3.165134
  0
VERTEX
  8
PLAN_1
  6
CONTINUOUS
 10
1.860051
 20
-3.166799
  0
VERTEX
  8
PLAN_1
  6
CONTINUOUS
 10
1.861720
 20
-3.168465
  0
VERTEX
  8
PLAN_1
  6
CONTINUOUS
 10
1.865469
 20
-3.170965
  0
VERTEX
  8
PLAN_1
  6
CONTINUOUS
 10
1.869217
 20
-3.173047
  0
VERTEX
  8
PLAN_1
  6
CONTINUOUS
 10
1.873382
 20
-3.174713
  0
VERTEX
  8
PLAN_1
  6
CONTINUOUS
 10
1.877961
 20
-3.175547
  0
VERTEX
  8
PLAN_1
  6
CONTINUOUS
 10
1.934602
 20
-3.188874
  0
VERTEX
  8
PLAN_1
  6
CONTINUOUS
 10
1.939602
 20
-3.190122
  0
VERTEX
  8
PLAN_1
  6
CONTINUOUS
 10
1.944181
 20
-3.191374
  0
VERTEX
  8
PLAN_1
  6
CONTINUOUS
 10
1.948346
 20
-3.193453
  0
VERTEX
  8
PLAN_1
  6
CONTINUOUS
 10
1.952512
 20
-3.195122
  0
VERTEX
  8
PLAN_1
  6
CONTINUOUS
 10
1.956677
 20
-3.197618
  0
VERTEX
  8
PLAN_1
  6
CONTINUOUS
 10
1.960425
 20
-3.200118
  0
VERTEX
  8
PLAN_1
  6
CONTINUOUS
 10
1.963756
 20
-3.202618
  0
VERTEX
  8
PLAN_1
  6
CONTINUOUS
 10
1.967091
 20
-3.205949
  0
VERTEX
  8
PLAN_1
  6
CONTINUOUS
 10
1.970004
 20
-3.209280
  0
VERTEX
  8
PLAN_1
  6
CONTINUOUS
 10
1.972504
 20
-3.213028
  0
VERTEX
  8
PLAN_1
  6
CONTINUOUS
 10
1.974587
 20
-3.216780
  0
VERTEX
  8
PLAN_1
  6
CONTINUOUS
 10
1.976669
 20
-3.221358
  0
VERTEX
  8
PLAN_1
  6
CONTINUOUS
 10
1.977917
 20
-3.225941
  0
VERTEX
  8
PLAN_1
  6
CONTINUOUS
 10
1.979165
 20
-3.230937
  0
VERTEX
  8
PLAN_1
  6
CONTINUOUS
 10
1.979583
 20
-3.236354
  0
VERTEX
  8
PLAN_1
  6
CONTINUOUS
 10
1.980000
 20
-3.242185
  0
VERTEX
  8
PLAN_1
  6
CONTINUOUS
 10
1.980000
 20
-3.246346
  0
VERTEX
  8
PLAN_1
  6
CONTINUOUS
 10
1.979583
 20
-3.250512
  0
VERTEX
  8
PLAN_1
  6
CONTINUOUS
 10
1.978752
 20
-3.254677
  0
VERTEX
  8
PLAN_1
  6
CONTINUOUS
 10
1.977917
 20
-3.258425
  0
VERTEX
  8
PLAN_1
  6
CONTINUOUS
 10
1.977083
 20
-3.261760
  0
VERTEX
  8
PLAN_1
  6
CONTINUOUS
 10
1.975835
 20
-3.265091
  0
VERTEX
  8
PLAN_1
  6
CONTINUOUS
 10
1.974169
 20
-3.268421
  0
VERTEX
  8
PLAN_1
  6
CONTINUOUS
 10
1.972504
 20
-3.271339
  0
VERTEX
  8
PLAN_1
  6
CONTINUOUS
 10
1.970839
 20
-3.274252
  0
VERTEX
  8
PLAN_1
  6
CONTINUOUS
 10
1.968756
 20
-3.277169
  0
VERTEX
  8
PLAN_1
  6
CONTINUOUS
 10
1.966673
 20
-3.279665
  0
VERTEX
  8
PLAN_1
  6
CONTINUOUS
 10
1.964173
 20
-3.281748
  0
VERTEX
  8
PLAN_1
  6
CONTINUOUS
 10
1.959177
 20
-3.286331
  0
VERTEX
  8
PLAN_1
  6
CONTINUOUS
 10
1.953760
 20
-3.290079
  0
VERTEX
  8
PLAN_1
  6
CONTINUOUS
 10
1.947929
 20
-3.292996
  0
VERTEX
  8
PLAN_1
  6
CONTINUOUS
 10
1.941685
 20
-3.295909
  0
VERTEX
  8
PLAN_1
  6
CONTINUOUS
 10
1.935020
 20
-3.297992
  0
VERTEX
  8
PLAN_1
  6
CONTINUOUS
 10
1.928772
 20
-3.299657
  0
VERTEX
  8
PLAN_1
  6
CONTINUOUS
 10
1.921693
 20
-3.300906
  0
VERTEX
  8
PLAN_1
  6
CONTINUOUS
 10
1.915028
 20
-3.301740
  0
VERTEX
  8
PLAN_1
  6
CONTINUOUS
 10
1.908366
 20
-3.302157
  0
VERTEX
  8
PLAN_1
  6
CONTINUOUS
 10
1.902118
 20
-3.302157
  0
VERTEX
  8
PLAN_1
  6
CONTINUOUS
 10
1.895453
 20
-3.302157
  0
VERTEX
  8
PLAN_1
  6
CONTINUOUS
 10
1.889209
 20
-3.301740
  0
VERTEX
  8
PLAN_1
  6
CONTINUOUS
 10
1.883374
 20
-3.301323
  0
VERTEX
  8
PLAN_1
  6
CONTINUOUS
 10
1.878378
 20
-3.300492
  0
VERTEX
  8
PLAN_1
  6
CONTINUOUS
 10
1.873382
 20
-3.299657
  0
VERTEX
  8
PLAN_1
  6
CONTINUOUS
 10
1.869217
 20
-3.298409
  0
VERTEX
  8
PLAN_1
  6
CONTINUOUS
 10
1.865051
 20
-3.297157
  0
VERTEX
  8
PLAN_1
  6
CONTINUOUS
 10
1.861303
 20
-3.295909
  0
VERTEX
  8
PLAN_1
  6
CONTINUOUS
 10
1.855055
 20
-3.292579
  0
VERTEX
  8
PLAN_1
  6
CONTINUOUS
 10
1.849642
 20
-3.289661
  0
VERTEX
  8
PLAN_1
  6
CONTINUOUS
 10
1.845476
 20
-3.286331
  0
VERTEX
  8
PLAN_1
  6
CONTINUOUS
 10
1.841728
 20
-3.283000
  0
VERTEX
  8
PLAN_1
  6
CONTINUOUS
 10
1.838811
 20
-3.280083
  0
VERTEX
  8
PLAN_1
  6
CONTINUOUS
 10
1.835898
 20
-3.277169
  0
VERTEX
  8
PLAN_1
  6
CONTINUOUS
 10
1.833815
 20
-3.274252
  0
VERTEX
  8
PLAN_1
  6
CONTINUOUS
 10
1.831315
 20
-3.271339
  0
VERTEX
  8
PLAN_1
  6
CONTINUOUS
 10
1.829650
 20
-3.268421
  0
VERTEX
  8
PLAN_1
  6
CONTINUOUS
 10
1.827984
 20
-3.265508
  0
VERTEX
  8
PLAN_1
  6
CONTINUOUS
 10
1.826319
 20
-3.262173
  0
VERTEX
  8
PLAN_1
  6
CONTINUOUS
 10
1.825484
 20
-3.259260
  0
VERTEX
  8
PLAN_1
  6
CONTINUOUS
 10
1.823402
 20
-3.252594
  0
VERTEX
  8
PLAN_1
  6
CONTINUOUS
 10
1.822154
 20
-3.246346
  0
VERTEX
  8
PLAN_1
  6
CONTINUOUS
 10
1.821736
 20
-3.239685
  0
VERTEX
  8
PLAN_1
  6
CONTINUOUS
 10
1.821736
 20
-3.232602
  0
VERTEX
  8
PLAN_1
  6
CONTINUOUS
 10
1.846724
 20
-3.232602
  0
VERTEX
  8
PLAN_1
  6
CONTINUOUS
 10
1.847142
 20
-3.239268
  0
VERTEX
  8
PLAN_1
  6
CONTINUOUS
 10
1.847976
 20
-3.245098
  0
VERTEX
  8
PLAN_1
  6
CONTINUOUS
 10
1.849642
 20
-3.250512
  0
VERTEX
  8
PLAN_1
  6
CONTINUOUS
 10
1.851724
 20
-3.255094
  0
VERTEX
  8
PLAN_1
  6
CONTINUOUS
 10
1.854220
 20
-3.259260
  0
VERTEX
  8
PLAN_1
  6
CONTINUOUS
 10
1.857555
 20
-3.263425
  0
VERTEX
  8
PLAN_1
  6
CONTINUOUS
 10
1.860886
 20
-3.266756
  0
VERTEX
  8
PLAN_1
  6
CONTINUOUS
 10
1.864634
 20
-3.269669
  0
VERTEX
  8
PLAN_1
  6
CONTINUOUS
 10
1.868799
 20
-3.272169
  0
VERTEX
  8
PLAN_1
  6
CONTINUOUS
 10
1.872965
 20
-3.273835
  0
VERTEX
  8
PLAN_1
  6
CONTINUOUS
 10
1.877543
 20
-3.275917
  0
VERTEX
  8
PLAN_1
  6
CONTINUOUS
 10
1.882543
 20
-3.277169
  0
VERTEX
  8
PLAN_1
  6
CONTINUOUS
 10
1.887126
 20
-3.278000
  0
VERTEX
  8
PLAN_1
  6
CONTINUOUS
 10
1.892122
 20
-3.278835
  0
VERTEX
  8
PLAN_1
  6
CONTINUOUS
 10
1.897118
 20
-3.279252
  0
VERTEX
  8
PLAN_1
  6
CONTINUOUS
 10
1.901701
 20
-3.279252
  0
VERTEX
  8
PLAN_1
  6
CONTINUOUS
 10
1.909614
 20
-3.278835
  0
VERTEX
  8
PLAN_1
  6
CONTINUOUS
 10
1.917945
 20
-3.278000
  0
VERTEX
  8
PLAN_1
  6
CONTINUOUS
 10
1.922524
 20
-3.277169
  0
VERTEX
  8
PLAN_1
  6
CONTINUOUS
 10
1.926689
 20
-3.276335
  0
VERTEX
  8
PLAN_1
  6
CONTINUOUS
 10
1.930854
 20
-3.274669
  0
VERTEX
  8
PLAN_1
  6
CONTINUOUS
 10
1.935020
 20
-3.273004
  0
VERTEX
  8
PLAN_1
  6
CONTINUOUS
 10
1.938768
 20
-3.271339
  0
VERTEX
  8
PLAN_1
  6
CONTINUOUS
 10
1.942516
 20
-3.268839
  0
VERTEX
  8
PLAN_1
  6
CONTINUOUS
 10
1.945846
 20
-3.266339
  0
VERTEX
  8
PLAN_1
  6
CONTINUOUS
 10
1.948346
 20
-3.263008
  0
VERTEX
  8
PLAN_1
  6
CONTINUOUS
 10
1.950846
 20
-3.259260
  0
VERTEX
  8
PLAN_1
  6
CONTINUOUS
 10
1.952512
 20
-3.255512
  0
VERTEX
  8
PLAN_1
  6
CONTINUOUS
 10
1.953346
 20
-3.250929
  0
VERTEX
  8
PLAN_1
  6
CONTINUOUS
 10
1.953760
 20
-3.245516
  0
VERTEX
  8
PLAN_1
  6
CONTINUOUS
 10
1.953760
 20
-3.241768
  0
VERTEX
  8
PLAN_1
  6
CONTINUOUS
 10
1.953346
 20
-3.238433
  0
VERTEX
  8
PLAN_1
  6
CONTINUOUS
 10
1.952929
 20
-3.235520
  0
VERTEX
  8
PLAN_1
  6
CONTINUOUS
 10
1.951681
 20
-3.232602
  0
VERTEX
  8
PLAN_1
  6
CONTINUOUS
 10
1.950846
 20
-3.229689
  0
VERTEX
  8
PLAN_1
  6
CONTINUOUS
 10
1.949181
 20
-3.227606
  0
VERTEX
  8
PLAN_1
  6
CONTINUOUS
 10
1.947098
 20
-3.225106
  0
VERTEX
  8
PLAN_1
  6
CONTINUOUS
 10
1.945016
 20
-3.223024
  0
VERTEX
  8
PLAN_1
  6
CONTINUOUS
 10
1.942516
 20
-3.221358
  0
VERTEX
  8
PLAN_1
  6
CONTINUOUS
 10
1.939185
 20
-3.219693
  0
VERTEX
  8
PLAN_1
  6
CONTINUOUS
 10
1.935854
 20
-3.218028
  0
VERTEX
  8
PLAN_1
  6
CONTINUOUS
 10
1.932106
 20
-3.216362
  0
VERTEX
  8
PLAN_1
  6
CONTINUOUS
 10
1.922524
 20
-3.213445
  0
VERTEX
  8
PLAN_1
  6
CONTINUOUS
 10
1.911280
 20
-3.210531
  0
VERTEX
  8
PLAN_1
  6
CONTINUOUS
 10
1.870465
 20
-3.200953
  0
VERTEX
  8
PLAN_1
  6
CONTINUOUS
 10
1.865051
 20
-3.199701
  0
VERTEX
  8
PLAN_1
  6
CONTINUOUS
 10
1.858386
 20
-3.197205
  0
VERTEX
  8
PLAN_1
  6
CONTINUOUS
 10
1.855055
 20
-3.195953
  0
VERTEX
  8
PLAN_1
  6
CONTINUOUS
 10
1.851307
 20
-3.193870
  0
VERTEX
  8
PLAN_1
  6
CONTINUOUS
 10
1.847976
 20
-3.191787
  0
VERTEX
  8
PLAN_1
  6
CONTINUOUS
 10
1.844642
 20
-3.189291
  0
VERTEX
  8
PLAN_1
  6
CONTINUOUS
 10
1.841311
 20
-3.186791
  0
VERTEX
  8
PLAN_1
  6
CONTINUOUS
 10
1.837980
 20
-3.183461
  0
VERTEX
  8
PLAN_1
  6
CONTINUOUS
 10
1.835480
 20
-3.179713
  0
VERTEX
  8
PLAN_1
  6
CONTINUOUS
 10
1.832980
 20
-3.175547
  0
VERTEX
  8
PLAN_1
  6
CONTINUOUS
 10
1.830898
 20
-3.170965
  0
VERTEX
  8
PLAN_1
  6
CONTINUOUS
 10
1.829650
 20
-3.165969
  0
VERTEX
  8
PLAN_1
  6
CONTINUOUS
 10
1.828402
 20
-3.160138
  0
VERTEX
  8
PLAN_1
  6
CONTINUOUS
 10
1.828402
 20
-3.154307
  0
VERTEX
  8
PLAN_1
  6
CONTINUOUS
 10
1.828402
 20
-3.148476
  0
VERTEX
  8
PLAN_1
  6
CONTINUOUS
 10
1.829232
 20
-3.142646
  0
VERTEX
  8
PLAN_1
  6
CONTINUOUS
 10
1.830484
 20
-3.136815
  0
VERTEX
  8
PLAN_1
  6
CONTINUOUS
 10
1.832150
 20
-3.131398
  0
VERTEX
  8
PLAN_1
  6
CONTINUOUS
 10
1.834232
 20
-3.125984
  0
VERTEX
  8
PLAN_1
  6
CONTINUOUS
 10
1.837146
 20
-3.120988
  0
VERTEX
  8
PLAN_1
  6
CONTINUOUS
 10
1.840476
 20
-3.115988
  0
VERTEX
  8
PLAN_1
  6
CONTINUOUS
 10
1.844228
 20
-3.111823
  0
VERTEX
  8
PLAN_1
  6
CONTINUOUS
 10
1.848807
 20
-3.107657
  0
VERTEX
  8
PLAN_1
  6
CONTINUOUS
 10
1.853807
 20
-3.103909
  0
VERTEX
  8
PLAN_1
  6
CONTINUOUS
 10
1.859638
 20
-3.100579
  0
VERTEX
  8
PLAN_1
  6
CONTINUOUS
 10
1.865469
 20
-3.097665
  0
VERTEX
  8
PLAN_1
  6
CONTINUOUS
 10
1.872547
 20
-3.095583
  0
VERTEX
  8
PLAN_1
  6
CONTINUOUS
 10
1.880043
 20
-3.093913
  0
VERTEX
  8
PLAN_1
  6
CONTINUOUS
 10
1.887957
 20
-3.092665
  0
VERTEX
  8
PLAN_1
  6
CONTINUOUS
 10
1.896705
 20
-3.092665
  0
VERTEX
  8
PLAN_1
  6
CONTINUOUS
 10
1.902949
 20
-3.092665
  0
VERTEX
  8
PLAN_1
  6
CONTINUOUS
 10
1.909197
 20
-3.093083
  0
VERTEX
  8
PLAN_1
  6
CONTINUOUS
 10
1.914610
 20
-3.093500
  0
VERTEX
  8
PLAN_1
  6
CONTINUOUS
 10
1.920028
 20
-3.094331
  0
VERTEX
  8
PLAN_1
  6
CONTINUOUS
 10
1.925024
 20
-3.095165
  0
VERTEX
  8
PLAN_1
  6
CONTINUOUS
 10
1.929606
 20
-3.096413
  0
VERTEX
  8
PLAN_1
  6
CONTINUOUS
 10
1.934185
 20
-3.097665
  0
VERTEX
  8
PLAN_1
  6
CONTINUOUS
 10
1.937937
 20
-3.099331
  0
VERTEX
  8
PLAN_1
  6
CONTINUOUS
 10
1.941685
 20
-3.100996
  0
VERTEX
  8
PLAN_1
  6
CONTINUOUS
 10
1.945433
 20
-3.102661
  0
VERTEX
  8
PLAN_1
  6
CONTINUOUS
 10
1.948764
 20
-3.104744
  0
VERTEX
  8
PLAN_1
  6
CONTINUOUS
 10
1.951681
 20
-3.106827
  0
VERTEX
  8
PLAN_1
  6
CONTINUOUS
 10
1.954594
 20
-3.108909
  0
VERTEX
  8
PLAN_1
  6
CONTINUOUS
 10
1.957094
 20
-3.111409
  0
VERTEX
  8
PLAN_1
  6
CONTINUOUS
 10
1.959177
 20
-3.113488
  0
VERTEX
  8
PLAN_1
  6
CONTINUOUS
 10
1.961260
 20
-3.115988
  0
VERTEX
  8
PLAN_1
  6
CONTINUOUS
 10
1.965008
 20
-3.120988
  0
VERTEX
  8
PLAN_1
  6
CONTINUOUS
 10
1.967921
 20
-3.126402
  0
VERTEX
  8
PLAN_1
  6
CONTINUOUS
 10
1.970004
 20
-3.131815
  0
VERTEX
  8
PLAN_1
  6
CONTINUOUS
 10
1.971669
 20
-3.136815
  0
VERTEX
  8
PLAN_1
  6
CONTINUOUS
 10
1.972921
 20
-3.142228
  0
VERTEX
  8
PLAN_1
  6
CONTINUOUS
 10
1.973752
 20
-3.147224
  0
VERTEX
  8
PLAN_1
  6
CONTINUOUS
 10
1.974169
 20
-3.151807
  0
VERTEX
  8
PLAN_1
  6
CONTINUOUS
 10
1.974587
 20
-3.155972
  0
VERTEX
  8
PLAN_1
  6
CONTINUOUS
 10
1.949181
 20
-3.155972
  0
SEQEND
  8
0
  0
POLYLINE
  8
PLAN_1
 62
     5
  6
CONTINUOUS
 66
     1
 40
0.003000
 41
0.003000
  0
VERTEX
  8
PLAN_1
 62
     5
  6
CONTINUOUS
 10
-1.972839
 20
1.311642
  0
VERTEX
  8
PLAN_1
 62
     5
  6
CONTINUOUS
 10
-1.972839
 20
1.319972
  0
SEQEND
  8
0
  0
POLYLINE
  8
PLAN_1
 62
     5
  6
CONTINUOUS
 66
     1
 40
0.003000
 41
0.003000
  0
VERTEX
  8
PLAN_1
 62
     5
  6
CONTINUOUS
 10
-1.972839
 20
1.328299
  0
VERTEX
  8
PLAN_1
 62
     5
  6
CONTINUOUS
 10
-1.972839
 20
1.336630
  0
SEQEND
  8
0
  0
POLYLINE
  8
PLAN_1
 62
     5
  6
CONTINUOUS
 66
     1
 40
0.003000
 41
0.003000
  0
VERTEX
  8
PLAN_1
 62
     5
  6
CONTINUOUS
 10
-1.972839
 20
1.344961
  0
VERTEX
  8
PLAN_1
 62
     5
  6
CONTINUOUS
 10
-1.972839
 20
1.353291
  0
SEQEND
  8
0
  0
POLYLINE
  8
PLAN_1
 62
     5
  6
CONTINUOUS
 66
     1
 40
0.003000
 41
0.003000
  0
VERTEX
  8
PLAN_1
 62
     5
  6
CONTINUOUS
 10
-1.972839
 20
1.361618
  0
VERTEX
  8
PLAN_1
 62
     5
  6
CONTINUOUS
 10
-1.972839
 20
1.369949
  0
SEQEND
  8
0
  0
POLYLINE
  8
PLAN_1
 62
     5
  6
CONTINUOUS
 66
     1
 40
0.003000
 41
0.003000
  0
VERTEX
  8
PLAN_1
 62
     5
  6
CONTINUOUS
 10
-1.972839
 20
1.378280
  0
VERTEX
  8
PLAN_1
 62
     5
  6
CONTINUOUS
 10
-1.972839
 20
1.386606
  0
SEQEND
  8
0
  0
POLYLINE
  8
PLAN_1
 62
     5
  6
CONTINUOUS
 66
     1
 40
0.003000
 41
0.003000
  0
VERTEX
  8
PLAN_1
 62
     5
  6
CONTINUOUS
 10
-1.972839
 20
1.394937
  0
VERTEX
  8
PLAN_1
 62
     5
  6
CONTINUOUS
 10
-1.972839
 20
1.403268
  0
SEQEND
  8
0
  0
POLYLINE
  8
PLAN_1
 62
     5
  6
CONTINUOUS
 66
     1
 40
0.003000
 41
0.003000
  0
VERTEX
  8
PLAN_1
 62
     5
  6
CONTINUOUS
 10
-1.972839
 20
1.411598
  0
VERTEX
  8
PLAN_1
 62
     5
  6
CONTINUOUS
 10
-1.972839
 20
1.419925
  0
SEQEND
  8
0
  0
POLYLINE
  8
PLAN_1
 62
     5
  6
CONTINUOUS
 66
     1
 40
0.003000
 41
0.003000
  0
VERTEX
  8
PLAN_1
 62
     5
  6
CONTINUOUS
 10
-1.972839
 20
1.428256
  0
VERTEX
  8
PLAN_1
 62
     5
  6
CONTINUOUS
 10
-1.972839
 20
1.436587
  0
SEQEND
  8
0
  0
POLYLINE
  8
PLAN_1
 62
     5
  6
CONTINUOUS
 66
     1
 40
0.003000
 41
0.003000
  0
VERTEX
  8
PLAN_1
 62
     5
  6
CONTINUOUS
 10
-1.972839
 20
1.444917
  0
VERTEX
  8
PLAN_1
 62
     5
  6
CONTINUOUS
 10
-1.972839
 20
1.453244
  0
SEQEND
  8
0
  0
POLYLINE
  8
PLAN_1
 62
     5
  6
CONTINUOUS
 66
     1
 40
0.003000
 41
0.003000
  0
VERTEX
  8
PLAN_1
 62
     5
  6
CONTINUOUS
 10
-1.972839
 20
1.461575
  0
VERTEX
  8
PLAN_1
 62
     5
  6
CONTINUOUS
 10
-1.972839
 20
1.469906
  0
SEQEND
  8
0
  0
POLYLINE
  8
PLAN_1
 62
     5
  6
CONTINUOUS
 66
     1
 40
0.003000
 41
0.003000
  0
VERTEX
  8
PLAN_1
 62
     5
  6
CONTINUOUS
 10
-1.972839
 20
1.478236
  0
VERTEX
  8
PLAN_1
 62
     5
  6
CONTINUOUS
 10
-1.972839
 20
1.486563
  0
SEQEND
  8
0
  0
POLYLINE
  8
PLAN_1
 62
     5
  6
CONTINUOUS
 66
     1
 40
0.003000
 41
0.003000
  0
VERTEX
  8
PLAN_1
 62
     5
  6
CONTINUOUS
 10
-1.972839
 20
1.494894
  0
VERTEX
  8
PLAN_1
 62
     5
  6
CONTINUOUS
 10
-1.972839
 20
1.503224
  0
SEQEND
  8
0
  0
POLYLINE
  8
PLAN_1
 62
     5
  6
CONTINUOUS
 66
     1
 40
0.003000
 41
0.003000
  0
VERTEX
  8
PLAN_1
 62
     5
  6
CONTINUOUS
 10
-1.972839
 20
1.511551
  0
VERTEX
  8
PLAN_1
 62
     5
  6
CONTINUOUS
 10
-1.972839
 20
1.519882
  0
SEQEND
  8
0
  0
POLYLINE
  8
PLAN_1
 62
     5
  6
CONTINUOUS
 66
     1
 40
0.003000
 41
0.003000
  0
VERTEX
  8
PLAN_1
 62
     5
  6
CONTINUOUS
 10
-1.972839
 20
1.528213
  0
VERTEX
  8
PLAN_1
 62
     5
  6
CONTINUOUS
 10
-1.972839
 20
1.536543
  0
SEQEND
  8
0
  0
POLYLINE
  8
PLAN_1
 62
     5
  6
CONTINUOUS
 66
     1
 40
0.003000
 41
0.003000
  0
VERTEX
  8
PLAN_1
 62
     5
  6
CONTINUOUS
 10
-1.972839
 20
1.544870
  0
VERTEX
  8
PLAN_1
 62
     5
  6
CONTINUOUS
 10
-1.972839
 20
1.553201
  0
SEQEND
  8
0
  0
POLYLINE
  8
PLAN_1
 62
     5
  6
CONTINUOUS
 66
     1
 40
0.003000
 41
0.003000
  0
VERTEX
  8
PLAN_1
 62
     5
  6
CONTINUOUS
 10
-1.972839
 20
1.561531
  0
VERTEX
  8
PLAN_1
 62
     5
  6
CONTINUOUS
 10
-1.972839
 20
1.569862
  0
SEQEND
  8
0
  0
POLYLINE
  8
PLAN_1
 62
     5
  6
CONTINUOUS
 66
     1
 40
0.003000
 41
0.003000
  0
VERTEX
  8
PLAN_1
 62
     5
  6
CONTINUOUS
 10
-1.972839
 20
1.578189
  0
VERTEX
  8
PLAN_1
 62
     5
  6
CONTINUOUS
 10
-1.972839
 20
1.586520
  0
SEQEND
  8
0
  0
POLYLINE
  8
PLAN_1
 62
     5
  6
CONTINUOUS
 66
     1
 40
0.003000
 41
0.003000
  0
VERTEX
  8
PLAN_1
 62
     5
  6
CONTINUOUS
 10
-1.972839
 20
1.594850
  0
VERTEX
  8
PLAN_1
 62
     5
  6
CONTINUOUS
 10
-1.972839
 20
1.603181
  0
SEQEND
  8
0
  0
POLYLINE
  8
PLAN_1
 62
     5
  6
CONTINUOUS
 66
     1
 40
0.003000
 41
0.003000
  0
VERTEX
  8
PLAN_1
 62
     5
  6
CONTINUOUS
 10
-1.972839
 20
1.611508
  0
VERTEX
  8
PLAN_1
 62
     5
  6
CONTINUOUS
 10
-1.972839
 20
1.619839
  0
SEQEND
  8
0
  0
POLYLINE
  8
PLAN_1
 62
     5
  6
CONTINUOUS
 66
     1
 40
0.003000
 41
0.003000
  0
VERTEX
  8
PLAN_1
 62
     5
  6
CONTINUOUS
 10
-1.972839
 20
1.628169
  0
VERTEX
  8
PLAN_1
 62
     5
  6
CONTINUOUS
 10
-1.972839
 20
1.636496
  0
SEQEND
  8
0
  0
POLYLINE
  8
PLAN_1
 62
     5
  6
CONTINUOUS
 66
     1
 40
0.003000
 41
0.003000
  0
VERTEX
  8
PLAN_1
 62
     5
  6
CONTINUOUS
 10
-1.972839
 20
1.644827
  0
VERTEX
  8
PLAN_1
 62
     5
  6
CONTINUOUS
 10
-1.972839
 20
1.653157
  0
SEQEND
  8
0
  0
POLYLINE
  8
PLAN_1
 62
     5
  6
CONTINUOUS
 66
     1
 40
0.003000
 41
0.003000
  0
VERTEX
  8
PLAN_1
 62
     5
  6
CONTINUOUS
 10
-1.972839
 20
1.661488
  0
VERTEX
  8
PLAN_1
 62
     5
  6
CONTINUOUS
 10
-1.972839
 20
1.669815
  0
SEQEND
  8
0
  0
POLYLINE
  8
PLAN_1
 62
     5
  6
CONTINUOUS
 66
     1
 40
0.003000
 41
0.003000
  0
VERTEX
  8
PLAN_1
 62
     5
  6
CONTINUOUS
 10
-1.972839
 20
1.678146
  0
VERTEX
  8
PLAN_1
 62
     5
  6
CONTINUOUS
 10
-1.972839
 20
1.686476
  0
SEQEND
  8
0
  0
POLYLINE
  8
PLAN_1
 62
     5
  6
CONTINUOUS
 66
     1
 40
0.003000
 41
0.003000
  0
VERTEX
  8
PLAN_1
 62
     5
  6
CONTINUOUS
 10
-1.972839
 20
1.694807
  0
VERTEX
  8
PLAN_1
 62
     5
  6
CONTINUOUS
 10
-1.972839
 20
1.703134
  0
SEQEND
  8
0
  0
POLYLINE
  8
PLAN_1
 62
     5
  6
CONTINUOUS
 66
     1
 40
0.003000
 41
0.003000
  0
VERTEX
  8
PLAN_1
 62
     5
  6
CONTINUOUS
 10
-1.972839
 20
1.711465
  0
VERTEX
  8
PLAN_1
 62
     5
  6
CONTINUOUS
 10
-1.972839
 20
1.719795
  0
SEQEND
  8
0
  0
POLYLINE
  8
PLAN_1
 62
     5
  6
CONTINUOUS
 66
     1
 40
0.003000
 41
0.003000
  0
VERTEX
  8
PLAN_1
 62
     5
  6
CONTINUOUS
 10
-1.972839
 20
1.728126
  0
VERTEX
  8
PLAN_1
 62
     5
  6
CONTINUOUS
 10
-1.972839
 20
1.736453
  0
SEQEND
  8
0
  0
POLYLINE
  8
PLAN_1
 62
     5
  6
CONTINUOUS
 66
     1
 40
0.003000
 41
0.003000
  0
VERTEX
  8
PLAN_1
 62
     5
  6
CONTINUOUS
 10
-1.972839
 20
1.744783
  0
VERTEX
  8
PLAN_1
 62
     5
  6
CONTINUOUS
 10
-1.972839
 20
1.753114
  0
SEQEND
  8
0
  0
POLYLINE
  8
PLAN_1
 62
     5
  6
CONTINUOUS
 66
     1
 40
0.003000
 41
0.003000
  0
VERTEX
  8
PLAN_1
 62
     5
  6
CONTINUOUS
 10
-1.972839
 20
1.761441
  0
VERTEX
  8
PLAN_1
 62
     5
  6
CONTINUOUS
 10
-1.972839
 20
1.769772
  0
SEQEND
  8
0
  0
POLYLINE
  8
PLAN_1
 62
     5
  6
CONTINUOUS
 66
     1
 40
0.003000
 41
0.003000
  0
VERTEX
  8
PLAN_1
 62
     5
  6
CONTINUOUS
 10
-1.972839
 20
1.778102
  0
VERTEX
  8
PLAN_1
 62
     5
  6
CONTINUOUS
 10
-1.972839
 20
1.786433
  0
SEQEND
  8
0
  0
POLYLINE
  8
PLAN_1
 62
     5
  6
CONTINUOUS
 66
     1
 40
0.003000
 41
0.003000
  0
VERTEX
  8
PLAN_1
 62
     5
  6
CONTINUOUS
 10
-1.972839
 20
1.794760
  0
VERTEX
  8
PLAN_1
 62
     5
  6
CONTINUOUS
 10
-1.972839
 20
1.803091
  0
SEQEND
  8
0
  0
POLYLINE
  8
PLAN_1
 62
     5
  6
CONTINUOUS
 66
     1
 40
0.003000
 41
0.003000
  0
VERTEX
  8
PLAN_1
 62
     5
  6
CONTINUOUS
 10
-1.972839
 20
1.811421
  0
VERTEX
  8
PLAN_1
 62
     5
  6
CONTINUOUS
 10
-1.972839
 20
1.819752
  0
SEQEND
  8
0
  0
POLYLINE
  8
PLAN_1
 62
     5
  6
CONTINUOUS
 66
     1
 40
0.003000
 41
0.003000
  0
VERTEX
  8
PLAN_1
 62
     5
  6
CONTINUOUS
 10
-1.972839
 20
1.828079
  0
VERTEX
  8
PLAN_1
 62
     5
  6
CONTINUOUS
 10
-1.972839
 20
1.836409
  0
SEQEND
  8
0
  0
POLYLINE
  8
PLAN_1
 62
     5
  6
CONTINUOUS
 66
     1
 40
0.003000
 41
0.003000
  0
VERTEX
  8
PLAN_1
 62
     5
  6
CONTINUOUS
 10
-1.972839
 20
1.844740
  0
VERTEX
  8
PLAN_1
 62
     5
  6
CONTINUOUS
 10
-1.972839
 20
1.853071
  0
SEQEND
  8
0
  0
POLYLINE
  8
PLAN_1
 62
     5
  6
CONTINUOUS
 66
     1
 40
0.003000
 41
0.003000
  0
VERTEX
  8
PLAN_1
 62
     5
  6
CONTINUOUS
 10
-1.972839
 20
1.861398
  0
VERTEX
  8
PLAN_1
 62
     5
  6
CONTINUOUS
 10
-1.972839
 20
1.869728
  0
SEQEND
  8
0
  0
POLYLINE
  8
PLAN_1
 62
     5
  6
CONTINUOUS
 66
     1
 40
0.003000
 41
0.003000
  0
VERTEX
  8
PLAN_1
 62
     5
  6
CONTINUOUS
 10
-1.972839
 20
1.878059
  0
VERTEX
  8
PLAN_1
 62
     5
  6
CONTINUOUS
 10
-1.972839
 20
1.886386
  0
SEQEND
  8
0
  0
POLYLINE
  8
PLAN_1
 62
     5
  6
CONTINUOUS
 66
     1
 40
0.003000
 41
0.003000
  0
VERTEX
  8
PLAN_1
 62
     5
  6
CONTINUOUS
 10
-1.972839
 20
1.894717
  0
VERTEX
  8
PLAN_1
 62
     5
  6
CONTINUOUS
 10
-1.972839
 20
1.903047
  0
SEQEND
  8
0
  0
POLYLINE
  8
PLAN_1
 62
     5
  6
CONTINUOUS
 66
     1
 40
0.003000
 41
0.003000
  0
VERTEX
  8
PLAN_1
 62
     5
  6
CONTINUOUS
 10
-1.972839
 20
1.911378
  0
VERTEX
  8
PLAN_1
 62
     5
  6
CONTINUOUS
 10
-1.972839
 20
1.919705
  0
SEQEND
  8
0
  0
POLYLINE
  8
PLAN_1
 62
     5
  6
CONTINUOUS
 66
     1
 40
0.003000
 41
0.003000
  0
VERTEX
  8
PLAN_1
 62
     5
  6
CONTINUOUS
 10
-1.972839
 20
1.928035
  0
VERTEX
  8
PLAN_1
 62
     5
  6
CONTINUOUS
 10
-1.972839
 20
1.936366
  0
SEQEND
  8
0
  0
POLYLINE
  8
PLAN_1
 62
     5
  6
CONTINUOUS
 66
     1
 40
0.003000
 41
0.003000
  0
VERTEX
  8
PLAN_1
 62
     5
  6
CONTINUOUS
 10
-1.972839
 20
1.944697
  0
VERTEX
  8
PLAN_1
 62
     5
  6
CONTINUOUS
 10
-1.972839
 20
1.953024
  0
SEQEND
  8
0
  0
POLYLINE
  8
PLAN_1
 62
     5
  6
CONTINUOUS
 66
     1
 40
0.003000
 41
0.003000
  0
VERTEX
  8
PLAN_1
 62
     5
  6
CONTINUOUS
 10
-1.972839
 20
1.961354
  0
VERTEX
  8
PLAN_1
 62
     5
  6
CONTINUOUS
 10
-1.972839
 20
1.969685
  0
SEQEND
  8
0
  0
POLYLINE
  8
PLAN_1
 62
     5
  6
CONTINUOUS
 66
     1
 40
0.003000
 41
0.003000
  0
VERTEX
  8
PLAN_1
 62
     5
  6
CONTINUOUS
 10
-1.972839
 20
1.978016
  0
VERTEX
  8
PLAN_1
 62
     5
  6
CONTINUOUS
 10
-1.972839
 20
1.986343
  0
SEQEND
  8
0
  0
POLYLINE
  8
PLAN_1
 62
     5
  6
CONTINUOUS
 66
     1
 40
0.003000
 41
0.003000
  0
VERTEX
  8
PLAN_1
 62
     5
  6
CONTINUOUS
 10
-1.972839
 20
1.994673
  0
VERTEX
  8
PLAN_1
 62
     5
  6
CONTINUOUS
 10
-1.972839
 20
2.003004
  0
SEQEND
  8
0
  0
POLYLINE
  8
PLAN_1
 62
     5
  6
CONTINUOUS
 66
     1
 40
0.003000
 41
0.003000
  0
VERTEX
  8
PLAN_1
 62
     5
  6
CONTINUOUS
 10
-1.972839
 20
2.011331
  0
VERTEX
  8
PLAN_1
 62
     5
  6
CONTINUOUS
 10
-1.972839
 20
2.019661
  0
SEQEND
  8
0
  0
POLYLINE
  8
PLAN_1
 62
     5
  6
CONTINUOUS
 66
     1
 40
0.003000
 41
0.003000
  0
VERTEX
  8
PLAN_1
 62
     5
  6
CONTINUOUS
 10
-1.972839
 20
2.027992
  0
VERTEX
  8
PLAN_1
 62
     5
  6
CONTINUOUS
 10
-1.972839
 20
2.036323
  0
SEQEND
  8
0
  0
POLYLINE
  8
PLAN_1
 62
     5
  6
CONTINUOUS
 66
     1
 40
0.003000
 41
0.003000
  0
VERTEX
  8
PLAN_1
 62
     5
  6
CONTINUOUS
 10
-1.972839
 20
2.044650
  0
VERTEX
  8
PLAN_1
 62
     5
  6
CONTINUOUS
 10
-1.972839
 20
2.052980
  0
SEQEND
  8
0
  0
POLYLINE
  8
PLAN_1
 62
     5
  6
CONTINUOUS
 66
     1
 40
0.003000
 41
0.003000
  0
VERTEX
  8
PLAN_1
 62
     5
  6
CONTINUOUS
 10
-1.972839
 20
2.054232
  0
VERTEX
  8
PLAN_1
 62
     5
  6
CONTINUOUS
 10
-1.973256
 20
2.058394
  0
VERTEX
  8
PLAN_1
 62
     5
  6
CONTINUOUS
 10
-1.973256
 20
2.062559
  0
SEQEND
  8
0
  0
POLYLINE
  8
PLAN_1
 62
     5
  6
CONTINUOUS
 66
     1
 40
0.003000
 41
0.003000
  0
VERTEX
  8
PLAN_1
 62
     5
  6
CONTINUOUS
 10
-1.971173
 20
2.070472
  0
VERTEX
  8
PLAN_1
 62
     5
  6
CONTINUOUS
 10
-1.969925
 20
2.073803
  0
VERTEX
  8
PLAN_1
 62
     5
  6
CONTINUOUS
 10
-1.968260
 20
2.077138
  0
VERTEX
  8
PLAN_1
 62
     5
  6
CONTINUOUS
 10
-1.967425
 20
2.077969
  0
SEQEND
  8
0
  0
POLYLINE
  8
PLAN_1
 62
     5
  6
CONTINUOUS
 66
     1
 40
0.003000
 41
0.003000
  0
VERTEX
  8
PLAN_1
 62
     5
  6
CONTINUOUS
 10
-1.962012
 20
2.084217
  0
VERTEX
  8
PLAN_1
 62
     5
  6
CONTINUOUS
 10
-1.960760
 20
2.085469
  0
VERTEX
  8
PLAN_1
 62
     5
  6
CONTINUOUS
 10
-1.957846
 20
2.087965
  0
VERTEX
  8
PLAN_1
 62
     5
  6
CONTINUOUS
 10
-1.955346
 20
2.089217
  0
SEQEND
  8
0
  0
POLYLINE
  8
PLAN_1
 62
     5
  6
CONTINUOUS
 66
     1
 40
0.003000
 41
0.003000
  0
VERTEX
  8
PLAN_1
 62
     5
  6
CONTINUOUS
 10
-1.947850
 20
2.092547
  0
VERTEX
  8
PLAN_1
 62
     5
  6
CONTINUOUS
 10
-1.947433
 20
2.092547
  0
VERTEX
  8
PLAN_1
 62
     5
  6
CONTINUOUS
 10
-1.943685
 20
2.093795
  0
VERTEX
  8
PLAN_1
 62
     5
  6
CONTINUOUS
 10
-1.939937
 20
2.094213
  0
VERTEX
  8
PLAN_1
 62
     5
  6
CONTINUOUS
 10
-1.939520
 20
2.094213
  0
SEQEND
  8
0
  0
POLYLINE
  8
PLAN_1
 62
     5
  6
CONTINUOUS
 66
     1
 40
0.003000
 41
0.003000
  0
VERTEX
  8
PLAN_1
 62
     5
  6
CONTINUOUS
 10
-1.935772
 20
2.094630
  0
VERTEX
  8
PLAN_1
 62
     5
  6
CONTINUOUS
 10
-1.927445
 20
2.094630
  0
SEQEND
  8
0
  0
POLYLINE
  8
PLAN_1
 62
     5
  6
CONTINUOUS
 66
     1
 40
0.003000
 41
0.003000
  0
VERTEX
  8
PLAN_1
 62
     5
  6
CONTINUOUS
 10
-1.919114
 20
2.094630
  0
VERTEX
  8
PLAN_1
 62
     5
  6
CONTINUOUS
 10
-1.910783
 20
2.094630
  0
SEQEND
  8
0
  0
POLYLINE
  8
PLAN_1
 62
     5
  6
CONTINUOUS
 66
     1
 40
0.003000
 41
0.003000
  0
VERTEX
  8
PLAN_1
 62
     5
  6
CONTINUOUS
 10
-1.902453
 20
2.094630
  0
VERTEX
  8
PLAN_1
 62
     5
  6
CONTINUOUS
 10
-1.894126
 20
2.094630
  0
SEQEND
  8
0
  0
POLYLINE
  8
PLAN_1
 62
     5
  6
CONTINUOUS
 66
     1
 40
0.003000
 41
0.003000
  0
VERTEX
  8
PLAN_1
 62
     5
  6
CONTINUOUS
 10
-1.885795
 20
2.094630
  0
VERTEX
  8
PLAN_1
 62
     5
  6
CONTINUOUS
 10
-1.877465
 20
2.094630
  0
SEQEND
  8
0
  0
POLYLINE
  8
PLAN_1
 62
     5
  6
CONTINUOUS
 66
     1
 40
0.003000
 41
0.003000
  0
VERTEX
  8
PLAN_1
 62
     5
  6
CONTINUOUS
 10
-1.869134
 20
2.094630
  0
VERTEX
  8
PLAN_1
 62
     5
  6
CONTINUOUS
 10
-1.860807
 20
2.094630
  0
SEQEND
  8
0
  0
POLYLINE
  8
PLAN_1
 62
     5
  6
CONTINUOUS
 66
     1
 40
0.003000
 41
0.003000
  0
VERTEX
  8
PLAN_1
 62
     5
  6
CONTINUOUS
 10
-1.852476
 20
2.094630
  0
VERTEX
  8
PLAN_1
 62
     5
  6
CONTINUOUS
 10
-1.844146
 20
2.094630
  0
SEQEND
  8
0
  0
POLYLINE
  8
PLAN_1
 62
     5
  6
CONTINUOUS
 66
     1
 40
0.003000
 41
0.003000
  0
VERTEX
  8
PLAN_1
 62
     5
  6
CONTINUOUS
 10
-1.835815
 20
2.094630
  0
VERTEX
  8
PLAN_1
 62
     5
  6
CONTINUOUS
 10
-1.827488
 20
2.094630
  0
SEQEND
  8
0
  0
POLYLINE
  8
PLAN_1
 62
     5
  6
CONTINUOUS
 66
     1
 40
0.003000
 41
0.003000
  0
VERTEX
  8
PLAN_1
 62
     5
  6
CONTINUOUS
 10
-1.819157
 20
2.094630
  0
VERTEX
  8
PLAN_1
 62
     5
  6
CONTINUOUS
 10
-1.810827
 20
2.094630
  0
SEQEND
  8
0
  0
POLYLINE
  8
PLAN_1
 62
     5
  6
CONTINUOUS
 66
     1
 40
0.003000
 41
0.003000
  0
VERTEX
  8
PLAN_1
 62
     5
  6
CONTINUOUS
 10
-1.802500
 20
2.094630
  0
VERTEX
  8
PLAN_1
 62
     5
  6
CONTINUOUS
 10
-1.794169
 20
2.094630
  0
SEQEND
  8
0
  0
POLYLINE
  8
PLAN_1
 62
     5
  6
CONTINUOUS
 66
     1
 40
0.003000
 41
0.003000
  0
VERTEX
  8
PLAN_1
 62
     5
  6
CONTINUOUS
 10
-1.785839
 20
2.094630
  0
VERTEX
  8
PLAN_1
 62
     5
  6
CONTINUOUS
 10
-1.777508
 20
2.094630
  0
SEQEND
  8
0
  0
POLYLINE
  8
PLAN_1
 62
     5
  6
CONTINUOUS
 66
     1
 40
0.003000
 41
0.003000
  0
VERTEX
  8
PLAN_1
 62
     5
  6
CONTINUOUS
 10
-1.769181
 20
2.094630
  0
VERTEX
  8
PLAN_1
 62
     5
  6
CONTINUOUS
 10
-1.760850
 20
2.094630
  0
SEQEND
  8
0
  0
POLYLINE
  8
PLAN_1
 62
     5
  6
CONTINUOUS
 66
     1
 40
0.003000
 41
0.003000
  0
VERTEX
  8
PLAN_1
 62
     5
  6
CONTINUOUS
 10
-1.752520
 20
2.094630
  0
VERTEX
  8
PLAN_1
 62
     5
  6
CONTINUOUS
 10
-1.744189
 20
2.094630
  0
SEQEND
  8
0
  0
POLYLINE
  8
PLAN_1
 62
     5
  6
CONTINUOUS
 66
     1
 40
0.003000
 41
0.003000
  0
VERTEX
  8
PLAN_1
 62
     5
  6
CONTINUOUS
 10
-1.735862
 20
2.094630
  0
VERTEX
  8
PLAN_1
 62
     5
  6
CONTINUOUS
 10
-1.727531
 20
2.094630
  0
SEQEND
  8
0
  0
POLYLINE
  8
PLAN_1
 62
     5
  6
CONTINUOUS
 66
     1
 40
0.003000
 41
0.003000
  0
VERTEX
  8
PLAN_1
 62
     5
  6
CONTINUOUS
 10
-1.719201
 20
2.094630
  0
VERTEX
  8
PLAN_1
 62
     5
  6
CONTINUOUS
 10
-1.710870
 20
2.094630
  0
SEQEND
  8
0
  0
POLYLINE
  8
PLAN_1
 62
     5
  6
CONTINUOUS
 66
     1
 40
0.003000
 41
0.003000
  0
VERTEX
  8
PLAN_1
 62
     5
  6
CONTINUOUS
 10
-1.702543
 20
2.094630
  0
VERTEX
  8
PLAN_1
 62
     5
  6
CONTINUOUS
 10
-1.694213
 20
2.094630
  0
SEQEND
  8
0
  0
POLYLINE
  8
PLAN_1
 62
     5
  6
CONTINUOUS
 66
     1
 40
0.003000
 41
0.003000
  0
VERTEX
  8
PLAN_1
 62
     5
  6
CONTINUOUS
 10
-1.685882
 20
2.094630
  0
VERTEX
  8
PLAN_1
 62
     5
  6
CONTINUOUS
 10
-1.677555
 20
2.094630
  0
SEQEND
  8
0
  0
POLYLINE
  8
PLAN_1
 62
     5
  6
CONTINUOUS
 66
     1
 40
0.003000
 41
0.003000
  0
VERTEX
  8
PLAN_1
 62
     5
  6
CONTINUOUS
 10
-1.669224
 20
2.094630
  0
VERTEX
  8
PLAN_1
 62
     5
  6
CONTINUOUS
 10
-1.660894
 20
2.094630
  0
SEQEND
  8
0
  0
POLYLINE
  8
PLAN_1
 62
     5
  6
CONTINUOUS
 66
     1
 40
0.003000
 41
0.003000
  0
VERTEX
  8
PLAN_1
 62
     5
  6
CONTINUOUS
 10
-1.652563
 20
2.094630
  0
VERTEX
  8
PLAN_1
 62
     5
  6
CONTINUOUS
 10
-1.644236
 20
2.094630
  0
SEQEND
  8
0
  0
POLYLINE
  8
PLAN_1
 62
     5
  6
CONTINUOUS
 66
     1
 40
0.003000
 41
0.003000
  0
VERTEX
  8
PLAN_1
 62
     5
  6
CONTINUOUS
 10
-1.635906
 20
2.094630
  0
VERTEX
  8
PLAN_1
 62
     5
  6
CONTINUOUS
 10
-1.627575
 20
2.094630
  0
SEQEND
  8
0
  0
POLYLINE
  8
PLAN_1
 62
     5
  6
CONTINUOUS
 66
     1
 40
0.003000
 41
0.003000
  0
VERTEX
  8
PLAN_1
 62
     5
  6
CONTINUOUS
 10
-1.619244
 20
2.094630
  0
VERTEX
  8
PLAN_1
 62
     5
  6
CONTINUOUS
 10
-1.610917
 20
2.094630
  0
SEQEND
  8
0
  0
POLYLINE
  8
PLAN_1
 62
     5
  6
CONTINUOUS
 66
     1
 40
0.003000
 41
0.003000
  0
VERTEX
  8
PLAN_1
 62
     5
  6
CONTINUOUS
 10
-1.602587
 20
2.094630
  0
VERTEX
  8
PLAN_1
 62
     5
  6
CONTINUOUS
 10
-1.594256
 20
2.094630
  0
SEQEND
  8
0
  0
POLYLINE
  8
PLAN_1
 62
     5
  6
CONTINUOUS
 66
     1
 40
0.003000
 41
0.003000
  0
VERTEX
  8
PLAN_1
 62
     5
  6
CONTINUOUS
 10
-1.585925
 20
2.094630
  0
VERTEX
  8
PLAN_1
 62
     5
  6
CONTINUOUS
 10
-1.577598
 20
2.094630
  0
SEQEND
  8
0
  0
POLYLINE
  8
PLAN_1
 62
     5
  6
CONTINUOUS
 66
     1
 40
0.003000
 41
0.003000
  0
VERTEX
  8
PLAN_1
 62
     5
  6
CONTINUOUS
 10
-1.569268
 20
2.094630
  0
VERTEX
  8
PLAN_1
 62
     5
  6
CONTINUOUS
 10
-1.560937
 20
2.094630
  0
SEQEND
  8
0
  0
POLYLINE
  8
PLAN_1
 62
     5
  6
CONTINUOUS
 66
     1
 40
0.003000
 41
0.003000
  0
VERTEX
  8
PLAN_1
 62
     5
  6
CONTINUOUS
 10
-1.552610
 20
2.094630
  0
VERTEX
  8
PLAN_1
 62
     5
  6
CONTINUOUS
 10
-1.544280
 20
2.094630
  0
SEQEND
  8
0
  0
POLYLINE
  8
PLAN_1
 62
     5
  6
CONTINUOUS
 66
     1
 40
0.003000
 41
0.003000
  0
VERTEX
  8
PLAN_1
 62
     5
  6
CONTINUOUS
 10
-1.535949
 20
2.094630
  0
VERTEX
  8
PLAN_1
 62
     5
  6
CONTINUOUS
 10
-1.527618
 20
2.094630
  0
SEQEND
  8
0
  0
POLYLINE
  8
PLAN_1
 62
     5
  6
CONTINUOUS
 66
     1
 40
0.003000
 41
0.003000
  0
VERTEX
  8
PLAN_1
 62
     5
  6
CONTINUOUS
 10
-1.519291
 20
2.094630
  0
VERTEX
  8
PLAN_1
 62
     5
  6
CONTINUOUS
 10
-1.510961
 20
2.094630
  0
SEQEND
  8
0
  0
POLYLINE
  8
PLAN_1
 62
     5
  6
CONTINUOUS
 66
     1
 40
0.003000
 41
0.003000
  0
VERTEX
  8
PLAN_1
 62
     5
  6
CONTINUOUS
 10
-1.502630
 20
2.094630
  0
VERTEX
  8
PLAN_1
 62
     5
  6
CONTINUOUS
 10
-1.494299
 20
2.094630
  0
SEQEND
  8
0
  0
POLYLINE
  8
PLAN_1
 62
     5
  6
CONTINUOUS
 66
     1
 40
0.003000
 41
0.003000
  0
VERTEX
  8
PLAN_1
 62
     5
  6
CONTINUOUS
 10
-1.485972
 20
2.094630
  0
VERTEX
  8
PLAN_1
 62
     5
  6
CONTINUOUS
 10
-1.477642
 20
2.094630
  0
SEQEND
  8
0
  0
POLYLINE
  8
PLAN_1
 62
     5
  6
CONTINUOUS
 66
     1
 40
0.003000
 41
0.003000
  0
VERTEX
  8
PLAN_1
 62
     5
  6
CONTINUOUS
 10
-1.469311
 20
2.094630
  0
VERTEX
  8
PLAN_1
 62
     5
  6
CONTINUOUS
 10
-1.460980
 20
2.094630
  0
SEQEND
  8
0
  0
POLYLINE
  8
PLAN_1
 62
     5
  6
CONTINUOUS
 66
     1
 40
0.003000
 41
0.003000
  0
VERTEX
  8
PLAN_1
 62
     5
  6
CONTINUOUS
 10
-1.452654
 20
2.094630
  0
VERTEX
  8
PLAN_1
 62
     5
  6
CONTINUOUS
 10
-1.444323
 20
2.094630
  0
SEQEND
  8
0
  0
POLYLINE
  8
PLAN_1
 62
     5
  6
CONTINUOUS
 66
     1
 40
0.003000
 41
0.003000
  0
VERTEX
  8
PLAN_1
 62
     5
  6
CONTINUOUS
 10
-1.435992
 20
2.094630
  0
VERTEX
  8
PLAN_1
 62
     5
  6
CONTINUOUS
 10
-1.427665
 20
2.094630
  0
SEQEND
  8
0
  0
POLYLINE
  8
PLAN_1
 62
     5
  6
CONTINUOUS
 66
     1
 40
0.003000
 41
0.003000
  0
VERTEX
  8
PLAN_1
 62
     5
  6
CONTINUOUS
 10
-1.419335
 20
2.094630
  0
VERTEX
  8
PLAN_1
 62
     5
  6
CONTINUOUS
 10
-1.411004
 20
2.094630
  0
SEQEND
  8
0
  0
POLYLINE
  8
PLAN_1
 62
     5
  6
CONTINUOUS
 66
     1
 40
0.003000
 41
0.003000
  0
VERTEX
  8
PLAN_1
 62
     5
  6
CONTINUOUS
 10
-1.402673
 20
2.094630
  0
VERTEX
  8
PLAN_1
 62
     5
  6
CONTINUOUS
 10
-1.394346
 20
2.094630
  0
SEQEND
  8
0
  0
POLYLINE
  8
PLAN_1
 62
     5
  6
CONTINUOUS
 66
     1
 40
0.003000
 41
0.003000
  0
VERTEX
  8
PLAN_1
 62
     5
  6
CONTINUOUS
 10
-1.386016
 20
2.094630
  0
VERTEX
  8
PLAN_1
 62
     5
  6
CONTINUOUS
 10
-1.377685
 20
2.094630
  0
SEQEND
  8
0
  0
POLYLINE
  8
PLAN_1
 62
     5
  6
CONTINUOUS
 66
     1
 40
0.003000
 41
0.003000
  0
VERTEX
  8
PLAN_1
 62
     5
  6
CONTINUOUS
 10
-1.369354
 20
2.094630
  0
VERTEX
  8
PLAN_1
 62
     5
  6
CONTINUOUS
 10
-1.361028
 20
2.094630
  0
SEQEND
  8
0
  0
POLYLINE
  8
PLAN_1
 62
     5
  6
CONTINUOUS
 66
     1
 40
0.003000
 41
0.003000
  0
VERTEX
  8
PLAN_1
 62
     5
  6
CONTINUOUS
 10
-1.352697
 20
2.094630
  0
VERTEX
  8
PLAN_1
 62
     5
  6
CONTINUOUS
 10
-1.344366
 20
2.094630
  0
SEQEND
  8
0
  0
POLYLINE
  8
PLAN_1
 62
     5
  6
CONTINUOUS
 66
     1
 40
0.003000
 41
0.003000
  0
VERTEX
  8
PLAN_1
 62
     5
  6
CONTINUOUS
 10
-1.336035
 20
2.094630
  0
VERTEX
  8
PLAN_1
 62
     5
  6
CONTINUOUS
 10
-1.327709
 20
2.094630
  0
SEQEND
  8
0
  0
POLYLINE
  8
PLAN_1
 62
     5
  6
CONTINUOUS
 66
     1
 40
0.003000
 41
0.003000
  0
VERTEX
  8
PLAN_1
 62
     5
  6
CONTINUOUS
 10
-1.319378
 20
2.094630
  0
VERTEX
  8
PLAN_1
 62
     5
  6
CONTINUOUS
 10
-1.311047
 20
2.094630
  0
SEQEND
  8
0
  0
POLYLINE
  8
PLAN_1
 62
     5
  6
CONTINUOUS
 66
     1
 40
0.003000
 41
0.003000
  0
VERTEX
  8
PLAN_1
 62
     5
  6
CONTINUOUS
 10
-1.302720
 20
2.094630
  0
VERTEX
  8
PLAN_1
 62
     5
  6
CONTINUOUS
 10
-1.294390
 20
2.094630
  0
SEQEND
  8
0
  0
POLYLINE
  8
PLAN_1
 62
     5
  6
CONTINUOUS
 66
     1
 40
0.003000
 41
0.003000
  0
VERTEX
  8
PLAN_1
 62
     5
  6
CONTINUOUS
 10
-1.286059
 20
2.094630
  0
VERTEX
  8
PLAN_1
 62
     5
  6
CONTINUOUS
 10
-1.277728
 20
2.094630
  0
SEQEND
  8
0
  0
POLYLINE
  8
PLAN_1
 62
     5
  6
CONTINUOUS
 66
     1
 40
0.003000
 41
0.003000
  0
VERTEX
  8
PLAN_1
 62
     5
  6
CONTINUOUS
 10
-1.269402
 20
2.094630
  0
VERTEX
  8
PLAN_1
 62
     5
  6
CONTINUOUS
 10
-1.261071
 20
2.094630
  0
SEQEND
  8
0
  0
POLYLINE
  8
PLAN_1
 62
     5
  6
CONTINUOUS
 66
     1
 40
0.003000
 41
0.003000
  0
VERTEX
  8
PLAN_1
 62
     5
  6
CONTINUOUS
 10
-1.252740
 20
2.094630
  0
VERTEX
  8
PLAN_1
 62
     5
  6
CONTINUOUS
 10
-1.244409
 20
2.094630
  0
SEQEND
  8
0
  0
POLYLINE
  8
PLAN_1
 62
     5
  6
CONTINUOUS
 66
     1
 40
0.003000
 41
0.003000
  0
VERTEX
  8
PLAN_1
 62
     5
  6
CONTINUOUS
 10
-1.236083
 20
2.094630
  0
VERTEX
  8
PLAN_1
 62
     5
  6
CONTINUOUS
 10
-1.227752
 20
2.094630
  0
SEQEND
  8
0
  0
POLYLINE
  8
PLAN_1
 62
     5
  6
CONTINUOUS
 66
     1
 40
0.003000
 41
0.003000
  0
VERTEX
  8
PLAN_1
 62
     5
  6
CONTINUOUS
 10
-1.219421
 20
2.094630
  0
VERTEX
  8
PLAN_1
 62
     5
  6
CONTINUOUS
 10
-1.211091
 20
2.094630
  0
SEQEND
  8
0
  0
POLYLINE
  8
PLAN_1
 62
     5
  6
CONTINUOUS
 66
     1
 40
0.003000
 41
0.003000
  0
VERTEX
  8
PLAN_1
 62
     5
  6
CONTINUOUS
 10
-1.202764
 20
2.094630
  0
VERTEX
  8
PLAN_1
 62
     5
  6
CONTINUOUS
 10
-1.194433
 20
2.094630
  0
SEQEND
  8
0
  0
POLYLINE
  8
PLAN_1
 62
     5
  6
CONTINUOUS
 66
     1
 40
0.003000
 41
0.003000
  0
VERTEX
  8
PLAN_1
 62
     5
  6
CONTINUOUS
 10
-1.186102
 20
2.094630
  0
VERTEX
  8
PLAN_1
 62
     5
  6
CONTINUOUS
 10
-1.177776
 20
2.094630
  0
SEQEND
  8
0
  0
POLYLINE
  8
PLAN_1
 62
     5
  6
CONTINUOUS
 66
     1
 40
0.003000
 41
0.003000
  0
VERTEX
  8
PLAN_1
 62
     5
  6
CONTINUOUS
 10
-1.169445
 20
2.094630
  0
VERTEX
  8
PLAN_1
 62
     5
  6
CONTINUOUS
 10
-1.161114
 20
2.094630
  0
SEQEND
  8
0
  0
POLYLINE
  8
PLAN_1
 62
     5
  6
CONTINUOUS
 66
     1
 40
0.003000
 41
0.003000
  0
VERTEX
  8
PLAN_1
 62
     5
  6
CONTINUOUS
 10
-1.152783
 20
2.094630
  0
VERTEX
  8
PLAN_1
 62
     5
  6
CONTINUOUS
 10
-1.144457
 20
2.094630
  0
SEQEND
  8
0
  0
POLYLINE
  8
PLAN_1
 62
     5
  6
CONTINUOUS
 66
     1
 40
0.003000
 41
0.003000
  0
VERTEX
  8
PLAN_1
 62
     5
  6
CONTINUOUS
 10
-1.136126
 20
2.094630
  0
VERTEX
  8
PLAN_1
 62
     5
  6
CONTINUOUS
 10
-1.127795
 20
2.094630
  0
SEQEND
  8
0
  0
POLYLINE
  8
PLAN_1
 62
     5
  6
CONTINUOUS
 66
     1
 40
0.003000
 41
0.003000
  0
VERTEX
  8
PLAN_1
 62
     5
  6
CONTINUOUS
 10
-1.119882
 20
2.094630
  0
VERTEX
  8
PLAN_1
 62
     5
  6
CONTINUOUS
 10
-1.111551
 20
2.094630
  0
SEQEND
  8
0
  0
POLYLINE
  8
PLAN_1
 62
     5
  6
CONTINUOUS
 66
     1
 40
0.003000
 41
0.003000
  0
VERTEX
  8
PLAN_1
 62
     5
  6
CONTINUOUS
 10
-1.103224
 20
2.094630
  0
VERTEX
  8
PLAN_1
 62
     5
  6
CONTINUOUS
 10
-1.094894
 20
2.094630
  0
SEQEND
  8
0
  0
POLYLINE
  8
PLAN_1
 62
     5
  6
CONTINUOUS
 66
     1
 40
0.003000
 41
0.003000
  0
VERTEX
  8
PLAN_1
 62
     5
  6
CONTINUOUS
 10
-1.086563
 20
2.094630
  0
VERTEX
  8
PLAN_1
 62
     5
  6
CONTINUOUS
 10
-1.078232
 20
2.094630
  0
SEQEND
  8
0
  0
POLYLINE
  8
PLAN_1
 62
     5
  6
CONTINUOUS
 66
     1
 40
0.003000
 41
0.003000
  0
VERTEX
  8
PLAN_1
 62
     5
  6
CONTINUOUS
 10
-1.069906
 20
2.094630
  0
VERTEX
  8
PLAN_1
 62
     5
  6
CONTINUOUS
 10
-1.061575
 20
2.094630
  0
SEQEND
  8
0
  0
POLYLINE
  8
PLAN_1
 62
     5
  6
CONTINUOUS
 66
     1
 40
0.003000
 41
0.003000
  0
VERTEX
  8
PLAN_1
 62
     5
  6
CONTINUOUS
 10
-1.053244
 20
2.094630
  0
VERTEX
  8
PLAN_1
 62
     5
  6
CONTINUOUS
 10
-1.044917
 20
2.094630
  0
SEQEND
  8
0
  0
POLYLINE
  8
PLAN_1
 62
     5
  6
CONTINUOUS
 66
     1
 40
0.003000
 41
0.003000
  0
VERTEX
  8
PLAN_1
 62
     5
  6
CONTINUOUS
 10
-1.036587
 20
2.094630
  0
VERTEX
  8
PLAN_1
 62
     5
  6
CONTINUOUS
 10
-1.028256
 20
2.094630
  0
SEQEND
  8
0
  0
POLYLINE
  8
PLAN_1
 62
     5
  6
CONTINUOUS
 66
     1
 40
0.003000
 41
0.003000
  0
VERTEX
  8
PLAN_1
 62
     5
  6
CONTINUOUS
 10
-1.019925
 20
2.094630
  0
VERTEX
  8
PLAN_1
 62
     5
  6
CONTINUOUS
 10
-1.011598
 20
2.094630
  0
SEQEND
  8
0
  0
POLYLINE
  8
PLAN_1
 62
     5
  6
CONTINUOUS
 66
     1
 40
0.003000
 41
0.003000
  0
VERTEX
  8
PLAN_1
 62
     5
  6
CONTINUOUS
 10
-1.003268
 20
2.094630
  0
VERTEX
  8
PLAN_1
 62
     5
  6
CONTINUOUS
 10
-0.994937
 20
2.094630
  0
SEQEND
  8
0
  0
POLYLINE
  8
PLAN_1
 62
     5
  6
CONTINUOUS
 66
     1
 40
0.003000
 41
0.003000
  0
VERTEX
  8
PLAN_1
 62
     5
  6
CONTINUOUS
 10
-0.986606
 20
2.094630
  0
VERTEX
  8
PLAN_1
 62
     5
  6
CONTINUOUS
 10
-0.978280
 20
2.094630
  0
SEQEND
  8
0
  0
POLYLINE
  8
PLAN_1
 62
     5
  6
CONTINUOUS
 66
     1
 40
0.003000
 41
0.003000
  0
VERTEX
  8
PLAN_1
 62
     5
  6
CONTINUOUS
 10
-0.969949
 20
2.094630
  0
VERTEX
  8
PLAN_1
 62
     5
  6
CONTINUOUS
 10
-0.961618
 20
2.094630
  0
SEQEND
  8
0
  0
POLYLINE
  8
PLAN_1
 62
     5
  6
CONTINUOUS
 66
     1
 40
0.003000
 41
0.003000
  0
VERTEX
  8
PLAN_1
 62
     5
  6
CONTINUOUS
 10
-0.953287
 20
2.094630
  0
VERTEX
  8
PLAN_1
 62
     5
  6
CONTINUOUS
 10
-0.944961
 20
2.094630
  0
SEQEND
  8
0
  0
POLYLINE
  8
PLAN_1
 62
     5
  6
CONTINUOUS
 66
     1
 40
0.003000
 41
0.003000
  0
VERTEX
  8
PLAN_1
 62
     5
  6
CONTINUOUS
 10
-0.936630
 20
2.094630
  0
VERTEX
  8
PLAN_1
 62
     5
  6
CONTINUOUS
 10
-0.928299
 20
2.094630
  0
SEQEND
  8
0
  0
POLYLINE
  8
PLAN_1
 62
     5
  6
CONTINUOUS
 66
     1
 40
0.003000
 41
0.003000
  0
VERTEX
  8
PLAN_1
 62
     5
  6
CONTINUOUS
 10
-0.919972
 20
2.094630
  0
VERTEX
  8
PLAN_1
 62
     5
  6
CONTINUOUS
 10
-0.911642
 20
2.094630
  0
SEQEND
  8
0
  0
POLYLINE
  8
PLAN_1
 62
     5
  6
CONTINUOUS
 66
     1
 40
0.003000
 41
0.003000
  0
VERTEX
  8
PLAN_1
 62
     5
  6
CONTINUOUS
 10
-0.903311
 20
2.094630
  0
VERTEX
  8
PLAN_1
 62
     5
  6
CONTINUOUS
 10
-0.894980
 20
2.094630
  0
SEQEND
  8
0
  0
POLYLINE
  8
PLAN_1
 62
     5
  6
CONTINUOUS
 66
     1
 40
0.003000
 41
0.003000
  0
VERTEX
  8
PLAN_1
 62
     5
  6
CONTINUOUS
 10
-0.886654
 20
2.094630
  0
VERTEX
  8
PLAN_1
 62
     5
  6
CONTINUOUS
 10
-0.878323
 20
2.094630
  0
SEQEND
  8
0
  0
POLYLINE
  8
PLAN_1
 62
     5
  6
CONTINUOUS
 66
     1
 40
0.003000
 41
0.003000
  0
VERTEX
  8
PLAN_1
 62
     5
  6
CONTINUOUS
 10
-0.869992
 20
2.094630
  0
VERTEX
  8
PLAN_1
 62
     5
  6
CONTINUOUS
 10
-0.861661
 20
2.094630
  0
SEQEND
  8
0
  0
POLYLINE
  8
PLAN_1
 62
     5
  6
CONTINUOUS
 66
     1
 40
0.003000
 41
0.003000
  0
VERTEX
  8
PLAN_1
 62
     5
  6
CONTINUOUS
 10
-0.853335
 20
2.094630
  0
VERTEX
  8
PLAN_1
 62
     5
  6
CONTINUOUS
 10
-0.845004
 20
2.094630
  0
SEQEND
  8
0
  0
POLYLINE
  8
PLAN_1
 62
     5
  6
CONTINUOUS
 66
     1
 40
0.003000
 41
0.003000
  0
VERTEX
  8
PLAN_1
 62
     5
  6
CONTINUOUS
 10
-0.836673
 20
2.094630
  0
VERTEX
  8
PLAN_1
 62
     5
  6
CONTINUOUS
 10
-0.828343
 20
2.094630
  0
SEQEND
  8
0
  0
POLYLINE
  8
PLAN_1
 62
     5
  6
CONTINUOUS
 66
     1
 40
0.003000
 41
0.003000
  0
VERTEX
  8
PLAN_1
 62
     5
  6
CONTINUOUS
 10
-0.820016
 20
2.094630
  0
VERTEX
  8
PLAN_1
 62
     5
  6
CONTINUOUS
 10
-0.811685
 20
2.094630
  0
SEQEND
  8
0
  0
POLYLINE
  8
PLAN_1
 62
     5
  6
CONTINUOUS
 66
     1
 40
0.003000
 41
0.003000
  0
VERTEX
  8
PLAN_1
 62
     5
  6
CONTINUOUS
 10
-0.803354
 20
2.094630
  0
VERTEX
  8
PLAN_1
 62
     5
  6
CONTINUOUS
 10
-0.795028
 20
2.094630
  0
SEQEND
  8
0
  0
POLYLINE
  8
PLAN_1
 62
     5
  6
CONTINUOUS
 66
     1
 40
0.003000
 41
0.003000
  0
VERTEX
  8
PLAN_1
 62
     5
  6
CONTINUOUS
 10
-0.786697
 20
2.094630
  0
VERTEX
  8
PLAN_1
 62
     5
  6
CONTINUOUS
 10
-0.778366
 20
2.094630
  0
SEQEND
  8
0
  0
POLYLINE
  8
PLAN_1
 62
     5
  6
CONTINUOUS
 66
     1
 40
0.003000
 41
0.003000
  0
VERTEX
  8
PLAN_1
 62
     5
  6
CONTINUOUS
 10
-0.770035
 20
2.094630
  0
VERTEX
  8
PLAN_1
 62
     5
  6
CONTINUOUS
 10
-0.761709
 20
2.094630
  0
SEQEND
  8
0
  0
POLYLINE
  8
PLAN_1
 62
     5
  6
CONTINUOUS
 66
     1
 40
0.003000
 41
0.003000
  0
VERTEX
  8
PLAN_1
 62
     5
  6
CONTINUOUS
 10
-0.753378
 20
2.094630
  0
VERTEX
  8
PLAN_1
 62
     5
  6
CONTINUOUS
 10
-0.745047
 20
2.094630
  0
SEQEND
  8
0
  0
POLYLINE
  8
PLAN_1
 62
     5
  6
CONTINUOUS
 66
     1
 40
0.003000
 41
0.003000
  0
VERTEX
  8
PLAN_1
 62
     5
  6
CONTINUOUS
 10
-0.736717
 20
2.094630
  0
VERTEX
  8
PLAN_1
 62
     5
  6
CONTINUOUS
 10
-0.728390
 20
2.094630
  0
SEQEND
  8
0
  0
POLYLINE
  8
PLAN_1
 62
     5
  6
CONTINUOUS
 66
     1
 40
0.003000
 41
0.003000
  0
VERTEX
  8
PLAN_1
 62
     5
  6
CONTINUOUS
 10
-0.720059
 20
2.094630
  0
VERTEX
  8
PLAN_1
 62
     5
  6
CONTINUOUS
 10
-0.711728
 20
2.094630
  0
SEQEND
  8
0
  0
POLYLINE
  8
PLAN_1
 62
     5
  6
CONTINUOUS
 66
     1
 40
0.003000
 41
0.003000
  0
VERTEX
  8
PLAN_1
 62
     5
  6
CONTINUOUS
 10
-0.703398
 20
2.094630
  0
VERTEX
  8
PLAN_1
 62
     5
  6
CONTINUOUS
 10
-0.695071
 20
2.094630
  0
SEQEND
  8
0
  0
POLYLINE
  8
PLAN_1
 62
     5
  6
CONTINUOUS
 66
     1
 40
0.003000
 41
0.003000
  0
VERTEX
  8
PLAN_1
 62
     5
  6
CONTINUOUS
 10
-0.686740
 20
2.094630
  0
VERTEX
  8
PLAN_1
 62
     5
  6
CONTINUOUS
 10
-0.678409
 20
2.094630
  0
SEQEND
  8
0
  0
POLYLINE
  8
PLAN_1
 62
     5
  6
CONTINUOUS
 66
     1
 40
0.003000
 41
0.003000
  0
VERTEX
  8
PLAN_1
 62
     5
  6
CONTINUOUS
 10
-0.670083
 20
2.094630
  0
VERTEX
  8
PLAN_1
 62
     5
  6
CONTINUOUS
 10
-0.661752
 20
2.094630
  0
SEQEND
  8
0
  0
POLYLINE
  8
PLAN_1
 62
     5
  6
CONTINUOUS
 66
     1
 40
0.003000
 41
0.003000
  0
VERTEX
  8
PLAN_1
 62
     5
  6
CONTINUOUS
 10
-0.653421
 20
2.094630
  0
VERTEX
  8
PLAN_1
 62
     5
  6
CONTINUOUS
 10
-0.645091
 20
2.094630
  0
SEQEND
  8
0
  0
POLYLINE
  8
PLAN_1
 62
     5
  6
CONTINUOUS
 66
     1
 40
0.003000
 41
0.003000
  0
VERTEX
  8
PLAN_1
 62
     5
  6
CONTINUOUS
 10
-0.636764
 20
2.094630
  0
VERTEX
  8
PLAN_1
 62
     5
  6
CONTINUOUS
 10
-0.628433
 20
2.094630
  0
SEQEND
  8
0
  0
POLYLINE
  8
PLAN_1
 62
     5
  6
CONTINUOUS
 66
     1
 40
0.003000
 41
0.003000
  0
VERTEX
  8
PLAN_1
 62
     5
  6
CONTINUOUS
 10
-0.620102
 20
2.094630
  0
VERTEX
  8
PLAN_1
 62
     5
  6
CONTINUOUS
 10
-0.611772
 20
2.094630
  0
SEQEND
  8
0
  0
POLYLINE
  8
PLAN_1
 62
     5
  6
CONTINUOUS
 66
     1
 40
0.003000
 41
0.003000
  0
VERTEX
  8
PLAN_1
 62
     5
  6
CONTINUOUS
 10
-0.603445
 20
2.094630
  0
VERTEX
  8
PLAN_1
 62
     5
  6
CONTINUOUS
 10
-0.595114
 20
2.094630
  0
SEQEND
  8
0
  0
POLYLINE
  8
PLAN_1
 62
     5
  6
CONTINUOUS
 66
     1
 40
0.003000
 41
0.003000
  0
VERTEX
  8
PLAN_1
 62
     5
  6
CONTINUOUS
 10
-0.586783
 20
2.094630
  0
VERTEX
  8
PLAN_1
 62
     5
  6
CONTINUOUS
 10
-0.578453
 20
2.094630
  0
SEQEND
  8
0
  0
POLYLINE
  8
PLAN_1
 62
     5
  6
CONTINUOUS
 66
     1
 40
0.003000
 41
0.003000
  0
VERTEX
  8
PLAN_1
 62
     5
  6
CONTINUOUS
 10
-0.570126
 20
2.094630
  0
VERTEX
  8
PLAN_1
 62
     5
  6
CONTINUOUS
 10
-0.561795
 20
2.094630
  0
SEQEND
  8
0
  0
POLYLINE
  8
PLAN_1
 62
     5
  6
CONTINUOUS
 66
     1
 40
0.003000
 41
0.003000
  0
VERTEX
  8
PLAN_1
 62
     5
  6
CONTINUOUS
 10
-0.553465
 20
2.094630
  0
VERTEX
  8
PLAN_1
 62
     5
  6
CONTINUOUS
 10
-0.545138
 20
2.094630
  0
SEQEND
  8
0
  0
POLYLINE
  8
PLAN_1
 62
     5
  6
CONTINUOUS
 66
     1
 40
0.003000
 41
0.003000
  0
VERTEX
  8
PLAN_1
 62
     5
  6
CONTINUOUS
 10
-0.536807
 20
2.094630
  0
VERTEX
  8
PLAN_1
 62
     5
  6
CONTINUOUS
 10
-0.528476
 20
2.094630
  0
SEQEND
  8
0
  0
POLYLINE
  8
PLAN_1
 62
     5
  6
CONTINUOUS
 66
     1
 40
0.003000
 41
0.003000
  0
VERTEX
  8
PLAN_1
 62
     5
  6
CONTINUOUS
 10
-0.520146
 20
2.094630
  0
VERTEX
  8
PLAN_1
 62
     5
  6
CONTINUOUS
 10
-0.511819
 20
2.094630
  0
SEQEND
  8
0
  0
POLYLINE
  8
PLAN_1
 62
     5
  6
CONTINUOUS
 66
     1
 40
0.003000
 41
0.003000
  0
VERTEX
  8
PLAN_1
 62
     5
  6
CONTINUOUS
 10
-0.503488
 20
2.094630
  0
VERTEX
  8
PLAN_1
 62
     5
  6
CONTINUOUS
 10
-0.495157
 20
2.094630
  0
SEQEND
  8
0
  0
POLYLINE
  8
PLAN_1
 62
     5
  6
CONTINUOUS
 66
     1
 40
0.003000
 41
0.003000
  0
VERTEX
  8
PLAN_1
 62
     5
  6
CONTINUOUS
 10
-0.486827
 20
2.094630
  0
VERTEX
  8
PLAN_1
 62
     5
  6
CONTINUOUS
 10
-0.478500
 20
2.094630
  0
SEQEND
  8
0
  0
POLYLINE
  8
PLAN_1
 62
     5
  6
CONTINUOUS
 66
     1
 40
0.003000
 41
0.003000
  0
VERTEX
  8
PLAN_1
 62
     5
  6
CONTINUOUS
 10
-0.470169
 20
2.094630
  0
VERTEX
  8
PLAN_1
 62
     5
  6
CONTINUOUS
 10
-0.461839
 20
2.094630
  0
SEQEND
  8
0
  0
POLYLINE
  8
PLAN_1
 62
     5
  6
CONTINUOUS
 66
     1
 40
0.003000
 41
0.003000
  0
VERTEX
  8
PLAN_1
 62
     5
  6
CONTINUOUS
 10
-0.453508
 20
2.094630
  0
VERTEX
  8
PLAN_1
 62
     5
  6
CONTINUOUS
 10
-0.445181
 20
2.094630
  0
SEQEND
  8
0
  0
POLYLINE
  8
PLAN_1
 62
     5
  6
CONTINUOUS
 66
     1
 40
0.003000
 41
0.003000
  0
VERTEX
  8
PLAN_1
 62
     5
  6
CONTINUOUS
 10
-0.436850
 20
2.094630
  0
VERTEX
  8
PLAN_1
 62
     5
  6
CONTINUOUS
 10
-0.428520
 20
2.094630
  0
SEQEND
  8
0
  0
POLYLINE
  8
PLAN_1
 62
     5
  6
CONTINUOUS
 66
     1
 40
0.003000
 41
0.003000
  0
VERTEX
  8
PLAN_1
 62
     5
  6
CONTINUOUS
 10
-0.420193
 20
2.094630
  0
VERTEX
  8
PLAN_1
 62
     5
  6
CONTINUOUS
 10
-0.411862
 20
2.094630
  0
SEQEND
  8
0
  0
POLYLINE
  8
PLAN_1
 62
     5
  6
CONTINUOUS
 66
     1
 40
0.003000
 41
0.003000
  0
VERTEX
  8
PLAN_1
 62
     5
  6
CONTINUOUS
 10
-0.403531
 20
2.094630
  0
VERTEX
  8
PLAN_1
 62
     5
  6
CONTINUOUS
 10
-0.395201
 20
2.094630
  0
SEQEND
  8
0
  0
POLYLINE
  8
PLAN_1
 62
     5
  6
CONTINUOUS
 66
     1
 40
0.003000
 41
0.003000
  0
VERTEX
  8
PLAN_1
 62
     5
  6
CONTINUOUS
 10
-0.386874
 20
2.094630
  0
VERTEX
  8
PLAN_1
 62
     5
  6
CONTINUOUS
 10
-0.378543
 20
2.094630
  0
SEQEND
  8
0
  0
POLYLINE
  8
PLAN_1
 62
     5
  6
CONTINUOUS
 66
     1
 40
0.003000
 41
0.003000
  0
VERTEX
  8
PLAN_1
 62
     5
  6
CONTINUOUS
 10
-0.370213
 20
2.094630
  0
VERTEX
  8
PLAN_1
 62
     5
  6
CONTINUOUS
 10
-0.361882
 20
2.094630
  0
SEQEND
  8
0
  0
POLYLINE
  8
PLAN_1
 62
     5
  6
CONTINUOUS
 66
     1
 40
0.003000
 41
0.003000
  0
VERTEX
  8
PLAN_1
 62
     5
  6
CONTINUOUS
 10
-0.361882
 20
2.094630
  0
VERTEX
  8
PLAN_1
 62
     5
  6
CONTINUOUS
 10
-0.357720
 20
2.094213
  0
VERTEX
  8
PLAN_1
 62
     5
  6
CONTINUOUS
 10
-0.353969
 20
2.093795
  0
VERTEX
  8
PLAN_1
 62
     5
  6
CONTINUOUS
 10
-0.353555
 20
2.093795
  0
SEQEND
  8
0
  0
POLYLINE
  8
PLAN_1
 62
     5
  6
CONTINUOUS
 66
     1
 40
0.003000
 41
0.003000
  0
VERTEX
  8
PLAN_1
 62
     5
  6
CONTINUOUS
 10
-0.345642
 20
2.090882
  0
VERTEX
  8
PLAN_1
 62
     5
  6
CONTINUOUS
 10
-0.342724
 20
2.089630
  0
VERTEX
  8
PLAN_1
 62
     5
  6
CONTINUOUS
 10
-0.339394
 20
2.087547
  0
VERTEX
  8
PLAN_1
 62
     5
  6
CONTINUOUS
 10
-0.338559
 20
2.086717
  0
SEQEND
  8
0
  0
POLYLINE
  8
PLAN_1
 62
     5
  6
CONTINUOUS
 66
     1
 40
0.003000
 41
0.003000
  0
VERTEX
  8
PLAN_1
 62
     5
  6
CONTINUOUS
 10
-0.332315
 20
2.081303
  0
VERTEX
  8
PLAN_1
 62
     5
  6
CONTINUOUS
 10
-0.330646
 20
2.080051
  0
VERTEX
  8
PLAN_1
 62
     5
  6
CONTINUOUS
 10
-0.328150
 20
2.076720
  0
VERTEX
  8
PLAN_1
 62
     5
  6
CONTINUOUS
 10
-0.326898
 20
2.075055
  0
SEQEND
  8
0
  0
POLYLINE
  8
PLAN_1
 62
     5
  6
CONTINUOUS
 66
     1
 40
0.003000
 41
0.003000
  0
VERTEX
  8
PLAN_1
 62
     5
  6
CONTINUOUS
 10
-0.323150
 20
2.067559
  0
VERTEX
  8
PLAN_1
 62
     5
  6
CONTINUOUS
 10
-0.322732
 20
2.066307
  0
VERTEX
  8
PLAN_1
 62
     5
  6
CONTINUOUS
 10
-0.321484
 20
2.062559
  0
VERTEX
  8
PLAN_1
 62
     5
  6
CONTINUOUS
 10
-0.321067
 20
2.059646
  0
SEQEND
  8
0
  0
POLYLINE
  8
PLAN_1
 62
     5
  6
CONTINUOUS
 66
     1
 40
0.003000
 41
0.003000
  0
VERTEX
  8
PLAN_1
 62
     5
  6
CONTINUOUS
 10
-0.320236
 20
2.054646
  0
VERTEX
  8
PLAN_1
 62
     5
  6
CONTINUOUS
 10
-0.320236
 20
2.046319
  0
SEQEND
  8
0
  0
POLYLINE
  8
PLAN_1
 62
     5
  6
CONTINUOUS
 66
     1
 40
0.003000
 41
0.003000
  0
VERTEX
  8
PLAN_1
 62
     5
  6
CONTINUOUS
 10
-0.320236
 20
2.037988
  0
VERTEX
  8
PLAN_1
 62
     5
  6
CONTINUOUS
 10
-0.320236
 20
2.029657
  0
SEQEND
  8
0
  0
POLYLINE
  8
PLAN_1
 62
     5
  6
CONTINUOUS
 66
     1
 40
0.003000
 41
0.003000
  0
VERTEX
  8
PLAN_1
 62
     5
  6
CONTINUOUS
 10
-0.320236
 20
2.021327
  0
VERTEX
  8
PLAN_1
 62
     5
  6
CONTINUOUS
 10
-0.320236
 20
2.013000
  0
SEQEND
  8
0
  0
POLYLINE
  8
PLAN_1
 62
     5
  6
CONTINUOUS
 66
     1
 40
0.003000
 41
0.003000
  0
VERTEX
  8
PLAN_1
 62
     5
  6
CONTINUOUS
 10
-0.320236
 20
2.004669
  0
VERTEX
  8
PLAN_1
 62
     5
  6
CONTINUOUS
 10
-0.320236
 20
1.996339
  0
SEQEND
  8
0
  0
POLYLINE
  8
PLAN_1
 62
     5
  6
CONTINUOUS
 66
     1
 40
0.003000
 41
0.003000
  0
VERTEX
  8
PLAN_1
 62
     5
  6
CONTINUOUS
 10
-0.320236
 20
1.988008
  0
VERTEX
  8
PLAN_1
 62
     5
  6
CONTINUOUS
 10
-0.320236
 20
1.979681
  0
SEQEND
  8
0
  0
POLYLINE
  8
PLAN_1
 62
     5
  6
CONTINUOUS
 66
     1
 40
0.003000
 41
0.003000
  0
VERTEX
  8
PLAN_1
 62
     5
  6
CONTINUOUS
 10
-0.320236
 20
1.971350
  0
VERTEX
  8
PLAN_1
 62
     5
  6
CONTINUOUS
 10
-0.320236
 20
1.963020
  0
SEQEND
  8
0
  0
POLYLINE
  8
PLAN_1
 62
     5
  6
CONTINUOUS
 66
     1
 40
0.003000
 41
0.003000
  0
VERTEX
  8
PLAN_1
 62
     5
  6
CONTINUOUS
 10
-0.320236
 20
1.954689
  0
VERTEX
  8
PLAN_1
 62
     5
  6
CONTINUOUS
 10
-0.320236
 20
1.946362
  0
SEQEND
  8
0
  0
POLYLINE
  8
PLAN_1
 62
     5
  6
CONTINUOUS
 66
     1
 40
0.003000
 41
0.003000
  0
VERTEX
  8
PLAN_1
 62
     5
  6
CONTINUOUS
 10
-0.320236
 20
1.938031
  0
VERTEX
  8
PLAN_1
 62
     5
  6
CONTINUOUS
 10
-0.320236
 20
1.929701
  0
SEQEND
  8
0
  0
POLYLINE
  8
PLAN_1
 62
     5
  6
CONTINUOUS
 66
     1
 40
0.003000
 41
0.003000
  0
VERTEX
  8
PLAN_1
 62
     5
  6
CONTINUOUS
 10
-0.320236
 20
1.921374
  0
VERTEX
  8
PLAN_1
 62
     5
  6
CONTINUOUS
 10
-0.320236
 20
1.913043
  0
SEQEND
  8
0
  0
POLYLINE
  8
PLAN_1
 62
     5
  6
CONTINUOUS
 66
     1
 40
0.003000
 41
0.003000
  0
VERTEX
  8
PLAN_1
 62
     5
  6
CONTINUOUS
 10
-0.320236
 20
1.904713
  0
VERTEX
  8
PLAN_1
 62
     5
  6
CONTINUOUS
 10
-0.320236
 20
1.896382
  0
SEQEND
  8
0
  0
POLYLINE
  8
PLAN_1
 62
     5
  6
CONTINUOUS
 66
     1
 40
0.003000
 41
0.003000
  0
VERTEX
  8
PLAN_1
 62
     5
  6
CONTINUOUS
 10
-0.320236
 20
1.888055
  0
VERTEX
  8
PLAN_1
 62
     5
  6
CONTINUOUS
 10
-0.320236
 20
1.879724
  0
SEQEND
  8
0
  0
POLYLINE
  8
PLAN_1
 62
     5
  6
CONTINUOUS
 66
     1
 40
0.003000
 41
0.003000
  0
VERTEX
  8
PLAN_1
 62
     5
  6
CONTINUOUS
 10
-0.320236
 20
1.871394
  0
VERTEX
  8
PLAN_1
 62
     5
  6
CONTINUOUS
 10
-0.320236
 20
1.863063
  0
SEQEND
  8
0
  0
POLYLINE
  8
PLAN_1
 62
     5
  6
CONTINUOUS
 66
     1
 40
0.003000
 41
0.003000
  0
VERTEX
  8
PLAN_1
 62
     5
  6
CONTINUOUS
 10
-0.320236
 20
1.854736
  0
VERTEX
  8
PLAN_1
 62
     5
  6
CONTINUOUS
 10
-0.320236
 20
1.846406
  0
SEQEND
  8
0
  0
POLYLINE
  8
PLAN_1
 62
     5
  6
CONTINUOUS
 66
     1
 40
0.003000
 41
0.003000
  0
VERTEX
  8
PLAN_1
 62
     5
  6
CONTINUOUS
 10
-0.320236
 20
1.838075
  0
VERTEX
  8
PLAN_1
 62
     5
  6
CONTINUOUS
 10
-0.320236
 20
1.829744
  0
SEQEND
  8
0
  0
POLYLINE
  8
PLAN_1
 62
     5
  6
CONTINUOUS
 66
     1
 40
0.003000
 41
0.003000
  0
VERTEX
  8
PLAN_1
 62
     5
  6
CONTINUOUS
 10
-0.320236
 20
1.821417
  0
VERTEX
  8
PLAN_1
 62
     5
  6
CONTINUOUS
 10
-0.320236
 20
1.813087
  0
SEQEND
  8
0
  0
POLYLINE
  8
PLAN_1
 62
     5
  6
CONTINUOUS
 66
     1
 40
0.003000
 41
0.003000
  0
VERTEX
  8
PLAN_1
 62
     5
  6
CONTINUOUS
 10
-0.320236
 20
1.804756
  0
VERTEX
  8
PLAN_1
 62
     5
  6
CONTINUOUS
 10
-0.320236
 20
1.796429
  0
SEQEND
  8
0
  0
POLYLINE
  8
PLAN_1
 62
     5
  6
CONTINUOUS
 66
     1
 40
0.003000
 41
0.003000
  0
VERTEX
  8
PLAN_1
 62
     5
  6
CONTINUOUS
 10
-0.320236
 20
1.788098
  0
VERTEX
  8
PLAN_1
 62
     5
  6
CONTINUOUS
 10
-0.320236
 20
1.779768
  0
SEQEND
  8
0
  0
POLYLINE
  8
PLAN_1
 62
     5
  6
CONTINUOUS
 66
     1
 40
0.003000
 41
0.003000
  0
VERTEX
  8
PLAN_1
 62
     5
  6
CONTINUOUS
 10
-0.320236
 20
1.771437
  0
VERTEX
  8
PLAN_1
 62
     5
  6
CONTINUOUS
 10
-0.320236
 20
1.763110
  0
SEQEND
  8
0
  0
POLYLINE
  8
PLAN_1
 62
     5
  6
CONTINUOUS
 66
     1
 40
0.003000
 41
0.003000
  0
VERTEX
  8
PLAN_1
 62
     5
  6
CONTINUOUS
 10
-0.320236
 20
1.754780
  0
VERTEX
  8
PLAN_1
 62
     5
  6
CONTINUOUS
 10
-0.320236
 20
1.746449
  0
SEQEND
  8
0
  0
POLYLINE
  8
PLAN_1
 62
     5
  6
CONTINUOUS
 66
     1
 40
0.003000
 41
0.003000
  0
VERTEX
  8
PLAN_1
 62
     5
  6
CONTINUOUS
 10
-0.320236
 20
1.738118
  0
VERTEX
  8
PLAN_1
 62
     5
  6
CONTINUOUS
 10
-0.320236
 20
1.729791
  0
SEQEND
  8
0
  0
POLYLINE
  8
PLAN_1
 62
     5
  6
CONTINUOUS
 66
     1
 40
0.003000
 41
0.003000
  0
VERTEX
  8
PLAN_1
 62
     5
  6
CONTINUOUS
 10
-0.320236
 20
1.721461
  0
VERTEX
  8
PLAN_1
 62
     5
  6
CONTINUOUS
 10
-0.320236
 20
1.713130
  0
SEQEND
  8
0
  0
POLYLINE
  8
PLAN_1
 62
     5
  6
CONTINUOUS
 66
     1
 40
0.003000
 41
0.003000
  0
VERTEX
  8
PLAN_1
 62
     5
  6
CONTINUOUS
 10
-0.320236
 20
1.704799
  0
VERTEX
  8
PLAN_1
 62
     5
  6
CONTINUOUS
 10
-0.320236
 20
1.696472
  0
SEQEND
  8
0
  0
POLYLINE
  8
PLAN_1
 62
     5
  6
CONTINUOUS
 66
     1
 40
0.003000
 41
0.003000
  0
VERTEX
  8
PLAN_1
 62
     5
  6
CONTINUOUS
 10
-0.320236
 20
1.688142
  0
VERTEX
  8
PLAN_1
 62
     5
  6
CONTINUOUS
 10
-0.320236
 20
1.679811
  0
SEQEND
  8
0
  0
POLYLINE
  8
PLAN_1
 62
     5
  6
CONTINUOUS
 66
     1
 40
0.003000
 41
0.003000
  0
VERTEX
  8
PLAN_1
 62
     5
  6
CONTINUOUS
 10
-0.320236
 20
1.671484
  0
VERTEX
  8
PLAN_1
 62
     5
  6
CONTINUOUS
 10
-0.320236
 20
1.663154
  0
SEQEND
  8
0
  0
POLYLINE
  8
PLAN_1
 62
     5
  6
CONTINUOUS
 66
     1
 40
0.003000
 41
0.003000
  0
VERTEX
  8
PLAN_1
 62
     5
  6
CONTINUOUS
 10
-0.320236
 20
1.654823
  0
VERTEX
  8
PLAN_1
 62
     5
  6
CONTINUOUS
 10
-0.320236
 20
1.646492
  0
SEQEND
  8
0
  0
POLYLINE
  8
PLAN_1
 62
     5
  6
CONTINUOUS
 66
     1
 40
0.003000
 41
0.003000
  0
VERTEX
  8
PLAN_1
 62
     5
  6
CONTINUOUS
 10
-0.320236
 20
1.638165
  0
VERTEX
  8
PLAN_1
 62
     5
  6
CONTINUOUS
 10
-0.320236
 20
1.629835
  0
SEQEND
  8
0
  0
POLYLINE
  8
PLAN_1
 62
     5
  6
CONTINUOUS
 66
     1
 40
0.003000
 41
0.003000
  0
VERTEX
  8
PLAN_1
 62
     5
  6
CONTINUOUS
 10
-0.320236
 20
1.621504
  0
VERTEX
  8
PLAN_1
 62
     5
  6
CONTINUOUS
 10
-0.320236
 20
1.613173
  0
SEQEND
  8
0
  0
POLYLINE
  8
PLAN_1
 62
     5
  6
CONTINUOUS
 66
     1
 40
0.003000
 41
0.003000
  0
VERTEX
  8
PLAN_1
 62
     5
  6
CONTINUOUS
 10
-0.320236
 20
1.604846
  0
VERTEX
  8
PLAN_1
 62
     5
  6
CONTINUOUS
 10
-0.320236
 20
1.596516
  0
SEQEND
  8
0
  0
POLYLINE
  8
PLAN_1
 62
     5
  6
CONTINUOUS
 66
     1
 40
0.003000
 41
0.003000
  0
VERTEX
  8
PLAN_1
 62
     5
  6
CONTINUOUS
 10
-0.320236
 20
1.588185
  0
VERTEX
  8
PLAN_1
 62
     5
  6
CONTINUOUS
 10
-0.320236
 20
1.579854
  0
SEQEND
  8
0
  0
POLYLINE
  8
PLAN_1
 62
     5
  6
CONTINUOUS
 66
     1
 40
0.003000
 41
0.003000
  0
VERTEX
  8
PLAN_1
 62
     5
  6
CONTINUOUS
 10
-0.320236
 20
1.571528
  0
VERTEX
  8
PLAN_1
 62
     5
  6
CONTINUOUS
 10
-0.320236
 20
1.563197
  0
SEQEND
  8
0
  0
POLYLINE
  8
PLAN_1
 62
     5
  6
CONTINUOUS
 66
     1
 40
0.003000
 41
0.003000
  0
VERTEX
  8
PLAN_1
 62
     5
  6
CONTINUOUS
 10
-0.320236
 20
1.554866
  0
VERTEX
  8
PLAN_1
 62
     5
  6
CONTINUOUS
 10
-0.320236
 20
1.546539
  0
SEQEND
  8
0
  0
POLYLINE
  8
PLAN_1
 62
     5
  6
CONTINUOUS
 66
     1
 40
0.003000
 41
0.003000
  0
VERTEX
  8
PLAN_1
 62
     5
  6
CONTINUOUS
 10
-0.320236
 20
1.538209
  0
VERTEX
  8
PLAN_1
 62
     5
  6
CONTINUOUS
 10
-0.320236
 20
1.529878
  0
SEQEND
  8
0
  0
POLYLINE
  8
PLAN_1
 62
     5
  6
CONTINUOUS
 66
     1
 40
0.003000
 41
0.003000
  0
VERTEX
  8
PLAN_1
 62
     5
  6
CONTINUOUS
 10
-0.320236
 20
1.521547
  0
VERTEX
  8
PLAN_1
 62
     5
  6
CONTINUOUS
 10
-0.320236
 20
1.513220
  0
SEQEND
  8
0
  0
POLYLINE
  8
PLAN_1
 62
     5
  6
CONTINUOUS
 66
     1
 40
0.003000
 41
0.003000
  0
VERTEX
  8
PLAN_1
 62
     5
  6
CONTINUOUS
 10
-0.320236
 20
1.504890
  0
VERTEX
  8
PLAN_1
 62
     5
  6
CONTINUOUS
 10
-0.320236
 20
1.496559
  0
SEQEND
  8
0
  0
POLYLINE
  8
PLAN_1
 62
     5
  6
CONTINUOUS
 66
     1
 40
0.003000
 41
0.003000
  0
VERTEX
  8
PLAN_1
 62
     5
  6
CONTINUOUS
 10
-0.320236
 20
1.488228
  0
VERTEX
  8
PLAN_1
 62
     5
  6
CONTINUOUS
 10
-0.320236
 20
1.479902
  0
SEQEND
  8
0
  0
POLYLINE
  8
PLAN_1
 62
     5
  6
CONTINUOUS
 66
     1
 40
0.003000
 41
0.003000
  0
VERTEX
  8
PLAN_1
 62
     5
  6
CONTINUOUS
 10
-0.320236
 20
1.471571
  0
VERTEX
  8
PLAN_1
 62
     5
  6
CONTINUOUS
 10
-0.320236
 20
1.463240
  0
SEQEND
  8
0
  0
POLYLINE
  8
PLAN_1
 62
     5
  6
CONTINUOUS
 66
     1
 40
0.003000
 41
0.003000
  0
VERTEX
  8
PLAN_1
 62
     5
  6
CONTINUOUS
 10
-0.320236
 20
1.454909
  0
VERTEX
  8
PLAN_1
 62
     5
  6
CONTINUOUS
 10
-0.320236
 20
1.446583
  0
SEQEND
  8
0
  0
POLYLINE
  8
PLAN_1
 62
     5
  6
CONTINUOUS
 66
     1
 40
0.003000
 41
0.003000
  0
VERTEX
  8
PLAN_1
 62
     5
  6
CONTINUOUS
 10
-0.320236
 20
1.438252
  0
VERTEX
  8
PLAN_1
 62
     5
  6
CONTINUOUS
 10
-0.320236
 20
1.429921
  0
SEQEND
  8
0
  0
POLYLINE
  8
PLAN_1
 62
     5
  6
CONTINUOUS
 66
     1
 40
0.003000
 41
0.003000
  0
VERTEX
  8
PLAN_1
 62
     5
  6
CONTINUOUS
 10
-0.320236
 20
1.421594
  0
VERTEX
  8
PLAN_1
 62
     5
  6
CONTINUOUS
 10
-0.320236
 20
1.413264
  0
SEQEND
  8
0
  0
POLYLINE
  8
PLAN_1
 62
     5
  6
CONTINUOUS
 66
     1
 40
0.003000
 41
0.003000
  0
VERTEX
  8
PLAN_1
 62
     5
  6
CONTINUOUS
 10
-0.320236
 20
1.404933
  0
VERTEX
  8
PLAN_1
 62
     5
  6
CONTINUOUS
 10
-0.320236
 20
1.396602
  0
SEQEND
  8
0
  0
POLYLINE
  8
PLAN_1
 62
     5
  6
CONTINUOUS
 66
     1
 40
0.003000
 41
0.003000
  0
VERTEX
  8
PLAN_1
 62
     5
  6
CONTINUOUS
 10
-0.320236
 20
1.388276
  0
VERTEX
  8
PLAN_1
 62
     5
  6
CONTINUOUS
 10
-0.320236
 20
1.379945
  0
SEQEND
  8
0
  0
POLYLINE
  8
PLAN_1
 62
     5
  6
CONTINUOUS
 66
     1
 40
0.003000
 41
0.003000
  0
VERTEX
  8
PLAN_1
 62
     5
  6
CONTINUOUS
 10
-0.320236
 20
1.371614
  0
VERTEX
  8
PLAN_1
 62
     5
  6
CONTINUOUS
 10
-0.320236
 20
1.363283
  0
SEQEND
  8
0
  0
POLYLINE
  8
PLAN_1
 62
     5
  6
CONTINUOUS
 66
     1
 40
0.003000
 41
0.003000
  0
VERTEX
  8
PLAN_1
 62
     5
  6
CONTINUOUS
 10
-0.320236
 20
1.354957
  0
VERTEX
  8
PLAN_1
 62
     5
  6
CONTINUOUS
 10
-0.320236
 20
1.346626
  0
SEQEND
  8
0
  0
POLYLINE
  8
PLAN_1
 62
     5
  6
CONTINUOUS
 66
     1
 40
0.003000
 41
0.003000
  0
VERTEX
  8
PLAN_1
 62
     5
  6
CONTINUOUS
 10
-0.320236
 20
1.338295
  0
VERTEX
  8
PLAN_1
 62
     5
  6
CONTINUOUS
 10
-0.320236
 20
1.329965
  0
SEQEND
  8
0
  0
POLYLINE
  8
PLAN_1
 62
     5
  6
CONTINUOUS
 66
     1
 40
0.003000
 41
0.003000
  0
VERTEX
  8
PLAN_1
 62
     5
  6
CONTINUOUS
 10
-0.320236
 20
1.321638
  0
VERTEX
  8
PLAN_1
 62
     5
  6
CONTINUOUS
 10
-0.320236
 20
1.313307
  0
SEQEND
  8
0
  0
POLYLINE
  8
PLAN_1
 62
     5
  6
CONTINUOUS
 66
     1
 40
0.003000
 41
0.003000
  0
VERTEX
  8
PLAN_1
 62
     5
  6
CONTINUOUS
 10
-0.650508
 20
1.818917
  0
VERTEX
  8
PLAN_1
 62
     5
  6
CONTINUOUS
 10
-0.642177
 20
1.818917
  0
SEQEND
  8
0
  0
POLYLINE
  8
PLAN_1
 62
     5
  6
CONTINUOUS
 66
     1
 40
0.003000
 41
0.003000
  0
VERTEX
  8
PLAN_1
 62
     5
  6
CONTINUOUS
 10
-0.633846
 20
1.818917
  0
VERTEX
  8
PLAN_1
 62
     5
  6
CONTINUOUS
 10
-0.625516
 20
1.818917
  0
SEQEND
  8
0
  0
POLYLINE
  8
PLAN_1
 62
     5
  6
CONTINUOUS
 66
     1
 40
0.003000
 41
0.003000
  0
VERTEX
  8
PLAN_1
 62
     5
  6
CONTINUOUS
 10
-0.617189
 20
1.818917
  0
VERTEX
  8
PLAN_1
 62
     5
  6
CONTINUOUS
 10
-0.608858
 20
1.818917
  0
SEQEND
  8
0
  0
POLYLINE
  8
PLAN_1
 62
     5
  6
CONTINUOUS
 66
     1
 40
0.003000
 41
0.003000
  0
VERTEX
  8
PLAN_1
 62
     5
  6
CONTINUOUS
 10
-0.600528
 20
1.818917
  0
VERTEX
  8
PLAN_1
 62
     5
  6
CONTINUOUS
 10
-0.592197
 20
1.818917
  0
SEQEND
  8
0
  0
POLYLINE
  8
PLAN_1
 62
     5
  6
CONTINUOUS
 66
     1
 40
0.003000
 41
0.003000
  0
VERTEX
  8
PLAN_1
 62
     5
  6
CONTINUOUS
 10
-0.583870
 20
1.818917
  0
VERTEX
  8
PLAN_1
 62
     5
  6
CONTINUOUS
 10
-0.575539
 20
1.818917
  0
SEQEND
  8
0
  0
POLYLINE
  8
PLAN_1
 62
     5
  6
CONTINUOUS
 66
     1
 40
0.003000
 41
0.003000
  0
VERTEX
  8
PLAN_1
 62
     5
  6
CONTINUOUS
 10
-0.567209
 20
1.818917
  0
VERTEX
  8
PLAN_1
 62
     5
  6
CONTINUOUS
 10
-0.558882
 20
1.818917
  0
SEQEND
  8
0
  0
POLYLINE
  8
PLAN_1
 62
     5
  6
CONTINUOUS
 66
     1
 40
0.003000
 41
0.003000
  0
VERTEX
  8
PLAN_1
 62
     5
  6
CONTINUOUS
 10
-0.550551
 20
1.818917
  0
VERTEX
  8
PLAN_1
 62
     5
  6
CONTINUOUS
 10
-0.542220
 20
1.818917
  0
SEQEND
  8
0
  0
POLYLINE
  8
PLAN_1
 62
     5
  6
CONTINUOUS
 66
     1
 40
0.003000
 41
0.003000
  0
VERTEX
  8
PLAN_1
 62
     5
  6
CONTINUOUS
 10
-0.533890
 20
1.818917
  0
VERTEX
  8
PLAN_1
 62
     5
  6
CONTINUOUS
 10
-0.525563
 20
1.818917
  0
SEQEND
  8
0
  0
POLYLINE
  8
PLAN_1
 62
     5
  6
CONTINUOUS
 66
     1
 40
0.003000
 41
0.003000
  0
VERTEX
  8
PLAN_1
 62
     5
  6
CONTINUOUS
 10
-0.517232
 20
1.818917
  0
VERTEX
  8
PLAN_1
 62
     5
  6
CONTINUOUS
 10
-0.508902
 20
1.818917
  0
SEQEND
  8
0
  0
POLYLINE
  8
PLAN_1
 62
     5
  6
CONTINUOUS
 66
     1
 40
0.003000
 41
0.003000
  0
VERTEX
  8
PLAN_1
 62
     5
  6
CONTINUOUS
 10
-0.500571
 20
1.818917
  0
VERTEX
  8
PLAN_1
 62
     5
  6
CONTINUOUS
 10
-0.492244
 20
1.818917
  0
SEQEND
  8
0
  0
POLYLINE
  8
PLAN_1
 62
     5
  6
CONTINUOUS
 66
     1
 40
0.003000
 41
0.003000
  0
VERTEX
  8
PLAN_1
 62
     5
  6
CONTINUOUS
 10
-0.483913
 20
1.818917
  0
VERTEX
  8
PLAN_1
 62
     5
  6
CONTINUOUS
 10
-0.475583
 20
1.818917
  0
SEQEND
  8
0
  0
POLYLINE
  8
PLAN_1
 62
     5
  6
CONTINUOUS
 66
     1
 40
0.003000
 41
0.003000
  0
VERTEX
  8
PLAN_1
 62
     5
  6
CONTINUOUS
 10
-0.467252
 20
1.818917
  0
VERTEX
  8
PLAN_1
 62
     5
  6
CONTINUOUS
 10
-0.458925
 20
1.818917
  0
SEQEND
  8
0
  0
POLYLINE
  8
PLAN_1
 62
     5
  6
CONTINUOUS
 66
     1
 40
0.003000
 41
0.003000
  0
VERTEX
  8
PLAN_1
 62
     5
  6
CONTINUOUS
 10
-0.450594
 20
1.818917
  0
VERTEX
  8
PLAN_1
 62
     5
  6
CONTINUOUS
 10
-0.442264
 20
1.818917
  0
SEQEND
  8
0
  0
POLYLINE
  8
PLAN_1
 62
     5
  6
CONTINUOUS
 66
     1
 40
0.003000
 41
0.003000
  0
VERTEX
  8
PLAN_1
 62
     5
  6
CONTINUOUS
 10
-0.433937
 20
1.818917
  0
VERTEX
  8
PLAN_1
 62
     5
  6
CONTINUOUS
 10
-0.425606
 20
1.818917
  0
SEQEND
  8
0
  0
POLYLINE
  8
PLAN_1
 62
     5
  6
CONTINUOUS
 66
     1
 40
0.003000
 41
0.003000
  0
VERTEX
  8
PLAN_1
 62
     5
  6
CONTINUOUS
 10
-0.417276
 20
1.818917
  0
VERTEX
  8
PLAN_1
 62
     5
  6
CONTINUOUS
 10
-0.408945
 20
1.818917
  0
SEQEND
  8
0
  0
POLYLINE
  8
PLAN_1
 62
     5
  6
CONTINUOUS
 66
     1
 40
0.003000
 41
0.003000
  0
VERTEX
  8
PLAN_1
 62
     5
  6
CONTINUOUS
 10
-0.400618
 20
1.818917
  0
VERTEX
  8
PLAN_1
 62
     5
  6
CONTINUOUS
 10
-0.392287
 20
1.818917
  0
SEQEND
  8
0
  0
POLYLINE
  8
PLAN_1
 62
     5
  6
CONTINUOUS
 66
     1
 40
0.003000
 41
0.003000
  0
VERTEX
  8
PLAN_1
 62
     5
  6
CONTINUOUS
 10
-0.383957
 20
1.818917
  0
VERTEX
  8
PLAN_1
 62
     5
  6
CONTINUOUS
 10
-0.375626
 20
1.818917
  0
SEQEND
  8
0
  0
POLYLINE
  8
PLAN_1
 62
     5
  6
CONTINUOUS
 66
     1
 40
0.003000
 41
0.003000
  0
VERTEX
  8
PLAN_1
 62
     5
  6
CONTINUOUS
 10
-0.367299
 20
1.818917
  0
VERTEX
  8
PLAN_1
 62
     5
  6
CONTINUOUS
 10
-0.358969
 20
1.818917
  0
SEQEND
  8
0
  0
POLYLINE
  8
PLAN_1
 62
     5
  6
CONTINUOUS
 66
     1
 40
0.003000
 41
0.003000
  0
VERTEX
  8
PLAN_1
 62
     5
  6
CONTINUOUS
 10
-0.350638
 20
1.818917
  0
VERTEX
  8
PLAN_1
 62
     5
  6
CONTINUOUS
 10
-0.342307
 20
1.818917
  0
SEQEND
  8
0
  0
POLYLINE
  8
PLAN_1
 62
     5
  6
CONTINUOUS
 66
     1
 40
0.003000
 41
0.003000
  0
VERTEX
  8
PLAN_1
 62
     5
  6
CONTINUOUS
 10
-0.333980
 20
1.818917
  0
VERTEX
  8
PLAN_1
 62
     5
  6
CONTINUOUS
 10
-0.326067
 20
1.818917
  0
SEQEND
  8
0
  0
POLYLINE
  8
PLAN_1
 62
     5
  6
CONTINUOUS
 66
     1
 40
0.003000
 41
0.003000
  0
VERTEX
  8
PLAN_1
 62
     5
  6
CONTINUOUS
 10
-0.333980
 20
1.818917
  0
VERTEX
  8
PLAN_1
 62
     5
  6
CONTINUOUS
 10
-0.326067
 20
1.818917
  0
SEQEND
  8
0
  0
POLYLINE
  8
PLAN_1
 62
     5
  6
CONTINUOUS
 66
     1
 40
0.003000
 41
0.003000
  0
VERTEX
  8
PLAN_1
 62
     5
  6
CONTINUOUS
 10
-0.511402
 20
1.686059
  0
VERTEX
  8
PLAN_1
 62
     5
  6
CONTINUOUS
 10
-0.511402
 20
1.694390
  0
SEQEND
  8
0
  0
POLYLINE
  8
PLAN_1
 62
     5
  6
CONTINUOUS
 66
     1
 40
0.003000
 41
0.003000
  0
VERTEX
  8
PLAN_1
 62
     5
  6
CONTINUOUS
 10
-0.511402
 20
1.702720
  0
VERTEX
  8
PLAN_1
 62
     5
  6
CONTINUOUS
 10
-0.511402
 20
1.711047
  0
SEQEND
  8
0
  0
POLYLINE
  8
PLAN_1
 62
     5
  6
CONTINUOUS
 66
     1
 40
0.003000
 41
0.003000
  0
VERTEX
  8
PLAN_1
 62
     5
  6
CONTINUOUS
 10
-0.511402
 20
1.719378
  0
VERTEX
  8
PLAN_1
 62
     5
  6
CONTINUOUS
 10
-0.511402
 20
1.727709
  0
SEQEND
  8
0
  0
POLYLINE
  8
PLAN_1
 62
     5
  6
CONTINUOUS
 66
     1
 40
0.003000
 41
0.003000
  0
VERTEX
  8
PLAN_1
 62
     5
  6
CONTINUOUS
 10
-0.511402
 20
1.736035
  0
VERTEX
  8
PLAN_1
 62
     5
  6
CONTINUOUS
 10
-0.511402
 20
1.744366
  0
SEQEND
  8
0
  0
POLYLINE
  8
PLAN_1
 62
     5
  6
CONTINUOUS
 66
     1
 40
0.003000
 41
0.003000
  0
VERTEX
  8
PLAN_1
 62
     5
  6
CONTINUOUS
 10
-0.511402
 20
1.752697
  0
VERTEX
  8
PLAN_1
 62
     5
  6
CONTINUOUS
 10
-0.511402
 20
1.761028
  0
SEQEND
  8
0
  0
POLYLINE
  8
PLAN_1
 62
     5
  6
CONTINUOUS
 66
     1
 40
0.003000
 41
0.003000
  0
VERTEX
  8
PLAN_1
 62
     5
  6
CONTINUOUS
 10
-0.511402
 20
1.769354
  0
VERTEX
  8
PLAN_1
 62
     5
  6
CONTINUOUS
 10
-0.511402
 20
1.777685
  0
SEQEND
  8
0
  0
POLYLINE
  8
PLAN_1
 62
     5
  6
CONTINUOUS
 66
     1
 40
0.003000
 41
0.003000
  0
VERTEX
  8
PLAN_1
 62
     5
  6
CONTINUOUS
 10
-0.511402
 20
1.786016
  0
VERTEX
  8
PLAN_1
 62
     5
  6
CONTINUOUS
 10
-0.511402
 20
1.794346
  0
SEQEND
  8
0
  0
POLYLINE
  8
PLAN_1
 62
     5
  6
CONTINUOUS
 66
     1
 40
0.003000
 41
0.003000
  0
VERTEX
  8
PLAN_1
 62
     5
  6
CONTINUOUS
 10
-0.511402
 20
1.802673
  0
VERTEX
  8
PLAN_1
 62
     5
  6
CONTINUOUS
 10
-0.511402
 20
1.811004
  0
SEQEND
  8
0
  0
POLYLINE
  8
PLAN_1
 62
     5
  6
CONTINUOUS
 66
     1
 40
0.003000
 41
0.003000
  0
VERTEX
  8
PLAN_1
 62
     5
  6
CONTINUOUS
 10
-0.511402
 20
1.819335
  0
VERTEX
  8
PLAN_1
 62
     5
  6
CONTINUOUS
 10
-0.511402
 20
1.827665
  0
SEQEND
  8
0
  0
POLYLINE
  8
PLAN_1
 62
     5
  6
CONTINUOUS
 66
     1
 40
0.003000
 41
0.003000
  0
VERTEX
  8
PLAN_1
 62
     5
  6
CONTINUOUS
 10
-0.511402
 20
1.835992
  0
VERTEX
  8
PLAN_1
 62
     5
  6
CONTINUOUS
 10
-0.511402
 20
1.844323
  0
SEQEND
  8
0
  0
POLYLINE
  8
PLAN_1
 62
     5
  6
CONTINUOUS
 66
     1
 40
0.003000
 41
0.003000
  0
VERTEX
  8
PLAN_1
 62
     5
  6
CONTINUOUS
 10
-0.511402
 20
1.852654
  0
VERTEX
  8
PLAN_1
 62
     5
  6
CONTINUOUS
 10
-0.511402
 20
1.860980
  0
SEQEND
  8
0
  0
POLYLINE
  8
PLAN_1
 62
     5
  6
CONTINUOUS
 66
     1
 40
0.003000
 41
0.003000
  0
VERTEX
  8
PLAN_1
 62
     5
  6
CONTINUOUS
 10
-0.511402
 20
1.869311
  0
VERTEX
  8
PLAN_1
 62
     5
  6
CONTINUOUS
 10
-0.511402
 20
1.877642
  0
SEQEND
  8
0
  0
POLYLINE
  8
PLAN_1
 62
     5
  6
CONTINUOUS
 66
     1
 40
0.003000
 41
0.003000
  0
VERTEX
  8
PLAN_1
 62
     5
  6
CONTINUOUS
 10
-0.511402
 20
1.885972
  0
VERTEX
  8
PLAN_1
 62
     5
  6
CONTINUOUS
 10
-0.511402
 20
1.894299
  0
SEQEND
  8
0
  0
POLYLINE
  8
PLAN_1
 62
     5
  6
CONTINUOUS
 66
     1
 40
0.003000
 41
0.003000
  0
VERTEX
  8
PLAN_1
 62
     5
  6
CONTINUOUS
 10
-0.511402
 20
1.902630
  0
VERTEX
  8
PLAN_1
 62
     5
  6
CONTINUOUS
 10
-0.511402
 20
1.910961
  0
SEQEND
  8
0
  0
POLYLINE
  8
PLAN_1
 62
     5
  6
CONTINUOUS
 66
     1
 40
0.003000
 41
0.003000
  0
VERTEX
  8
PLAN_1
 62
     5
  6
CONTINUOUS
 10
-0.511402
 20
1.919291
  0
VERTEX
  8
PLAN_1
 62
     5
  6
CONTINUOUS
 10
-0.511402
 20
1.927618
  0
SEQEND
  8
0
  0
POLYLINE
  8
PLAN_1
 62
     5
  6
CONTINUOUS
 66
     1
 40
0.003000
 41
0.003000
  0
VERTEX
  8
PLAN_1
 62
     5
  6
CONTINUOUS
 10
-0.511402
 20
1.935949
  0
VERTEX
  8
PLAN_1
 62
     5
  6
CONTINUOUS
 10
-0.511402
 20
1.944280
  0
SEQEND
  8
0
  0
POLYLINE
  8
PLAN_1
 62
     5
  6
CONTINUOUS
 66
     1
 40
0.003000
 41
0.003000
  0
VERTEX
  8
PLAN_1
 62
     5
  6
CONTINUOUS
 10
-0.511402
 20
1.952610
  0
VERTEX
  8
PLAN_1
 62
     5
  6
CONTINUOUS
 10
-0.511402
 20
1.958441
  0
SEQEND
  8
0
  0
POLYLINE
  8
PLAN_1
 62
     5
  6
CONTINUOUS
 66
     1
 40
0.003000
 41
0.003000
  0
VERTEX
  8
PLAN_1
 62
     5
  6
CONTINUOUS
 10
-0.511402
 20
1.952610
  0
VERTEX
  8
PLAN_1
 62
     5
  6
CONTINUOUS
 10
-0.511402
 20
1.958441
  0
SEQEND
  8
0
  0
POLYLINE
  8
PLAN_1
 62
     5
  6
CONTINUOUS
 66
     1
 40
0.003000
 41
0.003000
  0
VERTEX
  8
PLAN_1
 62
     5
  6
CONTINUOUS
 10
-1.929524
 20
1.818917
  0
VERTEX
  8
PLAN_1
 62
     5
  6
CONTINUOUS
 10
-1.921197
 20
1.818917
  0
SEQEND
  8
0
  0
POLYLINE
  8
PLAN_1
 62
     5
  6
CONTINUOUS
 66
     1
 40
0.003000
 41
0.003000
  0
VERTEX
  8
PLAN_1
 62
     5
  6
CONTINUOUS
 10
-1.912866
 20
1.818917
  0
VERTEX
  8
PLAN_1
 62
     5
  6
CONTINUOUS
 10
-1.904535
 20
1.818917
  0
SEQEND
  8
0
  0
POLYLINE
  8
PLAN_1
 62
     5
  6
CONTINUOUS
 66
     1
 40
0.003000
 41
0.003000
  0
VERTEX
  8
PLAN_1
 62
     5
  6
CONTINUOUS
 10
-1.896209
 20
1.818917
  0
VERTEX
  8
PLAN_1
 62
     5
  6
CONTINUOUS
 10
-1.887878
 20
1.818917
  0
SEQEND
  8
0
  0
POLYLINE
  8
PLAN_1
 62
     5
  6
CONTINUOUS
 66
     1
 40
0.003000
 41
0.003000
  0
VERTEX
  8
PLAN_1
 62
     5
  6
CONTINUOUS
 10
-1.879547
 20
1.818917
  0
VERTEX
  8
PLAN_1
 62
     5
  6
CONTINUOUS
 10
-1.871217
 20
1.818917
  0
SEQEND
  8
0
  0
POLYLINE
  8
PLAN_1
 62
     5
  6
CONTINUOUS
 66
     1
 40
0.003000
 41
0.003000
  0
VERTEX
  8
PLAN_1
 62
     5
  6
CONTINUOUS
 10
-1.862890
 20
1.818917
  0
VERTEX
  8
PLAN_1
 62
     5
  6
CONTINUOUS
 10
-1.854559
 20
1.818917
  0
SEQEND
  8
0
  0
POLYLINE
  8
PLAN_1
 62
     5
  6
CONTINUOUS
 66
     1
 40
0.003000
 41
0.003000
  0
VERTEX
  8
PLAN_1
 62
     5
  6
CONTINUOUS
 10
-1.846228
 20
1.818917
  0
VERTEX
  8
PLAN_1
 62
     5
  6
CONTINUOUS
 10
-1.837898
 20
1.818917
  0
SEQEND
  8
0
  0
POLYLINE
  8
PLAN_1
 62
     5
  6
CONTINUOUS
 66
     1
 40
0.003000
 41
0.003000
  0
VERTEX
  8
PLAN_1
 62
     5
  6
CONTINUOUS
 10
-1.829571
 20
1.818917
  0
VERTEX
  8
PLAN_1
 62
     5
  6
CONTINUOUS
 10
-1.821240
 20
1.818917
  0
SEQEND
  8
0
  0
POLYLINE
  8
PLAN_1
 62
     5
  6
CONTINUOUS
 66
     1
 40
0.003000
 41
0.003000
  0
VERTEX
  8
PLAN_1
 62
     5
  6
CONTINUOUS
 10
-1.812909
 20
1.818917
  0
VERTEX
  8
PLAN_1
 62
     5
  6
CONTINUOUS
 10
-1.804579
 20
1.818917
  0
SEQEND
  8
0
  0
POLYLINE
  8
PLAN_1
 62
     5
  6
CONTINUOUS
 66
     1
 40
0.003000
 41
0.003000
  0
VERTEX
  8
PLAN_1
 62
     5
  6
CONTINUOUS
 10
-1.796252
 20
1.818917
  0
VERTEX
  8
PLAN_1
 62
     5
  6
CONTINUOUS
 10
-1.787921
 20
1.818917
  0
SEQEND
  8
0
  0
POLYLINE
  8
PLAN_1
 62
     5
  6
CONTINUOUS
 66
     1
 40
0.003000
 41
0.003000
  0
VERTEX
  8
PLAN_1
 62
     5
  6
CONTINUOUS
 10
-1.779591
 20
1.818917
  0
VERTEX
  8
PLAN_1
 62
     5
  6
CONTINUOUS
 10
-1.771264
 20
1.818917
  0
SEQEND
  8
0
  0
POLYLINE
  8
PLAN_1
 62
     5
  6
CONTINUOUS
 66
     1
 40
0.003000
 41
0.003000
  0
VERTEX
  8
PLAN_1
 62
     5
  6
CONTINUOUS
 10
-1.763350
 20
1.818917
  0
VERTEX
  8
PLAN_1
 62
     5
  6
CONTINUOUS
 10
-1.755020
 20
1.818917
  0
SEQEND
  8
0
  0
POLYLINE
  8
PLAN_1
 62
     5
  6
CONTINUOUS
 66
     1
 40
0.003000
 41
0.003000
  0
VERTEX
  8
PLAN_1
 62
     5
  6
CONTINUOUS
 10
-1.746689
 20
1.818917
  0
VERTEX
  8
PLAN_1
 62
     5
  6
CONTINUOUS
 10
-1.738358
 20
1.818917
  0
SEQEND
  8
0
  0
POLYLINE
  8
PLAN_1
 62
     5
  6
CONTINUOUS
 66
     1
 40
0.003000
 41
0.003000
  0
VERTEX
  8
PLAN_1
 62
     5
  6
CONTINUOUS
 10
-1.730031
 20
1.818917
  0
VERTEX
  8
PLAN_1
 62
     5
  6
CONTINUOUS
 10
-1.721701
 20
1.818917
  0
SEQEND
  8
0
  0
POLYLINE
  8
PLAN_1
 62
     5
  6
CONTINUOUS
 66
     1
 40
0.003000
 41
0.003000
  0
VERTEX
  8
PLAN_1
 62
     5
  6
CONTINUOUS
 10
-1.713370
 20
1.818917
  0
VERTEX
  8
PLAN_1
 62
     5
  6
CONTINUOUS
 10
-1.705039
 20
1.818917
  0
SEQEND
  8
0
  0
POLYLINE
  8
PLAN_1
 62
     5
  6
CONTINUOUS
 66
     1
 40
0.003000
 41
0.003000
  0
VERTEX
  8
PLAN_1
 62
     5
  6
CONTINUOUS
 10
-1.696713
 20
1.818917
  0
VERTEX
  8
PLAN_1
 62
     5
  6
CONTINUOUS
 10
-1.688382
 20
1.818917
  0
SEQEND
  8
0
  0
POLYLINE
  8
PLAN_1
 62
     5
  6
CONTINUOUS
 66
     1
 40
0.003000
 41
0.003000
  0
VERTEX
  8
PLAN_1
 62
     5
  6
CONTINUOUS
 10
-1.680051
 20
1.818917
  0
VERTEX
  8
PLAN_1
 62
     5
  6
CONTINUOUS
 10
-1.671720
 20
1.818917
  0
SEQEND
  8
0
  0
POLYLINE
  8
PLAN_1
 62
     5
  6
CONTINUOUS
 66
     1
 40
0.003000
 41
0.003000
  0
VERTEX
  8
PLAN_1
 62
     5
  6
CONTINUOUS
 10
-1.663394
 20
1.818917
  0
VERTEX
  8
PLAN_1
 62
     5
  6
CONTINUOUS
 10
-1.655063
 20
1.818917
  0
SEQEND
  8
0
  0
POLYLINE
  8
PLAN_1
 62
     5
  6
CONTINUOUS
 66
     1
 40
0.003000
 41
0.003000
  0
VERTEX
  8
PLAN_1
 62
     5
  6
CONTINUOUS
 10
-1.646732
 20
1.818917
  0
VERTEX
  8
PLAN_1
 62
     5
  6
CONTINUOUS
 10
-1.646319
 20
1.818917
  0
SEQEND
  8
0
  0
POLYLINE
  8
PLAN_1
 62
     5
  6
CONTINUOUS
 66
     1
 40
0.003000
 41
0.003000
  0
VERTEX
  8
PLAN_1
 62
     5
  6
CONTINUOUS
 10
-1.646732
 20
1.818917
  0
VERTEX
  8
PLAN_1
 62
     5
  6
CONTINUOUS
 10
-1.646319
 20
1.818917
  0
SEQEND
  8
0
  0
POLYLINE
  8
PLAN_1
 62
     5
  6
CONTINUOUS
 66
     1
 40
0.003000
 41
0.003000
  0
VERTEX
  8
PLAN_1
 62
     5
  6
CONTINUOUS
 10
-1.790421
 20
1.671067
  0
VERTEX
  8
PLAN_1
 62
     5
  6
CONTINUOUS
 10
-1.790421
 20
1.679398
  0
SEQEND
  8
0
  0
POLYLINE
  8
PLAN_1
 62
     5
  6
CONTINUOUS
 66
     1
 40
0.003000
 41
0.003000
  0
VERTEX
  8
PLAN_1
 62
     5
  6
CONTINUOUS
 10
-1.790421
 20
1.687724
  0
VERTEX
  8
PLAN_1
 62
     5
  6
CONTINUOUS
 10
-1.790421
 20
1.696055
  0
SEQEND
  8
0
  0
POLYLINE
  8
PLAN_1
 62
     5
  6
CONTINUOUS
 66
     1
 40
0.003000
 41
0.003000
  0
VERTEX
  8
PLAN_1
 62
     5
  6
CONTINUOUS
 10
-1.790421
 20
1.704386
  0
VERTEX
  8
PLAN_1
 62
     5
  6
CONTINUOUS
 10
-1.790421
 20
1.712713
  0
SEQEND
  8
0
  0
POLYLINE
  8
PLAN_1
 62
     5
  6
CONTINUOUS
 66
     1
 40
0.003000
 41
0.003000
  0
VERTEX
  8
PLAN_1
 62
     5
  6
CONTINUOUS
 10
-1.790421
 20
1.721043
  0
VERTEX
  8
PLAN_1
 62
     5
  6
CONTINUOUS
 10
-1.790421
 20
1.729374
  0
SEQEND
  8
0
  0
POLYLINE
  8
PLAN_1
 62
     5
  6
CONTINUOUS
 66
     1
 40
0.003000
 41
0.003000
  0
VERTEX
  8
PLAN_1
 62
     5
  6
CONTINUOUS
 10
-1.790421
 20
1.737705
  0
VERTEX
  8
PLAN_1
 62
     5
  6
CONTINUOUS
 10
-1.790421
 20
1.746031
  0
SEQEND
  8
0
  0
POLYLINE
  8
PLAN_1
 62
     5
  6
CONTINUOUS
 66
     1
 40
0.003000
 41
0.003000
  0
VERTEX
  8
PLAN_1
 62
     5
  6
CONTINUOUS
 10
-1.790421
 20
1.754362
  0
VERTEX
  8
PLAN_1
 62
     5
  6
CONTINUOUS
 10
-1.790421
 20
1.762693
  0
SEQEND
  8
0
  0
POLYLINE
  8
PLAN_1
 62
     5
  6
CONTINUOUS
 66
     1
 40
0.003000
 41
0.003000
  0
VERTEX
  8
PLAN_1
 62
     5
  6
CONTINUOUS
 10
-1.790421
 20
1.771024
  0
VERTEX
  8
PLAN_1
 62
     5
  6
CONTINUOUS
 10
-1.790421
 20
1.779350
  0
SEQEND
  8
0
  0
POLYLINE
  8
PLAN_1
 62
     5
  6
CONTINUOUS
 66
     1
 40
0.003000
 41
0.003000
  0
VERTEX
  8
PLAN_1
 62
     5
  6
CONTINUOUS
 10
-1.790421
 20
1.787681
  0
VERTEX
  8
PLAN_1
 62
     5
  6
CONTINUOUS
 10
-1.790421
 20
1.796012
  0
SEQEND
  8
0
  0
POLYLINE
  8
PLAN_1
 62
     5
  6
CONTINUOUS
 66
     1
 40
0.003000
 41
0.003000
  0
VERTEX
  8
PLAN_1
 62
     5
  6
CONTINUOUS
 10
-1.790421
 20
1.803925
  0
VERTEX
  8
PLAN_1
 62
     5
  6
CONTINUOUS
 10
-1.790421
 20
1.812252
  0
SEQEND
  8
0
  0
POLYLINE
  8
PLAN_1
 62
     5
  6
CONTINUOUS
 66
     1
 40
0.003000
 41
0.003000
  0
VERTEX
  8
PLAN_1
 62
     5
  6
CONTINUOUS
 10
-1.790421
 20
1.820583
  0
VERTEX
  8
PLAN_1
 62
     5
  6
CONTINUOUS
 10
-1.790421
 20
1.828913
  0
SEQEND
  8
0
  0
POLYLINE
  8
PLAN_1
 62
     5
  6
CONTINUOUS
 66
     1
 40
0.003000
 41
0.003000
  0
VERTEX
  8
PLAN_1
 62
     5
  6
CONTINUOUS
 10
-1.790421
 20
1.837244
  0
VERTEX
  8
PLAN_1
 62
     5
  6
CONTINUOUS
 10
-1.790421
 20
1.845571
  0
SEQEND
  8
0
  0
POLYLINE
  8
PLAN_1
 62
     5
  6
CONTINUOUS
 66
     1
 40
0.003000
 41
0.003000
  0
VERTEX
  8
PLAN_1
 62
     5
  6
CONTINUOUS
 10
-1.790421
 20
1.853902
  0
VERTEX
  8
PLAN_1
 62
     5
  6
CONTINUOUS
 10
-1.790421
 20
1.862232
  0
SEQEND
  8
0
  0
POLYLINE
  8
PLAN_1
 62
     5
  6
CONTINUOUS
 66
     1
 40
0.003000
 41
0.003000
  0
VERTEX
  8
PLAN_1
 62
     5
  6
CONTINUOUS
 10
-1.790421
 20
1.870563
  0
VERTEX
  8
PLAN_1
 62
     5
  6
CONTINUOUS
 10
-1.790421
 20
1.878890
  0
SEQEND
  8
0
  0
POLYLINE
  8
PLAN_1
 62
     5
  6
CONTINUOUS
 66
     1
 40
0.003000
 41
0.003000
  0
VERTEX
  8
PLAN_1
 62
     5
  6
CONTINUOUS
 10
-1.790421
 20
1.887220
  0
VERTEX
  8
PLAN_1
 62
     5
  6
CONTINUOUS
 10
-1.790421
 20
1.895551
  0
SEQEND
  8
0
  0
POLYLINE
  8
PLAN_1
 62
     5
  6
CONTINUOUS
 66
     1
 40
0.003000
 41
0.003000
  0
VERTEX
  8
PLAN_1
 62
     5
  6
CONTINUOUS
 10
-1.790421
 20
1.903882
  0
VERTEX
  8
PLAN_1
 62
     5
  6
CONTINUOUS
 10
-1.790421
 20
1.912209
  0
SEQEND
  8
0
  0
POLYLINE
  8
PLAN_1
 62
     5
  6
CONTINUOUS
 66
     1
 40
0.003000
 41
0.003000
  0
VERTEX
  8
PLAN_1
 62
     5
  6
CONTINUOUS
 10
-1.790421
 20
1.920539
  0
VERTEX
  8
PLAN_1
 62
     5
  6
CONTINUOUS
 10
-1.790421
 20
1.928870
  0
SEQEND
  8
0
  0
POLYLINE
  8
PLAN_1
 62
     5
  6
CONTINUOUS
 66
     1
 40
0.003000
 41
0.003000
  0
VERTEX
  8
PLAN_1
 62
     5
  6
CONTINUOUS
 10
-1.790421
 20
1.937197
  0
VERTEX
  8
PLAN_1
 62
     5
  6
CONTINUOUS
 10
-1.790421
 20
1.945528
  0
SEQEND
  8
0
  0
POLYLINE
  8
PLAN_1
 62
     5
  6
CONTINUOUS
 66
     1
 40
0.003000
 41
0.003000
  0
VERTEX
  8
PLAN_1
 62
     5
  6
CONTINUOUS
 10
-1.790421
 20
1.953858
  0
VERTEX
  8
PLAN_1
 62
     5
  6
CONTINUOUS
 10
-1.790421
 20
1.962189
  0
SEQEND
  8
0
  0
POLYLINE
  8
PLAN_1
 62
     5
  6
CONTINUOUS
 66
     1
 40
0.003000
 41
0.003000
  0
VERTEX
  8
PLAN_1
 62
     5
  6
CONTINUOUS
 10
-1.790421
 20
1.970516
  0
VERTEX
  8
PLAN_1
 62
     5
  6
CONTINUOUS
 10
-1.790421
 20
1.978846
  0
SEQEND
  8
0
  0
POLYLINE
  8
PLAN_1
 62
     5
  6
CONTINUOUS
 66
     1
 40
0.003000
 41
0.003000
  0
VERTEX
  8
PLAN_1
 62
     5
  6
CONTINUOUS
 10
-1.790421
 20
1.987177
  0
VERTEX
  8
PLAN_1
 62
     5
  6
CONTINUOUS
 10
-1.790421
 20
1.995508
  0
SEQEND
  8
0
  0
POLYLINE
  8
PLAN_1
  6
CONTINUOUS
 66
     1
 40
0.008327
 41
0.008327
  0
VERTEX
  8
PLAN_1
  6
CONTINUOUS
 10
-1.834150
 20
3.050457
  0
VERTEX
  8
PLAN_1
  6
CONTINUOUS
 10
-1.834150
 20
2.094630
  0
VERTEX
  8
PLAN_1
  6
CONTINUOUS
 10
-0.467669
 20
2.094630
  0
VERTEX
  8
PLAN_1
  6
CONTINUOUS
 10
-0.467669
 20
3.050457
  0
VERTEX
  8
PLAN_1
  6
CONTINUOUS
 10
-1.834150
 20
3.050457
  0
SEQEND
  8
0
  0
POLYLINE
  8
PLAN_1
  6
CONTINUOUS
 66
     1
 40
0.008327
 41
0.008327
  0
VERTEX
  8
PLAN_1
  6
CONTINUOUS
 10
-1.833736
 20
2.294126
  0
VERTEX
  8
PLAN_1
  6
CONTINUOUS
 10
-1.492217
 20
2.294126
  0
VERTEX
  8
PLAN_1
  6
CONTINUOUS
 10
-1.492217
 20
2.094630
  0
SEQEND
  8
0
  0
POLYLINE
  8
PLAN_1
  6
CONTINUOUS
 66
     1
 40
0.008327
 41
0.008327
  0
VERTEX
  8
PLAN_1
  6
CONTINUOUS
 10
-0.814185
 20
2.094630
  0
VERTEX
  8
PLAN_1
  6
CONTINUOUS
 10
-0.814185
 20
2.293291
  0
VERTEX
  8
PLAN_1
  6
CONTINUOUS
 10
-0.467252
 20
2.293291
  0
SEQEND
  8
0
  0
POLYLINE
  8
PLAN_1
  6
CONTINUOUS
 66
     1
 40
0.008327
 41
0.008327
  0
VERTEX
  8
PLAN_1
  6
CONTINUOUS
 10
-1.585925
 20
2.294126
  0
VERTEX
  8
PLAN_1
  6
CONTINUOUS
 10
-1.585925
 20
2.094630
  0
SEQEND
  8
0
  0
POLYLINE
  8
PLAN_1
  6
CONTINUOUS
 66
     1
 40
0.008327
 41
0.008327
  0
VERTEX
  8
PLAN_1
  6
CONTINUOUS
 10
-0.711311
 20
2.294126
  0
VERTEX
  8
PLAN_1
  6
CONTINUOUS
 10
-0.711311
 20
2.094630
  0
SEQEND
  8
0
  0
POLYLINE
  8
PLAN_1
  6
CONTINUOUS
 66
     1
 40
0.008327
 41
0.008327
  0
VERTEX
  8
PLAN_1
  6
CONTINUOUS
 10
-0.942461
 20
1.661488
  0
VERTEX
  8
PLAN_1
  6
CONTINUOUS
 10
-0.942461
 20
1.709799
  0
VERTEX
  8
PLAN_1
  6
CONTINUOUS
 10
-1.359358
 20
1.709799
  0
VERTEX
  8
PLAN_1
  6
CONTINUOUS
 10
-1.359358
 20
1.661488
  0
VERTEX
  8
PLAN_1
  6
CONTINUOUS
 10
-0.942461
 20
1.661488
  0
SEQEND
  8
0
  0
POLYLINE
  8
PLAN_1
  6
CONTINUOUS
 66
     1
 40
0.008327
 41
0.008327
  0
VERTEX
  8
PLAN_1
  6
CONTINUOUS
 10
-0.590531
 20
2.070890
  0
VERTEX
  8
PLAN_1
  6
CONTINUOUS
 10
-0.590531
 20
2.094630
  0
VERTEX
  8
PLAN_1
  6
CONTINUOUS
 10
-1.710870
 20
2.094630
  0
VERTEX
  8
PLAN_1
  6
CONTINUOUS
 10
-1.710870
 20
2.070890
  0
VERTEX
  8
PLAN_1
  6
CONTINUOUS
 10
-0.590531
 20
2.070890
  0
SEQEND
  8
0
  0
POLYLINE
  8
PLAN_1
  6
CONTINUOUS
 66
     1
 40
0.008327
 41
0.008327
  0
VERTEX
  8
PLAN_1
  6
CONTINUOUS
 10
-0.807102
 20
1.709799
  0
VERTEX
  8
PLAN_1
  6
CONTINUOUS
 10
-0.807102
 20
2.070890
  0
VERTEX
  8
PLAN_1
  6
CONTINUOUS
 10
-1.494717
 20
2.070890
  0
VERTEX
  8
PLAN_1
  6
CONTINUOUS
 10
-1.494717
 20
1.709799
  0
VERTEX
  8
PLAN_1
  6
CONTINUOUS
 10
-0.807102
 20
1.709799
  0
SEQEND
  8
0
  0
POLYLINE
  8
PLAN_1
 62
     5
  6
CONTINUOUS
 66
     1
 40
0.003000
 41
0.003000
  0
VERTEX
  8
PLAN_1
 62
     5
  6
CONTINUOUS
 10
-1.287307
 20
2.604819
  0
VERTEX
  8
PLAN_1
 62
     5
  6
CONTINUOUS
 10
-1.278980
 20
2.604819
  0
SEQEND
  8
0
  0
POLYLINE
  8
PLAN_1
 62
     5
  6
CONTINUOUS
 66
     1
 40
0.003000
 41
0.003000
  0
VERTEX
  8
PLAN_1
 62
     5
  6
CONTINUOUS
 10
-1.270650
 20
2.604819
  0
VERTEX
  8
PLAN_1
 62
     5
  6
CONTINUOUS
 10
-1.262319
 20
2.604819
  0
SEQEND
  8
0
  0
POLYLINE
  8
PLAN_1
 62
     5
  6
CONTINUOUS
 66
     1
 40
0.003000
 41
0.003000
  0
VERTEX
  8
PLAN_1
 62
     5
  6
CONTINUOUS
 10
-1.253988
 20
2.604819
  0
VERTEX
  8
PLAN_1
 62
     5
  6
CONTINUOUS
 10
-1.245661
 20
2.604819
  0
SEQEND
  8
0
  0
POLYLINE
  8
PLAN_1
 62
     5
  6
CONTINUOUS
 66
     1
 40
0.003000
 41
0.003000
  0
VERTEX
  8
PLAN_1
 62
     5
  6
CONTINUOUS
 10
-1.237331
 20
2.604819
  0
VERTEX
  8
PLAN_1
 62
     5
  6
CONTINUOUS
 10
-1.229000
 20
2.604819
  0
SEQEND
  8
0
  0
POLYLINE
  8
PLAN_1
 62
     5
  6
CONTINUOUS
 66
     1
 40
0.003000
 41
0.003000
  0
VERTEX
  8
PLAN_1
 62
     5
  6
CONTINUOUS
 10
-1.220673
 20
2.604819
  0
VERTEX
  8
PLAN_1
 62
     5
  6
CONTINUOUS
 10
-1.212343
 20
2.604819
  0
SEQEND
  8
0
  0
POLYLINE
  8
PLAN_1
 62
     5
  6
CONTINUOUS
 66
     1
 40
0.003000
 41
0.003000
  0
VERTEX
  8
PLAN_1
 62
     5
  6
CONTINUOUS
 10
-1.204012
 20
2.604819
  0
VERTEX
  8
PLAN_1
 62
     5
  6
CONTINUOUS
 10
-1.195681
 20
2.604819
  0
SEQEND
  8
0
  0
POLYLINE
  8
PLAN_1
 62
     5
  6
CONTINUOUS
 66
     1
 40
0.003000
 41
0.003000
  0
VERTEX
  8
PLAN_1
 62
     5
  6
CONTINUOUS
 10
-1.187354
 20
2.604819
  0
VERTEX
  8
PLAN_1
 62
     5
  6
CONTINUOUS
 10
-1.179024
 20
2.604819
  0
SEQEND
  8
0
  0
POLYLINE
  8
PLAN_1
 62
     5
  6
CONTINUOUS
 66
     1
 40
0.003000
 41
0.003000
  0
VERTEX
  8
PLAN_1
 62
     5
  6
CONTINUOUS
 10
-1.170693
 20
2.604819
  0
VERTEX
  8
PLAN_1
 62
     5
  6
CONTINUOUS
 10
-1.162362
 20
2.604819
  0
SEQEND
  8
0
  0
POLYLINE
  8
PLAN_1
 62
     5
  6
CONTINUOUS
 66
     1
 40
0.003000
 41
0.003000
  0
VERTEX
  8
PLAN_1
 62
     5
  6
CONTINUOUS
 10
-1.154035
 20
2.604819
  0
VERTEX
  8
PLAN_1
 62
     5
  6
CONTINUOUS
 10
-1.145705
 20
2.604819
  0
SEQEND
  8
0
  0
POLYLINE
  8
PLAN_1
 62
     5
  6
CONTINUOUS
 66
     1
 40
0.003000
 41
0.003000
  0
VERTEX
  8
PLAN_1
 62
     5
  6
CONTINUOUS
 10
-1.137374
 20
2.604819
  0
VERTEX
  8
PLAN_1
 62
     5
  6
CONTINUOUS
 10
-1.129043
 20
2.604819
  0
SEQEND
  8
0
  0
POLYLINE
  8
PLAN_1
 62
     5
  6
CONTINUOUS
 66
     1
 40
0.003000
 41
0.003000
  0
VERTEX
  8
PLAN_1
 62
     5
  6
CONTINUOUS
 10
-1.120717
 20
2.604819
  0
VERTEX
  8
PLAN_1
 62
     5
  6
CONTINUOUS
 10
-1.112386
 20
2.604819
  0
SEQEND
  8
0
  0
POLYLINE
  8
PLAN_1
 62
     5
  6
CONTINUOUS
 66
     1
 40
0.003000
 41
0.003000
  0
VERTEX
  8
PLAN_1
 62
     5
  6
CONTINUOUS
 10
-1.104055
 20
2.604819
  0
VERTEX
  8
PLAN_1
 62
     5
  6
CONTINUOUS
 10
-1.095728
 20
2.604819
  0
SEQEND
  8
0
  0
POLYLINE
  8
PLAN_1
 62
     5
  6
CONTINUOUS
 66
     1
 40
0.003000
 41
0.003000
  0
VERTEX
  8
PLAN_1
 62
     5
  6
CONTINUOUS
 10
-1.087398
 20
2.604819
  0
VERTEX
  8
PLAN_1
 62
     5
  6
CONTINUOUS
 10
-1.079067
 20
2.604819
  0
SEQEND
  8
0
  0
POLYLINE
  8
PLAN_1
 62
     5
  6
CONTINUOUS
 66
     1
 40
0.003000
 41
0.003000
  0
VERTEX
  8
PLAN_1
 62
     5
  6
CONTINUOUS
 10
-1.070736
 20
2.604819
  0
VERTEX
  8
PLAN_1
 62
     5
  6
CONTINUOUS
 10
-1.062409
 20
2.604819
  0
SEQEND
  8
0
  0
POLYLINE
  8
PLAN_1
 62
     5
  6
CONTINUOUS
 66
     1
 40
0.003000
 41
0.003000
  0
VERTEX
  8
PLAN_1
 62
     5
  6
CONTINUOUS
 10
-1.054079
 20
2.604819
  0
VERTEX
  8
PLAN_1
 62
     5
  6
CONTINUOUS
 10
-1.045748
 20
2.604819
  0
SEQEND
  8
0
  0
POLYLINE
  8
PLAN_1
 62
     5
  6
CONTINUOUS
 66
     1
 40
0.003000
 41
0.003000
  0
VERTEX
  8
PLAN_1
 62
     5
  6
CONTINUOUS
 10
-1.037417
 20
2.604819
  0
VERTEX
  8
PLAN_1
 62
     5
  6
CONTINUOUS
 10
-1.029091
 20
2.604819
  0
SEQEND
  8
0
  0
POLYLINE
  8
PLAN_1
 62
     5
  6
CONTINUOUS
 66
     1
 40
0.003000
 41
0.003000
  0
VERTEX
  8
PLAN_1
 62
     5
  6
CONTINUOUS
 10
-1.020760
 20
2.604819
  0
VERTEX
  8
PLAN_1
 62
     5
  6
CONTINUOUS
 10
-1.012429
 20
2.604819
  0
SEQEND
  8
0
  0
POLYLINE
  8
PLAN_1
 62
     5
  6
CONTINUOUS
 66
     1
 40
0.003000
 41
0.003000
  0
VERTEX
  8
PLAN_1
 62
     5
  6
CONTINUOUS
 10
-1.147787
 20
2.471547
  0
VERTEX
  8
PLAN_1
 62
     5
  6
CONTINUOUS
 10
-1.147787
 20
2.479874
  0
SEQEND
  8
0
  0
POLYLINE
  8
PLAN_1
 62
     5
  6
CONTINUOUS
 66
     1
 40
0.003000
 41
0.003000
  0
VERTEX
  8
PLAN_1
 62
     5
  6
CONTINUOUS
 10
-1.147787
 20
2.488205
  0
VERTEX
  8
PLAN_1
 62
     5
  6
CONTINUOUS
 10
-1.147787
 20
2.496535
  0
SEQEND
  8
0
  0
POLYLINE
  8
PLAN_1
 62
     5
  6
CONTINUOUS
 66
     1
 40
0.003000
 41
0.003000
  0
VERTEX
  8
PLAN_1
 62
     5
  6
CONTINUOUS
 10
-1.147787
 20
2.504866
  0
VERTEX
  8
PLAN_1
 62
     5
  6
CONTINUOUS
 10
-1.147787
 20
2.513193
  0
SEQEND
  8
0
  0
POLYLINE
  8
PLAN_1
 62
     5
  6
CONTINUOUS
 66
     1
 40
0.003000
 41
0.003000
  0
VERTEX
  8
PLAN_1
 62
     5
  6
CONTINUOUS
 10
-1.147787
 20
2.521524
  0
VERTEX
  8
PLAN_1
 62
     5
  6
CONTINUOUS
 10
-1.147787
 20
2.529854
  0
SEQEND
  8
0
  0
POLYLINE
  8
PLAN_1
 62
     5
  6
CONTINUOUS
 66
     1
 40
0.003000
 41
0.003000
  0
VERTEX
  8
PLAN_1
 62
     5
  6
CONTINUOUS
 10
-1.147787
 20
2.538185
  0
VERTEX
  8
PLAN_1
 62
     5
  6
CONTINUOUS
 10
-1.147787
 20
2.546512
  0
SEQEND
  8
0
  0
POLYLINE
  8
PLAN_1
 62
     5
  6
CONTINUOUS
 66
     1
 40
0.003000
 41
0.003000
  0
VERTEX
  8
PLAN_1
 62
     5
  6
CONTINUOUS
 10
-1.147787
 20
2.554843
  0
VERTEX
  8
PLAN_1
 62
     5
  6
CONTINUOUS
 10
-1.147787
 20
2.563173
  0
SEQEND
  8
0
  0
POLYLINE
  8
PLAN_1
 62
     5
  6
CONTINUOUS
 66
     1
 40
0.003000
 41
0.003000
  0
VERTEX
  8
PLAN_1
 62
     5
  6
CONTINUOUS
 10
-1.147787
 20
2.571504
  0
VERTEX
  8
PLAN_1
 62
     5
  6
CONTINUOUS
 10
-1.147787
 20
2.579831
  0
SEQEND
  8
0
  0
POLYLINE
  8
PLAN_1
 62
     5
  6
CONTINUOUS
 66
     1
 40
0.003000
 41
0.003000
  0
VERTEX
  8
PLAN_1
 62
     5
  6
CONTINUOUS
 10
-1.147787
 20
2.588161
  0
VERTEX
  8
PLAN_1
 62
     5
  6
CONTINUOUS
 10
-1.147787
 20
2.596492
  0
SEQEND
  8
0
  0
POLYLINE
  8
PLAN_1
 62
     5
  6
CONTINUOUS
 66
     1
 40
0.003000
 41
0.003000
  0
VERTEX
  8
PLAN_1
 62
     5
  6
CONTINUOUS
 10
-1.147787
 20
2.604819
  0
VERTEX
  8
PLAN_1
 62
     5
  6
CONTINUOUS
 10
-1.147787
 20
2.613150
  0
SEQEND
  8
0
  0
POLYLINE
  8
PLAN_1
 62
     5
  6
CONTINUOUS
 66
     1
 40
0.003000
 41
0.003000
  0
VERTEX
  8
PLAN_1
 62
     5
  6
CONTINUOUS
 10
-1.147787
 20
2.621480
  0
VERTEX
  8
PLAN_1
 62
     5
  6
CONTINUOUS
 10
-1.147787
 20
2.629811
  0
SEQEND
  8
0
  0
POLYLINE
  8
PLAN_1
 62
     5
  6
CONTINUOUS
 66
     1
 40
0.003000
 41
0.003000
  0
VERTEX
  8
PLAN_1
 62
     5
  6
CONTINUOUS
 10
-1.147787
 20
2.638138
  0
VERTEX
  8
PLAN_1
 62
     5
  6
CONTINUOUS
 10
-1.147787
 20
2.646469
  0
SEQEND
  8
0
  0
POLYLINE
  8
PLAN_1
 62
     5
  6
CONTINUOUS
 66
     1
 40
0.003000
 41
0.003000
  0
VERTEX
  8
PLAN_1
 62
     5
  6
CONTINUOUS
 10
-1.147787
 20
2.654799
  0
VERTEX
  8
PLAN_1
 62
     5
  6
CONTINUOUS
 10
-1.147787
 20
2.663130
  0
SEQEND
  8
0
  0
POLYLINE
  8
PLAN_1
 62
     5
  6
CONTINUOUS
 66
     1
 40
0.003000
 41
0.003000
  0
VERTEX
  8
PLAN_1
 62
     5
  6
CONTINUOUS
 10
-1.147787
 20
2.671457
  0
VERTEX
  8
PLAN_1
 62
     5
  6
CONTINUOUS
 10
-1.147787
 20
2.679787
  0
SEQEND
  8
0
  0
POLYLINE
  8
PLAN_1
 62
     5
  6
CONTINUOUS
 66
     1
 40
0.003000
 41
0.003000
  0
VERTEX
  8
PLAN_1
 62
     5
  6
CONTINUOUS
 10
-1.147787
 20
2.688118
  0
VERTEX
  8
PLAN_1
 62
     5
  6
CONTINUOUS
 10
-1.147787
 20
2.696449
  0
SEQEND
  8
0
  0
POLYLINE
  8
PLAN_1
 62
     5
  6
CONTINUOUS
 66
     1
 40
0.003000
 41
0.003000
  0
VERTEX
  8
PLAN_1
 62
     5
  6
CONTINUOUS
 10
-1.147787
 20
2.704776
  0
VERTEX
  8
PLAN_1
 62
     5
  6
CONTINUOUS
 10
-1.147787
 20
2.713106
  0
SEQEND
  8
0
  0
POLYLINE
  8
PLAN_1
 62
     5
  6
CONTINUOUS
 66
     1
 40
0.003000
 41
0.003000
  0
VERTEX
  8
PLAN_1
 62
     5
  6
CONTINUOUS
 10
-1.147787
 20
2.721437
  0
VERTEX
  8
PLAN_1
 62
     5
  6
CONTINUOUS
 10
-1.147787
 20
2.729764
  0
SEQEND
  8
0
  0
POLYLINE
  8
PLAN_1
 62
     5
  6
CONTINUOUS
 66
     1
 40
0.003000
 41
0.003000
  0
VERTEX
  8
PLAN_1
 62
     5
  6
CONTINUOUS
 10
-1.147787
 20
2.738094
  0
VERTEX
  8
PLAN_1
 62
     5
  6
CONTINUOUS
 10
-1.147787
 20
2.743925
  0
SEQEND
  8
0
  0
POLYLINE
  8
PLAN_1
 62
     5
  6
CONTINUOUS
 66
     1
 40
0.003000
 41
0.003000
  0
VERTEX
  8
PLAN_1
 62
     5
  6
CONTINUOUS
 10
-1.147787
 20
2.738094
  0
VERTEX
  8
PLAN_1
 62
     5
  6
CONTINUOUS
 10
-1.147787
 20
2.743925
  0
SEQEND
  8
0
  0
POLYLINE
  8
PLAN_1
  6
CONTINUOUS
 66
     1
 40
0.008327
 41
0.008327
  0
VERTEX
  8
PLAN_1
  6
CONTINUOUS
 10
-1.150287
 20
2.240815
  0
VERTEX
  8
PLAN_1
  6
CONTINUOUS
 10
-1.131543
 20
2.241232
  0
VERTEX
  8
PLAN_1
  6
CONTINUOUS
 10
-1.113220
 20
2.242480
  0
VERTEX
  8
PLAN_1
  6
CONTINUOUS
 10
-1.094894
 20
2.244980
  0
VERTEX
  8
PLAN_1
  6
CONTINUOUS
 10
-1.076984
 20
2.248311
  0
VERTEX
  8
PLAN_1
  6
CONTINUOUS
 10
-1.059492
 20
2.252059
  0
VERTEX
  8
PLAN_1
  6
CONTINUOUS
 10
-1.042000
 20
2.257059
  0
VERTEX
  8
PLAN_1
  6
CONTINUOUS
 10
-1.024925
 20
2.262890
  0
VERTEX
  8
PLAN_1
  6
CONTINUOUS
 10
-1.008681
 20
2.269551
  0
VERTEX
  8
PLAN_1
  6
CONTINUOUS
 10
-0.992437
 20
2.276634
  0
VERTEX
  8
PLAN_1
  6
CONTINUOUS
 10
-0.976614
 20
2.284547
  0
VERTEX
  8
PLAN_1
  6
CONTINUOUS
 10
-0.961618
 20
2.293709
  0
VERTEX
  8
PLAN_1
  6
CONTINUOUS
 10
-0.946626
 20
2.302870
  0
VERTEX
  8
PLAN_1
  6
CONTINUOUS
 10
-0.932465
 20
2.313283
  0
VERTEX
  8
PLAN_1
  6
CONTINUOUS
 10
-0.918720
 20
2.324110
  0
VERTEX
  8
PLAN_1
  6
CONTINUOUS
 10
-0.905394
 20
2.335358
  0
VERTEX
  8
PLAN_1
  6
CONTINUOUS
 10
-0.892484
 20
2.347433
  0
VERTEX
  8
PLAN_1
  6
CONTINUOUS
 10
-0.880406
 20
2.360346
  0
VERTEX
  8
PLAN_1
  6
CONTINUOUS
 10
-0.869161
 20
2.373256
  0
VERTEX
  8
PLAN_1
  6
CONTINUOUS
 10
-0.858331
 20
2.387000
  0
VERTEX
  8
PLAN_1
  6
CONTINUOUS
 10
-0.848335
 20
2.401579
  0
VERTEX
  8
PLAN_1
  6
CONTINUOUS
 10
-0.838756
 20
2.416154
  0
VERTEX
  8
PLAN_1
  6
CONTINUOUS
 10
-0.830012
 20
2.431563
  0
VERTEX
  8
PLAN_1
  6
CONTINUOUS
 10
-0.821681
 20
2.447390
  0
VERTEX
  8
PLAN_1
  6
CONTINUOUS
 10
-0.814602
 20
2.463217
  0
VERTEX
  8
PLAN_1
  6
CONTINUOUS
 10
-0.807937
 20
2.479874
  0
VERTEX
  8
PLAN_1
  6
CONTINUOUS
 10
-0.802106
 20
2.496953
  0
VERTEX
  8
PLAN_1
  6
CONTINUOUS
 10
-0.797524
 20
2.514028
  0
VERTEX
  8
PLAN_1
  6
CONTINUOUS
 10
-0.793358
 20
2.531937
  0
VERTEX
  8
PLAN_1
  6
CONTINUOUS
 10
-0.790028
 20
2.549846
  0
VERTEX
  8
PLAN_1
  6
CONTINUOUS
 10
-0.787945
 20
2.568169
  0
VERTEX
  8
PLAN_1
  6
CONTINUOUS
 10
-0.786280
 20
2.586496
  0
VERTEX
  8
PLAN_1
  6
CONTINUOUS
 10
-0.785862
 20
2.605236
  0
VERTEX
  8
PLAN_1
  6
CONTINUOUS
 10
-0.786280
 20
2.623980
  0
VERTEX
  8
PLAN_1
  6
CONTINUOUS
 10
-0.787945
 20
2.642720
  0
VERTEX
  8
PLAN_1
  6
CONTINUOUS
 10
-0.790028
 20
2.660630
  0
VERTEX
  8
PLAN_1
  6
CONTINUOUS
 10
-0.793358
 20
2.678957
  0
VERTEX
  8
PLAN_1
  6
CONTINUOUS
 10
-0.797524
 20
2.696449
  0
VERTEX
  8
PLAN_1
  6
CONTINUOUS
 10
-0.802106
 20
2.713524
  0
VERTEX
  8
PLAN_1
  6
CONTINUOUS
 10
-0.807937
 20
2.730598
  0
VERTEX
  8
PLAN_1
  6
CONTINUOUS
 10
-0.814602
 20
2.747260
  0
VERTEX
  8
PLAN_1
  6
CONTINUOUS
 10
-0.821681
 20
2.763500
  0
VERTEX
  8
PLAN_1
  6
CONTINUOUS
 10
-0.830012
 20
2.778909
  0
VERTEX
  8
PLAN_1
  6
CONTINUOUS
 10
-0.838756
 20
2.794319
  0
VERTEX
  8
PLAN_1
  6
CONTINUOUS
 10
-0.848335
 20
2.809315
  0
VERTEX
  8
PLAN_1
  6
CONTINUOUS
 10
-0.858331
 20
2.823472
  0
VERTEX
  8
PLAN_1
  6
CONTINUOUS
 10
-0.869161
 20
2.837217
  0
VERTEX
  8
PLAN_1
  6
CONTINUOUS
 10
-0.880406
 20
2.850547
  0
VERTEX
  8
PLAN_1
  6
CONTINUOUS
 10
-0.892484
 20
2.863039
  0
VERTEX
  8
PLAN_1
  6
CONTINUOUS
 10
-0.905394
 20
2.875118
  0
VERTEX
  8
PLAN_1
  6
CONTINUOUS
 10
-0.918720
 20
2.886780
  0
VERTEX
  8
PLAN_1
  6
CONTINUOUS
 10
-0.932465
 20
2.897610
  0
VERTEX
  8
PLAN_1
  6
CONTINUOUS
 10
-0.946626
 20
2.907602
  0
VERTEX
  8
PLAN_1
  6
CONTINUOUS
 10
-0.961618
 20
2.917181
  0
VERTEX
  8
PLAN_1
  6
CONTINUOUS
 10
-0.976614
 20
2.925929
  0
VERTEX
  8
PLAN_1
  6
CONTINUOUS
 10
-0.992437
 20
2.933843
  0
VERTEX
  8
PLAN_1
  6
CONTINUOUS
 10
-1.008681
 20
2.941339
  0
VERTEX
  8
PLAN_1
  6
CONTINUOUS
 10
-1.024925
 20
2.947587
  0
VERTEX
  8
PLAN_1
  6
CONTINUOUS
 10
-1.042000
 20
2.953417
  0
VERTEX
  8
PLAN_1
  6
CONTINUOUS
 10
-1.059492
 20
2.958413
  0
VERTEX
  8
PLAN_1
  6
CONTINUOUS
 10
-1.076984
 20
2.962579
  0
VERTEX
  8
PLAN_1
  6
CONTINUOUS
 10
-1.094894
 20
2.965496
  0
VERTEX
  8
PLAN_1
  6
CONTINUOUS
 10
-1.113220
 20
2.967992
  0
VERTEX
  8
PLAN_1
  6
CONTINUOUS
 10
-1.131543
 20
2.969244
  0
VERTEX
  8
PLAN_1
  6
CONTINUOUS
 10
-1.150287
 20
2.969661
  0
VERTEX
  8
PLAN_1
  6
CONTINUOUS
 10
-1.169028
 20
2.969244
  0
VERTEX
  8
PLAN_1
  6
CONTINUOUS
 10
-1.187768
 20
2.967992
  0
VERTEX
  8
PLAN_1
  6
CONTINUOUS
 10
-1.206094
 20
2.965496
  0
VERTEX
  8
PLAN_1
  6
CONTINUOUS
 10
-1.224004
 20
2.962579
  0
VERTEX
  8
PLAN_1
  6
CONTINUOUS
 10
-1.241496
 20
2.958413
  0
VERTEX
  8
PLAN_1
  6
CONTINUOUS
 10
-1.258988
 20
2.953417
  0
VERTEX
  8
PLAN_1
  6
CONTINUOUS
 10
-1.275646
 20
2.947587
  0
VERTEX
  8
PLAN_1
  6
CONTINUOUS
 10
-1.292307
 20
2.941339
  0
VERTEX
  8
PLAN_1
  6
CONTINUOUS
 10
-1.308551
 20
2.933843
  0
VERTEX
  8
PLAN_1
  6
CONTINUOUS
 10
-1.324374
 20
2.925929
  0
VERTEX
  8
PLAN_1
  6
CONTINUOUS
 10
-1.339370
 20
2.917181
  0
VERTEX
  8
PLAN_1
  6
CONTINUOUS
 10
-1.354362
 20
2.907602
  0
VERTEX
  8
PLAN_1
  6
CONTINUOUS
 10
-1.368524
 20
2.897610
  0
VERTEX
  8
PLAN_1
  6
CONTINUOUS
 10
-1.382268
 20
2.886780
  0
VERTEX
  8
PLAN_1
  6
CONTINUOUS
 10
-1.395594
 20
2.875118
  0
VERTEX
  8
PLAN_1
  6
CONTINUOUS
 10
-1.408091
 20
2.863039
  0
VERTEX
  8
PLAN_1
  6
CONTINUOUS
 10
-1.420165
 20
2.850547
  0
VERTEX
  8
PLAN_1
  6
CONTINUOUS
 10
-1.431827
 20
2.837217
  0
VERTEX
  8
PLAN_1
  6
CONTINUOUS
 10
-1.442657
 20
2.823472
  0
VERTEX
  8
PLAN_1
  6
CONTINUOUS
 10
-1.452654
 20
2.809315
  0
VERTEX
  8
PLAN_1
  6
CONTINUOUS
 10
-1.462232
 20
2.794319
  0
VERTEX
  8
PLAN_1
  6
CONTINUOUS
 10
-1.470976
 20
2.778909
  0
VERTEX
  8
PLAN_1
  6
CONTINUOUS
 10
-1.478890
 20
2.763500
  0
VERTEX
  8
PLAN_1
  6
CONTINUOUS
 10
-1.486386
 20
2.747260
  0
VERTEX
  8
PLAN_1
  6
CONTINUOUS
 10
-1.493051
 20
2.730598
  0
VERTEX
  8
PLAN_1
  6
CONTINUOUS
 10
-1.498465
 20
2.713524
  0
VERTEX
  8
PLAN_1
  6
CONTINUOUS
 10
-1.503465
 20
2.696449
  0
VERTEX
  8
PLAN_1
  6
CONTINUOUS
 10
-1.507630
 20
2.678957
  0
VERTEX
  8
PLAN_1
  6
CONTINUOUS
 10
-1.510961
 20
2.660630
  0
VERTEX
  8
PLAN_1
  6
CONTINUOUS
 10
-1.513043
 20
2.642720
  0
VERTEX
  8
PLAN_1
  6
CONTINUOUS
 10
-1.514291
 20
2.623980
  0
VERTEX
  8
PLAN_1
  6
CONTINUOUS
 10
-1.515126
 20
2.605236
  0
VERTEX
  8
PLAN_1
  6
CONTINUOUS
 10
-1.514291
 20
2.586496
  0
VERTEX
  8
PLAN_1
  6
CONTINUOUS
 10
-1.513043
 20
2.568169
  0
VERTEX
  8
PLAN_1
  6
CONTINUOUS
 10
-1.510961
 20
2.549846
  0
VERTEX
  8
PLAN_1
  6
CONTINUOUS
 10
-1.507630
 20
2.531937
  0
VERTEX
  8
PLAN_1
  6
CONTINUOUS
 10
-1.503465
 20
2.514028
  0
VERTEX
  8
PLAN_1
  6
CONTINUOUS
 10
-1.498465
 20
2.496953
  0
VERTEX
  8
PLAN_1
  6
CONTINUOUS
 10
-1.493051
 20
2.479874
  0
VERTEX
  8
PLAN_1
  6
CONTINUOUS
 10
-1.486386
 20
2.463217
  0
VERTEX
  8
PLAN_1
  6
CONTINUOUS
 10
-1.478890
 20
2.447390
  0
VERTEX
  8
PLAN_1
  6
CONTINUOUS
 10
-1.470976
 20
2.431563
  0
VERTEX
  8
PLAN_1
  6
CONTINUOUS
 10
-1.462232
 20
2.416154
  0
VERTEX
  8
PLAN_1
  6
CONTINUOUS
 10
-1.452654
 20
2.401579
  0
VERTEX
  8
PLAN_1
  6
CONTINUOUS
 10
-1.442657
 20
2.387000
  0
VERTEX
  8
PLAN_1
  6
CONTINUOUS
 10
-1.431827
 20
2.373256
  0
VERTEX
  8
PLAN_1
  6
CONTINUOUS
 10
-1.420165
 20
2.360346
  0
VERTEX
  8
PLAN_1
  6
CONTINUOUS
 10
-1.408091
 20
2.347433
  0
VERTEX
  8
PLAN_1
  6
CONTINUOUS
 10
-1.395594
 20
2.335358
  0
VERTEX
  8
PLAN_1
  6
CONTINUOUS
 10
-1.382268
 20
2.324110
  0
VERTEX
  8
PLAN_1
  6
CONTINUOUS
 10
-1.368524
 20
2.313283
  0
VERTEX
  8
PLAN_1
  6
CONTINUOUS
 10
-1.354362
 20
2.302870
  0
VERTEX
  8
PLAN_1
  6
CONTINUOUS
 10
-1.339370
 20
2.293709
  0
VERTEX
  8
PLAN_1
  6
CONTINUOUS
 10
-1.324374
 20
2.284547
  0
VERTEX
  8
PLAN_1
  6
CONTINUOUS
 10
-1.308551
 20
2.276634
  0
VERTEX
  8
PLAN_1
  6
CONTINUOUS
 10
-1.292307
 20
2.269551
  0
VERTEX
  8
PLAN_1
  6
CONTINUOUS
 10
-1.275646
 20
2.262890
  0
VERTEX
  8
PLAN_1
  6
CONTINUOUS
 10
-1.258988
 20
2.257059
  0
VERTEX
  8
PLAN_1
  6
CONTINUOUS
 10
-1.241496
 20
2.252059
  0
VERTEX
  8
PLAN_1
  6
CONTINUOUS
 10
-1.224004
 20
2.248311
  0
VERTEX
  8
PLAN_1
  6
CONTINUOUS
 10
-1.206094
 20
2.244980
  0
VERTEX
  8
PLAN_1
  6
CONTINUOUS
 10
-1.187768
 20
2.242480
  0
VERTEX
  8
PLAN_1
  6
CONTINUOUS
 10
-1.169028
 20
2.241232
  0
VERTEX
  8
PLAN_1
  6
CONTINUOUS
 10
-1.150287
 20
2.240815
  0
SEQEND
  8
0
  0
POLYLINE
  8
PLAN_1
  6
CONTINUOUS
 66
     1
 40
0.008327
 41
0.008327
  0
VERTEX
  8
PLAN_1
  6
CONTINUOUS
 10
-1.150701
 20
2.294539
  0
VERTEX
  8
PLAN_1
  6
CONTINUOUS
 10
-1.134874
 20
2.294957
  0
VERTEX
  8
PLAN_1
  6
CONTINUOUS
 10
-1.119051
 20
2.296209
  0
VERTEX
  8
PLAN_1
  6
CONTINUOUS
 10
-1.103638
 20
2.298287
  0
VERTEX
  8
PLAN_1
  6
CONTINUOUS
 10
-1.088228
 20
2.300787
  0
VERTEX
  8
PLAN_1
  6
CONTINUOUS
 10
-1.073236
 20
2.304535
  0
VERTEX
  8
PLAN_1
  6
CONTINUOUS
 10
-1.058244
 20
2.308701
  0
VERTEX
  8
PLAN_1
  6
CONTINUOUS
 10
-1.044083
 20
2.313283
  0
VERTEX
  8
PLAN_1
  6
CONTINUOUS
 10
-1.029921
 20
2.319114
  0
VERTEX
  8
PLAN_1
  6
CONTINUOUS
 10
-1.016177
 20
2.325362
  0
VERTEX
  8
PLAN_1
  6
CONTINUOUS
 10
-1.002850
 20
2.332024
  0
VERTEX
  8
PLAN_1
  6
CONTINUOUS
 10
-0.989524
 20
2.339520
  0
VERTEX
  8
PLAN_1
  6
CONTINUOUS
 10
-0.977028
 20
2.347850
  0
VERTEX
  8
PLAN_1
  6
CONTINUOUS
 10
-0.964953
 20
2.356181
  0
VERTEX
  8
PLAN_1
  6
CONTINUOUS
 10
-0.953287
 20
2.365760
  0
VERTEX
  8
PLAN_1
  6
CONTINUOUS
 10
-0.942043
 20
2.375339
  0
VERTEX
  8
PLAN_1
  6
CONTINUOUS
 10
-0.931217
 20
2.385752
  0
VERTEX
  8
PLAN_1
  6
CONTINUOUS
 10
-0.920803
 20
2.396579
  0
VERTEX
  8
PLAN_1
  6
CONTINUOUS
 10
-0.911224
 20
2.407823
  0
VERTEX
  8
PLAN_1
  6
CONTINUOUS
 10
-0.902063
 20
2.419484
  0
VERTEX
  8
PLAN_1
  6
CONTINUOUS
 10
-0.893315
 20
2.431563
  0
VERTEX
  8
PLAN_1
  6
CONTINUOUS
 10
-0.884984
 20
2.444059
  0
VERTEX
  8
PLAN_1
  6
CONTINUOUS
 10
-0.877488
 20
2.457386
  0
VERTEX
  8
PLAN_1
  6
CONTINUOUS
 10
-0.870827
 20
2.470713
  0
VERTEX
  8
PLAN_1
  6
CONTINUOUS
 10
-0.864579
 20
2.484457
  0
VERTEX
  8
PLAN_1
  6
CONTINUOUS
 10
-0.859165
 20
2.498618
  0
VERTEX
  8
PLAN_1
  6
CONTINUOUS
 10
-0.854165
 20
2.512780
  0
VERTEX
  8
PLAN_1
  6
CONTINUOUS
 10
-0.850000
 20
2.527772
  0
VERTEX
  8
PLAN_1
  6
CONTINUOUS
 10
-0.846252
 20
2.542764
  0
VERTEX
  8
PLAN_1
  6
CONTINUOUS
 10
-0.843756
 20
2.558173
  0
VERTEX
  8
PLAN_1
  6
CONTINUOUS
 10
-0.841673
 20
2.573583
  0
VERTEX
  8
PLAN_1
  6
CONTINUOUS
 10
-0.840421
 20
2.589409
  0
VERTEX
  8
PLAN_1
  6
CONTINUOUS
 10
-0.840008
 20
2.605236
  0
VERTEX
  8
PLAN_1
  6
CONTINUOUS
 10
-0.840421
 20
2.621480
  0
VERTEX
  8
PLAN_1
  6
CONTINUOUS
 10
-0.841673
 20
2.636890
  0
VERTEX
  8
PLAN_1
  6
CONTINUOUS
 10
-0.843756
 20
2.652717
  0
VERTEX
  8
PLAN_1
  6
CONTINUOUS
 10
-0.846252
 20
2.668126
  0
VERTEX
  8
PLAN_1
  6
CONTINUOUS
 10
-0.850000
 20
2.683118
  0
VERTEX
  8
PLAN_1
  6
CONTINUOUS
 10
-0.854165
 20
2.697697
  0
VERTEX
  8
PLAN_1
  6
CONTINUOUS
 10
-0.859165
 20
2.712272
  0
VERTEX
  8
PLAN_1
  6
CONTINUOUS
 10
-0.864579
 20
2.726433
  0
VERTEX
  8
PLAN_1
  6
CONTINUOUS
 10
-0.870827
 20
2.740177
  0
VERTEX
  8
PLAN_1
  6
CONTINUOUS
 10
-0.877488
 20
2.753504
  0
VERTEX
  8
PLAN_1
  6
CONTINUOUS
 10
-0.884984
 20
2.766417
  0
VERTEX
  8
PLAN_1
  6
CONTINUOUS
 10
-0.893315
 20
2.778909
  0
VERTEX
  8
PLAN_1
  6
CONTINUOUS
 10
-0.902063
 20
2.791406
  0
VERTEX
  8
PLAN_1
  6
CONTINUOUS
 10
-0.911224
 20
2.803067
  0
VERTEX
  8
PLAN_1
  6
CONTINUOUS
 10
-0.920803
 20
2.814311
  0
VERTEX
  8
PLAN_1
  6
CONTINUOUS
 10
-0.931217
 20
2.825142
  0
VERTEX
  8
PLAN_1
  6
CONTINUOUS
 10
-0.942043
 20
2.835138
  0
VERTEX
  8
PLAN_1
  6
CONTINUOUS
 10
-0.953287
 20
2.845130
  0
VERTEX
  8
PLAN_1
  6
CONTINUOUS
 10
-0.964953
 20
2.854295
  0
VERTEX
  8
PLAN_1
  6
CONTINUOUS
 10
-0.977028
 20
2.863039
  0
VERTEX
  8
PLAN_1
  6
CONTINUOUS
 10
-0.989524
 20
2.870953
  0
VERTEX
  8
PLAN_1
  6
CONTINUOUS
 10
-1.002850
 20
2.878449
  0
VERTEX
  8
PLAN_1
  6
CONTINUOUS
 10
-1.016177
 20
2.885531
  0
VERTEX
  8
PLAN_1
  6
CONTINUOUS
 10
-1.029921
 20
2.891776
  0
VERTEX
  8
PLAN_1
  6
CONTINUOUS
 10
-1.044083
 20
2.897193
  0
VERTEX
  8
PLAN_1
  6
CONTINUOUS
 10
-1.058244
 20
2.902189
  0
VERTEX
  8
PLAN_1
  6
CONTINUOUS
 10
-1.073236
 20
2.906354
  0
VERTEX
  8
PLAN_1
  6
CONTINUOUS
 10
-1.088228
 20
2.909685
  0
VERTEX
  8
PLAN_1
  6
CONTINUOUS
 10
-1.103638
 20
2.912602
  0
VERTEX
  8
PLAN_1
  6
CONTINUOUS
 10
-1.119051
 20
2.914268
  0
VERTEX
  8
PLAN_1
  6
CONTINUOUS
 10
-1.134874
 20
2.915516
  0
VERTEX
  8
PLAN_1
  6
CONTINUOUS
 10
-1.150701
 20
2.915933
  0
VERTEX
  8
PLAN_1
  6
CONTINUOUS
 10
-1.166945
 20
2.915516
  0
VERTEX
  8
PLAN_1
  6
CONTINUOUS
 10
-1.182772
 20
2.914268
  0
VERTEX
  8
PLAN_1
  6
CONTINUOUS
 10
-1.198181
 20
2.912602
  0
VERTEX
  8
PLAN_1
  6
CONTINUOUS
 10
-1.213591
 20
2.909685
  0
VERTEX
  8
PLAN_1
  6
CONTINUOUS
 10
-1.228583
 20
2.906354
  0
VERTEX
  8
PLAN_1
  6
CONTINUOUS
 10
-1.243161
 20
2.902189
  0
VERTEX
  8
PLAN_1
  6
CONTINUOUS
 10
-1.257740
 20
2.897193
  0
VERTEX
  8
PLAN_1
  6
CONTINUOUS
 10
-1.271898
 20
2.891776
  0
VERTEX
  8
PLAN_1
  6
CONTINUOUS
 10
-1.285642
 20
2.885531
  0
VERTEX
  8
PLAN_1
  6
CONTINUOUS
 10
-1.298969
 20
2.878449
  0
VERTEX
  8
PLAN_1
  6
CONTINUOUS
 10
-1.311882
 20
2.870953
  0
VERTEX
  8
PLAN_1
  6
CONTINUOUS
 10
-1.324374
 20
2.863039
  0
VERTEX
  8
PLAN_1
  6
CONTINUOUS
 10
-1.336870
 20
2.854295
  0
VERTEX
  8
PLAN_1
  6
CONTINUOUS
 10
-1.348531
 20
2.845130
  0
VERTEX
  8
PLAN_1
  6
CONTINUOUS
 10
-1.359776
 20
2.835138
  0
VERTEX
  8
PLAN_1
  6
CONTINUOUS
 10
-1.370606
 20
2.825142
  0
VERTEX
  8
PLAN_1
  6
CONTINUOUS
 10
-1.380602
 20
2.814311
  0
VERTEX
  8
PLAN_1
  6
CONTINUOUS
 10
-1.390594
 20
2.803067
  0
VERTEX
  8
PLAN_1
  6
CONTINUOUS
 10
-1.399760
 20
2.791406
  0
VERTEX
  8
PLAN_1
  6
CONTINUOUS
 10
-1.408504
 20
2.778909
  0
VERTEX
  8
PLAN_1
  6
CONTINUOUS
 10
-1.416417
 20
2.766417
  0
VERTEX
  8
PLAN_1
  6
CONTINUOUS
 10
-1.423913
 20
2.753504
  0
VERTEX
  8
PLAN_1
  6
CONTINUOUS
 10
-1.430996
 20
2.740177
  0
VERTEX
  8
PLAN_1
  6
CONTINUOUS
 10
-1.437244
 20
2.726433
  0
VERTEX
  8
PLAN_1
  6
CONTINUOUS
 10
-1.442657
 20
2.712272
  0
VERTEX
  8
PLAN_1
  6
CONTINUOUS
 10
-1.447654
 20
2.697697
  0
VERTEX
  8
PLAN_1
  6
CONTINUOUS
 10
-1.451819
 20
2.683118
  0
VERTEX
  8
PLAN_1
  6
CONTINUOUS
 10
-1.455150
 20
2.668126
  0
VERTEX
  8
PLAN_1
  6
CONTINUOUS
 10
-1.458067
 20
2.652717
  0
VERTEX
  8
PLAN_1
  6
CONTINUOUS
 10
-1.459732
 20
2.636890
  0
VERTEX
  8
PLAN_1
  6
CONTINUOUS
 10
-1.460980
 20
2.621480
  0
VERTEX
  8
PLAN_1
  6
CONTINUOUS
 10
-1.461398
 20
2.605236
  0
VERTEX
  8
PLAN_1
  6
CONTINUOUS
 10
-1.460980
 20
2.589409
  0
VERTEX
  8
PLAN_1
  6
CONTINUOUS
 10
-1.459732
 20
2.573583
  0
VERTEX
  8
PLAN_1
  6
CONTINUOUS
 10
-1.458067
 20
2.558173
  0
VERTEX
  8
PLAN_1
  6
CONTINUOUS
 10
-1.455150
 20
2.542764
  0
VERTEX
  8
PLAN_1
  6
CONTINUOUS
 10
-1.451819
 20
2.527772
  0
VERTEX
  8
PLAN_1
  6
CONTINUOUS
 10
-1.447654
 20
2.512780
  0
VERTEX
  8
PLAN_1
  6
CONTINUOUS
 10
-1.442657
 20
2.498618
  0
VERTEX
  8
PLAN_1
  6
CONTINUOUS
 10
-1.437244
 20
2.484457
  0
VERTEX
  8
PLAN_1
  6
CONTINUOUS
 10
-1.430996
 20
2.470713
  0
VERTEX
  8
PLAN_1
  6
CONTINUOUS
 10
-1.423913
 20
2.457386
  0
VERTEX
  8
PLAN_1
  6
CONTINUOUS
 10
-1.416417
 20
2.444059
  0
VERTEX
  8
PLAN_1
  6
CONTINUOUS
 10
-1.408504
 20
2.431563
  0
VERTEX
  8
PLAN_1
  6
CONTINUOUS
 10
-1.399760
 20
2.419484
  0
VERTEX
  8
PLAN_1
  6
CONTINUOUS
 10
-1.390594
 20
2.407823
  0
VERTEX
  8
PLAN_1
  6
CONTINUOUS
 10
-1.380602
 20
2.396579
  0
VERTEX
  8
PLAN_1
  6
CONTINUOUS
 10
-1.370606
 20
2.385752
  0
VERTEX
  8
PLAN_1
  6
CONTINUOUS
 10
-1.359776
 20
2.375339
  0
VERTEX
  8
PLAN_1
  6
CONTINUOUS
 10
-1.348531
 20
2.365760
  0
VERTEX
  8
PLAN_1
  6
CONTINUOUS
 10
-1.336870
 20
2.356181
  0
VERTEX
  8
PLAN_1
  6
CONTINUOUS
 10
-1.324374
 20
2.347850
  0
VERTEX
  8
PLAN_1
  6
CONTINUOUS
 10
-1.311882
 20
2.339520
  0
VERTEX
  8
PLAN_1
  6
CONTINUOUS
 10
-1.298969
 20
2.332024
  0
VERTEX
  8
PLAN_1
  6
CONTINUOUS
 10
-1.285642
 20
2.325362
  0
VERTEX
  8
PLAN_1
  6
CONTINUOUS
 10
-1.271898
 20
2.319114
  0
VERTEX
  8
PLAN_1
  6
CONTINUOUS
 10
-1.257740
 20
2.313283
  0
VERTEX
  8
PLAN_1
  6
CONTINUOUS
 10
-1.243161
 20
2.308701
  0
VERTEX
  8
PLAN_1
  6
CONTINUOUS
 10
-1.228583
 20
2.304535
  0
VERTEX
  8
PLAN_1
  6
CONTINUOUS
 10
-1.213591
 20
2.300787
  0
VERTEX
  8
PLAN_1
  6
CONTINUOUS
 10
-1.198181
 20
2.298287
  0
VERTEX
  8
PLAN_1
  6
CONTINUOUS
 10
-1.182772
 20
2.296209
  0
VERTEX
  8
PLAN_1
  6
CONTINUOUS
 10
-1.166945
 20
2.294957
  0
VERTEX
  8
PLAN_1
  6
CONTINUOUS
 10
-1.150701
 20
2.294539
  0
SEQEND
  8
0
  0
POLYLINE
  8
PLAN_1
  6
CONTINUOUS
 66
     1
 40
0.008327
 41
0.008327
  0
VERTEX
  8
PLAN_1
  6
CONTINUOUS
 10
-1.149870
 20
2.397413
  0
VERTEX
  8
PLAN_1
  6
CONTINUOUS
 10
-1.139039
 20
2.397413
  0
VERTEX
  8
PLAN_1
  6
CONTINUOUS
 10
-1.128630
 20
2.398244
  0
VERTEX
  8
PLAN_1
  6
CONTINUOUS
 10
-1.118217
 20
2.399496
  0
VERTEX
  8
PLAN_1
  6
CONTINUOUS
 10
-1.108220
 20
2.401579
  0
VERTEX
  8
PLAN_1
  6
CONTINUOUS
 10
-1.098224
 20
2.403661
  0
VERTEX
  8
PLAN_1
  6
CONTINUOUS
 10
-1.088228
 20
2.406575
  0
VERTEX
  8
PLAN_1
  6
CONTINUOUS
 10
-1.078650
 20
2.409906
  0
VERTEX
  8
PLAN_1
  6
CONTINUOUS
 10
-1.069488
 20
2.413654
  0
VERTEX
  8
PLAN_1
  6
CONTINUOUS
 10
-1.059909
 20
2.417819
  0
VERTEX
  8
PLAN_1
  6
CONTINUOUS
 10
-1.051161
 20
2.422402
  0
VERTEX
  8
PLAN_1
  6
CONTINUOUS
 10
-1.042417
 20
2.427398
  0
VERTEX
  8
PLAN_1
  6
CONTINUOUS
 10
-1.034087
 20
2.432815
  0
VERTEX
  8
PLAN_1
  6
CONTINUOUS
 10
-1.026173
 20
2.438228
  0
VERTEX
  8
PLAN_1
  6
CONTINUOUS
 10
-1.018260
 20
2.444476
  0
VERTEX
  8
PLAN_1
  6
CONTINUOUS
 10
-1.010764
 20
2.451138
  0
VERTEX
  8
PLAN_1
  6
CONTINUOUS
 10
-1.003268
 20
2.457803
  0
VERTEX
  8
PLAN_1
  6
CONTINUOUS
 10
-0.996602
 20
2.465299
  0
VERTEX
  8
PLAN_1
  6
CONTINUOUS
 10
-0.989941
 20
2.472795
  0
VERTEX
  8
PLAN_1
  6
CONTINUOUS
 10
-0.984110
 20
2.480291
  0
VERTEX
  8
PLAN_1
  6
CONTINUOUS
 10
-0.978280
 20
2.488622
  0
VERTEX
  8
PLAN_1
  6
CONTINUOUS
 10
-0.972862
 20
2.496953
  0
VERTEX
  8
PLAN_1
  6
CONTINUOUS
 10
-0.967866
 20
2.505697
  0
VERTEX
  8
PLAN_1
  6
CONTINUOUS
 10
-0.963283
 20
2.514445
  0
VERTEX
  8
PLAN_1
  6
CONTINUOUS
 10
-0.959122
 20
2.523606
  0
VERTEX
  8
PLAN_1
  6
CONTINUOUS
 10
-0.955370
 20
2.533185
  0
VERTEX
  8
PLAN_1
  6
CONTINUOUS
 10
-0.952039
 20
2.542764
  0
VERTEX
  8
PLAN_1
  6
CONTINUOUS
 10
-0.949126
 20
2.552760
  0
VERTEX
  8
PLAN_1
  6
CONTINUOUS
 10
-0.947043
 20
2.562756
  0
VERTEX
  8
PLAN_1
  6
CONTINUOUS
 10
-0.944961
 20
2.572752
  0
VERTEX
  8
PLAN_1
  6
CONTINUOUS
 10
-0.943709
 20
2.583165
  0
VERTEX
  8
PLAN_1
  6
CONTINUOUS
 10
-0.942878
 20
2.593575
  0
VERTEX
  8
PLAN_1
  6
CONTINUOUS
 10
-0.942878
 20
2.604406
  0
VERTEX
  8
PLAN_1
  6
CONTINUOUS
 10
-0.942878
 20
2.615232
  0
VERTEX
  8
PLAN_1
  6
CONTINUOUS
 10
-0.943709
 20
2.625646
  0
VERTEX
  8
PLAN_1
  6
CONTINUOUS
 10
-0.944961
 20
2.636055
  0
VERTEX
  8
PLAN_1
  6
CONTINUOUS
 10
-0.947043
 20
2.646051
  0
VERTEX
  8
PLAN_1
  6
CONTINUOUS
 10
-0.949126
 20
2.656047
  0
VERTEX
  8
PLAN_1
  6
CONTINUOUS
 10
-0.952039
 20
2.666043
  0
VERTEX
  8
PLAN_1
  6
CONTINUOUS
 10
-0.955370
 20
2.675622
  0
VERTEX
  8
PLAN_1
  6
CONTINUOUS
 10
-0.959122
 20
2.685201
  0
VERTEX
  8
PLAN_1
  6
CONTINUOUS
 10
-0.963283
 20
2.694366
  0
VERTEX
  8
PLAN_1
  6
CONTINUOUS
 10
-0.967866
 20
2.703110
  0
VERTEX
  8
PLAN_1
  6
CONTINUOUS
 10
-0.972862
 20
2.711858
  0
VERTEX
  8
PLAN_1
  6
CONTINUOUS
 10
-0.978280
 20
2.720185
  0
VERTEX
  8
PLAN_1
  6
CONTINUOUS
 10
-0.984110
 20
2.728516
  0
VERTEX
  8
PLAN_1
  6
CONTINUOUS
 10
-0.989941
 20
2.736012
  0
VERTEX
  8
PLAN_1
  6
CONTINUOUS
 10
-0.996602
 20
2.743508
  0
VERTEX
  8
PLAN_1
  6
CONTINUOUS
 10
-1.003268
 20
2.751008
  0
VERTEX
  8
PLAN_1
  6
CONTINUOUS
 10
-1.010764
 20
2.757669
  0
VERTEX
  8
PLAN_1
  6
CONTINUOUS
 10
-1.018260
 20
2.764335
  0
VERTEX
  8
PLAN_1
  6
CONTINUOUS
 10
-1.026173
 20
2.770583
  0
VERTEX
  8
PLAN_1
  6
CONTINUOUS
 10
-1.034087
 20
2.775996
  0
VERTEX
  8
PLAN_1
  6
CONTINUOUS
 10
-1.042417
 20
2.781409
  0
VERTEX
  8
PLAN_1
  6
CONTINUOUS
 10
-1.051161
 20
2.786406
  0
VERTEX
  8
PLAN_1
  6
CONTINUOUS
 10
-1.059909
 20
2.790988
  0
VERTEX
  8
PLAN_1
  6
CONTINUOUS
 10
-1.069488
 20
2.795154
  0
VERTEX
  8
PLAN_1
  6
CONTINUOUS
 10
-1.078650
 20
2.798902
  0
VERTEX
  8
PLAN_1
  6
CONTINUOUS
 10
-1.088228
 20
2.802232
  0
VERTEX
  8
PLAN_1
  6
CONTINUOUS
 10
-1.098224
 20
2.805150
  0
VERTEX
  8
PLAN_1
  6
CONTINUOUS
 10
-1.108220
 20
2.807232
  0
VERTEX
  8
PLAN_1
  6
CONTINUOUS
 10
-1.118217
 20
2.809315
  0
VERTEX
  8
PLAN_1
  6
CONTINUOUS
 10
-1.128630
 20
2.810563
  0
VERTEX
  8
PLAN_1
  6
CONTINUOUS
 10
-1.139039
 20
2.811398
  0
VERTEX
  8
PLAN_1
  6
CONTINUOUS
 10
-1.149870
 20
2.811398
  0
VERTEX
  8
PLAN_1
  6
CONTINUOUS
 10
-1.160697
 20
2.811398
  0
VERTEX
  8
PLAN_1
  6
CONTINUOUS
 10
-1.171110
 20
2.810563
  0
VERTEX
  8
PLAN_1
  6
CONTINUOUS
 10
-1.181524
 20
2.809315
  0
VERTEX
  8
PLAN_1
  6
CONTINUOUS
 10
-1.191516
 20
2.807232
  0
VERTEX
  8
PLAN_1
  6
CONTINUOUS
 10
-1.201512
 20
2.805150
  0
VERTEX
  8
PLAN_1
  6
CONTINUOUS
 10
-1.211508
 20
2.802232
  0
VERTEX
  8
PLAN_1
  6
CONTINUOUS
 10
-1.221087
 20
2.798902
  0
VERTEX
  8
PLAN_1
  6
CONTINUOUS
 10
-1.230665
 20
2.795154
  0
VERTEX
  8
PLAN_1
  6
CONTINUOUS
 10
-1.239831
 20
2.790988
  0
VERTEX
  8
PLAN_1
  6
CONTINUOUS
 10
-1.248575
 20
2.786406
  0
VERTEX
  8
PLAN_1
  6
CONTINUOUS
 10
-1.257323
 20
2.781409
  0
VERTEX
  8
PLAN_1
  6
CONTINUOUS
 10
-1.265650
 20
2.775996
  0
VERTEX
  8
PLAN_1
  6
CONTINUOUS
 10
-1.273980
 20
2.770583
  0
VERTEX
  8
PLAN_1
  6
CONTINUOUS
 10
-1.281476
 20
2.764335
  0
VERTEX
  8
PLAN_1
  6
CONTINUOUS
 10
-1.288976
 20
2.757669
  0
VERTEX
  8
PLAN_1
  6
CONTINUOUS
 10
-1.296472
 20
2.751008
  0
VERTEX
  8
PLAN_1
  6
CONTINUOUS
 10
-1.303134
 20
2.743508
  0
VERTEX
  8
PLAN_1
  6
CONTINUOUS
 10
-1.309799
 20
2.736012
  0
VERTEX
  8
PLAN_1
  6
CONTINUOUS
 10
-1.316047
 20
2.728516
  0
VERTEX
  8
PLAN_1
  6
CONTINUOUS
 10
-1.321461
 20
2.720185
  0
VERTEX
  8
PLAN_1
  6
CONTINUOUS
 10
-1.326874
 20
2.711858
  0
VERTEX
  8
PLAN_1
  6
CONTINUOUS
 10
-1.331874
 20
2.703110
  0
VERTEX
  8
PLAN_1
  6
CONTINUOUS
 10
-1.336453
 20
2.694366
  0
VERTEX
  8
PLAN_1
  6
CONTINUOUS
 10
-1.340618
 20
2.685201
  0
VERTEX
  8
PLAN_1
  6
CONTINUOUS
 10
-1.344366
 20
2.675622
  0
VERTEX
  8
PLAN_1
  6
CONTINUOUS
 10
-1.347697
 20
2.666043
  0
VERTEX
  8
PLAN_1
  6
CONTINUOUS
 10
-1.350614
 20
2.656047
  0
VERTEX
  8
PLAN_1
  6
CONTINUOUS
 10
-1.352697
 20
2.646051
  0
VERTEX
  8
PLAN_1
  6
CONTINUOUS
 10
-1.354780
 20
2.636055
  0
VERTEX
  8
PLAN_1
  6
CONTINUOUS
 10
-1.356028
 20
2.625646
  0
VERTEX
  8
PLAN_1
  6
CONTINUOUS
 10
-1.356862
 20
2.615232
  0
VERTEX
  8
PLAN_1
  6
CONTINUOUS
 10
-1.356862
 20
2.604406
  0
VERTEX
  8
PLAN_1
  6
CONTINUOUS
 10
-1.356862
 20
2.593575
  0
VERTEX
  8
PLAN_1
  6
CONTINUOUS
 10
-1.356028
 20
2.583165
  0
VERTEX
  8
PLAN_1
  6
CONTINUOUS
 10
-1.354780
 20
2.572752
  0
VERTEX
  8
PLAN_1
  6
CONTINUOUS
 10
-1.352697
 20
2.562756
  0
VERTEX
  8
PLAN_1
  6
CONTINUOUS
 10
-1.350614
 20
2.552760
  0
VERTEX
  8
PLAN_1
  6
CONTINUOUS
 10
-1.347697
 20
2.542764
  0
VERTEX
  8
PLAN_1
  6
CONTINUOUS
 10
-1.344366
 20
2.533185
  0
VERTEX
  8
PLAN_1
  6
CONTINUOUS
 10
-1.340618
 20
2.523606
  0
VERTEX
  8
PLAN_1
  6
CONTINUOUS
 10
-1.336453
 20
2.514445
  0
VERTEX
  8
PLAN_1
  6
CONTINUOUS
 10
-1.331874
 20
2.505697
  0
VERTEX
  8
PLAN_1
  6
CONTINUOUS
 10
-1.326874
 20
2.496953
  0
VERTEX
  8
PLAN_1
  6
CONTINUOUS
 10
-1.321461
 20
2.488622
  0
VERTEX
  8
PLAN_1
  6
CONTINUOUS
 10
-1.316047
 20
2.480291
  0
VERTEX
  8
PLAN_1
  6
CONTINUOUS
 10
-1.309799
 20
2.472795
  0
VERTEX
  8
PLAN_1
  6
CONTINUOUS
 10
-1.303134
 20
2.465299
  0
VERTEX
  8
PLAN_1
  6
CONTINUOUS
 10
-1.296472
 20
2.457803
  0
VERTEX
  8
PLAN_1
  6
CONTINUOUS
 10
-1.288976
 20
2.451138
  0
VERTEX
  8
PLAN_1
  6
CONTINUOUS
 10
-1.281476
 20
2.444476
  0
VERTEX
  8
PLAN_1
  6
CONTINUOUS
 10
-1.273980
 20
2.438228
  0
VERTEX
  8
PLAN_1
  6
CONTINUOUS
 10
-1.265650
 20
2.432815
  0
VERTEX
  8
PLAN_1
  6
CONTINUOUS
 10
-1.257323
 20
2.427398
  0
VERTEX
  8
PLAN_1
  6
CONTINUOUS
 10
-1.248575
 20
2.422402
  0
VERTEX
  8
PLAN_1
  6
CONTINUOUS
 10
-1.239831
 20
2.417819
  0
VERTEX
  8
PLAN_1
  6
CONTINUOUS
 10
-1.230665
 20
2.413654
  0
VERTEX
  8
PLAN_1
  6
CONTINUOUS
 10
-1.221087
 20
2.409906
  0
VERTEX
  8
PLAN_1
  6
CONTINUOUS
 10
-1.211508
 20
2.406575
  0
VERTEX
  8
PLAN_1
  6
CONTINUOUS
 10
-1.201512
 20
2.403661
  0
VERTEX
  8
PLAN_1
  6
CONTINUOUS
 10
-1.191516
 20
2.401579
  0
VERTEX
  8
PLAN_1
  6
CONTINUOUS
 10
-1.181524
 20
2.399496
  0
VERTEX
  8
PLAN_1
  6
CONTINUOUS
 10
-1.171110
 20
2.398244
  0
VERTEX
  8
PLAN_1
  6
CONTINUOUS
 10
-1.160697
 20
2.397413
  0
VERTEX
  8
PLAN_1
  6
CONTINUOUS
 10
-1.149870
 20
2.397413
  0
SEQEND
  8
0
  0
POLYLINE
  8
PLAN_1
 62
     2
  6
CONTINUOUS
 66
     1
 40
0.004161
 41
0.004161
  0
VERTEX
  8
PLAN_1
 62
     2
  6
CONTINUOUS
 10
-0.136150
 20
1.818917
  0
VERTEX
  8
PLAN_1
 62
     2
  6
CONTINUOUS
 10
-0.296496
 20
1.818917
  0
SEQEND
  8
0
  0
POLYLINE
  8
PLAN_1
 62
     2
  6
CONTINUOUS
 66
     1
 40
0.004161
 41
0.004161
  0
VERTEX
  8
PLAN_1
 62
     2
  6
CONTINUOUS
 10
-0.141146
 20
2.604406
  0
VERTEX
  8
PLAN_1
 62
     2
  6
CONTINUOUS
 10
-0.881236
 20
2.604406
  0
SEQEND
  8
0
  0
POLYLINE
  8
PLAN_1
 62
     2
  6
CONTINUOUS
 66
     1
 40
0.004161
 41
0.004161
  0
VERTEX
  8
PLAN_1
 62
     2
  6
CONTINUOUS
 10
-0.159890
 20
1.847654
  0
VERTEX
  8
PLAN_1
 62
     2
  6
CONTINUOUS
 10
-0.159890
 20
2.574835
  0
SEQEND
  8
0
  0
SOLID
  8
PLAN_1
 62
     2
 10
-0.159890
 20
2.604406
 11
-0.175717
 21
2.545264
 12
-0.159890
 22
2.604406
 13
-0.144063
 23
2.545264
  0
POLYLINE
  8
PLAN_1
 62
     2
  6
CONTINUOUS
 66
     1
 40
0.003000
 41
0.003000
  0
VERTEX
  8
PLAN_1
 62
     2
  6
CONTINUOUS
 10
-0.159890
 20
2.604406
  0
VERTEX
  8
PLAN_1
 62
     2
  6
CONTINUOUS
 10
-0.175717
 20
2.545264
  0
VERTEX
  8
PLAN_1
 62
     2
  6
CONTINUOUS
 10
-0.144063
 20
2.545264
  0
VERTEX
  8
PLAN_1
 62
     2
  6
CONTINUOUS
 10
-0.159890
 20
2.604406
  0
SEQEND
  8
0
  0
SOLID
  8
PLAN_1
 62
     2
 10
-0.159890
 20
1.818500
 11
-0.175717
 21
1.877224
 12
-0.159890
 22
1.818500
 13
-0.144063
 23
1.877224
  0
POLYLINE
  8
PLAN_1
 62
     2
  6
CONTINUOUS
 66
     1
 40
0.003000
 41
0.003000
  0
VERTEX
  8
PLAN_1
 62
     2
  6
CONTINUOUS
 10
-0.159890
 20
1.818500
  0
VERTEX
  8
PLAN_1
 62
     2
  6
CONTINUOUS
 10
-0.175717
 20
1.877224
  0
VERTEX
  8
PLAN_1
 62
     2
  6
CONTINUOUS
 10
-0.144063
 20
1.877224
  0
VERTEX
  8
PLAN_1
 62
     2
  6
CONTINUOUS
 10
-0.159890
 20
1.818500
  0
SEQEND
  8
0
  0
POLYLINE
  8
PLAN_1
 62
     2
  6
CONTINUOUS
 66
     1
 40
0.003000
 41
0.003000
  0
VERTEX
  8
PLAN_1
 62
     2
  6
CONTINUOUS
 10
-0.230276
 20
2.157933
  0
VERTEX
  8
PLAN_1
 62
     2
  6
CONTINUOUS
 10
-0.234441
 20
2.158350
  0
VERTEX
  8
PLAN_1
 62
     2
  6
CONTINUOUS
 10
-0.238189
 20
2.158768
  0
VERTEX
  8
PLAN_1
 62
     2
  6
CONTINUOUS
 10
-0.241520
 20
2.159602
  0
VERTEX
  8
PLAN_1
 62
     2
  6
CONTINUOUS
 10
-0.244437
 20
2.160850
  0
VERTEX
  8
PLAN_1
 62
     2
  6
CONTINUOUS
 10
-0.246933
 20
2.162098
  0
VERTEX
  8
PLAN_1
 62
     2
  6
CONTINUOUS
 10
-0.249016
 20
2.163764
  0
VERTEX
  8
PLAN_1
 62
     2
  6
CONTINUOUS
 10
-0.250681
 20
2.165846
  0
VERTEX
  8
PLAN_1
 62
     2
  6
CONTINUOUS
 10
-0.252350
 20
2.167512
  0
VERTEX
  8
PLAN_1
 62
     2
  6
CONTINUOUS
 10
-0.253598
 20
2.169594
  0
VERTEX
  8
PLAN_1
 62
     2
  6
CONTINUOUS
 10
-0.254429
 20
2.171677
  0
VERTEX
  8
PLAN_1
 62
     2
  6
CONTINUOUS
 10
-0.255264
 20
2.173760
  0
VERTEX
  8
PLAN_1
 62
     2
  6
CONTINUOUS
 10
-0.255681
 20
2.175843
  0
VERTEX
  8
PLAN_1
 62
     2
  6
CONTINUOUS
 10
-0.256512
 20
2.180008
  0
VERTEX
  8
PLAN_1
 62
     2
  6
CONTINUOUS
 10
-0.256512
 20
2.183339
  0
VERTEX
  8
PLAN_1
 62
     2
  6
CONTINUOUS
 10
-0.256098
 20
2.187921
  0
VERTEX
  8
PLAN_1
 62
     2
  6
CONTINUOUS
 10
-0.254846
 20
2.192087
  0
VERTEX
  8
PLAN_1
 62
     2
  6
CONTINUOUS
 10
-0.254016
 20
2.194169
  0
VERTEX
  8
PLAN_1
 62
     2
  6
CONTINUOUS
 10
-0.253181
 20
2.196252
  0
VERTEX
  8
PLAN_1
 62
     2
  6
CONTINUOUS
 10
-0.251933
 20
2.197917
  0
VERTEX
  8
PLAN_1
 62
     2
  6
CONTINUOUS
 10
-0.250681
 20
2.199583
  0
VERTEX
  8
PLAN_1
 62
     2
  6
CONTINUOUS
 10
-0.249433
 20
2.200831
  0
VERTEX
  8
PLAN_1
 62
     2
  6
CONTINUOUS
 10
-0.247768
 20
2.202500
  0
VERTEX
  8
PLAN_1
 62
     2
  6
CONTINUOUS
 10
-0.245685
 20
2.203331
  0
VERTEX
  8
PLAN_1
 62
     2
  6
CONTINUOUS
 10
-0.244020
 20
2.204579
  0
VERTEX
  8
PLAN_1
 62
     2
  6
CONTINUOUS
 10
-0.241937
 20
2.204996
  0
VERTEX
  8
PLAN_1
 62
     2
  6
CONTINUOUS
 10
-0.239437
 20
2.205831
  0
VERTEX
  8
PLAN_1
 62
     2
  6
CONTINUOUS
 10
-0.237354
 20
2.206248
  0
VERTEX
  8
PLAN_1
 62
     2
  6
CONTINUOUS
 10
-0.234854
 20
2.206248
  0
VERTEX
  8
PLAN_1
 62
     2
  6
CONTINUOUS
 10
-0.230276
 20
2.205831
  0
VERTEX
  8
PLAN_1
 62
     2
  6
CONTINUOUS
 10
-0.226110
 20
2.204579
  0
VERTEX
  8
PLAN_1
 62
     2
  6
CONTINUOUS
 10
-0.222780
 20
2.202913
  0
VERTEX
  8
PLAN_1
 62
     2
  6
CONTINUOUS
 10
-0.219862
 20
2.200417
  0
VERTEX
  8
PLAN_1
 62
     2
  6
CONTINUOUS
 10
-0.216949
 20
2.197500
  0
VERTEX
  8
PLAN_1
 62
     2
  6
CONTINUOUS
 10
-0.214866
 20
2.194169
  0
VERTEX
  8
PLAN_1
 62
     2
  6
CONTINUOUS
 10
-0.212366
 20
2.190421
  0
VERTEX
  8
PLAN_1
 62
     2
  6
CONTINUOUS
 10
-0.210283
 20
2.186673
  0
VERTEX
  8
PLAN_1
 62
     2
  6
CONTINUOUS
 10
-0.206118
 20
2.179177
  0
VERTEX
  8
PLAN_1
 62
     2
  6
CONTINUOUS
 10
-0.204035
 20
2.175843
  0
VERTEX
  8
PLAN_1
 62
     2
  6
CONTINUOUS
 10
-0.201953
 20
2.172929
  0
VERTEX
  8
PLAN_1
 62
     2
  6
CONTINUOUS
 10
-0.199870
 20
2.170846
  0
VERTEX
  8
PLAN_1
 62
     2
  6
CONTINUOUS
 10
-0.198205
 20
2.169181
  0
VERTEX
  8
PLAN_1
 62
     2
  6
CONTINUOUS
 10
-0.196122
 20
2.167929
  0
VERTEX
  8
PLAN_1
 62
     2
  6
CONTINUOUS
 10
-0.194457
 20
2.167098
  0
VERTEX
  8
PLAN_1
 62
     2
  6
CONTINUOUS
 10
-0.193209
 20
2.166681
  0
VERTEX
  8
PLAN_1
 62
     2
  6
CONTINUOUS
 10
-0.191957
 20
2.166264
  0
VERTEX
  8
PLAN_1
 62
     2
  6
CONTINUOUS
 10
-0.191957
 20
2.206248
  0
VERTEX
  8
PLAN_1
 62
     2
  6
CONTINUOUS
 10
-0.183213
 20
2.206248
  0
VERTEX
  8
PLAN_1
 62
     2
  6
CONTINUOUS
 10
-0.183213
 20
2.156268
  0
VERTEX
  8
PLAN_1
 62
     2
  6
CONTINUOUS
 10
-0.188626
 20
2.156685
  0
VERTEX
  8
PLAN_1
 62
     2
  6
CONTINUOUS
 10
-0.193626
 20
2.157520
  0
VERTEX
  8
PLAN_1
 62
     2
  6
CONTINUOUS
 10
-0.197787
 20
2.159185
  0
VERTEX
  8
PLAN_1
 62
     2
  6
CONTINUOUS
 10
-0.201539
 20
2.161268
  0
VERTEX
  8
PLAN_1
 62
     2
  6
CONTINUOUS
 10
-0.204870
 20
2.163764
  0
VERTEX
  8
PLAN_1
 62
     2
  6
CONTINUOUS
 10
-0.207783
 20
2.166681
  0
VERTEX
  8
PLAN_1
 62
     2
  6
CONTINUOUS
 10
-0.210283
 20
2.169594
  0
VERTEX
  8
PLAN_1
 62
     2
  6
CONTINUOUS
 10
-0.212366
 20
2.173343
  0
VERTEX
  8
PLAN_1
 62
     2
  6
CONTINUOUS
 10
-0.218197
 20
2.182925
  0
VERTEX
  8
PLAN_1
 62
     2
  6
CONTINUOUS
 10
-0.219862
 20
2.185839
  0
VERTEX
  8
PLAN_1
 62
     2
  6
CONTINUOUS
 10
-0.221114
 20
2.188339
  0
VERTEX
  8
PLAN_1
 62
     2
  6
CONTINUOUS
 10
-0.222780
 20
2.190839
  0
VERTEX
  8
PLAN_1
 62
     2
  6
CONTINUOUS
 10
-0.224862
 20
2.192504
  0
VERTEX
  8
PLAN_1
 62
     2
  6
CONTINUOUS
 10
-0.226528
 20
2.194169
  0
VERTEX
  8
PLAN_1
 62
     2
  6
CONTINUOUS
 10
-0.229024
 20
2.195417
  0
VERTEX
  8
PLAN_1
 62
     2
  6
CONTINUOUS
 10
-0.231941
 20
2.196252
  0
VERTEX
  8
PLAN_1
 62
     2
  6
CONTINUOUS
 10
-0.235272
 20
2.196252
  0
VERTEX
  8
PLAN_1
 62
     2
  6
CONTINUOUS
 10
-0.237354
 20
2.196252
  0
VERTEX
  8
PLAN_1
 62
     2
  6
CONTINUOUS
 10
-0.239437
 20
2.195835
  0
VERTEX
  8
PLAN_1
 62
     2
  6
CONTINUOUS
 10
-0.241937
 20
2.194587
  0
VERTEX
  8
PLAN_1
 62
     2
  6
CONTINUOUS
 10
-0.244020
 20
2.193335
  0
VERTEX
  8
PLAN_1
 62
     2
  6
CONTINUOUS
 10
-0.245685
 20
2.191252
  0
VERTEX
  8
PLAN_1
 62
     2
  6
CONTINUOUS
 10
-0.246933
 20
2.188756
  0
VERTEX
  8
PLAN_1
 62
     2
  6
CONTINUOUS
 10
-0.247768
 20
2.185839
  0
VERTEX
  8
PLAN_1
 62
     2
  6
CONTINUOUS
 10
-0.248185
 20
2.182091
  0
VERTEX
  8
PLAN_1
 62
     2
  6
CONTINUOUS
 10
-0.248185
 20
2.179591
  0
VERTEX
  8
PLAN_1
 62
     2
  6
CONTINUOUS
 10
-0.247768
 20
2.177508
  0
VERTEX
  8
PLAN_1
 62
     2
  6
CONTINUOUS
 10
-0.246933
 20
2.175425
  0
VERTEX
  8
PLAN_1
 62
     2
  6
CONTINUOUS
 10
-0.246102
 20
2.173760
  0
VERTEX
  8
PLAN_1
 62
     2
  6
CONTINUOUS
 10
-0.245268
 20
2.172512
  0
VERTEX
  8
PLAN_1
 62
     2
  6
CONTINUOUS
 10
-0.244020
 20
2.171264
  0
VERTEX
  8
PLAN_1
 62
     2
  6
CONTINUOUS
 10
-0.242768
 20
2.170429
  0
VERTEX
  8
PLAN_1
 62
     2
  6
CONTINUOUS
 10
-0.241102
 20
2.169594
  0
VERTEX
  8
PLAN_1
 62
     2
  6
CONTINUOUS
 10
-0.238189
 20
2.168346
  0
VERTEX
  8
PLAN_1
 62
     2
  6
CONTINUOUS
 10
-0.235272
 20
2.167512
  0
VERTEX
  8
PLAN_1
 62
     2
  6
CONTINUOUS
 10
-0.232358
 20
2.167512
  0
VERTEX
  8
PLAN_1
 62
     2
  6
CONTINUOUS
 10
-0.230276
 20
2.167098
  0
VERTEX
  8
PLAN_1
 62
     2
  6
CONTINUOUS
 10
-0.230276
 20
2.157933
  0
SEQEND
  8
0
  0
POLYLINE
  8
PLAN_1
 62
     2
  6
CONTINUOUS
 66
     1
 40
0.003000
 41
0.003000
  0
VERTEX
  8
PLAN_1
 62
     2
  6
CONTINUOUS
 10
-0.181547
 20
2.240398
  0
VERTEX
  8
PLAN_1
 62
     2
  6
CONTINUOUS
 10
-0.181547
 20
2.236650
  0
VERTEX
  8
PLAN_1
 62
     2
  6
CONTINUOUS
 10
-0.182378
 20
2.233319
  0
VERTEX
  8
PLAN_1
 62
     2
  6
CONTINUOUS
 10
-0.183630
 20
2.229984
  0
VERTEX
  8
PLAN_1
 62
     2
  6
CONTINUOUS
 10
-0.185295
 20
2.227488
  0
VERTEX
  8
PLAN_1
 62
     2
  6
CONTINUOUS
 10
-0.186961
 20
2.224988
  0
VERTEX
  8
PLAN_1
 62
     2
  6
CONTINUOUS
 10
-0.189461
 20
2.222906
  0
VERTEX
  8
PLAN_1
 62
     2
  6
CONTINUOUS
 10
-0.191957
 20
2.221240
  0
VERTEX
  8
PLAN_1
 62
     2
  6
CONTINUOUS
 10
-0.194457
 20
2.219992
  0
VERTEX
  8
PLAN_1
 62
     2
  6
CONTINUOUS
 10
-0.197374
 20
2.218740
  0
VERTEX
  8
PLAN_1
 62
     2
  6
CONTINUOUS
 10
-0.200287
 20
2.217492
  0
VERTEX
  8
PLAN_1
 62
     2
  6
CONTINUOUS
 10
-0.203618
 20
2.216657
  0
VERTEX
  8
PLAN_1
 62
     2
  6
CONTINUOUS
 10
-0.206535
 20
2.216244
  0
VERTEX
  8
PLAN_1
 62
     2
  6
CONTINUOUS
 10
-0.213201
 20
2.215409
  0
VERTEX
  8
PLAN_1
 62
     2
  6
CONTINUOUS
 10
-0.219031
 20
2.214992
  0
VERTEX
  8
PLAN_1
 62
     2
  6
CONTINUOUS
 10
-0.224862
 20
2.215409
  0
VERTEX
  8
PLAN_1
 62
     2
  6
CONTINUOUS
 10
-0.231106
 20
2.216244
  0
VERTEX
  8
PLAN_1
 62
     2
  6
CONTINUOUS
 10
-0.234441
 20
2.216657
  0
VERTEX
  8
PLAN_1
 62
     2
  6
CONTINUOUS
 10
-0.237354
 20
2.217492
  0
VERTEX
  8
PLAN_1
 62
     2
  6
CONTINUOUS
 10
-0.240689
 20
2.218740
  0
VERTEX
  8
PLAN_1
 62
     2
  6
CONTINUOUS
 10
-0.243602
 20
2.219992
  0
VERTEX
  8
PLAN_1
 62
     2
  6
CONTINUOUS
 10
-0.246102
 20
2.221240
  0
VERTEX
  8
PLAN_1
 62
     2
  6
CONTINUOUS
 10
-0.248598
 20
2.222906
  0
VERTEX
  8
PLAN_1
 62
     2
  6
CONTINUOUS
 10
-0.250681
 20
2.224988
  0
VERTEX
  8
PLAN_1
 62
     2
  6
CONTINUOUS
 10
-0.252764
 20
2.227488
  0
VERTEX
  8
PLAN_1
 62
     2
  6
CONTINUOUS
 10
-0.254429
 20
2.229984
  0
VERTEX
  8
PLAN_1
 62
     2
  6
CONTINUOUS
 10
-0.255681
 20
2.233319
  0
VERTEX
  8
PLAN_1
 62
     2
  6
CONTINUOUS
 10
-0.256098
 20
2.236650
  0
VERTEX
  8
PLAN_1
 62
     2
  6
CONTINUOUS
 10
-0.256512
 20
2.240398
  0
VERTEX
  8
PLAN_1
 62
     2
  6
CONTINUOUS
 10
-0.256098
 20
2.244146
  0
VERTEX
  8
PLAN_1
 62
     2
  6
CONTINUOUS
 10
-0.255681
 20
2.247480
  0
VERTEX
  8
PLAN_1
 62
     2
  6
CONTINUOUS
 10
-0.254429
 20
2.250394
  0
VERTEX
  8
PLAN_1
 62
     2
  6
CONTINUOUS
 10
-0.252764
 20
2.252894
  0
VERTEX
  8
PLAN_1
 62
     2
  6
CONTINUOUS
 10
-0.250681
 20
2.255390
  0
VERTEX
  8
PLAN_1
 62
     2
  6
CONTINUOUS
 10
-0.248598
 20
2.257472
  0
VERTEX
  8
PLAN_1
 62
     2
  6
CONTINUOUS
 10
-0.246102
 20
2.259142
  0
VERTEX
  8
PLAN_1
 62
     2
  6
CONTINUOUS
 10
-0.243602
 20
2.260807
  0
VERTEX
  8
PLAN_1
 62
     2
  6
CONTINUOUS
 10
-0.240689
 20
2.262055
  0
VERTEX
  8
PLAN_1
 62
     2
  6
CONTINUOUS
 10
-0.237354
 20
2.262890
  0
VERTEX
  8
PLAN_1
 62
     2
  6
CONTINUOUS
 10
-0.234441
 20
2.263720
  0
VERTEX
  8
PLAN_1
 62
     2
  6
CONTINUOUS
 10
-0.231106
 20
2.264555
  0
VERTEX
  8
PLAN_1
 62
     2
  6
CONTINUOUS
 10
-0.224862
 20
2.264972
  0
VERTEX
  8
PLAN_1
 62
     2
  6
CONTINUOUS
 10
-0.219031
 20
2.265386
  0
VERTEX
  8
PLAN_1
 62
     2
  6
CONTINUOUS
 10
-0.213201
 20
2.264972
  0
VERTEX
  8
PLAN_1
 62
     2
  6
CONTINUOUS
 10
-0.206535
 20
2.264555
  0
VERTEX
  8
PLAN_1
 62
     2
  6
CONTINUOUS
 10
-0.203618
 20
2.263720
  0
VERTEX
  8
PLAN_1
 62
     2
  6
CONTINUOUS
 10
-0.200287
 20
2.262890
  0
VERTEX
  8
PLAN_1
 62
     2
  6
CONTINUOUS
 10
-0.197374
 20
2.262055
  0
VERTEX
  8
PLAN_1
 62
     2
  6
CONTINUOUS
 10
-0.194457
 20
2.260807
  0
VERTEX
  8
PLAN_1
 62
     2
  6
CONTINUOUS
 10
-0.191957
 20
2.259142
  0
VERTEX
  8
PLAN_1
 62
     2
  6
CONTINUOUS
 10
-0.189461
 20
2.257472
  0
VERTEX
  8
PLAN_1
 62
     2
  6
CONTINUOUS
 10
-0.186961
 20
2.255390
  0
VERTEX
  8
PLAN_1
 62
     2
  6
CONTINUOUS
 10
-0.185295
 20
2.252894
  0
VERTEX
  8
PLAN_1
 62
     2
  6
CONTINUOUS
 10
-0.183630
 20
2.250394
  0
VERTEX
  8
PLAN_1
 62
     2
  6
CONTINUOUS
 10
-0.182378
 20
2.247480
  0
VERTEX
  8
PLAN_1
 62
     2
  6
CONTINUOUS
 10
-0.181547
 20
2.244146
  0
VERTEX
  8
PLAN_1
 62
     2
  6
CONTINUOUS
 10
-0.181547
 20
2.240398
  0
SEQEND
  8
0
  0
POLYLINE
  8
PLAN_1
 62
     2
  6
CONTINUOUS
 66
     1
 40
0.003000
 41
0.003000
  0
VERTEX
  8
PLAN_1
 62
     2
  6
CONTINUOUS
 10
-0.248185
 20
2.240398
  0
VERTEX
  8
PLAN_1
 62
     2
  6
CONTINUOUS
 10
-0.248185
 20
2.238315
  0
VERTEX
  8
PLAN_1
 62
     2
  6
CONTINUOUS
 10
-0.247768
 20
2.236650
  0
VERTEX
  8
PLAN_1
 62
     2
  6
CONTINUOUS
 10
-0.247350
 20
2.234984
  0
VERTEX
  8
PLAN_1
 62
     2
  6
CONTINUOUS
 10
-0.246102
 20
2.233319
  0
VERTEX
  8
PLAN_1
 62
     2
  6
CONTINUOUS
 10
-0.245268
 20
2.232067
  0
VERTEX
  8
PLAN_1
 62
     2
  6
CONTINUOUS
 10
-0.244020
 20
2.230819
  0
VERTEX
  8
PLAN_1
 62
     2
  6
CONTINUOUS
 10
-0.242354
 20
2.229571
  0
VERTEX
  8
PLAN_1
 62
     2
  6
CONTINUOUS
 10
-0.240689
 20
2.228736
  0
VERTEX
  8
PLAN_1
 62
     2
  6
CONTINUOUS
 10
-0.236106
 20
2.227071
  0
VERTEX
  8
PLAN_1
 62
     2
  6
CONTINUOUS
 10
-0.231106
 20
2.225823
  0
VERTEX
  8
PLAN_1
 62
     2
  6
CONTINUOUS
 10
-0.225693
 20
2.225406
  0
VERTEX
  8
PLAN_1
 62
     2
  6
CONTINUOUS
 10
-0.219031
 20
2.224988
  0
VERTEX
  8
PLAN_1
 62
     2
  6
CONTINUOUS
 10
-0.212366
 20
2.225406
  0
VERTEX
  8
PLAN_1
 62
     2
  6
CONTINUOUS
 10
-0.206535
 20
2.225823
  0
VERTEX
  8
PLAN_1
 62
     2
  6
CONTINUOUS
 10
-0.201539
 20
2.227071
  0
VERTEX
  8
PLAN_1
 62
     2
  6
CONTINUOUS
 10
-0.197374
 20
2.228736
  0
VERTEX
  8
PLAN_1
 62
     2
  6
CONTINUOUS
 10
-0.195709
 20
2.229571
  0
VERTEX
  8
PLAN_1
 62
     2
  6
CONTINUOUS
 10
-0.194039
 20
2.230819
  0
VERTEX
  8
PLAN_1
 62
     2
  6
CONTINUOUS
 10
-0.192791
 20
2.232067
  0
VERTEX
  8
PLAN_1
 62
     2
  6
CONTINUOUS
 10
-0.191543
 20
2.233319
  0
VERTEX
  8
PLAN_1
 62
     2
  6
CONTINUOUS
 10
-0.190709
 20
2.234984
  0
VERTEX
  8
PLAN_1
 62
     2
  6
CONTINUOUS
 10
-0.190291
 20
2.236650
  0
VERTEX
  8
PLAN_1
 62
     2
  6
CONTINUOUS
 10
-0.189878
 20
2.238315
  0
VERTEX
  8
PLAN_1
 62
     2
  6
CONTINUOUS
 10
-0.189461
 20
2.240398
  0
VERTEX
  8
PLAN_1
 62
     2
  6
CONTINUOUS
 10
-0.189878
 20
2.242063
  0
VERTEX
  8
PLAN_1
 62
     2
  6
CONTINUOUS
 10
-0.190291
 20
2.243728
  0
VERTEX
  8
PLAN_1
 62
     2
  6
CONTINUOUS
 10
-0.190709
 20
2.245398
  0
VERTEX
  8
PLAN_1
 62
     2
  6
CONTINUOUS
 10
-0.191543
 20
2.247063
  0
VERTEX
  8
PLAN_1
 62
     2
  6
CONTINUOUS
 10
-0.192791
 20
2.248311
  0
VERTEX
  8
PLAN_1
 62
     2
  6
CONTINUOUS
 10
-0.194039
 20
2.249559
  0
VERTEX
  8
PLAN_1
 62
     2
  6
CONTINUOUS
 10
-0.195709
 20
2.250811
  0
VERTEX
  8
PLAN_1
 62
     2
  6
CONTINUOUS
 10
-0.197374
 20
2.251642
  0
VERTEX
  8
PLAN_1
 62
     2
  6
CONTINUOUS
 10
-0.201539
 20
2.253311
  0
VERTEX
  8
PLAN_1
 62
     2
  6
CONTINUOUS
 10
-0.206535
 20
2.254559
  0
VERTEX
  8
PLAN_1
 62
     2
  6
CONTINUOUS
 10
-0.212366
 20
2.255390
  0
VERTEX
  8
PLAN_1
 62
     2
  6
CONTINUOUS
 10
-0.219031
 20
2.255390
  0
VERTEX
  8
PLAN_1
 62
     2
  6
CONTINUOUS
 10
-0.225693
 20
2.255390
  0
VERTEX
  8
PLAN_1
 62
     2
  6
CONTINUOUS
 10
-0.231106
 20
2.254559
  0
VERTEX
  8
PLAN_1
 62
     2
  6
CONTINUOUS
 10
-0.236106
 20
2.253311
  0
VERTEX
  8
PLAN_1
 62
     2
  6
CONTINUOUS
 10
-0.240689
 20
2.251642
  0
VERTEX
  8
PLAN_1
 62
     2
  6
CONTINUOUS
 10
-0.242354
 20
2.250811
  0
VERTEX
  8
PLAN_1
 62
     2
  6
CONTINUOUS
 10
-0.244020
 20
2.249559
  0
VERTEX
  8
PLAN_1
 62
     2
  6
CONTINUOUS
 10
-0.245268
 20
2.248311
  0
VERTEX
  8
PLAN_1
 62
     2
  6
CONTINUOUS
 10
-0.246102
 20
2.247063
  0
VERTEX
  8
PLAN_1
 62
     2
  6
CONTINUOUS
 10
-0.247350
 20
2.245398
  0
VERTEX
  8
PLAN_1
 62
     2
  6
CONTINUOUS
 10
-0.247768
 20
2.243728
  0
VERTEX
  8
PLAN_1
 62
     2
  6
CONTINUOUS
 10
-0.248185
 20
2.242063
  0
VERTEX
  8
PLAN_1
 62
     2
  6
CONTINUOUS
 10
-0.248185
 20
2.240398
  0
SEQEND
  8
0
  0
POLYLINE
  8
PLAN_1
 62
     2
  6
CONTINUOUS
 66
     1
 40
0.004161
 41
0.004161
  0
VERTEX
  8
PLAN_1
 62
     2
  6
CONTINUOUS
 10
-0.159890
 20
2.633976
  0
VERTEX
  8
PLAN_1
 62
     2
  6
CONTINUOUS
 10
-0.159890
 20
3.020886
  0
SEQEND
  8
0
  0
SOLID
  8
PLAN_1
 62
     2
 10
-0.159890
 20
3.050457
 11
-0.175717
 21
2.991319
 12
-0.159890
 22
3.050457
 13
-0.144063
 23
2.991319
  0
POLYLINE
  8
PLAN_1
 62
     2
  6
CONTINUOUS
 66
     1
 40
0.003000
 41
0.003000
  0
VERTEX
  8
PLAN_1
 62
     2
  6
CONTINUOUS
 10
-0.159890
 20
3.050457
  0
VERTEX
  8
PLAN_1
 62
     2
  6
CONTINUOUS
 10
-0.175717
 20
2.991319
  0
VERTEX
  8
PLAN_1
 62
     2
  6
CONTINUOUS
 10
-0.144063
 20
2.991319
  0
VERTEX
  8
PLAN_1
 62
     2
  6
CONTINUOUS
 10
-0.159890
 20
3.050457
  0
SEQEND
  8
0
  0
SOLID
  8
PLAN_1
 62
     2
 10
-0.159890
 20
2.604406
 11
-0.175717
 21
2.663543
 12
-0.159890
 22
2.604406
 13
-0.144063
 23
2.663543
  0
POLYLINE
  8
PLAN_1
 62
     2
  6
CONTINUOUS
 66
     1
 40
0.003000
 41
0.003000
  0
VERTEX
  8
PLAN_1
 62
     2
  6
CONTINUOUS
 10
-0.159890
 20
2.604406
  0
VERTEX
  8
PLAN_1
 62
     2
  6
CONTINUOUS
 10
-0.175717
 20
2.663543
  0
VERTEX
  8
PLAN_1
 62
     2
  6
CONTINUOUS
 10
-0.144063
 20
2.663543
  0
VERTEX
  8
PLAN_1
 62
     2
  6
CONTINUOUS
 10
-0.159890
 20
2.604406
  0
SEQEND
  8
0
  0
POLYLINE
  8
PLAN_1
 62
     2
  6
CONTINUOUS
 66
     1
 40
0.003000
 41
0.003000
  0
VERTEX
  8
PLAN_1
 62
     2
  6
CONTINUOUS
 10
-0.183213
 20
2.806815
  0
VERTEX
  8
PLAN_1
 62
     2
  6
CONTINUOUS
 10
-0.183213
 20
2.797236
  0
VERTEX
  8
PLAN_1
 62
     2
  6
CONTINUOUS
 10
-0.235272
 20
2.797236
  0
VERTEX
  8
PLAN_1
 62
     2
  6
CONTINUOUS
 10
-0.235272
 20
2.780161
  0
VERTEX
  8
PLAN_1
 62
     2
  6
CONTINUOUS
 10
-0.242768
 20
2.780161
  0
VERTEX
  8
PLAN_1
 62
     2
  6
CONTINUOUS
 10
-0.242768
 20
2.784327
  0
VERTEX
  8
PLAN_1
 62
     2
  6
CONTINUOUS
 10
-0.243602
 20
2.787657
  0
VERTEX
  8
PLAN_1
 62
     2
  6
CONTINUOUS
 10
-0.244020
 20
2.790571
  0
VERTEX
  8
PLAN_1
 62
     2
  6
CONTINUOUS
 10
-0.245268
 20
2.793071
  0
VERTEX
  8
PLAN_1
 62
     2
  6
CONTINUOUS
 10
-0.246933
 20
2.795154
  0
VERTEX
  8
PLAN_1
 62
     2
  6
CONTINUOUS
 10
-0.249433
 20
2.797236
  0
VERTEX
  8
PLAN_1
 62
     2
  6
CONTINUOUS
 10
-0.252350
 20
2.798484
  0
VERTEX
  8
PLAN_1
 62
     2
  6
CONTINUOUS
 10
-0.256512
 20
2.799736
  0
VERTEX
  8
PLAN_1
 62
     2
  6
CONTINUOUS
 10
-0.256512
 20
2.806815
  0
VERTEX
  8
PLAN_1
 62
     2
  6
CONTINUOUS
 10
-0.183213
 20
2.806815
  0
SEQEND
  8
0
  0
POLYLINE
  8
PLAN_1
 62
     2
  6
CONTINUOUS
 66
     1
 40
0.003000
 41
0.003000
  0
VERTEX
  8
PLAN_1
 62
     2
  6
CONTINUOUS
 10
-0.181547
 20
2.856378
  0
VERTEX
  8
PLAN_1
 62
     2
  6
CONTINUOUS
 10
-0.181547
 20
2.852630
  0
VERTEX
  8
PLAN_1
 62
     2
  6
CONTINUOUS
 10
-0.182378
 20
2.849295
  0
VERTEX
  8
PLAN_1
 62
     2
  6
CONTINUOUS
 10
-0.183630
 20
2.846382
  0
VERTEX
  8
PLAN_1
 62
     2
  6
CONTINUOUS
 10
-0.185295
 20
2.843465
  0
VERTEX
  8
PLAN_1
 62
     2
  6
CONTINUOUS
 10
-0.186961
 20
2.841382
  0
VERTEX
  8
PLAN_1
 62
     2
  6
CONTINUOUS
 10
-0.189461
 20
2.839299
  0
VERTEX
  8
PLAN_1
 62
     2
  6
CONTINUOUS
 10
-0.191957
 20
2.837634
  0
VERTEX
  8
PLAN_1
 62
     2
  6
CONTINUOUS
 10
-0.194457
 20
2.835969
  0
VERTEX
  8
PLAN_1
 62
     2
  6
CONTINUOUS
 10
-0.197374
 20
2.834720
  0
VERTEX
  8
PLAN_1
 62
     2
  6
CONTINUOUS
 10
-0.200287
 20
2.833886
  0
VERTEX
  8
PLAN_1
 62
     2
  6
CONTINUOUS
 10
-0.203618
 20
2.833055
  0
VERTEX
  8
PLAN_1
 62
     2
  6
CONTINUOUS
 10
-0.206535
 20
2.832220
  0
VERTEX
  8
PLAN_1
 62
     2
  6
CONTINUOUS
 10
-0.213201
 20
2.831386
  0
VERTEX
  8
PLAN_1
 62
     2
  6
CONTINUOUS
 10
-0.219031
 20
2.831386
  0
VERTEX
  8
PLAN_1
 62
     2
  6
CONTINUOUS
 10
-0.224862
 20
2.831386
  0
VERTEX
  8
PLAN_1
 62
     2
  6
CONTINUOUS
 10
-0.231106
 20
2.832220
  0
VERTEX
  8
PLAN_1
 62
     2
  6
CONTINUOUS
 10
-0.234441
 20
2.833055
  0
VERTEX
  8
PLAN_1
 62
     2
  6
CONTINUOUS
 10
-0.237354
 20
2.833886
  0
VERTEX
  8
PLAN_1
 62
     2
  6
CONTINUOUS
 10
-0.240689
 20
2.834720
  0
VERTEX
  8
PLAN_1
 62
     2
  6
CONTINUOUS
 10
-0.243602
 20
2.835969
  0
VERTEX
  8
PLAN_1
 62
     2
  6
CONTINUOUS
 10
-0.246102
 20
2.837634
  0
VERTEX
  8
PLAN_1
 62
     2
  6
CONTINUOUS
 10
-0.248598
 20
2.839299
  0
VERTEX
  8
PLAN_1
 62
     2
  6
CONTINUOUS
 10
-0.250681
 20
2.841382
  0
VERTEX
  8
PLAN_1
 62
     2
  6
CONTINUOUS
 10
-0.252764
 20
2.843465
  0
VERTEX
  8
PLAN_1
 62
     2
  6
CONTINUOUS
 10
-0.254429
 20
2.846382
  0
VERTEX
  8
PLAN_1
 62
     2
  6
CONTINUOUS
 10
-0.255681
 20
2.849295
  0
VERTEX
  8
PLAN_1
 62
     2
  6
CONTINUOUS
 10
-0.256098
 20
2.852630
  0
VERTEX
  8
PLAN_1
 62
     2
  6
CONTINUOUS
 10
-0.256512
 20
2.856378
  0
VERTEX
  8
PLAN_1
 62
     2
  6
CONTINUOUS
 10
-0.256098
 20
2.860126
  0
VERTEX
  8
PLAN_1
 62
     2
  6
CONTINUOUS
 10
-0.255681
 20
2.863457
  0
VERTEX
  8
PLAN_1
 62
     2
  6
CONTINUOUS
 10
-0.254429
 20
2.866374
  0
VERTEX
  8
PLAN_1
 62
     2
  6
CONTINUOUS
 10
-0.252764
 20
2.869287
  0
VERTEX
  8
PLAN_1
 62
     2
  6
CONTINUOUS
 10
-0.250681
 20
2.871370
  0
VERTEX
  8
PLAN_1
 62
     2
  6
CONTINUOUS
 10
-0.248598
 20
2.873453
  0
VERTEX
  8
PLAN_1
 62
     2
  6
CONTINUOUS
 10
-0.246102
 20
2.875118
  0
VERTEX
  8
PLAN_1
 62
     2
  6
CONTINUOUS
 10
-0.243602
 20
2.876783
  0
VERTEX
  8
PLAN_1
 62
     2
  6
CONTINUOUS
 10
-0.240689
 20
2.878035
  0
VERTEX
  8
PLAN_1
 62
     2
  6
CONTINUOUS
 10
-0.237354
 20
2.878866
  0
VERTEX
  8
PLAN_1
 62
     2
  6
CONTINUOUS
 10
-0.234441
 20
2.879701
  0
VERTEX
  8
PLAN_1
 62
     2
  6
CONTINUOUS
 10
-0.231106
 20
2.880531
  0
VERTEX
  8
PLAN_1
 62
     2
  6
CONTINUOUS
 10
-0.224862
 20
2.881366
  0
VERTEX
  8
PLAN_1
 62
     2
  6
CONTINUOUS
 10
-0.219031
 20
2.881366
  0
VERTEX
  8
PLAN_1
 62
     2
  6
CONTINUOUS
 10
-0.213201
 20
2.881366
  0
VERTEX
  8
PLAN_1
 62
     2
  6
CONTINUOUS
 10
-0.206535
 20
2.880531
  0
VERTEX
  8
PLAN_1
 62
     2
  6
CONTINUOUS
 10
-0.203618
 20
2.879701
  0
VERTEX
  8
PLAN_1
 62
     2
  6
CONTINUOUS
 10
-0.200287
 20
2.878866
  0
VERTEX
  8
PLAN_1
 62
     2
  6
CONTINUOUS
 10
-0.197374
 20
2.878035
  0
VERTEX
  8
PLAN_1
 62
     2
  6
CONTINUOUS
 10
-0.194457
 20
2.876783
  0
VERTEX
  8
PLAN_1
 62
     2
  6
CONTINUOUS
 10
-0.191957
 20
2.875118
  0
VERTEX
  8
PLAN_1
 62
     2
  6
CONTINUOUS
 10
-0.189461
 20
2.873453
  0
VERTEX
  8
PLAN_1
 62
     2
  6
CONTINUOUS
 10
-0.186961
 20
2.871370
  0
VERTEX
  8
PLAN_1
 62
     2
  6
CONTINUOUS
 10
-0.185295
 20
2.869287
  0
VERTEX
  8
PLAN_1
 62
     2
  6
CONTINUOUS
 10
-0.183630
 20
2.866374
  0
VERTEX
  8
PLAN_1
 62
     2
  6
CONTINUOUS
 10
-0.182378
 20
2.863457
  0
VERTEX
  8
PLAN_1
 62
     2
  6
CONTINUOUS
 10
-0.181547
 20
2.860126
  0
VERTEX
  8
PLAN_1
 62
     2
  6
CONTINUOUS
 10
-0.181547
 20
2.856378
  0
SEQEND
  8
0
  0
POLYLINE
  8
PLAN_1
 62
     2
  6
CONTINUOUS
 66
     1
 40
0.003000
 41
0.003000
  0
VERTEX
  8
PLAN_1
 62
     2
  6
CONTINUOUS
 10
-0.248185
 20
2.856378
  0
VERTEX
  8
PLAN_1
 62
     2
  6
CONTINUOUS
 10
-0.248185
 20
2.854295
  0
VERTEX
  8
PLAN_1
 62
     2
  6
CONTINUOUS
 10
-0.247768
 20
2.852630
  0
VERTEX
  8
PLAN_1
 62
     2
  6
CONTINUOUS
 10
-0.247350
 20
2.850961
  0
VERTEX
  8
PLAN_1
 62
     2
  6
CONTINUOUS
 10
-0.246102
 20
2.849713
  0
VERTEX
  8
PLAN_1
 62
     2
  6
CONTINUOUS
 10
-0.245268
 20
2.848047
  0
VERTEX
  8
PLAN_1
 62
     2
  6
CONTINUOUS
 10
-0.244020
 20
2.846799
  0
VERTEX
  8
PLAN_1
 62
     2
  6
CONTINUOUS
 10
-0.242354
 20
2.845965
  0
VERTEX
  8
PLAN_1
 62
     2
  6
CONTINUOUS
 10
-0.240689
 20
2.844717
  0
VERTEX
  8
PLAN_1
 62
     2
  6
CONTINUOUS
 10
-0.236106
 20
2.843047
  0
VERTEX
  8
PLAN_1
 62
     2
  6
CONTINUOUS
 10
-0.231106
 20
2.841799
  0
VERTEX
  8
PLAN_1
 62
     2
  6
CONTINUOUS
 10
-0.225693
 20
2.841382
  0
VERTEX
  8
PLAN_1
 62
     2
  6
CONTINUOUS
 10
-0.219031
 20
2.840969
  0
VERTEX
  8
PLAN_1
 62
     2
  6
CONTINUOUS
 10
-0.212366
 20
2.841382
  0
VERTEX
  8
PLAN_1
 62
     2
  6
CONTINUOUS
 10
-0.206535
 20
2.841799
  0
VERTEX
  8
PLAN_1
 62
     2
  6
CONTINUOUS
 10
-0.201539
 20
2.843047
  0
VERTEX
  8
PLAN_1
 62
     2
  6
CONTINUOUS
 10
-0.197374
 20
2.844717
  0
VERTEX
  8
PLAN_1
 62
     2
  6
CONTINUOUS
 10
-0.195709
 20
2.845965
  0
VERTEX
  8
PLAN_1
 62
     2
  6
CONTINUOUS
 10
-0.194039
 20
2.846799
  0
VERTEX
  8
PLAN_1
 62
     2
  6
CONTINUOUS
 10
-0.192791
 20
2.848047
  0
VERTEX
  8
PLAN_1
 62
     2
  6
CONTINUOUS
 10
-0.191543
 20
2.849713
  0
VERTEX
  8
PLAN_1
 62
     2
  6
CONTINUOUS
 10
-0.190709
 20
2.850961
  0
VERTEX
  8
PLAN_1
 62
     2
  6
CONTINUOUS
 10
-0.190291
 20
2.852630
  0
VERTEX
  8
PLAN_1
 62
     2
  6
CONTINUOUS
 10
-0.189878
 20
2.854295
  0
VERTEX
  8
PLAN_1
 62
     2
  6
CONTINUOUS
 10
-0.189461
 20
2.856378
  0
VERTEX
  8
PLAN_1
 62
     2
  6
CONTINUOUS
 10
-0.189878
 20
2.858461
  0
VERTEX
  8
PLAN_1
 62
     2
  6
CONTINUOUS
 10
-0.190291
 20
2.860126
  0
VERTEX
  8
PLAN_1
 62
     2
  6
CONTINUOUS
 10
-0.190709
 20
2.861791
  0
VERTEX
  8
PLAN_1
 62
     2
  6
CONTINUOUS
 10
-0.191543
 20
2.863039
  0
VERTEX
  8
PLAN_1
 62
     2
  6
CONTINUOUS
 10
-0.192791
 20
2.864705
  0
VERTEX
  8
PLAN_1
 62
     2
  6
CONTINUOUS
 10
-0.194039
 20
2.865957
  0
VERTEX
  8
PLAN_1
 62
     2
  6
CONTINUOUS
 10
-0.195709
 20
2.866787
  0
VERTEX
  8
PLAN_1
 62
     2
  6
CONTINUOUS
 10
-0.197374
 20
2.868039
  0
VERTEX
  8
PLAN_1
 62
     2
  6
CONTINUOUS
 10
-0.201539
 20
2.869705
  0
VERTEX
  8
PLAN_1
 62
     2
  6
CONTINUOUS
 10
-0.206535
 20
2.870953
  0
VERTEX
  8
PLAN_1
 62
     2
  6
CONTINUOUS
 10
-0.212366
 20
2.871370
  0
VERTEX
  8
PLAN_1
 62
     2
  6
CONTINUOUS
 10
-0.219031
 20
2.871787
  0
VERTEX
  8
PLAN_1
 62
     2
  6
CONTINUOUS
 10
-0.225693
 20
2.871370
  0
VERTEX
  8
PLAN_1
 62
     2
  6
CONTINUOUS
 10
-0.231106
 20
2.870953
  0
VERTEX
  8
PLAN_1
 62
     2
  6
CONTINUOUS
 10
-0.236106
 20
2.869705
  0
VERTEX
  8
PLAN_1
 62
     2
  6
CONTINUOUS
 10
-0.240689
 20
2.868039
  0
VERTEX
  8
PLAN_1
 62
     2
  6
CONTINUOUS
 10
-0.242354
 20
2.866787
  0
VERTEX
  8
PLAN_1
 62
     2
  6
CONTINUOUS
 10
-0.244020
 20
2.865957
  0
VERTEX
  8
PLAN_1
 62
     2
  6
CONTINUOUS
 10
-0.245268
 20
2.864705
  0
VERTEX
  8
PLAN_1
 62
     2
  6
CONTINUOUS
 10
-0.246102
 20
2.863039
  0
VERTEX
  8
PLAN_1
 62
     2
  6
CONTINUOUS
 10
-0.247350
 20
2.861791
  0
VERTEX
  8
PLAN_1
 62
     2
  6
CONTINUOUS
 10
-0.247768
 20
2.860126
  0
VERTEX
  8
PLAN_1
 62
     2
  6
CONTINUOUS
 10
-0.248185
 20
2.858461
  0
VERTEX
  8
PLAN_1
 62
     2
  6
CONTINUOUS
 10
-0.248185
 20
2.856378
  0
SEQEND
  8
0
  0
POLYLINE
  8
PLAN_1
 62
     2
  6
CONTINUOUS
 66
     1
 40
0.004161
 41
0.004161
  0
VERTEX
  8
PLAN_1
 62
     2
  6
CONTINUOUS
 10
-0.136150
 20
3.050457
  0
VERTEX
  8
PLAN_1
 62
     2
  6
CONTINUOUS
 10
-0.444346
 20
3.050457
  0
SEQEND
  8
0
  0
SOLID
  8
PLAN_1
 62
     2
 10
-1.248575
 20
2.786823
 11
-1.279394
 21
2.839717
 12
-1.248575
 22
2.786823
 13
-1.301469
 23
2.817228
  0
POLYLINE
  8
PLAN_1
 62
     2
  6
CONTINUOUS
 66
     1
 40
0.003000
 41
0.003000
  0
VERTEX
  8
PLAN_1
 62
     2
  6
CONTINUOUS
 10
-1.248575
 20
2.786823
  0
VERTEX
  8
PLAN_1
 62
     2
  6
CONTINUOUS
 10
-1.279394
 20
2.839717
  0
VERTEX
  8
PLAN_1
 62
     2
  6
CONTINUOUS
 10
-1.301469
 20
2.817228
  0
VERTEX
  8
PLAN_1
 62
     2
  6
CONTINUOUS
 10
-1.248575
 20
2.786823
  0
SEQEND
  8
0
  0
POLYLINE
  8
PLAN_1
 62
     2
  6
CONTINUOUS
 66
     1
 40
0.004161
 41
0.004161
  0
VERTEX
  8
PLAN_1
 62
     2
  6
CONTINUOUS
 10
-1.275232
 20
2.813063
  0
VERTEX
  8
PLAN_1
 62
     2
  6
CONTINUOUS
 10
-1.698795
 20
3.231626
  0
VERTEX
  8
PLAN_1
 62
     2
  6
CONTINUOUS
 10
-1.987000
 20
3.231626
  0
SEQEND
  8
0
  0
POLYLINE
  8
PLAN_1
 62
     2
  6
CONTINUOUS
 66
     1
 40
0.003000
 41
0.003000
  0
VERTEX
  8
PLAN_1
 62
     2
  6
CONTINUOUS
 10
-1.892043
 20
3.319504
  0
VERTEX
  8
PLAN_1
 62
     2
  6
CONTINUOUS
 10
-1.889961
 20
3.316173
  0
VERTEX
  8
PLAN_1
 62
     2
  6
CONTINUOUS
 10
-1.888295
 20
3.312843
  0
VERTEX
  8
PLAN_1
 62
     2
  6
CONTINUOUS
 10
-1.886626
 20
3.309512
  0
VERTEX
  8
PLAN_1
 62
     2
  6
CONTINUOUS
 10
-1.885378
 20
3.306177
  0
VERTEX
  8
PLAN_1
 62
     2
  6
CONTINUOUS
 10
-1.884543
 20
3.302846
  0
VERTEX
  8
PLAN_1
 62
     2
  6
CONTINUOUS
 10
-1.884130
 20
3.299098
  0
VERTEX
  8
PLAN_1
 62
     2
  6
CONTINUOUS
 10
-1.883713
 20
3.295768
  0
VERTEX
  8
PLAN_1
 62
     2
  6
CONTINUOUS
 10
-1.883713
 20
3.292850
  0
VERTEX
  8
PLAN_1
 62
     2
  6
CONTINUOUS
 10
-1.883713
 20
3.289520
  0
VERTEX
  8
PLAN_1
 62
     2
  6
CONTINUOUS
 10
-1.884130
 20
3.286185
  0
VERTEX
  8
PLAN_1
 62
     2
  6
CONTINUOUS
 10
-1.884543
 20
3.282854
  0
VERTEX
  8
PLAN_1
 62
     2
  6
CONTINUOUS
 10
-1.885378
 20
3.279524
  0
VERTEX
  8
PLAN_1
 62
     2
  6
CONTINUOUS
 10
-1.886213
 20
3.276606
  0
VERTEX
  8
PLAN_1
 62
     2
  6
CONTINUOUS
 10
-1.887878
 20
3.273276
  0
VERTEX
  8
PLAN_1
 62
     2
  6
CONTINUOUS
 10
-1.889543
 20
3.269945
  0
VERTEX
  8
PLAN_1
 62
     2
  6
CONTINUOUS
 10
-1.891209
 20
3.267028
  0
VERTEX
  8
PLAN_1
 62
     2
  6
CONTINUOUS
 10
-1.893709
 20
3.264114
  0
VERTEX
  8
PLAN_1
 62
     2
  6
CONTINUOUS
 10
-1.896209
 20
3.261614
  0
VERTEX
  8
PLAN_1
 62
     2
  6
CONTINUOUS
 10
-1.899122
 20
3.259114
  0
VERTEX
  8
PLAN_1
 62
     2
  6
CONTINUOUS
 10
-1.902453
 20
3.257031
  0
VERTEX
  8
PLAN_1
 62
     2
  6
CONTINUOUS
 10
-1.906201
 20
3.255783
  0
VERTEX
  8
PLAN_1
 62
     2
  6
CONTINUOUS
 10
-1.910366
 20
3.254535
  0
VERTEX
  8
PLAN_1
 62
     2
  6
CONTINUOUS
 10
-1.914949
 20
3.253701
  0
VERTEX
  8
PLAN_1
 62
     2
  6
CONTINUOUS
 10
-1.919945
 20
3.253283
  0
VERTEX
  8
PLAN_1
 62
     2
  6
CONTINUOUS
 10
-1.924110
 20
3.253701
  0
VERTEX
  8
PLAN_1
 62
     2
  6
CONTINUOUS
 10
-1.927445
 20
3.254118
  0
VERTEX
  8
PLAN_1
 62
     2
  6
CONTINUOUS
 10
-1.931193
 20
3.254949
  0
VERTEX
  8
PLAN_1
 62
     2
  6
CONTINUOUS
 10
-1.934106
 20
3.255783
  0
VERTEX
  8
PLAN_1
 62
     2
  6
CONTINUOUS
 10
-1.937024
 20
3.257031
  0
VERTEX
  8
PLAN_1
 62
     2
  6
CONTINUOUS
 10
-1.939937
 20
3.258701
  0
VERTEX
  8
PLAN_1
 62
     2
  6
CONTINUOUS
 10
-1.942437
 20
3.260366
  0
VERTEX
  8
PLAN_1
 62
     2
  6
CONTINUOUS
 10
-1.944520
 20
3.262449
  0
VERTEX
  8
PLAN_1
 62
     2
  6
CONTINUOUS
 10
-1.952846
 20
3.253283
  0
VERTEX
  8
PLAN_1
 62
     2
  6
CONTINUOUS
 10
-1.956181
 20
3.256201
  0
VERTEX
  8
PLAN_1
 62
     2
  6
CONTINUOUS
 10
-1.947433
 20
3.265780
  0
VERTEX
  8
PLAN_1
 62
     2
  6
CONTINUOUS
 10
-1.949933
 20
3.268693
  0
VERTEX
  8
PLAN_1
 62
     2
  6
CONTINUOUS
 10
-1.951598
 20
3.272028
  0
VERTEX
  8
PLAN_1
 62
     2
  6
CONTINUOUS
 10
-1.953264
 20
3.275358
  0
VERTEX
  8
PLAN_1
 62
     2
  6
CONTINUOUS
 10
-1.954516
 20
3.279106
  0
VERTEX
  8
PLAN_1
 62
     2
  6
CONTINUOUS
 10
-1.955346
 20
3.282437
  0
VERTEX
  8
PLAN_1
 62
     2
  6
CONTINUOUS
 10
-1.955764
 20
3.285772
  0
VERTEX
  8
PLAN_1
 62
     2
  6
CONTINUOUS
 10
-1.956181
 20
3.289520
  0
VERTEX
  8
PLAN_1
 62
     2
  6
CONTINUOUS
 10
-1.956181
 20
3.292850
  0
VERTEX
  8
PLAN_1
 62
     2
  6
CONTINUOUS
 10
-1.956181
 20
3.295768
  0
VERTEX
  8
PLAN_1
 62
     2
  6
CONTINUOUS
 10
-1.955764
 20
3.299098
  0
VERTEX
  8
PLAN_1
 62
     2
  6
CONTINUOUS
 10
-1.955346
 20
3.302429
  0
VERTEX
  8
PLAN_1
 62
     2
  6
CONTINUOUS
 10
-1.954516
 20
3.305760
  0
VERTEX
  8
PLAN_1
 62
     2
  6
CONTINUOUS
 10
-1.953681
 20
3.309094
  0
VERTEX
  8
PLAN_1
 62
     2
  6
CONTINUOUS
 10
-1.952016
 20
3.312008
  0
VERTEX
  8
PLAN_1
 62
     2
  6
CONTINUOUS
 10
-1.950768
 20
3.315343
  0
VERTEX
  8
PLAN_1
 62
     2
  6
CONTINUOUS
 10
-1.948685
 20
3.318256
  0
VERTEX
  8
PLAN_1
 62
     2
  6
CONTINUOUS
 10
-1.946185
 20
3.321173
  0
VERTEX
  8
PLAN_1
 62
     2
  6
CONTINUOUS
 10
-1.943685
 20
3.323669
  0
VERTEX
  8
PLAN_1
 62
     2
  6
CONTINUOUS
 10
-1.940772
 20
3.326169
  0
VERTEX
  8
PLAN_1
 62
     2
  6
CONTINUOUS
 10
-1.937437
 20
3.328252
  0
VERTEX
  8
PLAN_1
 62
     2
  6
CONTINUOUS
 10
-1.933689
 20
3.329917
  0
VERTEX
  8
PLAN_1
 62
     2
  6
CONTINUOUS
 10
-1.929524
 20
3.331165
  0
VERTEX
  8
PLAN_1
 62
     2
  6
CONTINUOUS
 10
-1.924945
 20
3.331583
  0
VERTEX
  8
PLAN_1
 62
     2
  6
CONTINUOUS
 10
-1.919945
 20
3.332000
  0
VERTEX
  8
PLAN_1
 62
     2
  6
CONTINUOUS
 10
-1.915780
 20
3.332000
  0
VERTEX
  8
PLAN_1
 62
     2
  6
CONTINUOUS
 10
-1.912031
 20
3.331165
  0
VERTEX
  8
PLAN_1
 62
     2
  6
CONTINUOUS
 10
-1.908701
 20
3.330335
  0
VERTEX
  8
PLAN_1
 62
     2
  6
CONTINUOUS
 10
-1.905370
 20
3.329500
  0
VERTEX
  8
PLAN_1
 62
     2
  6
CONTINUOUS
 10
-1.902453
 20
3.328252
  0
VERTEX
  8
PLAN_1
 62
     2
  6
CONTINUOUS
 10
-1.899539
 20
3.326587
  0
VERTEX
  8
PLAN_1
 62
     2
  6
CONTINUOUS
 10
-1.897457
 20
3.324921
  0
VERTEX
  8
PLAN_1
 62
     2
  6
CONTINUOUS
 10
-1.894957
 20
3.322839
  0
VERTEX
  8
PLAN_1
 62
     2
  6
CONTINUOUS
 10
-1.886626
 20
3.332000
  0
VERTEX
  8
PLAN_1
 62
     2
  6
CONTINUOUS
 10
-1.883295
 20
3.329083
  0
VERTEX
  8
PLAN_1
 62
     2
  6
CONTINUOUS
 10
-1.892043
 20
3.319504
  0
SEQEND
  8
0
  0
POLYLINE
  8
PLAN_1
 62
     2
  6
CONTINUOUS
 66
     1
 40
0.003000
 41
0.003000
  0
VERTEX
  8
PLAN_1
 62
     2
  6
CONTINUOUS
 10
-1.937854
 20
3.269528
  0
VERTEX
  8
PLAN_1
 62
     2
  6
CONTINUOUS
 10
-1.936189
 20
3.267862
  0
VERTEX
  8
PLAN_1
 62
     2
  6
CONTINUOUS
 10
-1.934106
 20
3.266610
  0
VERTEX
  8
PLAN_1
 62
     2
  6
CONTINUOUS
 10
-1.932441
 20
3.265362
  0
VERTEX
  8
PLAN_1
 62
     2
  6
CONTINUOUS
 10
-1.929941
 20
3.264114
  0
VERTEX
  8
PLAN_1
 62
     2
  6
CONTINUOUS
 10
-1.927858
 20
3.263280
  0
VERTEX
  8
PLAN_1
 62
     2
  6
CONTINUOUS
 10
-1.925362
 20
3.262862
  0
VERTEX
  8
PLAN_1
 62
     2
  6
CONTINUOUS
 10
-1.922862
 20
3.262449
  0
VERTEX
  8
PLAN_1
 62
     2
  6
CONTINUOUS
 10
-1.919945
 20
3.262449
  0
VERTEX
  8
PLAN_1
 62
     2
  6
CONTINUOUS
 10
-1.917031
 20
3.262449
  0
VERTEX
  8
PLAN_1
 62
     2
  6
CONTINUOUS
 10
-1.914114
 20
3.262862
  0
VERTEX
  8
PLAN_1
 62
     2
  6
CONTINUOUS
 10
-1.911618
 20
3.263697
  0
VERTEX
  8
PLAN_1
 62
     2
  6
CONTINUOUS
 10
-1.909118
 20
3.264531
  0
VERTEX
  8
PLAN_1
 62
     2
  6
CONTINUOUS
 10
-1.906618
 20
3.265780
  0
VERTEX
  8
PLAN_1
 62
     2
  6
CONTINUOUS
 10
-1.904535
 20
3.267445
  0
VERTEX
  8
PLAN_1
 62
     2
  6
CONTINUOUS
 10
-1.902453
 20
3.269110
  0
VERTEX
  8
PLAN_1
 62
     2
  6
CONTINUOUS
 10
-1.900787
 20
3.270776
  0
VERTEX
  8
PLAN_1
 62
     2
  6
CONTINUOUS
 10
-1.899122
 20
3.272858
  0
VERTEX
  8
PLAN_1
 62
     2
  6
CONTINUOUS
 10
-1.897874
 20
3.275358
  0
VERTEX
  8
PLAN_1
 62
     2
  6
CONTINUOUS
 10
-1.896622
 20
3.277858
  0
VERTEX
  8
PLAN_1
 62
     2
  6
CONTINUOUS
 10
-1.895791
 20
3.280354
  0
VERTEX
  8
PLAN_1
 62
     2
  6
CONTINUOUS
 10
-1.894957
 20
3.283272
  0
VERTEX
  8
PLAN_1
 62
     2
  6
CONTINUOUS
 10
-1.894539
 20
3.286185
  0
VERTEX
  8
PLAN_1
 62
     2
  6
CONTINUOUS
 10
-1.894126
 20
3.289520
  0
VERTEX
  8
PLAN_1
 62
     2
  6
CONTINUOUS
 10
-1.894126
 20
3.292850
  0
VERTEX
  8
PLAN_1
 62
     2
  6
CONTINUOUS
 10
-1.894126
 20
3.295350
  0
VERTEX
  8
PLAN_1
 62
     2
  6
CONTINUOUS
 10
-1.894126
 20
3.298264
  0
VERTEX
  8
PLAN_1
 62
     2
  6
CONTINUOUS
 10
-1.894539
 20
3.300764
  0
VERTEX
  8
PLAN_1
 62
     2
  6
CONTINUOUS
 10
-1.895374
 20
3.303264
  0
VERTEX
  8
PLAN_1
 62
     2
  6
CONTINUOUS
 10
-1.895791
 20
3.305346
  0
VERTEX
  8
PLAN_1
 62
     2
  6
CONTINUOUS
 10
-1.897039
 20
3.307843
  0
VERTEX
  8
PLAN_1
 62
     2
  6
CONTINUOUS
 10
-1.897874
 20
3.309925
  0
VERTEX
  8
PLAN_1
 62
     2
  6
CONTINUOUS
 10
-1.899122
 20
3.312008
  0
VERTEX
  8
PLAN_1
 62
     2
  6
CONTINUOUS
 10
-1.937854
 20
3.269528
  0
SEQEND
  8
0
  0
POLYLINE
  8
PLAN_1
 62
     2
  6
CONTINUOUS
 66
     1
 40
0.003000
 41
0.003000
  0
VERTEX
  8
PLAN_1
 62
     2
  6
CONTINUOUS
 10
-1.901622
 20
3.315343
  0
VERTEX
  8
PLAN_1
 62
     2
  6
CONTINUOUS
 10
-1.903287
 20
3.317008
  0
VERTEX
  8
PLAN_1
 62
     2
  6
CONTINUOUS
 10
-1.905370
 20
3.318673
  0
VERTEX
  8
PLAN_1
 62
     2
  6
CONTINUOUS
 10
-1.907453
 20
3.319921
  0
VERTEX
  8
PLAN_1
 62
     2
  6
CONTINUOUS
 10
-1.909535
 20
3.321173
  0
VERTEX
  8
PLAN_1
 62
     2
  6
CONTINUOUS
 10
-1.912031
 20
3.322004
  0
VERTEX
  8
PLAN_1
 62
     2
  6
CONTINUOUS
 10
-1.914531
 20
3.322421
  0
VERTEX
  8
PLAN_1
 62
     2
  6
CONTINUOUS
 10
-1.917031
 20
3.322839
  0
VERTEX
  8
PLAN_1
 62
     2
  6
CONTINUOUS
 10
-1.919945
 20
3.323252
  0
VERTEX
  8
PLAN_1
 62
     2
  6
CONTINUOUS
 10
-1.922862
 20
3.322839
  0
VERTEX
  8
PLAN_1
 62
     2
  6
CONTINUOUS
 10
-1.925776
 20
3.322421
  0
VERTEX
  8
PLAN_1
 62
     2
  6
CONTINUOUS
 10
-1.928276
 20
3.321587
  0
VERTEX
  8
PLAN_1
 62
     2
  6
CONTINUOUS
 10
-1.930776
 20
3.320756
  0
VERTEX
  8
PLAN_1
 62
     2
  6
CONTINUOUS
 10
-1.933276
 20
3.319504
  0
VERTEX
  8
PLAN_1
 62
     2
  6
CONTINUOUS
 10
-1.935354
 20
3.318256
  0
VERTEX
  8
PLAN_1
 62
     2
  6
CONTINUOUS
 10
-1.937437
 20
3.316173
  0
VERTEX
  8
PLAN_1
 62
     2
  6
CONTINUOUS
 10
-1.939106
 20
3.314508
  0
VERTEX
  8
PLAN_1
 62
     2
  6
CONTINUOUS
 10
-1.940772
 20
3.312425
  0
VERTEX
  8
PLAN_1
 62
     2
  6
CONTINUOUS
 10
-1.942020
 20
3.309925
  0
VERTEX
  8
PLAN_1
 62
     2
  6
CONTINUOUS
 10
-1.943268
 20
3.307429
  0
VERTEX
  8
PLAN_1
 62
     2
  6
CONTINUOUS
 10
-1.944102
 20
3.304929
  0
VERTEX
  8
PLAN_1
 62
     2
  6
CONTINUOUS
 10
-1.944937
 20
3.302012
  0
VERTEX
  8
PLAN_1
 62
     2
  6
CONTINUOUS
 10
-1.945350
 20
3.299098
  0
VERTEX
  8
PLAN_1
 62
     2
  6
CONTINUOUS
 10
-1.945768
 20
3.295768
  0
VERTEX
  8
PLAN_1
 62
     2
  6
CONTINUOUS
 10
-1.945768
 20
3.292850
  0
VERTEX
  8
PLAN_1
 62
     2
  6
CONTINUOUS
 10
-1.945768
 20
3.289937
  0
VERTEX
  8
PLAN_1
 62
     2
  6
CONTINUOUS
 10
-1.945768
 20
3.287020
  0
VERTEX
  8
PLAN_1
 62
     2
  6
CONTINUOUS
 10
-1.945350
 20
3.284520
  0
VERTEX
  8
PLAN_1
 62
     2
  6
CONTINUOUS
 10
-1.944520
 20
3.282024
  0
VERTEX
  8
PLAN_1
 62
     2
  6
CONTINUOUS
 10
-1.943685
 20
3.279524
  0
VERTEX
  8
PLAN_1
 62
     2
  6
CONTINUOUS
 10
-1.942854
 20
3.277441
  0
VERTEX
  8
PLAN_1
 62
     2
  6
CONTINUOUS
 10
-1.942020
 20
3.275358
  0
VERTEX
  8
PLAN_1
 62
     2
  6
CONTINUOUS
 10
-1.940772
 20
3.273276
  0
VERTEX
  8
PLAN_1
 62
     2
  6
CONTINUOUS
 10
-1.901622
 20
3.315343
  0
SEQEND
  8
0
  0
POLYLINE
  8
PLAN_1
 62
     2
  6
CONTINUOUS
 66
     1
 40
0.003000
 41
0.003000
  0
VERTEX
  8
PLAN_1
 62
     2
  6
CONTINUOUS
 10
-1.842063
 20
3.255366
  0
VERTEX
  8
PLAN_1
 62
     2
  6
CONTINUOUS
 10
-1.852059
 20
3.255366
  0
VERTEX
  8
PLAN_1
 62
     2
  6
CONTINUOUS
 10
-1.852059
 20
3.307429
  0
VERTEX
  8
PLAN_1
 62
     2
  6
CONTINUOUS
 10
-1.869134
 20
3.307429
  0
VERTEX
  8
PLAN_1
 62
     2
  6
CONTINUOUS
 10
-1.869134
 20
3.314508
  0
VERTEX
  8
PLAN_1
 62
     2
  6
CONTINUOUS
 10
-1.864972
 20
3.314925
  0
VERTEX
  8
PLAN_1
 62
     2
  6
CONTINUOUS
 10
-1.861220
 20
3.315343
  0
VERTEX
  8
PLAN_1
 62
     2
  6
CONTINUOUS
 10
-1.858307
 20
3.316173
  0
VERTEX
  8
PLAN_1
 62
     2
  6
CONTINUOUS
 10
-1.855807
 20
3.317421
  0
VERTEX
  8
PLAN_1
 62
     2
  6
CONTINUOUS
 10
-1.853724
 20
3.319091
  0
VERTEX
  8
PLAN_1
 62
     2
  6
CONTINUOUS
 10
-1.852059
 20
3.321173
  0
VERTEX
  8
PLAN_1
 62
     2
  6
CONTINUOUS
 10
-1.850394
 20
3.324504
  0
VERTEX
  8
PLAN_1
 62
     2
  6
CONTINUOUS
 10
-1.849146
 20
3.328669
  0
VERTEX
  8
PLAN_1
 62
     2
  6
CONTINUOUS
 10
-1.842063
 20
3.328669
  0
VERTEX
  8
PLAN_1
 62
     2
  6
CONTINUOUS
 10
-1.842063
 20
3.255366
  0
SEQEND
  8
0
  0
POLYLINE
  8
PLAN_1
 62
     2
  6
CONTINUOUS
 66
     1
 40
0.003000
 41
0.003000
  0
VERTEX
  8
PLAN_1
 62
     2
  6
CONTINUOUS
 10
-1.817075
 20
3.302429
  0
VERTEX
  8
PLAN_1
 62
     2
  6
CONTINUOUS
 10
-1.816657
 20
3.306594
  0
VERTEX
  8
PLAN_1
 62
     2
  6
CONTINUOUS
 10
-1.816240
 20
3.310343
  0
VERTEX
  8
PLAN_1
 62
     2
  6
CONTINUOUS
 10
-1.815409
 20
3.313673
  0
VERTEX
  8
PLAN_1
 62
     2
  6
CONTINUOUS
 10
-1.814161
 20
3.316591
  0
VERTEX
  8
PLAN_1
 62
     2
  6
CONTINUOUS
 10
-1.812909
 20
3.318673
  0
VERTEX
  8
PLAN_1
 62
     2
  6
CONTINUOUS
 10
-1.811244
 20
3.321173
  0
VERTEX
  8
PLAN_1
 62
     2
  6
CONTINUOUS
 10
-1.809161
 20
3.322839
  0
VERTEX
  8
PLAN_1
 62
     2
  6
CONTINUOUS
 10
-1.807496
 20
3.324087
  0
VERTEX
  8
PLAN_1
 62
     2
  6
CONTINUOUS
 10
-1.805413
 20
3.325335
  0
VERTEX
  8
PLAN_1
 62
     2
  6
CONTINUOUS
 10
-1.803331
 20
3.326587
  0
VERTEX
  8
PLAN_1
 62
     2
  6
CONTINUOUS
 10
-1.801248
 20
3.327004
  0
VERTEX
  8
PLAN_1
 62
     2
  6
CONTINUOUS
 10
-1.799165
 20
3.327835
  0
VERTEX
  8
PLAN_1
 62
     2
  6
CONTINUOUS
 10
-1.795000
 20
3.328252
  0
VERTEX
  8
PLAN_1
 62
     2
  6
CONTINUOUS
 10
-1.791669
 20
3.328669
  0
VERTEX
  8
PLAN_1
 62
     2
  6
CONTINUOUS
 10
-1.787087
 20
3.328252
  0
VERTEX
  8
PLAN_1
 62
     2
  6
CONTINUOUS
 10
-1.782925
 20
3.327004
  0
VERTEX
  8
PLAN_1
 62
     2
  6
CONTINUOUS
 10
-1.778760
 20
3.325335
  0
VERTEX
  8
PLAN_1
 62
     2
  6
CONTINUOUS
 10
-1.775425
 20
3.322839
  0
VERTEX
  8
PLAN_1
 62
     2
  6
CONTINUOUS
 10
-1.774177
 20
3.321173
  0
VERTEX
  8
PLAN_1
 62
     2
  6
CONTINUOUS
 10
-1.772512
 20
3.319504
  0
VERTEX
  8
PLAN_1
 62
     2
  6
CONTINUOUS
 10
-1.771677
 20
3.317839
  0
VERTEX
  8
PLAN_1
 62
     2
  6
CONTINUOUS
 10
-1.770429
 20
3.315756
  0
VERTEX
  8
PLAN_1
 62
     2
  6
CONTINUOUS
 10
-1.770012
 20
3.313673
  0
VERTEX
  8
PLAN_1
 62
     2
  6
CONTINUOUS
 10
-1.769181
 20
3.311591
  0
VERTEX
  8
PLAN_1
 62
     2
  6
CONTINUOUS
 10
-1.768764
 20
3.309094
  0
VERTEX
  8
PLAN_1
 62
     2
  6
CONTINUOUS
 10
-1.768764
 20
3.306594
  0
VERTEX
  8
PLAN_1
 62
     2
  6
CONTINUOUS
 10
-1.769181
 20
3.302012
  0
VERTEX
  8
PLAN_1
 62
     2
  6
CONTINUOUS
 10
-1.770429
 20
3.298264
  0
VERTEX
  8
PLAN_1
 62
     2
  6
CONTINUOUS
 10
-1.772094
 20
3.294516
  0
VERTEX
  8
PLAN_1
 62
     2
  6
CONTINUOUS
 10
-1.774594
 20
3.291602
  0
VERTEX
  8
PLAN_1
 62
     2
  6
CONTINUOUS
 10
-1.777508
 20
3.289102
  0
VERTEX
  8
PLAN_1
 62
     2
  6
CONTINUOUS
 10
-1.780843
 20
3.286602
  0
VERTEX
  8
PLAN_1
 62
     2
  6
CONTINUOUS
 10
-1.784591
 20
3.284520
  0
VERTEX
  8
PLAN_1
 62
     2
  6
CONTINUOUS
 10
-1.788339
 20
3.282024
  0
VERTEX
  8
PLAN_1
 62
     2
  6
CONTINUOUS
 10
-1.795835
 20
3.277858
  0
VERTEX
  8
PLAN_1
 62
     2
  6
CONTINUOUS
 10
-1.799165
 20
3.275776
  0
VERTEX
  8
PLAN_1
 62
     2
  6
CONTINUOUS
 10
-1.802083
 20
3.273693
  0
VERTEX
  8
PLAN_1
 62
     2
  6
CONTINUOUS
 10
-1.804165
 20
3.272028
  0
VERTEX
  8
PLAN_1
 62
     2
  6
CONTINUOUS
 10
-1.805831
 20
3.269945
  0
VERTEX
  8
PLAN_1
 62
     2
  6
CONTINUOUS
 10
-1.807079
 20
3.268280
  0
VERTEX
  8
PLAN_1
 62
     2
  6
CONTINUOUS
 10
-1.807913
 20
3.266610
  0
VERTEX
  8
PLAN_1
 62
     2
  6
CONTINUOUS
 10
-1.808331
 20
3.264945
  0
VERTEX
  8
PLAN_1
 62
     2
  6
CONTINUOUS
 10
-1.808744
 20
3.264114
  0
VERTEX
  8
PLAN_1
 62
     2
  6
CONTINUOUS
 10
-1.768764
 20
3.264114
  0
VERTEX
  8
PLAN_1
 62
     2
  6
CONTINUOUS
 10
-1.768764
 20
3.255366
  0
VERTEX
  8
PLAN_1
 62
     2
  6
CONTINUOUS
 10
-1.818740
 20
3.255366
  0
VERTEX
  8
PLAN_1
 62
     2
  6
CONTINUOUS
 10
-1.818323
 20
3.260780
  0
VERTEX
  8
PLAN_1
 62
     2
  6
CONTINUOUS
 10
-1.817492
 20
3.265362
  0
VERTEX
  8
PLAN_1
 62
     2
  6
CONTINUOUS
 10
-1.815827
 20
3.269528
  0
VERTEX
  8
PLAN_1
 62
     2
  6
CONTINUOUS
 10
-1.813744
 20
3.273276
  0
VERTEX
  8
PLAN_1
 62
     2
  6
CONTINUOUS
 10
-1.811244
 20
3.276606
  0
VERTEX
  8
PLAN_1
 62
     2
  6
CONTINUOUS
 10
-1.808331
 20
3.279524
  0
VERTEX
  8
PLAN_1
 62
     2
  6
CONTINUOUS
 10
-1.805413
 20
3.282024
  0
VERTEX
  8
PLAN_1
 62
     2
  6
CONTINUOUS
 10
-1.801665
 20
3.284520
  0
VERTEX
  8
PLAN_1
 62
     2
  6
CONTINUOUS
 10
-1.792087
 20
3.289937
  0
VERTEX
  8
PLAN_1
 62
     2
  6
CONTINUOUS
 10
-1.789169
 20
3.291602
  0
VERTEX
  8
PLAN_1
 62
     2
  6
CONTINUOUS
 10
-1.786673
 20
3.293268
  0
VERTEX
  8
PLAN_1
 62
     2
  6
CONTINUOUS
 10
-1.784173
 20
3.294933
  0
VERTEX
  8
PLAN_1
 62
     2
  6
CONTINUOUS
 10
-1.782508
 20
3.296598
  0
VERTEX
  8
PLAN_1
 62
     2
  6
CONTINUOUS
 10
-1.780843
 20
3.298681
  0
VERTEX
  8
PLAN_1
 62
     2
  6
CONTINUOUS
 10
-1.779591
 20
3.300764
  0
VERTEX
  8
PLAN_1
 62
     2
  6
CONTINUOUS
 10
-1.778760
 20
3.303681
  0
VERTEX
  8
PLAN_1
 62
     2
  6
CONTINUOUS
 10
-1.778760
 20
3.307012
  0
VERTEX
  8
PLAN_1
 62
     2
  6
CONTINUOUS
 10
-1.778760
 20
3.309094
  0
VERTEX
  8
PLAN_1
 62
     2
  6
CONTINUOUS
 10
-1.779173
 20
3.311591
  0
VERTEX
  8
PLAN_1
 62
     2
  6
CONTINUOUS
 10
-1.780425
 20
3.313673
  0
VERTEX
  8
PLAN_1
 62
     2
  6
CONTINUOUS
 10
-1.781673
 20
3.315756
  0
VERTEX
  8
PLAN_1
 62
     2
  6
CONTINUOUS
 10
-1.783756
 20
3.317421
  0
VERTEX
  8
PLAN_1
 62
     2
  6
CONTINUOUS
 10
-1.786256
 20
3.319091
  0
VERTEX
  8
PLAN_1
 62
     2
  6
CONTINUOUS
 10
-1.789169
 20
3.319921
  0
VERTEX
  8
PLAN_1
 62
     2
  6
CONTINUOUS
 10
-1.792917
 20
3.320339
  0
VERTEX
  8
PLAN_1
 62
     2
  6
CONTINUOUS
 10
-1.795417
 20
3.319921
  0
VERTEX
  8
PLAN_1
 62
     2
  6
CONTINUOUS
 10
-1.797500
 20
3.319504
  0
VERTEX
  8
PLAN_1
 62
     2
  6
CONTINUOUS
 10
-1.799583
 20
3.319091
  0
VERTEX
  8
PLAN_1
 62
     2
  6
CONTINUOUS
 10
-1.801248
 20
3.318256
  0
VERTEX
  8
PLAN_1
 62
     2
  6
CONTINUOUS
 10
-1.802500
 20
3.317008
  0
VERTEX
  8
PLAN_1
 62
     2
  6
CONTINUOUS
 10
-1.803748
 20
3.315756
  0
VERTEX
  8
PLAN_1
 62
     2
  6
CONTINUOUS
 10
-1.804579
 20
3.314508
  0
VERTEX
  8
PLAN_1
 62
     2
  6
CONTINUOUS
 10
-1.805413
 20
3.313260
  0
VERTEX
  8
PLAN_1
 62
     2
  6
CONTINUOUS
 10
-1.806661
 20
3.310343
  0
VERTEX
  8
PLAN_1
 62
     2
  6
CONTINUOUS
 10
-1.807496
 20
3.307012
  0
VERTEX
  8
PLAN_1
 62
     2
  6
CONTINUOUS
 10
-1.807496
 20
3.304512
  0
VERTEX
  8
PLAN_1
 62
     2
  6
CONTINUOUS
 10
-1.807913
 20
3.302429
  0
VERTEX
  8
PLAN_1
 62
     2
  6
CONTINUOUS
 10
-1.817075
 20
3.302429
  0
SEQEND
  8
0
  0
ENDSEC
  0
EOF
