  0
SECTION
  2
HEADER
  9
$ACADVER
  1
AC1006
  9
$EXTMIN
 10
-2.003319
 20
-3.491299
  9
$EXTMAX
 10
2.004000
 20
3.489000
  9
$LTSCALE
 40
0.000394
  9
$PDMODE
 70
    35
  9
$PDSIZE
 40
0.000315
  0
ENDSEC
  0
SECTION
  2
TABLES
  0
TABLE
  2
LTYPE
 70
     9
  0
LTYPE
  2
CONTINUOUS
 70
    64
  3
Solid line
 72
    65
 73
     0
 40
0.000000
  0
LTYPE
  2
DASHED
 70
    64
  3
__ __ __ __ __ __ __ __ __ __ __ __ __ __ __
 72
    65
 73
     2
 40
0.000003
 49
0.000002
 49
-0.000001
  0
LTYPE
  2
HIDDEN
 70
    64
  3
 _ _ _ _ _ _ _ _ _ _ _ _ _ _ _ _ _ _ _ _ _ _
 72
    65
 73
     2
 40
0.000001
 49
0.000001
 49
-0.000000
  0
LTYPE
  2
CENTER
 70
    64
  3
____ _ ____ _ ____ _ ____ _ ____ _ ____ _ ____
 72
    65
 73
     4
 40
0.000008
 49
0.000005
 49
-0.000001
 49
0.000001
 49
-0.000001
  0
LTYPE
  2
PHANTOM
 70
    64
  3
_____ _ _ _____ _ _ _____ _ _ _____ _ _ ____
 72
    65
 73
     6
 40
0.000010
 49
0.000005
 49
-0.000001
 49
0.000001
 49
-0.000001
 49
0.000001
 49
-0.000001
  0
LTYPE
  2
DOT
 70
    64
  3
...............................................
 72
    65
 73
     2
 40
0.000001
 49
0.000000
 49
-0.000001
  0
LTYPE
  2
DASHDOT
 70
    64
  3
__ . __ . __ . __ . __ . __ . __ . __ . __ . __
 72
    65
 73
     4
 40
0.000004
 49
0.000002
 49
-0.000001
 49
0.000000
 49
-0.000001
  0
LTYPE
  2
BORDER
 70
    64
  3
__ __ . __ __ . __ __ . __ __ . __ __ . __ __
 72
    65
 73
     6
 40
0.000007
 49
0.000002
 49
-0.000001
 49
0.000002
 49
-0.000001
 49
0.000000
 49
-0.000001
  0
LTYPE
  2
DIVIDE
 70
    64
  3
__ . . __ . . __ . . __ . . __ . . __ . . __
 72
    65
 73
     6
 40
0.000005
 49
0.000002
 49
-0.000001
 49
0.000000
 49
-0.000001
 49
0.000000
 49
-0.000001
  0
LTYPE
  2
DOTDOT
 70
    64
  3
 . .  . .  . .  . .  . .  . . 
 72
    65
 73
     5
 40
0.000002
 49
-0.000001
 49
0.000000
 49
-0.000001
 49
0.000000
 49
-0.000001
  0
ENDTAB
  0
TABLE
  2
STYLE
 70
     0
  0
ENDTAB
  0
TABLE
  2
LAYER
 70
     3
  0
LAYER
  2
FOREGROUND
 70
    64
 62
     7
  6
CONTINUOUS
  0
LAYER
  2
BACKGROUND
 70
    65
 62
    -7
  6
CONTINUOUS
  0
LAYER
  2
PLAN_1
 70
    64
 62
     7
  6
CONTINUOUS
  0
ENDTAB
  0
ENDSEC
  0
SECTION
  2
ENTITIES
  0
POLYLINE
  8
PLAN_1
  6
CONTINUOUS
 66
     1
 40
0.003000
 41
0.003000
  0
VERTEX
  8
PLAN_1
  6
CONTINUOUS
 10
0.143315
 20
-3.456398
  0
VERTEX
  8
PLAN_1
  6
CONTINUOUS
 10
-0.013307
 20
-3.456398
  0
VERTEX
  8
PLAN_1
  6
CONTINUOUS
 10
-0.013307
 20
-3.434146
  0
VERTEX
  8
PLAN_1
  6
CONTINUOUS
 10
0.108850
 20
-3.281016
  0
VERTEX
  8
PLAN_1
  6
CONTINUOUS
 10
-0.004146
 20
-3.281016
  0
VERTEX
  8
PLAN_1
  6
CONTINUOUS
 10
-0.004146
 20
-3.257457
  0
VERTEX
  8
PLAN_1
  6
CONTINUOUS
 10
0.143315
 20
-3.257457
  0
VERTEX
  8
PLAN_1
  6
CONTINUOUS
 10
0.143315
 20
-3.280579
  0
VERTEX
  8
PLAN_1
  6
CONTINUOUS
 10
0.020724
 20
-3.432839
  0
VERTEX
  8
PLAN_1
  6
CONTINUOUS
 10
0.143315
 20
-3.432839
  0
VERTEX
  8
PLAN_1
  6
CONTINUOUS
 10
0.143315
 20
-3.456398
  0
SEQEND
  8
0
  0
POLYLINE
  8
PLAN_1
  6
CONTINUOUS
 66
     1
 40
0.003000
 41
0.003000
  0
VERTEX
  8
PLAN_1
  6
CONTINUOUS
 10
0.310843
 20
-3.317228
  0
VERTEX
  8
PLAN_1
  6
CONTINUOUS
 10
0.309094
 20
-3.311118
  0
VERTEX
  8
PLAN_1
  6
CONTINUOUS
 10
0.306913
 20
-3.305449
  0
VERTEX
  8
PLAN_1
  6
CONTINUOUS
 10
0.304732
 20
-3.300650
  0
VERTEX
  8
PLAN_1
  6
CONTINUOUS
 10
0.301681
 20
-3.296287
  0
VERTEX
  8
PLAN_1
  6
CONTINUOUS
 10
0.298626
 20
-3.292358
  0
VERTEX
  8
PLAN_1
  6
CONTINUOUS
 10
0.295134
 20
-3.288870
  0
VERTEX
  8
PLAN_1
  6
CONTINUOUS
 10
0.291209
 20
-3.285815
  0
VERTEX
  8
PLAN_1
  6
CONTINUOUS
 10
0.287283
 20
-3.283634
  0
VERTEX
  8
PLAN_1
  6
CONTINUOUS
 10
0.283358
 20
-3.281453
  0
VERTEX
  8
PLAN_1
  6
CONTINUOUS
 10
0.278992
 20
-3.279709
  0
VERTEX
  8
PLAN_1
  6
CONTINUOUS
 10
0.275067
 20
-3.278398
  0
VERTEX
  8
PLAN_1
  6
CONTINUOUS
 10
0.270705
 20
-3.277528
  0
VERTEX
  8
PLAN_1
  6
CONTINUOUS
 10
0.262850
 20
-3.276217
  0
VERTEX
  8
PLAN_1
  6
CONTINUOUS
 10
0.255000
 20
-3.275783
  0
VERTEX
  8
PLAN_1
  6
CONTINUOUS
 10
0.248457
 20
-3.276217
  0
VERTEX
  8
PLAN_1
  6
CONTINUOUS
 10
0.241909
 20
-3.277091
  0
VERTEX
  8
PLAN_1
  6
CONTINUOUS
 10
0.235803
 20
-3.278835
  0
VERTEX
  8
PLAN_1
  6
CONTINUOUS
 10
0.229697
 20
-3.281016
  0
VERTEX
  8
PLAN_1
  6
CONTINUOUS
 10
0.224024
 20
-3.283634
  0
VERTEX
  8
PLAN_1
  6
CONTINUOUS
 10
0.218787
 20
-3.287126
  0
VERTEX
  8
PLAN_1
  6
CONTINUOUS
 10
0.213555
 20
-3.291051
  0
VERTEX
  8
PLAN_1
  6
CONTINUOUS
 10
0.208756
 20
-3.295850
  0
VERTEX
  8
PLAN_1
  6
CONTINUOUS
 10
0.204827
 20
-3.301087
  0
VERTEX
  8
PLAN_1
  6
CONTINUOUS
 10
0.200902
 20
-3.306756
  0
VERTEX
  8
PLAN_1
  6
CONTINUOUS
 10
0.197846
 20
-3.313299
  0
VERTEX
  8
PLAN_1
  6
CONTINUOUS
 10
0.194795
 20
-3.320717
  0
VERTEX
  8
PLAN_1
  6
CONTINUOUS
 10
0.192614
 20
-3.328134
  0
VERTEX
  8
PLAN_1
  6
CONTINUOUS
 10
0.191303
 20
-3.336421
  0
VERTEX
  8
PLAN_1
  6
CONTINUOUS
 10
0.190433
 20
-3.345583
  0
VERTEX
  8
PLAN_1
  6
CONTINUOUS
 10
0.189996
 20
-3.355181
  0
VERTEX
  8
PLAN_1
  6
CONTINUOUS
 10
0.189996
 20
-3.363909
  0
VERTEX
  8
PLAN_1
  6
CONTINUOUS
 10
0.190866
 20
-3.372197
  0
VERTEX
  8
PLAN_1
  6
CONTINUOUS
 10
0.191740
 20
-3.380051
  0
VERTEX
  8
PLAN_1
  6
CONTINUOUS
 10
0.193047
 20
-3.387902
  0
VERTEX
  8
PLAN_1
  6
CONTINUOUS
 10
0.195228
 20
-3.394882
  0
VERTEX
  8
PLAN_1
  6
CONTINUOUS
 10
0.197846
 20
-3.401862
  0
VERTEX
  8
PLAN_1
  6
CONTINUOUS
 10
0.200902
 20
-3.408406
  0
VERTEX
  8
PLAN_1
  6
CONTINUOUS
 10
0.204394
 20
-3.414079
  0
VERTEX
  8
PLAN_1
  6
CONTINUOUS
 10
0.208756
 20
-3.419315
  0
VERTEX
  8
PLAN_1
  6
CONTINUOUS
 10
0.213118
 20
-3.424114
  0
VERTEX
  8
PLAN_1
  6
CONTINUOUS
 10
0.215736
 20
-3.426295
  0
VERTEX
  8
PLAN_1
  6
CONTINUOUS
 10
0.218787
 20
-3.428039
  0
VERTEX
  8
PLAN_1
  6
CONTINUOUS
 10
0.221843
 20
-3.430220
  0
VERTEX
  8
PLAN_1
  6
CONTINUOUS
 10
0.224898
 20
-3.431528
  0
VERTEX
  8
PLAN_1
  6
CONTINUOUS
 10
0.227949
 20
-3.433276
  0
VERTEX
  8
PLAN_1
  6
CONTINUOUS
 10
0.231441
 20
-3.434583
  0
VERTEX
  8
PLAN_1
  6
CONTINUOUS
 10
0.234929
 20
-3.435457
  0
VERTEX
  8
PLAN_1
  6
CONTINUOUS
 10
0.238858
 20
-3.436327
  0
VERTEX
  8
PLAN_1
  6
CONTINUOUS
 10
0.242783
 20
-3.437201
  0
VERTEX
  8
PLAN_1
  6
CONTINUOUS
 10
0.247146
 20
-3.437638
  0
VERTEX
  8
PLAN_1
  6
CONTINUOUS
 10
0.251508
 20
-3.438075
  0
VERTEX
  8
PLAN_1
  6
CONTINUOUS
 10
0.255870
 20
-3.438075
  0
VERTEX
  8
PLAN_1
  6
CONTINUOUS
 10
0.259362
 20
-3.438075
  0
VERTEX
  8
PLAN_1
  6
CONTINUOUS
 10
0.262850
 20
-3.437638
  0
VERTEX
  8
PLAN_1
  6
CONTINUOUS
 10
0.266780
 20
-3.436764
  0
VERTEX
  8
PLAN_1
  6
CONTINUOUS
 10
0.270705
 20
-3.435894
  0
VERTEX
  8
PLAN_1
  6
CONTINUOUS
 10
0.275067
 20
-3.434583
  0
VERTEX
  8
PLAN_1
  6
CONTINUOUS
 10
0.278992
 20
-3.432839
  0
VERTEX
  8
PLAN_1
  6
CONTINUOUS
 10
0.283358
 20
-3.430657
  0
VERTEX
  8
PLAN_1
  6
CONTINUOUS
 10
0.287720
 20
-3.428039
  0
VERTEX
  8
PLAN_1
  6
CONTINUOUS
 10
0.291646
 20
-3.424984
  0
VERTEX
  8
PLAN_1
  6
CONTINUOUS
 10
0.295571
 20
-3.421059
  0
VERTEX
  8
PLAN_1
  6
CONTINUOUS
 10
0.299063
 20
-3.416697
  0
VERTEX
  8
PLAN_1
  6
CONTINUOUS
 10
0.302551
 20
-3.411461
  0
VERTEX
  8
PLAN_1
  6
CONTINUOUS
 10
0.305606
 20
-3.405791
  0
VERTEX
  8
PLAN_1
  6
CONTINUOUS
 10
0.308661
 20
-3.398811
  0
VERTEX
  8
PLAN_1
  6
CONTINUOUS
 10
0.310843
 20
-3.391394
  0
VERTEX
  8
PLAN_1
  6
CONTINUOUS
 10
0.313024
 20
-3.383539
  0
VERTEX
  8
PLAN_1
  6
CONTINUOUS
 10
0.338764
 20
-3.383539
  0
VERTEX
  8
PLAN_1
  6
CONTINUOUS
 10
0.337890
 20
-3.390083
  0
VERTEX
  8
PLAN_1
  6
CONTINUOUS
 10
0.336146
 20
-3.396626
  0
VERTEX
  8
PLAN_1
  6
CONTINUOUS
 10
0.334402
 20
-3.402736
  0
VERTEX
  8
PLAN_1
  6
CONTINUOUS
 10
0.332654
 20
-3.408406
  0
VERTEX
  8
PLAN_1
  6
CONTINUOUS
 10
0.330472
 20
-3.413642
  0
VERTEX
  8
PLAN_1
  6
CONTINUOUS
 10
0.327854
 20
-3.418441
  0
VERTEX
  8
PLAN_1
  6
CONTINUOUS
 10
0.325673
 20
-3.423240
  0
VERTEX
  8
PLAN_1
  6
CONTINUOUS
 10
0.322622
 20
-3.427165
  0
VERTEX
  8
PLAN_1
  6
CONTINUOUS
 10
0.320004
 20
-3.431094
  0
VERTEX
  8
PLAN_1
  6
CONTINUOUS
 10
0.316949
 20
-3.435020
  0
VERTEX
  8
PLAN_1
  6
CONTINUOUS
 10
0.313461
 20
-3.438075
  0
VERTEX
  8
PLAN_1
  6
CONTINUOUS
 10
0.310406
 20
-3.441126
  0
VERTEX
  8
PLAN_1
  6
CONTINUOUS
 10
0.306913
 20
-3.444181
  0
VERTEX
  8
PLAN_1
  6
CONTINUOUS
 10
0.303862
 20
-3.446362
  0
VERTEX
  8
PLAN_1
  6
CONTINUOUS
 10
0.300370
 20
-3.448980
  0
VERTEX
  8
PLAN_1
  6
CONTINUOUS
 10
0.296882
 20
-3.450724
  0
VERTEX
  8
PLAN_1
  6
CONTINUOUS
 10
0.289902
 20
-3.454217
  0
VERTEX
  8
PLAN_1
  6
CONTINUOUS
 10
0.282921
 20
-3.456835
  0
VERTEX
  8
PLAN_1
  6
CONTINUOUS
 10
0.276378
 20
-3.459016
  0
VERTEX
  8
PLAN_1
  6
CONTINUOUS
 10
0.270268
 20
-3.460323
  0
VERTEX
  8
PLAN_1
  6
CONTINUOUS
 10
0.259362
 20
-3.461634
  0
VERTEX
  8
PLAN_1
  6
CONTINUOUS
 10
0.251945
 20
-3.462067
  0
VERTEX
  8
PLAN_1
  6
CONTINUOUS
 10
0.243220
 20
-3.461634
  0
VERTEX
  8
PLAN_1
  6
CONTINUOUS
 10
0.234929
 20
-3.460323
  0
VERTEX
  8
PLAN_1
  6
CONTINUOUS
 10
0.226642
 20
-3.458579
  0
VERTEX
  8
PLAN_1
  6
CONTINUOUS
 10
0.218787
 20
-3.455961
  0
VERTEX
  8
PLAN_1
  6
CONTINUOUS
 10
0.214862
 20
-3.454654
  0
VERTEX
  8
PLAN_1
  6
CONTINUOUS
 10
0.210937
 20
-3.452906
  0
VERTEX
  8
PLAN_1
  6
CONTINUOUS
 10
0.207008
 20
-3.450724
  0
VERTEX
  8
PLAN_1
  6
CONTINUOUS
 10
0.203520
 20
-3.448543
  0
VERTEX
  8
PLAN_1
  6
CONTINUOUS
 10
0.200028
 20
-3.445925
  0
VERTEX
  8
PLAN_1
  6
CONTINUOUS
 10
0.196539
 20
-3.443307
  0
VERTEX
  8
PLAN_1
  6
CONTINUOUS
 10
0.193047
 20
-3.440693
  0
VERTEX
  8
PLAN_1
  6
CONTINUOUS
 10
0.189996
 20
-3.437638
  0
VERTEX
  8
PLAN_1
  6
CONTINUOUS
 10
0.186941
 20
-3.434146
  0
VERTEX
  8
PLAN_1
  6
CONTINUOUS
 10
0.183886
 20
-3.430657
  0
VERTEX
  8
PLAN_1
  6
CONTINUOUS
 10
0.181268
 20
-3.427165
  0
VERTEX
  8
PLAN_1
  6
CONTINUOUS
 10
0.178654
 20
-3.423240
  0
VERTEX
  8
PLAN_1
  6
CONTINUOUS
 10
0.176035
 20
-3.418878
  0
VERTEX
  8
PLAN_1
  6
CONTINUOUS
 10
0.173854
 20
-3.414516
  0
VERTEX
  8
PLAN_1
  6
CONTINUOUS
 10
0.171673
 20
-3.409717
  0
VERTEX
  8
PLAN_1
  6
CONTINUOUS
 10
0.169925
 20
-3.404917
  0
VERTEX
  8
PLAN_1
  6
CONTINUOUS
 10
0.168181
 20
-3.399681
  0
VERTEX
  8
PLAN_1
  6
CONTINUOUS
 10
0.166437
 20
-3.394012
  0
VERTEX
  8
PLAN_1
  6
CONTINUOUS
 10
0.165126
 20
-3.388339
  0
VERTEX
  8
PLAN_1
  6
CONTINUOUS
 10
0.164256
 20
-3.382232
  0
VERTEX
  8
PLAN_1
  6
CONTINUOUS
 10
0.163382
 20
-3.376122
  0
VERTEX
  8
PLAN_1
  6
CONTINUOUS
 10
0.162512
 20
-3.369579
  0
VERTEX
  8
PLAN_1
  6
CONTINUOUS
 10
0.162075
 20
-3.363035
  0
VERTEX
  8
PLAN_1
  6
CONTINUOUS
 10
0.162075
 20
-3.356055
  0
VERTEX
  8
PLAN_1
  6
CONTINUOUS
 10
0.162512
 20
-3.344713
  0
VERTEX
  8
PLAN_1
  6
CONTINUOUS
 10
0.163819
 20
-3.333807
  0
VERTEX
  8
PLAN_1
  6
CONTINUOUS
 10
0.164693
 20
-3.328571
  0
VERTEX
  8
PLAN_1
  6
CONTINUOUS
 10
0.165563
 20
-3.323335
  0
VERTEX
  8
PLAN_1
  6
CONTINUOUS
 10
0.166874
 20
-3.318535
  0
VERTEX
  8
PLAN_1
  6
CONTINUOUS
 10
0.168618
 20
-3.313736
  0
VERTEX
  8
PLAN_1
  6
CONTINUOUS
 10
0.170362
 20
-3.308937
  0
VERTEX
  8
PLAN_1
  6
CONTINUOUS
 10
0.172106
 20
-3.304575
  0
VERTEX
  8
PLAN_1
  6
CONTINUOUS
 10
0.173854
 20
-3.300213
  0
VERTEX
  8
PLAN_1
  6
CONTINUOUS
 10
0.176472
 20
-3.296287
  0
VERTEX
  8
PLAN_1
  6
CONTINUOUS
 10
0.178654
 20
-3.291925
  0
VERTEX
  8
PLAN_1
  6
CONTINUOUS
 10
0.181268
 20
-3.287996
  0
VERTEX
  8
PLAN_1
  6
CONTINUOUS
 10
0.183886
 20
-3.284508
  0
VERTEX
  8
PLAN_1
  6
CONTINUOUS
 10
0.186941
 20
-3.281016
  0
VERTEX
  8
PLAN_1
  6
CONTINUOUS
 10
0.189996
 20
-3.277528
  0
VERTEX
  8
PLAN_1
  6
CONTINUOUS
 10
0.193047
 20
-3.274472
  0
VERTEX
  8
PLAN_1
  6
CONTINUOUS
 10
0.196539
 20
-3.271417
  0
VERTEX
  8
PLAN_1
  6
CONTINUOUS
 10
0.200028
 20
-3.268803
  0
VERTEX
  8
PLAN_1
  6
CONTINUOUS
 10
0.203957
 20
-3.266185
  0
VERTEX
  8
PLAN_1
  6
CONTINUOUS
 10
0.207882
 20
-3.264004
  0
VERTEX
  8
PLAN_1
  6
CONTINUOUS
 10
0.211807
 20
-3.261823
  0
VERTEX
  8
PLAN_1
  6
CONTINUOUS
 10
0.216169
 20
-3.259638
  0
VERTEX
  8
PLAN_1
  6
CONTINUOUS
 10
0.220535
 20
-3.257894
  0
VERTEX
  8
PLAN_1
  6
CONTINUOUS
 10
0.224898
 20
-3.256587
  0
VERTEX
  8
PLAN_1
  6
CONTINUOUS
 10
0.229697
 20
-3.255276
  0
VERTEX
  8
PLAN_1
  6
CONTINUOUS
 10
0.234496
 20
-3.253969
  0
VERTEX
  8
PLAN_1
  6
CONTINUOUS
 10
0.239295
 20
-3.253094
  0
VERTEX
  8
PLAN_1
  6
CONTINUOUS
 10
0.244528
 20
-3.252657
  0
VERTEX
  8
PLAN_1
  6
CONTINUOUS
 10
0.249764
 20
-3.252224
  0
VERTEX
  8
PLAN_1
  6
CONTINUOUS
 10
0.255000
 20
-3.252224
  0
VERTEX
  8
PLAN_1
  6
CONTINUOUS
 10
0.264598
 20
-3.252657
  0
VERTEX
  8
PLAN_1
  6
CONTINUOUS
 10
0.273323
 20
-3.253531
  0
VERTEX
  8
PLAN_1
  6
CONTINUOUS
 10
0.281173
 20
-3.255276
  0
VERTEX
  8
PLAN_1
  6
CONTINUOUS
 10
0.289028
 20
-3.257457
  0
VERTEX
  8
PLAN_1
  6
CONTINUOUS
 10
0.296008
 20
-3.260512
  0
VERTEX
  8
PLAN_1
  6
CONTINUOUS
 10
0.302551
 20
-3.264004
  0
VERTEX
  8
PLAN_1
  6
CONTINUOUS
 10
0.308661
 20
-3.267929
  0
VERTEX
  8
PLAN_1
  6
CONTINUOUS
 10
0.313894
 20
-3.272291
  0
VERTEX
  8
PLAN_1
  6
CONTINUOUS
 10
0.318693
 20
-3.277091
  0
VERTEX
  8
PLAN_1
  6
CONTINUOUS
 10
0.323055
 20
-3.281890
  0
VERTEX
  8
PLAN_1
  6
CONTINUOUS
 10
0.326547
 20
-3.287559
  0
VERTEX
  8
PLAN_1
  6
CONTINUOUS
 10
0.329602
 20
-3.293232
  0
VERTEX
  8
PLAN_1
  6
CONTINUOUS
 10
0.332220
 20
-3.298906
  0
VERTEX
  8
PLAN_1
  6
CONTINUOUS
 10
0.334402
 20
-3.305012
  0
VERTEX
  8
PLAN_1
  6
CONTINUOUS
 10
0.336146
 20
-3.311118
  0
VERTEX
  8
PLAN_1
  6
CONTINUOUS
 10
0.337016
 20
-3.317228
  0
VERTEX
  8
PLAN_1
  6
CONTINUOUS
 10
0.310843
 20
-3.317228
  0
SEQEND
  8
0
  0
POLYLINE
  8
PLAN_1
  6
CONTINUOUS
 66
     1
 40
0.003000
 41
0.003000
  0
VERTEX
  8
PLAN_1
  6
CONTINUOUS
 10
0.398531
 20
-3.456398
  0
VERTEX
  8
PLAN_1
  6
CONTINUOUS
 10
0.371484
 20
-3.456398
  0
VERTEX
  8
PLAN_1
  6
CONTINUOUS
 10
0.371484
 20
-3.257457
  0
VERTEX
  8
PLAN_1
  6
CONTINUOUS
 10
0.398531
 20
-3.257457
  0
VERTEX
  8
PLAN_1
  6
CONTINUOUS
 10
0.398531
 20
-3.353874
  0
VERTEX
  8
PLAN_1
  6
CONTINUOUS
 10
0.494945
 20
-3.257457
  0
VERTEX
  8
PLAN_1
  6
CONTINUOUS
 10
0.532031
 20
-3.257457
  0
VERTEX
  8
PLAN_1
  6
CONTINUOUS
 10
0.449138
 20
-3.337732
  0
VERTEX
  8
PLAN_1
  6
CONTINUOUS
 10
0.534213
 20
-3.456398
  0
VERTEX
  8
PLAN_1
  6
CONTINUOUS
 10
0.499311
 20
-3.456398
  0
VERTEX
  8
PLAN_1
  6
CONTINUOUS
 10
0.429941
 20
-3.356492
  0
VERTEX
  8
PLAN_1
  6
CONTINUOUS
 10
0.398531
 20
-3.386594
  0
VERTEX
  8
PLAN_1
  6
CONTINUOUS
 10
0.398531
 20
-3.456398
  0
SEQEND
  8
0
  0
POLYLINE
  8
PLAN_1
  6
CONTINUOUS
 66
     1
 40
0.003000
 41
0.003000
  0
VERTEX
  8
PLAN_1
  6
CONTINUOUS
 10
0.706535
 20
-3.456398
  0
VERTEX
  8
PLAN_1
  6
CONTINUOUS
 10
0.559516
 20
-3.456398
  0
VERTEX
  8
PLAN_1
  6
CONTINUOUS
 10
0.559516
 20
-3.257457
  0
VERTEX
  8
PLAN_1
  6
CONTINUOUS
 10
0.704791
 20
-3.257457
  0
VERTEX
  8
PLAN_1
  6
CONTINUOUS
 10
0.704791
 20
-3.281016
  0
VERTEX
  8
PLAN_1
  6
CONTINUOUS
 10
0.586563
 20
-3.281016
  0
VERTEX
  8
PLAN_1
  6
CONTINUOUS
 10
0.586563
 20
-3.342094
  0
VERTEX
  8
PLAN_1
  6
CONTINUOUS
 10
0.695630
 20
-3.342094
  0
VERTEX
  8
PLAN_1
  6
CONTINUOUS
 10
0.695630
 20
-3.366091
  0
VERTEX
  8
PLAN_1
  6
CONTINUOUS
 10
0.586563
 20
-3.366091
  0
VERTEX
  8
PLAN_1
  6
CONTINUOUS
 10
0.586563
 20
-3.432839
  0
VERTEX
  8
PLAN_1
  6
CONTINUOUS
 10
0.706535
 20
-3.432839
  0
VERTEX
  8
PLAN_1
  6
CONTINUOUS
 10
0.706535
 20
-3.456398
  0
SEQEND
  8
0
  0
POLYLINE
  8
PLAN_1
  6
CONTINUOUS
 66
     1
 40
0.003000
 41
0.003000
  0
VERTEX
  8
PLAN_1
  6
CONTINUOUS
 10
0.798154
 20
-3.462067
  0
VERTEX
  8
PLAN_1
  6
CONTINUOUS
 10
0.792917
 20
-3.461634
  0
VERTEX
  8
PLAN_1
  6
CONTINUOUS
 10
0.788118
 20
-3.461197
  0
VERTEX
  8
PLAN_1
  6
CONTINUOUS
 10
0.783319
 20
-3.460323
  0
VERTEX
  8
PLAN_1
  6
CONTINUOUS
 10
0.778957
 20
-3.459449
  0
VERTEX
  8
PLAN_1
  6
CONTINUOUS
 10
0.775031
 20
-3.457705
  0
VERTEX
  8
PLAN_1
  6
CONTINUOUS
 10
0.771106
 20
-3.455961
  0
VERTEX
  8
PLAN_1
  6
CONTINUOUS
 10
0.767177
 20
-3.454217
  0
VERTEX
  8
PLAN_1
  6
CONTINUOUS
 10
0.763689
 20
-3.452035
  0
VERTEX
  8
PLAN_1
  6
CONTINUOUS
 10
0.760634
 20
-3.449417
  0
VERTEX
  8
PLAN_1
  6
CONTINUOUS
 10
0.757579
 20
-3.446799
  0
VERTEX
  8
PLAN_1
  6
CONTINUOUS
 10
0.754965
 20
-3.443744
  0
VERTEX
  8
PLAN_1
  6
CONTINUOUS
 10
0.752346
 20
-3.440693
  0
VERTEX
  8
PLAN_1
  6
CONTINUOUS
 10
0.749728
 20
-3.437638
  0
VERTEX
  8
PLAN_1
  6
CONTINUOUS
 10
0.747547
 20
-3.434146
  0
VERTEX
  8
PLAN_1
  6
CONTINUOUS
 10
0.745366
 20
-3.430657
  0
VERTEX
  8
PLAN_1
  6
CONTINUOUS
 10
0.743618
 20
-3.427165
  0
VERTEX
  8
PLAN_1
  6
CONTINUOUS
 10
0.740130
 20
-3.419315
  0
VERTEX
  8
PLAN_1
  6
CONTINUOUS
 10
0.737512
 20
-3.411024
  0
VERTEX
  8
PLAN_1
  6
CONTINUOUS
 10
0.735331
 20
-3.402736
  0
VERTEX
  8
PLAN_1
  6
CONTINUOUS
 10
0.733587
 20
-3.394445
  0
VERTEX
  8
PLAN_1
  6
CONTINUOUS
 10
0.732276
 20
-3.386157
  0
VERTEX
  8
PLAN_1
  6
CONTINUOUS
 10
0.731843
 20
-3.377433
  0
VERTEX
  8
PLAN_1
  6
CONTINUOUS
 10
0.731406
 20
-3.369579
  0
VERTEX
  8
PLAN_1
  6
CONTINUOUS
 10
0.730969
 20
-3.361728
  0
VERTEX
  8
PLAN_1
  6
CONTINUOUS
 10
0.731406
 20
-3.353874
  0
VERTEX
  8
PLAN_1
  6
CONTINUOUS
 10
0.731843
 20
-3.345583
  0
VERTEX
  8
PLAN_1
  6
CONTINUOUS
 10
0.732276
 20
-3.337295
  0
VERTEX
  8
PLAN_1
  6
CONTINUOUS
 10
0.733587
 20
-3.329008
  0
VERTEX
  8
PLAN_1
  6
CONTINUOUS
 10
0.735331
 20
-3.320717
  0
VERTEX
  8
PLAN_1
  6
CONTINUOUS
 10
0.737512
 20
-3.311992
  0
VERTEX
  8
PLAN_1
  6
CONTINUOUS
 10
0.740130
 20
-3.304138
  0
VERTEX
  8
PLAN_1
  6
CONTINUOUS
 10
0.743618
 20
-3.296287
  0
VERTEX
  8
PLAN_1
  6
CONTINUOUS
 10
0.745366
 20
-3.292795
  0
VERTEX
  8
PLAN_1
  6
CONTINUOUS
 10
0.747547
 20
-3.289307
  0
VERTEX
  8
PLAN_1
  6
CONTINUOUS
 10
0.749728
 20
-3.285815
  0
VERTEX
  8
PLAN_1
  6
CONTINUOUS
 10
0.752346
 20
-3.282327
  0
VERTEX
  8
PLAN_1
  6
CONTINUOUS
 10
0.754965
 20
-3.279272
  0
VERTEX
  8
PLAN_1
  6
CONTINUOUS
 10
0.757579
 20
-3.276654
  0
VERTEX
  8
PLAN_1
  6
CONTINUOUS
 10
0.760634
 20
-3.274035
  0
VERTEX
  8
PLAN_1
  6
CONTINUOUS
 10
0.763689
 20
-3.271417
  0
VERTEX
  8
PLAN_1
  6
CONTINUOUS
 10
0.767177
 20
-3.269236
  0
VERTEX
  8
PLAN_1
  6
CONTINUOUS
 10
0.771106
 20
-3.267492
  0
VERTEX
  8
PLAN_1
  6
CONTINUOUS
 10
0.775031
 20
-3.265748
  0
VERTEX
  8
PLAN_1
  6
CONTINUOUS
 10
0.778957
 20
-3.264004
  0
VERTEX
  8
PLAN_1
  6
CONTINUOUS
 10
0.783319
 20
-3.263130
  0
VERTEX
  8
PLAN_1
  6
CONTINUOUS
 10
0.788118
 20
-3.262256
  0
VERTEX
  8
PLAN_1
  6
CONTINUOUS
 10
0.792917
 20
-3.261823
  0
VERTEX
  8
PLAN_1
  6
CONTINUOUS
 10
0.798154
 20
-3.261386
  0
VERTEX
  8
PLAN_1
  6
CONTINUOUS
 10
0.802953
 20
-3.261823
  0
VERTEX
  8
PLAN_1
  6
CONTINUOUS
 10
0.807752
 20
-3.262256
  0
VERTEX
  8
PLAN_1
  6
CONTINUOUS
 10
0.812551
 20
-3.263130
  0
VERTEX
  8
PLAN_1
  6
CONTINUOUS
 10
0.816913
 20
-3.264004
  0
VERTEX
  8
PLAN_1
  6
CONTINUOUS
 10
0.820839
 20
-3.265748
  0
VERTEX
  8
PLAN_1
  6
CONTINUOUS
 10
0.824768
 20
-3.267492
  0
VERTEX
  8
PLAN_1
  6
CONTINUOUS
 10
0.828693
 20
-3.269236
  0
VERTEX
  8
PLAN_1
  6
CONTINUOUS
 10
0.832181
 20
-3.271417
  0
VERTEX
  8
PLAN_1
  6
CONTINUOUS
 10
0.835236
 20
-3.274035
  0
VERTEX
  8
PLAN_1
  6
CONTINUOUS
 10
0.838291
 20
-3.276654
  0
VERTEX
  8
PLAN_1
  6
CONTINUOUS
 10
0.840909
 20
-3.279272
  0
VERTEX
  8
PLAN_1
  6
CONTINUOUS
 10
0.843961
 20
-3.282327
  0
VERTEX
  8
PLAN_1
  6
CONTINUOUS
 10
0.846142
 20
-3.285815
  0
VERTEX
  8
PLAN_1
  6
CONTINUOUS
 10
0.848323
 20
-3.289307
  0
VERTEX
  8
PLAN_1
  6
CONTINUOUS
 10
0.850504
 20
-3.292795
  0
VERTEX
  8
PLAN_1
  6
CONTINUOUS
 10
0.852252
 20
-3.296287
  0
VERTEX
  8
PLAN_1
  6
CONTINUOUS
 10
0.855740
 20
-3.304138
  0
VERTEX
  8
PLAN_1
  6
CONTINUOUS
 10
0.858358
 20
-3.311992
  0
VERTEX
  8
PLAN_1
  6
CONTINUOUS
 10
0.860539
 20
-3.320717
  0
VERTEX
  8
PLAN_1
  6
CONTINUOUS
 10
0.862283
 20
-3.329008
  0
VERTEX
  8
PLAN_1
  6
CONTINUOUS
 10
0.863594
 20
-3.337295
  0
VERTEX
  8
PLAN_1
  6
CONTINUOUS
 10
0.864465
 20
-3.345583
  0
VERTEX
  8
PLAN_1
  6
CONTINUOUS
 10
0.864902
 20
-3.353874
  0
VERTEX
  8
PLAN_1
  6
CONTINUOUS
 10
0.864902
 20
-3.361728
  0
VERTEX
  8
PLAN_1
  6
CONTINUOUS
 10
0.864902
 20
-3.369579
  0
VERTEX
  8
PLAN_1
  6
CONTINUOUS
 10
0.864465
 20
-3.377433
  0
VERTEX
  8
PLAN_1
  6
CONTINUOUS
 10
0.863594
 20
-3.386157
  0
VERTEX
  8
PLAN_1
  6
CONTINUOUS
 10
0.862283
 20
-3.394445
  0
VERTEX
  8
PLAN_1
  6
CONTINUOUS
 10
0.860539
 20
-3.402736
  0
VERTEX
  8
PLAN_1
  6
CONTINUOUS
 10
0.858358
 20
-3.411024
  0
VERTEX
  8
PLAN_1
  6
CONTINUOUS
 10
0.855740
 20
-3.419315
  0
VERTEX
  8
PLAN_1
  6
CONTINUOUS
 10
0.852252
 20
-3.427165
  0
VERTEX
  8
PLAN_1
  6
CONTINUOUS
 10
0.850504
 20
-3.430657
  0
VERTEX
  8
PLAN_1
  6
CONTINUOUS
 10
0.848323
 20
-3.434146
  0
VERTEX
  8
PLAN_1
  6
CONTINUOUS
 10
0.846142
 20
-3.437638
  0
VERTEX
  8
PLAN_1
  6
CONTINUOUS
 10
0.843961
 20
-3.440693
  0
VERTEX
  8
PLAN_1
  6
CONTINUOUS
 10
0.840909
 20
-3.443744
  0
VERTEX
  8
PLAN_1
  6
CONTINUOUS
 10
0.838291
 20
-3.446799
  0
VERTEX
  8
PLAN_1
  6
CONTINUOUS
 10
0.835236
 20
-3.449417
  0
VERTEX
  8
PLAN_1
  6
CONTINUOUS
 10
0.832181
 20
-3.452035
  0
VERTEX
  8
PLAN_1
  6
CONTINUOUS
 10
0.828693
 20
-3.454217
  0
VERTEX
  8
PLAN_1
  6
CONTINUOUS
 10
0.824768
 20
-3.455961
  0
VERTEX
  8
PLAN_1
  6
CONTINUOUS
 10
0.820839
 20
-3.457705
  0
VERTEX
  8
PLAN_1
  6
CONTINUOUS
 10
0.816913
 20
-3.459449
  0
VERTEX
  8
PLAN_1
  6
CONTINUOUS
 10
0.812551
 20
-3.460323
  0
VERTEX
  8
PLAN_1
  6
CONTINUOUS
 10
0.807752
 20
-3.461197
  0
VERTEX
  8
PLAN_1
  6
CONTINUOUS
 10
0.802953
 20
-3.461634
  0
VERTEX
  8
PLAN_1
  6
CONTINUOUS
 10
0.798154
 20
-3.462067
  0
SEQEND
  8
0
  0
POLYLINE
  8
PLAN_1
  6
CONTINUOUS
 66
     1
 40
0.003000
 41
0.003000
  0
VERTEX
  8
PLAN_1
  6
CONTINUOUS
 10
0.798154
 20
-3.283634
  0
VERTEX
  8
PLAN_1
  6
CONTINUOUS
 10
0.792917
 20
-3.283634
  0
VERTEX
  8
PLAN_1
  6
CONTINUOUS
 10
0.788118
 20
-3.284945
  0
VERTEX
  8
PLAN_1
  6
CONTINUOUS
 10
0.783756
 20
-3.286689
  0
VERTEX
  8
PLAN_1
  6
CONTINUOUS
 10
0.779831
 20
-3.288870
  0
VERTEX
  8
PLAN_1
  6
CONTINUOUS
 10
0.775906
 20
-3.291925
  0
VERTEX
  8
PLAN_1
  6
CONTINUOUS
 10
0.772850
 20
-3.295413
  0
VERTEX
  8
PLAN_1
  6
CONTINUOUS
 10
0.769795
 20
-3.299339
  0
VERTEX
  8
PLAN_1
  6
CONTINUOUS
 10
0.767177
 20
-3.304138
  0
VERTEX
  8
PLAN_1
  6
CONTINUOUS
 10
0.764559
 20
-3.309374
  0
VERTEX
  8
PLAN_1
  6
CONTINUOUS
 10
0.762815
 20
-3.315480
  0
VERTEX
  8
PLAN_1
  6
CONTINUOUS
 10
0.761071
 20
-3.322028
  0
VERTEX
  8
PLAN_1
  6
CONTINUOUS
 10
0.759764
 20
-3.329008
  0
VERTEX
  8
PLAN_1
  6
CONTINUOUS
 10
0.758453
 20
-3.336421
  0
VERTEX
  8
PLAN_1
  6
CONTINUOUS
 10
0.757579
 20
-3.344276
  0
VERTEX
  8
PLAN_1
  6
CONTINUOUS
 10
0.757146
 20
-3.352563
  0
VERTEX
  8
PLAN_1
  6
CONTINUOUS
 10
0.757146
 20
-3.361728
  0
VERTEX
  8
PLAN_1
  6
CONTINUOUS
 10
0.757146
 20
-3.370453
  0
VERTEX
  8
PLAN_1
  6
CONTINUOUS
 10
0.757579
 20
-3.379177
  0
VERTEX
  8
PLAN_1
  6
CONTINUOUS
 10
0.758453
 20
-3.387031
  0
VERTEX
  8
PLAN_1
  6
CONTINUOUS
 10
0.759764
 20
-3.394445
  0
VERTEX
  8
PLAN_1
  6
CONTINUOUS
 10
0.761071
 20
-3.401425
  0
VERTEX
  8
PLAN_1
  6
CONTINUOUS
 10
0.762815
 20
-3.407972
  0
VERTEX
  8
PLAN_1
  6
CONTINUOUS
 10
0.764559
 20
-3.413642
  0
VERTEX
  8
PLAN_1
  6
CONTINUOUS
 10
0.767177
 20
-3.419315
  0
VERTEX
  8
PLAN_1
  6
CONTINUOUS
 10
0.769795
 20
-3.424114
  0
VERTEX
  8
PLAN_1
  6
CONTINUOUS
 10
0.772850
 20
-3.428039
  0
VERTEX
  8
PLAN_1
  6
CONTINUOUS
 10
0.775906
 20
-3.431528
  0
VERTEX
  8
PLAN_1
  6
CONTINUOUS
 10
0.779831
 20
-3.434583
  0
VERTEX
  8
PLAN_1
  6
CONTINUOUS
 10
0.783756
 20
-3.436764
  0
VERTEX
  8
PLAN_1
  6
CONTINUOUS
 10
0.788118
 20
-3.438508
  0
VERTEX
  8
PLAN_1
  6
CONTINUOUS
 10
0.792917
 20
-3.439819
  0
VERTEX
  8
PLAN_1
  6
CONTINUOUS
 10
0.798154
 20
-3.439819
  0
VERTEX
  8
PLAN_1
  6
CONTINUOUS
 10
0.802953
 20
-3.439819
  0
VERTEX
  8
PLAN_1
  6
CONTINUOUS
 10
0.807752
 20
-3.438508
  0
VERTEX
  8
PLAN_1
  6
CONTINUOUS
 10
0.812114
 20
-3.436764
  0
VERTEX
  8
PLAN_1
  6
CONTINUOUS
 10
0.816039
 20
-3.434583
  0
VERTEX
  8
PLAN_1
  6
CONTINUOUS
 10
0.819969
 20
-3.431528
  0
VERTEX
  8
PLAN_1
  6
CONTINUOUS
 10
0.823020
 20
-3.428039
  0
VERTEX
  8
PLAN_1
  6
CONTINUOUS
 10
0.826075
 20
-3.424114
  0
VERTEX
  8
PLAN_1
  6
CONTINUOUS
 10
0.828693
 20
-3.419315
  0
VERTEX
  8
PLAN_1
  6
CONTINUOUS
 10
0.831311
 20
-3.413642
  0
VERTEX
  8
PLAN_1
  6
CONTINUOUS
 10
0.833055
 20
-3.407972
  0
VERTEX
  8
PLAN_1
  6
CONTINUOUS
 10
0.834799
 20
-3.401425
  0
VERTEX
  8
PLAN_1
  6
CONTINUOUS
 10
0.836110
 20
-3.394445
  0
VERTEX
  8
PLAN_1
  6
CONTINUOUS
 10
0.837417
 20
-3.387031
  0
VERTEX
  8
PLAN_1
  6
CONTINUOUS
 10
0.838291
 20
-3.379177
  0
VERTEX
  8
PLAN_1
  6
CONTINUOUS
 10
0.838728
 20
-3.370453
  0
VERTEX
  8
PLAN_1
  6
CONTINUOUS
 10
0.838728
 20
-3.361728
  0
VERTEX
  8
PLAN_1
  6
CONTINUOUS
 10
0.838728
 20
-3.352563
  0
VERTEX
  8
PLAN_1
  6
CONTINUOUS
 10
0.838291
 20
-3.344276
  0
VERTEX
  8
PLAN_1
  6
CONTINUOUS
 10
0.837417
 20
-3.336421
  0
VERTEX
  8
PLAN_1
  6
CONTINUOUS
 10
0.836110
 20
-3.329008
  0
VERTEX
  8
PLAN_1
  6
CONTINUOUS
 10
0.834799
 20
-3.322028
  0
VERTEX
  8
PLAN_1
  6
CONTINUOUS
 10
0.833055
 20
-3.315480
  0
VERTEX
  8
PLAN_1
  6
CONTINUOUS
 10
0.831311
 20
-3.309374
  0
VERTEX
  8
PLAN_1
  6
CONTINUOUS
 10
0.828693
 20
-3.304138
  0
VERTEX
  8
PLAN_1
  6
CONTINUOUS
 10
0.826075
 20
-3.299339
  0
VERTEX
  8
PLAN_1
  6
CONTINUOUS
 10
0.823020
 20
-3.295413
  0
VERTEX
  8
PLAN_1
  6
CONTINUOUS
 10
0.819969
 20
-3.291925
  0
VERTEX
  8
PLAN_1
  6
CONTINUOUS
 10
0.816039
 20
-3.288870
  0
VERTEX
  8
PLAN_1
  6
CONTINUOUS
 10
0.812114
 20
-3.286689
  0
VERTEX
  8
PLAN_1
  6
CONTINUOUS
 10
0.807752
 20
-3.284945
  0
VERTEX
  8
PLAN_1
  6
CONTINUOUS
 10
0.802953
 20
-3.283634
  0
VERTEX
  8
PLAN_1
  6
CONTINUOUS
 10
0.798154
 20
-3.283634
  0
SEQEND
  8
0
  0
POLYLINE
  8
PLAN_1
  6
CONTINUOUS
 66
     1
 40
0.003000
 41
0.003000
  0
VERTEX
  8
PLAN_1
  6
CONTINUOUS
 10
0.986622
 20
-3.353000
  0
VERTEX
  8
PLAN_1
  6
CONTINUOUS
 10
0.991421
 20
-3.355181
  0
VERTEX
  8
PLAN_1
  6
CONTINUOUS
 10
0.995783
 20
-3.357362
  0
VERTEX
  8
PLAN_1
  6
CONTINUOUS
 10
0.999272
 20
-3.359980
  0
VERTEX
  8
PLAN_1
  6
CONTINUOUS
 10
1.002764
 20
-3.363035
  0
VERTEX
  8
PLAN_1
  6
CONTINUOUS
 10
1.005819
 20
-3.365654
  0
VERTEX
  8
PLAN_1
  6
CONTINUOUS
 10
1.008433
 20
-3.368709
  0
VERTEX
  8
PLAN_1
  6
CONTINUOUS
 10
1.010618
 20
-3.372197
  0
VERTEX
  8
PLAN_1
  6
CONTINUOUS
 10
1.012799
 20
-3.375252
  0
VERTEX
  8
PLAN_1
  6
CONTINUOUS
 10
1.014106
 20
-3.378303
  0
VERTEX
  8
PLAN_1
  6
CONTINUOUS
 10
1.015413
 20
-3.381795
  0
VERTEX
  8
PLAN_1
  6
CONTINUOUS
 10
1.016724
 20
-3.384850
  0
VERTEX
  8
PLAN_1
  6
CONTINUOUS
 10
1.017161
 20
-3.388339
  0
VERTEX
  8
PLAN_1
  6
CONTINUOUS
 10
1.018469
 20
-3.394445
  0
VERTEX
  8
PLAN_1
  6
CONTINUOUS
 10
1.018469
 20
-3.400118
  0
VERTEX
  8
PLAN_1
  6
CONTINUOUS
 10
1.018469
 20
-3.406224
  0
VERTEX
  8
PLAN_1
  6
CONTINUOUS
 10
1.017598
 20
-3.411898
  0
VERTEX
  8
PLAN_1
  6
CONTINUOUS
 10
1.016287
 20
-3.417567
  0
VERTEX
  8
PLAN_1
  6
CONTINUOUS
 10
1.014980
 20
-3.423240
  0
VERTEX
  8
PLAN_1
  6
CONTINUOUS
 10
1.012799
 20
-3.428476
  0
VERTEX
  8
PLAN_1
  6
CONTINUOUS
 10
1.009744
 20
-3.433713
  0
VERTEX
  8
PLAN_1
  6
CONTINUOUS
 10
1.006689
 20
-3.438508
  0
VERTEX
  8
PLAN_1
  6
CONTINUOUS
 10
1.002764
 20
-3.442874
  0
VERTEX
  8
PLAN_1
  6
CONTINUOUS
 10
0.998402
 20
-3.446799
  0
VERTEX
  8
PLAN_1
  6
CONTINUOUS
 10
0.993602
 20
-3.450724
  0
VERTEX
  8
PLAN_1
  6
CONTINUOUS
 10
0.988366
 20
-3.453780
  0
VERTEX
  8
PLAN_1
  6
CONTINUOUS
 10
0.982260
 20
-3.456835
  0
VERTEX
  8
PLAN_1
  6
CONTINUOUS
 10
0.975717
 20
-3.459016
  0
VERTEX
  8
PLAN_1
  6
CONTINUOUS
 10
0.968736
 20
-3.460323
  0
VERTEX
  8
PLAN_1
  6
CONTINUOUS
 10
0.960882
 20
-3.461634
  0
VERTEX
  8
PLAN_1
  6
CONTINUOUS
 10
0.952594
 20
-3.462067
  0
VERTEX
  8
PLAN_1
  6
CONTINUOUS
 10
0.948228
 20
-3.461634
  0
VERTEX
  8
PLAN_1
  6
CONTINUOUS
 10
0.942996
 20
-3.461197
  0
VERTEX
  8
PLAN_1
  6
CONTINUOUS
 10
0.936886
 20
-3.460323
  0
VERTEX
  8
PLAN_1
  6
CONTINUOUS
 10
0.930780
 20
-3.459016
  0
VERTEX
  8
PLAN_1
  6
CONTINUOUS
 10
0.924673
 20
-3.456835
  0
VERTEX
  8
PLAN_1
  6
CONTINUOUS
 10
0.918126
 20
-3.454217
  0
VERTEX
  8
PLAN_1
  6
CONTINUOUS
 10
0.911583
 20
-3.451161
  0
VERTEX
  8
PLAN_1
  6
CONTINUOUS
 10
0.905913
 20
-3.446799
  0
VERTEX
  8
PLAN_1
  6
CONTINUOUS
 10
0.901984
 20
-3.443744
  0
VERTEX
  8
PLAN_1
  6
CONTINUOUS
 10
0.898933
 20
-3.440693
  0
VERTEX
  8
PLAN_1
  6
CONTINUOUS
 10
0.896315
 20
-3.437638
  0
VERTEX
  8
PLAN_1
  6
CONTINUOUS
 10
0.894134
 20
-3.434146
  0
VERTEX
  8
PLAN_1
  6
CONTINUOUS
 10
0.892386
 20
-3.431094
  0
VERTEX
  8
PLAN_1
  6
CONTINUOUS
 10
0.890642
 20
-3.427602
  0
VERTEX
  8
PLAN_1
  6
CONTINUOUS
 10
0.889335
 20
-3.424547
  0
VERTEX
  8
PLAN_1
  6
CONTINUOUS
 10
0.888024
 20
-3.421496
  0
VERTEX
  8
PLAN_1
  6
CONTINUOUS
 10
0.886717
 20
-3.415386
  0
VERTEX
  8
PLAN_1
  6
CONTINUOUS
 10
0.885843
 20
-3.409717
  0
VERTEX
  8
PLAN_1
  6
CONTINUOUS
 10
0.885843
 20
-3.404480
  0
VERTEX
  8
PLAN_1
  6
CONTINUOUS
 10
0.885843
 20
-3.400555
  0
VERTEX
  8
PLAN_1
  6
CONTINUOUS
 10
0.885843
 20
-3.396193
  0
VERTEX
  8
PLAN_1
  6
CONTINUOUS
 10
0.886280
 20
-3.391831
  0
VERTEX
  8
PLAN_1
  6
CONTINUOUS
 10
0.887154
 20
-3.387902
  0
VERTEX
  8
PLAN_1
  6
CONTINUOUS
 10
0.888024
 20
-3.384413
  0
VERTEX
  8
PLAN_1
  6
CONTINUOUS
 10
0.889335
 20
-3.380484
  0
VERTEX
  8
PLAN_1
  6
CONTINUOUS
 10
0.890642
 20
-3.377433
  0
VERTEX
  8
PLAN_1
  6
CONTINUOUS
 10
0.892386
 20
-3.373941
  0
VERTEX
  8
PLAN_1
  6
CONTINUOUS
 10
0.894567
 20
-3.370890
  0
VERTEX
  8
PLAN_1
  6
CONTINUOUS
 10
0.896752
 20
-3.368272
  0
VERTEX
  8
PLAN_1
  6
CONTINUOUS
 10
0.899366
 20
-3.365654
  0
VERTEX
  8
PLAN_1
  6
CONTINUOUS
 10
0.901984
 20
-3.363035
  0
VERTEX
  8
PLAN_1
  6
CONTINUOUS
 10
0.905039
 20
-3.360854
  0
VERTEX
  8
PLAN_1
  6
CONTINUOUS
 10
0.908094
 20
-3.358673
  0
VERTEX
  8
PLAN_1
  6
CONTINUOUS
 10
0.911583
 20
-3.356492
  0
VERTEX
  8
PLAN_1
  6
CONTINUOUS
 10
0.915075
 20
-3.354748
  0
VERTEX
  8
PLAN_1
  6
CONTINUOUS
 10
0.918563
 20
-3.353000
  0
VERTEX
  8
PLAN_1
  6
CONTINUOUS
 10
0.915508
 20
-3.351693
  0
VERTEX
  8
PLAN_1
  6
CONTINUOUS
 10
0.912894
 20
-3.350382
  0
VERTEX
  8
PLAN_1
  6
CONTINUOUS
 10
0.910276
 20
-3.348638
  0
VERTEX
  8
PLAN_1
  6
CONTINUOUS
 10
0.907657
 20
-3.346894
  0
VERTEX
  8
PLAN_1
  6
CONTINUOUS
 10
0.905039
 20
-3.345150
  0
VERTEX
  8
PLAN_1
  6
CONTINUOUS
 10
0.903295
 20
-3.342969
  0
VERTEX
  8
PLAN_1
  6
CONTINUOUS
 10
0.901114
 20
-3.340787
  0
VERTEX
  8
PLAN_1
  6
CONTINUOUS
 10
0.899366
 20
-3.338602
  0
VERTEX
  8
PLAN_1
  6
CONTINUOUS
 10
0.897622
 20
-3.335988
  0
VERTEX
  8
PLAN_1
  6
CONTINUOUS
 10
0.896315
 20
-3.333370
  0
VERTEX
  8
PLAN_1
  6
CONTINUOUS
 10
0.895004
 20
-3.330752
  0
VERTEX
  8
PLAN_1
  6
CONTINUOUS
 10
0.894134
 20
-3.327697
  0
VERTEX
  8
PLAN_1
  6
CONTINUOUS
 10
0.893260
 20
-3.324642
  0
VERTEX
  8
PLAN_1
  6
CONTINUOUS
 10
0.892823
 20
-3.321591
  0
VERTEX
  8
PLAN_1
  6
CONTINUOUS
 10
0.892386
 20
-3.318535
  0
VERTEX
  8
PLAN_1
  6
CONTINUOUS
 10
0.892386
 20
-3.315047
  0
VERTEX
  8
PLAN_1
  6
CONTINUOUS
 10
0.892386
 20
-3.311118
  0
VERTEX
  8
PLAN_1
  6
CONTINUOUS
 10
0.892823
 20
-3.306756
  0
VERTEX
  8
PLAN_1
  6
CONTINUOUS
 10
0.893697
 20
-3.302831
  0
VERTEX
  8
PLAN_1
  6
CONTINUOUS
 10
0.895004
 20
-3.298031
  0
VERTEX
  8
PLAN_1
  6
CONTINUOUS
 10
0.896752
 20
-3.293669
  0
VERTEX
  8
PLAN_1
  6
CONTINUOUS
 10
0.898933
 20
-3.289307
  0
VERTEX
  8
PLAN_1
  6
CONTINUOUS
 10
0.901547
 20
-3.284945
  0
VERTEX
  8
PLAN_1
  6
CONTINUOUS
 10
0.904602
 20
-3.280579
  0
VERTEX
  8
PLAN_1
  6
CONTINUOUS
 10
0.908094
 20
-3.276654
  0
VERTEX
  8
PLAN_1
  6
CONTINUOUS
 10
0.912457
 20
-3.273165
  0
VERTEX
  8
PLAN_1
  6
CONTINUOUS
 10
0.917256
 20
-3.269673
  0
VERTEX
  8
PLAN_1
  6
CONTINUOUS
 10
0.922488
 20
-3.267055
  0
VERTEX
  8
PLAN_1
  6
CONTINUOUS
 10
0.928598
 20
-3.264874
  0
VERTEX
  8
PLAN_1
  6
CONTINUOUS
 10
0.935579
 20
-3.263130
  0
VERTEX
  8
PLAN_1
  6
CONTINUOUS
 10
0.942996
 20
-3.261823
  0
VERTEX
  8
PLAN_1
  6
CONTINUOUS
 10
0.951283
 20
-3.261386
  0
VERTEX
  8
PLAN_1
  6
CONTINUOUS
 10
0.959138
 20
-3.261823
  0
VERTEX
  8
PLAN_1
  6
CONTINUOUS
 10
0.966555
 20
-3.262693
  0
VERTEX
  8
PLAN_1
  6
CONTINUOUS
 10
0.973098
 20
-3.264004
  0
VERTEX
  8
PLAN_1
  6
CONTINUOUS
 10
0.979205
 20
-3.266185
  0
VERTEX
  8
PLAN_1
  6
CONTINUOUS
 10
0.984441
 20
-3.268803
  0
VERTEX
  8
PLAN_1
  6
CONTINUOUS
 10
0.989677
 20
-3.271417
  0
VERTEX
  8
PLAN_1
  6
CONTINUOUS
 10
0.994039
 20
-3.274472
  0
VERTEX
  8
PLAN_1
  6
CONTINUOUS
 10
0.997965
 20
-3.277965
  0
VERTEX
  8
PLAN_1
  6
CONTINUOUS
 10
1.001020
 20
-3.281890
  0
VERTEX
  8
PLAN_1
  6
CONTINUOUS
 10
1.004071
 20
-3.285815
  0
VERTEX
  8
PLAN_1
  6
CONTINUOUS
 10
1.006252
 20
-3.290177
  0
VERTEX
  8
PLAN_1
  6
CONTINUOUS
 10
1.008433
 20
-3.294106
  0
VERTEX
  8
PLAN_1
  6
CONTINUOUS
 10
1.009744
 20
-3.298469
  0
VERTEX
  8
PLAN_1
  6
CONTINUOUS
 10
1.011051
 20
-3.303268
  0
VERTEX
  8
PLAN_1
  6
CONTINUOUS
 10
1.011488
 20
-3.307630
  0
VERTEX
  8
PLAN_1
  6
CONTINUOUS
 10
1.011925
 20
-3.311555
  0
VERTEX
  8
PLAN_1
  6
CONTINUOUS
 10
1.011488
 20
-3.316791
  0
VERTEX
  8
PLAN_1
  6
CONTINUOUS
 10
1.011051
 20
-3.321591
  0
VERTEX
  8
PLAN_1
  6
CONTINUOUS
 10
1.010181
 20
-3.325516
  0
VERTEX
  8
PLAN_1
  6
CONTINUOUS
 10
1.008870
 20
-3.329441
  0
VERTEX
  8
PLAN_1
  6
CONTINUOUS
 10
1.007563
 20
-3.332933
  0
VERTEX
  8
PLAN_1
  6
CONTINUOUS
 10
1.006252
 20
-3.335988
  0
VERTEX
  8
PLAN_1
  6
CONTINUOUS
 10
1.004508
 20
-3.338602
  0
VERTEX
  8
PLAN_1
  6
CONTINUOUS
 10
1.002327
 20
-3.341220
  0
VERTEX
  8
PLAN_1
  6
CONTINUOUS
 10
0.998402
 20
-3.345150
  0
VERTEX
  8
PLAN_1
  6
CONTINUOUS
 10
0.994472
 20
-3.348638
  0
VERTEX
  8
PLAN_1
  6
CONTINUOUS
 10
0.990110
 20
-3.350819
  0
VERTEX
  8
PLAN_1
  6
CONTINUOUS
 10
0.986622
 20
-3.353000
  0
SEQEND
  8
0
  0
POLYLINE
  8
PLAN_1
  6
CONTINUOUS
 66
     1
 40
0.003000
 41
0.003000
  0
VERTEX
  8
PLAN_1
  6
CONTINUOUS
 10
0.912020
 20
-3.400992
  0
VERTEX
  8
PLAN_1
  6
CONTINUOUS
 10
0.912020
 20
-3.404043
  0
VERTEX
  8
PLAN_1
  6
CONTINUOUS
 10
0.912020
 20
-3.407098
  0
VERTEX
  8
PLAN_1
  6
CONTINUOUS
 10
0.912894
 20
-3.410587
  0
VERTEX
  8
PLAN_1
  6
CONTINUOUS
 10
0.913764
 20
-3.413642
  0
VERTEX
  8
PLAN_1
  6
CONTINUOUS
 10
0.914638
 20
-3.417134
  0
VERTEX
  8
PLAN_1
  6
CONTINUOUS
 10
0.915945
 20
-3.420185
  0
VERTEX
  8
PLAN_1
  6
CONTINUOUS
 10
0.917693
 20
-3.423240
  0
VERTEX
  8
PLAN_1
  6
CONTINUOUS
 10
0.919874
 20
-3.426295
  0
VERTEX
  8
PLAN_1
  6
CONTINUOUS
 10
0.922488
 20
-3.429346
  0
VERTEX
  8
PLAN_1
  6
CONTINUOUS
 10
0.925543
 20
-3.431965
  0
VERTEX
  8
PLAN_1
  6
CONTINUOUS
 10
0.928598
 20
-3.434146
  0
VERTEX
  8
PLAN_1
  6
CONTINUOUS
 10
0.932524
 20
-3.435894
  0
VERTEX
  8
PLAN_1
  6
CONTINUOUS
 10
0.936886
 20
-3.437638
  0
VERTEX
  8
PLAN_1
  6
CONTINUOUS
 10
0.942122
 20
-3.438945
  0
VERTEX
  8
PLAN_1
  6
CONTINUOUS
 10
0.947358
 20
-3.439819
  0
VERTEX
  8
PLAN_1
  6
CONTINUOUS
 10
0.953465
 20
-3.439819
  0
VERTEX
  8
PLAN_1
  6
CONTINUOUS
 10
0.960008
 20
-3.439819
  0
VERTEX
  8
PLAN_1
  6
CONTINUOUS
 10
0.966988
 20
-3.438508
  0
VERTEX
  8
PLAN_1
  6
CONTINUOUS
 10
0.970480
 20
-3.437638
  0
VERTEX
  8
PLAN_1
  6
CONTINUOUS
 10
0.973535
 20
-3.436327
  0
VERTEX
  8
PLAN_1
  6
CONTINUOUS
 10
0.976587
 20
-3.435020
  0
VERTEX
  8
PLAN_1
  6
CONTINUOUS
 10
0.979642
 20
-3.432839
  0
VERTEX
  8
PLAN_1
  6
CONTINUOUS
 10
0.982260
 20
-3.430657
  0
VERTEX
  8
PLAN_1
  6
CONTINUOUS
 10
0.984878
 20
-3.428039
  0
VERTEX
  8
PLAN_1
  6
CONTINUOUS
 10
0.987059
 20
-3.424984
  0
VERTEX
  8
PLAN_1
  6
CONTINUOUS
 10
0.988803
 20
-3.421496
  0
VERTEX
  8
PLAN_1
  6
CONTINUOUS
 10
0.990547
 20
-3.418004
  0
VERTEX
  8
PLAN_1
  6
CONTINUOUS
 10
0.991421
 20
-3.413205
  0
VERTEX
  8
PLAN_1
  6
CONTINUOUS
 10
0.992291
 20
-3.408406
  0
VERTEX
  8
PLAN_1
  6
CONTINUOUS
 10
0.992728
 20
-3.403173
  0
VERTEX
  8
PLAN_1
  6
CONTINUOUS
 10
0.992291
 20
-3.398374
  0
VERTEX
  8
PLAN_1
  6
CONTINUOUS
 10
0.991858
 20
-3.394012
  0
VERTEX
  8
PLAN_1
  6
CONTINUOUS
 10
0.990547
 20
-3.389650
  0
VERTEX
  8
PLAN_1
  6
CONTINUOUS
 10
0.989240
 20
-3.386157
  0
VERTEX
  8
PLAN_1
  6
CONTINUOUS
 10
0.987492
 20
-3.382669
  0
VERTEX
  8
PLAN_1
  6
CONTINUOUS
 10
0.985748
 20
-3.379614
  0
VERTEX
  8
PLAN_1
  6
CONTINUOUS
 10
0.983130
 20
-3.376559
  0
VERTEX
  8
PLAN_1
  6
CONTINUOUS
 10
0.980512
 20
-3.373941
  0
VERTEX
  8
PLAN_1
  6
CONTINUOUS
 10
0.977898
 20
-3.372197
  0
VERTEX
  8
PLAN_1
  6
CONTINUOUS
 10
0.974406
 20
-3.370016
  0
VERTEX
  8
PLAN_1
  6
CONTINUOUS
 10
0.971350
 20
-3.368709
  0
VERTEX
  8
PLAN_1
  6
CONTINUOUS
 10
0.967862
 20
-3.367398
  0
VERTEX
  8
PLAN_1
  6
CONTINUOUS
 10
0.963937
 20
-3.366091
  0
VERTEX
  8
PLAN_1
  6
CONTINUOUS
 10
0.960008
 20
-3.365654
  0
VERTEX
  8
PLAN_1
  6
CONTINUOUS
 10
0.956083
 20
-3.365217
  0
VERTEX
  8
PLAN_1
  6
CONTINUOUS
 10
0.952157
 20
-3.365217
  0
VERTEX
  8
PLAN_1
  6
CONTINUOUS
 10
0.946921
 20
-3.365217
  0
VERTEX
  8
PLAN_1
  6
CONTINUOUS
 10
0.942559
 20
-3.365654
  0
VERTEX
  8
PLAN_1
  6
CONTINUOUS
 10
0.938197
 20
-3.366961
  0
VERTEX
  8
PLAN_1
  6
CONTINUOUS
 10
0.934268
 20
-3.368272
  0
VERTEX
  8
PLAN_1
  6
CONTINUOUS
 10
0.930343
 20
-3.369579
  0
VERTEX
  8
PLAN_1
  6
CONTINUOUS
 10
0.927287
 20
-3.371760
  0
VERTEX
  8
PLAN_1
  6
CONTINUOUS
 10
0.924236
 20
-3.373941
  0
VERTEX
  8
PLAN_1
  6
CONTINUOUS
 10
0.921618
 20
-3.376122
  0
VERTEX
  8
PLAN_1
  6
CONTINUOUS
 10
0.919437
 20
-3.378740
  0
VERTEX
  8
PLAN_1
  6
CONTINUOUS
 10
0.917256
 20
-3.381795
  0
VERTEX
  8
PLAN_1
  6
CONTINUOUS
 10
0.915508
 20
-3.384850
  0
VERTEX
  8
PLAN_1
  6
CONTINUOUS
 10
0.914201
 20
-3.387902
  0
VERTEX
  8
PLAN_1
  6
CONTINUOUS
 10
0.913327
 20
-3.390957
  0
VERTEX
  8
PLAN_1
  6
CONTINUOUS
 10
0.912457
 20
-3.394445
  0
VERTEX
  8
PLAN_1
  6
CONTINUOUS
 10
0.912020
 20
-3.397937
  0
VERTEX
  8
PLAN_1
  6
CONTINUOUS
 10
0.912020
 20
-3.400992
  0
SEQEND
  8
0
  0
POLYLINE
  8
PLAN_1
  6
CONTINUOUS
 66
     1
 40
0.003000
 41
0.003000
  0
VERTEX
  8
PLAN_1
  6
CONTINUOUS
 10
0.986622
 20
-3.312429
  0
VERTEX
  8
PLAN_1
  6
CONTINUOUS
 10
0.986185
 20
-3.308067
  0
VERTEX
  8
PLAN_1
  6
CONTINUOUS
 10
0.984878
 20
-3.302831
  0
VERTEX
  8
PLAN_1
  6
CONTINUOUS
 10
0.983567
 20
-3.300650
  0
VERTEX
  8
PLAN_1
  6
CONTINUOUS
 10
0.982697
 20
-3.298031
  0
VERTEX
  8
PLAN_1
  6
CONTINUOUS
 10
0.980949
 20
-3.295850
  0
VERTEX
  8
PLAN_1
  6
CONTINUOUS
 10
0.979205
 20
-3.293669
  0
VERTEX
  8
PLAN_1
  6
CONTINUOUS
 10
0.976587
 20
-3.291488
  0
VERTEX
  8
PLAN_1
  6
CONTINUOUS
 10
0.973969
 20
-3.289307
  0
VERTEX
  8
PLAN_1
  6
CONTINUOUS
 10
0.971350
 20
-3.287996
  0
VERTEX
  8
PLAN_1
  6
CONTINUOUS
 10
0.967862
 20
-3.286252
  0
VERTEX
  8
PLAN_1
  6
CONTINUOUS
 10
0.963937
 20
-3.284945
  0
VERTEX
  8
PLAN_1
  6
CONTINUOUS
 10
0.960008
 20
-3.284071
  0
VERTEX
  8
PLAN_1
  6
CONTINUOUS
 10
0.955209
 20
-3.283634
  0
VERTEX
  8
PLAN_1
  6
CONTINUOUS
 10
0.949976
 20
-3.283634
  0
VERTEX
  8
PLAN_1
  6
CONTINUOUS
 10
0.945614
 20
-3.283634
  0
VERTEX
  8
PLAN_1
  6
CONTINUOUS
 10
0.941248
 20
-3.284071
  0
VERTEX
  8
PLAN_1
  6
CONTINUOUS
 10
0.937323
 20
-3.285378
  0
VERTEX
  8
PLAN_1
  6
CONTINUOUS
 10
0.933835
 20
-3.286252
  0
VERTEX
  8
PLAN_1
  6
CONTINUOUS
 10
0.931217
 20
-3.287996
  0
VERTEX
  8
PLAN_1
  6
CONTINUOUS
 10
0.928161
 20
-3.289744
  0
VERTEX
  8
PLAN_1
  6
CONTINUOUS
 10
0.925980
 20
-3.291925
  0
VERTEX
  8
PLAN_1
  6
CONTINUOUS
 10
0.924236
 20
-3.294106
  0
VERTEX
  8
PLAN_1
  6
CONTINUOUS
 10
0.922488
 20
-3.296287
  0
VERTEX
  8
PLAN_1
  6
CONTINUOUS
 10
0.921181
 20
-3.298906
  0
VERTEX
  8
PLAN_1
  6
CONTINUOUS
 10
0.919874
 20
-3.301520
  0
VERTEX
  8
PLAN_1
  6
CONTINUOUS
 10
0.919000
 20
-3.304138
  0
VERTEX
  8
PLAN_1
  6
CONTINUOUS
 10
0.918126
 20
-3.308937
  0
VERTEX
  8
PLAN_1
  6
CONTINUOUS
 10
0.917693
 20
-3.314173
  0
VERTEX
  8
PLAN_1
  6
CONTINUOUS
 10
0.917693
 20
-3.317228
  0
VERTEX
  8
PLAN_1
  6
CONTINUOUS
 10
0.918563
 20
-3.320717
  0
VERTEX
  8
PLAN_1
  6
CONTINUOUS
 10
0.919437
 20
-3.323772
  0
VERTEX
  8
PLAN_1
  6
CONTINUOUS
 10
0.920307
 20
-3.326390
  0
VERTEX
  8
PLAN_1
  6
CONTINUOUS
 10
0.922055
 20
-3.329008
  0
VERTEX
  8
PLAN_1
  6
CONTINUOUS
 10
0.923799
 20
-3.331622
  0
VERTEX
  8
PLAN_1
  6
CONTINUOUS
 10
0.925980
 20
-3.333807
  0
VERTEX
  8
PLAN_1
  6
CONTINUOUS
 10
0.928161
 20
-3.335988
  0
VERTEX
  8
PLAN_1
  6
CONTINUOUS
 10
0.930343
 20
-3.337732
  0
VERTEX
  8
PLAN_1
  6
CONTINUOUS
 10
0.932961
 20
-3.339476
  0
VERTEX
  8
PLAN_1
  6
CONTINUOUS
 10
0.936016
 20
-3.340787
  0
VERTEX
  8
PLAN_1
  6
CONTINUOUS
 10
0.939067
 20
-3.341657
  0
VERTEX
  8
PLAN_1
  6
CONTINUOUS
 10
0.942122
 20
-3.342969
  0
VERTEX
  8
PLAN_1
  6
CONTINUOUS
 10
0.945177
 20
-3.343402
  0
VERTEX
  8
PLAN_1
  6
CONTINUOUS
 10
0.948665
 20
-3.343839
  0
VERTEX
  8
PLAN_1
  6
CONTINUOUS
 10
0.951720
 20
-3.343839
  0
VERTEX
  8
PLAN_1
  6
CONTINUOUS
 10
0.955646
 20
-3.343839
  0
VERTEX
  8
PLAN_1
  6
CONTINUOUS
 10
0.959138
 20
-3.343402
  0
VERTEX
  8
PLAN_1
  6
CONTINUOUS
 10
0.962626
 20
-3.342531
  0
VERTEX
  8
PLAN_1
  6
CONTINUOUS
 10
0.966118
 20
-3.341657
  0
VERTEX
  8
PLAN_1
  6
CONTINUOUS
 10
0.969169
 20
-3.340350
  0
VERTEX
  8
PLAN_1
  6
CONTINUOUS
 10
0.972224
 20
-3.338602
  0
VERTEX
  8
PLAN_1
  6
CONTINUOUS
 10
0.974843
 20
-3.336858
  0
VERTEX
  8
PLAN_1
  6
CONTINUOUS
 10
0.977024
 20
-3.335114
  0
VERTEX
  8
PLAN_1
  6
CONTINUOUS
 10
0.979205
 20
-3.332496
  0
VERTEX
  8
PLAN_1
  6
CONTINUOUS
 10
0.980949
 20
-3.330315
  0
VERTEX
  8
PLAN_1
  6
CONTINUOUS
 10
0.982697
 20
-3.327697
  0
VERTEX
  8
PLAN_1
  6
CONTINUOUS
 10
0.984004
 20
-3.325079
  0
VERTEX
  8
PLAN_1
  6
CONTINUOUS
 10
0.984878
 20
-3.322028
  0
VERTEX
  8
PLAN_1
  6
CONTINUOUS
 10
0.985748
 20
-3.318972
  0
VERTEX
  8
PLAN_1
  6
CONTINUOUS
 10
0.986185
 20
-3.315917
  0
VERTEX
  8
PLAN_1
  6
CONTINUOUS
 10
0.986622
 20
-3.312429
  0
SEQEND
  8
0
  0
SOLID
  8
PLAN_1
 10
1.029374
 20
-3.491299
 11
1.029374
 21
-3.477339
 12
1.183815
 22
-3.491299
 13
1.183815
 23
-3.477339
  0
POLYLINE
  8
PLAN_1
  6
CONTINUOUS
 66
     1
 40
0.003000
 41
0.003000
  0
VERTEX
  8
PLAN_1
  6
CONTINUOUS
 10
1.029374
 20
-3.491299
  0
VERTEX
  8
PLAN_1
  6
CONTINUOUS
 10
1.029374
 20
-3.477339
  0
VERTEX
  8
PLAN_1
  6
CONTINUOUS
 10
1.183815
 20
-3.477339
  0
VERTEX
  8
PLAN_1
  6
CONTINUOUS
 10
1.183815
 20
-3.491299
  0
VERTEX
  8
PLAN_1
  6
CONTINUOUS
 10
1.029374
 20
-3.491299
  0
SEQEND
  8
0
  0
POLYLINE
  8
PLAN_1
  6
CONTINUOUS
 66
     1
 40
0.003000
 41
0.003000
  0
VERTEX
  8
PLAN_1
  6
CONTINUOUS
 10
1.235295
 20
-3.456398
  0
VERTEX
  8
PLAN_1
  6
CONTINUOUS
 10
1.208244
 20
-3.456398
  0
VERTEX
  8
PLAN_1
  6
CONTINUOUS
 10
1.208244
 20
-3.257457
  0
VERTEX
  8
PLAN_1
  6
CONTINUOUS
 10
1.300299
 20
-3.257457
  0
VERTEX
  8
PLAN_1
  6
CONTINUOUS
 10
1.306406
 20
-3.257457
  0
VERTEX
  8
PLAN_1
  6
CONTINUOUS
 10
1.312516
 20
-3.257894
  0
VERTEX
  8
PLAN_1
  6
CONTINUOUS
 10
1.318622
 20
-3.258768
  0
VERTEX
  8
PLAN_1
  6
CONTINUOUS
 10
1.324728
 20
-3.259638
  0
VERTEX
  8
PLAN_1
  6
CONTINUOUS
 10
1.329965
 20
-3.261386
  0
VERTEX
  8
PLAN_1
  6
CONTINUOUS
 10
1.335638
 20
-3.263130
  0
VERTEX
  8
PLAN_1
  6
CONTINUOUS
 10
1.340870
 20
-3.265311
  0
VERTEX
  8
PLAN_1
  6
CONTINUOUS
 10
1.345669
 20
-3.268366
  0
VERTEX
  8
PLAN_1
  6
CONTINUOUS
 10
1.350031
 20
-3.271417
  0
VERTEX
  8
PLAN_1
  6
CONTINUOUS
 10
1.353961
 20
-3.275346
  0
VERTEX
  8
PLAN_1
  6
CONTINUOUS
 10
1.357449
 20
-3.279709
  0
VERTEX
  8
PLAN_1
  6
CONTINUOUS
 10
1.360504
 20
-3.284945
  0
VERTEX
  8
PLAN_1
  6
CONTINUOUS
 10
1.362685
 20
-3.290177
  0
VERTEX
  8
PLAN_1
  6
CONTINUOUS
 10
1.364429
 20
-3.296720
  0
VERTEX
  8
PLAN_1
  6
CONTINUOUS
 10
1.365740
 20
-3.303268
  0
VERTEX
  8
PLAN_1
  6
CONTINUOUS
 10
1.366177
 20
-3.311118
  0
VERTEX
  8
PLAN_1
  6
CONTINUOUS
 10
1.365740
 20
-3.316354
  0
VERTEX
  8
PLAN_1
  6
CONTINUOUS
 10
1.365303
 20
-3.321154
  0
VERTEX
  8
PLAN_1
  6
CONTINUOUS
 10
1.364429
 20
-3.325516
  0
VERTEX
  8
PLAN_1
  6
CONTINUOUS
 10
1.363559
 20
-3.329878
  0
VERTEX
  8
PLAN_1
  6
CONTINUOUS
 10
1.362248
 20
-3.333370
  0
VERTEX
  8
PLAN_1
  6
CONTINUOUS
 10
1.360504
 20
-3.336858
  0
VERTEX
  8
PLAN_1
  6
CONTINUOUS
 10
1.358760
 20
-3.339913
  0
VERTEX
  8
PLAN_1
  6
CONTINUOUS
 10
1.357012
 20
-3.342969
  0
VERTEX
  8
PLAN_1
  6
CONTINUOUS
 10
1.352650
 20
-3.348201
  0
VERTEX
  8
PLAN_1
  6
CONTINUOUS
 10
1.347850
 20
-3.352130
  0
VERTEX
  8
PLAN_1
  6
CONTINUOUS
 10
1.343051
 20
-3.355618
  0
VERTEX
  8
PLAN_1
  6
CONTINUOUS
 10
1.338256
 20
-3.358673
  0
VERTEX
  8
PLAN_1
  6
CONTINUOUS
 10
1.342618
 20
-3.360417
  0
VERTEX
  8
PLAN_1
  6
CONTINUOUS
 10
1.346543
 20
-3.362598
  0
VERTEX
  8
PLAN_1
  6
CONTINUOUS
 10
1.350469
 20
-3.365217
  0
VERTEX
  8
PLAN_1
  6
CONTINUOUS
 10
1.353961
 20
-3.368709
  0
VERTEX
  8
PLAN_1
  6
CONTINUOUS
 10
1.355705
 20
-3.370890
  0
VERTEX
  8
PLAN_1
  6
CONTINUOUS
 10
1.357012
 20
-3.373504
  0
VERTEX
  8
PLAN_1
  6
CONTINUOUS
 10
1.358323
 20
-3.376122
  0
VERTEX
  8
PLAN_1
  6
CONTINUOUS
 10
1.359630
 20
-3.379177
  0
VERTEX
  8
PLAN_1
  6
CONTINUOUS
 10
1.360504
 20
-3.382669
  0
VERTEX
  8
PLAN_1
  6
CONTINUOUS
 10
1.361378
 20
-3.386594
  0
VERTEX
  8
PLAN_1
  6
CONTINUOUS
 10
1.361811
 20
-3.391394
  0
VERTEX
  8
PLAN_1
  6
CONTINUOUS
 10
1.362248
 20
-3.396193
  0
VERTEX
  8
PLAN_1
  6
CONTINUOUS
 10
1.363559
 20
-3.432402
  0
VERTEX
  8
PLAN_1
  6
CONTINUOUS
 10
1.363992
 20
-3.435894
  0
VERTEX
  8
PLAN_1
  6
CONTINUOUS
 10
1.364429
 20
-3.439382
  0
VERTEX
  8
PLAN_1
  6
CONTINUOUS
 10
1.364866
 20
-3.442000
  0
VERTEX
  8
PLAN_1
  6
CONTINUOUS
 10
1.365740
 20
-3.444618
  0
VERTEX
  8
PLAN_1
  6
CONTINUOUS
 10
1.367047
 20
-3.446799
  0
VERTEX
  8
PLAN_1
  6
CONTINUOUS
 10
1.368791
 20
-3.448543
  0
VERTEX
  8
PLAN_1
  6
CONTINUOUS
 10
1.370972
 20
-3.450287
  0
VERTEX
  8
PLAN_1
  6
CONTINUOUS
 10
1.373591
 20
-3.452035
  0
VERTEX
  8
PLAN_1
  6
CONTINUOUS
 10
1.373591
 20
-3.456398
  0
VERTEX
  8
PLAN_1
  6
CONTINUOUS
 10
1.340870
 20
-3.456398
  0
VERTEX
  8
PLAN_1
  6
CONTINUOUS
 10
1.339563
 20
-3.451161
  0
VERTEX
  8
PLAN_1
  6
CONTINUOUS
 10
1.338256
 20
-3.444618
  0
VERTEX
  8
PLAN_1
  6
CONTINUOUS
 10
1.337382
 20
-3.437638
  0
VERTEX
  8
PLAN_1
  6
CONTINUOUS
 10
1.336945
 20
-3.429783
  0
VERTEX
  8
PLAN_1
  6
CONTINUOUS
 10
1.336508
 20
-3.422366
  0
VERTEX
  8
PLAN_1
  6
CONTINUOUS
 10
1.336071
 20
-3.415823
  0
VERTEX
  8
PLAN_1
  6
CONTINUOUS
 10
1.336071
 20
-3.410587
  0
VERTEX
  8
PLAN_1
  6
CONTINUOUS
 10
1.336071
 20
-3.406661
  0
VERTEX
  8
PLAN_1
  6
CONTINUOUS
 10
1.335638
 20
-3.400555
  0
VERTEX
  8
PLAN_1
  6
CONTINUOUS
 10
1.334764
 20
-3.394012
  0
VERTEX
  8
PLAN_1
  6
CONTINUOUS
 10
1.334327
 20
-3.390957
  0
VERTEX
  8
PLAN_1
  6
CONTINUOUS
 10
1.333020
 20
-3.388339
  0
VERTEX
  8
PLAN_1
  6
CONTINUOUS
 10
1.332146
 20
-3.385283
  0
VERTEX
  8
PLAN_1
  6
CONTINUOUS
 10
1.330402
 20
-3.382669
  0
VERTEX
  8
PLAN_1
  6
CONTINUOUS
 10
1.328220
 20
-3.380484
  0
VERTEX
  8
PLAN_1
  6
CONTINUOUS
 10
1.326039
 20
-3.377870
  0
VERTEX
  8
PLAN_1
  6
CONTINUOUS
 10
1.322984
 20
-3.376122
  0
VERTEX
  8
PLAN_1
  6
CONTINUOUS
 10
1.319496
 20
-3.374378
  0
VERTEX
  8
PLAN_1
  6
CONTINUOUS
 10
1.315567
 20
-3.373071
  0
VERTEX
  8
PLAN_1
  6
CONTINUOUS
 10
1.311205
 20
-3.372197
  0
VERTEX
  8
PLAN_1
  6
CONTINUOUS
 10
1.305969
 20
-3.371323
  0
VERTEX
  8
PLAN_1
  6
CONTINUOUS
 10
1.300299
 20
-3.371323
  0
VERTEX
  8
PLAN_1
  6
CONTINUOUS
 10
1.235295
 20
-3.371323
  0
VERTEX
  8
PLAN_1
  6
CONTINUOUS
 10
1.235295
 20
-3.456398
  0
SEQEND
  8
0
  0
POLYLINE
  8
PLAN_1
  6
CONTINUOUS
 66
     1
 40
0.003000
 41
0.003000
  0
VERTEX
  8
PLAN_1
  6
CONTINUOUS
 10
1.235295
 20
-3.348201
  0
VERTEX
  8
PLAN_1
  6
CONTINUOUS
 10
1.297681
 20
-3.348201
  0
VERTEX
  8
PLAN_1
  6
CONTINUOUS
 10
1.305098
 20
-3.347768
  0
VERTEX
  8
PLAN_1
  6
CONTINUOUS
 10
1.312516
 20
-3.346894
  0
VERTEX
  8
PLAN_1
  6
CONTINUOUS
 10
1.316004
 20
-3.346020
  0
VERTEX
  8
PLAN_1
  6
CONTINUOUS
 10
1.319059
 20
-3.345150
  0
VERTEX
  8
PLAN_1
  6
CONTINUOUS
 10
1.322547
 20
-3.343402
  0
VERTEX
  8
PLAN_1
  6
CONTINUOUS
 10
1.325165
 20
-3.342094
  0
VERTEX
  8
PLAN_1
  6
CONTINUOUS
 10
1.328220
 20
-3.339913
  0
VERTEX
  8
PLAN_1
  6
CONTINUOUS
 10
1.330402
 20
-3.337295
  0
VERTEX
  8
PLAN_1
  6
CONTINUOUS
 10
1.332583
 20
-3.334677
  0
VERTEX
  8
PLAN_1
  6
CONTINUOUS
 10
1.334764
 20
-3.331622
  0
VERTEX
  8
PLAN_1
  6
CONTINUOUS
 10
1.336071
 20
-3.327697
  0
VERTEX
  8
PLAN_1
  6
CONTINUOUS
 10
1.337382
 20
-3.323772
  0
VERTEX
  8
PLAN_1
  6
CONTINUOUS
 10
1.337819
 20
-3.318972
  0
VERTEX
  8
PLAN_1
  6
CONTINUOUS
 10
1.338256
 20
-3.313736
  0
VERTEX
  8
PLAN_1
  6
CONTINUOUS
 10
1.337819
 20
-3.308067
  0
VERTEX
  8
PLAN_1
  6
CONTINUOUS
 10
1.337382
 20
-3.303268
  0
VERTEX
  8
PLAN_1
  6
CONTINUOUS
 10
1.336071
 20
-3.299339
  0
VERTEX
  8
PLAN_1
  6
CONTINUOUS
 10
1.334327
 20
-3.295413
  0
VERTEX
  8
PLAN_1
  6
CONTINUOUS
 10
1.332583
 20
-3.292358
  0
VERTEX
  8
PLAN_1
  6
CONTINUOUS
 10
1.330402
 20
-3.289744
  0
VERTEX
  8
PLAN_1
  6
CONTINUOUS
 10
1.327783
 20
-3.287559
  0
VERTEX
  8
PLAN_1
  6
CONTINUOUS
 10
1.325165
 20
-3.285378
  0
VERTEX
  8
PLAN_1
  6
CONTINUOUS
 10
1.322547
 20
-3.284071
  0
VERTEX
  8
PLAN_1
  6
CONTINUOUS
 10
1.319496
 20
-3.282764
  0
VERTEX
  8
PLAN_1
  6
CONTINUOUS
 10
1.316441
 20
-3.281890
  0
VERTEX
  8
PLAN_1
  6
CONTINUOUS
 10
1.313823
 20
-3.281453
  0
VERTEX
  8
PLAN_1
  6
CONTINUOUS
 10
1.307717
 20
-3.280579
  0
VERTEX
  8
PLAN_1
  6
CONTINUOUS
 10
1.302480
 20
-3.280579
  0
VERTEX
  8
PLAN_1
  6
CONTINUOUS
 10
1.235295
 20
-3.280579
  0
VERTEX
  8
PLAN_1
  6
CONTINUOUS
 10
1.235295
 20
-3.348201
  0
SEQEND
  8
0
  0
SOLID
  8
PLAN_1
 10
1.437287
 20
-3.456398
 11
1.408492
 21
-3.456398
 12
1.437287
 22
-3.427165
 13
1.408492
 23
-3.427165
  0
POLYLINE
  8
PLAN_1
  6
CONTINUOUS
 66
     1
 40
0.003000
 41
0.003000
  0
VERTEX
  8
PLAN_1
  6
CONTINUOUS
 10
1.437287
 20
-3.456398
  0
VERTEX
  8
PLAN_1
  6
CONTINUOUS
 10
1.408492
 20
-3.456398
  0
VERTEX
  8
PLAN_1
  6
CONTINUOUS
 10
1.408492
 20
-3.427165
  0
VERTEX
  8
PLAN_1
  6
CONTINUOUS
 10
1.437287
 20
-3.427165
  0
VERTEX
  8
PLAN_1
  6
CONTINUOUS
 10
1.437287
 20
-3.456398
  0
SEQEND
  8
0
  0
POLYLINE
  8
PLAN_1
  6
CONTINUOUS
 66
     1
 40
0.003000
 41
0.003000
  0
VERTEX
  8
PLAN_1
  6
CONTINUOUS
 10
1.632299
 20
-3.456398
  0
VERTEX
  8
PLAN_1
  6
CONTINUOUS
 10
1.485276
 20
-3.456398
  0
VERTEX
  8
PLAN_1
  6
CONTINUOUS
 10
1.485276
 20
-3.257457
  0
VERTEX
  8
PLAN_1
  6
CONTINUOUS
 10
1.630555
 20
-3.257457
  0
VERTEX
  8
PLAN_1
  6
CONTINUOUS
 10
1.630555
 20
-3.281016
  0
VERTEX
  8
PLAN_1
  6
CONTINUOUS
 10
1.512327
 20
-3.281016
  0
VERTEX
  8
PLAN_1
  6
CONTINUOUS
 10
1.512327
 20
-3.342094
  0
VERTEX
  8
PLAN_1
  6
CONTINUOUS
 10
1.621394
 20
-3.342094
  0
VERTEX
  8
PLAN_1
  6
CONTINUOUS
 10
1.621394
 20
-3.366091
  0
VERTEX
  8
PLAN_1
  6
CONTINUOUS
 10
1.512327
 20
-3.366091
  0
VERTEX
  8
PLAN_1
  6
CONTINUOUS
 10
1.512327
 20
-3.432839
  0
VERTEX
  8
PLAN_1
  6
CONTINUOUS
 10
1.632299
 20
-3.432839
  0
VERTEX
  8
PLAN_1
  6
CONTINUOUS
 10
1.632299
 20
-3.456398
  0
SEQEND
  8
0
  0
POLYLINE
  8
PLAN_1
  6
CONTINUOUS
 66
     1
 40
0.003000
 41
0.003000
  0
VERTEX
  8
PLAN_1
  6
CONTINUOUS
 10
1.697303
 20
-3.456398
  0
VERTEX
  8
PLAN_1
  6
CONTINUOUS
 10
1.670689
 20
-3.456398
  0
VERTEX
  8
PLAN_1
  6
CONTINUOUS
 10
1.670689
 20
-3.257457
  0
VERTEX
  8
PLAN_1
  6
CONTINUOUS
 10
1.760126
 20
-3.257457
  0
VERTEX
  8
PLAN_1
  6
CONTINUOUS
 10
1.767106
 20
-3.257457
  0
VERTEX
  8
PLAN_1
  6
CONTINUOUS
 10
1.773213
 20
-3.258331
  0
VERTEX
  8
PLAN_1
  6
CONTINUOUS
 10
1.779323
 20
-3.259638
  0
VERTEX
  8
PLAN_1
  6
CONTINUOUS
 10
1.784992
 20
-3.261386
  0
VERTEX
  8
PLAN_1
  6
CONTINUOUS
 10
1.790228
 20
-3.264004
  0
VERTEX
  8
PLAN_1
  6
CONTINUOUS
 10
1.795028
 20
-3.266618
  0
VERTEX
  8
PLAN_1
  6
CONTINUOUS
 10
1.799390
 20
-3.269673
  0
VERTEX
  8
PLAN_1
  6
CONTINUOUS
 10
1.803752
 20
-3.273165
  0
VERTEX
  8
PLAN_1
  6
CONTINUOUS
 10
1.807244
 20
-3.277091
  0
VERTEX
  8
PLAN_1
  6
CONTINUOUS
 10
1.810295
 20
-3.281453
  0
VERTEX
  8
PLAN_1
  6
CONTINUOUS
 10
1.812913
 20
-3.286252
  0
VERTEX
  8
PLAN_1
  6
CONTINUOUS
 10
1.815094
 20
-3.291051
  0
VERTEX
  8
PLAN_1
  6
CONTINUOUS
 10
1.816843
 20
-3.296287
  0
VERTEX
  8
PLAN_1
  6
CONTINUOUS
 10
1.818150
 20
-3.301957
  0
VERTEX
  8
PLAN_1
  6
CONTINUOUS
 10
1.819024
 20
-3.307630
  0
VERTEX
  8
PLAN_1
  6
CONTINUOUS
 10
1.819457
 20
-3.313299
  0
VERTEX
  8
PLAN_1
  6
CONTINUOUS
 10
1.819024
 20
-3.318535
  0
VERTEX
  8
PLAN_1
  6
CONTINUOUS
 10
1.818587
 20
-3.323772
  0
VERTEX
  8
PLAN_1
  6
CONTINUOUS
 10
1.817713
 20
-3.329008
  0
VERTEX
  8
PLAN_1
  6
CONTINUOUS
 10
1.816406
 20
-3.334240
  0
VERTEX
  8
PLAN_1
  6
CONTINUOUS
 10
1.814224
 20
-3.339476
  0
VERTEX
  8
PLAN_1
  6
CONTINUOUS
 10
1.812043
 20
-3.344276
  0
VERTEX
  8
PLAN_1
  6
CONTINUOUS
 10
1.809425
 20
-3.349075
  0
VERTEX
  8
PLAN_1
  6
CONTINUOUS
 10
1.805933
 20
-3.353437
  0
VERTEX
  8
PLAN_1
  6
CONTINUOUS
 10
1.802445
 20
-3.357362
  0
VERTEX
  8
PLAN_1
  6
CONTINUOUS
 10
1.798083
 20
-3.361291
  0
VERTEX
  8
PLAN_1
  6
CONTINUOUS
 10
1.793283
 20
-3.364343
  0
VERTEX
  8
PLAN_1
  6
CONTINUOUS
 10
1.787610
 20
-3.367398
  0
VERTEX
  8
PLAN_1
  6
CONTINUOUS
 10
1.781941
 20
-3.369579
  0
VERTEX
  8
PLAN_1
  6
CONTINUOUS
 10
1.775394
 20
-3.371323
  0
VERTEX
  8
PLAN_1
  6
CONTINUOUS
 10
1.767980
 20
-3.372197
  0
VERTEX
  8
PLAN_1
  6
CONTINUOUS
 10
1.760126
 20
-3.372634
  0
VERTEX
  8
PLAN_1
  6
CONTINUOUS
 10
1.697303
 20
-3.372634
  0
VERTEX
  8
PLAN_1
  6
CONTINUOUS
 10
1.697303
 20
-3.456398
  0
SEQEND
  8
0
  0
POLYLINE
  8
PLAN_1
  6
CONTINUOUS
 66
     1
 40
0.003000
 41
0.003000
  0
VERTEX
  8
PLAN_1
  6
CONTINUOUS
 10
1.697303
 20
-3.349512
  0
VERTEX
  8
PLAN_1
  6
CONTINUOUS
 10
1.750965
 20
-3.349512
  0
VERTEX
  8
PLAN_1
  6
CONTINUOUS
 10
1.755327
 20
-3.349512
  0
VERTEX
  8
PLAN_1
  6
CONTINUOUS
 10
1.759689
 20
-3.349075
  0
VERTEX
  8
PLAN_1
  6
CONTINUOUS
 10
1.763614
 20
-3.348638
  0
VERTEX
  8
PLAN_1
  6
CONTINUOUS
 10
1.767543
 20
-3.347768
  0
VERTEX
  8
PLAN_1
  6
CONTINUOUS
 10
1.771031
 20
-3.346457
  0
VERTEX
  8
PLAN_1
  6
CONTINUOUS
 10
1.774524
 20
-3.345150
  0
VERTEX
  8
PLAN_1
  6
CONTINUOUS
 10
1.777575
 20
-3.343839
  0
VERTEX
  8
PLAN_1
  6
CONTINUOUS
 10
1.780193
 20
-3.341657
  0
VERTEX
  8
PLAN_1
  6
CONTINUOUS
 10
1.782811
 20
-3.339476
  0
VERTEX
  8
PLAN_1
  6
CONTINUOUS
 10
1.784992
 20
-3.336858
  0
VERTEX
  8
PLAN_1
  6
CONTINUOUS
 10
1.787173
 20
-3.333807
  0
VERTEX
  8
PLAN_1
  6
CONTINUOUS
 10
1.788484
 20
-3.330752
  0
VERTEX
  8
PLAN_1
  6
CONTINUOUS
 10
1.789791
 20
-3.326827
  0
VERTEX
  8
PLAN_1
  6
CONTINUOUS
 10
1.790665
 20
-3.322898
  0
VERTEX
  8
PLAN_1
  6
CONTINUOUS
 10
1.791535
 20
-3.318535
  0
VERTEX
  8
PLAN_1
  6
CONTINUOUS
 10
1.791535
 20
-3.313736
  0
VERTEX
  8
PLAN_1
  6
CONTINUOUS
 10
1.791535
 20
-3.309374
  0
VERTEX
  8
PLAN_1
  6
CONTINUOUS
 10
1.790665
 20
-3.305012
  0
VERTEX
  8
PLAN_1
  6
CONTINUOUS
 10
1.789791
 20
-3.301087
  0
VERTEX
  8
PLAN_1
  6
CONTINUOUS
 10
1.788484
 20
-3.298031
  0
VERTEX
  8
PLAN_1
  6
CONTINUOUS
 10
1.786740
 20
-3.294976
  0
VERTEX
  8
PLAN_1
  6
CONTINUOUS
 10
1.784992
 20
-3.291925
  0
VERTEX
  8
PLAN_1
  6
CONTINUOUS
 10
1.782811
 20
-3.289744
  0
VERTEX
  8
PLAN_1
  6
CONTINUOUS
 10
1.780193
 20
-3.287559
  0
VERTEX
  8
PLAN_1
  6
CONTINUOUS
 10
1.777575
 20
-3.285815
  0
VERTEX
  8
PLAN_1
  6
CONTINUOUS
 10
1.774524
 20
-3.284071
  0
VERTEX
  8
PLAN_1
  6
CONTINUOUS
 10
1.771031
 20
-3.283197
  0
VERTEX
  8
PLAN_1
  6
CONTINUOUS
 10
1.767543
 20
-3.281890
  0
VERTEX
  8
PLAN_1
  6
CONTINUOUS
 10
1.764051
 20
-3.281453
  0
VERTEX
  8
PLAN_1
  6
CONTINUOUS
 10
1.760126
 20
-3.280579
  0
VERTEX
  8
PLAN_1
  6
CONTINUOUS
 10
1.756201
 20
-3.280579
  0
VERTEX
  8
PLAN_1
  6
CONTINUOUS
 10
1.752272
 20
-3.280579
  0
VERTEX
  8
PLAN_1
  6
CONTINUOUS
 10
1.697303
 20
-3.280579
  0
VERTEX
  8
PLAN_1
  6
CONTINUOUS
 10
1.697303
 20
-3.349512
  0
SEQEND
  8
0
  0
POLYLINE
  8
PLAN_1
  6
CONTINUOUS
 66
     1
 40
0.003000
 41
0.003000
  0
VERTEX
  8
PLAN_1
  6
CONTINUOUS
 10
1.973024
 20
-3.315480
  0
VERTEX
  8
PLAN_1
  6
CONTINUOUS
 10
1.972591
 20
-3.310248
  0
VERTEX
  8
PLAN_1
  6
CONTINUOUS
 10
1.971717
 20
-3.305012
  0
VERTEX
  8
PLAN_1
  6
CONTINUOUS
 10
1.969972
 20
-3.300650
  0
VERTEX
  8
PLAN_1
  6
CONTINUOUS
 10
1.968224
 20
-3.296287
  0
VERTEX
  8
PLAN_1
  6
CONTINUOUS
 10
1.965610
 20
-3.292795
  0
VERTEX
  8
PLAN_1
  6
CONTINUOUS
 10
1.962992
 20
-3.289307
  0
VERTEX
  8
PLAN_1
  6
CONTINUOUS
 10
1.959937
 20
-3.286252
  0
VERTEX
  8
PLAN_1
  6
CONTINUOUS
 10
1.956445
 20
-3.283634
  0
VERTEX
  8
PLAN_1
  6
CONTINUOUS
 10
1.952957
 20
-3.281453
  0
VERTEX
  8
PLAN_1
  6
CONTINUOUS
 10
1.949031
 20
-3.279709
  0
VERTEX
  8
PLAN_1
  6
CONTINUOUS
 10
1.945102
 20
-3.278398
  0
VERTEX
  8
PLAN_1
  6
CONTINUOUS
 10
1.940740
 20
-3.277091
  0
VERTEX
  8
PLAN_1
  6
CONTINUOUS
 10
1.936378
 20
-3.276217
  0
VERTEX
  8
PLAN_1
  6
CONTINUOUS
 10
1.932453
 20
-3.275783
  0
VERTEX
  8
PLAN_1
  6
CONTINUOUS
 10
1.928091
 20
-3.275346
  0
VERTEX
  8
PLAN_1
  6
CONTINUOUS
 10
1.923728
 20
-3.274909
  0
VERTEX
  8
PLAN_1
  6
CONTINUOUS
 10
1.917181
 20
-3.275346
  0
VERTEX
  8
PLAN_1
  6
CONTINUOUS
 10
1.909331
 20
-3.276217
  0
VERTEX
  8
PLAN_1
  6
CONTINUOUS
 10
1.905839
 20
-3.277091
  0
VERTEX
  8
PLAN_1
  6
CONTINUOUS
 10
1.901913
 20
-3.278398
  0
VERTEX
  8
PLAN_1
  6
CONTINUOUS
 10
1.898421
 20
-3.279709
  0
VERTEX
  8
PLAN_1
  6
CONTINUOUS
 10
1.894496
 20
-3.281453
  0
VERTEX
  8
PLAN_1
  6
CONTINUOUS
 10
1.891441
 20
-3.283197
  0
VERTEX
  8
PLAN_1
  6
CONTINUOUS
 10
1.888390
 20
-3.285815
  0
VERTEX
  8
PLAN_1
  6
CONTINUOUS
 10
1.885335
 20
-3.288433
  0
VERTEX
  8
PLAN_1
  6
CONTINUOUS
 10
1.883154
 20
-3.291925
  0
VERTEX
  8
PLAN_1
  6
CONTINUOUS
 10
1.880972
 20
-3.295413
  0
VERTEX
  8
PLAN_1
  6
CONTINUOUS
 10
1.879665
 20
-3.299776
  0
VERTEX
  8
PLAN_1
  6
CONTINUOUS
 10
1.878791
 20
-3.304575
  0
VERTEX
  8
PLAN_1
  6
CONTINUOUS
 10
1.878354
 20
-3.310248
  0
VERTEX
  8
PLAN_1
  6
CONTINUOUS
 10
1.878354
 20
-3.313299
  0
VERTEX
  8
PLAN_1
  6
CONTINUOUS
 10
1.878791
 20
-3.315917
  0
VERTEX
  8
PLAN_1
  6
CONTINUOUS
 10
1.879665
 20
-3.318535
  0
VERTEX
  8
PLAN_1
  6
CONTINUOUS
 10
1.880535
 20
-3.320717
  0
VERTEX
  8
PLAN_1
  6
CONTINUOUS
 10
1.881409
 20
-3.322898
  0
VERTEX
  8
PLAN_1
  6
CONTINUOUS
 10
1.882717
 20
-3.324642
  0
VERTEX
  8
PLAN_1
  6
CONTINUOUS
 10
1.884028
 20
-3.326390
  0
VERTEX
  8
PLAN_1
  6
CONTINUOUS
 10
1.885772
 20
-3.328134
  0
VERTEX
  8
PLAN_1
  6
CONTINUOUS
 10
1.889260
 20
-3.330752
  0
VERTEX
  8
PLAN_1
  6
CONTINUOUS
 10
1.893189
 20
-3.332496
  0
VERTEX
  8
PLAN_1
  6
CONTINUOUS
 10
1.897551
 20
-3.334240
  0
VERTEX
  8
PLAN_1
  6
CONTINUOUS
 10
1.901913
 20
-3.335551
  0
VERTEX
  8
PLAN_1
  6
CONTINUOUS
 10
1.958630
 20
-3.348201
  0
VERTEX
  8
PLAN_1
  6
CONTINUOUS
 10
1.963425
 20
-3.349512
  0
VERTEX
  8
PLAN_1
  6
CONTINUOUS
 10
1.968224
 20
-3.351256
  0
VERTEX
  8
PLAN_1
  6
CONTINUOUS
 10
1.972591
 20
-3.353000
  0
VERTEX
  8
PLAN_1
  6
CONTINUOUS
 10
1.976516
 20
-3.354748
  0
VERTEX
  8
PLAN_1
  6
CONTINUOUS
 10
1.980878
 20
-3.356929
  0
VERTEX
  8
PLAN_1
  6
CONTINUOUS
 10
1.984366
 20
-3.359543
  0
VERTEX
  8
PLAN_1
  6
CONTINUOUS
 10
1.987858
 20
-3.362161
  0
VERTEX
  8
PLAN_1
  6
CONTINUOUS
 10
1.990913
 20
-3.365654
  0
VERTEX
  8
PLAN_1
  6
CONTINUOUS
 10
1.993965
 20
-3.368709
  0
VERTEX
  8
PLAN_1
  6
CONTINUOUS
 10
1.996583
 20
-3.372634
  0
VERTEX
  8
PLAN_1
  6
CONTINUOUS
 10
1.998764
 20
-3.376559
  0
VERTEX
  8
PLAN_1
  6
CONTINUOUS
 10
2.000512
 20
-3.380921
  0
VERTEX
  8
PLAN_1
  6
CONTINUOUS
 10
2.001819
 20
-3.385720
  0
VERTEX
  8
PLAN_1
  6
CONTINUOUS
 10
2.003126
 20
-3.390520
  0
VERTEX
  8
PLAN_1
  6
CONTINUOUS
 10
2.003563
 20
-3.395756
  0
VERTEX
  8
PLAN_1
  6
CONTINUOUS
 10
2.004000
 20
-3.401862
  0
VERTEX
  8
PLAN_1
  6
CONTINUOUS
 10
2.004000
 20
-3.405791
  0
VERTEX
  8
PLAN_1
  6
CONTINUOUS
 10
2.003563
 20
-3.410154
  0
VERTEX
  8
PLAN_1
  6
CONTINUOUS
 10
2.002693
 20
-3.414079
  0
VERTEX
  8
PLAN_1
  6
CONTINUOUS
 10
2.002256
 20
-3.418004
  0
VERTEX
  8
PLAN_1
  6
CONTINUOUS
 10
2.000945
 20
-3.421496
  0
VERTEX
  8
PLAN_1
  6
CONTINUOUS
 10
1.999638
 20
-3.424547
  0
VERTEX
  8
PLAN_1
  6
CONTINUOUS
 10
1.998327
 20
-3.428039
  0
VERTEX
  8
PLAN_1
  6
CONTINUOUS
 10
1.996583
 20
-3.431094
  0
VERTEX
  8
PLAN_1
  6
CONTINUOUS
 10
1.994839
 20
-3.433713
  0
VERTEX
  8
PLAN_1
  6
CONTINUOUS
 10
1.992657
 20
-3.436327
  0
VERTEX
  8
PLAN_1
  6
CONTINUOUS
 10
1.990476
 20
-3.438945
  0
VERTEX
  8
PLAN_1
  6
CONTINUOUS
 10
1.988295
 20
-3.441563
  0
VERTEX
  8
PLAN_1
  6
CONTINUOUS
 10
1.983496
 20
-3.445925
  0
VERTEX
  8
PLAN_1
  6
CONTINUOUS
 10
1.977823
 20
-3.449417
  0
VERTEX
  8
PLAN_1
  6
CONTINUOUS
 10
1.971717
 20
-3.452469
  0
VERTEX
  8
PLAN_1
  6
CONTINUOUS
 10
1.965610
 20
-3.455087
  0
VERTEX
  8
PLAN_1
  6
CONTINUOUS
 10
1.959063
 20
-3.457268
  0
VERTEX
  8
PLAN_1
  6
CONTINUOUS
 10
1.952520
 20
-3.459016
  0
VERTEX
  8
PLAN_1
  6
CONTINUOUS
 10
1.945976
 20
-3.460323
  0
VERTEX
  8
PLAN_1
  6
CONTINUOUS
 10
1.938996
 20
-3.461197
  0
VERTEX
  8
PLAN_1
  6
CONTINUOUS
 10
1.932453
 20
-3.461634
  0
VERTEX
  8
PLAN_1
  6
CONTINUOUS
 10
1.925909
 20
-3.462067
  0
VERTEX
  8
PLAN_1
  6
CONTINUOUS
 10
1.919362
 20
-3.461634
  0
VERTEX
  8
PLAN_1
  6
CONTINUOUS
 10
1.913256
 20
-3.461197
  0
VERTEX
  8
PLAN_1
  6
CONTINUOUS
 10
1.907583
 20
-3.460760
  0
VERTEX
  8
PLAN_1
  6
CONTINUOUS
 10
1.902350
 20
-3.459886
  0
VERTEX
  8
PLAN_1
  6
CONTINUOUS
 10
1.897551
 20
-3.459016
  0
VERTEX
  8
PLAN_1
  6
CONTINUOUS
 10
1.893189
 20
-3.458142
  0
VERTEX
  8
PLAN_1
  6
CONTINUOUS
 10
1.889260
 20
-3.456835
  0
VERTEX
  8
PLAN_1
  6
CONTINUOUS
 10
1.885335
 20
-3.455524
  0
VERTEX
  8
PLAN_1
  6
CONTINUOUS
 10
1.878791
 20
-3.452469
  0
VERTEX
  8
PLAN_1
  6
CONTINUOUS
 10
1.873555
 20
-3.448980
  0
VERTEX
  8
PLAN_1
  6
CONTINUOUS
 10
1.869193
 20
-3.445925
  0
VERTEX
  8
PLAN_1
  6
CONTINUOUS
 10
1.865705
 20
-3.442874
  0
VERTEX
  8
PLAN_1
  6
CONTINUOUS
 10
1.862650
 20
-3.439819
  0
VERTEX
  8
PLAN_1
  6
CONTINUOUS
 10
1.860031
 20
-3.436764
  0
VERTEX
  8
PLAN_1
  6
CONTINUOUS
 10
1.857413
 20
-3.434146
  0
VERTEX
  8
PLAN_1
  6
CONTINUOUS
 10
1.855669
 20
-3.431094
  0
VERTEX
  8
PLAN_1
  6
CONTINUOUS
 10
1.853488
 20
-3.428039
  0
VERTEX
  8
PLAN_1
  6
CONTINUOUS
 10
1.851744
 20
-3.424984
  0
VERTEX
  8
PLAN_1
  6
CONTINUOUS
 10
1.850433
 20
-3.421933
  0
VERTEX
  8
PLAN_1
  6
CONTINUOUS
 10
1.849126
 20
-3.418878
  0
VERTEX
  8
PLAN_1
  6
CONTINUOUS
 10
1.847378
 20
-3.412335
  0
VERTEX
  8
PLAN_1
  6
CONTINUOUS
 10
1.846508
 20
-3.405791
  0
VERTEX
  8
PLAN_1
  6
CONTINUOUS
 10
1.845634
 20
-3.399244
  0
VERTEX
  8
PLAN_1
  6
CONTINUOUS
 10
1.845634
 20
-3.392264
  0
VERTEX
  8
PLAN_1
  6
CONTINUOUS
 10
1.870937
 20
-3.392264
  0
VERTEX
  8
PLAN_1
  6
CONTINUOUS
 10
1.870937
 20
-3.398811
  0
VERTEX
  8
PLAN_1
  6
CONTINUOUS
 10
1.872248
 20
-3.404480
  0
VERTEX
  8
PLAN_1
  6
CONTINUOUS
 10
1.873555
 20
-3.410154
  0
VERTEX
  8
PLAN_1
  6
CONTINUOUS
 10
1.875736
 20
-3.414953
  0
VERTEX
  8
PLAN_1
  6
CONTINUOUS
 10
1.878354
 20
-3.418878
  0
VERTEX
  8
PLAN_1
  6
CONTINUOUS
 10
1.881409
 20
-3.422803
  0
VERTEX
  8
PLAN_1
  6
CONTINUOUS
 10
1.884898
 20
-3.426295
  0
VERTEX
  8
PLAN_1
  6
CONTINUOUS
 10
1.888827
 20
-3.428913
  0
VERTEX
  8
PLAN_1
  6
CONTINUOUS
 10
1.892752
 20
-3.431528
  0
VERTEX
  8
PLAN_1
  6
CONTINUOUS
 10
1.897114
 20
-3.433713
  0
VERTEX
  8
PLAN_1
  6
CONTINUOUS
 10
1.901476
 20
-3.435457
  0
VERTEX
  8
PLAN_1
  6
CONTINUOUS
 10
1.906276
 20
-3.436764
  0
VERTEX
  8
PLAN_1
  6
CONTINUOUS
 10
1.911075
 20
-3.437638
  0
VERTEX
  8
PLAN_1
  6
CONTINUOUS
 10
1.915874
 20
-3.438508
  0
VERTEX
  8
PLAN_1
  6
CONTINUOUS
 10
1.921110
 20
-3.438508
  0
VERTEX
  8
PLAN_1
  6
CONTINUOUS
 10
1.925909
 20
-3.438945
  0
VERTEX
  8
PLAN_1
  6
CONTINUOUS
 10
1.933760
 20
-3.438508
  0
VERTEX
  8
PLAN_1
  6
CONTINUOUS
 10
1.942051
 20
-3.437638
  0
VERTEX
  8
PLAN_1
  6
CONTINUOUS
 10
1.946413
 20
-3.436764
  0
VERTEX
  8
PLAN_1
  6
CONTINUOUS
 10
1.950776
 20
-3.435894
  0
VERTEX
  8
PLAN_1
  6
CONTINUOUS
 10
1.955138
 20
-3.434583
  0
VERTEX
  8
PLAN_1
  6
CONTINUOUS
 10
1.959063
 20
-3.432839
  0
VERTEX
  8
PLAN_1
  6
CONTINUOUS
 10
1.962992
 20
-3.430657
  0
VERTEX
  8
PLAN_1
  6
CONTINUOUS
 10
1.966480
 20
-3.428476
  0
VERTEX
  8
PLAN_1
  6
CONTINUOUS
 10
1.969535
 20
-3.425858
  0
VERTEX
  8
PLAN_1
  6
CONTINUOUS
 10
1.972591
 20
-3.422366
  0
VERTEX
  8
PLAN_1
  6
CONTINUOUS
 10
1.974772
 20
-3.418878
  0
VERTEX
  8
PLAN_1
  6
CONTINUOUS
 10
1.976516
 20
-3.414953
  0
VERTEX
  8
PLAN_1
  6
CONTINUOUS
 10
1.977386
 20
-3.410154
  0
VERTEX
  8
PLAN_1
  6
CONTINUOUS
 10
1.977823
 20
-3.405354
  0
VERTEX
  8
PLAN_1
  6
CONTINUOUS
 10
1.977823
 20
-3.401425
  0
VERTEX
  8
PLAN_1
  6
CONTINUOUS
 10
1.977386
 20
-3.397937
  0
VERTEX
  8
PLAN_1
  6
CONTINUOUS
 10
1.976953
 20
-3.394882
  0
VERTEX
  8
PLAN_1
  6
CONTINUOUS
 10
1.976079
 20
-3.392264
  0
VERTEX
  8
PLAN_1
  6
CONTINUOUS
 10
1.974772
 20
-3.389650
  0
VERTEX
  8
PLAN_1
  6
CONTINUOUS
 10
1.973024
 20
-3.387031
  0
VERTEX
  8
PLAN_1
  6
CONTINUOUS
 10
1.971280
 20
-3.384850
  0
VERTEX
  8
PLAN_1
  6
CONTINUOUS
 10
1.969098
 20
-3.382669
  0
VERTEX
  8
PLAN_1
  6
CONTINUOUS
 10
1.966480
 20
-3.380921
  0
VERTEX
  8
PLAN_1
  6
CONTINUOUS
 10
1.963425
 20
-3.379177
  0
VERTEX
  8
PLAN_1
  6
CONTINUOUS
 10
1.959937
 20
-3.377433
  0
VERTEX
  8
PLAN_1
  6
CONTINUOUS
 10
1.956012
 20
-3.375689
  0
VERTEX
  8
PLAN_1
  6
CONTINUOUS
 10
1.946850
 20
-3.373071
  0
VERTEX
  8
PLAN_1
  6
CONTINUOUS
 10
1.935504
 20
-3.370016
  0
VERTEX
  8
PLAN_1
  6
CONTINUOUS
 10
1.894496
 20
-3.360417
  0
VERTEX
  8
PLAN_1
  6
CONTINUOUS
 10
1.889260
 20
-3.359110
  0
VERTEX
  8
PLAN_1
  6
CONTINUOUS
 10
1.882717
 20
-3.356929
  0
VERTEX
  8
PLAN_1
  6
CONTINUOUS
 10
1.879228
 20
-3.355181
  0
VERTEX
  8
PLAN_1
  6
CONTINUOUS
 10
1.875299
 20
-3.353437
  0
VERTEX
  8
PLAN_1
  6
CONTINUOUS
 10
1.871811
 20
-3.351256
  0
VERTEX
  8
PLAN_1
  6
CONTINUOUS
 10
1.868319
 20
-3.349075
  0
VERTEX
  8
PLAN_1
  6
CONTINUOUS
 10
1.865268
 20
-3.346020
  0
VERTEX
  8
PLAN_1
  6
CONTINUOUS
 10
1.862213
 20
-3.342969
  0
VERTEX
  8
PLAN_1
  6
CONTINUOUS
 10
1.859594
 20
-3.339476
  0
VERTEX
  8
PLAN_1
  6
CONTINUOUS
 10
1.856976
 20
-3.335114
  0
VERTEX
  8
PLAN_1
  6
CONTINUOUS
 10
1.854795
 20
-3.330752
  0
VERTEX
  8
PLAN_1
  6
CONTINUOUS
 10
1.853488
 20
-3.325516
  0
VERTEX
  8
PLAN_1
  6
CONTINUOUS
 10
1.852614
 20
-3.319846
  0
VERTEX
  8
PLAN_1
  6
CONTINUOUS
 10
1.852177
 20
-3.313736
  0
VERTEX
  8
PLAN_1
  6
CONTINUOUS
 10
1.852614
 20
-3.308067
  0
VERTEX
  8
PLAN_1
  6
CONTINUOUS
 10
1.853051
 20
-3.301957
  0
VERTEX
  8
PLAN_1
  6
CONTINUOUS
 10
1.854358
 20
-3.296287
  0
VERTEX
  8
PLAN_1
  6
CONTINUOUS
 10
1.856106
 20
-3.291051
  0
VERTEX
  8
PLAN_1
  6
CONTINUOUS
 10
1.858287
 20
-3.285815
  0
VERTEX
  8
PLAN_1
  6
CONTINUOUS
 10
1.861339
 20
-3.280579
  0
VERTEX
  8
PLAN_1
  6
CONTINUOUS
 10
1.864394
 20
-3.275783
  0
VERTEX
  8
PLAN_1
  6
CONTINUOUS
 10
1.868319
 20
-3.271417
  0
VERTEX
  8
PLAN_1
  6
CONTINUOUS
 10
1.872685
 20
-3.267055
  0
VERTEX
  8
PLAN_1
  6
CONTINUOUS
 10
1.877917
 20
-3.263567
  0
VERTEX
  8
PLAN_1
  6
CONTINUOUS
 10
1.883591
 20
-3.260075
  0
VERTEX
  8
PLAN_1
  6
CONTINUOUS
 10
1.889697
 20
-3.257457
  0
VERTEX
  8
PLAN_1
  6
CONTINUOUS
 10
1.896677
 20
-3.255276
  0
VERTEX
  8
PLAN_1
  6
CONTINUOUS
 10
1.904094
 20
-3.253531
  0
VERTEX
  8
PLAN_1
  6
CONTINUOUS
 10
1.911949
 20
-3.252224
  0
VERTEX
  8
PLAN_1
  6
CONTINUOUS
 10
1.920673
 20
-3.252224
  0
VERTEX
  8
PLAN_1
  6
CONTINUOUS
 10
1.927217
 20
-3.252224
  0
VERTEX
  8
PLAN_1
  6
CONTINUOUS
 10
1.932890
 20
-3.252657
  0
VERTEX
  8
PLAN_1
  6
CONTINUOUS
 10
1.938559
 20
-3.253094
  0
VERTEX
  8
PLAN_1
  6
CONTINUOUS
 10
1.944232
 20
-3.253969
  0
VERTEX
  8
PLAN_1
  6
CONTINUOUS
 10
1.949031
 20
-3.254843
  0
VERTEX
  8
PLAN_1
  6
CONTINUOUS
 10
1.953831
 20
-3.256150
  0
VERTEX
  8
PLAN_1
  6
CONTINUOUS
 10
1.958193
 20
-3.257457
  0
VERTEX
  8
PLAN_1
  6
CONTINUOUS
 10
1.962118
 20
-3.258768
  0
VERTEX
  8
PLAN_1
  6
CONTINUOUS
 10
1.966043
 20
-3.260512
  0
VERTEX
  8
PLAN_1
  6
CONTINUOUS
 10
1.969535
 20
-3.262256
  0
VERTEX
  8
PLAN_1
  6
CONTINUOUS
 10
1.972591
 20
-3.264437
  0
VERTEX
  8
PLAN_1
  6
CONTINUOUS
 10
1.975642
 20
-3.266618
  0
VERTEX
  8
PLAN_1
  6
CONTINUOUS
 10
1.980878
 20
-3.270984
  0
VERTEX
  8
PLAN_1
  6
CONTINUOUS
 10
1.985240
 20
-3.275783
  0
VERTEX
  8
PLAN_1
  6
CONTINUOUS
 10
1.988732
 20
-3.280579
  0
VERTEX
  8
PLAN_1
  6
CONTINUOUS
 10
1.991783
 20
-3.285815
  0
VERTEX
  8
PLAN_1
  6
CONTINUOUS
 10
1.993965
 20
-3.291051
  0
VERTEX
  8
PLAN_1
  6
CONTINUOUS
 10
1.995713
 20
-3.296287
  0
VERTEX
  8
PLAN_1
  6
CONTINUOUS
 10
1.997020
 20
-3.301520
  0
VERTEX
  8
PLAN_1
  6
CONTINUOUS
 10
1.997457
 20
-3.306756
  0
VERTEX
  8
PLAN_1
  6
CONTINUOUS
 10
1.998327
 20
-3.311118
  0
VERTEX
  8
PLAN_1
  6
CONTINUOUS
 10
1.998327
 20
-3.315480
  0
VERTEX
  8
PLAN_1
  6
CONTINUOUS
 10
1.973024
 20
-3.315480
  0
SEQEND
  8
0
  0
POLYLINE
  8
PLAN_1
  6
CONTINUOUS
 66
     1
 40
0.006976
 41
0.006976
  0
VERTEX
  8
PLAN_1
  6
CONTINUOUS
 10
-0.692142
 20
0.529354
  0
VERTEX
  8
PLAN_1
  6
CONTINUOUS
 10
-0.692142
 20
0.511031
  0
SEQEND
  8
0
  0
POLYLINE
  8
PLAN_1
  6
CONTINUOUS
 66
     1
 40
0.008287
 41
0.008287
  0
VERTEX
  8
PLAN_1
  6
CONTINUOUS
 10
-0.579583
 20
0.530661
  0
VERTEX
  8
PLAN_1
  6
CONTINUOUS
 10
-0.579583
 20
1.501795
  0
VERTEX
  8
PLAN_1
  6
CONTINUOUS
 10
-1.841272
 20
1.501795
  0
VERTEX
  8
PLAN_1
  6
CONTINUOUS
 10
-1.841272
 20
0.530661
  0
VERTEX
  8
PLAN_1
  6
CONTINUOUS
 10
-0.579583
 20
0.530661
  0
SEQEND
  8
0
  0
POLYLINE
  8
PLAN_1
  6
CONTINUOUS
 66
     1
 40
0.008287
 41
0.008287
  0
VERTEX
  8
PLAN_1
  6
CONTINUOUS
 10
-1.141496
 20
-0.060480
  0
VERTEX
  8
PLAN_1
  6
CONTINUOUS
 10
-1.141496
 20
0.052512
  0
VERTEX
  8
PLAN_1
  6
CONTINUOUS
 10
-1.274559
 20
0.052512
  0
VERTEX
  8
PLAN_1
  6
CONTINUOUS
 10
-1.274559
 20
-0.060480
  0
VERTEX
  8
PLAN_1
  6
CONTINUOUS
 10
-1.141496
 20
-0.060480
  0
SEQEND
  8
0
  0
POLYLINE
  8
PLAN_1
  6
CONTINUOUS
 66
     1
 40
0.008287
 41
0.008287
  0
VERTEX
  8
PLAN_1
  6
CONTINUOUS
 10
-0.682106
 20
0.507102
  0
VERTEX
  8
PLAN_1
  6
CONTINUOUS
 10
-0.682106
 20
0.526736
  0
VERTEX
  8
PLAN_1
  6
CONTINUOUS
 10
-1.717807
 20
0.526736
  0
VERTEX
  8
PLAN_1
  6
CONTINUOUS
 10
-1.717807
 20
0.507102
  0
VERTEX
  8
PLAN_1
  6
CONTINUOUS
 10
-0.682106
 20
0.507102
  0
SEQEND
  8
0
  0
POLYLINE
  8
PLAN_1
  6
CONTINUOUS
 66
     1
 40
0.008287
 41
0.008287
  0
VERTEX
  8
PLAN_1
  6
CONTINUOUS
 10
-0.941685
 20
0.052512
  0
VERTEX
  8
PLAN_1
  6
CONTINUOUS
 10
-0.941685
 20
0.507102
  0
VERTEX
  8
PLAN_1
  6
CONTINUOUS
 10
-1.480476
 20
0.507102
  0
VERTEX
  8
PLAN_1
  6
CONTINUOUS
 10
-1.480476
 20
0.052512
  0
VERTEX
  8
PLAN_1
  6
CONTINUOUS
 10
-0.941685
 20
0.052512
  0
SEQEND
  8
0
  0
POLYLINE
  8
PLAN_1
 62
     5
  6
CONTINUOUS
 66
     1
 40
0.003000
 41
0.003000
  0
VERTEX
  8
PLAN_1
 62
     5
  6
CONTINUOUS
 10
-2.001819
 20
-0.145118
  0
VERTEX
  8
PLAN_1
 62
     5
  6
CONTINUOUS
 10
-2.001819
 20
-0.136827
  0
SEQEND
  8
0
  0
POLYLINE
  8
PLAN_1
 62
     5
  6
CONTINUOUS
 66
     1
 40
0.003000
 41
0.003000
  0
VERTEX
  8
PLAN_1
 62
     5
  6
CONTINUOUS
 10
-2.001819
 20
-0.128539
  0
VERTEX
  8
PLAN_1
 62
     5
  6
CONTINUOUS
 10
-2.001819
 20
-0.120252
  0
SEQEND
  8
0
  0
POLYLINE
  8
PLAN_1
 62
     5
  6
CONTINUOUS
 66
     1
 40
0.003000
 41
0.003000
  0
VERTEX
  8
PLAN_1
 62
     5
  6
CONTINUOUS
 10
-2.001819
 20
-0.111961
  0
VERTEX
  8
PLAN_1
 62
     5
  6
CONTINUOUS
 10
-2.001819
 20
-0.103673
  0
SEQEND
  8
0
  0
POLYLINE
  8
PLAN_1
 62
     5
  6
CONTINUOUS
 66
     1
 40
0.003000
 41
0.003000
  0
VERTEX
  8
PLAN_1
 62
     5
  6
CONTINUOUS
 10
-2.001819
 20
-0.094949
  0
VERTEX
  8
PLAN_1
 62
     5
  6
CONTINUOUS
 10
-2.001819
 20
-0.086657
  0
SEQEND
  8
0
  0
POLYLINE
  8
PLAN_1
 62
     5
  6
CONTINUOUS
 66
     1
 40
0.003000
 41
0.003000
  0
VERTEX
  8
PLAN_1
 62
     5
  6
CONTINUOUS
 10
-2.001819
 20
-0.078370
  0
VERTEX
  8
PLAN_1
 62
     5
  6
CONTINUOUS
 10
-2.001819
 20
-0.070079
  0
SEQEND
  8
0
  0
POLYLINE
  8
PLAN_1
 62
     5
  6
CONTINUOUS
 66
     1
 40
0.003000
 41
0.003000
  0
VERTEX
  8
PLAN_1
 62
     5
  6
CONTINUOUS
 10
-2.001819
 20
-0.061791
  0
VERTEX
  8
PLAN_1
 62
     5
  6
CONTINUOUS
 10
-2.001819
 20
-0.053500
  0
SEQEND
  8
0
  0
POLYLINE
  8
PLAN_1
 62
     5
  6
CONTINUOUS
 66
     1
 40
0.003000
 41
0.003000
  0
VERTEX
  8
PLAN_1
 62
     5
  6
CONTINUOUS
 10
-2.001819
 20
-0.045213
  0
VERTEX
  8
PLAN_1
 62
     5
  6
CONTINUOUS
 10
-2.001819
 20
-0.036921
  0
SEQEND
  8
0
  0
POLYLINE
  8
PLAN_1
 62
     5
  6
CONTINUOUS
 66
     1
 40
0.003000
 41
0.003000
  0
VERTEX
  8
PLAN_1
 62
     5
  6
CONTINUOUS
 10
-2.001819
 20
-0.028634
  0
VERTEX
  8
PLAN_1
 62
     5
  6
CONTINUOUS
 10
-2.001819
 20
-0.020346
  0
SEQEND
  8
0
  0
POLYLINE
  8
PLAN_1
 62
     5
  6
CONTINUOUS
 66
     1
 40
0.003000
 41
0.003000
  0
VERTEX
  8
PLAN_1
 62
     5
  6
CONTINUOUS
 10
-2.001819
 20
-0.012055
  0
VERTEX
  8
PLAN_1
 62
     5
  6
CONTINUOUS
 10
-2.001819
 20
-0.003768
  0
SEQEND
  8
0
  0
POLYLINE
  8
PLAN_1
 62
     5
  6
CONTINUOUS
 66
     1
 40
0.003000
 41
0.003000
  0
VERTEX
  8
PLAN_1
 62
     5
  6
CONTINUOUS
 10
-2.001819
 20
0.004957
  0
VERTEX
  8
PLAN_1
 62
     5
  6
CONTINUOUS
 10
-2.001819
 20
0.013248
  0
SEQEND
  8
0
  0
POLYLINE
  8
PLAN_1
 62
     5
  6
CONTINUOUS
 66
     1
 40
0.003000
 41
0.003000
  0
VERTEX
  8
PLAN_1
 62
     5
  6
CONTINUOUS
 10
-2.001819
 20
0.021535
  0
VERTEX
  8
PLAN_1
 62
     5
  6
CONTINUOUS
 10
-2.001819
 20
0.029827
  0
SEQEND
  8
0
  0
POLYLINE
  8
PLAN_1
 62
     5
  6
CONTINUOUS
 66
     1
 40
0.003000
 41
0.003000
  0
VERTEX
  8
PLAN_1
 62
     5
  6
CONTINUOUS
 10
-2.001819
 20
0.038114
  0
VERTEX
  8
PLAN_1
 62
     5
  6
CONTINUOUS
 10
-2.001819
 20
0.046406
  0
SEQEND
  8
0
  0
POLYLINE
  8
PLAN_1
 62
     5
  6
CONTINUOUS
 66
     1
 40
0.003000
 41
0.003000
  0
VERTEX
  8
PLAN_1
 62
     5
  6
CONTINUOUS
 10
-2.001819
 20
0.054693
  0
VERTEX
  8
PLAN_1
 62
     5
  6
CONTINUOUS
 10
-2.001819
 20
0.062984
  0
SEQEND
  8
0
  0
POLYLINE
  8
PLAN_1
 62
     5
  6
CONTINUOUS
 66
     1
 40
0.003000
 41
0.003000
  0
VERTEX
  8
PLAN_1
 62
     5
  6
CONTINUOUS
 10
-2.001819
 20
0.071272
  0
VERTEX
  8
PLAN_1
 62
     5
  6
CONTINUOUS
 10
-2.001819
 20
0.079559
  0
SEQEND
  8
0
  0
POLYLINE
  8
PLAN_1
 62
     5
  6
CONTINUOUS
 66
     1
 40
0.003000
 41
0.003000
  0
VERTEX
  8
PLAN_1
 62
     5
  6
CONTINUOUS
 10
-2.001819
 20
0.087850
  0
VERTEX
  8
PLAN_1
 62
     5
  6
CONTINUOUS
 10
-2.001819
 20
0.096575
  0
SEQEND
  8
0
  0
POLYLINE
  8
PLAN_1
 62
     5
  6
CONTINUOUS
 66
     1
 40
0.003000
 41
0.003000
  0
VERTEX
  8
PLAN_1
 62
     5
  6
CONTINUOUS
 10
-2.001819
 20
0.104862
  0
VERTEX
  8
PLAN_1
 62
     5
  6
CONTINUOUS
 10
-2.001819
 20
0.113154
  0
SEQEND
  8
0
  0
POLYLINE
  8
PLAN_1
 62
     5
  6
CONTINUOUS
 66
     1
 40
0.003000
 41
0.003000
  0
VERTEX
  8
PLAN_1
 62
     5
  6
CONTINUOUS
 10
-2.001819
 20
0.121441
  0
VERTEX
  8
PLAN_1
 62
     5
  6
CONTINUOUS
 10
-2.001819
 20
0.129732
  0
SEQEND
  8
0
  0
POLYLINE
  8
PLAN_1
 62
     5
  6
CONTINUOUS
 66
     1
 40
0.003000
 41
0.003000
  0
VERTEX
  8
PLAN_1
 62
     5
  6
CONTINUOUS
 10
-2.001819
 20
0.138020
  0
VERTEX
  8
PLAN_1
 62
     5
  6
CONTINUOUS
 10
-2.001819
 20
0.146311
  0
SEQEND
  8
0
  0
POLYLINE
  8
PLAN_1
 62
     5
  6
CONTINUOUS
 66
     1
 40
0.003000
 41
0.003000
  0
VERTEX
  8
PLAN_1
 62
     5
  6
CONTINUOUS
 10
-2.001819
 20
0.154598
  0
VERTEX
  8
PLAN_1
 62
     5
  6
CONTINUOUS
 10
-2.001819
 20
0.162890
  0
SEQEND
  8
0
  0
POLYLINE
  8
PLAN_1
 62
     5
  6
CONTINUOUS
 66
     1
 40
0.003000
 41
0.003000
  0
VERTEX
  8
PLAN_1
 62
     5
  6
CONTINUOUS
 10
-2.001819
 20
0.171177
  0
VERTEX
  8
PLAN_1
 62
     5
  6
CONTINUOUS
 10
-2.001819
 20
0.179465
  0
SEQEND
  8
0
  0
POLYLINE
  8
PLAN_1
 62
     5
  6
CONTINUOUS
 66
     1
 40
0.003000
 41
0.003000
  0
VERTEX
  8
PLAN_1
 62
     5
  6
CONTINUOUS
 10
-2.001819
 20
0.188193
  0
VERTEX
  8
PLAN_1
 62
     5
  6
CONTINUOUS
 10
-2.001819
 20
0.196480
  0
SEQEND
  8
0
  0
POLYLINE
  8
PLAN_1
 62
     5
  6
CONTINUOUS
 66
     1
 40
0.003000
 41
0.003000
  0
VERTEX
  8
PLAN_1
 62
     5
  6
CONTINUOUS
 10
-2.001819
 20
0.204768
  0
VERTEX
  8
PLAN_1
 62
     5
  6
CONTINUOUS
 10
-2.001819
 20
0.213059
  0
SEQEND
  8
0
  0
POLYLINE
  8
PLAN_1
 62
     5
  6
CONTINUOUS
 66
     1
 40
0.003000
 41
0.003000
  0
VERTEX
  8
PLAN_1
 62
     5
  6
CONTINUOUS
 10
-2.001819
 20
0.221346
  0
VERTEX
  8
PLAN_1
 62
     5
  6
CONTINUOUS
 10
-2.001819
 20
0.229638
  0
SEQEND
  8
0
  0
POLYLINE
  8
PLAN_1
 62
     5
  6
CONTINUOUS
 66
     1
 40
0.003000
 41
0.003000
  0
VERTEX
  8
PLAN_1
 62
     5
  6
CONTINUOUS
 10
-2.001819
 20
0.237925
  0
VERTEX
  8
PLAN_1
 62
     5
  6
CONTINUOUS
 10
-2.001819
 20
0.246217
  0
SEQEND
  8
0
  0
POLYLINE
  8
PLAN_1
 62
     5
  6
CONTINUOUS
 66
     1
 40
0.003000
 41
0.003000
  0
VERTEX
  8
PLAN_1
 62
     5
  6
CONTINUOUS
 10
-2.001819
 20
0.254504
  0
VERTEX
  8
PLAN_1
 62
     5
  6
CONTINUOUS
 10
-2.001819
 20
0.262795
  0
SEQEND
  8
0
  0
POLYLINE
  8
PLAN_1
 62
     5
  6
CONTINUOUS
 66
     1
 40
0.003000
 41
0.003000
  0
VERTEX
  8
PLAN_1
 62
     5
  6
CONTINUOUS
 10
-2.001819
 20
0.271083
  0
VERTEX
  8
PLAN_1
 62
     5
  6
CONTINUOUS
 10
-2.001819
 20
0.279370
  0
SEQEND
  8
0
  0
POLYLINE
  8
PLAN_1
 62
     5
  6
CONTINUOUS
 66
     1
 40
0.003000
 41
0.003000
  0
VERTEX
  8
PLAN_1
 62
     5
  6
CONTINUOUS
 10
-2.001819
 20
0.288098
  0
VERTEX
  8
PLAN_1
 62
     5
  6
CONTINUOUS
 10
-2.001819
 20
0.296386
  0
SEQEND
  8
0
  0
POLYLINE
  8
PLAN_1
 62
     5
  6
CONTINUOUS
 66
     1
 40
0.003000
 41
0.003000
  0
VERTEX
  8
PLAN_1
 62
     5
  6
CONTINUOUS
 10
-2.001819
 20
0.304673
  0
VERTEX
  8
PLAN_1
 62
     5
  6
CONTINUOUS
 10
-2.001819
 20
0.312965
  0
SEQEND
  8
0
  0
POLYLINE
  8
PLAN_1
 62
     5
  6
CONTINUOUS
 66
     1
 40
0.003000
 41
0.003000
  0
VERTEX
  8
PLAN_1
 62
     5
  6
CONTINUOUS
 10
-2.001819
 20
0.321252
  0
VERTEX
  8
PLAN_1
 62
     5
  6
CONTINUOUS
 10
-2.001819
 20
0.329543
  0
SEQEND
  8
0
  0
POLYLINE
  8
PLAN_1
 62
     5
  6
CONTINUOUS
 66
     1
 40
0.003000
 41
0.003000
  0
VERTEX
  8
PLAN_1
 62
     5
  6
CONTINUOUS
 10
-2.001819
 20
0.337831
  0
VERTEX
  8
PLAN_1
 62
     5
  6
CONTINUOUS
 10
-2.001819
 20
0.346122
  0
SEQEND
  8
0
  0
POLYLINE
  8
PLAN_1
 62
     5
  6
CONTINUOUS
 66
     1
 40
0.003000
 41
0.003000
  0
VERTEX
  8
PLAN_1
 62
     5
  6
CONTINUOUS
 10
-2.001819
 20
0.354409
  0
VERTEX
  8
PLAN_1
 62
     5
  6
CONTINUOUS
 10
-2.001819
 20
0.362701
  0
SEQEND
  8
0
  0
POLYLINE
  8
PLAN_1
 62
     5
  6
CONTINUOUS
 66
     1
 40
0.003000
 41
0.003000
  0
VERTEX
  8
PLAN_1
 62
     5
  6
CONTINUOUS
 10
-2.001819
 20
0.370988
  0
VERTEX
  8
PLAN_1
 62
     5
  6
CONTINUOUS
 10
-2.001819
 20
0.379713
  0
SEQEND
  8
0
  0
POLYLINE
  8
PLAN_1
 62
     5
  6
CONTINUOUS
 66
     1
 40
0.003000
 41
0.003000
  0
VERTEX
  8
PLAN_1
 62
     5
  6
CONTINUOUS
 10
-2.001819
 20
0.388004
  0
VERTEX
  8
PLAN_1
 62
     5
  6
CONTINUOUS
 10
-2.001819
 20
0.396291
  0
SEQEND
  8
0
  0
POLYLINE
  8
PLAN_1
 62
     5
  6
CONTINUOUS
 66
     1
 40
0.003000
 41
0.003000
  0
VERTEX
  8
PLAN_1
 62
     5
  6
CONTINUOUS
 10
-2.001819
 20
0.404583
  0
VERTEX
  8
PLAN_1
 62
     5
  6
CONTINUOUS
 10
-2.001819
 20
0.412870
  0
SEQEND
  8
0
  0
POLYLINE
  8
PLAN_1
 62
     5
  6
CONTINUOUS
 66
     1
 40
0.003000
 41
0.003000
  0
VERTEX
  8
PLAN_1
 62
     5
  6
CONTINUOUS
 10
-2.001819
 20
0.421157
  0
VERTEX
  8
PLAN_1
 62
     5
  6
CONTINUOUS
 10
-2.001819
 20
0.429449
  0
SEQEND
  8
0
  0
POLYLINE
  8
PLAN_1
 62
     5
  6
CONTINUOUS
 66
     1
 40
0.003000
 41
0.003000
  0
VERTEX
  8
PLAN_1
 62
     5
  6
CONTINUOUS
 10
-2.001819
 20
0.437736
  0
VERTEX
  8
PLAN_1
 62
     5
  6
CONTINUOUS
 10
-2.001819
 20
0.446028
  0
SEQEND
  8
0
  0
POLYLINE
  8
PLAN_1
 62
     5
  6
CONTINUOUS
 66
     1
 40
0.003000
 41
0.003000
  0
VERTEX
  8
PLAN_1
 62
     5
  6
CONTINUOUS
 10
-2.001819
 20
0.454315
  0
VERTEX
  8
PLAN_1
 62
     5
  6
CONTINUOUS
 10
-2.001819
 20
0.462606
  0
SEQEND
  8
0
  0
POLYLINE
  8
PLAN_1
 62
     5
  6
CONTINUOUS
 66
     1
 40
0.003000
 41
0.003000
  0
VERTEX
  8
PLAN_1
 62
     5
  6
CONTINUOUS
 10
-2.001819
 20
0.471331
  0
VERTEX
  8
PLAN_1
 62
     5
  6
CONTINUOUS
 10
-2.001819
 20
0.479618
  0
SEQEND
  8
0
  0
POLYLINE
  8
PLAN_1
 62
     5
  6
CONTINUOUS
 66
     1
 40
0.003000
 41
0.003000
  0
VERTEX
  8
PLAN_1
 62
     5
  6
CONTINUOUS
 10
-2.001819
 20
0.487909
  0
VERTEX
  8
PLAN_1
 62
     5
  6
CONTINUOUS
 10
-2.001819
 20
0.496197
  0
SEQEND
  8
0
  0
POLYLINE
  8
PLAN_1
 62
     5
  6
CONTINUOUS
 66
     1
 40
0.003000
 41
0.003000
  0
VERTEX
  8
PLAN_1
 62
     5
  6
CONTINUOUS
 10
-2.001819
 20
0.504488
  0
VERTEX
  8
PLAN_1
 62
     5
  6
CONTINUOUS
 10
-2.001819
 20
0.512776
  0
SEQEND
  8
0
  0
POLYLINE
  8
PLAN_1
 62
     5
  6
CONTINUOUS
 66
     1
 40
0.003000
 41
0.003000
  0
VERTEX
  8
PLAN_1
 62
     5
  6
CONTINUOUS
 10
-2.001819
 20
0.521063
  0
VERTEX
  8
PLAN_1
 62
     5
  6
CONTINUOUS
 10
-2.001819
 20
0.529354
  0
SEQEND
  8
0
  0
POLYLINE
  8
PLAN_1
 62
     5
  6
CONTINUOUS
 66
     1
 40
0.003000
 41
0.003000
  0
VERTEX
  8
PLAN_1
 62
     5
  6
CONTINUOUS
 10
-1.995276
 20
0.531098
  0
VERTEX
  8
PLAN_1
 62
     5
  6
CONTINUOUS
 10
-1.986984
 20
0.531098
  0
SEQEND
  8
0
  0
POLYLINE
  8
PLAN_1
 62
     5
  6
CONTINUOUS
 66
     1
 40
0.003000
 41
0.003000
  0
VERTEX
  8
PLAN_1
 62
     5
  6
CONTINUOUS
 10
-1.978697
 20
0.531098
  0
VERTEX
  8
PLAN_1
 62
     5
  6
CONTINUOUS
 10
-1.969972
 20
0.531098
  0
SEQEND
  8
0
  0
POLYLINE
  8
PLAN_1
 62
     5
  6
CONTINUOUS
 66
     1
 40
0.003000
 41
0.003000
  0
VERTEX
  8
PLAN_1
 62
     5
  6
CONTINUOUS
 10
-1.961681
 20
0.531098
  0
VERTEX
  8
PLAN_1
 62
     5
  6
CONTINUOUS
 10
-1.953394
 20
0.531098
  0
SEQEND
  8
0
  0
POLYLINE
  8
PLAN_1
 62
     5
  6
CONTINUOUS
 66
     1
 40
0.003000
 41
0.003000
  0
VERTEX
  8
PLAN_1
 62
     5
  6
CONTINUOUS
 10
-1.945102
 20
0.531098
  0
VERTEX
  8
PLAN_1
 62
     5
  6
CONTINUOUS
 10
-1.936815
 20
0.531098
  0
SEQEND
  8
0
  0
POLYLINE
  8
PLAN_1
 62
     5
  6
CONTINUOUS
 66
     1
 40
0.003000
 41
0.003000
  0
VERTEX
  8
PLAN_1
 62
     5
  6
CONTINUOUS
 10
-1.928524
 20
0.531098
  0
VERTEX
  8
PLAN_1
 62
     5
  6
CONTINUOUS
 10
-1.920236
 20
0.531098
  0
SEQEND
  8
0
  0
POLYLINE
  8
PLAN_1
 62
     5
  6
CONTINUOUS
 66
     1
 40
0.003000
 41
0.003000
  0
VERTEX
  8
PLAN_1
 62
     5
  6
CONTINUOUS
 10
-1.911949
 20
0.531098
  0
VERTEX
  8
PLAN_1
 62
     5
  6
CONTINUOUS
 10
-1.903657
 20
0.531098
  0
SEQEND
  8
0
  0
POLYLINE
  8
PLAN_1
 62
     5
  6
CONTINUOUS
 66
     1
 40
0.003000
 41
0.003000
  0
VERTEX
  8
PLAN_1
 62
     5
  6
CONTINUOUS
 10
-1.895370
 20
0.531098
  0
VERTEX
  8
PLAN_1
 62
     5
  6
CONTINUOUS
 10
-1.887079
 20
0.531098
  0
SEQEND
  8
0
  0
POLYLINE
  8
PLAN_1
 62
     5
  6
CONTINUOUS
 66
     1
 40
0.003000
 41
0.003000
  0
VERTEX
  8
PLAN_1
 62
     5
  6
CONTINUOUS
 10
-1.878354
 20
0.531098
  0
VERTEX
  8
PLAN_1
 62
     5
  6
CONTINUOUS
 10
-1.870067
 20
0.531098
  0
SEQEND
  8
0
  0
POLYLINE
  8
PLAN_1
 62
     5
  6
CONTINUOUS
 66
     1
 40
0.003000
 41
0.003000
  0
VERTEX
  8
PLAN_1
 62
     5
  6
CONTINUOUS
 10
-1.861776
 20
0.531098
  0
VERTEX
  8
PLAN_1
 62
     5
  6
CONTINUOUS
 10
-1.853488
 20
0.531098
  0
SEQEND
  8
0
  0
POLYLINE
  8
PLAN_1
 62
     5
  6
CONTINUOUS
 66
     1
 40
0.003000
 41
0.003000
  0
VERTEX
  8
PLAN_1
 62
     5
  6
CONTINUOUS
 10
-1.845197
 20
0.531098
  0
VERTEX
  8
PLAN_1
 62
     5
  6
CONTINUOUS
 10
-1.836909
 20
0.531098
  0
SEQEND
  8
0
  0
POLYLINE
  8
PLAN_1
 62
     5
  6
CONTINUOUS
 66
     1
 40
0.003000
 41
0.003000
  0
VERTEX
  8
PLAN_1
 62
     5
  6
CONTINUOUS
 10
-1.828618
 20
0.531098
  0
VERTEX
  8
PLAN_1
 62
     5
  6
CONTINUOUS
 10
-1.820331
 20
0.531098
  0
SEQEND
  8
0
  0
POLYLINE
  8
PLAN_1
 62
     5
  6
CONTINUOUS
 66
     1
 40
0.003000
 41
0.003000
  0
VERTEX
  8
PLAN_1
 62
     5
  6
CONTINUOUS
 10
-1.812043
 20
0.531098
  0
VERTEX
  8
PLAN_1
 62
     5
  6
CONTINUOUS
 10
-1.803752
 20
0.531098
  0
SEQEND
  8
0
  0
POLYLINE
  8
PLAN_1
 62
     5
  6
CONTINUOUS
 66
     1
 40
0.003000
 41
0.003000
  0
VERTEX
  8
PLAN_1
 62
     5
  6
CONTINUOUS
 10
-1.795465
 20
0.531098
  0
VERTEX
  8
PLAN_1
 62
     5
  6
CONTINUOUS
 10
-1.787173
 20
0.531098
  0
SEQEND
  8
0
  0
POLYLINE
  8
PLAN_1
 62
     5
  6
CONTINUOUS
 66
     1
 40
0.003000
 41
0.003000
  0
VERTEX
  8
PLAN_1
 62
     5
  6
CONTINUOUS
 10
-1.778449
 20
0.531098
  0
VERTEX
  8
PLAN_1
 62
     5
  6
CONTINUOUS
 10
-1.770161
 20
0.531098
  0
SEQEND
  8
0
  0
POLYLINE
  8
PLAN_1
 62
     5
  6
CONTINUOUS
 66
     1
 40
0.003000
 41
0.003000
  0
VERTEX
  8
PLAN_1
 62
     5
  6
CONTINUOUS
 10
-1.761870
 20
0.531098
  0
VERTEX
  8
PLAN_1
 62
     5
  6
CONTINUOUS
 10
-1.753583
 20
0.531098
  0
SEQEND
  8
0
  0
POLYLINE
  8
PLAN_1
 62
     5
  6
CONTINUOUS
 66
     1
 40
0.003000
 41
0.003000
  0
VERTEX
  8
PLAN_1
 62
     5
  6
CONTINUOUS
 10
-1.745291
 20
0.531098
  0
VERTEX
  8
PLAN_1
 62
     5
  6
CONTINUOUS
 10
-1.737004
 20
0.531098
  0
SEQEND
  8
0
  0
POLYLINE
  8
PLAN_1
 62
     5
  6
CONTINUOUS
 66
     1
 40
0.003000
 41
0.003000
  0
VERTEX
  8
PLAN_1
 62
     5
  6
CONTINUOUS
 10
-1.728713
 20
0.531098
  0
VERTEX
  8
PLAN_1
 62
     5
  6
CONTINUOUS
 10
-1.720425
 20
0.531098
  0
SEQEND
  8
0
  0
POLYLINE
  8
PLAN_1
 62
     5
  6
CONTINUOUS
 66
     1
 40
0.003000
 41
0.003000
  0
VERTEX
  8
PLAN_1
 62
     5
  6
CONTINUOUS
 10
-1.712138
 20
0.531098
  0
VERTEX
  8
PLAN_1
 62
     5
  6
CONTINUOUS
 10
-1.703846
 20
0.531098
  0
SEQEND
  8
0
  0
POLYLINE
  8
PLAN_1
 62
     5
  6
CONTINUOUS
 66
     1
 40
0.003000
 41
0.003000
  0
VERTEX
  8
PLAN_1
 62
     5
  6
CONTINUOUS
 10
-1.695559
 20
0.531098
  0
VERTEX
  8
PLAN_1
 62
     5
  6
CONTINUOUS
 10
-1.686835
 20
0.531098
  0
SEQEND
  8
0
  0
POLYLINE
  8
PLAN_1
 62
     5
  6
CONTINUOUS
 66
     1
 40
0.003000
 41
0.003000
  0
VERTEX
  8
PLAN_1
 62
     5
  6
CONTINUOUS
 10
-1.678543
 20
0.531098
  0
VERTEX
  8
PLAN_1
 62
     5
  6
CONTINUOUS
 10
-1.670256
 20
0.531098
  0
SEQEND
  8
0
  0
POLYLINE
  8
PLAN_1
 62
     5
  6
CONTINUOUS
 66
     1
 40
0.003000
 41
0.003000
  0
VERTEX
  8
PLAN_1
 62
     5
  6
CONTINUOUS
 10
-1.661965
 20
0.531098
  0
VERTEX
  8
PLAN_1
 62
     5
  6
CONTINUOUS
 10
-1.653677
 20
0.531098
  0
SEQEND
  8
0
  0
POLYLINE
  8
PLAN_1
 62
     5
  6
CONTINUOUS
 66
     1
 40
0.003000
 41
0.003000
  0
VERTEX
  8
PLAN_1
 62
     5
  6
CONTINUOUS
 10
-1.645386
 20
0.531098
  0
VERTEX
  8
PLAN_1
 62
     5
  6
CONTINUOUS
 10
-1.637098
 20
0.531098
  0
SEQEND
  8
0
  0
POLYLINE
  8
PLAN_1
 62
     5
  6
CONTINUOUS
 66
     1
 40
0.003000
 41
0.003000
  0
VERTEX
  8
PLAN_1
 62
     5
  6
CONTINUOUS
 10
-1.628807
 20
0.531098
  0
VERTEX
  8
PLAN_1
 62
     5
  6
CONTINUOUS
 10
-1.620520
 20
0.531098
  0
SEQEND
  8
0
  0
POLYLINE
  8
PLAN_1
 62
     5
  6
CONTINUOUS
 66
     1
 40
0.003000
 41
0.003000
  0
VERTEX
  8
PLAN_1
 62
     5
  6
CONTINUOUS
 10
-1.612232
 20
0.531098
  0
VERTEX
  8
PLAN_1
 62
     5
  6
CONTINUOUS
 10
-1.603941
 20
0.531098
  0
SEQEND
  8
0
  0
POLYLINE
  8
PLAN_1
 62
     5
  6
CONTINUOUS
 66
     1
 40
0.003000
 41
0.003000
  0
VERTEX
  8
PLAN_1
 62
     5
  6
CONTINUOUS
 10
-1.595217
 20
0.531098
  0
VERTEX
  8
PLAN_1
 62
     5
  6
CONTINUOUS
 10
-1.586929
 20
0.531098
  0
SEQEND
  8
0
  0
POLYLINE
  8
PLAN_1
 62
     5
  6
CONTINUOUS
 66
     1
 40
0.003000
 41
0.003000
  0
VERTEX
  8
PLAN_1
 62
     5
  6
CONTINUOUS
 10
-1.578638
 20
0.531098
  0
VERTEX
  8
PLAN_1
 62
     5
  6
CONTINUOUS
 10
-1.570350
 20
0.531098
  0
SEQEND
  8
0
  0
POLYLINE
  8
PLAN_1
 62
     5
  6
CONTINUOUS
 66
     1
 40
0.003000
 41
0.003000
  0
VERTEX
  8
PLAN_1
 62
     5
  6
CONTINUOUS
 10
-1.562059
 20
0.531098
  0
VERTEX
  8
PLAN_1
 62
     5
  6
CONTINUOUS
 10
-1.553772
 20
0.531098
  0
SEQEND
  8
0
  0
POLYLINE
  8
PLAN_1
 62
     5
  6
CONTINUOUS
 66
     1
 40
0.003000
 41
0.003000
  0
VERTEX
  8
PLAN_1
 62
     5
  6
CONTINUOUS
 10
-1.545480
 20
0.531098
  0
VERTEX
  8
PLAN_1
 62
     5
  6
CONTINUOUS
 10
-1.537193
 20
0.531098
  0
SEQEND
  8
0
  0
POLYLINE
  8
PLAN_1
 62
     5
  6
CONTINUOUS
 66
     1
 40
0.003000
 41
0.003000
  0
VERTEX
  8
PLAN_1
 62
     5
  6
CONTINUOUS
 10
-1.528902
 20
0.531098
  0
VERTEX
  8
PLAN_1
 62
     5
  6
CONTINUOUS
 10
-1.520614
 20
0.531098
  0
SEQEND
  8
0
  0
POLYLINE
  8
PLAN_1
 62
     5
  6
CONTINUOUS
 66
     1
 40
0.003000
 41
0.003000
  0
VERTEX
  8
PLAN_1
 62
     5
  6
CONTINUOUS
 10
-1.512327
 20
0.531098
  0
VERTEX
  8
PLAN_1
 62
     5
  6
CONTINUOUS
 10
-1.504035
 20
0.531098
  0
SEQEND
  8
0
  0
POLYLINE
  8
PLAN_1
 62
     5
  6
CONTINUOUS
 66
     1
 40
0.003000
 41
0.003000
  0
VERTEX
  8
PLAN_1
 62
     5
  6
CONTINUOUS
 10
-1.495311
 20
0.531098
  0
VERTEX
  8
PLAN_1
 62
     5
  6
CONTINUOUS
 10
-1.487024
 20
0.531098
  0
SEQEND
  8
0
  0
POLYLINE
  8
PLAN_1
 62
     5
  6
CONTINUOUS
 66
     1
 40
0.003000
 41
0.003000
  0
VERTEX
  8
PLAN_1
 62
     5
  6
CONTINUOUS
 10
-1.478732
 20
0.531098
  0
VERTEX
  8
PLAN_1
 62
     5
  6
CONTINUOUS
 10
-1.470445
 20
0.531098
  0
SEQEND
  8
0
  0
POLYLINE
  8
PLAN_1
 62
     5
  6
CONTINUOUS
 66
     1
 40
0.003000
 41
0.003000
  0
VERTEX
  8
PLAN_1
 62
     5
  6
CONTINUOUS
 10
-1.462154
 20
0.531098
  0
VERTEX
  8
PLAN_1
 62
     5
  6
CONTINUOUS
 10
-1.453866
 20
0.531098
  0
SEQEND
  8
0
  0
POLYLINE
  8
PLAN_1
 62
     5
  6
CONTINUOUS
 66
     1
 40
0.003000
 41
0.003000
  0
VERTEX
  8
PLAN_1
 62
     5
  6
CONTINUOUS
 10
-1.445575
 20
0.531098
  0
VERTEX
  8
PLAN_1
 62
     5
  6
CONTINUOUS
 10
-1.437287
 20
0.531098
  0
SEQEND
  8
0
  0
POLYLINE
  8
PLAN_1
 62
     5
  6
CONTINUOUS
 66
     1
 40
0.003000
 41
0.003000
  0
VERTEX
  8
PLAN_1
 62
     5
  6
CONTINUOUS
 10
-1.428996
 20
0.531098
  0
VERTEX
  8
PLAN_1
 62
     5
  6
CONTINUOUS
 10
-1.420709
 20
0.531098
  0
SEQEND
  8
0
  0
POLYLINE
  8
PLAN_1
 62
     5
  6
CONTINUOUS
 66
     1
 40
0.003000
 41
0.003000
  0
VERTEX
  8
PLAN_1
 62
     5
  6
CONTINUOUS
 10
-1.412421
 20
0.531098
  0
VERTEX
  8
PLAN_1
 62
     5
  6
CONTINUOUS
 10
-1.403693
 20
0.531098
  0
SEQEND
  8
0
  0
POLYLINE
  8
PLAN_1
 62
     5
  6
CONTINUOUS
 66
     1
 40
0.003000
 41
0.003000
  0
VERTEX
  8
PLAN_1
 62
     5
  6
CONTINUOUS
 10
-1.395406
 20
0.531098
  0
VERTEX
  8
PLAN_1
 62
     5
  6
CONTINUOUS
 10
-1.387118
 20
0.531098
  0
SEQEND
  8
0
  0
POLYLINE
  8
PLAN_1
 62
     5
  6
CONTINUOUS
 66
     1
 40
0.003000
 41
0.003000
  0
VERTEX
  8
PLAN_1
 62
     5
  6
CONTINUOUS
 10
-1.378827
 20
0.531098
  0
VERTEX
  8
PLAN_1
 62
     5
  6
CONTINUOUS
 10
-1.370539
 20
0.531098
  0
SEQEND
  8
0
  0
POLYLINE
  8
PLAN_1
 62
     5
  6
CONTINUOUS
 66
     1
 40
0.003000
 41
0.003000
  0
VERTEX
  8
PLAN_1
 62
     5
  6
CONTINUOUS
 10
-1.362248
 20
0.531098
  0
VERTEX
  8
PLAN_1
 62
     5
  6
CONTINUOUS
 10
-1.353961
 20
0.531098
  0
SEQEND
  8
0
  0
POLYLINE
  8
PLAN_1
 62
     5
  6
CONTINUOUS
 66
     1
 40
0.003000
 41
0.003000
  0
VERTEX
  8
PLAN_1
 62
     5
  6
CONTINUOUS
 10
-1.345669
 20
0.531098
  0
VERTEX
  8
PLAN_1
 62
     5
  6
CONTINUOUS
 10
-1.337382
 20
0.531098
  0
SEQEND
  8
0
  0
POLYLINE
  8
PLAN_1
 62
     5
  6
CONTINUOUS
 66
     1
 40
0.003000
 41
0.003000
  0
VERTEX
  8
PLAN_1
 62
     5
  6
CONTINUOUS
 10
-1.329091
 20
0.531098
  0
VERTEX
  8
PLAN_1
 62
     5
  6
CONTINUOUS
 10
-1.320803
 20
0.531098
  0
SEQEND
  8
0
  0
POLYLINE
  8
PLAN_1
 62
     5
  6
CONTINUOUS
 66
     1
 40
0.003000
 41
0.003000
  0
VERTEX
  8
PLAN_1
 62
     5
  6
CONTINUOUS
 10
-1.312079
 20
0.531098
  0
VERTEX
  8
PLAN_1
 62
     5
  6
CONTINUOUS
 10
-1.303787
 20
0.531098
  0
SEQEND
  8
0
  0
POLYLINE
  8
PLAN_1
 62
     5
  6
CONTINUOUS
 66
     1
 40
0.003000
 41
0.003000
  0
VERTEX
  8
PLAN_1
 62
     5
  6
CONTINUOUS
 10
-1.295500
 20
0.531098
  0
VERTEX
  8
PLAN_1
 62
     5
  6
CONTINUOUS
 10
-1.287209
 20
0.531098
  0
SEQEND
  8
0
  0
POLYLINE
  8
PLAN_1
 62
     5
  6
CONTINUOUS
 66
     1
 40
0.003000
 41
0.003000
  0
VERTEX
  8
PLAN_1
 62
     5
  6
CONTINUOUS
 10
-1.278921
 20
0.531098
  0
VERTEX
  8
PLAN_1
 62
     5
  6
CONTINUOUS
 10
-1.270634
 20
0.531098
  0
SEQEND
  8
0
  0
POLYLINE
  8
PLAN_1
 62
     5
  6
CONTINUOUS
 66
     1
 40
0.003000
 41
0.003000
  0
VERTEX
  8
PLAN_1
 62
     5
  6
CONTINUOUS
 10
-1.262343
 20
0.531098
  0
VERTEX
  8
PLAN_1
 62
     5
  6
CONTINUOUS
 10
-1.254055
 20
0.531098
  0
SEQEND
  8
0
  0
POLYLINE
  8
PLAN_1
 62
     5
  6
CONTINUOUS
 66
     1
 40
0.003000
 41
0.003000
  0
VERTEX
  8
PLAN_1
 62
     5
  6
CONTINUOUS
 10
-1.245764
 20
0.531098
  0
VERTEX
  8
PLAN_1
 62
     5
  6
CONTINUOUS
 10
-1.237476
 20
0.531098
  0
SEQEND
  8
0
  0
POLYLINE
  8
PLAN_1
 62
     5
  6
CONTINUOUS
 66
     1
 40
0.003000
 41
0.003000
  0
VERTEX
  8
PLAN_1
 62
     5
  6
CONTINUOUS
 10
-1.229185
 20
0.531098
  0
VERTEX
  8
PLAN_1
 62
     5
  6
CONTINUOUS
 10
-1.220461
 20
0.531098
  0
SEQEND
  8
0
  0
POLYLINE
  8
PLAN_1
 62
     5
  6
CONTINUOUS
 66
     1
 40
0.003000
 41
0.003000
  0
VERTEX
  8
PLAN_1
 62
     5
  6
CONTINUOUS
 10
-1.212173
 20
0.531098
  0
VERTEX
  8
PLAN_1
 62
     5
  6
CONTINUOUS
 10
-1.203882
 20
0.531098
  0
SEQEND
  8
0
  0
POLYLINE
  8
PLAN_1
 62
     5
  6
CONTINUOUS
 66
     1
 40
0.003000
 41
0.003000
  0
VERTEX
  8
PLAN_1
 62
     5
  6
CONTINUOUS
 10
-1.195594
 20
0.531098
  0
VERTEX
  8
PLAN_1
 62
     5
  6
CONTINUOUS
 10
-1.187303
 20
0.531098
  0
SEQEND
  8
0
  0
POLYLINE
  8
PLAN_1
 62
     5
  6
CONTINUOUS
 66
     1
 40
0.003000
 41
0.003000
  0
VERTEX
  8
PLAN_1
 62
     5
  6
CONTINUOUS
 10
-1.179016
 20
0.531098
  0
VERTEX
  8
PLAN_1
 62
     5
  6
CONTINUOUS
 10
-1.170728
 20
0.531098
  0
SEQEND
  8
0
  0
POLYLINE
  8
PLAN_1
 62
     5
  6
CONTINUOUS
 66
     1
 40
0.003000
 41
0.003000
  0
VERTEX
  8
PLAN_1
 62
     5
  6
CONTINUOUS
 10
-1.162437
 20
0.531098
  0
VERTEX
  8
PLAN_1
 62
     5
  6
CONTINUOUS
 10
-1.154150
 20
0.531098
  0
SEQEND
  8
0
  0
POLYLINE
  8
PLAN_1
 62
     5
  6
CONTINUOUS
 66
     1
 40
0.003000
 41
0.003000
  0
VERTEX
  8
PLAN_1
 62
     5
  6
CONTINUOUS
 10
-1.145858
 20
0.531098
  0
VERTEX
  8
PLAN_1
 62
     5
  6
CONTINUOUS
 10
-1.137571
 20
0.531098
  0
SEQEND
  8
0
  0
POLYLINE
  8
PLAN_1
 62
     5
  6
CONTINUOUS
 66
     1
 40
0.003000
 41
0.003000
  0
VERTEX
  8
PLAN_1
 62
     5
  6
CONTINUOUS
 10
-1.129280
 20
0.531098
  0
VERTEX
  8
PLAN_1
 62
     5
  6
CONTINUOUS
 10
-1.120555
 20
0.531098
  0
SEQEND
  8
0
  0
POLYLINE
  8
PLAN_1
 62
     5
  6
CONTINUOUS
 66
     1
 40
0.003000
 41
0.003000
  0
VERTEX
  8
PLAN_1
 62
     5
  6
CONTINUOUS
 10
-1.112268
 20
0.531098
  0
VERTEX
  8
PLAN_1
 62
     5
  6
CONTINUOUS
 10
-1.103976
 20
0.531098
  0
SEQEND
  8
0
  0
POLYLINE
  8
PLAN_1
 62
     5
  6
CONTINUOUS
 66
     1
 40
0.003000
 41
0.003000
  0
VERTEX
  8
PLAN_1
 62
     5
  6
CONTINUOUS
 10
-1.095689
 20
0.531098
  0
VERTEX
  8
PLAN_1
 62
     5
  6
CONTINUOUS
 10
-1.087398
 20
0.531098
  0
SEQEND
  8
0
  0
POLYLINE
  8
PLAN_1
 62
     5
  6
CONTINUOUS
 66
     1
 40
0.003000
 41
0.003000
  0
VERTEX
  8
PLAN_1
 62
     5
  6
CONTINUOUS
 10
-1.079110
 20
0.531098
  0
VERTEX
  8
PLAN_1
 62
     5
  6
CONTINUOUS
 10
-1.070823
 20
0.531098
  0
SEQEND
  8
0
  0
POLYLINE
  8
PLAN_1
 62
     5
  6
CONTINUOUS
 66
     1
 40
0.003000
 41
0.003000
  0
VERTEX
  8
PLAN_1
 62
     5
  6
CONTINUOUS
 10
-1.062531
 20
0.531098
  0
VERTEX
  8
PLAN_1
 62
     5
  6
CONTINUOUS
 10
-1.054244
 20
0.531098
  0
SEQEND
  8
0
  0
POLYLINE
  8
PLAN_1
 62
     5
  6
CONTINUOUS
 66
     1
 40
0.003000
 41
0.003000
  0
VERTEX
  8
PLAN_1
 62
     5
  6
CONTINUOUS
 10
-1.045953
 20
0.531098
  0
VERTEX
  8
PLAN_1
 62
     5
  6
CONTINUOUS
 10
-1.037665
 20
0.531098
  0
SEQEND
  8
0
  0
POLYLINE
  8
PLAN_1
 62
     5
  6
CONTINUOUS
 66
     1
 40
0.003000
 41
0.003000
  0
VERTEX
  8
PLAN_1
 62
     5
  6
CONTINUOUS
 10
-1.028941
 20
0.531098
  0
VERTEX
  8
PLAN_1
 62
     5
  6
CONTINUOUS
 10
-1.020650
 20
0.531098
  0
SEQEND
  8
0
  0
POLYLINE
  8
PLAN_1
 62
     5
  6
CONTINUOUS
 66
     1
 40
0.003000
 41
0.003000
  0
VERTEX
  8
PLAN_1
 62
     5
  6
CONTINUOUS
 10
-1.012362
 20
0.531098
  0
VERTEX
  8
PLAN_1
 62
     5
  6
CONTINUOUS
 10
-1.004071
 20
0.531098
  0
SEQEND
  8
0
  0
POLYLINE
  8
PLAN_1
 62
     5
  6
CONTINUOUS
 66
     1
 40
0.003000
 41
0.003000
  0
VERTEX
  8
PLAN_1
 62
     5
  6
CONTINUOUS
 10
-0.995783
 20
0.531098
  0
VERTEX
  8
PLAN_1
 62
     5
  6
CONTINUOUS
 10
-0.987492
 20
0.531098
  0
SEQEND
  8
0
  0
POLYLINE
  8
PLAN_1
 62
     5
  6
CONTINUOUS
 66
     1
 40
0.003000
 41
0.003000
  0
VERTEX
  8
PLAN_1
 62
     5
  6
CONTINUOUS
 10
-0.979205
 20
0.531098
  0
VERTEX
  8
PLAN_1
 62
     5
  6
CONTINUOUS
 10
-0.970917
 20
0.531098
  0
SEQEND
  8
0
  0
POLYLINE
  8
PLAN_1
 62
     5
  6
CONTINUOUS
 66
     1
 40
0.003000
 41
0.003000
  0
VERTEX
  8
PLAN_1
 62
     5
  6
CONTINUOUS
 10
-0.962626
 20
0.531098
  0
VERTEX
  8
PLAN_1
 62
     5
  6
CONTINUOUS
 10
-0.954339
 20
0.531098
  0
SEQEND
  8
0
  0
POLYLINE
  8
PLAN_1
 62
     5
  6
CONTINUOUS
 66
     1
 40
0.003000
 41
0.003000
  0
VERTEX
  8
PLAN_1
 62
     5
  6
CONTINUOUS
 10
-0.946047
 20
0.531098
  0
VERTEX
  8
PLAN_1
 62
     5
  6
CONTINUOUS
 10
-0.937323
 20
0.531098
  0
SEQEND
  8
0
  0
POLYLINE
  8
PLAN_1
 62
     5
  6
CONTINUOUS
 66
     1
 40
0.003000
 41
0.003000
  0
VERTEX
  8
PLAN_1
 62
     5
  6
CONTINUOUS
 10
-0.929035
 20
0.531098
  0
VERTEX
  8
PLAN_1
 62
     5
  6
CONTINUOUS
 10
-0.920744
 20
0.531098
  0
SEQEND
  8
0
  0
POLYLINE
  8
PLAN_1
 62
     5
  6
CONTINUOUS
 66
     1
 40
0.003000
 41
0.003000
  0
VERTEX
  8
PLAN_1
 62
     5
  6
CONTINUOUS
 10
-0.912457
 20
0.531098
  0
VERTEX
  8
PLAN_1
 62
     5
  6
CONTINUOUS
 10
-0.904165
 20
0.531098
  0
SEQEND
  8
0
  0
POLYLINE
  8
PLAN_1
 62
     5
  6
CONTINUOUS
 66
     1
 40
0.003000
 41
0.003000
  0
VERTEX
  8
PLAN_1
 62
     5
  6
CONTINUOUS
 10
-0.895878
 20
0.531098
  0
VERTEX
  8
PLAN_1
 62
     5
  6
CONTINUOUS
 10
-0.887587
 20
0.531098
  0
SEQEND
  8
0
  0
POLYLINE
  8
PLAN_1
 62
     5
  6
CONTINUOUS
 66
     1
 40
0.003000
 41
0.003000
  0
VERTEX
  8
PLAN_1
 62
     5
  6
CONTINUOUS
 10
-0.879299
 20
0.531098
  0
VERTEX
  8
PLAN_1
 62
     5
  6
CONTINUOUS
 10
-0.871012
 20
0.531098
  0
SEQEND
  8
0
  0
POLYLINE
  8
PLAN_1
 62
     5
  6
CONTINUOUS
 66
     1
 40
0.003000
 41
0.003000
  0
VERTEX
  8
PLAN_1
 62
     5
  6
CONTINUOUS
 10
-0.862720
 20
0.531098
  0
VERTEX
  8
PLAN_1
 62
     5
  6
CONTINUOUS
 10
-0.854433
 20
0.531098
  0
SEQEND
  8
0
  0
POLYLINE
  8
PLAN_1
 62
     5
  6
CONTINUOUS
 66
     1
 40
0.003000
 41
0.003000
  0
VERTEX
  8
PLAN_1
 62
     5
  6
CONTINUOUS
 10
-0.846142
 20
0.531098
  0
VERTEX
  8
PLAN_1
 62
     5
  6
CONTINUOUS
 10
-0.837417
 20
0.531098
  0
SEQEND
  8
0
  0
POLYLINE
  8
PLAN_1
 62
     5
  6
CONTINUOUS
 66
     1
 40
0.003000
 41
0.003000
  0
VERTEX
  8
PLAN_1
 62
     5
  6
CONTINUOUS
 10
-0.829130
 20
0.531098
  0
VERTEX
  8
PLAN_1
 62
     5
  6
CONTINUOUS
 10
-0.820839
 20
0.531098
  0
SEQEND
  8
0
  0
POLYLINE
  8
PLAN_1
 62
     5
  6
CONTINUOUS
 66
     1
 40
0.003000
 41
0.003000
  0
VERTEX
  8
PLAN_1
 62
     5
  6
CONTINUOUS
 10
-0.812551
 20
0.531098
  0
VERTEX
  8
PLAN_1
 62
     5
  6
CONTINUOUS
 10
-0.804260
 20
0.531098
  0
SEQEND
  8
0
  0
POLYLINE
  8
PLAN_1
 62
     5
  6
CONTINUOUS
 66
     1
 40
0.003000
 41
0.003000
  0
VERTEX
  8
PLAN_1
 62
     5
  6
CONTINUOUS
 10
-0.795972
 20
0.531098
  0
VERTEX
  8
PLAN_1
 62
     5
  6
CONTINUOUS
 10
-0.787681
 20
0.531098
  0
SEQEND
  8
0
  0
POLYLINE
  8
PLAN_1
 62
     5
  6
CONTINUOUS
 66
     1
 40
0.003000
 41
0.003000
  0
VERTEX
  8
PLAN_1
 62
     5
  6
CONTINUOUS
 10
-0.779394
 20
0.531098
  0
VERTEX
  8
PLAN_1
 62
     5
  6
CONTINUOUS
 10
-0.771106
 20
0.531098
  0
SEQEND
  8
0
  0
POLYLINE
  8
PLAN_1
 62
     5
  6
CONTINUOUS
 66
     1
 40
0.003000
 41
0.003000
  0
VERTEX
  8
PLAN_1
 62
     5
  6
CONTINUOUS
 10
-0.762815
 20
0.531098
  0
VERTEX
  8
PLAN_1
 62
     5
  6
CONTINUOUS
 10
-0.754528
 20
0.531098
  0
SEQEND
  8
0
  0
POLYLINE
  8
PLAN_1
 62
     5
  6
CONTINUOUS
 66
     1
 40
0.003000
 41
0.003000
  0
VERTEX
  8
PLAN_1
 62
     5
  6
CONTINUOUS
 10
-0.745803
 20
0.531098
  0
VERTEX
  8
PLAN_1
 62
     5
  6
CONTINUOUS
 10
-0.737512
 20
0.531098
  0
SEQEND
  8
0
  0
POLYLINE
  8
PLAN_1
 62
     5
  6
CONTINUOUS
 66
     1
 40
0.003000
 41
0.003000
  0
VERTEX
  8
PLAN_1
 62
     5
  6
CONTINUOUS
 10
-0.729224
 20
0.531098
  0
VERTEX
  8
PLAN_1
 62
     5
  6
CONTINUOUS
 10
-0.720933
 20
0.531098
  0
SEQEND
  8
0
  0
POLYLINE
  8
PLAN_1
 62
     5
  6
CONTINUOUS
 66
     1
 40
0.003000
 41
0.003000
  0
VERTEX
  8
PLAN_1
 62
     5
  6
CONTINUOUS
 10
-0.712646
 20
0.531098
  0
VERTEX
  8
PLAN_1
 62
     5
  6
CONTINUOUS
 10
-0.704354
 20
0.531098
  0
SEQEND
  8
0
  0
POLYLINE
  8
PLAN_1
 62
     5
  6
CONTINUOUS
 66
     1
 40
0.003000
 41
0.003000
  0
VERTEX
  8
PLAN_1
 62
     5
  6
CONTINUOUS
 10
-0.696067
 20
0.531098
  0
VERTEX
  8
PLAN_1
 62
     5
  6
CONTINUOUS
 10
-0.687776
 20
0.531098
  0
SEQEND
  8
0
  0
POLYLINE
  8
PLAN_1
 62
     5
  6
CONTINUOUS
 66
     1
 40
0.003000
 41
0.003000
  0
VERTEX
  8
PLAN_1
 62
     5
  6
CONTINUOUS
 10
-0.679488
 20
0.531098
  0
VERTEX
  8
PLAN_1
 62
     5
  6
CONTINUOUS
 10
-0.671201
 20
0.531098
  0
SEQEND
  8
0
  0
POLYLINE
  8
PLAN_1
 62
     5
  6
CONTINUOUS
 66
     1
 40
0.003000
 41
0.003000
  0
VERTEX
  8
PLAN_1
 62
     5
  6
CONTINUOUS
 10
-0.662909
 20
0.531098
  0
VERTEX
  8
PLAN_1
 62
     5
  6
CONTINUOUS
 10
-0.654185
 20
0.531098
  0
SEQEND
  8
0
  0
POLYLINE
  8
PLAN_1
 62
     5
  6
CONTINUOUS
 66
     1
 40
0.003000
 41
0.003000
  0
VERTEX
  8
PLAN_1
 62
     5
  6
CONTINUOUS
 10
-0.645898
 20
0.531098
  0
VERTEX
  8
PLAN_1
 62
     5
  6
CONTINUOUS
 10
-0.637606
 20
0.531098
  0
SEQEND
  8
0
  0
POLYLINE
  8
PLAN_1
 62
     5
  6
CONTINUOUS
 66
     1
 40
0.003000
 41
0.003000
  0
VERTEX
  8
PLAN_1
 62
     5
  6
CONTINUOUS
 10
-0.629319
 20
0.531098
  0
VERTEX
  8
PLAN_1
 62
     5
  6
CONTINUOUS
 10
-0.621028
 20
0.531098
  0
SEQEND
  8
0
  0
POLYLINE
  8
PLAN_1
 62
     5
  6
CONTINUOUS
 66
     1
 40
0.003000
 41
0.003000
  0
VERTEX
  8
PLAN_1
 62
     5
  6
CONTINUOUS
 10
-0.612740
 20
0.531098
  0
VERTEX
  8
PLAN_1
 62
     5
  6
CONTINUOUS
 10
-0.604449
 20
0.531098
  0
SEQEND
  8
0
  0
POLYLINE
  8
PLAN_1
 62
     5
  6
CONTINUOUS
 66
     1
 40
0.003000
 41
0.003000
  0
VERTEX
  8
PLAN_1
 62
     5
  6
CONTINUOUS
 10
-0.596161
 20
0.531098
  0
VERTEX
  8
PLAN_1
 62
     5
  6
CONTINUOUS
 10
-0.587870
 20
0.531098
  0
SEQEND
  8
0
  0
POLYLINE
  8
PLAN_1
 62
     5
  6
CONTINUOUS
 66
     1
 40
0.003000
 41
0.003000
  0
VERTEX
  8
PLAN_1
 62
     5
  6
CONTINUOUS
 10
-0.580890
 20
0.529354
  0
VERTEX
  8
PLAN_1
 62
     5
  6
CONTINUOUS
 10
-0.580890
 20
0.521063
  0
SEQEND
  8
0
  0
POLYLINE
  8
PLAN_1
 62
     5
  6
CONTINUOUS
 66
     1
 40
0.003000
 41
0.003000
  0
VERTEX
  8
PLAN_1
 62
     5
  6
CONTINUOUS
 10
-0.580890
 20
0.512776
  0
VERTEX
  8
PLAN_1
 62
     5
  6
CONTINUOUS
 10
-0.580890
 20
0.504488
  0
SEQEND
  8
0
  0
POLYLINE
  8
PLAN_1
 62
     5
  6
CONTINUOUS
 66
     1
 40
0.003000
 41
0.003000
  0
VERTEX
  8
PLAN_1
 62
     5
  6
CONTINUOUS
 10
-0.580890
 20
0.496197
  0
VERTEX
  8
PLAN_1
 62
     5
  6
CONTINUOUS
 10
-0.580890
 20
0.487909
  0
SEQEND
  8
0
  0
POLYLINE
  8
PLAN_1
 62
     5
  6
CONTINUOUS
 66
     1
 40
0.003000
 41
0.003000
  0
VERTEX
  8
PLAN_1
 62
     5
  6
CONTINUOUS
 10
-0.580890
 20
0.479618
  0
VERTEX
  8
PLAN_1
 62
     5
  6
CONTINUOUS
 10
-0.580890
 20
0.471331
  0
SEQEND
  8
0
  0
POLYLINE
  8
PLAN_1
 62
     5
  6
CONTINUOUS
 66
     1
 40
0.003000
 41
0.003000
  0
VERTEX
  8
PLAN_1
 62
     5
  6
CONTINUOUS
 10
-0.580890
 20
0.463039
  0
VERTEX
  8
PLAN_1
 62
     5
  6
CONTINUOUS
 10
-0.580890
 20
0.454752
  0
SEQEND
  8
0
  0
POLYLINE
  8
PLAN_1
 62
     5
  6
CONTINUOUS
 66
     1
 40
0.003000
 41
0.003000
  0
VERTEX
  8
PLAN_1
 62
     5
  6
CONTINUOUS
 10
-0.580890
 20
0.446461
  0
VERTEX
  8
PLAN_1
 62
     5
  6
CONTINUOUS
 10
-0.580890
 20
0.437736
  0
SEQEND
  8
0
  0
POLYLINE
  8
PLAN_1
 62
     5
  6
CONTINUOUS
 66
     1
 40
0.003000
 41
0.003000
  0
VERTEX
  8
PLAN_1
 62
     5
  6
CONTINUOUS
 10
-0.580890
 20
0.429449
  0
VERTEX
  8
PLAN_1
 62
     5
  6
CONTINUOUS
 10
-0.580890
 20
0.421157
  0
SEQEND
  8
0
  0
POLYLINE
  8
PLAN_1
 62
     5
  6
CONTINUOUS
 66
     1
 40
0.003000
 41
0.003000
  0
VERTEX
  8
PLAN_1
 62
     5
  6
CONTINUOUS
 10
-0.580890
 20
0.412870
  0
VERTEX
  8
PLAN_1
 62
     5
  6
CONTINUOUS
 10
-0.580890
 20
0.404583
  0
SEQEND
  8
0
  0
POLYLINE
  8
PLAN_1
 62
     5
  6
CONTINUOUS
 66
     1
 40
0.003000
 41
0.003000
  0
VERTEX
  8
PLAN_1
 62
     5
  6
CONTINUOUS
 10
-0.580890
 20
0.396291
  0
VERTEX
  8
PLAN_1
 62
     5
  6
CONTINUOUS
 10
-0.580890
 20
0.393236
  0
VERTEX
  8
PLAN_1
 62
     5
  6
CONTINUOUS
 10
-0.575657
 20
0.393236
  0
SEQEND
  8
0
  0
POLYLINE
  8
PLAN_1
 62
     5
  6
CONTINUOUS
 66
     1
 40
0.003000
 41
0.003000
  0
VERTEX
  8
PLAN_1
 62
     5
  6
CONTINUOUS
 10
-0.567366
 20
0.393236
  0
VERTEX
  8
PLAN_1
 62
     5
  6
CONTINUOUS
 10
-0.558642
 20
0.393236
  0
SEQEND
  8
0
  0
POLYLINE
  8
PLAN_1
 62
     5
  6
CONTINUOUS
 66
     1
 40
0.003000
 41
0.003000
  0
VERTEX
  8
PLAN_1
 62
     5
  6
CONTINUOUS
 10
-0.550354
 20
0.393236
  0
VERTEX
  8
PLAN_1
 62
     5
  6
CONTINUOUS
 10
-0.542937
 20
0.393236
  0
VERTEX
  8
PLAN_1
 62
     5
  6
CONTINUOUS
 10
-0.542937
 20
0.392366
  0
SEQEND
  8
0
  0
POLYLINE
  8
PLAN_1
 62
     5
  6
CONTINUOUS
 66
     1
 40
0.003000
 41
0.003000
  0
VERTEX
  8
PLAN_1
 62
     5
  6
CONTINUOUS
 10
-0.542937
 20
0.384075
  0
VERTEX
  8
PLAN_1
 62
     5
  6
CONTINUOUS
 10
-0.542937
 20
0.375787
  0
SEQEND
  8
0
  0
POLYLINE
  8
PLAN_1
 62
     5
  6
CONTINUOUS
 66
     1
 40
0.003000
 41
0.003000
  0
VERTEX
  8
PLAN_1
 62
     5
  6
CONTINUOUS
 10
-0.542937
 20
0.367496
  0
VERTEX
  8
PLAN_1
 62
     5
  6
CONTINUOUS
 10
-0.542937
 20
0.359209
  0
SEQEND
  8
0
  0
POLYLINE
  8
PLAN_1
 62
     5
  6
CONTINUOUS
 66
     1
 40
0.003000
 41
0.003000
  0
VERTEX
  8
PLAN_1
 62
     5
  6
CONTINUOUS
 10
-0.542937
 20
0.350921
  0
VERTEX
  8
PLAN_1
 62
     5
  6
CONTINUOUS
 10
-0.542937
 20
0.342630
  0
SEQEND
  8
0
  0
POLYLINE
  8
PLAN_1
 62
     5
  6
CONTINUOUS
 66
     1
 40
0.003000
 41
0.003000
  0
VERTEX
  8
PLAN_1
 62
     5
  6
CONTINUOUS
 10
-0.542937
 20
0.334343
  0
VERTEX
  8
PLAN_1
 62
     5
  6
CONTINUOUS
 10
-0.542937
 20
0.326051
  0
SEQEND
  8
0
  0
POLYLINE
  8
PLAN_1
 62
     5
  6
CONTINUOUS
 66
     1
 40
0.003000
 41
0.003000
  0
VERTEX
  8
PLAN_1
 62
     5
  6
CONTINUOUS
 10
-0.542937
 20
0.317764
  0
VERTEX
  8
PLAN_1
 62
     5
  6
CONTINUOUS
 10
-0.542937
 20
0.309039
  0
SEQEND
  8
0
  0
POLYLINE
  8
PLAN_1
 62
     5
  6
CONTINUOUS
 66
     1
 40
0.003000
 41
0.003000
  0
VERTEX
  8
PLAN_1
 62
     5
  6
CONTINUOUS
 10
-0.542937
 20
0.300748
  0
VERTEX
  8
PLAN_1
 62
     5
  6
CONTINUOUS
 10
-0.542937
 20
0.292461
  0
SEQEND
  8
0
  0
POLYLINE
  8
PLAN_1
 62
     5
  6
CONTINUOUS
 66
     1
 40
0.003000
 41
0.003000
  0
VERTEX
  8
PLAN_1
 62
     5
  6
CONTINUOUS
 10
-0.542937
 20
0.284169
  0
VERTEX
  8
PLAN_1
 62
     5
  6
CONTINUOUS
 10
-0.542937
 20
0.275882
  0
SEQEND
  8
0
  0
POLYLINE
  8
PLAN_1
 62
     5
  6
CONTINUOUS
 66
     1
 40
0.003000
 41
0.003000
  0
VERTEX
  8
PLAN_1
 62
     5
  6
CONTINUOUS
 10
-0.542937
 20
0.267591
  0
VERTEX
  8
PLAN_1
 62
     5
  6
CONTINUOUS
 10
-0.542937
 20
0.259303
  0
SEQEND
  8
0
  0
POLYLINE
  8
PLAN_1
 62
     5
  6
CONTINUOUS
 66
     1
 40
0.003000
 41
0.003000
  0
VERTEX
  8
PLAN_1
 62
     5
  6
CONTINUOUS
 10
-0.542937
 20
0.251016
  0
VERTEX
  8
PLAN_1
 62
     5
  6
CONTINUOUS
 10
-0.542937
 20
0.242724
  0
SEQEND
  8
0
  0
POLYLINE
  8
PLAN_1
 62
     5
  6
CONTINUOUS
 66
     1
 40
0.003000
 41
0.003000
  0
VERTEX
  8
PLAN_1
 62
     5
  6
CONTINUOUS
 10
-0.542937
 20
0.234437
  0
VERTEX
  8
PLAN_1
 62
     5
  6
CONTINUOUS
 10
-0.542937
 20
0.226146
  0
SEQEND
  8
0
  0
POLYLINE
  8
PLAN_1
 62
     5
  6
CONTINUOUS
 66
     1
 40
0.003000
 41
0.003000
  0
VERTEX
  8
PLAN_1
 62
     5
  6
CONTINUOUS
 10
-0.542937
 20
0.217421
  0
VERTEX
  8
PLAN_1
 62
     5
  6
CONTINUOUS
 10
-0.542937
 20
0.209134
  0
SEQEND
  8
0
  0
POLYLINE
  8
PLAN_1
 62
     5
  6
CONTINUOUS
 66
     1
 40
0.003000
 41
0.003000
  0
VERTEX
  8
PLAN_1
 62
     5
  6
CONTINUOUS
 10
-0.542937
 20
0.200843
  0
VERTEX
  8
PLAN_1
 62
     5
  6
CONTINUOUS
 10
-0.542937
 20
0.192555
  0
SEQEND
  8
0
  0
POLYLINE
  8
PLAN_1
 62
     5
  6
CONTINUOUS
 66
     1
 40
0.003000
 41
0.003000
  0
VERTEX
  8
PLAN_1
 62
     5
  6
CONTINUOUS
 10
-0.542937
 20
0.184264
  0
VERTEX
  8
PLAN_1
 62
     5
  6
CONTINUOUS
 10
-0.542937
 20
0.175976
  0
SEQEND
  8
0
  0
POLYLINE
  8
PLAN_1
 62
     5
  6
CONTINUOUS
 66
     1
 40
0.003000
 41
0.003000
  0
VERTEX
  8
PLAN_1
 62
     5
  6
CONTINUOUS
 10
-0.542937
 20
0.167685
  0
VERTEX
  8
PLAN_1
 62
     5
  6
CONTINUOUS
 10
-0.542937
 20
0.159398
  0
SEQEND
  8
0
  0
POLYLINE
  8
PLAN_1
 62
     5
  6
CONTINUOUS
 66
     1
 40
0.003000
 41
0.003000
  0
VERTEX
  8
PLAN_1
 62
     5
  6
CONTINUOUS
 10
-0.542937
 20
0.151110
  0
VERTEX
  8
PLAN_1
 62
     5
  6
CONTINUOUS
 10
-0.542937
 20
0.142819
  0
SEQEND
  8
0
  0
POLYLINE
  8
PLAN_1
 62
     5
  6
CONTINUOUS
 66
     1
 40
0.003000
 41
0.003000
  0
VERTEX
  8
PLAN_1
 62
     5
  6
CONTINUOUS
 10
-0.542937
 20
0.134531
  0
VERTEX
  8
PLAN_1
 62
     5
  6
CONTINUOUS
 10
-0.542937
 20
0.126240
  0
SEQEND
  8
0
  0
POLYLINE
  8
PLAN_1
 62
     5
  6
CONTINUOUS
 66
     1
 40
0.003000
 41
0.003000
  0
VERTEX
  8
PLAN_1
 62
     5
  6
CONTINUOUS
 10
-0.543374
 20
0.117953
  0
VERTEX
  8
PLAN_1
 62
     5
  6
CONTINUOUS
 10
-0.551661
 20
0.117953
  0
SEQEND
  8
0
  0
POLYLINE
  8
PLAN_1
 62
     5
  6
CONTINUOUS
 66
     1
 40
0.003000
 41
0.003000
  0
VERTEX
  8
PLAN_1
 62
     5
  6
CONTINUOUS
 10
-0.559953
 20
0.117953
  0
VERTEX
  8
PLAN_1
 62
     5
  6
CONTINUOUS
 10
-0.568240
 20
0.117953
  0
SEQEND
  8
0
  0
POLYLINE
  8
PLAN_1
 62
     5
  6
CONTINUOUS
 66
     1
 40
0.003000
 41
0.003000
  0
VERTEX
  8
PLAN_1
 62
     5
  6
CONTINUOUS
 10
-0.576528
 20
0.117953
  0
VERTEX
  8
PLAN_1
 62
     5
  6
CONTINUOUS
 10
-0.580890
 20
0.117953
  0
VERTEX
  8
PLAN_1
 62
     5
  6
CONTINUOUS
 10
-0.580890
 20
0.114028
  0
SEQEND
  8
0
  0
POLYLINE
  8
PLAN_1
 62
     5
  6
CONTINUOUS
 66
     1
 40
0.003000
 41
0.003000
  0
VERTEX
  8
PLAN_1
 62
     5
  6
CONTINUOUS
 10
-0.580890
 20
0.105736
  0
VERTEX
  8
PLAN_1
 62
     5
  6
CONTINUOUS
 10
-0.580890
 20
0.097449
  0
SEQEND
  8
0
  0
POLYLINE
  8
PLAN_1
 62
     5
  6
CONTINUOUS
 66
     1
 40
0.003000
 41
0.003000
  0
VERTEX
  8
PLAN_1
 62
     5
  6
CONTINUOUS
 10
-0.580890
 20
0.088720
  0
VERTEX
  8
PLAN_1
 62
     5
  6
CONTINUOUS
 10
-0.580890
 20
0.080433
  0
SEQEND
  8
0
  0
POLYLINE
  8
PLAN_1
 62
     5
  6
CONTINUOUS
 66
     1
 40
0.003000
 41
0.003000
  0
VERTEX
  8
PLAN_1
 62
     5
  6
CONTINUOUS
 10
-0.580890
 20
0.072146
  0
VERTEX
  8
PLAN_1
 62
     5
  6
CONTINUOUS
 10
-0.580890
 20
0.063854
  0
SEQEND
  8
0
  0
POLYLINE
  8
PLAN_1
 62
     5
  6
CONTINUOUS
 66
     1
 40
0.003000
 41
0.003000
  0
VERTEX
  8
PLAN_1
 62
     5
  6
CONTINUOUS
 10
-0.580890
 20
0.055567
  0
VERTEX
  8
PLAN_1
 62
     5
  6
CONTINUOUS
 10
-0.580890
 20
0.047276
  0
SEQEND
  8
0
  0
POLYLINE
  8
PLAN_1
 62
     5
  6
CONTINUOUS
 66
     1
 40
0.003000
 41
0.003000
  0
VERTEX
  8
PLAN_1
 62
     5
  6
CONTINUOUS
 10
-0.580890
 20
0.038988
  0
VERTEX
  8
PLAN_1
 62
     5
  6
CONTINUOUS
 10
-0.580890
 20
0.030697
  0
SEQEND
  8
0
  0
POLYLINE
  8
PLAN_1
 62
     5
  6
CONTINUOUS
 66
     1
 40
0.003000
 41
0.003000
  0
VERTEX
  8
PLAN_1
 62
     5
  6
CONTINUOUS
 10
-0.580890
 20
0.022409
  0
VERTEX
  8
PLAN_1
 62
     5
  6
CONTINUOUS
 10
-0.580890
 20
0.014122
  0
SEQEND
  8
0
  0
POLYLINE
  8
PLAN_1
 62
     5
  6
CONTINUOUS
 66
     1
 40
0.003000
 41
0.003000
  0
VERTEX
  8
PLAN_1
 62
     5
  6
CONTINUOUS
 10
-0.580890
 20
0.005831
  0
VERTEX
  8
PLAN_1
 62
     5
  6
CONTINUOUS
 10
-0.580890
 20
-0.002894
  0
SEQEND
  8
0
  0
POLYLINE
  8
PLAN_1
 62
     5
  6
CONTINUOUS
 66
     1
 40
0.003000
 41
0.003000
  0
VERTEX
  8
PLAN_1
 62
     5
  6
CONTINUOUS
 10
-0.580890
 20
-0.011185
  0
VERTEX
  8
PLAN_1
 62
     5
  6
CONTINUOUS
 10
-0.580890
 20
-0.019472
  0
SEQEND
  8
0
  0
POLYLINE
  8
PLAN_1
 62
     5
  6
CONTINUOUS
 66
     1
 40
0.003000
 41
0.003000
  0
VERTEX
  8
PLAN_1
 62
     5
  6
CONTINUOUS
 10
-0.580890
 20
-0.027760
  0
VERTEX
  8
PLAN_1
 62
     5
  6
CONTINUOUS
 10
-0.580890
 20
-0.036051
  0
SEQEND
  8
0
  0
POLYLINE
  8
PLAN_1
 62
     5
  6
CONTINUOUS
 66
     1
 40
0.003000
 41
0.003000
  0
VERTEX
  8
PLAN_1
 62
     5
  6
CONTINUOUS
 10
-0.580890
 20
-0.044339
  0
VERTEX
  8
PLAN_1
 62
     5
  6
CONTINUOUS
 10
-0.580890
 20
-0.052630
  0
SEQEND
  8
0
  0
POLYLINE
  8
PLAN_1
 62
     5
  6
CONTINUOUS
 66
     1
 40
0.003000
 41
0.003000
  0
VERTEX
  8
PLAN_1
 62
     5
  6
CONTINUOUS
 10
-0.580890
 20
-0.060917
  0
VERTEX
  8
PLAN_1
 62
     5
  6
CONTINUOUS
 10
-0.580890
 20
-0.069209
  0
SEQEND
  8
0
  0
POLYLINE
  8
PLAN_1
 62
     5
  6
CONTINUOUS
 66
     1
 40
0.003000
 41
0.003000
  0
VERTEX
  8
PLAN_1
 62
     5
  6
CONTINUOUS
 10
-0.580890
 20
-0.077496
  0
VERTEX
  8
PLAN_1
 62
     5
  6
CONTINUOUS
 10
-0.580890
 20
-0.085783
  0
SEQEND
  8
0
  0
POLYLINE
  8
PLAN_1
 62
     5
  6
CONTINUOUS
 66
     1
 40
0.003000
 41
0.003000
  0
VERTEX
  8
PLAN_1
 62
     5
  6
CONTINUOUS
 10
-0.580890
 20
-0.094075
  0
VERTEX
  8
PLAN_1
 62
     5
  6
CONTINUOUS
 10
-0.580890
 20
-0.102799
  0
SEQEND
  8
0
  0
POLYLINE
  8
PLAN_1
 62
     5
  6
CONTINUOUS
 66
     1
 40
0.003000
 41
0.003000
  0
VERTEX
  8
PLAN_1
 62
     5
  6
CONTINUOUS
 10
-0.580890
 20
-0.111091
  0
VERTEX
  8
PLAN_1
 62
     5
  6
CONTINUOUS
 10
-0.580890
 20
-0.119378
  0
SEQEND
  8
0
  0
POLYLINE
  8
PLAN_1
 62
     5
  6
CONTINUOUS
 66
     1
 40
0.003000
 41
0.003000
  0
VERTEX
  8
PLAN_1
 62
     5
  6
CONTINUOUS
 10
-0.580890
 20
-0.127665
  0
VERTEX
  8
PLAN_1
 62
     5
  6
CONTINUOUS
 10
-0.580890
 20
-0.135957
  0
SEQEND
  8
0
  0
POLYLINE
  8
PLAN_1
 62
     5
  6
CONTINUOUS
 66
     1
 40
0.003000
 41
0.003000
  0
VERTEX
  8
PLAN_1
 62
     5
  6
CONTINUOUS
 10
-0.580890
 20
-0.144244
  0
VERTEX
  8
PLAN_1
 62
     5
  6
CONTINUOUS
 10
-0.580890
 20
-0.145118
  0
SEQEND
  8
0
  0
POLYLINE
  8
PLAN_1
 62
     5
  6
CONTINUOUS
 66
     1
 40
0.003000
 41
0.003000
  0
VERTEX
  8
PLAN_1
 62
     5
  6
CONTINUOUS
 10
-0.580890
 20
-0.144244
  0
VERTEX
  8
PLAN_1
 62
     5
  6
CONTINUOUS
 10
-0.580890
 20
-0.145118
  0
SEQEND
  8
0
  0
POLYLINE
  8
PLAN_1
  6
CONTINUOUS
 66
     1
 40
0.008287
 41
0.008287
  0
VERTEX
  8
PLAN_1
  6
CONTINUOUS
 10
-1.508398
 20
0.532406
  0
VERTEX
  8
PLAN_1
  6
CONTINUOUS
 10
-1.508398
 20
0.699500
  0
VERTEX
  8
PLAN_1
  6
CONTINUOUS
 10
-1.845197
 20
0.699500
  0
SEQEND
  8
0
  0
POLYLINE
  8
PLAN_1
  6
CONTINUOUS
 66
     1
 40
0.008287
 41
0.008287
  0
VERTEX
  8
PLAN_1
  6
CONTINUOUS
 10
-0.578709
 20
0.699500
  0
VERTEX
  8
PLAN_1
  6
CONTINUOUS
 10
-0.897185
 20
0.699500
  0
VERTEX
  8
PLAN_1
  6
CONTINUOUS
 10
-0.897185
 20
0.532406
  0
SEQEND
  8
0
  0
POLYLINE
  8
PLAN_1
  6
CONTINUOUS
 66
     1
 40
0.008287
 41
0.008287
  0
VERTEX
  8
PLAN_1
  6
CONTINUOUS
 10
-1.609614
 20
0.534591
  0
VERTEX
  8
PLAN_1
  6
CONTINUOUS
 10
-1.609614
 20
0.699500
  0
SEQEND
  8
0
  0
POLYLINE
  8
PLAN_1
  6
CONTINUOUS
 66
     1
 40
0.008287
 41
0.008287
  0
VERTEX
  8
PLAN_1
  6
CONTINUOUS
 10
-0.811240
 20
0.534591
  0
VERTEX
  8
PLAN_1
  6
CONTINUOUS
 10
-0.811240
 20
0.699500
  0
SEQEND
  8
0
  0
POLYLINE
  8
PLAN_1
  6
CONTINUOUS
 66
     1
 40
0.008287
 41
0.008287
  0
VERTEX
  8
PLAN_1
  6
CONTINUOUS
 10
-1.839965
 20
1.307220
  0
VERTEX
  8
PLAN_1
  6
CONTINUOUS
 10
-0.583945
 20
1.307220
  0
SEQEND
  8
0
  0
POLYLINE
  8
PLAN_1
  6
CONTINUOUS
 66
     1
 40
0.008287
 41
0.008287
  0
VERTEX
  8
PLAN_1
  6
CONTINUOUS
 10
-1.102669
 20
2.166232
  0
VERTEX
  8
PLAN_1
  6
CONTINUOUS
 10
-1.098744
 20
2.169724
  0
VERTEX
  8
PLAN_1
  6
CONTINUOUS
 10
-1.096126
 20
2.173213
  0
VERTEX
  8
PLAN_1
  6
CONTINUOUS
 10
-1.093945
 20
2.176705
  0
VERTEX
  8
PLAN_1
  6
CONTINUOUS
 10
-1.092634
 20
2.180193
  0
VERTEX
  8
PLAN_1
  6
CONTINUOUS
 10
-1.092197
 20
2.183248
  0
VERTEX
  8
PLAN_1
  6
CONTINUOUS
 10
-1.092634
 20
2.186303
  0
VERTEX
  8
PLAN_1
  6
CONTINUOUS
 10
-1.093071
 20
2.189354
  0
VERTEX
  8
PLAN_1
  6
CONTINUOUS
 10
-1.093945
 20
2.191972
  0
VERTEX
  8
PLAN_1
  6
CONTINUOUS
 10
-1.096563
 20
2.196772
  0
VERTEX
  8
PLAN_1
  6
CONTINUOUS
 10
-1.099177
 20
2.200264
  0
VERTEX
  8
PLAN_1
  6
CONTINUOUS
 10
-1.101795
 20
2.202445
  0
VERTEX
  8
PLAN_1
  6
CONTINUOUS
 10
-1.102669
 20
2.203315
  0
SEQEND
  8
0
  0
POLYLINE
  8
PLAN_1
  6
CONTINUOUS
 66
     1
 40
0.008287
 41
0.008287
  0
VERTEX
  8
PLAN_1
  6
CONTINUOUS
 10
-1.102669
 20
2.203315
  0
VERTEX
  8
PLAN_1
  6
CONTINUOUS
 10
-1.329528
 20
2.203315
  0
SEQEND
  8
0
  0
POLYLINE
  8
PLAN_1
  6
CONTINUOUS
 66
     1
 40
0.008287
 41
0.008287
  0
VERTEX
  8
PLAN_1
  6
CONTINUOUS
 10
-1.329528
 20
2.203315
  0
VERTEX
  8
PLAN_1
  6
CONTINUOUS
 10
-1.330402
 20
2.202445
  0
VERTEX
  8
PLAN_1
  6
CONTINUOUS
 10
-1.332583
 20
2.200264
  0
VERTEX
  8
PLAN_1
  6
CONTINUOUS
 10
-1.335201
 20
2.196772
  0
VERTEX
  8
PLAN_1
  6
CONTINUOUS
 10
-1.337382
 20
2.192409
  0
VERTEX
  8
PLAN_1
  6
CONTINUOUS
 10
-1.338256
 20
2.189791
  0
VERTEX
  8
PLAN_1
  6
CONTINUOUS
 10
-1.338689
 20
2.187173
  0
VERTEX
  8
PLAN_1
  6
CONTINUOUS
 10
-1.338689
 20
2.184122
  0
VERTEX
  8
PLAN_1
  6
CONTINUOUS
 10
-1.338256
 20
2.180630
  0
VERTEX
  8
PLAN_1
  6
CONTINUOUS
 10
-1.337382
 20
2.177142
  0
VERTEX
  8
PLAN_1
  6
CONTINUOUS
 10
-1.335638
 20
2.173650
  0
VERTEX
  8
PLAN_1
  6
CONTINUOUS
 10
-1.333020
 20
2.170161
  0
VERTEX
  8
PLAN_1
  6
CONTINUOUS
 10
-1.329528
 20
2.166232
  0
SEQEND
  8
0
  0
POLYLINE
  8
PLAN_1
  6
CONTINUOUS
 66
     1
 40
0.008287
 41
0.008287
  0
VERTEX
  8
PLAN_1
  6
CONTINUOUS
 10
-1.329528
 20
2.166232
  0
VERTEX
  8
PLAN_1
  6
CONTINUOUS
 10
-1.102669
 20
2.166232
  0
SEQEND
  8
0
  0
POLYLINE
  8
PLAN_1
  6
CONTINUOUS
 66
     1
 40
0.008287
 41
0.008287
  0
VERTEX
  8
PLAN_1
  6
CONTINUOUS
 10
-1.102232
 20
2.129587
  0
VERTEX
  8
PLAN_1
  6
CONTINUOUS
 10
-1.098307
 20
2.133512
  0
VERTEX
  8
PLAN_1
  6
CONTINUOUS
 10
-1.095689
 20
2.137004
  0
VERTEX
  8
PLAN_1
  6
CONTINUOUS
 10
-1.093508
 20
2.140059
  0
VERTEX
  8
PLAN_1
  6
CONTINUOUS
 10
-1.092634
 20
2.143547
  0
VERTEX
  8
PLAN_1
  6
CONTINUOUS
 10
-1.092197
 20
2.146602
  0
VERTEX
  8
PLAN_1
  6
CONTINUOUS
 10
-1.092197
 20
2.149654
  0
VERTEX
  8
PLAN_1
  6
CONTINUOUS
 10
-1.092634
 20
2.152709
  0
VERTEX
  8
PLAN_1
  6
CONTINUOUS
 10
-1.093508
 20
2.155327
  0
VERTEX
  8
PLAN_1
  6
CONTINUOUS
 10
-1.096126
 20
2.160126
  0
VERTEX
  8
PLAN_1
  6
CONTINUOUS
 10
-1.099177
 20
2.163614
  0
VERTEX
  8
PLAN_1
  6
CONTINUOUS
 10
-1.101358
 20
2.165795
  0
VERTEX
  8
PLAN_1
  6
CONTINUOUS
 10
-1.102232
 20
2.166669
  0
SEQEND
  8
0
  0
POLYLINE
  8
PLAN_1
  6
CONTINUOUS
 66
     1
 40
0.008287
 41
0.008287
  0
VERTEX
  8
PLAN_1
  6
CONTINUOUS
 10
-1.102232
 20
2.166669
  0
VERTEX
  8
PLAN_1
  6
CONTINUOUS
 10
-1.329528
 20
2.166669
  0
SEQEND
  8
0
  0
POLYLINE
  8
PLAN_1
  6
CONTINUOUS
 66
     1
 40
0.008287
 41
0.008287
  0
VERTEX
  8
PLAN_1
  6
CONTINUOUS
 10
-1.329528
 20
2.166669
  0
VERTEX
  8
PLAN_1
  6
CONTINUOUS
 10
-1.330402
 20
2.165795
  0
VERTEX
  8
PLAN_1
  6
CONTINUOUS
 10
-1.332146
 20
2.163614
  0
VERTEX
  8
PLAN_1
  6
CONTINUOUS
 10
-1.334764
 20
2.160563
  0
VERTEX
  8
PLAN_1
  6
CONTINUOUS
 10
-1.336945
 20
2.155764
  0
VERTEX
  8
PLAN_1
  6
CONTINUOUS
 10
-1.337819
 20
2.153146
  0
VERTEX
  8
PLAN_1
  6
CONTINUOUS
 10
-1.338256
 20
2.150528
  0
VERTEX
  8
PLAN_1
  6
CONTINUOUS
 10
-1.338689
 20
2.147472
  0
VERTEX
  8
PLAN_1
  6
CONTINUOUS
 10
-1.338256
 20
2.143984
  0
VERTEX
  8
PLAN_1
  6
CONTINUOUS
 10
-1.336945
 20
2.140929
  0
VERTEX
  8
PLAN_1
  6
CONTINUOUS
 10
-1.335201
 20
2.137004
  0
VERTEX
  8
PLAN_1
  6
CONTINUOUS
 10
-1.332583
 20
2.133512
  0
VERTEX
  8
PLAN_1
  6
CONTINUOUS
 10
-1.329528
 20
2.129587
  0
SEQEND
  8
0
  0
POLYLINE
  8
PLAN_1
  6
CONTINUOUS
 66
     1
 40
0.008287
 41
0.008287
  0
VERTEX
  8
PLAN_1
  6
CONTINUOUS
 10
-1.329528
 20
2.129587
  0
VERTEX
  8
PLAN_1
  6
CONTINUOUS
 10
-1.102232
 20
2.129587
  0
SEQEND
  8
0
  0
POLYLINE
  8
PLAN_1
  6
CONTINUOUS
 66
     1
 40
0.008287
 41
0.008287
  0
VERTEX
  8
PLAN_1
  6
CONTINUOUS
 10
-1.102669
 20
2.092504
  0
VERTEX
  8
PLAN_1
  6
CONTINUOUS
 10
-1.098744
 20
2.095996
  0
VERTEX
  8
PLAN_1
  6
CONTINUOUS
 10
-1.095689
 20
2.099484
  0
VERTEX
  8
PLAN_1
  6
CONTINUOUS
 10
-1.093945
 20
2.102976
  0
VERTEX
  8
PLAN_1
  6
CONTINUOUS
 10
-1.092634
 20
2.106465
  0
VERTEX
  8
PLAN_1
  6
CONTINUOUS
 10
-1.092197
 20
2.109520
  0
VERTEX
  8
PLAN_1
  6
CONTINUOUS
 10
-1.092197
 20
2.112571
  0
VERTEX
  8
PLAN_1
  6
CONTINUOUS
 10
-1.092634
 20
2.115626
  0
VERTEX
  8
PLAN_1
  6
CONTINUOUS
 10
-1.093945
 20
2.118244
  0
VERTEX
  8
PLAN_1
  6
CONTINUOUS
 10
-1.096126
 20
2.123043
  0
VERTEX
  8
PLAN_1
  6
CONTINUOUS
 10
-1.099177
 20
2.126531
  0
VERTEX
  8
PLAN_1
  6
CONTINUOUS
 10
-1.101358
 20
2.128713
  0
VERTEX
  8
PLAN_1
  6
CONTINUOUS
 10
-1.102669
 20
2.129587
  0
SEQEND
  8
0
  0
POLYLINE
  8
PLAN_1
  6
CONTINUOUS
 66
     1
 40
0.008287
 41
0.008287
  0
VERTEX
  8
PLAN_1
  6
CONTINUOUS
 10
-1.102669
 20
2.129587
  0
VERTEX
  8
PLAN_1
  6
CONTINUOUS
 10
-1.329528
 20
2.129587
  0
SEQEND
  8
0
  0
POLYLINE
  8
PLAN_1
  6
CONTINUOUS
 66
     1
 40
0.008287
 41
0.008287
  0
VERTEX
  8
PLAN_1
  6
CONTINUOUS
 10
-1.329528
 20
2.129587
  0
VERTEX
  8
PLAN_1
  6
CONTINUOUS
 10
-1.330402
 20
2.128713
  0
VERTEX
  8
PLAN_1
  6
CONTINUOUS
 10
-1.332583
 20
2.126531
  0
VERTEX
  8
PLAN_1
  6
CONTINUOUS
 10
-1.335201
 20
2.123480
  0
VERTEX
  8
PLAN_1
  6
CONTINUOUS
 10
-1.337382
 20
2.118681
  0
VERTEX
  8
PLAN_1
  6
CONTINUOUS
 10
-1.338256
 20
2.116063
  0
VERTEX
  8
PLAN_1
  6
CONTINUOUS
 10
-1.338689
 20
2.113445
  0
VERTEX
  8
PLAN_1
  6
CONTINUOUS
 10
-1.338689
 20
2.110390
  0
VERTEX
  8
PLAN_1
  6
CONTINUOUS
 10
-1.338256
 20
2.106902
  0
VERTEX
  8
PLAN_1
  6
CONTINUOUS
 10
-1.337382
 20
2.103846
  0
VERTEX
  8
PLAN_1
  6
CONTINUOUS
 10
-1.335638
 20
2.099921
  0
VERTEX
  8
PLAN_1
  6
CONTINUOUS
 10
-1.333020
 20
2.096429
  0
VERTEX
  8
PLAN_1
  6
CONTINUOUS
 10
-1.329528
 20
2.092504
  0
SEQEND
  8
0
  0
POLYLINE
  8
PLAN_1
  6
CONTINUOUS
 66
     1
 40
0.008287
 41
0.008287
  0
VERTEX
  8
PLAN_1
  6
CONTINUOUS
 10
-1.329528
 20
2.092504
  0
VERTEX
  8
PLAN_1
  6
CONTINUOUS
 10
-1.102669
 20
2.092504
  0
SEQEND
  8
0
  0
POLYLINE
  8
PLAN_1
  6
CONTINUOUS
 66
     1
 40
0.008287
 41
0.008287
  0
VERTEX
  8
PLAN_1
  6
CONTINUOUS
 10
-1.102232
 20
2.055858
  0
VERTEX
  8
PLAN_1
  6
CONTINUOUS
 10
-1.098307
 20
2.059783
  0
VERTEX
  8
PLAN_1
  6
CONTINUOUS
 10
-1.095252
 20
2.063276
  0
VERTEX
  8
PLAN_1
  6
CONTINUOUS
 10
-1.093508
 20
2.066327
  0
VERTEX
  8
PLAN_1
  6
CONTINUOUS
 10
-1.092197
 20
2.069819
  0
VERTEX
  8
PLAN_1
  6
CONTINUOUS
 10
-1.091764
 20
2.072870
  0
VERTEX
  8
PLAN_1
  6
CONTINUOUS
 10
-1.091764
 20
2.075925
  0
VERTEX
  8
PLAN_1
  6
CONTINUOUS
 10
-1.092634
 20
2.078980
  0
VERTEX
  8
PLAN_1
  6
CONTINUOUS
 10
-1.093508
 20
2.081598
  0
VERTEX
  8
PLAN_1
  6
CONTINUOUS
 10
-1.096126
 20
2.086398
  0
VERTEX
  8
PLAN_1
  6
CONTINUOUS
 10
-1.098744
 20
2.089886
  0
VERTEX
  8
PLAN_1
  6
CONTINUOUS
 10
-1.101358
 20
2.092067
  0
VERTEX
  8
PLAN_1
  6
CONTINUOUS
 10
-1.102232
 20
2.092941
  0
SEQEND
  8
0
  0
POLYLINE
  8
PLAN_1
  6
CONTINUOUS
 66
     1
 40
0.008287
 41
0.008287
  0
VERTEX
  8
PLAN_1
  6
CONTINUOUS
 10
-1.102232
 20
2.092941
  0
VERTEX
  8
PLAN_1
  6
CONTINUOUS
 10
-1.329091
 20
2.092941
  0
SEQEND
  8
0
  0
POLYLINE
  8
PLAN_1
  6
CONTINUOUS
 66
     1
 40
0.008287
 41
0.008287
  0
VERTEX
  8
PLAN_1
  6
CONTINUOUS
 10
-1.329091
 20
2.092941
  0
VERTEX
  8
PLAN_1
  6
CONTINUOUS
 10
-1.329965
 20
2.092067
  0
VERTEX
  8
PLAN_1
  6
CONTINUOUS
 10
-1.332146
 20
2.089886
  0
VERTEX
  8
PLAN_1
  6
CONTINUOUS
 10
-1.334764
 20
2.086831
  0
VERTEX
  8
PLAN_1
  6
CONTINUOUS
 10
-1.336945
 20
2.082035
  0
VERTEX
  8
PLAN_1
  6
CONTINUOUS
 10
-1.337819
 20
2.079417
  0
VERTEX
  8
PLAN_1
  6
CONTINUOUS
 10
-1.338256
 20
2.076799
  0
VERTEX
  8
PLAN_1
  6
CONTINUOUS
 10
-1.338256
 20
2.073744
  0
VERTEX
  8
PLAN_1
  6
CONTINUOUS
 10
-1.337819
 20
2.070256
  0
VERTEX
  8
PLAN_1
  6
CONTINUOUS
 10
-1.336945
 20
2.067201
  0
VERTEX
  8
PLAN_1
  6
CONTINUOUS
 10
-1.335201
 20
2.063709
  0
VERTEX
  8
PLAN_1
  6
CONTINUOUS
 10
-1.332583
 20
2.059783
  0
VERTEX
  8
PLAN_1
  6
CONTINUOUS
 10
-1.329091
 20
2.055858
  0
SEQEND
  8
0
  0
POLYLINE
  8
PLAN_1
  6
CONTINUOUS
 66
     1
 40
0.008287
 41
0.008287
  0
VERTEX
  8
PLAN_1
  6
CONTINUOUS
 10
-1.329091
 20
2.055858
  0
VERTEX
  8
PLAN_1
  6
CONTINUOUS
 10
-1.102232
 20
2.055858
  0
SEQEND
  8
0
  0
POLYLINE
  8
PLAN_1
  6
CONTINUOUS
 66
     1
 40
0.008287
 41
0.008287
  0
VERTEX
  8
PLAN_1
  6
CONTINUOUS
 10
-1.102669
 20
2.019646
  0
VERTEX
  8
PLAN_1
  6
CONTINUOUS
 10
-1.098744
 20
2.023138
  0
VERTEX
  8
PLAN_1
  6
CONTINUOUS
 10
-1.095689
 20
2.026626
  0
VERTEX
  8
PLAN_1
  6
CONTINUOUS
 10
-1.093945
 20
2.030118
  0
VERTEX
  8
PLAN_1
  6
CONTINUOUS
 10
-1.092634
 20
2.033173
  0
VERTEX
  8
PLAN_1
  6
CONTINUOUS
 10
-1.092197
 20
2.036661
  0
VERTEX
  8
PLAN_1
  6
CONTINUOUS
 10
-1.092197
 20
2.039717
  0
VERTEX
  8
PLAN_1
  6
CONTINUOUS
 10
-1.092634
 20
2.042335
  0
VERTEX
  8
PLAN_1
  6
CONTINUOUS
 10
-1.093945
 20
2.044953
  0
VERTEX
  8
PLAN_1
  6
CONTINUOUS
 10
-1.096126
 20
2.049748
  0
VERTEX
  8
PLAN_1
  6
CONTINUOUS
 10
-1.099177
 20
2.053240
  0
VERTEX
  8
PLAN_1
  6
CONTINUOUS
 10
-1.101358
 20
2.055421
  0
VERTEX
  8
PLAN_1
  6
CONTINUOUS
 10
-1.102669
 20
2.056295
  0
SEQEND
  8
0
  0
POLYLINE
  8
PLAN_1
  6
CONTINUOUS
 66
     1
 40
0.008287
 41
0.008287
  0
VERTEX
  8
PLAN_1
  6
CONTINUOUS
 10
-1.102669
 20
2.056295
  0
VERTEX
  8
PLAN_1
  6
CONTINUOUS
 10
-1.329528
 20
2.056295
  0
SEQEND
  8
0
  0
POLYLINE
  8
PLAN_1
  6
CONTINUOUS
 66
     1
 40
0.008287
 41
0.008287
  0
VERTEX
  8
PLAN_1
  6
CONTINUOUS
 10
-1.329528
 20
2.056295
  0
VERTEX
  8
PLAN_1
  6
CONTINUOUS
 10
-1.330402
 20
2.055421
  0
VERTEX
  8
PLAN_1
  6
CONTINUOUS
 10
-1.332583
 20
2.053677
  0
VERTEX
  8
PLAN_1
  6
CONTINUOUS
 10
-1.335201
 20
2.050185
  0
VERTEX
  8
PLAN_1
  6
CONTINUOUS
 10
-1.337382
 20
2.045386
  0
VERTEX
  8
PLAN_1
  6
CONTINUOUS
 10
-1.338256
 20
2.042768
  0
VERTEX
  8
PLAN_1
  6
CONTINUOUS
 10
-1.338689
 20
2.040154
  0
VERTEX
  8
PLAN_1
  6
CONTINUOUS
 10
-1.338689
 20
2.037098
  0
VERTEX
  8
PLAN_1
  6
CONTINUOUS
 10
-1.338256
 20
2.034043
  0
VERTEX
  8
PLAN_1
  6
CONTINUOUS
 10
-1.337382
 20
2.030555
  0
VERTEX
  8
PLAN_1
  6
CONTINUOUS
 10
-1.335638
 20
2.027063
  0
VERTEX
  8
PLAN_1
  6
CONTINUOUS
 10
-1.333020
 20
2.023138
  0
VERTEX
  8
PLAN_1
  6
CONTINUOUS
 10
-1.329528
 20
2.019646
  0
SEQEND
  8
0
  0
POLYLINE
  8
PLAN_1
  6
CONTINUOUS
 66
     1
 40
0.008287
 41
0.008287
  0
VERTEX
  8
PLAN_1
  6
CONTINUOUS
 10
-1.329528
 20
2.019646
  0
VERTEX
  8
PLAN_1
  6
CONTINUOUS
 10
-1.102669
 20
2.019646
  0
SEQEND
  8
0
  0
POLYLINE
  8
PLAN_1
  6
CONTINUOUS
 66
     1
 40
0.008287
 41
0.008287
  0
VERTEX
  8
PLAN_1
  6
CONTINUOUS
 10
-1.102232
 20
1.983000
  0
VERTEX
  8
PLAN_1
  6
CONTINUOUS
 10
-1.098307
 20
1.986492
  0
VERTEX
  8
PLAN_1
  6
CONTINUOUS
 10
-1.095252
 20
1.989980
  0
VERTEX
  8
PLAN_1
  6
CONTINUOUS
 10
-1.093508
 20
1.993472
  0
VERTEX
  8
PLAN_1
  6
CONTINUOUS
 10
-1.092197
 20
1.996524
  0
VERTEX
  8
PLAN_1
  6
CONTINUOUS
 10
-1.091764
 20
2.000016
  0
VERTEX
  8
PLAN_1
  6
CONTINUOUS
 10
-1.091764
 20
2.003071
  0
VERTEX
  8
PLAN_1
  6
CONTINUOUS
 10
-1.092634
 20
2.005685
  0
VERTEX
  8
PLAN_1
  6
CONTINUOUS
 10
-1.093508
 20
2.008303
  0
VERTEX
  8
PLAN_1
  6
CONTINUOUS
 10
-1.096126
 20
2.013102
  0
VERTEX
  8
PLAN_1
  6
CONTINUOUS
 10
-1.098744
 20
2.016594
  0
VERTEX
  8
PLAN_1
  6
CONTINUOUS
 10
-1.101358
 20
2.018776
  0
VERTEX
  8
PLAN_1
  6
CONTINUOUS
 10
-1.102232
 20
2.019646
  0
SEQEND
  8
0
  0
POLYLINE
  8
PLAN_1
  6
CONTINUOUS
 66
     1
 40
0.008287
 41
0.008287
  0
VERTEX
  8
PLAN_1
  6
CONTINUOUS
 10
-1.102232
 20
2.019646
  0
VERTEX
  8
PLAN_1
  6
CONTINUOUS
 10
-1.329091
 20
2.019646
  0
SEQEND
  8
0
  0
POLYLINE
  8
PLAN_1
  6
CONTINUOUS
 66
     1
 40
0.008287
 41
0.008287
  0
VERTEX
  8
PLAN_1
  6
CONTINUOUS
 10
-1.329091
 20
2.019646
  0
VERTEX
  8
PLAN_1
  6
CONTINUOUS
 10
-1.329965
 20
2.019213
  0
VERTEX
  8
PLAN_1
  6
CONTINUOUS
 10
-1.332146
 20
2.017031
  0
VERTEX
  8
PLAN_1
  6
CONTINUOUS
 10
-1.334764
 20
2.013539
  0
VERTEX
  8
PLAN_1
  6
CONTINUOUS
 10
-1.336945
 20
2.009177
  0
VERTEX
  8
PLAN_1
  6
CONTINUOUS
 10
-1.337819
 20
2.006559
  0
VERTEX
  8
PLAN_1
  6
CONTINUOUS
 10
-1.338256
 20
2.003504
  0
VERTEX
  8
PLAN_1
  6
CONTINUOUS
 10
-1.338256
 20
2.000453
  0
VERTEX
  8
PLAN_1
  6
CONTINUOUS
 10
-1.337819
 20
1.997398
  0
VERTEX
  8
PLAN_1
  6
CONTINUOUS
 10
-1.336945
 20
1.993906
  0
VERTEX
  8
PLAN_1
  6
CONTINUOUS
 10
-1.335201
 20
1.990417
  0
VERTEX
  8
PLAN_1
  6
CONTINUOUS
 10
-1.332583
 20
1.986492
  0
VERTEX
  8
PLAN_1
  6
CONTINUOUS
 10
-1.329091
 20
1.983000
  0
SEQEND
  8
0
  0
POLYLINE
  8
PLAN_1
  6
CONTINUOUS
 66
     1
 40
0.008287
 41
0.008287
  0
VERTEX
  8
PLAN_1
  6
CONTINUOUS
 10
-1.329091
 20
1.983000
  0
VERTEX
  8
PLAN_1
  6
CONTINUOUS
 10
-1.102232
 20
1.983000
  0
SEQEND
  8
0
  0
POLYLINE
  8
PLAN_1
  6
CONTINUOUS
 66
     1
 40
0.008287
 41
0.008287
  0
VERTEX
  8
PLAN_1
  6
CONTINUOUS
 10
-1.102669
 20
1.946354
  0
VERTEX
  8
PLAN_1
  6
CONTINUOUS
 10
-1.098744
 20
1.949843
  0
VERTEX
  8
PLAN_1
  6
CONTINUOUS
 10
-1.095689
 20
1.953335
  0
VERTEX
  8
PLAN_1
  6
CONTINUOUS
 10
-1.093945
 20
1.956823
  0
VERTEX
  8
PLAN_1
  6
CONTINUOUS
 10
-1.092634
 20
1.959878
  0
VERTEX
  8
PLAN_1
  6
CONTINUOUS
 10
-1.092197
 20
1.963370
  0
VERTEX
  8
PLAN_1
  6
CONTINUOUS
 10
-1.092197
 20
1.966421
  0
VERTEX
  8
PLAN_1
  6
CONTINUOUS
 10
-1.092634
 20
1.969039
  0
VERTEX
  8
PLAN_1
  6
CONTINUOUS
 10
-1.093945
 20
1.972094
  0
VERTEX
  8
PLAN_1
  6
CONTINUOUS
 10
-1.096126
 20
1.976457
  0
VERTEX
  8
PLAN_1
  6
CONTINUOUS
 10
-1.099177
 20
1.979945
  0
VERTEX
  8
PLAN_1
  6
CONTINUOUS
 10
-1.101358
 20
1.982563
  0
VERTEX
  8
PLAN_1
  6
CONTINUOUS
 10
-1.102669
 20
1.983000
  0
SEQEND
  8
0
  0
POLYLINE
  8
PLAN_1
  6
CONTINUOUS
 66
     1
 40
0.008287
 41
0.008287
  0
VERTEX
  8
PLAN_1
  6
CONTINUOUS
 10
-1.102669
 20
1.983000
  0
VERTEX
  8
PLAN_1
  6
CONTINUOUS
 10
-1.329528
 20
1.983000
  0
SEQEND
  8
0
  0
POLYLINE
  8
PLAN_1
  6
CONTINUOUS
 66
     1
 40
0.008287
 41
0.008287
  0
VERTEX
  8
PLAN_1
  6
CONTINUOUS
 10
-1.329528
 20
1.983000
  0
VERTEX
  8
PLAN_1
  6
CONTINUOUS
 10
-1.330402
 20
1.982563
  0
VERTEX
  8
PLAN_1
  6
CONTINUOUS
 10
-1.332583
 20
1.980382
  0
VERTEX
  8
PLAN_1
  6
CONTINUOUS
 10
-1.335201
 20
1.976894
  0
VERTEX
  8
PLAN_1
  6
CONTINUOUS
 10
-1.337382
 20
1.972531
  0
VERTEX
  8
PLAN_1
  6
CONTINUOUS
 10
-1.338256
 20
1.969913
  0
VERTEX
  8
PLAN_1
  6
CONTINUOUS
 10
-1.338689
 20
1.966858
  0
VERTEX
  8
PLAN_1
  6
CONTINUOUS
 10
-1.338689
 20
1.963803
  0
VERTEX
  8
PLAN_1
  6
CONTINUOUS
 10
-1.338256
 20
1.960752
  0
VERTEX
  8
PLAN_1
  6
CONTINUOUS
 10
-1.337382
 20
1.957260
  0
VERTEX
  8
PLAN_1
  6
CONTINUOUS
 10
-1.335638
 20
1.953772
  0
VERTEX
  8
PLAN_1
  6
CONTINUOUS
 10
-1.333020
 20
1.949843
  0
VERTEX
  8
PLAN_1
  6
CONTINUOUS
 10
-1.329528
 20
1.946354
  0
SEQEND
  8
0
  0
POLYLINE
  8
PLAN_1
  6
CONTINUOUS
 66
     1
 40
0.008287
 41
0.008287
  0
VERTEX
  8
PLAN_1
  6
CONTINUOUS
 10
-1.329528
 20
1.946354
  0
VERTEX
  8
PLAN_1
  6
CONTINUOUS
 10
-1.102669
 20
1.946354
  0
SEQEND
  8
0
  0
POLYLINE
  8
PLAN_1
  6
CONTINUOUS
 66
     1
 40
0.008287
 41
0.008287
  0
VERTEX
  8
PLAN_1
  6
CONTINUOUS
 10
-1.102232
 20
1.909709
  0
VERTEX
  8
PLAN_1
  6
CONTINUOUS
 10
-1.098307
 20
1.913197
  0
VERTEX
  8
PLAN_1
  6
CONTINUOUS
 10
-1.095252
 20
1.916689
  0
VERTEX
  8
PLAN_1
  6
CONTINUOUS
 10
-1.093508
 20
1.920177
  0
VERTEX
  8
PLAN_1
  6
CONTINUOUS
 10
-1.092197
 20
1.923669
  0
VERTEX
  8
PLAN_1
  6
CONTINUOUS
 10
-1.091764
 20
1.926720
  0
VERTEX
  8
PLAN_1
  6
CONTINUOUS
 10
-1.091764
 20
1.929776
  0
VERTEX
  8
PLAN_1
  6
CONTINUOUS
 10
-1.092634
 20
1.932831
  0
VERTEX
  8
PLAN_1
  6
CONTINUOUS
 10
-1.093508
 20
1.935449
  0
VERTEX
  8
PLAN_1
  6
CONTINUOUS
 10
-1.096126
 20
1.939811
  0
VERTEX
  8
PLAN_1
  6
CONTINUOUS
 10
-1.098744
 20
1.943299
  0
VERTEX
  8
PLAN_1
  6
CONTINUOUS
 10
-1.101358
 20
1.945917
  0
VERTEX
  8
PLAN_1
  6
CONTINUOUS
 10
-1.102232
 20
1.946791
  0
SEQEND
  8
0
  0
POLYLINE
  8
PLAN_1
  6
CONTINUOUS
 66
     1
 40
0.008287
 41
0.008287
  0
VERTEX
  8
PLAN_1
  6
CONTINUOUS
 10
-1.102232
 20
1.946791
  0
VERTEX
  8
PLAN_1
  6
CONTINUOUS
 10
-1.329091
 20
1.946791
  0
SEQEND
  8
0
  0
POLYLINE
  8
PLAN_1
  6
CONTINUOUS
 66
     1
 40
0.008287
 41
0.008287
  0
VERTEX
  8
PLAN_1
  6
CONTINUOUS
 10
-1.329091
 20
1.946791
  0
VERTEX
  8
PLAN_1
  6
CONTINUOUS
 10
-1.329965
 20
1.945917
  0
VERTEX
  8
PLAN_1
  6
CONTINUOUS
 10
-1.332146
 20
1.943736
  0
VERTEX
  8
PLAN_1
  6
CONTINUOUS
 10
-1.334764
 20
1.940248
  0
VERTEX
  8
PLAN_1
  6
CONTINUOUS
 10
-1.336945
 20
1.935882
  0
VERTEX
  8
PLAN_1
  6
CONTINUOUS
 10
-1.337819
 20
1.933268
  0
VERTEX
  8
PLAN_1
  6
CONTINUOUS
 10
-1.338256
 20
1.930213
  0
VERTEX
  8
PLAN_1
  6
CONTINUOUS
 10
-1.338256
 20
1.927157
  0
VERTEX
  8
PLAN_1
  6
CONTINUOUS
 10
-1.337819
 20
1.924106
  0
VERTEX
  8
PLAN_1
  6
CONTINUOUS
 10
-1.336945
 20
1.920614
  0
VERTEX
  8
PLAN_1
  6
CONTINUOUS
 10
-1.335201
 20
1.917126
  0
VERTEX
  8
PLAN_1
  6
CONTINUOUS
 10
-1.332583
 20
1.913634
  0
VERTEX
  8
PLAN_1
  6
CONTINUOUS
 10
-1.329091
 20
1.909709
  0
SEQEND
  8
0
  0
POLYLINE
  8
PLAN_1
  6
CONTINUOUS
 66
     1
 40
0.008287
 41
0.008287
  0
VERTEX
  8
PLAN_1
  6
CONTINUOUS
 10
-1.329091
 20
1.909709
  0
VERTEX
  8
PLAN_1
  6
CONTINUOUS
 10
-1.102232
 20
1.909709
  0
SEQEND
  8
0
  0
POLYLINE
  8
PLAN_1
  6
CONTINUOUS
 66
     1
 40
0.008287
 41
0.008287
  0
VERTEX
  8
PLAN_1
  6
CONTINUOUS
 10
-1.102669
 20
1.873059
  0
VERTEX
  8
PLAN_1
  6
CONTINUOUS
 10
-1.098744
 20
1.876551
  0
VERTEX
  8
PLAN_1
  6
CONTINUOUS
 10
-1.095689
 20
1.880039
  0
VERTEX
  8
PLAN_1
  6
CONTINUOUS
 10
-1.093945
 20
1.883531
  0
VERTEX
  8
PLAN_1
  6
CONTINUOUS
 10
-1.092634
 20
1.887020
  0
VERTEX
  8
PLAN_1
  6
CONTINUOUS
 10
-1.092197
 20
1.890075
  0
VERTEX
  8
PLAN_1
  6
CONTINUOUS
 10
-1.092197
 20
1.893130
  0
VERTEX
  8
PLAN_1
  6
CONTINUOUS
 10
-1.092634
 20
1.896185
  0
VERTEX
  8
PLAN_1
  6
CONTINUOUS
 10
-1.093945
 20
1.898799
  0
VERTEX
  8
PLAN_1
  6
CONTINUOUS
 10
-1.096126
 20
1.903165
  0
VERTEX
  8
PLAN_1
  6
CONTINUOUS
 10
-1.099177
 20
1.907091
  0
VERTEX
  8
PLAN_1
  6
CONTINUOUS
 10
-1.101358
 20
1.909272
  0
VERTEX
  8
PLAN_1
  6
CONTINUOUS
 10
-1.102669
 20
1.910146
  0
SEQEND
  8
0
  0
POLYLINE
  8
PLAN_1
  6
CONTINUOUS
 66
     1
 40
0.008287
 41
0.008287
  0
VERTEX
  8
PLAN_1
  6
CONTINUOUS
 10
-1.102669
 20
1.910146
  0
VERTEX
  8
PLAN_1
  6
CONTINUOUS
 10
-1.329528
 20
1.910146
  0
SEQEND
  8
0
  0
POLYLINE
  8
PLAN_1
  6
CONTINUOUS
 66
     1
 40
0.008287
 41
0.008287
  0
VERTEX
  8
PLAN_1
  6
CONTINUOUS
 10
-1.329528
 20
1.910146
  0
VERTEX
  8
PLAN_1
  6
CONTINUOUS
 10
-1.330402
 20
1.909272
  0
VERTEX
  8
PLAN_1
  6
CONTINUOUS
 10
-1.332583
 20
1.907091
  0
VERTEX
  8
PLAN_1
  6
CONTINUOUS
 10
-1.335201
 20
1.903598
  0
VERTEX
  8
PLAN_1
  6
CONTINUOUS
 10
-1.337382
 20
1.899236
  0
VERTEX
  8
PLAN_1
  6
CONTINUOUS
 10
-1.338256
 20
1.896618
  0
VERTEX
  8
PLAN_1
  6
CONTINUOUS
 10
-1.338689
 20
1.893567
  0
VERTEX
  8
PLAN_1
  6
CONTINUOUS
 10
-1.338689
 20
1.890512
  0
VERTEX
  8
PLAN_1
  6
CONTINUOUS
 10
-1.338256
 20
1.887457
  0
VERTEX
  8
PLAN_1
  6
CONTINUOUS
 10
-1.337382
 20
1.883969
  0
VERTEX
  8
PLAN_1
  6
CONTINUOUS
 10
-1.335638
 20
1.880476
  0
VERTEX
  8
PLAN_1
  6
CONTINUOUS
 10
-1.333020
 20
1.876988
  0
VERTEX
  8
PLAN_1
  6
CONTINUOUS
 10
-1.329528
 20
1.873059
  0
SEQEND
  8
0
  0
POLYLINE
  8
PLAN_1
  6
CONTINUOUS
 66
     1
 40
0.008287
 41
0.008287
  0
VERTEX
  8
PLAN_1
  6
CONTINUOUS
 10
-1.329528
 20
1.873059
  0
VERTEX
  8
PLAN_1
  6
CONTINUOUS
 10
-1.102669
 20
1.873059
  0
SEQEND
  8
0
  0
POLYLINE
  8
PLAN_1
  6
CONTINUOUS
 66
     1
 40
0.008287
 41
0.008287
  0
VERTEX
  8
PLAN_1
  6
CONTINUOUS
 10
-1.102232
 20
1.836413
  0
VERTEX
  8
PLAN_1
  6
CONTINUOUS
 10
-1.098307
 20
1.839906
  0
VERTEX
  8
PLAN_1
  6
CONTINUOUS
 10
-1.095252
 20
1.843394
  0
VERTEX
  8
PLAN_1
  6
CONTINUOUS
 10
-1.093508
 20
1.846886
  0
VERTEX
  8
PLAN_1
  6
CONTINUOUS
 10
-1.092197
 20
1.850374
  0
VERTEX
  8
PLAN_1
  6
CONTINUOUS
 10
-1.091764
 20
1.853429
  0
VERTEX
  8
PLAN_1
  6
CONTINUOUS
 10
-1.091764
 20
1.856484
  0
VERTEX
  8
PLAN_1
  6
CONTINUOUS
 10
-1.092634
 20
1.859535
  0
VERTEX
  8
PLAN_1
  6
CONTINUOUS
 10
-1.093508
 20
1.862154
  0
VERTEX
  8
PLAN_1
  6
CONTINUOUS
 10
-1.096126
 20
1.866953
  0
VERTEX
  8
PLAN_1
  6
CONTINUOUS
 10
-1.098744
 20
1.870445
  0
VERTEX
  8
PLAN_1
  6
CONTINUOUS
 10
-1.101358
 20
1.872626
  0
VERTEX
  8
PLAN_1
  6
CONTINUOUS
 10
-1.102232
 20
1.873496
  0
SEQEND
  8
0
  0
POLYLINE
  8
PLAN_1
  6
CONTINUOUS
 66
     1
 40
0.008287
 41
0.008287
  0
VERTEX
  8
PLAN_1
  6
CONTINUOUS
 10
-1.102232
 20
1.873496
  0
VERTEX
  8
PLAN_1
  6
CONTINUOUS
 10
-1.329091
 20
1.873496
  0
SEQEND
  8
0
  0
POLYLINE
  8
PLAN_1
  6
CONTINUOUS
 66
     1
 40
0.008287
 41
0.008287
  0
VERTEX
  8
PLAN_1
  6
CONTINUOUS
 10
-1.329091
 20
1.873496
  0
VERTEX
  8
PLAN_1
  6
CONTINUOUS
 10
-1.329965
 20
1.872626
  0
VERTEX
  8
PLAN_1
  6
CONTINUOUS
 10
-1.332146
 20
1.870445
  0
VERTEX
  8
PLAN_1
  6
CONTINUOUS
 10
-1.334764
 20
1.866953
  0
VERTEX
  8
PLAN_1
  6
CONTINUOUS
 10
-1.336945
 20
1.862591
  0
VERTEX
  8
PLAN_1
  6
CONTINUOUS
 10
-1.337819
 20
1.859972
  0
VERTEX
  8
PLAN_1
  6
CONTINUOUS
 10
-1.338256
 20
1.857354
  0
VERTEX
  8
PLAN_1
  6
CONTINUOUS
 10
-1.338256
 20
1.854303
  0
VERTEX
  8
PLAN_1
  6
CONTINUOUS
 10
-1.337819
 20
1.850811
  0
VERTEX
  8
PLAN_1
  6
CONTINUOUS
 10
-1.336945
 20
1.847323
  0
VERTEX
  8
PLAN_1
  6
CONTINUOUS
 10
-1.335201
 20
1.843831
  0
VERTEX
  8
PLAN_1
  6
CONTINUOUS
 10
-1.332583
 20
1.840343
  0
VERTEX
  8
PLAN_1
  6
CONTINUOUS
 10
-1.329091
 20
1.836413
  0
SEQEND
  8
0
  0
POLYLINE
  8
PLAN_1
  6
CONTINUOUS
 66
     1
 40
0.008287
 41
0.008287
  0
VERTEX
  8
PLAN_1
  6
CONTINUOUS
 10
-1.329091
 20
1.836413
  0
VERTEX
  8
PLAN_1
  6
CONTINUOUS
 10
-1.102232
 20
1.836413
  0
SEQEND
  8
0
  0
POLYLINE
  8
PLAN_1
  6
CONTINUOUS
 66
     1
 40
0.008287
 41
0.008287
  0
VERTEX
  8
PLAN_1
  6
CONTINUOUS
 10
-1.102669
 20
1.799768
  0
VERTEX
  8
PLAN_1
  6
CONTINUOUS
 10
-1.098744
 20
1.803260
  0
VERTEX
  8
PLAN_1
  6
CONTINUOUS
 10
-1.095689
 20
1.806748
  0
VERTEX
  8
PLAN_1
  6
CONTINUOUS
 10
-1.093945
 20
1.810240
  0
VERTEX
  8
PLAN_1
  6
CONTINUOUS
 10
-1.092634
 20
1.813728
  0
VERTEX
  8
PLAN_1
  6
CONTINUOUS
 10
-1.092197
 20
1.816783
  0
VERTEX
  8
PLAN_1
  6
CONTINUOUS
 10
-1.092197
 20
1.819835
  0
VERTEX
  8
PLAN_1
  6
CONTINUOUS
 10
-1.092634
 20
1.822890
  0
VERTEX
  8
PLAN_1
  6
CONTINUOUS
 10
-1.093945
 20
1.825508
  0
VERTEX
  8
PLAN_1
  6
CONTINUOUS
 10
-1.096126
 20
1.830307
  0
VERTEX
  8
PLAN_1
  6
CONTINUOUS
 10
-1.099177
 20
1.833795
  0
VERTEX
  8
PLAN_1
  6
CONTINUOUS
 10
-1.101358
 20
1.835976
  0
VERTEX
  8
PLAN_1
  6
CONTINUOUS
 10
-1.102669
 20
1.836850
  0
SEQEND
  8
0
  0
POLYLINE
  8
PLAN_1
  6
CONTINUOUS
 66
     1
 40
0.008287
 41
0.008287
  0
VERTEX
  8
PLAN_1
  6
CONTINUOUS
 10
-1.102669
 20
1.836850
  0
VERTEX
  8
PLAN_1
  6
CONTINUOUS
 10
-1.329528
 20
1.836850
  0
SEQEND
  8
0
  0
POLYLINE
  8
PLAN_1
  6
CONTINUOUS
 66
     1
 40
0.008287
 41
0.008287
  0
VERTEX
  8
PLAN_1
  6
CONTINUOUS
 10
-1.329528
 20
1.836850
  0
VERTEX
  8
PLAN_1
  6
CONTINUOUS
 10
-1.330402
 20
1.835976
  0
VERTEX
  8
PLAN_1
  6
CONTINUOUS
 10
-1.332583
 20
1.833795
  0
VERTEX
  8
PLAN_1
  6
CONTINUOUS
 10
-1.335201
 20
1.830307
  0
VERTEX
  8
PLAN_1
  6
CONTINUOUS
 10
-1.337382
 20
1.825945
  0
VERTEX
  8
PLAN_1
  6
CONTINUOUS
 10
-1.338256
 20
1.823327
  0
VERTEX
  8
PLAN_1
  6
CONTINUOUS
 10
-1.338689
 20
1.820709
  0
VERTEX
  8
PLAN_1
  6
CONTINUOUS
 10
-1.338689
 20
1.817654
  0
VERTEX
  8
PLAN_1
  6
CONTINUOUS
 10
-1.338256
 20
1.814165
  0
VERTEX
  8
PLAN_1
  6
CONTINUOUS
 10
-1.337382
 20
1.810673
  0
VERTEX
  8
PLAN_1
  6
CONTINUOUS
 10
-1.335638
 20
1.807185
  0
VERTEX
  8
PLAN_1
  6
CONTINUOUS
 10
-1.333020
 20
1.803693
  0
VERTEX
  8
PLAN_1
  6
CONTINUOUS
 10
-1.329528
 20
1.799768
  0
SEQEND
  8
0
  0
POLYLINE
  8
PLAN_1
  6
CONTINUOUS
 66
     1
 40
0.008287
 41
0.008287
  0
VERTEX
  8
PLAN_1
  6
CONTINUOUS
 10
-1.329528
 20
1.799768
  0
VERTEX
  8
PLAN_1
  6
CONTINUOUS
 10
-1.102669
 20
1.799768
  0
SEQEND
  8
0
  0
POLYLINE
  8
PLAN_1
  6
CONTINUOUS
 66
     1
 40
0.008287
 41
0.008287
  0
VERTEX
  8
PLAN_1
  6
CONTINUOUS
 10
-1.102232
 20
1.763122
  0
VERTEX
  8
PLAN_1
  6
CONTINUOUS
 10
-1.098307
 20
1.767047
  0
VERTEX
  8
PLAN_1
  6
CONTINUOUS
 10
-1.095252
 20
1.770539
  0
VERTEX
  8
PLAN_1
  6
CONTINUOUS
 10
-1.093508
 20
1.773591
  0
VERTEX
  8
PLAN_1
  6
CONTINUOUS
 10
-1.092197
 20
1.777083
  0
VERTEX
  8
PLAN_1
  6
CONTINUOUS
 10
-1.091764
 20
1.780134
  0
VERTEX
  8
PLAN_1
  6
CONTINUOUS
 10
-1.091764
 20
1.783189
  0
VERTEX
  8
PLAN_1
  6
CONTINUOUS
 10
-1.092634
 20
1.786244
  0
VERTEX
  8
PLAN_1
  6
CONTINUOUS
 10
-1.093508
 20
1.788862
  0
VERTEX
  8
PLAN_1
  6
CONTINUOUS
 10
-1.096126
 20
1.793661
  0
VERTEX
  8
PLAN_1
  6
CONTINUOUS
 10
-1.098744
 20
1.797150
  0
VERTEX
  8
PLAN_1
  6
CONTINUOUS
 10
-1.101358
 20
1.799331
  0
VERTEX
  8
PLAN_1
  6
CONTINUOUS
 10
-1.102232
 20
1.800205
  0
SEQEND
  8
0
  0
POLYLINE
  8
PLAN_1
  6
CONTINUOUS
 66
     1
 40
0.008287
 41
0.008287
  0
VERTEX
  8
PLAN_1
  6
CONTINUOUS
 10
-1.102232
 20
1.800205
  0
VERTEX
  8
PLAN_1
  6
CONTINUOUS
 10
-1.329091
 20
1.800205
  0
SEQEND
  8
0
  0
POLYLINE
  8
PLAN_1
  6
CONTINUOUS
 66
     1
 40
0.008287
 41
0.008287
  0
VERTEX
  8
PLAN_1
  6
CONTINUOUS
 10
-1.329091
 20
1.800205
  0
VERTEX
  8
PLAN_1
  6
CONTINUOUS
 10
-1.329965
 20
1.799331
  0
VERTEX
  8
PLAN_1
  6
CONTINUOUS
 10
-1.332146
 20
1.797150
  0
VERTEX
  8
PLAN_1
  6
CONTINUOUS
 10
-1.334764
 20
1.794094
  0
VERTEX
  8
PLAN_1
  6
CONTINUOUS
 10
-1.336945
 20
1.789299
  0
VERTEX
  8
PLAN_1
  6
CONTINUOUS
 10
-1.337819
 20
1.786681
  0
VERTEX
  8
PLAN_1
  6
CONTINUOUS
 10
-1.338256
 20
1.784063
  0
VERTEX
  8
PLAN_1
  6
CONTINUOUS
 10
-1.338256
 20
1.781008
  0
VERTEX
  8
PLAN_1
  6
CONTINUOUS
 10
-1.337819
 20
1.777520
  0
VERTEX
  8
PLAN_1
  6
CONTINUOUS
 10
-1.336945
 20
1.774465
  0
VERTEX
  8
PLAN_1
  6
CONTINUOUS
 10
-1.335201
 20
1.770539
  0
VERTEX
  8
PLAN_1
  6
CONTINUOUS
 10
-1.332583
 20
1.767047
  0
VERTEX
  8
PLAN_1
  6
CONTINUOUS
 10
-1.329091
 20
1.763122
  0
SEQEND
  8
0
  0
POLYLINE
  8
PLAN_1
  6
CONTINUOUS
 66
     1
 40
0.008287
 41
0.008287
  0
VERTEX
  8
PLAN_1
  6
CONTINUOUS
 10
-1.329091
 20
1.763122
  0
VERTEX
  8
PLAN_1
  6
CONTINUOUS
 10
-1.102232
 20
1.763122
  0
SEQEND
  8
0
  0
POLYLINE
  8
PLAN_1
  6
CONTINUOUS
 66
     1
 40
0.008287
 41
0.008287
  0
VERTEX
  8
PLAN_1
  6
CONTINUOUS
 10
-1.102669
 20
1.726476
  0
VERTEX
  8
PLAN_1
  6
CONTINUOUS
 10
-1.098744
 20
1.730402
  0
VERTEX
  8
PLAN_1
  6
CONTINUOUS
 10
-1.095689
 20
1.733890
  0
VERTEX
  8
PLAN_1
  6
CONTINUOUS
 10
-1.093945
 20
1.737382
  0
VERTEX
  8
PLAN_1
  6
CONTINUOUS
 10
-1.092634
 20
1.740437
  0
VERTEX
  8
PLAN_1
  6
CONTINUOUS
 10
-1.092197
 20
1.743925
  0
VERTEX
  8
PLAN_1
  6
CONTINUOUS
 10
-1.092197
 20
1.746980
  0
VERTEX
  8
PLAN_1
  6
CONTINUOUS
 10
-1.092634
 20
1.749598
  0
VERTEX
  8
PLAN_1
  6
CONTINUOUS
 10
-1.093945
 20
1.752213
  0
VERTEX
  8
PLAN_1
  6
CONTINUOUS
 10
-1.096126
 20
1.757012
  0
VERTEX
  8
PLAN_1
  6
CONTINUOUS
 10
-1.099177
 20
1.760504
  0
VERTEX
  8
PLAN_1
  6
CONTINUOUS
 10
-1.101358
 20
1.762685
  0
VERTEX
  8
PLAN_1
  6
CONTINUOUS
 10
-1.102669
 20
1.763559
  0
SEQEND
  8
0
  0
POLYLINE
  8
PLAN_1
  6
CONTINUOUS
 66
     1
 40
0.008287
 41
0.008287
  0
VERTEX
  8
PLAN_1
  6
CONTINUOUS
 10
-1.102669
 20
1.763559
  0
VERTEX
  8
PLAN_1
  6
CONTINUOUS
 10
-1.329528
 20
1.763559
  0
SEQEND
  8
0
  0
POLYLINE
  8
PLAN_1
  6
CONTINUOUS
 66
     1
 40
0.008287
 41
0.008287
  0
VERTEX
  8
PLAN_1
  6
CONTINUOUS
 10
-1.329528
 20
1.763559
  0
VERTEX
  8
PLAN_1
  6
CONTINUOUS
 10
-1.330402
 20
1.762685
  0
VERTEX
  8
PLAN_1
  6
CONTINUOUS
 10
-1.332583
 20
1.760941
  0
VERTEX
  8
PLAN_1
  6
CONTINUOUS
 10
-1.335201
 20
1.757449
  0
VERTEX
  8
PLAN_1
  6
CONTINUOUS
 10
-1.337382
 20
1.752650
  0
VERTEX
  8
PLAN_1
  6
CONTINUOUS
 10
-1.338256
 20
1.750031
  0
VERTEX
  8
PLAN_1
  6
CONTINUOUS
 10
-1.338689
 20
1.747417
  0
VERTEX
  8
PLAN_1
  6
CONTINUOUS
 10
-1.338689
 20
1.744362
  0
VERTEX
  8
PLAN_1
  6
CONTINUOUS
 10
-1.338256
 20
1.741307
  0
VERTEX
  8
PLAN_1
  6
CONTINUOUS
 10
-1.337382
 20
1.737819
  0
VERTEX
  8
PLAN_1
  6
CONTINUOUS
 10
-1.335638
 20
1.734327
  0
VERTEX
  8
PLAN_1
  6
CONTINUOUS
 10
-1.333020
 20
1.730402
  0
VERTEX
  8
PLAN_1
  6
CONTINUOUS
 10
-1.329528
 20
1.726476
  0
SEQEND
  8
0
  0
POLYLINE
  8
PLAN_1
  6
CONTINUOUS
 66
     1
 40
0.008287
 41
0.008287
  0
VERTEX
  8
PLAN_1
  6
CONTINUOUS
 10
-1.329528
 20
1.726476
  0
VERTEX
  8
PLAN_1
  6
CONTINUOUS
 10
-1.102669
 20
1.726476
  0
SEQEND
  8
0
  0
POLYLINE
  8
PLAN_1
  6
CONTINUOUS
 66
     1
 40
0.008287
 41
0.008287
  0
VERTEX
  8
PLAN_1
  6
CONTINUOUS
 10
-1.102232
 20
1.690264
  0
VERTEX
  8
PLAN_1
  6
CONTINUOUS
 10
-1.098307
 20
1.693756
  0
VERTEX
  8
PLAN_1
  6
CONTINUOUS
 10
-1.095252
 20
1.697244
  0
VERTEX
  8
PLAN_1
  6
CONTINUOUS
 10
-1.093508
 20
1.700736
  0
VERTEX
  8
PLAN_1
  6
CONTINUOUS
 10
-1.092197
 20
1.703787
  0
VERTEX
  8
PLAN_1
  6
CONTINUOUS
 10
-1.091764
 20
1.707280
  0
VERTEX
  8
PLAN_1
  6
CONTINUOUS
 10
-1.091764
 20
1.710335
  0
VERTEX
  8
PLAN_1
  6
CONTINUOUS
 10
-1.092634
 20
1.712949
  0
VERTEX
  8
PLAN_1
  6
CONTINUOUS
 10
-1.093508
 20
1.715567
  0
VERTEX
  8
PLAN_1
  6
CONTINUOUS
 10
-1.096126
 20
1.720366
  0
VERTEX
  8
PLAN_1
  6
CONTINUOUS
 10
-1.098744
 20
1.723858
  0
VERTEX
  8
PLAN_1
  6
CONTINUOUS
 10
-1.101358
 20
1.726039
  0
VERTEX
  8
PLAN_1
  6
CONTINUOUS
 10
-1.102232
 20
1.726909
  0
SEQEND
  8
0
  0
POLYLINE
  8
PLAN_1
  6
CONTINUOUS
 66
     1
 40
0.008287
 41
0.008287
  0
VERTEX
  8
PLAN_1
  6
CONTINUOUS
 10
-1.102232
 20
1.726909
  0
VERTEX
  8
PLAN_1
  6
CONTINUOUS
 10
-1.329091
 20
1.726909
  0
SEQEND
  8
0
  0
POLYLINE
  8
PLAN_1
  6
CONTINUOUS
 66
     1
 40
0.008287
 41
0.008287
  0
VERTEX
  8
PLAN_1
  6
CONTINUOUS
 10
-1.329091
 20
1.726909
  0
VERTEX
  8
PLAN_1
  6
CONTINUOUS
 10
-1.329965
 20
1.726476
  0
VERTEX
  8
PLAN_1
  6
CONTINUOUS
 10
-1.332146
 20
1.724295
  0
VERTEX
  8
PLAN_1
  6
CONTINUOUS
 10
-1.334764
 20
1.720803
  0
VERTEX
  8
PLAN_1
  6
CONTINUOUS
 10
-1.336945
 20
1.716441
  0
VERTEX
  8
PLAN_1
  6
CONTINUOUS
 10
-1.337819
 20
1.713823
  0
VERTEX
  8
PLAN_1
  6
CONTINUOUS
 10
-1.338256
 20
1.710768
  0
VERTEX
  8
PLAN_1
  6
CONTINUOUS
 10
-1.338256
 20
1.707717
  0
VERTEX
  8
PLAN_1
  6
CONTINUOUS
 10
-1.337819
 20
1.704661
  0
VERTEX
  8
PLAN_1
  6
CONTINUOUS
 10
-1.336945
 20
1.701169
  0
VERTEX
  8
PLAN_1
  6
CONTINUOUS
 10
-1.335201
 20
1.697681
  0
VERTEX
  8
PLAN_1
  6
CONTINUOUS
 10
-1.332583
 20
1.693756
  0
VERTEX
  8
PLAN_1
  6
CONTINUOUS
 10
-1.329091
 20
1.690264
  0
SEQEND
  8
0
  0
POLYLINE
  8
PLAN_1
  6
CONTINUOUS
 66
     1
 40
0.008287
 41
0.008287
  0
VERTEX
  8
PLAN_1
  6
CONTINUOUS
 10
-1.329091
 20
1.690264
  0
VERTEX
  8
PLAN_1
  6
CONTINUOUS
 10
-1.102232
 20
1.690264
  0
SEQEND
  8
0
  0
POLYLINE
  8
PLAN_1
  6
CONTINUOUS
 66
     1
 40
0.008287
 41
0.008287
  0
VERTEX
  8
PLAN_1
  6
CONTINUOUS
 10
-1.251437
 20
2.679720
  0
VERTEX
  8
PLAN_1
  6
CONTINUOUS
 10
-1.329091
 20
2.679720
  0
SEQEND
  8
0
  0
POLYLINE
  8
PLAN_1
  6
CONTINUOUS
 66
     1
 40
0.008287
 41
0.008287
  0
VERTEX
  8
PLAN_1
  6
CONTINUOUS
 10
-1.329091
 20
2.679720
  0
VERTEX
  8
PLAN_1
  6
CONTINUOUS
 10
-1.329965
 20
2.678850
  0
VERTEX
  8
PLAN_1
  6
CONTINUOUS
 10
-1.332146
 20
2.676669
  0
VERTEX
  8
PLAN_1
  6
CONTINUOUS
 10
-1.334764
 20
2.673177
  0
VERTEX
  8
PLAN_1
  6
CONTINUOUS
 10
-1.336945
 20
2.668815
  0
VERTEX
  8
PLAN_1
  6
CONTINUOUS
 10
-1.337819
 20
2.666197
  0
VERTEX
  8
PLAN_1
  6
CONTINUOUS
 10
-1.338256
 20
2.663142
  0
VERTEX
  8
PLAN_1
  6
CONTINUOUS
 10
-1.338256
 20
2.660091
  0
VERTEX
  8
PLAN_1
  6
CONTINUOUS
 10
-1.337819
 20
2.657035
  0
VERTEX
  8
PLAN_1
  6
CONTINUOUS
 10
-1.336945
 20
2.653547
  0
VERTEX
  8
PLAN_1
  6
CONTINUOUS
 10
-1.335201
 20
2.650055
  0
VERTEX
  8
PLAN_1
  6
CONTINUOUS
 10
-1.332583
 20
2.646567
  0
VERTEX
  8
PLAN_1
  6
CONTINUOUS
 10
-1.329091
 20
2.642638
  0
SEQEND
  8
0
  0
POLYLINE
  8
PLAN_1
  6
CONTINUOUS
 66
     1
 40
0.008287
 41
0.008287
  0
VERTEX
  8
PLAN_1
  6
CONTINUOUS
 10
-1.309898
 20
2.642638
  0
VERTEX
  8
PLAN_1
  6
CONTINUOUS
 10
-1.329528
 20
2.642638
  0
SEQEND
  8
0
  0
POLYLINE
  8
PLAN_1
  6
CONTINUOUS
 66
     1
 40
0.008287
 41
0.008287
  0
VERTEX
  8
PLAN_1
  6
CONTINUOUS
 10
-1.329528
 20
2.642638
  0
VERTEX
  8
PLAN_1
  6
CONTINUOUS
 10
-1.329528
 20
2.642201
  0
VERTEX
  8
PLAN_1
  6
CONTINUOUS
 10
-1.330402
 20
2.641331
  0
VERTEX
  8
PLAN_1
  6
CONTINUOUS
 10
-1.331276
 20
2.640457
  0
VERTEX
  8
PLAN_1
  6
CONTINUOUS
 10
-1.332583
 20
2.638713
  0
VERTEX
  8
PLAN_1
  6
CONTINUOUS
 10
-1.334327
 20
2.636969
  0
VERTEX
  8
PLAN_1
  6
CONTINUOUS
 10
-1.335638
 20
2.634787
  0
VERTEX
  8
PLAN_1
  6
CONTINUOUS
 10
-1.336945
 20
2.632169
  0
VERTEX
  8
PLAN_1
  6
CONTINUOUS
 10
-1.337819
 20
2.629114
  0
SEQEND
  8
0
  0
POLYLINE
  8
PLAN_1
  6
CONTINUOUS
 66
     1
 40
0.008287
 41
0.008287
  0
VERTEX
  8
PLAN_1
  6
CONTINUOUS
 10
-1.098744
 20
2.579815
  0
VERTEX
  8
PLAN_1
  6
CONTINUOUS
 10
-1.096126
 20
2.583307
  0
VERTEX
  8
PLAN_1
  6
CONTINUOUS
 10
-1.093945
 20
2.586795
  0
VERTEX
  8
PLAN_1
  6
CONTINUOUS
 10
-1.092634
 20
2.590287
  0
VERTEX
  8
PLAN_1
  6
CONTINUOUS
 10
-1.092197
 20
2.593776
  0
VERTEX
  8
PLAN_1
  6
CONTINUOUS
 10
-1.091764
 20
2.596831
  0
VERTEX
  8
PLAN_1
  6
CONTINUOUS
 10
-1.091764
 20
2.599886
  0
VERTEX
  8
PLAN_1
  6
CONTINUOUS
 10
-1.092634
 20
2.602937
  0
VERTEX
  8
PLAN_1
  6
CONTINUOUS
 10
-1.093508
 20
2.605555
  0
SEQEND
  8
0
  0
POLYLINE
  8
PLAN_1
  6
CONTINUOUS
 66
     1
 40
0.008287
 41
0.008287
  0
VERTEX
  8
PLAN_1
  6
CONTINUOUS
 10
-1.192976
 20
2.543169
  0
VERTEX
  8
PLAN_1
  6
CONTINUOUS
 10
-1.101795
 20
2.543169
  0
SEQEND
  8
0
  0
POLYLINE
  8
PLAN_1
  6
CONTINUOUS
 66
     1
 40
0.008287
 41
0.008287
  0
VERTEX
  8
PLAN_1
  6
CONTINUOUS
 10
-1.101795
 20
2.543169
  0
VERTEX
  8
PLAN_1
  6
CONTINUOUS
 10
-1.097870
 20
2.546661
  0
VERTEX
  8
PLAN_1
  6
CONTINUOUS
 10
-1.095252
 20
2.550150
  0
VERTEX
  8
PLAN_1
  6
CONTINUOUS
 10
-1.093071
 20
2.553642
  0
VERTEX
  8
PLAN_1
  6
CONTINUOUS
 10
-1.092197
 20
2.557130
  0
VERTEX
  8
PLAN_1
  6
CONTINUOUS
 10
-1.091764
 20
2.560185
  0
VERTEX
  8
PLAN_1
  6
CONTINUOUS
 10
-1.091764
 20
2.563236
  0
VERTEX
  8
PLAN_1
  6
CONTINUOUS
 10
-1.092197
 20
2.566291
  0
VERTEX
  8
PLAN_1
  6
CONTINUOUS
 10
-1.093071
 20
2.568909
  0
VERTEX
  8
PLAN_1
  6
CONTINUOUS
 10
-1.095689
 20
2.573709
  0
VERTEX
  8
PLAN_1
  6
CONTINUOUS
 10
-1.098744
 20
2.577197
  0
VERTEX
  8
PLAN_1
  6
CONTINUOUS
 10
-1.100925
 20
2.579378
  0
VERTEX
  8
PLAN_1
  6
CONTINUOUS
 10
-1.101795
 20
2.580252
  0
SEQEND
  8
0
  0
POLYLINE
  8
PLAN_1
  6
CONTINUOUS
 66
     1
 40
0.008287
 41
0.008287
  0
VERTEX
  8
PLAN_1
  6
CONTINUOUS
 10
-1.101795
 20
2.580252
  0
VERTEX
  8
PLAN_1
  6
CONTINUOUS
 10
-1.131028
 20
2.580252
  0
SEQEND
  8
0
  0
POLYLINE
  8
PLAN_1
  6
CONTINUOUS
 66
     1
 40
0.008287
 41
0.008287
  0
VERTEX
  8
PLAN_1
  6
CONTINUOUS
 10
-1.254925
 20
2.506524
  0
VERTEX
  8
PLAN_1
  6
CONTINUOUS
 10
-1.102232
 20
2.506524
  0
SEQEND
  8
0
  0
POLYLINE
  8
PLAN_1
  6
CONTINUOUS
 66
     1
 40
0.008287
 41
0.008287
  0
VERTEX
  8
PLAN_1
  6
CONTINUOUS
 10
-1.102232
 20
2.506524
  0
VERTEX
  8
PLAN_1
  6
CONTINUOUS
 10
-1.098307
 20
2.510012
  0
VERTEX
  8
PLAN_1
  6
CONTINUOUS
 10
-1.095689
 20
2.513941
  0
VERTEX
  8
PLAN_1
  6
CONTINUOUS
 10
-1.093508
 20
2.516992
  0
VERTEX
  8
PLAN_1
  6
CONTINUOUS
 10
-1.092197
 20
2.520484
  0
VERTEX
  8
PLAN_1
  6
CONTINUOUS
 10
-1.091764
 20
2.523539
  0
VERTEX
  8
PLAN_1
  6
CONTINUOUS
 10
-1.092197
 20
2.526591
  0
VERTEX
  8
PLAN_1
  6
CONTINUOUS
 10
-1.092634
 20
2.529646
  0
VERTEX
  8
PLAN_1
  6
CONTINUOUS
 10
-1.093508
 20
2.532264
  0
VERTEX
  8
PLAN_1
  6
CONTINUOUS
 10
-1.096126
 20
2.537063
  0
VERTEX
  8
PLAN_1
  6
CONTINUOUS
 10
-1.098744
 20
2.540551
  0
VERTEX
  8
PLAN_1
  6
CONTINUOUS
 10
-1.101358
 20
2.542732
  0
VERTEX
  8
PLAN_1
  6
CONTINUOUS
 10
-1.102232
 20
2.543606
  0
SEQEND
  8
0
  0
POLYLINE
  8
PLAN_1
  6
CONTINUOUS
 66
     1
 40
0.008287
 41
0.008287
  0
VERTEX
  8
PLAN_1
  6
CONTINUOUS
 10
-1.102232
 20
2.543606
  0
VERTEX
  8
PLAN_1
  6
CONTINUOUS
 10
-1.192976
 20
2.543606
  0
SEQEND
  8
0
  0
POLYLINE
  8
PLAN_1
  6
CONTINUOUS
 66
     1
 40
0.008287
 41
0.008287
  0
VERTEX
  8
PLAN_1
  6
CONTINUOUS
 10
-1.329091
 20
2.469878
  0
VERTEX
  8
PLAN_1
  6
CONTINUOUS
 10
-1.101795
 20
2.469878
  0
SEQEND
  8
0
  0
POLYLINE
  8
PLAN_1
  6
CONTINUOUS
 66
     1
 40
0.008287
 41
0.008287
  0
VERTEX
  8
PLAN_1
  6
CONTINUOUS
 10
-1.101795
 20
2.469878
  0
VERTEX
  8
PLAN_1
  6
CONTINUOUS
 10
-1.097870
 20
2.473803
  0
VERTEX
  8
PLAN_1
  6
CONTINUOUS
 10
-1.095252
 20
2.477291
  0
VERTEX
  8
PLAN_1
  6
CONTINUOUS
 10
-1.093071
 20
2.480783
  0
VERTEX
  8
PLAN_1
  6
CONTINUOUS
 10
-1.092197
 20
2.483839
  0
VERTEX
  8
PLAN_1
  6
CONTINUOUS
 10
-1.091764
 20
2.487327
  0
VERTEX
  8
PLAN_1
  6
CONTINUOUS
 10
-1.091764
 20
2.490382
  0
VERTEX
  8
PLAN_1
  6
CONTINUOUS
 10
-1.092197
 20
2.493000
  0
VERTEX
  8
PLAN_1
  6
CONTINUOUS
 10
-1.093071
 20
2.495618
  0
VERTEX
  8
PLAN_1
  6
CONTINUOUS
 10
-1.095689
 20
2.500413
  0
VERTEX
  8
PLAN_1
  6
CONTINUOUS
 10
-1.098744
 20
2.503906
  0
VERTEX
  8
PLAN_1
  6
CONTINUOUS
 10
-1.100925
 20
2.506087
  0
VERTEX
  8
PLAN_1
  6
CONTINUOUS
 10
-1.101795
 20
2.506961
  0
SEQEND
  8
0
  0
POLYLINE
  8
PLAN_1
  6
CONTINUOUS
 66
     1
 40
0.008287
 41
0.008287
  0
VERTEX
  8
PLAN_1
  6
CONTINUOUS
 10
-1.101795
 20
2.506961
  0
VERTEX
  8
PLAN_1
  6
CONTINUOUS
 10
-1.258417
 20
2.506961
  0
SEQEND
  8
0
  0
POLYLINE
  8
PLAN_1
  6
CONTINUOUS
 66
     1
 40
0.008287
 41
0.008287
  0
VERTEX
  8
PLAN_1
  6
CONTINUOUS
 10
-1.329528
 20
2.276610
  0
VERTEX
  8
PLAN_1
  6
CONTINUOUS
 10
-1.329965
 20
2.275736
  0
VERTEX
  8
PLAN_1
  6
CONTINUOUS
 10
-1.332146
 20
2.273555
  0
VERTEX
  8
PLAN_1
  6
CONTINUOUS
 10
-1.334764
 20
2.270067
  0
VERTEX
  8
PLAN_1
  6
CONTINUOUS
 10
-1.336945
 20
2.265701
  0
VERTEX
  8
PLAN_1
  6
CONTINUOUS
 10
-1.337819
 20
2.263087
  0
VERTEX
  8
PLAN_1
  6
CONTINUOUS
 10
-1.338256
 20
2.260469
  0
VERTEX
  8
PLAN_1
  6
CONTINUOUS
 10
-1.338256
 20
2.257413
  0
VERTEX
  8
PLAN_1
  6
CONTINUOUS
 10
-1.337819
 20
2.253925
  0
VERTEX
  8
PLAN_1
  6
CONTINUOUS
 10
-1.336945
 20
2.250433
  0
VERTEX
  8
PLAN_1
  6
CONTINUOUS
 10
-1.335201
 20
2.246945
  0
VERTEX
  8
PLAN_1
  6
CONTINUOUS
 10
-1.332583
 20
2.243453
  0
VERTEX
  8
PLAN_1
  6
CONTINUOUS
 10
-1.329528
 20
2.239528
  0
SEQEND
  8
0
  0
POLYLINE
  8
PLAN_1
  6
CONTINUOUS
 66
     1
 40
0.008287
 41
0.008287
  0
VERTEX
  8
PLAN_1
  6
CONTINUOUS
 10
-1.329528
 20
2.239528
  0
VERTEX
  8
PLAN_1
  6
CONTINUOUS
 10
-1.102232
 20
2.239528
  0
SEQEND
  8
0
  0
POLYLINE
  8
PLAN_1
  6
CONTINUOUS
 66
     1
 40
0.008287
 41
0.008287
  0
VERTEX
  8
PLAN_1
  6
CONTINUOUS
 10
-1.102232
 20
2.239528
  0
VERTEX
  8
PLAN_1
  6
CONTINUOUS
 10
-1.098307
 20
2.243016
  0
VERTEX
  8
PLAN_1
  6
CONTINUOUS
 10
-1.095689
 20
2.246508
  0
VERTEX
  8
PLAN_1
  6
CONTINUOUS
 10
-1.093508
 20
2.249996
  0
VERTEX
  8
PLAN_1
  6
CONTINUOUS
 10
-1.092197
 20
2.253488
  0
VERTEX
  8
PLAN_1
  6
CONTINUOUS
 10
-1.091764
 20
2.256539
  0
VERTEX
  8
PLAN_1
  6
CONTINUOUS
 10
-1.092197
 20
2.259594
  0
VERTEX
  8
PLAN_1
  6
CONTINUOUS
 10
-1.092634
 20
2.262650
  0
VERTEX
  8
PLAN_1
  6
CONTINUOUS
 10
-1.093508
 20
2.265268
  0
VERTEX
  8
PLAN_1
  6
CONTINUOUS
 10
-1.096126
 20
2.270067
  0
VERTEX
  8
PLAN_1
  6
CONTINUOUS
 10
-1.098744
 20
2.273555
  0
VERTEX
  8
PLAN_1
  6
CONTINUOUS
 10
-1.101358
 20
2.275736
  0
VERTEX
  8
PLAN_1
  6
CONTINUOUS
 10
-1.102232
 20
2.276610
  0
SEQEND
  8
0
  0
POLYLINE
  8
PLAN_1
  6
CONTINUOUS
 66
     1
 40
0.008287
 41
0.008287
  0
VERTEX
  8
PLAN_1
  6
CONTINUOUS
 10
-1.102232
 20
2.276610
  0
VERTEX
  8
PLAN_1
  6
CONTINUOUS
 10
-1.313386
 20
2.276610
  0
SEQEND
  8
0
  0
POLYLINE
  8
PLAN_1
  6
CONTINUOUS
 66
     1
 40
0.008287
 41
0.008287
  0
VERTEX
  8
PLAN_1
  6
CONTINUOUS
 10
-1.313386
 20
2.276610
  0
VERTEX
  8
PLAN_1
  6
CONTINUOUS
 10
-1.329528
 20
2.276610
  0
SEQEND
  8
0
  0
POLYLINE
  8
PLAN_1
  6
CONTINUOUS
 66
     1
 40
0.008287
 41
0.008287
  0
VERTEX
  8
PLAN_1
  6
CONTINUOUS
 10
-1.101795
 20
2.202882
  0
VERTEX
  8
PLAN_1
  6
CONTINUOUS
 10
-1.097870
 20
2.206370
  0
VERTEX
  8
PLAN_1
  6
CONTINUOUS
 10
-1.095252
 20
2.209862
  0
VERTEX
  8
PLAN_1
  6
CONTINUOUS
 10
-1.093071
 20
2.213350
  0
VERTEX
  8
PLAN_1
  6
CONTINUOUS
 10
-1.092197
 20
2.216843
  0
VERTEX
  8
PLAN_1
  6
CONTINUOUS
 10
-1.091764
 20
2.219894
  0
VERTEX
  8
PLAN_1
  6
CONTINUOUS
 10
-1.091764
 20
2.222949
  0
VERTEX
  8
PLAN_1
  6
CONTINUOUS
 10
-1.092197
 20
2.226004
  0
VERTEX
  8
PLAN_1
  6
CONTINUOUS
 10
-1.093071
 20
2.228618
  0
VERTEX
  8
PLAN_1
  6
CONTINUOUS
 10
-1.095689
 20
2.233417
  0
VERTEX
  8
PLAN_1
  6
CONTINUOUS
 10
-1.098744
 20
2.236909
  0
VERTEX
  8
PLAN_1
  6
CONTINUOUS
 10
-1.100925
 20
2.239091
  0
VERTEX
  8
PLAN_1
  6
CONTINUOUS
 10
-1.101795
 20
2.239965
  0
SEQEND
  8
0
  0
POLYLINE
  8
PLAN_1
  6
CONTINUOUS
 66
     1
 40
0.008287
 41
0.008287
  0
VERTEX
  8
PLAN_1
  6
CONTINUOUS
 10
-1.101795
 20
2.239965
  0
VERTEX
  8
PLAN_1
  6
CONTINUOUS
 10
-1.329091
 20
2.239965
  0
SEQEND
  8
0
  0
POLYLINE
  8
PLAN_1
  6
CONTINUOUS
 66
     1
 40
0.008287
 41
0.008287
  0
VERTEX
  8
PLAN_1
  6
CONTINUOUS
 10
-1.329091
 20
2.239965
  0
VERTEX
  8
PLAN_1
  6
CONTINUOUS
 10
-1.329965
 20
2.239091
  0
VERTEX
  8
PLAN_1
  6
CONTINUOUS
 10
-1.331709
 20
2.236909
  0
VERTEX
  8
PLAN_1
  6
CONTINUOUS
 10
-1.334327
 20
2.233854
  0
VERTEX
  8
PLAN_1
  6
CONTINUOUS
 10
-1.336508
 20
2.229055
  0
VERTEX
  8
PLAN_1
  6
CONTINUOUS
 10
-1.337382
 20
2.226437
  0
VERTEX
  8
PLAN_1
  6
CONTINUOUS
 10
-1.337819
 20
2.223823
  0
VERTEX
  8
PLAN_1
  6
CONTINUOUS
 10
-1.338256
 20
2.220768
  0
VERTEX
  8
PLAN_1
  6
CONTINUOUS
 10
-1.337819
 20
2.217276
  0
VERTEX
  8
PLAN_1
  6
CONTINUOUS
 10
-1.336508
 20
2.214224
  0
VERTEX
  8
PLAN_1
  6
CONTINUOUS
 10
-1.334764
 20
2.210295
  0
VERTEX
  8
PLAN_1
  6
CONTINUOUS
 10
-1.332146
 20
2.206807
  0
VERTEX
  8
PLAN_1
  6
CONTINUOUS
 10
-1.329091
 20
2.202882
  0
SEQEND
  8
0
  0
POLYLINE
  8
PLAN_1
  6
CONTINUOUS
 66
     1
 40
0.008287
 41
0.008287
  0
VERTEX
  8
PLAN_1
  6
CONTINUOUS
 10
-1.329091
 20
2.202882
  0
VERTEX
  8
PLAN_1
  6
CONTINUOUS
 10
-1.101795
 20
2.202882
  0
SEQEND
  8
0
  0
POLYLINE
  8
PLAN_1
  6
CONTINUOUS
 66
     1
 40
0.008287
 41
0.008287
  0
VERTEX
  8
PLAN_1
  6
CONTINUOUS
 10
-1.102232
 20
3.192772
  0
VERTEX
  8
PLAN_1
  6
CONTINUOUS
 10
-1.098744
 20
3.196264
  0
VERTEX
  8
PLAN_1
  6
CONTINUOUS
 10
-1.095689
 20
3.199752
  0
VERTEX
  8
PLAN_1
  6
CONTINUOUS
 10
-1.093945
 20
3.203244
  0
VERTEX
  8
PLAN_1
  6
CONTINUOUS
 10
-1.092634
 20
3.206732
  0
VERTEX
  8
PLAN_1
  6
CONTINUOUS
 10
-1.092197
 20
3.209787
  0
VERTEX
  8
PLAN_1
  6
CONTINUOUS
 10
-1.092197
 20
3.212843
  0
VERTEX
  8
PLAN_1
  6
CONTINUOUS
 10
-1.092634
 20
3.215461
  0
VERTEX
  8
PLAN_1
  6
CONTINUOUS
 10
-1.093508
 20
3.218512
  0
VERTEX
  8
PLAN_1
  6
CONTINUOUS
 10
-1.096126
 20
3.222878
  0
VERTEX
  8
PLAN_1
  6
CONTINUOUS
 10
-1.099177
 20
3.226366
  0
VERTEX
  8
PLAN_1
  6
CONTINUOUS
 10
-1.101358
 20
3.228984
  0
VERTEX
  8
PLAN_1
  6
CONTINUOUS
 10
-1.102232
 20
3.229421
  0
SEQEND
  8
0
  0
POLYLINE
  8
PLAN_1
  6
CONTINUOUS
 66
     1
 40
0.008287
 41
0.008287
  0
VERTEX
  8
PLAN_1
  6
CONTINUOUS
 10
-1.102232
 20
3.229421
  0
VERTEX
  8
PLAN_1
  6
CONTINUOUS
 10
-1.329528
 20
3.229421
  0
SEQEND
  8
0
  0
POLYLINE
  8
PLAN_1
  6
CONTINUOUS
 66
     1
 40
0.008287
 41
0.008287
  0
VERTEX
  8
PLAN_1
  6
CONTINUOUS
 10
-1.329528
 20
3.229421
  0
VERTEX
  8
PLAN_1
  6
CONTINUOUS
 10
-1.330402
 20
3.228984
  0
VERTEX
  8
PLAN_1
  6
CONTINUOUS
 10
-1.332583
 20
3.226803
  0
VERTEX
  8
PLAN_1
  6
CONTINUOUS
 10
-1.334764
 20
3.223311
  0
VERTEX
  8
PLAN_1
  6
CONTINUOUS
 10
-1.337382
 20
3.218949
  0
VERTEX
  8
PLAN_1
  6
CONTINUOUS
 10
-1.337819
 20
3.216331
  0
VERTEX
  8
PLAN_1
  6
CONTINUOUS
 10
-1.338689
 20
3.213280
  0
VERTEX
  8
PLAN_1
  6
CONTINUOUS
 10
-1.338689
 20
3.210224
  0
VERTEX
  8
PLAN_1
  6
CONTINUOUS
 10
-1.338256
 20
3.207169
  0
VERTEX
  8
PLAN_1
  6
CONTINUOUS
 10
-1.336945
 20
3.203681
  0
VERTEX
  8
PLAN_1
  6
CONTINUOUS
 10
-1.335201
 20
3.200189
  0
VERTEX
  8
PLAN_1
  6
CONTINUOUS
 10
-1.333020
 20
3.196264
  0
VERTEX
  8
PLAN_1
  6
CONTINUOUS
 10
-1.329528
 20
3.192772
  0
SEQEND
  8
0
  0
POLYLINE
  8
PLAN_1
  6
CONTINUOUS
 66
     1
 40
0.008287
 41
0.008287
  0
VERTEX
  8
PLAN_1
  6
CONTINUOUS
 10
-1.329528
 20
3.192772
  0
VERTEX
  8
PLAN_1
  6
CONTINUOUS
 10
-1.102232
 20
3.192772
  0
SEQEND
  8
0
  0
POLYLINE
  8
PLAN_1
  6
CONTINUOUS
 66
     1
 40
0.008287
 41
0.008287
  0
VERTEX
  8
PLAN_1
  6
CONTINUOUS
 10
-1.102232
 20
3.156126
  0
VERTEX
  8
PLAN_1
  6
CONTINUOUS
 10
-1.098307
 20
3.159618
  0
VERTEX
  8
PLAN_1
  6
CONTINUOUS
 10
-1.095252
 20
3.163106
  0
VERTEX
  8
PLAN_1
  6
CONTINUOUS
 10
-1.093508
 20
3.166598
  0
VERTEX
  8
PLAN_1
  6
CONTINUOUS
 10
-1.092197
 20
3.170087
  0
VERTEX
  8
PLAN_1
  6
CONTINUOUS
 10
-1.091764
 20
3.173142
  0
VERTEX
  8
PLAN_1
  6
CONTINUOUS
 10
-1.091764
 20
3.176197
  0
VERTEX
  8
PLAN_1
  6
CONTINUOUS
 10
-1.092197
 20
3.179248
  0
VERTEX
  8
PLAN_1
  6
CONTINUOUS
 10
-1.093508
 20
3.181866
  0
VERTEX
  8
PLAN_1
  6
CONTINUOUS
 10
-1.096126
 20
3.186228
  0
VERTEX
  8
PLAN_1
  6
CONTINUOUS
 10
-1.098744
 20
3.189720
  0
VERTEX
  8
PLAN_1
  6
CONTINUOUS
 10
-1.100925
 20
3.192339
  0
VERTEX
  8
PLAN_1
  6
CONTINUOUS
 10
-1.102232
 20
3.193209
  0
SEQEND
  8
0
  0
POLYLINE
  8
PLAN_1
  6
CONTINUOUS
 66
     1
 40
0.008287
 41
0.008287
  0
VERTEX
  8
PLAN_1
  6
CONTINUOUS
 10
-1.102232
 20
3.193209
  0
VERTEX
  8
PLAN_1
  6
CONTINUOUS
 10
-1.329091
 20
3.193209
  0
SEQEND
  8
0
  0
POLYLINE
  8
PLAN_1
  6
CONTINUOUS
 66
     1
 40
0.008287
 41
0.008287
  0
VERTEX
  8
PLAN_1
  6
CONTINUOUS
 10
-1.329091
 20
3.193209
  0
VERTEX
  8
PLAN_1
  6
CONTINUOUS
 10
-1.329965
 20
3.192339
  0
VERTEX
  8
PLAN_1
  6
CONTINUOUS
 10
-1.332146
 20
3.190157
  0
VERTEX
  8
PLAN_1
  6
CONTINUOUS
 10
-1.334764
 20
3.186665
  0
VERTEX
  8
PLAN_1
  6
CONTINUOUS
 10
-1.336945
 20
3.182303
  0
VERTEX
  8
PLAN_1
  6
CONTINUOUS
 10
-1.337819
 20
3.179685
  0
VERTEX
  8
PLAN_1
  6
CONTINUOUS
 10
-1.338256
 20
3.176630
  0
VERTEX
  8
PLAN_1
  6
CONTINUOUS
 10
-1.338256
 20
3.173579
  0
VERTEX
  8
PLAN_1
  6
CONTINUOUS
 10
-1.337819
 20
3.170524
  0
VERTEX
  8
PLAN_1
  6
CONTINUOUS
 10
-1.336945
 20
3.167035
  0
VERTEX
  8
PLAN_1
  6
CONTINUOUS
 10
-1.335201
 20
3.163543
  0
VERTEX
  8
PLAN_1
  6
CONTINUOUS
 10
-1.332583
 20
3.160055
  0
VERTEX
  8
PLAN_1
  6
CONTINUOUS
 10
-1.329091
 20
3.156126
  0
SEQEND
  8
0
  0
POLYLINE
  8
PLAN_1
  6
CONTINUOUS
 66
     1
 40
0.008287
 41
0.008287
  0
VERTEX
  8
PLAN_1
  6
CONTINUOUS
 10
-1.329091
 20
3.156126
  0
VERTEX
  8
PLAN_1
  6
CONTINUOUS
 10
-1.102232
 20
3.156126
  0
SEQEND
  8
0
  0
POLYLINE
  8
PLAN_1
  6
CONTINUOUS
 66
     1
 40
0.008287
 41
0.008287
  0
VERTEX
  8
PLAN_1
  6
CONTINUOUS
 10
-1.102232
 20
3.119043
  0
VERTEX
  8
PLAN_1
  6
CONTINUOUS
 10
-1.098307
 20
3.122535
  0
VERTEX
  8
PLAN_1
  6
CONTINUOUS
 10
-1.095689
 20
3.126024
  0
VERTEX
  8
PLAN_1
  6
CONTINUOUS
 10
-1.093508
 20
3.129516
  0
VERTEX
  8
PLAN_1
  6
CONTINUOUS
 10
-1.092197
 20
3.133004
  0
VERTEX
  8
PLAN_1
  6
CONTINUOUS
 10
-1.091764
 20
3.136059
  0
VERTEX
  8
PLAN_1
  6
CONTINUOUS
 10
-1.092197
 20
3.139114
  0
VERTEX
  8
PLAN_1
  6
CONTINUOUS
 10
-1.092634
 20
3.141728
  0
VERTEX
  8
PLAN_1
  6
CONTINUOUS
 10
-1.093508
 20
3.144783
  0
VERTEX
  8
PLAN_1
  6
CONTINUOUS
 10
-1.096126
 20
3.149146
  0
VERTEX
  8
PLAN_1
  6
CONTINUOUS
 10
-1.098744
 20
3.152638
  0
VERTEX
  8
PLAN_1
  6
CONTINUOUS
 10
-1.101358
 20
3.155256
  0
VERTEX
  8
PLAN_1
  6
CONTINUOUS
 10
-1.102232
 20
3.155689
  0
SEQEND
  8
0
  0
POLYLINE
  8
PLAN_1
  6
CONTINUOUS
 66
     1
 40
0.008287
 41
0.008287
  0
VERTEX
  8
PLAN_1
  6
CONTINUOUS
 10
-1.102232
 20
3.155689
  0
VERTEX
  8
PLAN_1
  6
CONTINUOUS
 10
-1.329528
 20
3.155689
  0
SEQEND
  8
0
  0
POLYLINE
  8
PLAN_1
  6
CONTINUOUS
 66
     1
 40
0.008287
 41
0.008287
  0
VERTEX
  8
PLAN_1
  6
CONTINUOUS
 10
-1.329528
 20
3.155689
  0
VERTEX
  8
PLAN_1
  6
CONTINUOUS
 10
-1.329965
 20
3.155256
  0
VERTEX
  8
PLAN_1
  6
CONTINUOUS
 10
-1.332146
 20
3.153075
  0
VERTEX
  8
PLAN_1
  6
CONTINUOUS
 10
-1.334764
 20
3.149583
  0
VERTEX
  8
PLAN_1
  6
CONTINUOUS
 10
-1.336945
 20
3.145220
  0
VERTEX
  8
PLAN_1
  6
CONTINUOUS
 10
-1.337819
 20
3.142602
  0
VERTEX
  8
PLAN_1
  6
CONTINUOUS
 10
-1.338256
 20
3.139547
  0
VERTEX
  8
PLAN_1
  6
CONTINUOUS
 10
-1.338256
 20
3.136496
  0
VERTEX
  8
PLAN_1
  6
CONTINUOUS
 10
-1.337819
 20
3.133441
  0
VERTEX
  8
PLAN_1
  6
CONTINUOUS
 10
-1.336945
 20
3.129953
  0
VERTEX
  8
PLAN_1
  6
CONTINUOUS
 10
-1.335201
 20
3.126461
  0
VERTEX
  8
PLAN_1
  6
CONTINUOUS
 10
-1.332583
 20
3.122972
  0
VERTEX
  8
PLAN_1
  6
CONTINUOUS
 10
-1.329528
 20
3.119043
  0
SEQEND
  8
0
  0
POLYLINE
  8
PLAN_1
  6
CONTINUOUS
 66
     1
 40
0.008287
 41
0.008287
  0
VERTEX
  8
PLAN_1
  6
CONTINUOUS
 10
-1.329528
 20
3.119043
  0
VERTEX
  8
PLAN_1
  6
CONTINUOUS
 10
-1.102232
 20
3.119043
  0
SEQEND
  8
0
  0
POLYLINE
  8
PLAN_1
  6
CONTINUOUS
 66
     1
 40
0.008287
 41
0.008287
  0
VERTEX
  8
PLAN_1
  6
CONTINUOUS
 10
-1.101795
 20
3.082398
  0
VERTEX
  8
PLAN_1
  6
CONTINUOUS
 10
-1.097870
 20
3.085886
  0
VERTEX
  8
PLAN_1
  6
CONTINUOUS
 10
-1.095252
 20
3.089378
  0
VERTEX
  8
PLAN_1
  6
CONTINUOUS
 10
-1.093071
 20
3.092866
  0
VERTEX
  8
PLAN_1
  6
CONTINUOUS
 10
-1.092197
 20
3.096358
  0
VERTEX
  8
PLAN_1
  6
CONTINUOUS
 10
-1.091764
 20
3.099413
  0
VERTEX
  8
PLAN_1
  6
CONTINUOUS
 10
-1.091764
 20
3.102465
  0
VERTEX
  8
PLAN_1
  6
CONTINUOUS
 10
-1.092197
 20
3.105520
  0
VERTEX
  8
PLAN_1
  6
CONTINUOUS
 10
-1.093071
 20
3.108138
  0
VERTEX
  8
PLAN_1
  6
CONTINUOUS
 10
-1.095689
 20
3.112500
  0
VERTEX
  8
PLAN_1
  6
CONTINUOUS
 10
-1.098744
 20
3.116425
  0
VERTEX
  8
PLAN_1
  6
CONTINUOUS
 10
-1.100925
 20
3.118606
  0
VERTEX
  8
PLAN_1
  6
CONTINUOUS
 10
-1.101795
 20
3.119480
  0
SEQEND
  8
0
  0
POLYLINE
  8
PLAN_1
  6
CONTINUOUS
 66
     1
 40
0.008287
 41
0.008287
  0
VERTEX
  8
PLAN_1
  6
CONTINUOUS
 10
-1.101795
 20
3.119480
  0
VERTEX
  8
PLAN_1
  6
CONTINUOUS
 10
-1.329091
 20
3.119480
  0
SEQEND
  8
0
  0
POLYLINE
  8
PLAN_1
  6
CONTINUOUS
 66
     1
 40
0.008287
 41
0.008287
  0
VERTEX
  8
PLAN_1
  6
CONTINUOUS
 10
-1.329091
 20
3.119480
  0
VERTEX
  8
PLAN_1
  6
CONTINUOUS
 10
-1.329965
 20
3.118606
  0
VERTEX
  8
PLAN_1
  6
CONTINUOUS
 10
-1.331709
 20
3.116425
  0
VERTEX
  8
PLAN_1
  6
CONTINUOUS
 10
-1.334327
 20
3.112937
  0
VERTEX
  8
PLAN_1
  6
CONTINUOUS
 10
-1.336508
 20
3.108575
  0
VERTEX
  8
PLAN_1
  6
CONTINUOUS
 10
-1.337382
 20
3.105957
  0
VERTEX
  8
PLAN_1
  6
CONTINUOUS
 10
-1.337819
 20
3.102902
  0
VERTEX
  8
PLAN_1
  6
CONTINUOUS
 10
-1.338256
 20
3.099846
  0
VERTEX
  8
PLAN_1
  6
CONTINUOUS
 10
-1.337819
 20
3.096795
  0
VERTEX
  8
PLAN_1
  6
CONTINUOUS
 10
-1.336508
 20
3.093303
  0
VERTEX
  8
PLAN_1
  6
CONTINUOUS
 10
-1.334764
 20
3.089815
  0
VERTEX
  8
PLAN_1
  6
CONTINUOUS
 10
-1.332146
 20
3.086323
  0
VERTEX
  8
PLAN_1
  6
CONTINUOUS
 10
-1.329091
 20
3.082398
  0
SEQEND
  8
0
  0
POLYLINE
  8
PLAN_1
  6
CONTINUOUS
 66
     1
 40
0.008287
 41
0.008287
  0
VERTEX
  8
PLAN_1
  6
CONTINUOUS
 10
-1.329091
 20
3.082398
  0
VERTEX
  8
PLAN_1
  6
CONTINUOUS
 10
-1.101795
 20
3.082398
  0
SEQEND
  8
0
  0
POLYLINE
  8
PLAN_1
  6
CONTINUOUS
 66
     1
 40
0.008287
 41
0.008287
  0
VERTEX
  8
PLAN_1
  6
CONTINUOUS
 10
-1.102232
 20
3.045752
  0
VERTEX
  8
PLAN_1
  6
CONTINUOUS
 10
-1.098307
 20
3.049240
  0
VERTEX
  8
PLAN_1
  6
CONTINUOUS
 10
-1.095689
 20
3.052732
  0
VERTEX
  8
PLAN_1
  6
CONTINUOUS
 10
-1.093508
 20
3.056220
  0
VERTEX
  8
PLAN_1
  6
CONTINUOUS
 10
-1.092197
 20
3.059713
  0
VERTEX
  8
PLAN_1
  6
CONTINUOUS
 10
-1.091764
 20
3.062764
  0
VERTEX
  8
PLAN_1
  6
CONTINUOUS
 10
-1.092197
 20
3.065819
  0
VERTEX
  8
PLAN_1
  6
CONTINUOUS
 10
-1.092634
 20
3.068874
  0
VERTEX
  8
PLAN_1
  6
CONTINUOUS
 10
-1.093508
 20
3.071492
  0
VERTEX
  8
PLAN_1
  6
CONTINUOUS
 10
-1.096126
 20
3.076291
  0
VERTEX
  8
PLAN_1
  6
CONTINUOUS
 10
-1.098744
 20
3.079780
  0
VERTEX
  8
PLAN_1
  6
CONTINUOUS
 10
-1.101358
 20
3.081961
  0
VERTEX
  8
PLAN_1
  6
CONTINUOUS
 10
-1.102232
 20
3.082835
  0
SEQEND
  8
0
  0
POLYLINE
  8
PLAN_1
  6
CONTINUOUS
 66
     1
 40
0.008287
 41
0.008287
  0
VERTEX
  8
PLAN_1
  6
CONTINUOUS
 10
-1.102232
 20
3.082835
  0
VERTEX
  8
PLAN_1
  6
CONTINUOUS
 10
-1.329528
 20
3.082835
  0
SEQEND
  8
0
  0
POLYLINE
  8
PLAN_1
  6
CONTINUOUS
 66
     1
 40
0.008287
 41
0.008287
  0
VERTEX
  8
PLAN_1
  6
CONTINUOUS
 10
-1.329528
 20
3.082835
  0
VERTEX
  8
PLAN_1
  6
CONTINUOUS
 10
-1.329965
 20
3.081961
  0
VERTEX
  8
PLAN_1
  6
CONTINUOUS
 10
-1.332146
 20
3.079780
  0
VERTEX
  8
PLAN_1
  6
CONTINUOUS
 10
-1.334764
 20
3.076291
  0
VERTEX
  8
PLAN_1
  6
CONTINUOUS
 10
-1.336945
 20
3.071929
  0
VERTEX
  8
PLAN_1
  6
CONTINUOUS
 10
-1.337819
 20
3.069311
  0
VERTEX
  8
PLAN_1
  6
CONTINUOUS
 10
-1.338256
 20
3.066693
  0
VERTEX
  8
PLAN_1
  6
CONTINUOUS
 10
-1.338256
 20
3.063638
  0
VERTEX
  8
PLAN_1
  6
CONTINUOUS
 10
-1.337819
 20
3.060150
  0
VERTEX
  8
PLAN_1
  6
CONTINUOUS
 10
-1.336945
 20
3.056657
  0
VERTEX
  8
PLAN_1
  6
CONTINUOUS
 10
-1.335201
 20
3.053169
  0
VERTEX
  8
PLAN_1
  6
CONTINUOUS
 10
-1.332583
 20
3.049677
  0
VERTEX
  8
PLAN_1
  6
CONTINUOUS
 10
-1.329528
 20
3.045752
  0
SEQEND
  8
0
  0
POLYLINE
  8
PLAN_1
  6
CONTINUOUS
 66
     1
 40
0.008287
 41
0.008287
  0
VERTEX
  8
PLAN_1
  6
CONTINUOUS
 10
-1.329528
 20
3.045752
  0
VERTEX
  8
PLAN_1
  6
CONTINUOUS
 10
-1.102232
 20
3.045752
  0
SEQEND
  8
0
  0
POLYLINE
  8
PLAN_1
  6
CONTINUOUS
 66
     1
 40
0.008287
 41
0.008287
  0
VERTEX
  8
PLAN_1
  6
CONTINUOUS
 10
-1.101795
 20
3.009106
  0
VERTEX
  8
PLAN_1
  6
CONTINUOUS
 10
-1.097870
 20
3.012594
  0
VERTEX
  8
PLAN_1
  6
CONTINUOUS
 10
-1.095252
 20
3.016087
  0
VERTEX
  8
PLAN_1
  6
CONTINUOUS
 10
-1.093071
 20
3.019575
  0
VERTEX
  8
PLAN_1
  6
CONTINUOUS
 10
-1.092197
 20
3.023067
  0
VERTEX
  8
PLAN_1
  6
CONTINUOUS
 10
-1.091764
 20
3.026118
  0
VERTEX
  8
PLAN_1
  6
CONTINUOUS
 10
-1.091764
 20
3.029173
  0
VERTEX
  8
PLAN_1
  6
CONTINUOUS
 10
-1.092197
 20
3.032228
  0
VERTEX
  8
PLAN_1
  6
CONTINUOUS
 10
-1.093071
 20
3.034843
  0
VERTEX
  8
PLAN_1
  6
CONTINUOUS
 10
-1.095689
 20
3.039642
  0
VERTEX
  8
PLAN_1
  6
CONTINUOUS
 10
-1.098744
 20
3.043134
  0
VERTEX
  8
PLAN_1
  6
CONTINUOUS
 10
-1.100925
 20
3.045315
  0
VERTEX
  8
PLAN_1
  6
CONTINUOUS
 10
-1.101795
 20
3.046189
  0
SEQEND
  8
0
  0
POLYLINE
  8
PLAN_1
  6
CONTINUOUS
 66
     1
 40
0.008287
 41
0.008287
  0
VERTEX
  8
PLAN_1
  6
CONTINUOUS
 10
-1.101795
 20
3.046189
  0
VERTEX
  8
PLAN_1
  6
CONTINUOUS
 10
-1.329091
 20
3.046189
  0
SEQEND
  8
0
  0
POLYLINE
  8
PLAN_1
  6
CONTINUOUS
 66
     1
 40
0.008287
 41
0.008287
  0
VERTEX
  8
PLAN_1
  6
CONTINUOUS
 10
-1.329091
 20
3.046189
  0
VERTEX
  8
PLAN_1
  6
CONTINUOUS
 10
-1.329965
 20
3.045315
  0
VERTEX
  8
PLAN_1
  6
CONTINUOUS
 10
-1.331709
 20
3.043134
  0
VERTEX
  8
PLAN_1
  6
CONTINUOUS
 10
-1.334327
 20
3.039642
  0
VERTEX
  8
PLAN_1
  6
CONTINUOUS
 10
-1.336508
 20
3.035280
  0
VERTEX
  8
PLAN_1
  6
CONTINUOUS
 10
-1.337382
 20
3.032661
  0
VERTEX
  8
PLAN_1
  6
CONTINUOUS
 10
-1.337819
 20
3.030047
  0
VERTEX
  8
PLAN_1
  6
CONTINUOUS
 10
-1.338256
 20
3.026992
  0
VERTEX
  8
PLAN_1
  6
CONTINUOUS
 10
-1.337819
 20
3.023500
  0
VERTEX
  8
PLAN_1
  6
CONTINUOUS
 10
-1.336508
 20
3.020012
  0
VERTEX
  8
PLAN_1
  6
CONTINUOUS
 10
-1.334764
 20
3.016520
  0
VERTEX
  8
PLAN_1
  6
CONTINUOUS
 10
-1.332146
 20
3.013031
  0
VERTEX
  8
PLAN_1
  6
CONTINUOUS
 10
-1.329091
 20
3.009106
  0
SEQEND
  8
0
  0
POLYLINE
  8
PLAN_1
  6
CONTINUOUS
 66
     1
 40
0.008287
 41
0.008287
  0
VERTEX
  8
PLAN_1
  6
CONTINUOUS
 10
-1.329091
 20
3.009106
  0
VERTEX
  8
PLAN_1
  6
CONTINUOUS
 10
-1.101795
 20
3.009106
  0
SEQEND
  8
0
  0
POLYLINE
  8
PLAN_1
  6
CONTINUOUS
 66
     1
 40
0.008287
 41
0.008287
  0
VERTEX
  8
PLAN_1
  6
CONTINUOUS
 10
-1.102232
 20
2.972457
  0
VERTEX
  8
PLAN_1
  6
CONTINUOUS
 10
-1.098307
 20
2.975949
  0
VERTEX
  8
PLAN_1
  6
CONTINUOUS
 10
-1.095689
 20
2.979874
  0
VERTEX
  8
PLAN_1
  6
CONTINUOUS
 10
-1.093508
 20
2.982929
  0
VERTEX
  8
PLAN_1
  6
CONTINUOUS
 10
-1.092197
 20
2.986417
  0
VERTEX
  8
PLAN_1
  6
CONTINUOUS
 10
-1.091764
 20
2.989472
  0
VERTEX
  8
PLAN_1
  6
CONTINUOUS
 10
-1.092197
 20
2.992528
  0
VERTEX
  8
PLAN_1
  6
CONTINUOUS
 10
-1.092634
 20
2.995579
  0
VERTEX
  8
PLAN_1
  6
CONTINUOUS
 10
-1.093508
 20
2.998197
  0
VERTEX
  8
PLAN_1
  6
CONTINUOUS
 10
-1.096126
 20
3.002996
  0
VERTEX
  8
PLAN_1
  6
CONTINUOUS
 10
-1.098744
 20
3.006488
  0
VERTEX
  8
PLAN_1
  6
CONTINUOUS
 10
-1.101358
 20
3.008669
  0
VERTEX
  8
PLAN_1
  6
CONTINUOUS
 10
-1.102232
 20
3.009539
  0
SEQEND
  8
0
  0
POLYLINE
  8
PLAN_1
  6
CONTINUOUS
 66
     1
 40
0.008287
 41
0.008287
  0
VERTEX
  8
PLAN_1
  6
CONTINUOUS
 10
-1.102232
 20
3.009539
  0
VERTEX
  8
PLAN_1
  6
CONTINUOUS
 10
-1.329528
 20
3.009539
  0
SEQEND
  8
0
  0
POLYLINE
  8
PLAN_1
  6
CONTINUOUS
 66
     1
 40
0.008287
 41
0.008287
  0
VERTEX
  8
PLAN_1
  6
CONTINUOUS
 10
-1.329528
 20
3.009539
  0
VERTEX
  8
PLAN_1
  6
CONTINUOUS
 10
-1.329965
 20
3.008669
  0
VERTEX
  8
PLAN_1
  6
CONTINUOUS
 10
-1.332146
 20
3.006488
  0
VERTEX
  8
PLAN_1
  6
CONTINUOUS
 10
-1.334764
 20
3.003433
  0
VERTEX
  8
PLAN_1
  6
CONTINUOUS
 10
-1.336945
 20
2.998634
  0
VERTEX
  8
PLAN_1
  6
CONTINUOUS
 10
-1.337819
 20
2.996016
  0
VERTEX
  8
PLAN_1
  6
CONTINUOUS
 10
-1.338256
 20
2.993398
  0
VERTEX
  8
PLAN_1
  6
CONTINUOUS
 10
-1.338256
 20
2.990346
  0
VERTEX
  8
PLAN_1
  6
CONTINUOUS
 10
-1.337819
 20
2.986854
  0
VERTEX
  8
PLAN_1
  6
CONTINUOUS
 10
-1.336945
 20
2.983799
  0
VERTEX
  8
PLAN_1
  6
CONTINUOUS
 10
-1.335201
 20
2.979874
  0
VERTEX
  8
PLAN_1
  6
CONTINUOUS
 10
-1.332583
 20
2.976386
  0
VERTEX
  8
PLAN_1
  6
CONTINUOUS
 10
-1.329528
 20
2.972457
  0
SEQEND
  8
0
  0
POLYLINE
  8
PLAN_1
  6
CONTINUOUS
 66
     1
 40
0.008287
 41
0.008287
  0
VERTEX
  8
PLAN_1
  6
CONTINUOUS
 10
-1.329528
 20
2.972457
  0
VERTEX
  8
PLAN_1
  6
CONTINUOUS
 10
-1.102232
 20
2.972457
  0
SEQEND
  8
0
  0
POLYLINE
  8
PLAN_1
  6
CONTINUOUS
 66
     1
 40
0.008287
 41
0.008287
  0
VERTEX
  8
PLAN_1
  6
CONTINUOUS
 10
-1.101795
 20
2.935811
  0
VERTEX
  8
PLAN_1
  6
CONTINUOUS
 10
-1.097870
 20
2.939736
  0
VERTEX
  8
PLAN_1
  6
CONTINUOUS
 10
-1.095252
 20
2.943228
  0
VERTEX
  8
PLAN_1
  6
CONTINUOUS
 10
-1.093071
 20
2.946717
  0
VERTEX
  8
PLAN_1
  6
CONTINUOUS
 10
-1.092197
 20
2.949772
  0
VERTEX
  8
PLAN_1
  6
CONTINUOUS
 10
-1.091764
 20
2.952827
  0
VERTEX
  8
PLAN_1
  6
CONTINUOUS
 10
-1.091764
 20
2.955878
  0
VERTEX
  8
PLAN_1
  6
CONTINUOUS
 10
-1.092197
 20
2.958933
  0
VERTEX
  8
PLAN_1
  6
CONTINUOUS
 10
-1.093071
 20
2.961551
  0
VERTEX
  8
PLAN_1
  6
CONTINUOUS
 10
-1.095689
 20
2.966350
  0
VERTEX
  8
PLAN_1
  6
CONTINUOUS
 10
-1.098744
 20
2.969839
  0
VERTEX
  8
PLAN_1
  6
CONTINUOUS
 10
-1.100925
 20
2.972024
  0
VERTEX
  8
PLAN_1
  6
CONTINUOUS
 10
-1.101795
 20
2.972894
  0
SEQEND
  8
0
  0
POLYLINE
  8
PLAN_1
  6
CONTINUOUS
 66
     1
 40
0.008287
 41
0.008287
  0
VERTEX
  8
PLAN_1
  6
CONTINUOUS
 10
-1.101795
 20
2.972894
  0
VERTEX
  8
PLAN_1
  6
CONTINUOUS
 10
-1.329091
 20
2.972894
  0
SEQEND
  8
0
  0
POLYLINE
  8
PLAN_1
  6
CONTINUOUS
 66
     1
 40
0.008287
 41
0.008287
  0
VERTEX
  8
PLAN_1
  6
CONTINUOUS
 10
-1.329091
 20
2.972894
  0
VERTEX
  8
PLAN_1
  6
CONTINUOUS
 10
-1.329965
 20
2.972024
  0
VERTEX
  8
PLAN_1
  6
CONTINUOUS
 10
-1.331709
 20
2.969839
  0
VERTEX
  8
PLAN_1
  6
CONTINUOUS
 10
-1.334327
 20
2.966787
  0
VERTEX
  8
PLAN_1
  6
CONTINUOUS
 10
-1.336508
 20
2.961988
  0
VERTEX
  8
PLAN_1
  6
CONTINUOUS
 10
-1.337382
 20
2.959370
  0
VERTEX
  8
PLAN_1
  6
CONTINUOUS
 10
-1.337819
 20
2.956752
  0
VERTEX
  8
PLAN_1
  6
CONTINUOUS
 10
-1.338256
 20
2.953697
  0
VERTEX
  8
PLAN_1
  6
CONTINUOUS
 10
-1.337819
 20
2.950209
  0
VERTEX
  8
PLAN_1
  6
CONTINUOUS
 10
-1.336508
 20
2.947154
  0
VERTEX
  8
PLAN_1
  6
CONTINUOUS
 10
-1.334764
 20
2.943665
  0
VERTEX
  8
PLAN_1
  6
CONTINUOUS
 10
-1.332146
 20
2.939736
  0
VERTEX
  8
PLAN_1
  6
CONTINUOUS
 10
-1.329091
 20
2.935811
  0
SEQEND
  8
0
  0
POLYLINE
  8
PLAN_1
  6
CONTINUOUS
 66
     1
 40
0.008287
 41
0.008287
  0
VERTEX
  8
PLAN_1
  6
CONTINUOUS
 10
-1.329091
 20
2.935811
  0
VERTEX
  8
PLAN_1
  6
CONTINUOUS
 10
-1.101795
 20
2.935811
  0
SEQEND
  8
0
  0
POLYLINE
  8
PLAN_1
  6
CONTINUOUS
 66
     1
 40
0.008287
 41
0.008287
  0
VERTEX
  8
PLAN_1
  6
CONTINUOUS
 10
-1.102232
 20
2.899602
  0
VERTEX
  8
PLAN_1
  6
CONTINUOUS
 10
-1.098307
 20
2.903091
  0
VERTEX
  8
PLAN_1
  6
CONTINUOUS
 10
-1.095689
 20
2.906583
  0
VERTEX
  8
PLAN_1
  6
CONTINUOUS
 10
-1.093508
 20
2.910071
  0
VERTEX
  8
PLAN_1
  6
CONTINUOUS
 10
-1.092197
 20
2.913126
  0
VERTEX
  8
PLAN_1
  6
CONTINUOUS
 10
-1.091764
 20
2.916614
  0
VERTEX
  8
PLAN_1
  6
CONTINUOUS
 10
-1.092197
 20
2.919669
  0
VERTEX
  8
PLAN_1
  6
CONTINUOUS
 10
-1.092634
 20
2.922287
  0
VERTEX
  8
PLAN_1
  6
CONTINUOUS
 10
-1.093508
 20
2.924906
  0
VERTEX
  8
PLAN_1
  6
CONTINUOUS
 10
-1.096126
 20
2.929705
  0
VERTEX
  8
PLAN_1
  6
CONTINUOUS
 10
-1.098744
 20
2.933193
  0
VERTEX
  8
PLAN_1
  6
CONTINUOUS
 10
-1.101358
 20
2.935374
  0
VERTEX
  8
PLAN_1
  6
CONTINUOUS
 10
-1.102232
 20
2.936248
  0
SEQEND
  8
0
  0
POLYLINE
  8
PLAN_1
  6
CONTINUOUS
 66
     1
 40
0.008287
 41
0.008287
  0
VERTEX
  8
PLAN_1
  6
CONTINUOUS
 10
-1.102232
 20
2.936248
  0
VERTEX
  8
PLAN_1
  6
CONTINUOUS
 10
-1.329528
 20
2.936248
  0
SEQEND
  8
0
  0
POLYLINE
  8
PLAN_1
  6
CONTINUOUS
 66
     1
 40
0.008287
 41
0.008287
  0
VERTEX
  8
PLAN_1
  6
CONTINUOUS
 10
-1.329528
 20
2.936248
  0
VERTEX
  8
PLAN_1
  6
CONTINUOUS
 10
-1.329965
 20
2.935374
  0
VERTEX
  8
PLAN_1
  6
CONTINUOUS
 10
-1.332146
 20
2.933630
  0
VERTEX
  8
PLAN_1
  6
CONTINUOUS
 10
-1.334764
 20
2.930142
  0
VERTEX
  8
PLAN_1
  6
CONTINUOUS
 10
-1.336945
 20
2.925776
  0
VERTEX
  8
PLAN_1
  6
CONTINUOUS
 10
-1.337819
 20
2.923161
  0
VERTEX
  8
PLAN_1
  6
CONTINUOUS
 10
-1.338256
 20
2.920106
  0
VERTEX
  8
PLAN_1
  6
CONTINUOUS
 10
-1.338256
 20
2.917051
  0
VERTEX
  8
PLAN_1
  6
CONTINUOUS
 10
-1.337819
 20
2.913996
  0
VERTEX
  8
PLAN_1
  6
CONTINUOUS
 10
-1.336945
 20
2.910508
  0
VERTEX
  8
PLAN_1
  6
CONTINUOUS
 10
-1.335201
 20
2.907016
  0
VERTEX
  8
PLAN_1
  6
CONTINUOUS
 10
-1.332583
 20
2.903091
  0
VERTEX
  8
PLAN_1
  6
CONTINUOUS
 10
-1.329528
 20
2.899602
  0
SEQEND
  8
0
  0
POLYLINE
  8
PLAN_1
  6
CONTINUOUS
 66
     1
 40
0.008287
 41
0.008287
  0
VERTEX
  8
PLAN_1
  6
CONTINUOUS
 10
-1.329528
 20
2.899602
  0
VERTEX
  8
PLAN_1
  6
CONTINUOUS
 10
-1.102232
 20
2.899602
  0
SEQEND
  8
0
  0
POLYLINE
  8
PLAN_1
  6
CONTINUOUS
 66
     1
 40
0.008287
 41
0.008287
  0
VERTEX
  8
PLAN_1
  6
CONTINUOUS
 10
-1.101795
 20
2.862953
  0
VERTEX
  8
PLAN_1
  6
CONTINUOUS
 10
-1.097870
 20
2.866445
  0
VERTEX
  8
PLAN_1
  6
CONTINUOUS
 10
-1.095252
 20
2.869933
  0
VERTEX
  8
PLAN_1
  6
CONTINUOUS
 10
-1.093071
 20
2.873425
  0
VERTEX
  8
PLAN_1
  6
CONTINUOUS
 10
-1.092197
 20
2.876480
  0
VERTEX
  8
PLAN_1
  6
CONTINUOUS
 10
-1.091764
 20
2.879969
  0
VERTEX
  8
PLAN_1
  6
CONTINUOUS
 10
-1.091764
 20
2.883024
  0
VERTEX
  8
PLAN_1
  6
CONTINUOUS
 10
-1.092197
 20
2.885642
  0
VERTEX
  8
PLAN_1
  6
CONTINUOUS
 10
-1.093071
 20
2.888260
  0
VERTEX
  8
PLAN_1
  6
CONTINUOUS
 10
-1.095689
 20
2.893055
  0
VERTEX
  8
PLAN_1
  6
CONTINUOUS
 10
-1.098744
 20
2.896547
  0
VERTEX
  8
PLAN_1
  6
CONTINUOUS
 10
-1.100925
 20
2.898728
  0
VERTEX
  8
PLAN_1
  6
CONTINUOUS
 10
-1.101795
 20
2.899602
  0
SEQEND
  8
0
  0
POLYLINE
  8
PLAN_1
  6
CONTINUOUS
 66
     1
 40
0.008287
 41
0.008287
  0
VERTEX
  8
PLAN_1
  6
CONTINUOUS
 10
-1.101795
 20
2.899602
  0
VERTEX
  8
PLAN_1
  6
CONTINUOUS
 10
-1.329091
 20
2.899602
  0
SEQEND
  8
0
  0
POLYLINE
  8
PLAN_1
  6
CONTINUOUS
 66
     1
 40
0.008287
 41
0.008287
  0
VERTEX
  8
PLAN_1
  6
CONTINUOUS
 10
-1.329091
 20
2.899602
  0
VERTEX
  8
PLAN_1
  6
CONTINUOUS
 10
-1.329965
 20
2.899165
  0
VERTEX
  8
PLAN_1
  6
CONTINUOUS
 10
-1.331709
 20
2.896984
  0
VERTEX
  8
PLAN_1
  6
CONTINUOUS
 10
-1.334327
 20
2.893492
  0
VERTEX
  8
PLAN_1
  6
CONTINUOUS
 10
-1.336508
 20
2.889130
  0
VERTEX
  8
PLAN_1
  6
CONTINUOUS
 10
-1.337382
 20
2.886512
  0
VERTEX
  8
PLAN_1
  6
CONTINUOUS
 10
-1.337819
 20
2.883461
  0
VERTEX
  8
PLAN_1
  6
CONTINUOUS
 10
-1.338256
 20
2.880406
  0
VERTEX
  8
PLAN_1
  6
CONTINUOUS
 10
-1.337819
 20
2.877350
  0
VERTEX
  8
PLAN_1
  6
CONTINUOUS
 10
-1.336508
 20
2.873862
  0
VERTEX
  8
PLAN_1
  6
CONTINUOUS
 10
-1.334764
 20
2.870370
  0
VERTEX
  8
PLAN_1
  6
CONTINUOUS
 10
-1.332146
 20
2.866445
  0
VERTEX
  8
PLAN_1
  6
CONTINUOUS
 10
-1.329091
 20
2.862953
  0
SEQEND
  8
0
  0
POLYLINE
  8
PLAN_1
  6
CONTINUOUS
 66
     1
 40
0.008287
 41
0.008287
  0
VERTEX
  8
PLAN_1
  6
CONTINUOUS
 10
-1.329091
 20
2.862953
  0
VERTEX
  8
PLAN_1
  6
CONTINUOUS
 10
-1.101795
 20
2.862953
  0
SEQEND
  8
0
  0
POLYLINE
  8
PLAN_1
  6
CONTINUOUS
 66
     1
 40
0.008287
 41
0.008287
  0
VERTEX
  8
PLAN_1
  6
CONTINUOUS
 10
-1.102232
 20
2.826307
  0
VERTEX
  8
PLAN_1
  6
CONTINUOUS
 10
-1.098307
 20
2.829799
  0
VERTEX
  8
PLAN_1
  6
CONTINUOUS
 10
-1.095689
 20
2.833287
  0
VERTEX
  8
PLAN_1
  6
CONTINUOUS
 10
-1.093508
 20
2.836780
  0
VERTEX
  8
PLAN_1
  6
CONTINUOUS
 10
-1.092197
 20
2.840268
  0
VERTEX
  8
PLAN_1
  6
CONTINUOUS
 10
-1.091764
 20
2.843323
  0
VERTEX
  8
PLAN_1
  6
CONTINUOUS
 10
-1.092197
 20
2.846378
  0
VERTEX
  8
PLAN_1
  6
CONTINUOUS
 10
-1.092634
 20
2.848992
  0
VERTEX
  8
PLAN_1
  6
CONTINUOUS
 10
-1.093508
 20
2.852047
  0
VERTEX
  8
PLAN_1
  6
CONTINUOUS
 10
-1.096126
 20
2.856409
  0
VERTEX
  8
PLAN_1
  6
CONTINUOUS
 10
-1.098744
 20
2.859902
  0
VERTEX
  8
PLAN_1
  6
CONTINUOUS
 10
-1.101358
 20
2.862520
  0
VERTEX
  8
PLAN_1
  6
CONTINUOUS
 10
-1.102232
 20
2.862953
  0
SEQEND
  8
0
  0
POLYLINE
  8
PLAN_1
  6
CONTINUOUS
 66
     1
 40
0.008287
 41
0.008287
  0
VERTEX
  8
PLAN_1
  6
CONTINUOUS
 10
-1.102232
 20
2.862953
  0
VERTEX
  8
PLAN_1
  6
CONTINUOUS
 10
-1.329528
 20
2.862953
  0
SEQEND
  8
0
  0
POLYLINE
  8
PLAN_1
  6
CONTINUOUS
 66
     1
 40
0.008287
 41
0.008287
  0
VERTEX
  8
PLAN_1
  6
CONTINUOUS
 10
-1.329528
 20
2.862953
  0
VERTEX
  8
PLAN_1
  6
CONTINUOUS
 10
-1.329965
 20
2.862520
  0
VERTEX
  8
PLAN_1
  6
CONTINUOUS
 10
-1.332146
 20
2.860339
  0
VERTEX
  8
PLAN_1
  6
CONTINUOUS
 10
-1.334764
 20
2.856846
  0
VERTEX
  8
PLAN_1
  6
CONTINUOUS
 10
-1.336945
 20
2.852484
  0
VERTEX
  8
PLAN_1
  6
CONTINUOUS
 10
-1.337819
 20
2.849866
  0
VERTEX
  8
PLAN_1
  6
CONTINUOUS
 10
-1.338256
 20
2.846811
  0
VERTEX
  8
PLAN_1
  6
CONTINUOUS
 10
-1.338256
 20
2.843760
  0
VERTEX
  8
PLAN_1
  6
CONTINUOUS
 10
-1.337819
 20
2.840705
  0
VERTEX
  8
PLAN_1
  6
CONTINUOUS
 10
-1.336945
 20
2.837217
  0
VERTEX
  8
PLAN_1
  6
CONTINUOUS
 10
-1.335201
 20
2.833724
  0
VERTEX
  8
PLAN_1
  6
CONTINUOUS
 10
-1.332583
 20
2.829799
  0
VERTEX
  8
PLAN_1
  6
CONTINUOUS
 10
-1.329528
 20
2.826307
  0
SEQEND
  8
0
  0
POLYLINE
  8
PLAN_1
  6
CONTINUOUS
 66
     1
 40
0.008287
 41
0.008287
  0
VERTEX
  8
PLAN_1
  6
CONTINUOUS
 10
-1.329528
 20
2.826307
  0
VERTEX
  8
PLAN_1
  6
CONTINUOUS
 10
-1.102232
 20
2.826307
  0
SEQEND
  8
0
  0
POLYLINE
  8
PLAN_1
  6
CONTINUOUS
 66
     1
 40
0.008287
 41
0.008287
  0
VERTEX
  8
PLAN_1
  6
CONTINUOUS
 10
-1.101795
 20
2.789661
  0
VERTEX
  8
PLAN_1
  6
CONTINUOUS
 10
-1.097870
 20
2.793150
  0
VERTEX
  8
PLAN_1
  6
CONTINUOUS
 10
-1.095252
 20
2.796642
  0
VERTEX
  8
PLAN_1
  6
CONTINUOUS
 10
-1.093071
 20
2.800130
  0
VERTEX
  8
PLAN_1
  6
CONTINUOUS
 10
-1.092197
 20
2.803622
  0
VERTEX
  8
PLAN_1
  6
CONTINUOUS
 10
-1.091764
 20
2.806677
  0
VERTEX
  8
PLAN_1
  6
CONTINUOUS
 10
-1.091764
 20
2.809728
  0
VERTEX
  8
PLAN_1
  6
CONTINUOUS
 10
-1.092197
 20
2.812783
  0
VERTEX
  8
PLAN_1
  6
CONTINUOUS
 10
-1.093071
 20
2.815402
  0
VERTEX
  8
PLAN_1
  6
CONTINUOUS
 10
-1.095689
 20
2.819764
  0
VERTEX
  8
PLAN_1
  6
CONTINUOUS
 10
-1.098744
 20
2.823256
  0
VERTEX
  8
PLAN_1
  6
CONTINUOUS
 10
-1.100925
 20
2.825870
  0
VERTEX
  8
PLAN_1
  6
CONTINUOUS
 10
-1.101795
 20
2.826744
  0
SEQEND
  8
0
  0
POLYLINE
  8
PLAN_1
  6
CONTINUOUS
 66
     1
 40
0.008287
 41
0.008287
  0
VERTEX
  8
PLAN_1
  6
CONTINUOUS
 10
-1.101795
 20
2.826744
  0
VERTEX
  8
PLAN_1
  6
CONTINUOUS
 10
-1.329091
 20
2.826744
  0
SEQEND
  8
0
  0
POLYLINE
  8
PLAN_1
  6
CONTINUOUS
 66
     1
 40
0.008287
 41
0.008287
  0
VERTEX
  8
PLAN_1
  6
CONTINUOUS
 10
-1.329091
 20
2.826744
  0
VERTEX
  8
PLAN_1
  6
CONTINUOUS
 10
-1.329965
 20
2.825870
  0
VERTEX
  8
PLAN_1
  6
CONTINUOUS
 10
-1.331709
 20
2.823689
  0
VERTEX
  8
PLAN_1
  6
CONTINUOUS
 10
-1.334327
 20
2.820201
  0
VERTEX
  8
PLAN_1
  6
CONTINUOUS
 10
-1.336508
 20
2.815839
  0
VERTEX
  8
PLAN_1
  6
CONTINUOUS
 10
-1.337382
 20
2.813220
  0
VERTEX
  8
PLAN_1
  6
CONTINUOUS
 10
-1.337819
 20
2.810165
  0
VERTEX
  8
PLAN_1
  6
CONTINUOUS
 10
-1.338256
 20
2.807110
  0
VERTEX
  8
PLAN_1
  6
CONTINUOUS
 10
-1.337819
 20
2.804059
  0
VERTEX
  8
PLAN_1
  6
CONTINUOUS
 10
-1.336508
 20
2.800567
  0
VERTEX
  8
PLAN_1
  6
CONTINUOUS
 10
-1.334764
 20
2.797079
  0
VERTEX
  8
PLAN_1
  6
CONTINUOUS
 10
-1.332146
 20
2.793587
  0
VERTEX
  8
PLAN_1
  6
CONTINUOUS
 10
-1.329091
 20
2.789661
  0
SEQEND
  8
0
  0
POLYLINE
  8
PLAN_1
  6
CONTINUOUS
 66
     1
 40
0.008287
 41
0.008287
  0
VERTEX
  8
PLAN_1
  6
CONTINUOUS
 10
-1.329091
 20
2.789661
  0
VERTEX
  8
PLAN_1
  6
CONTINUOUS
 10
-1.101795
 20
2.789661
  0
SEQEND
  8
0
  0
POLYLINE
  8
PLAN_1
  6
CONTINUOUS
 66
     1
 40
0.008287
 41
0.008287
  0
VERTEX
  8
PLAN_1
  6
CONTINUOUS
 10
-1.092197
 20
2.766976
  0
VERTEX
  8
PLAN_1
  6
CONTINUOUS
 10
-1.092197
 20
2.769157
  0
VERTEX
  8
PLAN_1
  6
CONTINUOUS
 10
-1.091764
 20
2.771776
  0
VERTEX
  8
PLAN_1
  6
CONTINUOUS
 10
-1.092197
 20
2.773957
  0
VERTEX
  8
PLAN_1
  6
CONTINUOUS
 10
-1.092634
 20
2.776138
  0
VERTEX
  8
PLAN_1
  6
CONTINUOUS
 10
-1.093945
 20
2.780063
  0
VERTEX
  8
PLAN_1
  6
CONTINUOUS
 10
-1.096126
 20
2.783118
  0
VERTEX
  8
PLAN_1
  6
CONTINUOUS
 10
-1.098307
 20
2.786169
  0
VERTEX
  8
PLAN_1
  6
CONTINUOUS
 10
-1.100051
 20
2.788354
  0
VERTEX
  8
PLAN_1
  6
CONTINUOUS
 10
-1.101795
 20
2.789661
  0
VERTEX
  8
PLAN_1
  6
CONTINUOUS
 10
-1.102232
 20
2.790098
  0
SEQEND
  8
0
  0
POLYLINE
  8
PLAN_1
  6
CONTINUOUS
 66
     1
 40
0.008287
 41
0.008287
  0
VERTEX
  8
PLAN_1
  6
CONTINUOUS
 10
-1.102232
 20
2.790098
  0
VERTEX
  8
PLAN_1
  6
CONTINUOUS
 10
-1.329528
 20
2.790098
  0
SEQEND
  8
0
  0
POLYLINE
  8
PLAN_1
  6
CONTINUOUS
 66
     1
 40
0.008287
 41
0.008287
  0
VERTEX
  8
PLAN_1
  6
CONTINUOUS
 10
-1.329528
 20
2.790098
  0
VERTEX
  8
PLAN_1
  6
CONTINUOUS
 10
-1.329965
 20
2.789224
  0
VERTEX
  8
PLAN_1
  6
CONTINUOUS
 10
-1.332146
 20
2.787043
  0
VERTEX
  8
PLAN_1
  6
CONTINUOUS
 10
-1.334764
 20
2.783555
  0
VERTEX
  8
PLAN_1
  6
CONTINUOUS
 10
-1.336945
 20
2.779189
  0
VERTEX
  8
PLAN_1
  6
CONTINUOUS
 10
-1.337819
 20
2.776575
  0
VERTEX
  8
PLAN_1
  6
CONTINUOUS
 10
-1.338256
 20
2.773520
  0
VERTEX
  8
PLAN_1
  6
CONTINUOUS
 10
-1.338256
 20
2.770465
  0
VERTEX
  8
PLAN_1
  6
CONTINUOUS
 10
-1.337819
 20
2.767413
  0
VERTEX
  8
PLAN_1
  6
CONTINUOUS
 10
-1.336945
 20
2.763921
  0
VERTEX
  8
PLAN_1
  6
CONTINUOUS
 10
-1.335201
 20
2.760433
  0
VERTEX
  8
PLAN_1
  6
CONTINUOUS
 10
-1.332583
 20
2.756941
  0
VERTEX
  8
PLAN_1
  6
CONTINUOUS
 10
-1.329528
 20
2.753016
  0
SEQEND
  8
0
  0
POLYLINE
  8
PLAN_1
  6
CONTINUOUS
 66
     1
 40
0.008287
 41
0.008287
  0
VERTEX
  8
PLAN_1
  6
CONTINUOUS
 10
-1.117067
 20
2.753453
  0
VERTEX
  8
PLAN_1
  6
CONTINUOUS
 10
-1.329091
 20
2.753453
  0
SEQEND
  8
0
  0
POLYLINE
  8
PLAN_1
  6
CONTINUOUS
 66
     1
 40
0.008287
 41
0.008287
  0
VERTEX
  8
PLAN_1
  6
CONTINUOUS
 10
-1.329091
 20
2.753453
  0
VERTEX
  8
PLAN_1
  6
CONTINUOUS
 10
-1.329965
 20
2.752579
  0
VERTEX
  8
PLAN_1
  6
CONTINUOUS
 10
-1.331709
 20
2.750398
  0
VERTEX
  8
PLAN_1
  6
CONTINUOUS
 10
-1.334327
 20
2.746906
  0
VERTEX
  8
PLAN_1
  6
CONTINUOUS
 10
-1.336508
 20
2.742543
  0
VERTEX
  8
PLAN_1
  6
CONTINUOUS
 10
-1.337382
 20
2.739925
  0
VERTEX
  8
PLAN_1
  6
CONTINUOUS
 10
-1.337819
 20
2.737311
  0
VERTEX
  8
PLAN_1
  6
CONTINUOUS
 10
-1.338256
 20
2.734256
  0
VERTEX
  8
PLAN_1
  6
CONTINUOUS
 10
-1.337819
 20
2.730764
  0
VERTEX
  8
PLAN_1
  6
CONTINUOUS
 10
-1.336508
 20
2.727276
  0
VERTEX
  8
PLAN_1
  6
CONTINUOUS
 10
-1.334764
 20
2.723783
  0
VERTEX
  8
PLAN_1
  6
CONTINUOUS
 10
-1.332146
 20
2.720295
  0
VERTEX
  8
PLAN_1
  6
CONTINUOUS
 10
-1.329091
 20
2.716370
  0
SEQEND
  8
0
  0
POLYLINE
  8
PLAN_1
  6
CONTINUOUS
 66
     1
 40
0.008287
 41
0.008287
  0
VERTEX
  8
PLAN_1
  6
CONTINUOUS
 10
-1.329091
 20
2.716370
  0
VERTEX
  8
PLAN_1
  6
CONTINUOUS
 10
-1.179016
 20
2.716370
  0
SEQEND
  8
0
  0
POLYLINE
  8
PLAN_1
  6
CONTINUOUS
 66
     1
 40
0.008287
 41
0.008287
  0
VERTEX
  8
PLAN_1
  6
CONTINUOUS
 10
-1.102232
 20
1.690264
  0
VERTEX
  8
PLAN_1
  6
CONTINUOUS
 10
-1.094815
 20
1.689827
  0
VERTEX
  8
PLAN_1
  6
CONTINUOUS
 10
-1.087398
 20
1.688957
  0
VERTEX
  8
PLAN_1
  6
CONTINUOUS
 10
-1.080417
 20
1.687646
  0
VERTEX
  8
PLAN_1
  6
CONTINUOUS
 10
-1.073441
 20
1.685465
  0
VERTEX
  8
PLAN_1
  6
CONTINUOUS
 10
-1.066894
 20
1.683283
  0
VERTEX
  8
PLAN_1
  6
CONTINUOUS
 10
-1.060787
 20
1.680665
  0
VERTEX
  8
PLAN_1
  6
CONTINUOUS
 10
-1.055114
 20
1.678047
  0
VERTEX
  8
PLAN_1
  6
CONTINUOUS
 10
-1.049882
 20
1.674996
  0
VERTEX
  8
PLAN_1
  6
CONTINUOUS
 10
-1.040720
 20
1.669760
  0
VERTEX
  8
PLAN_1
  6
CONTINUOUS
 10
-1.033740
 20
1.664524
  0
VERTEX
  8
PLAN_1
  6
CONTINUOUS
 10
-1.029374
 20
1.661472
  0
VERTEX
  8
PLAN_1
  6
CONTINUOUS
 10
-1.028067
 20
1.660161
  0
SEQEND
  8
0
  0
POLYLINE
  8
PLAN_1
  6
CONTINUOUS
 66
     1
 40
0.008287
 41
0.008287
  0
VERTEX
  8
PLAN_1
  6
CONTINUOUS
 10
-1.028067
 20
1.660161
  0
VERTEX
  8
PLAN_1
  6
CONTINUOUS
 10
-1.028067
 20
1.504413
  0
VERTEX
  8
PLAN_1
  6
CONTINUOUS
 10
-1.412854
 20
1.504413
  0
VERTEX
  8
PLAN_1
  6
CONTINUOUS
 10
-1.412854
 20
1.663217
  0
SEQEND
  8
0
  0
POLYLINE
  8
PLAN_1
  6
CONTINUOUS
 66
     1
 40
0.008287
 41
0.008287
  0
VERTEX
  8
PLAN_1
  6
CONTINUOUS
 10
-1.412854
 20
1.663217
  0
VERTEX
  8
PLAN_1
  6
CONTINUOUS
 10
-1.411547
 20
1.664524
  0
VERTEX
  8
PLAN_1
  6
CONTINUOUS
 10
-1.406748
 20
1.667579
  0
VERTEX
  8
PLAN_1
  6
CONTINUOUS
 10
-1.398894
 20
1.671941
  0
VERTEX
  8
PLAN_1
  6
CONTINUOUS
 10
-1.388862
 20
1.676740
  0
VERTEX
  8
PLAN_1
  6
CONTINUOUS
 10
-1.383189
 20
1.679358
  0
VERTEX
  8
PLAN_1
  6
CONTINUOUS
 10
-1.377083
 20
1.681976
  0
VERTEX
  8
PLAN_1
  6
CONTINUOUS
 10
-1.370102
 20
1.684157
  0
VERTEX
  8
PLAN_1
  6
CONTINUOUS
 10
-1.363122
 20
1.686339
  0
VERTEX
  8
PLAN_1
  6
CONTINUOUS
 10
-1.355705
 20
1.688083
  0
VERTEX
  8
PLAN_1
  6
CONTINUOUS
 10
-1.348287
 20
1.689394
  0
VERTEX
  8
PLAN_1
  6
CONTINUOUS
 10
-1.340000
 20
1.690264
  0
VERTEX
  8
PLAN_1
  6
CONTINUOUS
 10
-1.332146
 20
1.690264
  0
SEQEND
  8
0
  0
POLYLINE
  8
PLAN_1
  6
CONTINUOUS
 66
     1
 40
0.008287
 41
0.008287
  0
VERTEX
  8
PLAN_1
  6
CONTINUOUS
 10
-1.332146
 20
1.690264
  0
VERTEX
  8
PLAN_1
  6
CONTINUOUS
 10
-1.102232
 20
1.690264
  0
SEQEND
  8
0
  0
POLYLINE
  8
PLAN_1
  6
CONTINUOUS
 66
     1
 40
0.008287
 41
0.008287
  0
VERTEX
  8
PLAN_1
  6
CONTINUOUS
 10
-1.182508
 20
2.718551
  0
VERTEX
  8
PLAN_1
  6
CONTINUOUS
 10
-1.329091
 20
2.718551
  0
SEQEND
  8
0
  0
POLYLINE
  8
PLAN_1
  6
CONTINUOUS
 66
     1
 40
0.008287
 41
0.008287
  0
VERTEX
  8
PLAN_1
  6
CONTINUOUS
 10
-1.329091
 20
2.718551
  0
VERTEX
  8
PLAN_1
  6
CONTINUOUS
 10
-1.329965
 20
2.717677
  0
VERTEX
  8
PLAN_1
  6
CONTINUOUS
 10
-1.331709
 20
2.715933
  0
VERTEX
  8
PLAN_1
  6
CONTINUOUS
 10
-1.334327
 20
2.712441
  0
VERTEX
  8
PLAN_1
  6
CONTINUOUS
 10
-1.336508
 20
2.708079
  0
VERTEX
  8
PLAN_1
  6
CONTINUOUS
 10
-1.337382
 20
2.705024
  0
VERTEX
  8
PLAN_1
  6
CONTINUOUS
 10
-1.337819
 20
2.702409
  0
VERTEX
  8
PLAN_1
  6
CONTINUOUS
 10
-1.338256
 20
2.699354
  0
VERTEX
  8
PLAN_1
  6
CONTINUOUS
 10
-1.337819
 20
2.696299
  0
VERTEX
  8
PLAN_1
  6
CONTINUOUS
 10
-1.336508
 20
2.692811
  0
VERTEX
  8
PLAN_1
  6
CONTINUOUS
 10
-1.334764
 20
2.689319
  0
VERTEX
  8
PLAN_1
  6
CONTINUOUS
 10
-1.332146
 20
2.685394
  0
VERTEX
  8
PLAN_1
  6
CONTINUOUS
 10
-1.329091
 20
2.681902
  0
SEQEND
  8
0
  0
POLYLINE
  8
PLAN_1
  6
CONTINUOUS
 66
     1
 40
0.008287
 41
0.008287
  0
VERTEX
  8
PLAN_1
  6
CONTINUOUS
 10
-1.329091
 20
2.681902
  0
VERTEX
  8
PLAN_1
  6
CONTINUOUS
 10
-1.237476
 20
2.681902
  0
SEQEND
  8
0
  0
POLYLINE
  8
PLAN_1
 62
     5
  6
CONTINUOUS
 66
     1
 40
0.003000
 41
0.003000
  0
VERTEX
  8
PLAN_1
 62
     5
  6
CONTINUOUS
 10
-1.410673
 20
2.582433
  0
VERTEX
  8
PLAN_1
 62
     5
  6
CONTINUOUS
 10
-1.403260
 20
2.586795
  0
SEQEND
  8
0
  0
POLYLINE
  8
PLAN_1
 62
     5
  6
CONTINUOUS
 66
     1
 40
0.003000
 41
0.003000
  0
VERTEX
  8
PLAN_1
 62
     5
  6
CONTINUOUS
 10
-1.396280
 20
2.590724
  0
VERTEX
  8
PLAN_1
 62
     5
  6
CONTINUOUS
 10
-1.388862
 20
2.595087
  0
SEQEND
  8
0
  0
POLYLINE
  8
PLAN_1
 62
     5
  6
CONTINUOUS
 66
     1
 40
0.003000
 41
0.003000
  0
VERTEX
  8
PLAN_1
 62
     5
  6
CONTINUOUS
 10
-1.381882
 20
2.599449
  0
VERTEX
  8
PLAN_1
 62
     5
  6
CONTINUOUS
 10
-1.374465
 20
2.603374
  0
SEQEND
  8
0
  0
POLYLINE
  8
PLAN_1
 62
     5
  6
CONTINUOUS
 66
     1
 40
0.003000
 41
0.003000
  0
VERTEX
  8
PLAN_1
 62
     5
  6
CONTINUOUS
 10
-1.367484
 20
2.607736
  0
VERTEX
  8
PLAN_1
 62
     5
  6
CONTINUOUS
 10
-1.360067
 20
2.611665
  0
SEQEND
  8
0
  0
POLYLINE
  8
PLAN_1
 62
     5
  6
CONTINUOUS
 66
     1
 40
0.003000
 41
0.003000
  0
VERTEX
  8
PLAN_1
 62
     5
  6
CONTINUOUS
 10
-1.353087
 20
2.616028
  0
VERTEX
  8
PLAN_1
 62
     5
  6
CONTINUOUS
 10
-1.345669
 20
2.620390
  0
SEQEND
  8
0
  0
POLYLINE
  8
PLAN_1
 62
     5
  6
CONTINUOUS
 66
     1
 40
0.003000
 41
0.003000
  0
VERTEX
  8
PLAN_1
 62
     5
  6
CONTINUOUS
 10
-1.338689
 20
2.624315
  0
VERTEX
  8
PLAN_1
 62
     5
  6
CONTINUOUS
 10
-1.331276
 20
2.628677
  0
SEQEND
  8
0
  0
POLYLINE
  8
PLAN_1
 62
     5
  6
CONTINUOUS
 66
     1
 40
0.003000
 41
0.003000
  0
VERTEX
  8
PLAN_1
 62
     5
  6
CONTINUOUS
 10
-1.324295
 20
2.632606
  0
VERTEX
  8
PLAN_1
 62
     5
  6
CONTINUOUS
 10
-1.316878
 20
2.636969
  0
SEQEND
  8
0
  0
POLYLINE
  8
PLAN_1
 62
     5
  6
CONTINUOUS
 66
     1
 40
0.003000
 41
0.003000
  0
VERTEX
  8
PLAN_1
 62
     5
  6
CONTINUOUS
 10
-1.309898
 20
2.641331
  0
VERTEX
  8
PLAN_1
 62
     5
  6
CONTINUOUS
 10
-1.302480
 20
2.645256
  0
SEQEND
  8
0
  0
POLYLINE
  8
PLAN_1
 62
     5
  6
CONTINUOUS
 66
     1
 40
0.003000
 41
0.003000
  0
VERTEX
  8
PLAN_1
 62
     5
  6
CONTINUOUS
 10
-1.295500
 20
2.649618
  0
VERTEX
  8
PLAN_1
 62
     5
  6
CONTINUOUS
 10
-1.288083
 20
2.653547
  0
SEQEND
  8
0
  0
POLYLINE
  8
PLAN_1
 62
     5
  6
CONTINUOUS
 66
     1
 40
0.003000
 41
0.003000
  0
VERTEX
  8
PLAN_1
 62
     5
  6
CONTINUOUS
 10
-1.281102
 20
2.657909
  0
VERTEX
  8
PLAN_1
 62
     5
  6
CONTINUOUS
 10
-1.273685
 20
2.662272
  0
SEQEND
  8
0
  0
POLYLINE
  8
PLAN_1
 62
     5
  6
CONTINUOUS
 66
     1
 40
0.003000
 41
0.003000
  0
VERTEX
  8
PLAN_1
 62
     5
  6
CONTINUOUS
 10
-1.266705
 20
2.666197
  0
VERTEX
  8
PLAN_1
 62
     5
  6
CONTINUOUS
 10
-1.259291
 20
2.670559
  0
SEQEND
  8
0
  0
POLYLINE
  8
PLAN_1
 62
     5
  6
CONTINUOUS
 66
     1
 40
0.003000
 41
0.003000
  0
VERTEX
  8
PLAN_1
 62
     5
  6
CONTINUOUS
 10
-1.252311
 20
2.674488
  0
VERTEX
  8
PLAN_1
 62
     5
  6
CONTINUOUS
 10
-1.244894
 20
2.678850
  0
SEQEND
  8
0
  0
POLYLINE
  8
PLAN_1
 62
     5
  6
CONTINUOUS
 66
     1
 40
0.003000
 41
0.003000
  0
VERTEX
  8
PLAN_1
 62
     5
  6
CONTINUOUS
 10
-1.237913
 20
2.682776
  0
VERTEX
  8
PLAN_1
 62
     5
  6
CONTINUOUS
 10
-1.230496
 20
2.687138
  0
SEQEND
  8
0
  0
POLYLINE
  8
PLAN_1
 62
     5
  6
CONTINUOUS
 66
     1
 40
0.003000
 41
0.003000
  0
VERTEX
  8
PLAN_1
 62
     5
  6
CONTINUOUS
 10
-1.223516
 20
2.691500
  0
VERTEX
  8
PLAN_1
 62
     5
  6
CONTINUOUS
 10
-1.216098
 20
2.695429
  0
SEQEND
  8
0
  0
POLYLINE
  8
PLAN_1
 62
     5
  6
CONTINUOUS
 66
     1
 40
0.003000
 41
0.003000
  0
VERTEX
  8
PLAN_1
 62
     5
  6
CONTINUOUS
 10
-1.209118
 20
2.699791
  0
VERTEX
  8
PLAN_1
 62
     5
  6
CONTINUOUS
 10
-1.201701
 20
2.703717
  0
SEQEND
  8
0
  0
POLYLINE
  8
PLAN_1
 62
     5
  6
CONTINUOUS
 66
     1
 40
0.003000
 41
0.003000
  0
VERTEX
  8
PLAN_1
 62
     5
  6
CONTINUOUS
 10
-1.194720
 20
2.708079
  0
VERTEX
  8
PLAN_1
 62
     5
  6
CONTINUOUS
 10
-1.187303
 20
2.712441
  0
SEQEND
  8
0
  0
POLYLINE
  8
PLAN_1
 62
     5
  6
CONTINUOUS
 66
     1
 40
0.003000
 41
0.003000
  0
VERTEX
  8
PLAN_1
 62
     5
  6
CONTINUOUS
 10
-1.180327
 20
2.716370
  0
VERTEX
  8
PLAN_1
 62
     5
  6
CONTINUOUS
 10
-1.172909
 20
2.720732
  0
SEQEND
  8
0
  0
POLYLINE
  8
PLAN_1
 62
     5
  6
CONTINUOUS
 66
     1
 40
0.003000
 41
0.003000
  0
VERTEX
  8
PLAN_1
 62
     5
  6
CONTINUOUS
 10
-1.165929
 20
2.724657
  0
VERTEX
  8
PLAN_1
 62
     5
  6
CONTINUOUS
 10
-1.158512
 20
2.729020
  0
SEQEND
  8
0
  0
POLYLINE
  8
PLAN_1
 62
     5
  6
CONTINUOUS
 66
     1
 40
0.003000
 41
0.003000
  0
VERTEX
  8
PLAN_1
 62
     5
  6
CONTINUOUS
 10
-1.151531
 20
2.733382
  0
VERTEX
  8
PLAN_1
 62
     5
  6
CONTINUOUS
 10
-1.144114
 20
2.737311
  0
SEQEND
  8
0
  0
POLYLINE
  8
PLAN_1
 62
     5
  6
CONTINUOUS
 66
     1
 40
0.003000
 41
0.003000
  0
VERTEX
  8
PLAN_1
 62
     5
  6
CONTINUOUS
 10
-1.137134
 20
2.741673
  0
VERTEX
  8
PLAN_1
 62
     5
  6
CONTINUOUS
 10
-1.129717
 20
2.745598
  0
SEQEND
  8
0
  0
POLYLINE
  8
PLAN_1
 62
     5
  6
CONTINUOUS
 66
     1
 40
0.003000
 41
0.003000
  0
VERTEX
  8
PLAN_1
 62
     5
  6
CONTINUOUS
 10
-1.122736
 20
2.749961
  0
VERTEX
  8
PLAN_1
 62
     5
  6
CONTINUOUS
 10
-1.115319
 20
2.754323
  0
SEQEND
  8
0
  0
POLYLINE
  8
PLAN_1
 62
     5
  6
CONTINUOUS
 66
     1
 40
0.003000
 41
0.003000
  0
VERTEX
  8
PLAN_1
 62
     5
  6
CONTINUOUS
 10
-1.108339
 20
2.758252
  0
VERTEX
  8
PLAN_1
 62
     5
  6
CONTINUOUS
 10
-1.100925
 20
2.762614
  0
SEQEND
  8
0
  0
POLYLINE
  8
PLAN_1
 62
     5
  6
CONTINUOUS
 66
     1
 40
0.003000
 41
0.003000
  0
VERTEX
  8
PLAN_1
 62
     5
  6
CONTINUOUS
 10
-1.093945
 20
2.766539
  0
VERTEX
  8
PLAN_1
 62
     5
  6
CONTINUOUS
 10
-1.086528
 20
2.770902
  0
SEQEND
  8
0
  0
POLYLINE
  8
PLAN_1
 62
     5
  6
CONTINUOUS
 66
     1
 40
0.003000
 41
0.003000
  0
VERTEX
  8
PLAN_1
 62
     5
  6
CONTINUOUS
 10
-1.079110
 20
2.775264
  0
VERTEX
  8
PLAN_1
 62
     5
  6
CONTINUOUS
 10
-1.072130
 20
2.779189
  0
SEQEND
  8
0
  0
POLYLINE
  8
PLAN_1
 62
     5
  6
CONTINUOUS
 66
     1
 40
0.003000
 41
0.003000
  0
VERTEX
  8
PLAN_1
 62
     5
  6
CONTINUOUS
 10
-1.064713
 20
2.783555
  0
VERTEX
  8
PLAN_1
 62
     5
  6
CONTINUOUS
 10
-1.057732
 20
2.787480
  0
SEQEND
  8
0
  0
POLYLINE
  8
PLAN_1
 62
     5
  6
CONTINUOUS
 66
     1
 40
0.003000
 41
0.003000
  0
VERTEX
  8
PLAN_1
 62
     5
  6
CONTINUOUS
 10
-1.050315
 20
2.791843
  0
VERTEX
  8
PLAN_1
 62
     5
  6
CONTINUOUS
 10
-1.043335
 20
2.796205
  0
SEQEND
  8
0
  0
POLYLINE
  8
PLAN_1
 62
     5
  6
CONTINUOUS
 66
     1
 40
0.003000
 41
0.003000
  0
VERTEX
  8
PLAN_1
 62
     5
  6
CONTINUOUS
 10
-1.035921
 20
2.800130
  0
VERTEX
  8
PLAN_1
 62
     5
  6
CONTINUOUS
 10
-1.035484
 20
2.800567
  0
SEQEND
  8
0
  0
POLYLINE
  8
PLAN_1
 62
     5
  6
CONTINUOUS
 66
     1
 40
0.003000
 41
0.003000
  0
VERTEX
  8
PLAN_1
 62
     5
  6
CONTINUOUS
 10
-1.035921
 20
2.800130
  0
VERTEX
  8
PLAN_1
 62
     5
  6
CONTINUOUS
 10
-1.035484
 20
2.800567
  0
SEQEND
  8
0
  0
POLYLINE
  8
PLAN_1
 62
     5
  6
CONTINUOUS
 66
     1
 40
0.003000
 41
0.003000
  0
VERTEX
  8
PLAN_1
 62
     5
  6
CONTINUOUS
 10
-1.410673
 20
2.426248
  0
VERTEX
  8
PLAN_1
 62
     5
  6
CONTINUOUS
 10
-1.403260
 20
2.430177
  0
SEQEND
  8
0
  0
POLYLINE
  8
PLAN_1
 62
     5
  6
CONTINUOUS
 66
     1
 40
0.003000
 41
0.003000
  0
VERTEX
  8
PLAN_1
 62
     5
  6
CONTINUOUS
 10
-1.396280
 20
2.434539
  0
VERTEX
  8
PLAN_1
 62
     5
  6
CONTINUOUS
 10
-1.388862
 20
2.438902
  0
SEQEND
  8
0
  0
POLYLINE
  8
PLAN_1
 62
     5
  6
CONTINUOUS
 66
     1
 40
0.003000
 41
0.003000
  0
VERTEX
  8
PLAN_1
 62
     5
  6
CONTINUOUS
 10
-1.381882
 20
2.442827
  0
VERTEX
  8
PLAN_1
 62
     5
  6
CONTINUOUS
 10
-1.374465
 20
2.447189
  0
SEQEND
  8
0
  0
POLYLINE
  8
PLAN_1
 62
     5
  6
CONTINUOUS
 66
     1
 40
0.003000
 41
0.003000
  0
VERTEX
  8
PLAN_1
 62
     5
  6
CONTINUOUS
 10
-1.367484
 20
2.451118
  0
VERTEX
  8
PLAN_1
 62
     5
  6
CONTINUOUS
 10
-1.360067
 20
2.455480
  0
SEQEND
  8
0
  0
POLYLINE
  8
PLAN_1
 62
     5
  6
CONTINUOUS
 66
     1
 40
0.003000
 41
0.003000
  0
VERTEX
  8
PLAN_1
 62
     5
  6
CONTINUOUS
 10
-1.353087
 20
2.459843
  0
VERTEX
  8
PLAN_1
 62
     5
  6
CONTINUOUS
 10
-1.345669
 20
2.463768
  0
SEQEND
  8
0
  0
POLYLINE
  8
PLAN_1
 62
     5
  6
CONTINUOUS
 66
     1
 40
0.003000
 41
0.003000
  0
VERTEX
  8
PLAN_1
 62
     5
  6
CONTINUOUS
 10
-1.338689
 20
2.468130
  0
VERTEX
  8
PLAN_1
 62
     5
  6
CONTINUOUS
 10
-1.331276
 20
2.472059
  0
SEQEND
  8
0
  0
POLYLINE
  8
PLAN_1
 62
     5
  6
CONTINUOUS
 66
     1
 40
0.003000
 41
0.003000
  0
VERTEX
  8
PLAN_1
 62
     5
  6
CONTINUOUS
 10
-1.324295
 20
2.476421
  0
VERTEX
  8
PLAN_1
 62
     5
  6
CONTINUOUS
 10
-1.316878
 20
2.480783
  0
SEQEND
  8
0
  0
POLYLINE
  8
PLAN_1
 62
     5
  6
CONTINUOUS
 66
     1
 40
0.003000
 41
0.003000
  0
VERTEX
  8
PLAN_1
 62
     5
  6
CONTINUOUS
 10
-1.309898
 20
2.484709
  0
VERTEX
  8
PLAN_1
 62
     5
  6
CONTINUOUS
 10
-1.302480
 20
2.489071
  0
SEQEND
  8
0
  0
POLYLINE
  8
PLAN_1
 62
     5
  6
CONTINUOUS
 66
     1
 40
0.003000
 41
0.003000
  0
VERTEX
  8
PLAN_1
 62
     5
  6
CONTINUOUS
 10
-1.295500
 20
2.493000
  0
VERTEX
  8
PLAN_1
 62
     5
  6
CONTINUOUS
 10
-1.288083
 20
2.497362
  0
SEQEND
  8
0
  0
POLYLINE
  8
PLAN_1
 62
     5
  6
CONTINUOUS
 66
     1
 40
0.003000
 41
0.003000
  0
VERTEX
  8
PLAN_1
 62
     5
  6
CONTINUOUS
 10
-1.281102
 20
2.501287
  0
VERTEX
  8
PLAN_1
 62
     5
  6
CONTINUOUS
 10
-1.273685
 20
2.505650
  0
SEQEND
  8
0
  0
POLYLINE
  8
PLAN_1
 62
     5
  6
CONTINUOUS
 66
     1
 40
0.003000
 41
0.003000
  0
VERTEX
  8
PLAN_1
 62
     5
  6
CONTINUOUS
 10
-1.266705
 20
2.510012
  0
VERTEX
  8
PLAN_1
 62
     5
  6
CONTINUOUS
 10
-1.259291
 20
2.513941
  0
SEQEND
  8
0
  0
POLYLINE
  8
PLAN_1
 62
     5
  6
CONTINUOUS
 66
     1
 40
0.003000
 41
0.003000
  0
VERTEX
  8
PLAN_1
 62
     5
  6
CONTINUOUS
 10
-1.252311
 20
2.518303
  0
VERTEX
  8
PLAN_1
 62
     5
  6
CONTINUOUS
 10
-1.244894
 20
2.522228
  0
SEQEND
  8
0
  0
POLYLINE
  8
PLAN_1
 62
     5
  6
CONTINUOUS
 66
     1
 40
0.003000
 41
0.003000
  0
VERTEX
  8
PLAN_1
 62
     5
  6
CONTINUOUS
 10
-1.237913
 20
2.526591
  0
VERTEX
  8
PLAN_1
 62
     5
  6
CONTINUOUS
 10
-1.230496
 20
2.530953
  0
SEQEND
  8
0
  0
POLYLINE
  8
PLAN_1
 62
     5
  6
CONTINUOUS
 66
     1
 40
0.003000
 41
0.003000
  0
VERTEX
  8
PLAN_1
 62
     5
  6
CONTINUOUS
 10
-1.223516
 20
2.534882
  0
VERTEX
  8
PLAN_1
 62
     5
  6
CONTINUOUS
 10
-1.216098
 20
2.539244
  0
SEQEND
  8
0
  0
POLYLINE
  8
PLAN_1
 62
     5
  6
CONTINUOUS
 66
     1
 40
0.003000
 41
0.003000
  0
VERTEX
  8
PLAN_1
 62
     5
  6
CONTINUOUS
 10
-1.209118
 20
2.543169
  0
VERTEX
  8
PLAN_1
 62
     5
  6
CONTINUOUS
 10
-1.201701
 20
2.547531
  0
SEQEND
  8
0
  0
POLYLINE
  8
PLAN_1
 62
     5
  6
CONTINUOUS
 66
     1
 40
0.003000
 41
0.003000
  0
VERTEX
  8
PLAN_1
 62
     5
  6
CONTINUOUS
 10
-1.194720
 20
2.551894
  0
VERTEX
  8
PLAN_1
 62
     5
  6
CONTINUOUS
 10
-1.187303
 20
2.555823
  0
SEQEND
  8
0
  0
POLYLINE
  8
PLAN_1
 62
     5
  6
CONTINUOUS
 66
     1
 40
0.003000
 41
0.003000
  0
VERTEX
  8
PLAN_1
 62
     5
  6
CONTINUOUS
 10
-1.180327
 20
2.560185
  0
VERTEX
  8
PLAN_1
 62
     5
  6
CONTINUOUS
 10
-1.172909
 20
2.564110
  0
SEQEND
  8
0
  0
POLYLINE
  8
PLAN_1
 62
     5
  6
CONTINUOUS
 66
     1
 40
0.003000
 41
0.003000
  0
VERTEX
  8
PLAN_1
 62
     5
  6
CONTINUOUS
 10
-1.165929
 20
2.568472
  0
VERTEX
  8
PLAN_1
 62
     5
  6
CONTINUOUS
 10
-1.158512
 20
2.572398
  0
SEQEND
  8
0
  0
POLYLINE
  8
PLAN_1
 62
     5
  6
CONTINUOUS
 66
     1
 40
0.003000
 41
0.003000
  0
VERTEX
  8
PLAN_1
 62
     5
  6
CONTINUOUS
 10
-1.151531
 20
2.576764
  0
VERTEX
  8
PLAN_1
 62
     5
  6
CONTINUOUS
 10
-1.144114
 20
2.581126
  0
SEQEND
  8
0
  0
POLYLINE
  8
PLAN_1
 62
     5
  6
CONTINUOUS
 66
     1
 40
0.003000
 41
0.003000
  0
VERTEX
  8
PLAN_1
 62
     5
  6
CONTINUOUS
 10
-1.137134
 20
2.585051
  0
VERTEX
  8
PLAN_1
 62
     5
  6
CONTINUOUS
 10
-1.129717
 20
2.589413
  0
SEQEND
  8
0
  0
POLYLINE
  8
PLAN_1
 62
     5
  6
CONTINUOUS
 66
     1
 40
0.003000
 41
0.003000
  0
VERTEX
  8
PLAN_1
 62
     5
  6
CONTINUOUS
 10
-1.122736
 20
2.593339
  0
VERTEX
  8
PLAN_1
 62
     5
  6
CONTINUOUS
 10
-1.115319
 20
2.597705
  0
SEQEND
  8
0
  0
POLYLINE
  8
PLAN_1
 62
     5
  6
CONTINUOUS
 66
     1
 40
0.003000
 41
0.003000
  0
VERTEX
  8
PLAN_1
 62
     5
  6
CONTINUOUS
 10
-1.108339
 20
2.602067
  0
VERTEX
  8
PLAN_1
 62
     5
  6
CONTINUOUS
 10
-1.100925
 20
2.605992
  0
SEQEND
  8
0
  0
POLYLINE
  8
PLAN_1
 62
     5
  6
CONTINUOUS
 66
     1
 40
0.003000
 41
0.003000
  0
VERTEX
  8
PLAN_1
 62
     5
  6
CONTINUOUS
 10
-1.093945
 20
2.610354
  0
VERTEX
  8
PLAN_1
 62
     5
  6
CONTINUOUS
 10
-1.086528
 20
2.614280
  0
SEQEND
  8
0
  0
POLYLINE
  8
PLAN_1
 62
     5
  6
CONTINUOUS
 66
     1
 40
0.003000
 41
0.003000
  0
VERTEX
  8
PLAN_1
 62
     5
  6
CONTINUOUS
 10
-1.079110
 20
2.618646
  0
VERTEX
  8
PLAN_1
 62
     5
  6
CONTINUOUS
 10
-1.072130
 20
2.623008
  0
SEQEND
  8
0
  0
POLYLINE
  8
PLAN_1
 62
     5
  6
CONTINUOUS
 66
     1
 40
0.003000
 41
0.003000
  0
VERTEX
  8
PLAN_1
 62
     5
  6
CONTINUOUS
 10
-1.064713
 20
2.626933
  0
VERTEX
  8
PLAN_1
 62
     5
  6
CONTINUOUS
 10
-1.057732
 20
2.631295
  0
SEQEND
  8
0
  0
POLYLINE
  8
PLAN_1
 62
     5
  6
CONTINUOUS
 66
     1
 40
0.003000
 41
0.003000
  0
VERTEX
  8
PLAN_1
 62
     5
  6
CONTINUOUS
 10
-1.050315
 20
2.635220
  0
VERTEX
  8
PLAN_1
 62
     5
  6
CONTINUOUS
 10
-1.043335
 20
2.639587
  0
SEQEND
  8
0
  0
POLYLINE
  8
PLAN_1
 62
     5
  6
CONTINUOUS
 66
     1
 40
0.003000
 41
0.003000
  0
VERTEX
  8
PLAN_1
 62
     5
  6
CONTINUOUS
 10
-1.035921
 20
2.643949
  0
VERTEX
  8
PLAN_1
 62
     5
  6
CONTINUOUS
 10
-1.035484
 20
2.643949
  0
SEQEND
  8
0
  0
POLYLINE
  8
PLAN_1
 62
     5
  6
CONTINUOUS
 66
     1
 40
0.003000
 41
0.003000
  0
VERTEX
  8
PLAN_1
 62
     5
  6
CONTINUOUS
 10
-1.035921
 20
2.643949
  0
VERTEX
  8
PLAN_1
 62
     5
  6
CONTINUOUS
 10
-1.035484
 20
2.643949
  0
SEQEND
  8
0
  0
POLYLINE
  8
PLAN_1
  6
CONTINUOUS
 66
     1
 40
0.008287
 41
0.008287
  0
VERTEX
  8
PLAN_1
  6
CONTINUOUS
 10
-1.102669
 20
2.355575
  0
VERTEX
  8
PLAN_1
  6
CONTINUOUS
 10
-1.098744
 20
2.359063
  0
VERTEX
  8
PLAN_1
  6
CONTINUOUS
 10
-1.096126
 20
2.362555
  0
VERTEX
  8
PLAN_1
  6
CONTINUOUS
 10
-1.093945
 20
2.366043
  0
VERTEX
  8
PLAN_1
  6
CONTINUOUS
 10
-1.092634
 20
2.369535
  0
VERTEX
  8
PLAN_1
  6
CONTINUOUS
 10
-1.092197
 20
2.372587
  0
VERTEX
  8
PLAN_1
  6
CONTINUOUS
 10
-1.092634
 20
2.375642
  0
VERTEX
  8
PLAN_1
  6
CONTINUOUS
 10
-1.093071
 20
2.378697
  0
VERTEX
  8
PLAN_1
  6
CONTINUOUS
 10
-1.093945
 20
2.381315
  0
VERTEX
  8
PLAN_1
  6
CONTINUOUS
 10
-1.096563
 20
2.385677
  0
VERTEX
  8
PLAN_1
  6
CONTINUOUS
 10
-1.099177
 20
2.389602
  0
VERTEX
  8
PLAN_1
  6
CONTINUOUS
 10
-1.101795
 20
2.391783
  0
VERTEX
  8
PLAN_1
  6
CONTINUOUS
 10
-1.102669
 20
2.392657
  0
SEQEND
  8
0
  0
POLYLINE
  8
PLAN_1
  6
CONTINUOUS
 66
     1
 40
0.008287
 41
0.008287
  0
VERTEX
  8
PLAN_1
  6
CONTINUOUS
 10
-1.102669
 20
2.392657
  0
VERTEX
  8
PLAN_1
  6
CONTINUOUS
 10
-1.329528
 20
2.392657
  0
SEQEND
  8
0
  0
POLYLINE
  8
PLAN_1
  6
CONTINUOUS
 66
     1
 40
0.008287
 41
0.008287
  0
VERTEX
  8
PLAN_1
  6
CONTINUOUS
 10
-1.329528
 20
2.392657
  0
VERTEX
  8
PLAN_1
  6
CONTINUOUS
 10
-1.330402
 20
2.391783
  0
VERTEX
  8
PLAN_1
  6
CONTINUOUS
 10
-1.332583
 20
2.389602
  0
VERTEX
  8
PLAN_1
  6
CONTINUOUS
 10
-1.335201
 20
2.386114
  0
VERTEX
  8
PLAN_1
  6
CONTINUOUS
 10
-1.337382
 20
2.381752
  0
VERTEX
  8
PLAN_1
  6
CONTINUOUS
 10
-1.338256
 20
2.379134
  0
VERTEX
  8
PLAN_1
  6
CONTINUOUS
 10
-1.338689
 20
2.376079
  0
VERTEX
  8
PLAN_1
  6
CONTINUOUS
 10
-1.338689
 20
2.373024
  0
VERTEX
  8
PLAN_1
  6
CONTINUOUS
 10
-1.338256
 20
2.369972
  0
VERTEX
  8
PLAN_1
  6
CONTINUOUS
 10
-1.337382
 20
2.366480
  0
VERTEX
  8
PLAN_1
  6
CONTINUOUS
 10
-1.335638
 20
2.362992
  0
VERTEX
  8
PLAN_1
  6
CONTINUOUS
 10
-1.333020
 20
2.359500
  0
VERTEX
  8
PLAN_1
  6
CONTINUOUS
 10
-1.329528
 20
2.355575
  0
SEQEND
  8
0
  0
POLYLINE
  8
PLAN_1
  6
CONTINUOUS
 66
     1
 40
0.008287
 41
0.008287
  0
VERTEX
  8
PLAN_1
  6
CONTINUOUS
 10
-1.329528
 20
2.355575
  0
VERTEX
  8
PLAN_1
  6
CONTINUOUS
 10
-1.102669
 20
2.355575
  0
SEQEND
  8
0
  0
POLYLINE
  8
PLAN_1
  6
CONTINUOUS
 66
     1
 40
0.008287
 41
0.008287
  0
VERTEX
  8
PLAN_1
  6
CONTINUOUS
 10
-1.102232
 20
2.318929
  0
VERTEX
  8
PLAN_1
  6
CONTINUOUS
 10
-1.098307
 20
2.322417
  0
VERTEX
  8
PLAN_1
  6
CONTINUOUS
 10
-1.095689
 20
2.325909
  0
VERTEX
  8
PLAN_1
  6
CONTINUOUS
 10
-1.093508
 20
2.329398
  0
VERTEX
  8
PLAN_1
  6
CONTINUOUS
 10
-1.092634
 20
2.332890
  0
VERTEX
  8
PLAN_1
  6
CONTINUOUS
 10
-1.092197
 20
2.335941
  0
VERTEX
  8
PLAN_1
  6
CONTINUOUS
 10
-1.092197
 20
2.338996
  0
VERTEX
  8
PLAN_1
  6
CONTINUOUS
 10
-1.092634
 20
2.342051
  0
VERTEX
  8
PLAN_1
  6
CONTINUOUS
 10
-1.093508
 20
2.344669
  0
VERTEX
  8
PLAN_1
  6
CONTINUOUS
 10
-1.096126
 20
2.349465
  0
VERTEX
  8
PLAN_1
  6
CONTINUOUS
 10
-1.099177
 20
2.352957
  0
VERTEX
  8
PLAN_1
  6
CONTINUOUS
 10
-1.101358
 20
2.355138
  0
VERTEX
  8
PLAN_1
  6
CONTINUOUS
 10
-1.102232
 20
2.356012
  0
SEQEND
  8
0
  0
POLYLINE
  8
PLAN_1
  6
CONTINUOUS
 66
     1
 40
0.008287
 41
0.008287
  0
VERTEX
  8
PLAN_1
  6
CONTINUOUS
 10
-1.102232
 20
2.356012
  0
VERTEX
  8
PLAN_1
  6
CONTINUOUS
 10
-1.329528
 20
2.356012
  0
SEQEND
  8
0
  0
POLYLINE
  8
PLAN_1
  6
CONTINUOUS
 66
     1
 40
0.008287
 41
0.008287
  0
VERTEX
  8
PLAN_1
  6
CONTINUOUS
 10
-1.329528
 20
2.356012
  0
VERTEX
  8
PLAN_1
  6
CONTINUOUS
 10
-1.330402
 20
2.355138
  0
VERTEX
  8
PLAN_1
  6
CONTINUOUS
 10
-1.332146
 20
2.352957
  0
VERTEX
  8
PLAN_1
  6
CONTINUOUS
 10
-1.334764
 20
2.349465
  0
VERTEX
  8
PLAN_1
  6
CONTINUOUS
 10
-1.336945
 20
2.345102
  0
VERTEX
  8
PLAN_1
  6
CONTINUOUS
 10
-1.337819
 20
2.342484
  0
VERTEX
  8
PLAN_1
  6
CONTINUOUS
 10
-1.338256
 20
2.339870
  0
VERTEX
  8
PLAN_1
  6
CONTINUOUS
 10
-1.338689
 20
2.336815
  0
VERTEX
  8
PLAN_1
  6
CONTINUOUS
 10
-1.338256
 20
2.333323
  0
VERTEX
  8
PLAN_1
  6
CONTINUOUS
 10
-1.336945
 20
2.329835
  0
VERTEX
  8
PLAN_1
  6
CONTINUOUS
 10
-1.335201
 20
2.326343
  0
VERTEX
  8
PLAN_1
  6
CONTINUOUS
 10
-1.332583
 20
2.322854
  0
VERTEX
  8
PLAN_1
  6
CONTINUOUS
 10
-1.329528
 20
2.318929
  0
SEQEND
  8
0
  0
POLYLINE
  8
PLAN_1
  6
CONTINUOUS
 66
     1
 40
0.008287
 41
0.008287
  0
VERTEX
  8
PLAN_1
  6
CONTINUOUS
 10
-1.329528
 20
2.318929
  0
VERTEX
  8
PLAN_1
  6
CONTINUOUS
 10
-1.102232
 20
2.318929
  0
SEQEND
  8
0
  0
POLYLINE
  8
PLAN_1
  6
CONTINUOUS
 66
     1
 40
0.008287
 41
0.008287
  0
VERTEX
  8
PLAN_1
  6
CONTINUOUS
 10
-1.102669
 20
2.281846
  0
VERTEX
  8
PLAN_1
  6
CONTINUOUS
 10
-1.098744
 20
2.285335
  0
VERTEX
  8
PLAN_1
  6
CONTINUOUS
 10
-1.095689
 20
2.288827
  0
VERTEX
  8
PLAN_1
  6
CONTINUOUS
 10
-1.093945
 20
2.292315
  0
VERTEX
  8
PLAN_1
  6
CONTINUOUS
 10
-1.092634
 20
2.295807
  0
VERTEX
  8
PLAN_1
  6
CONTINUOUS
 10
-1.092197
 20
2.298858
  0
VERTEX
  8
PLAN_1
  6
CONTINUOUS
 10
-1.092197
 20
2.301913
  0
VERTEX
  8
PLAN_1
  6
CONTINUOUS
 10
-1.092634
 20
2.304969
  0
VERTEX
  8
PLAN_1
  6
CONTINUOUS
 10
-1.093945
 20
2.307583
  0
VERTEX
  8
PLAN_1
  6
CONTINUOUS
 10
-1.096126
 20
2.311949
  0
VERTEX
  8
PLAN_1
  6
CONTINUOUS
 10
-1.099177
 20
2.315874
  0
VERTEX
  8
PLAN_1
  6
CONTINUOUS
 10
-1.101358
 20
2.318055
  0
VERTEX
  8
PLAN_1
  6
CONTINUOUS
 10
-1.102669
 20
2.318929
  0
SEQEND
  8
0
  0
POLYLINE
  8
PLAN_1
  6
CONTINUOUS
 66
     1
 40
0.008287
 41
0.008287
  0
VERTEX
  8
PLAN_1
  6
CONTINUOUS
 10
-1.102669
 20
2.318929
  0
VERTEX
  8
PLAN_1
  6
CONTINUOUS
 10
-1.329528
 20
2.318929
  0
SEQEND
  8
0
  0
POLYLINE
  8
PLAN_1
  6
CONTINUOUS
 66
     1
 40
0.008287
 41
0.008287
  0
VERTEX
  8
PLAN_1
  6
CONTINUOUS
 10
-1.329528
 20
2.318929
  0
VERTEX
  8
PLAN_1
  6
CONTINUOUS
 10
-1.330402
 20
2.318055
  0
VERTEX
  8
PLAN_1
  6
CONTINUOUS
 10
-1.332583
 20
2.315874
  0
VERTEX
  8
PLAN_1
  6
CONTINUOUS
 10
-1.335201
 20
2.312382
  0
VERTEX
  8
PLAN_1
  6
CONTINUOUS
 10
-1.337382
 20
2.308020
  0
VERTEX
  8
PLAN_1
  6
CONTINUOUS
 10
-1.338256
 20
2.305402
  0
VERTEX
  8
PLAN_1
  6
CONTINUOUS
 10
-1.338689
 20
2.302350
  0
VERTEX
  8
PLAN_1
  6
CONTINUOUS
 10
-1.338689
 20
2.299732
  0
VERTEX
  8
PLAN_1
  6
CONTINUOUS
 10
-1.338256
 20
2.296240
  0
VERTEX
  8
PLAN_1
  6
CONTINUOUS
 10
-1.337382
 20
2.292752
  0
VERTEX
  8
PLAN_1
  6
CONTINUOUS
 10
-1.335638
 20
2.289260
  0
VERTEX
  8
PLAN_1
  6
CONTINUOUS
 10
-1.333020
 20
2.285772
  0
VERTEX
  8
PLAN_1
  6
CONTINUOUS
 10
-1.329528
 20
2.281846
  0
SEQEND
  8
0
  0
POLYLINE
  8
PLAN_1
  6
CONTINUOUS
 66
     1
 40
0.008287
 41
0.008287
  0
VERTEX
  8
PLAN_1
  6
CONTINUOUS
 10
-1.329528
 20
2.281846
  0
VERTEX
  8
PLAN_1
  6
CONTINUOUS
 10
-1.102669
 20
2.281846
  0
SEQEND
  8
0
  0
POLYLINE
  8
PLAN_1
  6
CONTINUOUS
 66
     1
 40
0.008287
 41
0.008287
  0
VERTEX
  8
PLAN_1
  6
CONTINUOUS
 10
-1.329528
 20
2.465949
  0
VERTEX
  8
PLAN_1
  6
CONTINUOUS
 10
-1.329965
 20
2.465079
  0
VERTEX
  8
PLAN_1
  6
CONTINUOUS
 10
-1.332146
 20
2.462898
  0
VERTEX
  8
PLAN_1
  6
CONTINUOUS
 10
-1.334764
 20
2.459406
  0
VERTEX
  8
PLAN_1
  6
CONTINUOUS
 10
-1.336945
 20
2.455043
  0
VERTEX
  8
PLAN_1
  6
CONTINUOUS
 10
-1.337819
 20
2.452425
  0
VERTEX
  8
PLAN_1
  6
CONTINUOUS
 10
-1.338256
 20
2.449370
  0
VERTEX
  8
PLAN_1
  6
CONTINUOUS
 10
-1.338256
 20
2.446319
  0
VERTEX
  8
PLAN_1
  6
CONTINUOUS
 10
-1.337819
 20
2.443264
  0
VERTEX
  8
PLAN_1
  6
CONTINUOUS
 10
-1.336945
 20
2.439776
  0
VERTEX
  8
PLAN_1
  6
CONTINUOUS
 10
-1.335201
 20
2.436283
  0
VERTEX
  8
PLAN_1
  6
CONTINUOUS
 10
-1.332583
 20
2.432795
  0
VERTEX
  8
PLAN_1
  6
CONTINUOUS
 10
-1.329528
 20
2.428866
  0
SEQEND
  8
0
  0
POLYLINE
  8
PLAN_1
  6
CONTINUOUS
 66
     1
 40
0.008287
 41
0.008287
  0
VERTEX
  8
PLAN_1
  6
CONTINUOUS
 10
-1.329528
 20
2.428866
  0
VERTEX
  8
PLAN_1
  6
CONTINUOUS
 10
-1.102232
 20
2.428866
  0
SEQEND
  8
0
  0
POLYLINE
  8
PLAN_1
  6
CONTINUOUS
 66
     1
 40
0.008287
 41
0.008287
  0
VERTEX
  8
PLAN_1
  6
CONTINUOUS
 10
-1.102232
 20
2.428866
  0
VERTEX
  8
PLAN_1
  6
CONTINUOUS
 10
-1.098307
 20
2.432358
  0
VERTEX
  8
PLAN_1
  6
CONTINUOUS
 10
-1.095689
 20
2.435846
  0
VERTEX
  8
PLAN_1
  6
CONTINUOUS
 10
-1.093508
 20
2.439339
  0
VERTEX
  8
PLAN_1
  6
CONTINUOUS
 10
-1.092197
 20
2.442827
  0
VERTEX
  8
PLAN_1
  6
CONTINUOUS
 10
-1.091764
 20
2.445882
  0
VERTEX
  8
PLAN_1
  6
CONTINUOUS
 10
-1.092197
 20
2.448937
  0
VERTEX
  8
PLAN_1
  6
CONTINUOUS
 10
-1.092634
 20
2.451988
  0
VERTEX
  8
PLAN_1
  6
CONTINUOUS
 10
-1.093508
 20
2.454606
  0
VERTEX
  8
PLAN_1
  6
CONTINUOUS
 10
-1.096126
 20
2.458969
  0
VERTEX
  8
PLAN_1
  6
CONTINUOUS
 10
-1.098744
 20
2.462898
  0
VERTEX
  8
PLAN_1
  6
CONTINUOUS
 10
-1.101358
 20
2.465079
  0
VERTEX
  8
PLAN_1
  6
CONTINUOUS
 10
-1.102232
 20
2.465949
  0
SEQEND
  8
0
  0
POLYLINE
  8
PLAN_1
  6
CONTINUOUS
 66
     1
 40
0.008287
 41
0.008287
  0
VERTEX
  8
PLAN_1
  6
CONTINUOUS
 10
-1.102232
 20
2.465949
  0
VERTEX
  8
PLAN_1
  6
CONTINUOUS
 10
-1.313386
 20
2.465949
  0
SEQEND
  8
0
  0
POLYLINE
  8
PLAN_1
  6
CONTINUOUS
 66
     1
 40
0.008287
 41
0.008287
  0
VERTEX
  8
PLAN_1
  6
CONTINUOUS
 10
-1.313386
 20
2.465949
  0
VERTEX
  8
PLAN_1
  6
CONTINUOUS
 10
-1.329528
 20
2.465949
  0
SEQEND
  8
0
  0
POLYLINE
  8
PLAN_1
  6
CONTINUOUS
 66
     1
 40
0.008287
 41
0.008287
  0
VERTEX
  8
PLAN_1
  6
CONTINUOUS
 10
-1.101795
 20
2.392220
  0
VERTEX
  8
PLAN_1
  6
CONTINUOUS
 10
-1.097870
 20
2.395713
  0
VERTEX
  8
PLAN_1
  6
CONTINUOUS
 10
-1.095252
 20
2.399201
  0
VERTEX
  8
PLAN_1
  6
CONTINUOUS
 10
-1.093071
 20
2.402693
  0
VERTEX
  8
PLAN_1
  6
CONTINUOUS
 10
-1.092197
 20
2.406181
  0
VERTEX
  8
PLAN_1
  6
CONTINUOUS
 10
-1.091764
 20
2.409236
  0
VERTEX
  8
PLAN_1
  6
CONTINUOUS
 10
-1.091764
 20
2.412287
  0
VERTEX
  8
PLAN_1
  6
CONTINUOUS
 10
-1.092197
 20
2.415343
  0
VERTEX
  8
PLAN_1
  6
CONTINUOUS
 10
-1.093071
 20
2.417961
  0
VERTEX
  8
PLAN_1
  6
CONTINUOUS
 10
-1.095689
 20
2.422323
  0
VERTEX
  8
PLAN_1
  6
CONTINUOUS
 10
-1.098744
 20
2.426248
  0
VERTEX
  8
PLAN_1
  6
CONTINUOUS
 10
-1.100925
 20
2.428429
  0
VERTEX
  8
PLAN_1
  6
CONTINUOUS
 10
-1.101795
 20
2.429303
  0
SEQEND
  8
0
  0
POLYLINE
  8
PLAN_1
  6
CONTINUOUS
 66
     1
 40
0.008287
 41
0.008287
  0
VERTEX
  8
PLAN_1
  6
CONTINUOUS
 10
-1.101795
 20
2.429303
  0
VERTEX
  8
PLAN_1
  6
CONTINUOUS
 10
-1.329091
 20
2.429303
  0
SEQEND
  8
0
  0
POLYLINE
  8
PLAN_1
  6
CONTINUOUS
 66
     1
 40
0.008287
 41
0.008287
  0
VERTEX
  8
PLAN_1
  6
CONTINUOUS
 10
-1.329091
 20
2.429303
  0
VERTEX
  8
PLAN_1
  6
CONTINUOUS
 10
-1.329965
 20
2.428429
  0
VERTEX
  8
PLAN_1
  6
CONTINUOUS
 10
-1.331709
 20
2.426248
  0
VERTEX
  8
PLAN_1
  6
CONTINUOUS
 10
-1.334327
 20
2.422760
  0
VERTEX
  8
PLAN_1
  6
CONTINUOUS
 10
-1.336508
 20
2.418398
  0
VERTEX
  8
PLAN_1
  6
CONTINUOUS
 10
-1.337382
 20
2.415780
  0
VERTEX
  8
PLAN_1
  6
CONTINUOUS
 10
-1.337819
 20
2.412724
  0
VERTEX
  8
PLAN_1
  6
CONTINUOUS
 10
-1.338256
 20
2.409673
  0
VERTEX
  8
PLAN_1
  6
CONTINUOUS
 10
-1.337819
 20
2.406618
  0
VERTEX
  8
PLAN_1
  6
CONTINUOUS
 10
-1.336508
 20
2.403126
  0
VERTEX
  8
PLAN_1
  6
CONTINUOUS
 10
-1.334764
 20
2.399638
  0
VERTEX
  8
PLAN_1
  6
CONTINUOUS
 10
-1.332146
 20
2.396146
  0
VERTEX
  8
PLAN_1
  6
CONTINUOUS
 10
-1.329091
 20
2.392220
  0
SEQEND
  8
0
  0
POLYLINE
  8
PLAN_1
  6
CONTINUOUS
 66
     1
 40
0.008287
 41
0.008287
  0
VERTEX
  8
PLAN_1
  6
CONTINUOUS
 10
-1.329091
 20
2.392220
  0
VERTEX
  8
PLAN_1
  6
CONTINUOUS
 10
-1.101795
 20
2.392220
  0
SEQEND
  8
0
  0
POLYLINE
  8
PLAN_1
 62
     2
  6
CONTINUOUS
 66
     1
 40
0.004362
 41
0.004362
  0
VERTEX
  8
PLAN_1
 62
     2
  6
CONTINUOUS
 10
-1.185122
 20
3.392150
  0
VERTEX
  8
PLAN_1
 62
     2
  6
CONTINUOUS
 10
-0.574783
 20
3.392150
  0
SEQEND
  8
0
  0
SOLID
  8
PLAN_1
 62
     2
 10
-0.545555
 20
3.392150
 11
-0.604449
 21
3.407854
 12
-0.545555
 22
3.392150
 13
-0.604449
 23
3.376441
  0
POLYLINE
  8
PLAN_1
 62
     2
  6
CONTINUOUS
 66
     1
 40
0.003000
 41
0.003000
  0
VERTEX
  8
PLAN_1
 62
     2
  6
CONTINUOUS
 10
-0.545555
 20
3.392150
  0
VERTEX
  8
PLAN_1
 62
     2
  6
CONTINUOUS
 10
-0.604449
 20
3.407854
  0
VERTEX
  8
PLAN_1
 62
     2
  6
CONTINUOUS
 10
-0.604449
 20
3.376441
  0
VERTEX
  8
PLAN_1
 62
     2
  6
CONTINUOUS
 10
-0.545555
 20
3.392150
  0
SEQEND
  8
0
  0
SOLID
  8
PLAN_1
 62
     2
 10
-1.214354
 20
3.392150
 11
-1.155457
 21
3.407854
 12
-1.214354
 22
3.392150
 13
-1.155457
 23
3.376441
  0
POLYLINE
  8
PLAN_1
 62
     2
  6
CONTINUOUS
 66
     1
 40
0.003000
 41
0.003000
  0
VERTEX
  8
PLAN_1
 62
     2
  6
CONTINUOUS
 10
-1.214354
 20
3.392150
  0
VERTEX
  8
PLAN_1
 62
     2
  6
CONTINUOUS
 10
-1.155457
 20
3.407854
  0
VERTEX
  8
PLAN_1
 62
     2
  6
CONTINUOUS
 10
-1.155457
 20
3.376441
  0
VERTEX
  8
PLAN_1
 62
     2
  6
CONTINUOUS
 10
-1.214354
 20
3.392150
  0
SEQEND
  8
0
  0
POLYLINE
  8
PLAN_1
 62
     2
  6
CONTINUOUS
 66
     1
 40
0.003000
 41
0.003000
  0
VERTEX
  8
PLAN_1
 62
     2
  6
CONTINUOUS
 10
-0.900677
 20
3.415709
  0
VERTEX
  8
PLAN_1
 62
     2
  6
CONTINUOUS
 10
-0.910276
 20
3.415709
  0
VERTEX
  8
PLAN_1
 62
     2
  6
CONTINUOUS
 10
-0.910276
 20
3.467622
  0
VERTEX
  8
PLAN_1
 62
     2
  6
CONTINUOUS
 10
-0.927287
 20
3.467622
  0
VERTEX
  8
PLAN_1
 62
     2
  6
CONTINUOUS
 10
-0.927287
 20
3.475039
  0
VERTEX
  8
PLAN_1
 62
     2
  6
CONTINUOUS
 10
-0.923362
 20
3.475476
  0
VERTEX
  8
PLAN_1
 62
     2
  6
CONTINUOUS
 10
-0.919874
 20
3.475913
  0
VERTEX
  8
PLAN_1
 62
     2
  6
CONTINUOUS
 10
-0.916819
 20
3.476783
  0
VERTEX
  8
PLAN_1
 62
     2
  6
CONTINUOUS
 10
-0.914201
 20
3.477657
  0
VERTEX
  8
PLAN_1
 62
     2
  6
CONTINUOUS
 10
-0.912020
 20
3.479402
  0
VERTEX
  8
PLAN_1
 62
     2
  6
CONTINUOUS
 10
-0.910276
 20
3.482020
  0
VERTEX
  8
PLAN_1
 62
     2
  6
CONTINUOUS
 10
-0.908965
 20
3.485075
  0
VERTEX
  8
PLAN_1
 62
     2
  6
CONTINUOUS
 10
-0.907657
 20
3.489000
  0
VERTEX
  8
PLAN_1
 62
     2
  6
CONTINUOUS
 10
-0.900677
 20
3.489000
  0
VERTEX
  8
PLAN_1
 62
     2
  6
CONTINUOUS
 10
-0.900677
 20
3.415709
  0
SEQEND
  8
0
  0
POLYLINE
  8
PLAN_1
 62
     2
  6
CONTINUOUS
 66
     1
 40
0.003000
 41
0.003000
  0
VERTEX
  8
PLAN_1
 62
     2
  6
CONTINUOUS
 10
-0.876244
 20
3.487256
  0
VERTEX
  8
PLAN_1
 62
     2
  6
CONTINUOUS
 10
-0.825638
 20
3.487256
  0
VERTEX
  8
PLAN_1
 62
     2
  6
CONTINUOUS
 10
-0.825638
 20
3.479402
  0
VERTEX
  8
PLAN_1
 62
     2
  6
CONTINUOUS
 10
-0.828693
 20
3.475913
  0
VERTEX
  8
PLAN_1
 62
     2
  6
CONTINUOUS
 10
-0.832618
 20
3.470677
  0
VERTEX
  8
PLAN_1
 62
     2
  6
CONTINUOUS
 10
-0.836980
 20
3.464571
  0
VERTEX
  8
PLAN_1
 62
     2
  6
CONTINUOUS
 10
-0.841343
 20
3.457154
  0
VERTEX
  8
PLAN_1
 62
     2
  6
CONTINUOUS
 10
-0.845709
 20
3.448425
  0
VERTEX
  8
PLAN_1
 62
     2
  6
CONTINUOUS
 10
-0.849634
 20
3.438394
  0
VERTEX
  8
PLAN_1
 62
     2
  6
CONTINUOUS
 10
-0.851378
 20
3.433157
  0
VERTEX
  8
PLAN_1
 62
     2
  6
CONTINUOUS
 10
-0.853122
 20
3.427484
  0
VERTEX
  8
PLAN_1
 62
     2
  6
CONTINUOUS
 10
-0.854433
 20
3.421815
  0
VERTEX
  8
PLAN_1
 62
     2
  6
CONTINUOUS
 10
-0.855740
 20
3.415709
  0
VERTEX
  8
PLAN_1
 62
     2
  6
CONTINUOUS
 10
-0.865776
 20
3.415709
  0
VERTEX
  8
PLAN_1
 62
     2
  6
CONTINUOUS
 10
-0.864465
 20
3.423559
  0
VERTEX
  8
PLAN_1
 62
     2
  6
CONTINUOUS
 10
-0.861850
 20
3.431850
  0
VERTEX
  8
PLAN_1
 62
     2
  6
CONTINUOUS
 10
-0.858795
 20
3.440138
  0
VERTEX
  8
PLAN_1
 62
     2
  6
CONTINUOUS
 10
-0.855303
 20
3.448425
  0
VERTEX
  8
PLAN_1
 62
     2
  6
CONTINUOUS
 10
-0.850941
 20
3.456717
  0
VERTEX
  8
PLAN_1
 62
     2
  6
CONTINUOUS
 10
-0.846142
 20
3.464571
  0
VERTEX
  8
PLAN_1
 62
     2
  6
CONTINUOUS
 10
-0.840909
 20
3.471984
  0
VERTEX
  8
PLAN_1
 62
     2
  6
CONTINUOUS
 10
-0.835673
 20
3.478531
  0
VERTEX
  8
PLAN_1
 62
     2
  6
CONTINUOUS
 10
-0.876244
 20
3.478531
  0
VERTEX
  8
PLAN_1
 62
     2
  6
CONTINUOUS
 10
-0.876244
 20
3.487256
  0
SEQEND
  8
0
  0
POLYLINE
  8
PLAN_1
 62
     2
  6
CONTINUOUS
 66
     1
 40
0.004362
 41
0.004362
  0
VERTEX
  8
PLAN_1
 62
     2
  6
CONTINUOUS
 10
-1.214354
 20
3.172705
  0
VERTEX
  8
PLAN_1
 62
     2
  6
CONTINUOUS
 10
-1.214354
 20
3.415709
  0
SEQEND
  8
0
  0
POLYLINE
  8
PLAN_1
 62
     2
  6
CONTINUOUS
 66
     1
 40
0.004362
 41
0.004362
  0
VERTEX
  8
PLAN_1
 62
     2
  6
CONTINUOUS
 10
-0.545555
 20
0.416795
  0
VERTEX
  8
PLAN_1
 62
     2
  6
CONTINUOUS
 10
-0.545555
 20
3.415709
  0
SEQEND
  8
0
  0
ENDSEC
  0
EOF
