  0
SECTION
  2
HEADER
  9
$ACADVER
  1
AC1006
  9
$EXTMIN
 10
-2.337000
 20
-3.805000
  9
$EXTMAX
 10
2.329815
 20
3.798000
  9
$LTSCALE
 40
0.000394
  9
$PDMODE
 70
    35
  9
$PDSIZE
 40
0.000315
  0
ENDSEC
  0
SECTION
  2
TABLES
  0
TABLE
  2
LTYPE
 70
     9
  0
LTYPE
  2
CONTINUOUS
 70
    64
  3
Solid line
 72
    65
 73
     0
 40
0.000000
  0
LTYPE
  2
DASHED
 70
    64
  3
__ __ __ __ __ __ __ __ __ __ __ __ __ __ __
 72
    65
 73
     2
 40
0.000003
 49
0.000002
 49
-0.000001
  0
LTYPE
  2
HIDDEN
 70
    64
  3
 _ _ _ _ _ _ _ _ _ _ _ _ _ _ _ _ _ _ _ _ _ _
 72
    65
 73
     2
 40
0.000001
 49
0.000001
 49
-0.000000
  0
LTYPE
  2
CENTER
 70
    64
  3
____ _ ____ _ ____ _ ____ _ ____ _ ____ _ ____
 72
    65
 73
     4
 40
0.000008
 49
0.000005
 49
-0.000001
 49
0.000001
 49
-0.000001
  0
LTYPE
  2
PHANTOM
 70
    64
  3
_____ _ _ _____ _ _ _____ _ _ _____ _ _ ____
 72
    65
 73
     6
 40
0.000010
 49
0.000005
 49
-0.000001
 49
0.000001
 49
-0.000001
 49
0.000001
 49
-0.000001
  0
LTYPE
  2
DOT
 70
    64
  3
...............................................
 72
    65
 73
     2
 40
0.000001
 49
0.000000
 49
-0.000001
  0
LTYPE
  2
DASHDOT
 70
    64
  3
__ . __ . __ . __ . __ . __ . __ . __ . __ . __
 72
    65
 73
     4
 40
0.000004
 49
0.000002
 49
-0.000001
 49
0.000000
 49
-0.000001
  0
LTYPE
  2
BORDER
 70
    64
  3
__ __ . __ __ . __ __ . __ __ . __ __ . __ __
 72
    65
 73
     6
 40
0.000007
 49
0.000002
 49
-0.000001
 49
0.000002
 49
-0.000001
 49
0.000000
 49
-0.000001
  0
LTYPE
  2
DIVIDE
 70
    64
  3
__ . . __ . . __ . . __ . . __ . . __ . . __
 72
    65
 73
     6
 40
0.000005
 49
0.000002
 49
-0.000001
 49
0.000000
 49
-0.000001
 49
0.000000
 49
-0.000001
  0
LTYPE
  2
DOTDOT
 70
    64
  3
 . .  . .  . .  . .  . .  . . 
 72
    65
 73
     5
 40
0.000002
 49
-0.000001
 49
0.000000
 49
-0.000001
 49
0.000000
 49
-0.000001
  0
ENDTAB
  0
TABLE
  2
STYLE
 70
     0
  0
ENDTAB
  0
TABLE
  2
LAYER
 70
     3
  0
LAYER
  2
FOREGROUND
 70
    64
 62
     7
  6
CONTINUOUS
  0
LAYER
  2
BACKGROUND
 70
    65
 62
    -7
  6
CONTINUOUS
  0
LAYER
  2
PLAN_1
 70
    64
 62
     7
  6
CONTINUOUS
  0
ENDTAB
  0
ENDSEC
  0
SECTION
  2
ENTITIES
  0
POLYLINE
  8
PLAN_1
  6
CONTINUOUS
 66
     1
 40
0.003000
 41
0.003000
  0
VERTEX
  8
PLAN_1
  6
CONTINUOUS
 10
0.372520
 20
-3.770311
  0
VERTEX
  8
PLAN_1
  6
CONTINUOUS
 10
0.215232
 20
-3.770311
  0
VERTEX
  8
PLAN_1
  6
CONTINUOUS
 10
0.215232
 20
-3.747976
  0
VERTEX
  8
PLAN_1
  6
CONTINUOUS
 10
0.337831
 20
-3.594969
  0
VERTEX
  8
PLAN_1
  6
CONTINUOUS
 10
0.224736
 20
-3.594969
  0
VERTEX
  8
PLAN_1
  6
CONTINUOUS
 10
0.224736
 20
-3.571209
  0
VERTEX
  8
PLAN_1
  6
CONTINUOUS
 10
0.372520
 20
-3.571209
  0
VERTEX
  8
PLAN_1
  6
CONTINUOUS
 10
0.372520
 20
-3.594492
  0
VERTEX
  8
PLAN_1
  6
CONTINUOUS
 10
0.249445
 20
-3.746551
  0
VERTEX
  8
PLAN_1
  6
CONTINUOUS
 10
0.372520
 20
-3.746551
  0
VERTEX
  8
PLAN_1
  6
CONTINUOUS
 10
0.372520
 20
-3.770311
  0
SEQEND
  8
0
  0
POLYLINE
  8
PLAN_1
  6
CONTINUOUS
 66
     1
 40
0.003000
 41
0.003000
  0
VERTEX
  8
PLAN_1
  6
CONTINUOUS
 10
0.539783
 20
-3.631083
  0
VERTEX
  8
PLAN_1
  6
CONTINUOUS
 10
0.537886
 20
-3.624906
  0
VERTEX
  8
PLAN_1
  6
CONTINUOUS
 10
0.535984
 20
-3.619201
  0
VERTEX
  8
PLAN_1
  6
CONTINUOUS
 10
0.533606
 20
-3.613976
  0
VERTEX
  8
PLAN_1
  6
CONTINUOUS
 10
0.530756
 20
-3.609697
  0
VERTEX
  8
PLAN_1
  6
CONTINUOUS
 10
0.527429
 20
-3.605898
  0
VERTEX
  8
PLAN_1
  6
CONTINUOUS
 10
0.523630
 20
-3.602571
  0
VERTEX
  8
PLAN_1
  6
CONTINUOUS
 10
0.520303
 20
-3.599720
  0
VERTEX
  8
PLAN_1
  6
CONTINUOUS
 10
0.516028
 20
-3.597343
  0
VERTEX
  8
PLAN_1
  6
CONTINUOUS
 10
0.512224
 20
-3.594969
  0
VERTEX
  8
PLAN_1
  6
CONTINUOUS
 10
0.507949
 20
-3.593543
  0
VERTEX
  8
PLAN_1
  6
CONTINUOUS
 10
0.503669
 20
-3.592114
  0
VERTEX
  8
PLAN_1
  6
CONTINUOUS
 10
0.499870
 20
-3.591165
  0
VERTEX
  8
PLAN_1
  6
CONTINUOUS
 10
0.491315
 20
-3.589740
  0
VERTEX
  8
PLAN_1
  6
CONTINUOUS
 10
0.483713
 20
-3.589740
  0
VERTEX
  8
PLAN_1
  6
CONTINUOUS
 10
0.477059
 20
-3.589740
  0
VERTEX
  8
PLAN_1
  6
CONTINUOUS
 10
0.470882
 20
-3.590689
  0
VERTEX
  8
PLAN_1
  6
CONTINUOUS
 10
0.464705
 20
-3.592591
  0
VERTEX
  8
PLAN_1
  6
CONTINUOUS
 10
0.458528
 20
-3.594492
  0
VERTEX
  8
PLAN_1
  6
CONTINUOUS
 10
0.452827
 20
-3.597343
  0
VERTEX
  8
PLAN_1
  6
CONTINUOUS
 10
0.447598
 20
-3.600669
  0
VERTEX
  8
PLAN_1
  6
CONTINUOUS
 10
0.442370
 20
-3.604945
  0
VERTEX
  8
PLAN_1
  6
CONTINUOUS
 10
0.437618
 20
-3.609697
  0
VERTEX
  8
PLAN_1
  6
CONTINUOUS
 10
0.433343
 20
-3.614925
  0
VERTEX
  8
PLAN_1
  6
CONTINUOUS
 10
0.430016
 20
-3.620626
  0
VERTEX
  8
PLAN_1
  6
CONTINUOUS
 10
0.426689
 20
-3.627280
  0
VERTEX
  8
PLAN_1
  6
CONTINUOUS
 10
0.423839
 20
-3.634409
  0
VERTEX
  8
PLAN_1
  6
CONTINUOUS
 10
0.421465
 20
-3.642012
  0
VERTEX
  8
PLAN_1
  6
CONTINUOUS
 10
0.420039
 20
-3.650091
  0
VERTEX
  8
PLAN_1
  6
CONTINUOUS
 10
0.419087
 20
-3.659118
  0
VERTEX
  8
PLAN_1
  6
CONTINUOUS
 10
0.418614
 20
-3.668622
  0
VERTEX
  8
PLAN_1
  6
CONTINUOUS
 10
0.419087
 20
-3.677173
  0
VERTEX
  8
PLAN_1
  6
CONTINUOUS
 10
0.419563
 20
-3.685728
  0
VERTEX
  8
PLAN_1
  6
CONTINUOUS
 10
0.420512
 20
-3.693807
  0
VERTEX
  8
PLAN_1
  6
CONTINUOUS
 10
0.421937
 20
-3.701409
  0
VERTEX
  8
PLAN_1
  6
CONTINUOUS
 10
0.423839
 20
-3.708535
  0
VERTEX
  8
PLAN_1
  6
CONTINUOUS
 10
0.426689
 20
-3.715665
  0
VERTEX
  8
PLAN_1
  6
CONTINUOUS
 10
0.429543
 20
-3.721843
  0
VERTEX
  8
PLAN_1
  6
CONTINUOUS
 10
0.433343
 20
-3.728020
  0
VERTEX
  8
PLAN_1
  6
CONTINUOUS
 10
0.437146
 20
-3.733248
  0
VERTEX
  8
PLAN_1
  6
CONTINUOUS
 10
0.442370
 20
-3.738000
  0
VERTEX
  8
PLAN_1
  6
CONTINUOUS
 10
0.447598
 20
-3.741799
  0
VERTEX
  8
PLAN_1
  6
CONTINUOUS
 10
0.453776
 20
-3.745126
  0
VERTEX
  8
PLAN_1
  6
CONTINUOUS
 10
0.460429
 20
-3.747976
  0
VERTEX
  8
PLAN_1
  6
CONTINUOUS
 10
0.467555
 20
-3.749878
  0
VERTEX
  8
PLAN_1
  6
CONTINUOUS
 10
0.476110
 20
-3.751303
  0
VERTEX
  8
PLAN_1
  6
CONTINUOUS
 10
0.484661
 20
-3.751780
  0
VERTEX
  8
PLAN_1
  6
CONTINUOUS
 10
0.487988
 20
-3.751780
  0
VERTEX
  8
PLAN_1
  6
CONTINUOUS
 10
0.491791
 20
-3.751303
  0
VERTEX
  8
PLAN_1
  6
CONTINUOUS
 10
0.495594
 20
-3.750827
  0
VERTEX
  8
PLAN_1
  6
CONTINUOUS
 10
0.499870
 20
-3.749878
  0
VERTEX
  8
PLAN_1
  6
CONTINUOUS
 10
0.503669
 20
-3.748453
  0
VERTEX
  8
PLAN_1
  6
CONTINUOUS
 10
0.507949
 20
-3.746551
  0
VERTEX
  8
PLAN_1
  6
CONTINUOUS
 10
0.512224
 20
-3.744650
  0
VERTEX
  8
PLAN_1
  6
CONTINUOUS
 10
0.516500
 20
-3.741799
  0
VERTEX
  8
PLAN_1
  6
CONTINUOUS
 10
0.520303
 20
-3.738472
  0
VERTEX
  8
PLAN_1
  6
CONTINUOUS
 10
0.524102
 20
-3.734673
  0
VERTEX
  8
PLAN_1
  6
CONTINUOUS
 10
0.527906
 20
-3.730394
  0
VERTEX
  8
PLAN_1
  6
CONTINUOUS
 10
0.531232
 20
-3.725169
  0
VERTEX
  8
PLAN_1
  6
CONTINUOUS
 10
0.534559
 20
-3.719465
  0
VERTEX
  8
PLAN_1
  6
CONTINUOUS
 10
0.537409
 20
-3.712815
  0
VERTEX
  8
PLAN_1
  6
CONTINUOUS
 10
0.539783
 20
-3.705209
  0
VERTEX
  8
PLAN_1
  6
CONTINUOUS
 10
0.541685
 20
-3.697134
  0
VERTEX
  8
PLAN_1
  6
CONTINUOUS
 10
0.567823
 20
-3.697134
  0
VERTEX
  8
PLAN_1
  6
CONTINUOUS
 10
0.566394
 20
-3.703783
  0
VERTEX
  8
PLAN_1
  6
CONTINUOUS
 10
0.564969
 20
-3.710437
  0
VERTEX
  8
PLAN_1
  6
CONTINUOUS
 10
0.563543
 20
-3.716142
  0
VERTEX
  8
PLAN_1
  6
CONTINUOUS
 10
0.561646
 20
-3.721843
  0
VERTEX
  8
PLAN_1
  6
CONTINUOUS
 10
0.559268
 20
-3.727071
  0
VERTEX
  8
PLAN_1
  6
CONTINUOUS
 10
0.556894
 20
-3.732295
  0
VERTEX
  8
PLAN_1
  6
CONTINUOUS
 10
0.554516
 20
-3.736575
  0
VERTEX
  8
PLAN_1
  6
CONTINUOUS
 10
0.551665
 20
-3.740850
  0
VERTEX
  8
PLAN_1
  6
CONTINUOUS
 10
0.548815
 20
-3.745126
  0
VERTEX
  8
PLAN_1
  6
CONTINUOUS
 10
0.545488
 20
-3.748453
  0
VERTEX
  8
PLAN_1
  6
CONTINUOUS
 10
0.542638
 20
-3.751780
  0
VERTEX
  8
PLAN_1
  6
CONTINUOUS
 10
0.539311
 20
-3.755106
  0
VERTEX
  8
PLAN_1
  6
CONTINUOUS
 10
0.532657
 20
-3.760331
  0
VERTEX
  8
PLAN_1
  6
CONTINUOUS
 10
0.525528
 20
-3.764610
  0
VERTEX
  8
PLAN_1
  6
CONTINUOUS
 10
0.518878
 20
-3.767937
  0
VERTEX
  8
PLAN_1
  6
CONTINUOUS
 10
0.511748
 20
-3.770787
  0
VERTEX
  8
PLAN_1
  6
CONTINUOUS
 10
0.505094
 20
-3.772689
  0
VERTEX
  8
PLAN_1
  6
CONTINUOUS
 10
0.498917
 20
-3.774114
  0
VERTEX
  8
PLAN_1
  6
CONTINUOUS
 10
0.487988
 20
-3.775063
  0
VERTEX
  8
PLAN_1
  6
CONTINUOUS
 10
0.480386
 20
-3.775539
  0
VERTEX
  8
PLAN_1
  6
CONTINUOUS
 10
0.472307
 20
-3.775063
  0
VERTEX
  8
PLAN_1
  6
CONTINUOUS
 10
0.463756
 20
-3.774114
  0
VERTEX
  8
PLAN_1
  6
CONTINUOUS
 10
0.455677
 20
-3.772213
  0
VERTEX
  8
PLAN_1
  6
CONTINUOUS
 10
0.447598
 20
-3.769835
  0
VERTEX
  8
PLAN_1
  6
CONTINUOUS
 10
0.439520
 20
-3.766508
  0
VERTEX
  8
PLAN_1
  6
CONTINUOUS
 10
0.432394
 20
-3.762232
  0
VERTEX
  8
PLAN_1
  6
CONTINUOUS
 10
0.428591
 20
-3.759858
  0
VERTEX
  8
PLAN_1
  6
CONTINUOUS
 10
0.425264
 20
-3.757008
  0
VERTEX
  8
PLAN_1
  6
CONTINUOUS
 10
0.421937
 20
-3.754154
  0
VERTEX
  8
PLAN_1
  6
CONTINUOUS
 10
0.418614
 20
-3.751303
  0
VERTEX
  8
PLAN_1
  6
CONTINUOUS
 10
0.415760
 20
-3.747976
  0
VERTEX
  8
PLAN_1
  6
CONTINUOUS
 10
0.412909
 20
-3.744650
  0
VERTEX
  8
PLAN_1
  6
CONTINUOUS
 10
0.410059
 20
-3.740850
  0
VERTEX
  8
PLAN_1
  6
CONTINUOUS
 10
0.407209
 20
-3.736575
  0
VERTEX
  8
PLAN_1
  6
CONTINUOUS
 10
0.404831
 20
-3.732772
  0
VERTEX
  8
PLAN_1
  6
CONTINUOUS
 10
0.402457
 20
-3.728020
  0
VERTEX
  8
PLAN_1
  6
CONTINUOUS
 10
0.400555
 20
-3.723268
  0
VERTEX
  8
PLAN_1
  6
CONTINUOUS
 10
0.398654
 20
-3.718516
  0
VERTEX
  8
PLAN_1
  6
CONTINUOUS
 10
0.396752
 20
-3.713287
  0
VERTEX
  8
PLAN_1
  6
CONTINUOUS
 10
0.395327
 20
-3.707587
  0
VERTEX
  8
PLAN_1
  6
CONTINUOUS
 10
0.393902
 20
-3.701886
  0
VERTEX
  8
PLAN_1
  6
CONTINUOUS
 10
0.392953
 20
-3.696181
  0
VERTEX
  8
PLAN_1
  6
CONTINUOUS
 10
0.392000
 20
-3.690004
  0
VERTEX
  8
PLAN_1
  6
CONTINUOUS
 10
0.391528
 20
-3.683350
  0
VERTEX
  8
PLAN_1
  6
CONTINUOUS
 10
0.391051
 20
-3.676701
  0
VERTEX
  8
PLAN_1
  6
CONTINUOUS
 10
0.391051
 20
-3.669571
  0
VERTEX
  8
PLAN_1
  6
CONTINUOUS
 10
0.391528
 20
-3.658165
  0
VERTEX
  8
PLAN_1
  6
CONTINUOUS
 10
0.392476
 20
-3.647236
  0
VERTEX
  8
PLAN_1
  6
CONTINUOUS
 10
0.394378
 20
-3.637260
  0
VERTEX
  8
PLAN_1
  6
CONTINUOUS
 10
0.397228
 20
-3.627280
  0
VERTEX
  8
PLAN_1
  6
CONTINUOUS
 10
0.401031
 20
-3.618252
  0
VERTEX
  8
PLAN_1
  6
CONTINUOUS
 10
0.404831
 20
-3.609697
  0
VERTEX
  8
PLAN_1
  6
CONTINUOUS
 10
0.407681
 20
-3.605898
  0
VERTEX
  8
PLAN_1
  6
CONTINUOUS
 10
0.410059
 20
-3.601618
  0
VERTEX
  8
PLAN_1
  6
CONTINUOUS
 10
0.412909
 20
-3.598295
  0
VERTEX
  8
PLAN_1
  6
CONTINUOUS
 10
0.415760
 20
-3.594492
  0
VERTEX
  8
PLAN_1
  6
CONTINUOUS
 10
0.418614
 20
-3.591165
  0
VERTEX
  8
PLAN_1
  6
CONTINUOUS
 10
0.421937
 20
-3.588315
  0
VERTEX
  8
PLAN_1
  6
CONTINUOUS
 10
0.425264
 20
-3.584988
  0
VERTEX
  8
PLAN_1
  6
CONTINUOUS
 10
0.429067
 20
-3.582610
  0
VERTEX
  8
PLAN_1
  6
CONTINUOUS
 10
0.432866
 20
-3.579760
  0
VERTEX
  8
PLAN_1
  6
CONTINUOUS
 10
0.436669
 20
-3.577386
  0
VERTEX
  8
PLAN_1
  6
CONTINUOUS
 10
0.440472
 20
-3.575484
  0
VERTEX
  8
PLAN_1
  6
CONTINUOUS
 10
0.444748
 20
-3.573110
  0
VERTEX
  8
PLAN_1
  6
CONTINUOUS
 10
0.449500
 20
-3.571681
  0
VERTEX
  8
PLAN_1
  6
CONTINUOUS
 10
0.453776
 20
-3.570256
  0
VERTEX
  8
PLAN_1
  6
CONTINUOUS
 10
0.458528
 20
-3.568831
  0
VERTEX
  8
PLAN_1
  6
CONTINUOUS
 10
0.463280
 20
-3.567882
  0
VERTEX
  8
PLAN_1
  6
CONTINUOUS
 10
0.468031
 20
-3.566929
  0
VERTEX
  8
PLAN_1
  6
CONTINUOUS
 10
0.473260
 20
-3.566457
  0
VERTEX
  8
PLAN_1
  6
CONTINUOUS
 10
0.478484
 20
-3.565980
  0
VERTEX
  8
PLAN_1
  6
CONTINUOUS
 10
0.483713
 20
-3.565504
  0
VERTEX
  8
PLAN_1
  6
CONTINUOUS
 10
0.493217
 20
-3.565980
  0
VERTEX
  8
PLAN_1
  6
CONTINUOUS
 10
0.502244
 20
-3.566929
  0
VERTEX
  8
PLAN_1
  6
CONTINUOUS
 10
0.510323
 20
-3.568831
  0
VERTEX
  8
PLAN_1
  6
CONTINUOUS
 10
0.517925
 20
-3.571209
  0
VERTEX
  8
PLAN_1
  6
CONTINUOUS
 10
0.525055
 20
-3.574059
  0
VERTEX
  8
PLAN_1
  6
CONTINUOUS
 10
0.531232
 20
-3.577386
  0
VERTEX
  8
PLAN_1
  6
CONTINUOUS
 10
0.537409
 20
-3.581661
  0
VERTEX
  8
PLAN_1
  6
CONTINUOUS
 10
0.542638
 20
-3.585937
  0
VERTEX
  8
PLAN_1
  6
CONTINUOUS
 10
0.547390
 20
-3.590689
  0
VERTEX
  8
PLAN_1
  6
CONTINUOUS
 10
0.551665
 20
-3.595917
  0
VERTEX
  8
PLAN_1
  6
CONTINUOUS
 10
0.555465
 20
-3.601146
  0
VERTEX
  8
PLAN_1
  6
CONTINUOUS
 10
0.558791
 20
-3.606846
  0
VERTEX
  8
PLAN_1
  6
CONTINUOUS
 10
0.561169
 20
-3.612547
  0
VERTEX
  8
PLAN_1
  6
CONTINUOUS
 10
0.563071
 20
-3.618728
  0
VERTEX
  8
PLAN_1
  6
CONTINUOUS
 10
0.564969
 20
-3.624906
  0
VERTEX
  8
PLAN_1
  6
CONTINUOUS
 10
0.565921
 20
-3.631083
  0
VERTEX
  8
PLAN_1
  6
CONTINUOUS
 10
0.539783
 20
-3.631083
  0
SEQEND
  8
0
  0
POLYLINE
  8
PLAN_1
  6
CONTINUOUS
 66
     1
 40
0.003000
 41
0.003000
  0
VERTEX
  8
PLAN_1
  6
CONTINUOUS
 10
0.627220
 20
-3.770311
  0
VERTEX
  8
PLAN_1
  6
CONTINUOUS
 10
0.600134
 20
-3.770311
  0
VERTEX
  8
PLAN_1
  6
CONTINUOUS
 10
0.600134
 20
-3.571209
  0
VERTEX
  8
PLAN_1
  6
CONTINUOUS
 10
0.627220
 20
-3.571209
  0
VERTEX
  8
PLAN_1
  6
CONTINUOUS
 10
0.627220
 20
-3.667669
  0
VERTEX
  8
PLAN_1
  6
CONTINUOUS
 10
0.723681
 20
-3.571209
  0
VERTEX
  8
PLAN_1
  6
CONTINUOUS
 10
0.761224
 20
-3.571209
  0
VERTEX
  8
PLAN_1
  6
CONTINUOUS
 10
0.678063
 20
-3.651516
  0
VERTEX
  8
PLAN_1
  6
CONTINUOUS
 10
0.763122
 20
-3.770311
  0
VERTEX
  8
PLAN_1
  6
CONTINUOUS
 10
0.728433
 20
-3.770311
  0
VERTEX
  8
PLAN_1
  6
CONTINUOUS
 10
0.658583
 20
-3.670524
  0
VERTEX
  8
PLAN_1
  6
CONTINUOUS
 10
0.627220
 20
-3.700461
  0
VERTEX
  8
PLAN_1
  6
CONTINUOUS
 10
0.627220
 20
-3.770311
  0
SEQEND
  8
0
  0
POLYLINE
  8
PLAN_1
  6
CONTINUOUS
 66
     1
 40
0.003000
 41
0.003000
  0
VERTEX
  8
PLAN_1
  6
CONTINUOUS
 10
0.812543
 20
-3.746551
  0
VERTEX
  8
PLAN_1
  6
CONTINUOUS
 10
0.913756
 20
-3.746551
  0
VERTEX
  8
PLAN_1
  6
CONTINUOUS
 10
0.913756
 20
-3.770311
  0
VERTEX
  8
PLAN_1
  6
CONTINUOUS
 10
0.785457
 20
-3.770311
  0
VERTEX
  8
PLAN_1
  6
CONTINUOUS
 10
0.785457
 20
-3.571209
  0
VERTEX
  8
PLAN_1
  6
CONTINUOUS
 10
0.812543
 20
-3.571209
  0
VERTEX
  8
PLAN_1
  6
CONTINUOUS
 10
0.812543
 20
-3.746551
  0
SEQEND
  8
0
  0
POLYLINE
  8
PLAN_1
  6
CONTINUOUS
 66
     1
 40
0.003000
 41
0.003000
  0
VERTEX
  8
PLAN_1
  6
CONTINUOUS
 10
1.102406
 20
-3.615874
  0
VERTEX
  8
PLAN_1
  6
CONTINUOUS
 10
1.121413
 20
-3.615874
  0
VERTEX
  8
PLAN_1
  6
CONTINUOUS
 10
1.117614
 20
-3.630606
  0
VERTEX
  8
PLAN_1
  6
CONTINUOUS
 10
1.113335
 20
-3.645339
  0
VERTEX
  8
PLAN_1
  6
CONTINUOUS
 10
1.109059
 20
-3.659594
  0
VERTEX
  8
PLAN_1
  6
CONTINUOUS
 10
1.105260
 20
-3.672898
  0
VERTEX
  8
PLAN_1
  6
CONTINUOUS
 10
1.101457
 20
-3.684776
  0
VERTEX
  8
PLAN_1
  6
CONTINUOUS
 10
1.099083
 20
-3.694756
  0
VERTEX
  8
PLAN_1
  6
CONTINUOUS
 10
1.097181
 20
-3.701886
  0
VERTEX
  8
PLAN_1
  6
CONTINUOUS
 10
1.096705
 20
-3.706638
  0
VERTEX
  8
PLAN_1
  6
CONTINUOUS
 10
1.096705
 20
-3.708535
  0
VERTEX
  8
PLAN_1
  6
CONTINUOUS
 10
1.096705
 20
-3.709961
  0
VERTEX
  8
PLAN_1
  6
CONTINUOUS
 10
1.097181
 20
-3.711390
  0
VERTEX
  8
PLAN_1
  6
CONTINUOUS
 10
1.097654
 20
-3.712339
  0
VERTEX
  8
PLAN_1
  6
CONTINUOUS
 10
1.098606
 20
-3.713287
  0
VERTEX
  8
PLAN_1
  6
CONTINUOUS
 10
1.099555
 20
-3.713764
  0
VERTEX
  8
PLAN_1
  6
CONTINUOUS
 10
1.100980
 20
-3.714240
  0
VERTEX
  8
PLAN_1
  6
CONTINUOUS
 10
1.102406
 20
-3.714713
  0
VERTEX
  8
PLAN_1
  6
CONTINUOUS
 10
1.105732
 20
-3.714240
  0
VERTEX
  8
PLAN_1
  6
CONTINUOUS
 10
1.109535
 20
-3.713287
  0
VERTEX
  8
PLAN_1
  6
CONTINUOUS
 10
1.112862
 20
-3.711390
  0
VERTEX
  8
PLAN_1
  6
CONTINUOUS
 10
1.116661
 20
-3.709488
  0
VERTEX
  8
PLAN_1
  6
CONTINUOUS
 10
1.119988
 20
-3.706638
  0
VERTEX
  8
PLAN_1
  6
CONTINUOUS
 10
1.123315
 20
-3.703311
  0
VERTEX
  8
PLAN_1
  6
CONTINUOUS
 10
1.126165
 20
-3.699508
  0
VERTEX
  8
PLAN_1
  6
CONTINUOUS
 10
1.129016
 20
-3.695709
  0
VERTEX
  8
PLAN_1
  6
CONTINUOUS
 10
1.131870
 20
-3.691429
  0
VERTEX
  8
PLAN_1
  6
CONTINUOUS
 10
1.134244
 20
-3.686677
  0
VERTEX
  8
PLAN_1
  6
CONTINUOUS
 10
1.136622
 20
-3.681453
  0
VERTEX
  8
PLAN_1
  6
CONTINUOUS
 10
1.138047
 20
-3.676224
  0
VERTEX
  8
PLAN_1
  6
CONTINUOUS
 10
1.139949
 20
-3.670996
  0
VERTEX
  8
PLAN_1
  6
CONTINUOUS
 10
1.140898
 20
-3.665772
  0
VERTEX
  8
PLAN_1
  6
CONTINUOUS
 10
1.141374
 20
-3.660067
  0
VERTEX
  8
PLAN_1
  6
CONTINUOUS
 10
1.141846
 20
-3.654366
  0
VERTEX
  8
PLAN_1
  6
CONTINUOUS
 10
1.141374
 20
-3.646287
  0
VERTEX
  8
PLAN_1
  6
CONTINUOUS
 10
1.139949
 20
-3.638685
  0
VERTEX
  8
PLAN_1
  6
CONTINUOUS
 10
1.138047
 20
-3.631555
  0
VERTEX
  8
PLAN_1
  6
CONTINUOUS
 10
1.135669
 20
-3.624429
  0
VERTEX
  8
PLAN_1
  6
CONTINUOUS
 10
1.132343
 20
-3.618252
  0
VERTEX
  8
PLAN_1
  6
CONTINUOUS
 10
1.128543
 20
-3.612547
  0
VERTEX
  8
PLAN_1
  6
CONTINUOUS
 10
1.123791
 20
-3.606846
  0
VERTEX
  8
PLAN_1
  6
CONTINUOUS
 10
1.118563
 20
-3.602094
  0
VERTEX
  8
PLAN_1
  6
CONTINUOUS
 10
1.113335
 20
-3.597819
  0
VERTEX
  8
PLAN_1
  6
CONTINUOUS
 10
1.107157
 20
-3.594016
  0
VERTEX
  8
PLAN_1
  6
CONTINUOUS
 10
1.100980
 20
-3.590689
  0
VERTEX
  8
PLAN_1
  6
CONTINUOUS
 10
1.094331
 20
-3.587839
  0
VERTEX
  8
PLAN_1
  6
CONTINUOUS
 10
1.087201
 20
-3.585937
  0
VERTEX
  8
PLAN_1
  6
CONTINUOUS
 10
1.079598
 20
-3.584039
  0
VERTEX
  8
PLAN_1
  6
CONTINUOUS
 10
1.071996
 20
-3.583087
  0
VERTEX
  8
PLAN_1
  6
CONTINUOUS
 10
1.064394
 20
-3.583087
  0
VERTEX
  8
PLAN_1
  6
CONTINUOUS
 10
1.055362
 20
-3.583563
  0
VERTEX
  8
PLAN_1
  6
CONTINUOUS
 10
1.046335
 20
-3.584512
  0
VERTEX
  8
PLAN_1
  6
CONTINUOUS
 10
1.038256
 20
-3.586890
  0
VERTEX
  8
PLAN_1
  6
CONTINUOUS
 10
1.030177
 20
-3.589740
  0
VERTEX
  8
PLAN_1
  6
CONTINUOUS
 10
1.023051
 20
-3.593543
  0
VERTEX
  8
PLAN_1
  6
CONTINUOUS
 10
1.015921
 20
-3.598295
  0
VERTEX
  8
PLAN_1
  6
CONTINUOUS
 10
1.009272
 20
-3.603043
  0
VERTEX
  8
PLAN_1
  6
CONTINUOUS
 10
1.003567
 20
-3.608748
  0
VERTEX
  8
PLAN_1
  6
CONTINUOUS
 10
0.998343
 20
-3.615402
  0
VERTEX
  8
PLAN_1
  6
CONTINUOUS
 10
0.993591
 20
-3.622051
  0
VERTEX
  8
PLAN_1
  6
CONTINUOUS
 10
0.989787
 20
-3.629181
  0
VERTEX
  8
PLAN_1
  6
CONTINUOUS
 10
0.985984
 20
-3.637260
  0
VERTEX
  8
PLAN_1
  6
CONTINUOUS
 10
0.983610
 20
-3.645339
  0
VERTEX
  8
PLAN_1
  6
CONTINUOUS
 10
0.981709
 20
-3.653890
  0
VERTEX
  8
PLAN_1
  6
CONTINUOUS
 10
0.980283
 20
-3.662445
  0
VERTEX
  8
PLAN_1
  6
CONTINUOUS
 10
0.979807
 20
-3.671949
  0
VERTEX
  8
PLAN_1
  6
CONTINUOUS
 10
0.980283
 20
-3.680976
  0
VERTEX
  8
PLAN_1
  6
CONTINUOUS
 10
0.981709
 20
-3.689528
  0
VERTEX
  8
PLAN_1
  6
CONTINUOUS
 10
0.983610
 20
-3.698083
  0
VERTEX
  8
PLAN_1
  6
CONTINUOUS
 10
0.986461
 20
-3.706161
  0
VERTEX
  8
PLAN_1
  6
CONTINUOUS
 10
0.990264
 20
-3.713764
  0
VERTEX
  8
PLAN_1
  6
CONTINUOUS
 10
0.994539
 20
-3.720894
  0
VERTEX
  8
PLAN_1
  6
CONTINUOUS
 10
0.999291
 20
-3.727543
  0
VERTEX
  8
PLAN_1
  6
CONTINUOUS
 10
1.004992
 20
-3.733720
  0
VERTEX
  8
PLAN_1
  6
CONTINUOUS
 10
1.011169
 20
-3.738949
  0
VERTEX
  8
PLAN_1
  6
CONTINUOUS
 10
1.017823
 20
-3.743701
  0
VERTEX
  8
PLAN_1
  6
CONTINUOUS
 10
1.024953
 20
-3.747976
  0
VERTEX
  8
PLAN_1
  6
CONTINUOUS
 10
1.032079
 20
-3.751780
  0
VERTEX
  8
PLAN_1
  6
CONTINUOUS
 10
1.040157
 20
-3.754630
  0
VERTEX
  8
PLAN_1
  6
CONTINUOUS
 10
1.048713
 20
-3.756531
  0
VERTEX
  8
PLAN_1
  6
CONTINUOUS
 10
1.057264
 20
-3.757957
  0
VERTEX
  8
PLAN_1
  6
CONTINUOUS
 10
1.066291
 20
-3.758433
  0
VERTEX
  8
PLAN_1
  6
CONTINUOUS
 10
1.071043
 20
-3.758433
  0
VERTEX
  8
PLAN_1
  6
CONTINUOUS
 10
1.075795
 20
-3.757957
  0
VERTEX
  8
PLAN_1
  6
CONTINUOUS
 10
1.080547
 20
-3.757008
  0
VERTEX
  8
PLAN_1
  6
CONTINUOUS
 10
1.085299
 20
-3.756055
  0
VERTEX
  8
PLAN_1
  6
CONTINUOUS
 10
1.090051
 20
-3.755106
  0
VERTEX
  8
PLAN_1
  6
CONTINUOUS
 10
1.094803
 20
-3.753681
  0
VERTEX
  8
PLAN_1
  6
CONTINUOUS
 10
1.099083
 20
-3.751780
  0
VERTEX
  8
PLAN_1
  6
CONTINUOUS
 10
1.103831
 20
-3.749878
  0
VERTEX
  8
PLAN_1
  6
CONTINUOUS
 10
1.108110
 20
-3.747504
  0
VERTEX
  8
PLAN_1
  6
CONTINUOUS
 10
1.112386
 20
-3.745126
  0
VERTEX
  8
PLAN_1
  6
CONTINUOUS
 10
1.116189
 20
-3.742752
  0
VERTEX
  8
PLAN_1
  6
CONTINUOUS
 10
1.119988
 20
-3.739898
  0
VERTEX
  8
PLAN_1
  6
CONTINUOUS
 10
1.123791
 20
-3.737047
  0
VERTEX
  8
PLAN_1
  6
CONTINUOUS
 10
1.127118
 20
-3.733720
  0
VERTEX
  8
PLAN_1
  6
CONTINUOUS
 10
1.130445
 20
-3.730394
  0
VERTEX
  8
PLAN_1
  6
CONTINUOUS
 10
1.133768
 20
-3.726594
  0
VERTEX
  8
PLAN_1
  6
CONTINUOUS
 10
1.152303
 20
-3.726594
  0
VERTEX
  8
PLAN_1
  6
CONTINUOUS
 10
1.148976
 20
-3.732295
  0
VERTEX
  8
PLAN_1
  6
CONTINUOUS
 10
1.144697
 20
-3.737524
  0
VERTEX
  8
PLAN_1
  6
CONTINUOUS
 10
1.140898
 20
-3.742276
  0
VERTEX
  8
PLAN_1
  6
CONTINUOUS
 10
1.136146
 20
-3.747028
  0
VERTEX
  8
PLAN_1
  6
CONTINUOUS
 10
1.131394
 20
-3.751303
  0
VERTEX
  8
PLAN_1
  6
CONTINUOUS
 10
1.126165
 20
-3.755579
  0
VERTEX
  8
PLAN_1
  6
CONTINUOUS
 10
1.120941
 20
-3.759382
  0
VERTEX
  8
PLAN_1
  6
CONTINUOUS
 10
1.115713
 20
-3.762709
  0
VERTEX
  8
PLAN_1
  6
CONTINUOUS
 10
1.110012
 20
-3.765559
  0
VERTEX
  8
PLAN_1
  6
CONTINUOUS
 10
1.103831
 20
-3.767937
  0
VERTEX
  8
PLAN_1
  6
CONTINUOUS
 10
1.098130
 20
-3.770311
  0
VERTEX
  8
PLAN_1
  6
CONTINUOUS
 10
1.091476
 20
-3.772213
  0
VERTEX
  8
PLAN_1
  6
CONTINUOUS
 10
1.085299
 20
-3.773638
  0
VERTEX
  8
PLAN_1
  6
CONTINUOUS
 10
1.079122
 20
-3.774587
  0
VERTEX
  8
PLAN_1
  6
CONTINUOUS
 10
1.072469
 20
-3.775539
  0
VERTEX
  8
PLAN_1
  6
CONTINUOUS
 10
1.065819
 20
-3.775539
  0
VERTEX
  8
PLAN_1
  6
CONTINUOUS
 10
1.060114
 20
-3.775539
  0
VERTEX
  8
PLAN_1
  6
CONTINUOUS
 10
1.054890
 20
-3.775063
  0
VERTEX
  8
PLAN_1
  6
CONTINUOUS
 10
1.049185
 20
-3.774587
  0
VERTEX
  8
PLAN_1
  6
CONTINUOUS
 10
1.043961
 20
-3.773638
  0
VERTEX
  8
PLAN_1
  6
CONTINUOUS
 10
1.038732
 20
-3.772213
  0
VERTEX
  8
PLAN_1
  6
CONTINUOUS
 10
1.033980
 20
-3.770787
  0
VERTEX
  8
PLAN_1
  6
CONTINUOUS
 10
1.028752
 20
-3.769362
  0
VERTEX
  8
PLAN_1
  6
CONTINUOUS
 10
1.024000
 20
-3.767461
  0
VERTEX
  8
PLAN_1
  6
CONTINUOUS
 10
1.019248
 20
-3.765559
  0
VERTEX
  8
PLAN_1
  6
CONTINUOUS
 10
1.014972
 20
-3.763185
  0
VERTEX
  8
PLAN_1
  6
CONTINUOUS
 10
1.010220
 20
-3.760331
  0
VERTEX
  8
PLAN_1
  6
CONTINUOUS
 10
1.005945
 20
-3.757957
  0
VERTEX
  8
PLAN_1
  6
CONTINUOUS
 10
1.002142
 20
-3.755106
  0
VERTEX
  8
PLAN_1
  6
CONTINUOUS
 10
0.997866
 20
-3.751780
  0
VERTEX
  8
PLAN_1
  6
CONTINUOUS
 10
0.994063
 20
-3.748453
  0
VERTEX
  8
PLAN_1
  6
CONTINUOUS
 10
0.990264
 20
-3.745126
  0
VERTEX
  8
PLAN_1
  6
CONTINUOUS
 10
0.986937
 20
-3.741327
  0
VERTEX
  8
PLAN_1
  6
CONTINUOUS
 10
0.983610
 20
-3.737524
  0
VERTEX
  8
PLAN_1
  6
CONTINUOUS
 10
0.980283
 20
-3.733720
  0
VERTEX
  8
PLAN_1
  6
CONTINUOUS
 10
0.977433
 20
-3.729445
  0
VERTEX
  8
PLAN_1
  6
CONTINUOUS
 10
0.975055
 20
-3.725169
  0
VERTEX
  8
PLAN_1
  6
CONTINUOUS
 10
0.972205
 20
-3.720894
  0
VERTEX
  8
PLAN_1
  6
CONTINUOUS
 10
0.969831
 20
-3.716142
  0
VERTEX
  8
PLAN_1
  6
CONTINUOUS
 10
0.967929
 20
-3.711390
  0
VERTEX
  8
PLAN_1
  6
CONTINUOUS
 10
0.966028
 20
-3.706638
  0
VERTEX
  8
PLAN_1
  6
CONTINUOUS
 10
0.964602
 20
-3.701886
  0
VERTEX
  8
PLAN_1
  6
CONTINUOUS
 10
0.963177
 20
-3.696657
  0
VERTEX
  8
PLAN_1
  6
CONTINUOUS
 10
0.961752
 20
-3.691429
  0
VERTEX
  8
PLAN_1
  6
CONTINUOUS
 10
0.960803
 20
-3.686205
  0
VERTEX
  8
PLAN_1
  6
CONTINUOUS
 10
0.960327
 20
-3.680976
  0
VERTEX
  8
PLAN_1
  6
CONTINUOUS
 10
0.959850
 20
-3.675748
  0
VERTEX
  8
PLAN_1
  6
CONTINUOUS
 10
0.959850
 20
-3.670047
  0
VERTEX
  8
PLAN_1
  6
CONTINUOUS
 10
0.959850
 20
-3.664819
  0
VERTEX
  8
PLAN_1
  6
CONTINUOUS
 10
0.960327
 20
-3.659594
  0
VERTEX
  8
PLAN_1
  6
CONTINUOUS
 10
0.960803
 20
-3.653890
  0
VERTEX
  8
PLAN_1
  6
CONTINUOUS
 10
0.961752
 20
-3.649138
  0
VERTEX
  8
PLAN_1
  6
CONTINUOUS
 10
0.963177
 20
-3.643909
  0
VERTEX
  8
PLAN_1
  6
CONTINUOUS
 10
0.964602
 20
-3.639161
  0
VERTEX
  8
PLAN_1
  6
CONTINUOUS
 10
0.966028
 20
-3.633933
  0
VERTEX
  8
PLAN_1
  6
CONTINUOUS
 10
0.967929
 20
-3.629181
  0
VERTEX
  8
PLAN_1
  6
CONTINUOUS
 10
0.970303
 20
-3.624906
  0
VERTEX
  8
PLAN_1
  6
CONTINUOUS
 10
0.972205
 20
-3.620154
  0
VERTEX
  8
PLAN_1
  6
CONTINUOUS
 10
0.975055
 20
-3.615874
  0
VERTEX
  8
PLAN_1
  6
CONTINUOUS
 10
0.977909
 20
-3.611598
  0
VERTEX
  8
PLAN_1
  6
CONTINUOUS
 10
0.980760
 20
-3.607323
  0
VERTEX
  8
PLAN_1
  6
CONTINUOUS
 10
0.983610
 20
-3.603520
  0
VERTEX
  8
PLAN_1
  6
CONTINUOUS
 10
0.986937
 20
-3.599720
  0
VERTEX
  8
PLAN_1
  6
CONTINUOUS
 10
0.990736
 20
-3.596394
  0
VERTEX
  8
PLAN_1
  6
CONTINUOUS
 10
0.997866
 20
-3.589264
  0
VERTEX
  8
PLAN_1
  6
CONTINUOUS
 10
1.005945
 20
-3.583563
  0
VERTEX
  8
PLAN_1
  6
CONTINUOUS
 10
1.010220
 20
-3.580713
  0
VERTEX
  8
PLAN_1
  6
CONTINUOUS
 10
1.014496
 20
-3.578335
  0
VERTEX
  8
PLAN_1
  6
CONTINUOUS
 10
1.019248
 20
-3.575961
  0
VERTEX
  8
PLAN_1
  6
CONTINUOUS
 10
1.024000
 20
-3.574059
  0
VERTEX
  8
PLAN_1
  6
CONTINUOUS
 10
1.028752
 20
-3.572157
  0
VERTEX
  8
PLAN_1
  6
CONTINUOUS
 10
1.033504
 20
-3.570256
  0
VERTEX
  8
PLAN_1
  6
CONTINUOUS
 10
1.038256
 20
-3.568831
  0
VERTEX
  8
PLAN_1
  6
CONTINUOUS
 10
1.043484
 20
-3.567882
  0
VERTEX
  8
PLAN_1
  6
CONTINUOUS
 10
1.048713
 20
-3.566929
  0
VERTEX
  8
PLAN_1
  6
CONTINUOUS
 10
1.053937
 20
-3.566457
  0
VERTEX
  8
PLAN_1
  6
CONTINUOUS
 10
1.059165
 20
-3.565980
  0
VERTEX
  8
PLAN_1
  6
CONTINUOUS
 10
1.064394
 20
-3.565504
  0
VERTEX
  8
PLAN_1
  6
CONTINUOUS
 10
1.073898
 20
-3.565980
  0
VERTEX
  8
PLAN_1
  6
CONTINUOUS
 10
1.083398
 20
-3.567406
  0
VERTEX
  8
PLAN_1
  6
CONTINUOUS
 10
1.092429
 20
-3.569307
  0
VERTEX
  8
PLAN_1
  6
CONTINUOUS
 10
1.100980
 20
-3.572157
  0
VERTEX
  8
PLAN_1
  6
CONTINUOUS
 10
1.109059
 20
-3.575484
  0
VERTEX
  8
PLAN_1
  6
CONTINUOUS
 10
1.117138
 20
-3.579760
  0
VERTEX
  8
PLAN_1
  6
CONTINUOUS
 10
1.124264
 20
-3.584512
  0
VERTEX
  8
PLAN_1
  6
CONTINUOUS
 10
1.131394
 20
-3.590217
  0
VERTEX
  8
PLAN_1
  6
CONTINUOUS
 10
1.137571
 20
-3.595917
  0
VERTEX
  8
PLAN_1
  6
CONTINUOUS
 10
1.143272
 20
-3.602571
  0
VERTEX
  8
PLAN_1
  6
CONTINUOUS
 10
1.148024
 20
-3.609697
  0
VERTEX
  8
PLAN_1
  6
CONTINUOUS
 10
1.152303
 20
-3.617299
  0
VERTEX
  8
PLAN_1
  6
CONTINUOUS
 10
1.153728
 20
-3.621579
  0
VERTEX
  8
PLAN_1
  6
CONTINUOUS
 10
1.155630
 20
-3.625378
  0
VERTEX
  8
PLAN_1
  6
CONTINUOUS
 10
1.156579
 20
-3.629657
  0
VERTEX
  8
PLAN_1
  6
CONTINUOUS
 10
1.158004
 20
-3.633933
  0
VERTEX
  8
PLAN_1
  6
CONTINUOUS
 10
1.158480
 20
-3.638685
  0
VERTEX
  8
PLAN_1
  6
CONTINUOUS
 10
1.159429
 20
-3.642961
  0
VERTEX
  8
PLAN_1
  6
CONTINUOUS
 10
1.159906
 20
-3.647713
  0
VERTEX
  8
PLAN_1
  6
CONTINUOUS
 10
1.159906
 20
-3.652465
  0
VERTEX
  8
PLAN_1
  6
CONTINUOUS
 10
1.159429
 20
-3.661492
  0
VERTEX
  8
PLAN_1
  6
CONTINUOUS
 10
1.158004
 20
-3.670047
  0
VERTEX
  8
PLAN_1
  6
CONTINUOUS
 10
1.155630
 20
-3.678598
  0
VERTEX
  8
PLAN_1
  6
CONTINUOUS
 10
1.152776
 20
-3.686205
  0
VERTEX
  8
PLAN_1
  6
CONTINUOUS
 10
1.149449
 20
-3.693331
  0
VERTEX
  8
PLAN_1
  6
CONTINUOUS
 10
1.145173
 20
-3.699984
  0
VERTEX
  8
PLAN_1
  6
CONTINUOUS
 10
1.140898
 20
-3.705685
  0
VERTEX
  8
PLAN_1
  6
CONTINUOUS
 10
1.136146
 20
-3.711390
  0
VERTEX
  8
PLAN_1
  6
CONTINUOUS
 10
1.130917
 20
-3.716142
  0
VERTEX
  8
PLAN_1
  6
CONTINUOUS
 10
1.125217
 20
-3.720417
  0
VERTEX
  8
PLAN_1
  6
CONTINUOUS
 10
1.119988
 20
-3.724217
  0
VERTEX
  8
PLAN_1
  6
CONTINUOUS
 10
1.114287
 20
-3.727071
  0
VERTEX
  8
PLAN_1
  6
CONTINUOUS
 10
1.108583
 20
-3.729445
  0
VERTEX
  8
PLAN_1
  6
CONTINUOUS
 10
1.103358
 20
-3.731346
  0
VERTEX
  8
PLAN_1
  6
CONTINUOUS
 10
1.098130
 20
-3.732295
  0
VERTEX
  8
PLAN_1
  6
CONTINUOUS
 10
1.093378
 20
-3.732772
  0
VERTEX
  8
PLAN_1
  6
CONTINUOUS
 10
1.090051
 20
-3.732295
  0
VERTEX
  8
PLAN_1
  6
CONTINUOUS
 10
1.086724
 20
-3.731346
  0
VERTEX
  8
PLAN_1
  6
CONTINUOUS
 10
1.083874
 20
-3.730394
  0
VERTEX
  8
PLAN_1
  6
CONTINUOUS
 10
1.081500
 20
-3.728496
  0
VERTEX
  8
PLAN_1
  6
CONTINUOUS
 10
1.079122
 20
-3.725642
  0
VERTEX
  8
PLAN_1
  6
CONTINUOUS
 10
1.077220
 20
-3.722791
  0
VERTEX
  8
PLAN_1
  6
CONTINUOUS
 10
1.076272
 20
-3.719465
  0
VERTEX
  8
PLAN_1
  6
CONTINUOUS
 10
1.075795
 20
-3.715189
  0
VERTEX
  8
PLAN_1
  6
CONTINUOUS
 10
1.075323
 20
-3.715189
  0
VERTEX
  8
PLAN_1
  6
CONTINUOUS
 10
1.071996
 20
-3.718516
  0
VERTEX
  8
PLAN_1
  6
CONTINUOUS
 10
1.068193
 20
-3.721843
  0
VERTEX
  8
PLAN_1
  6
CONTINUOUS
 10
1.064394
 20
-3.724693
  0
VERTEX
  8
PLAN_1
  6
CONTINUOUS
 10
1.060591
 20
-3.727071
  0
VERTEX
  8
PLAN_1
  6
CONTINUOUS
 10
1.055839
 20
-3.729445
  0
VERTEX
  8
PLAN_1
  6
CONTINUOUS
 10
1.051563
 20
-3.730870
  0
VERTEX
  8
PLAN_1
  6
CONTINUOUS
 10
1.046811
 20
-3.732295
  0
VERTEX
  8
PLAN_1
  6
CONTINUOUS
 10
1.042059
 20
-3.732772
  0
VERTEX
  8
PLAN_1
  6
CONTINUOUS
 10
1.037307
 20
-3.732295
  0
VERTEX
  8
PLAN_1
  6
CONTINUOUS
 10
1.033031
 20
-3.731823
  0
VERTEX
  8
PLAN_1
  6
CONTINUOUS
 10
1.029228
 20
-3.730394
  0
VERTEX
  8
PLAN_1
  6
CONTINUOUS
 10
1.025425
 20
-3.728969
  0
VERTEX
  8
PLAN_1
  6
CONTINUOUS
 10
1.021626
 20
-3.727071
  0
VERTEX
  8
PLAN_1
  6
CONTINUOUS
 10
1.018299
 20
-3.724693
  0
VERTEX
  8
PLAN_1
  6
CONTINUOUS
 10
1.015449
 20
-3.722319
  0
VERTEX
  8
PLAN_1
  6
CONTINUOUS
 10
1.012598
 20
-3.719465
  0
VERTEX
  8
PLAN_1
  6
CONTINUOUS
 10
1.009744
 20
-3.716142
  0
VERTEX
  8
PLAN_1
  6
CONTINUOUS
 10
1.007846
 20
-3.712815
  0
VERTEX
  8
PLAN_1
  6
CONTINUOUS
 10
1.005469
 20
-3.709012
  0
VERTEX
  8
PLAN_1
  6
CONTINUOUS
 10
1.004043
 20
-3.705209
  0
VERTEX
  8
PLAN_1
  6
CONTINUOUS
 10
1.002618
 20
-3.701409
  0
VERTEX
  8
PLAN_1
  6
CONTINUOUS
 10
1.001669
 20
-3.697134
  0
VERTEX
  8
PLAN_1
  6
CONTINUOUS
 10
1.001193
 20
-3.692854
  0
VERTEX
  8
PLAN_1
  6
CONTINUOUS
 10
1.001193
 20
-3.688102
  0
VERTEX
  8
PLAN_1
  6
CONTINUOUS
 10
1.001193
 20
-3.680976
  0
VERTEX
  8
PLAN_1
  6
CONTINUOUS
 10
1.002142
 20
-3.674323
  0
VERTEX
  8
PLAN_1
  6
CONTINUOUS
 10
1.003567
 20
-3.667197
  0
VERTEX
  8
PLAN_1
  6
CONTINUOUS
 10
1.005469
 20
-3.660543
  0
VERTEX
  8
PLAN_1
  6
CONTINUOUS
 10
1.008319
 20
-3.653890
  0
VERTEX
  8
PLAN_1
  6
CONTINUOUS
 10
1.011169
 20
-3.647236
  0
VERTEX
  8
PLAN_1
  6
CONTINUOUS
 10
1.014496
 20
-3.641535
  0
VERTEX
  8
PLAN_1
  6
CONTINUOUS
 10
1.018776
 20
-3.635835
  0
VERTEX
  8
PLAN_1
  6
CONTINUOUS
 10
1.023051
 20
-3.630606
  0
VERTEX
  8
PLAN_1
  6
CONTINUOUS
 10
1.027803
 20
-3.625854
  0
VERTEX
  8
PLAN_1
  6
CONTINUOUS
 10
1.033031
 20
-3.621579
  0
VERTEX
  8
PLAN_1
  6
CONTINUOUS
 10
1.038732
 20
-3.618252
  0
VERTEX
  8
PLAN_1
  6
CONTINUOUS
 10
1.044909
 20
-3.615402
  0
VERTEX
  8
PLAN_1
  6
CONTINUOUS
 10
1.051087
 20
-3.613500
  0
VERTEX
  8
PLAN_1
  6
CONTINUOUS
 10
1.058217
 20
-3.612075
  0
VERTEX
  8
PLAN_1
  6
CONTINUOUS
 10
1.065343
 20
-3.611598
  0
VERTEX
  8
PLAN_1
  6
CONTINUOUS
 10
1.070094
 20
-3.611598
  0
VERTEX
  8
PLAN_1
  6
CONTINUOUS
 10
1.074846
 20
-3.612547
  0
VERTEX
  8
PLAN_1
  6
CONTINUOUS
 10
1.079122
 20
-3.614449
  0
VERTEX
  8
PLAN_1
  6
CONTINUOUS
 10
1.083398
 20
-3.616350
  0
VERTEX
  8
PLAN_1
  6
CONTINUOUS
 10
1.087201
 20
-3.619677
  0
VERTEX
  8
PLAN_1
  6
CONTINUOUS
 10
1.091004
 20
-3.623476
  0
VERTEX
  8
PLAN_1
  6
CONTINUOUS
 10
1.094331
 20
-3.627756
  0
VERTEX
  8
PLAN_1
  6
CONTINUOUS
 10
1.097181
 20
-3.632980
  0
VERTEX
  8
PLAN_1
  6
CONTINUOUS
 10
1.102406
 20
-3.615874
  0
SEQEND
  8
0
  0
POLYLINE
  8
PLAN_1
  6
CONTINUOUS
 66
     1
 40
0.003000
 41
0.003000
  0
VERTEX
  8
PLAN_1
  6
CONTINUOUS
 10
1.065819
 20
-3.631555
  0
VERTEX
  8
PLAN_1
  6
CONTINUOUS
 10
1.061067
 20
-3.632031
  0
VERTEX
  8
PLAN_1
  6
CONTINUOUS
 10
1.056787
 20
-3.632980
  0
VERTEX
  8
PLAN_1
  6
CONTINUOUS
 10
1.052512
 20
-3.634409
  0
VERTEX
  8
PLAN_1
  6
CONTINUOUS
 10
1.048713
 20
-3.636783
  0
VERTEX
  8
PLAN_1
  6
CONTINUOUS
 10
1.044909
 20
-3.639634
  0
VERTEX
  8
PLAN_1
  6
CONTINUOUS
 10
1.041583
 20
-3.642484
  0
VERTEX
  8
PLAN_1
  6
CONTINUOUS
 10
1.038256
 20
-3.646287
  0
VERTEX
  8
PLAN_1
  6
CONTINUOUS
 10
1.035406
 20
-3.650091
  0
VERTEX
  8
PLAN_1
  6
CONTINUOUS
 10
1.033031
 20
-3.653890
  0
VERTEX
  8
PLAN_1
  6
CONTINUOUS
 10
1.030654
 20
-3.658165
  0
VERTEX
  8
PLAN_1
  6
CONTINUOUS
 10
1.028752
 20
-3.662917
  0
VERTEX
  8
PLAN_1
  6
CONTINUOUS
 10
1.026850
 20
-3.667669
  0
VERTEX
  8
PLAN_1
  6
CONTINUOUS
 10
1.025425
 20
-3.671949
  0
VERTEX
  8
PLAN_1
  6
CONTINUOUS
 10
1.024476
 20
-3.676701
  0
VERTEX
  8
PLAN_1
  6
CONTINUOUS
 10
1.024000
 20
-3.681453
  0
VERTEX
  8
PLAN_1
  6
CONTINUOUS
 10
1.024000
 20
-3.685728
  0
VERTEX
  8
PLAN_1
  6
CONTINUOUS
 10
1.024000
 20
-3.691429
  0
VERTEX
  8
PLAN_1
  6
CONTINUOUS
 10
1.025425
 20
-3.696657
  0
VERTEX
  8
PLAN_1
  6
CONTINUOUS
 10
1.026378
 20
-3.699031
  0
VERTEX
  8
PLAN_1
  6
CONTINUOUS
 10
1.027327
 20
-3.700933
  0
VERTEX
  8
PLAN_1
  6
CONTINUOUS
 10
1.028752
 20
-3.703311
  0
VERTEX
  8
PLAN_1
  6
CONTINUOUS
 10
1.030177
 20
-3.705209
  0
VERTEX
  8
PLAN_1
  6
CONTINUOUS
 10
1.032079
 20
-3.706638
  0
VERTEX
  8
PLAN_1
  6
CONTINUOUS
 10
1.033504
 20
-3.708063
  0
VERTEX
  8
PLAN_1
  6
CONTINUOUS
 10
1.035406
 20
-3.709488
  0
VERTEX
  8
PLAN_1
  6
CONTINUOUS
 10
1.037783
 20
-3.710437
  0
VERTEX
  8
PLAN_1
  6
CONTINUOUS
 10
1.039681
 20
-3.711390
  0
VERTEX
  8
PLAN_1
  6
CONTINUOUS
 10
1.042059
 20
-3.711862
  0
VERTEX
  8
PLAN_1
  6
CONTINUOUS
 10
1.044433
 20
-3.712339
  0
VERTEX
  8
PLAN_1
  6
CONTINUOUS
 10
1.047283
 20
-3.712339
  0
VERTEX
  8
PLAN_1
  6
CONTINUOUS
 10
1.051563
 20
-3.712339
  0
VERTEX
  8
PLAN_1
  6
CONTINUOUS
 10
1.055839
 20
-3.710913
  0
VERTEX
  8
PLAN_1
  6
CONTINUOUS
 10
1.059642
 20
-3.709488
  0
VERTEX
  8
PLAN_1
  6
CONTINUOUS
 10
1.063441
 20
-3.707110
  0
VERTEX
  8
PLAN_1
  6
CONTINUOUS
 10
1.067244
 20
-3.704260
  0
VERTEX
  8
PLAN_1
  6
CONTINUOUS
 10
1.070571
 20
-3.700933
  0
VERTEX
  8
PLAN_1
  6
CONTINUOUS
 10
1.073898
 20
-3.697134
  0
VERTEX
  8
PLAN_1
  6
CONTINUOUS
 10
1.076748
 20
-3.693331
  0
VERTEX
  8
PLAN_1
  6
CONTINUOUS
 10
1.079122
 20
-3.689055
  0
VERTEX
  8
PLAN_1
  6
CONTINUOUS
 10
1.081500
 20
-3.684303
  0
VERTEX
  8
PLAN_1
  6
CONTINUOUS
 10
1.083398
 20
-3.679551
  0
VERTEX
  8
PLAN_1
  6
CONTINUOUS
 10
1.085299
 20
-3.675276
  0
VERTEX
  8
PLAN_1
  6
CONTINUOUS
 10
1.086724
 20
-3.670524
  0
VERTEX
  8
PLAN_1
  6
CONTINUOUS
 10
1.087677
 20
-3.665772
  0
VERTEX
  8
PLAN_1
  6
CONTINUOUS
 10
1.088150
 20
-3.661492
  0
VERTEX
  8
PLAN_1
  6
CONTINUOUS
 10
1.088626
 20
-3.657217
  0
VERTEX
  8
PLAN_1
  6
CONTINUOUS
 10
1.088150
 20
-3.651988
  0
VERTEX
  8
PLAN_1
  6
CONTINUOUS
 10
1.086724
 20
-3.647236
  0
VERTEX
  8
PLAN_1
  6
CONTINUOUS
 10
1.084350
 20
-3.642961
  0
VERTEX
  8
PLAN_1
  6
CONTINUOUS
 10
1.081500
 20
-3.639161
  0
VERTEX
  8
PLAN_1
  6
CONTINUOUS
 10
1.078173
 20
-3.635835
  0
VERTEX
  8
PLAN_1
  6
CONTINUOUS
 10
1.074370
 20
-3.633457
  0
VERTEX
  8
PLAN_1
  6
CONTINUOUS
 10
1.072469
 20
-3.632508
  0
VERTEX
  8
PLAN_1
  6
CONTINUOUS
 10
1.070094
 20
-3.632031
  0
VERTEX
  8
PLAN_1
  6
CONTINUOUS
 10
1.068193
 20
-3.631555
  0
VERTEX
  8
PLAN_1
  6
CONTINUOUS
 10
1.065819
 20
-3.631555
  0
SEQEND
  8
0
  0
SOLID
  8
PLAN_1
 10
1.200772
 20
-3.805000
 11
1.200772
 21
-3.791220
 12
1.355209
 22
-3.805000
 13
1.355209
 23
-3.791220
  0
POLYLINE
  8
PLAN_1
  6
CONTINUOUS
 66
     1
 40
0.003000
 41
0.003000
  0
VERTEX
  8
PLAN_1
  6
CONTINUOUS
 10
1.200772
 20
-3.805000
  0
VERTEX
  8
PLAN_1
  6
CONTINUOUS
 10
1.200772
 20
-3.791220
  0
VERTEX
  8
PLAN_1
  6
CONTINUOUS
 10
1.355209
 20
-3.791220
  0
VERTEX
  8
PLAN_1
  6
CONTINUOUS
 10
1.355209
 20
-3.805000
  0
VERTEX
  8
PLAN_1
  6
CONTINUOUS
 10
1.200772
 20
-3.805000
  0
SEQEND
  8
0
  0
SOLID
  8
PLAN_1
 10
1.355209
 20
-3.805000
 11
1.355209
 21
-3.791220
 12
1.509642
 22
-3.805000
 13
1.509642
 23
-3.791220
  0
POLYLINE
  8
PLAN_1
  6
CONTINUOUS
 66
     1
 40
0.003000
 41
0.003000
  0
VERTEX
  8
PLAN_1
  6
CONTINUOUS
 10
1.355209
 20
-3.805000
  0
VERTEX
  8
PLAN_1
  6
CONTINUOUS
 10
1.355209
 20
-3.791220
  0
VERTEX
  8
PLAN_1
  6
CONTINUOUS
 10
1.509642
 20
-3.791220
  0
VERTEX
  8
PLAN_1
  6
CONTINUOUS
 10
1.509642
 20
-3.805000
  0
VERTEX
  8
PLAN_1
  6
CONTINUOUS
 10
1.355209
 20
-3.805000
  0
SEQEND
  8
0
  0
POLYLINE
  8
PLAN_1
  6
CONTINUOUS
 66
     1
 40
0.003000
 41
0.003000
  0
VERTEX
  8
PLAN_1
  6
CONTINUOUS
 10
1.560965
 20
-3.770311
  0
VERTEX
  8
PLAN_1
  6
CONTINUOUS
 10
1.533878
 20
-3.770311
  0
VERTEX
  8
PLAN_1
  6
CONTINUOUS
 10
1.533878
 20
-3.571209
  0
VERTEX
  8
PLAN_1
  6
CONTINUOUS
 10
1.626063
 20
-3.571209
  0
VERTEX
  8
PLAN_1
  6
CONTINUOUS
 10
1.632240
 20
-3.571209
  0
VERTEX
  8
PLAN_1
  6
CONTINUOUS
 10
1.638417
 20
-3.571681
  0
VERTEX
  8
PLAN_1
  6
CONTINUOUS
 10
1.644122
 20
-3.572157
  0
VERTEX
  8
PLAN_1
  6
CONTINUOUS
 10
1.650299
 20
-3.573583
  0
VERTEX
  8
PLAN_1
  6
CONTINUOUS
 10
1.656000
 20
-3.575008
  0
VERTEX
  8
PLAN_1
  6
CONTINUOUS
 10
1.661228
 20
-3.576909
  0
VERTEX
  8
PLAN_1
  6
CONTINUOUS
 10
1.666453
 20
-3.579287
  0
VERTEX
  8
PLAN_1
  6
CONTINUOUS
 10
1.671205
 20
-3.582138
  0
VERTEX
  8
PLAN_1
  6
CONTINUOUS
 10
1.675484
 20
-3.585465
  0
VERTEX
  8
PLAN_1
  6
CONTINUOUS
 10
1.679760
 20
-3.589264
  0
VERTEX
  8
PLAN_1
  6
CONTINUOUS
 10
1.683087
 20
-3.593543
  0
VERTEX
  8
PLAN_1
  6
CONTINUOUS
 10
1.685937
 20
-3.598295
  0
VERTEX
  8
PLAN_1
  6
CONTINUOUS
 10
1.688315
 20
-3.603996
  0
VERTEX
  8
PLAN_1
  6
CONTINUOUS
 10
1.690213
 20
-3.610173
  0
VERTEX
  8
PLAN_1
  6
CONTINUOUS
 10
1.691165
 20
-3.616827
  0
VERTEX
  8
PLAN_1
  6
CONTINUOUS
 10
1.691638
 20
-3.624429
  0
VERTEX
  8
PLAN_1
  6
CONTINUOUS
 10
1.691638
 20
-3.629657
  0
VERTEX
  8
PLAN_1
  6
CONTINUOUS
 10
1.691165
 20
-3.634882
  0
VERTEX
  8
PLAN_1
  6
CONTINUOUS
 10
1.690213
 20
-3.639161
  0
VERTEX
  8
PLAN_1
  6
CONTINUOUS
 10
1.689264
 20
-3.643437
  0
VERTEX
  8
PLAN_1
  6
CONTINUOUS
 10
1.687839
 20
-3.647236
  0
VERTEX
  8
PLAN_1
  6
CONTINUOUS
 10
1.686413
 20
-3.650563
  0
VERTEX
  8
PLAN_1
  6
CONTINUOUS
 10
1.684512
 20
-3.653890
  0
VERTEX
  8
PLAN_1
  6
CONTINUOUS
 10
1.682610
 20
-3.656740
  0
VERTEX
  8
PLAN_1
  6
CONTINUOUS
 10
1.678335
 20
-3.661492
  0
VERTEX
  8
PLAN_1
  6
CONTINUOUS
 10
1.673583
 20
-3.665772
  0
VERTEX
  8
PLAN_1
  6
CONTINUOUS
 10
1.668831
 20
-3.669094
  0
VERTEX
  8
PLAN_1
  6
CONTINUOUS
 10
1.664079
 20
-3.672421
  0
VERTEX
  8
PLAN_1
  6
CONTINUOUS
 10
1.668354
 20
-3.674323
  0
VERTEX
  8
PLAN_1
  6
CONTINUOUS
 10
1.672157
 20
-3.676224
  0
VERTEX
  8
PLAN_1
  6
CONTINUOUS
 10
1.675957
 20
-3.679075
  0
VERTEX
  8
PLAN_1
  6
CONTINUOUS
 10
1.679760
 20
-3.682402
  0
VERTEX
  8
PLAN_1
  6
CONTINUOUS
 10
1.681185
 20
-3.684776
  0
VERTEX
  8
PLAN_1
  6
CONTINUOUS
 10
1.682610
 20
-3.687154
  0
VERTEX
  8
PLAN_1
  6
CONTINUOUS
 10
1.684035
 20
-3.689528
  0
VERTEX
  8
PLAN_1
  6
CONTINUOUS
 10
1.684988
 20
-3.692854
  0
VERTEX
  8
PLAN_1
  6
CONTINUOUS
 10
1.685937
 20
-3.696657
  0
VERTEX
  8
PLAN_1
  6
CONTINUOUS
 10
1.686886
 20
-3.700461
  0
VERTEX
  8
PLAN_1
  6
CONTINUOUS
 10
1.687362
 20
-3.704736
  0
VERTEX
  8
PLAN_1
  6
CONTINUOUS
 10
1.687839
 20
-3.709961
  0
VERTEX
  8
PLAN_1
  6
CONTINUOUS
 10
1.689264
 20
-3.746075
  0
VERTEX
  8
PLAN_1
  6
CONTINUOUS
 10
1.689740
 20
-3.749878
  0
VERTEX
  8
PLAN_1
  6
CONTINUOUS
 10
1.689740
 20
-3.753205
  0
VERTEX
  8
PLAN_1
  6
CONTINUOUS
 10
1.690689
 20
-3.756055
  0
VERTEX
  8
PLAN_1
  6
CONTINUOUS
 10
1.691165
 20
-3.758433
  0
VERTEX
  8
PLAN_1
  6
CONTINUOUS
 10
1.692591
 20
-3.760331
  0
VERTEX
  8
PLAN_1
  6
CONTINUOUS
 10
1.694492
 20
-3.762232
  0
VERTEX
  8
PLAN_1
  6
CONTINUOUS
 10
1.696390
 20
-3.764134
  0
VERTEX
  8
PLAN_1
  6
CONTINUOUS
 10
1.699244
 20
-3.766035
  0
VERTEX
  8
PLAN_1
  6
CONTINUOUS
 10
1.699244
 20
-3.770311
  0
VERTEX
  8
PLAN_1
  6
CONTINUOUS
 10
1.666453
 20
-3.770311
  0
VERTEX
  8
PLAN_1
  6
CONTINUOUS
 10
1.665028
 20
-3.765083
  0
VERTEX
  8
PLAN_1
  6
CONTINUOUS
 10
1.664079
 20
-3.758433
  0
VERTEX
  8
PLAN_1
  6
CONTINUOUS
 10
1.663130
 20
-3.751303
  0
VERTEX
  8
PLAN_1
  6
CONTINUOUS
 10
1.662654
 20
-3.743701
  0
VERTEX
  8
PLAN_1
  6
CONTINUOUS
 10
1.662177
 20
-3.736098
  0
VERTEX
  8
PLAN_1
  6
CONTINUOUS
 10
1.661705
 20
-3.729445
  0
VERTEX
  8
PLAN_1
  6
CONTINUOUS
 10
1.661705
 20
-3.724217
  0
VERTEX
  8
PLAN_1
  6
CONTINUOUS
 10
1.661705
 20
-3.720417
  0
VERTEX
  8
PLAN_1
  6
CONTINUOUS
 10
1.661228
 20
-3.714240
  0
VERTEX
  8
PLAN_1
  6
CONTINUOUS
 10
1.660752
 20
-3.708063
  0
VERTEX
  8
PLAN_1
  6
CONTINUOUS
 10
1.659803
 20
-3.704736
  0
VERTEX
  8
PLAN_1
  6
CONTINUOUS
 10
1.658850
 20
-3.701886
  0
VERTEX
  8
PLAN_1
  6
CONTINUOUS
 10
1.657425
 20
-3.699031
  0
VERTEX
  8
PLAN_1
  6
CONTINUOUS
 10
1.656000
 20
-3.696657
  0
VERTEX
  8
PLAN_1
  6
CONTINUOUS
 10
1.654098
 20
-3.693807
  0
VERTEX
  8
PLAN_1
  6
CONTINUOUS
 10
1.651724
 20
-3.691906
  0
VERTEX
  8
PLAN_1
  6
CONTINUOUS
 10
1.648874
 20
-3.689528
  0
VERTEX
  8
PLAN_1
  6
CONTINUOUS
 10
1.645071
 20
-3.688102
  0
VERTEX
  8
PLAN_1
  6
CONTINUOUS
 10
1.641272
 20
-3.686677
  0
VERTEX
  8
PLAN_1
  6
CONTINUOUS
 10
1.636992
 20
-3.685728
  0
VERTEX
  8
PLAN_1
  6
CONTINUOUS
 10
1.631768
 20
-3.685252
  0
VERTEX
  8
PLAN_1
  6
CONTINUOUS
 10
1.626063
 20
-3.684776
  0
VERTEX
  8
PLAN_1
  6
CONTINUOUS
 10
1.560965
 20
-3.684776
  0
VERTEX
  8
PLAN_1
  6
CONTINUOUS
 10
1.560965
 20
-3.770311
  0
SEQEND
  8
0
  0
POLYLINE
  8
PLAN_1
  6
CONTINUOUS
 66
     1
 40
0.003000
 41
0.003000
  0
VERTEX
  8
PLAN_1
  6
CONTINUOUS
 10
1.560965
 20
-3.661969
  0
VERTEX
  8
PLAN_1
  6
CONTINUOUS
 10
1.623213
 20
-3.661969
  0
VERTEX
  8
PLAN_1
  6
CONTINUOUS
 10
1.630815
 20
-3.661492
  0
VERTEX
  8
PLAN_1
  6
CONTINUOUS
 10
1.637945
 20
-3.660543
  0
VERTEX
  8
PLAN_1
  6
CONTINUOUS
 10
1.641272
 20
-3.659594
  0
VERTEX
  8
PLAN_1
  6
CONTINUOUS
 10
1.645071
 20
-3.658642
  0
VERTEX
  8
PLAN_1
  6
CONTINUOUS
 10
1.647921
 20
-3.657217
  0
VERTEX
  8
PLAN_1
  6
CONTINUOUS
 10
1.650772
 20
-3.655791
  0
VERTEX
  8
PLAN_1
  6
CONTINUOUS
 10
1.653626
 20
-3.653413
  0
VERTEX
  8
PLAN_1
  6
CONTINUOUS
 10
1.656476
 20
-3.651039
  0
VERTEX
  8
PLAN_1
  6
CONTINUOUS
 10
1.658378
 20
-3.648189
  0
VERTEX
  8
PLAN_1
  6
CONTINUOUS
 10
1.660276
 20
-3.645339
  0
VERTEX
  8
PLAN_1
  6
CONTINUOUS
 10
1.661705
 20
-3.641535
  0
VERTEX
  8
PLAN_1
  6
CONTINUOUS
 10
1.663130
 20
-3.637260
  0
VERTEX
  8
PLAN_1
  6
CONTINUOUS
 10
1.663602
 20
-3.632508
  0
VERTEX
  8
PLAN_1
  6
CONTINUOUS
 10
1.664079
 20
-3.627280
  0
VERTEX
  8
PLAN_1
  6
CONTINUOUS
 10
1.663602
 20
-3.622051
  0
VERTEX
  8
PLAN_1
  6
CONTINUOUS
 10
1.662654
 20
-3.617299
  0
VERTEX
  8
PLAN_1
  6
CONTINUOUS
 10
1.661705
 20
-3.613024
  0
VERTEX
  8
PLAN_1
  6
CONTINUOUS
 10
1.660276
 20
-3.609224
  0
VERTEX
  8
PLAN_1
  6
CONTINUOUS
 10
1.658378
 20
-3.605898
  0
VERTEX
  8
PLAN_1
  6
CONTINUOUS
 10
1.656000
 20
-3.603043
  0
VERTEX
  8
PLAN_1
  6
CONTINUOUS
 10
1.653626
 20
-3.601146
  0
VERTEX
  8
PLAN_1
  6
CONTINUOUS
 10
1.650772
 20
-3.599244
  0
VERTEX
  8
PLAN_1
  6
CONTINUOUS
 10
1.648398
 20
-3.597819
  0
VERTEX
  8
PLAN_1
  6
CONTINUOUS
 10
1.645071
 20
-3.596394
  0
VERTEX
  8
PLAN_1
  6
CONTINUOUS
 10
1.642220
 20
-3.595441
  0
VERTEX
  8
PLAN_1
  6
CONTINUOUS
 10
1.639370
 20
-3.594969
  0
VERTEX
  8
PLAN_1
  6
CONTINUOUS
 10
1.633665
 20
-3.594016
  0
VERTEX
  8
PLAN_1
  6
CONTINUOUS
 10
1.627965
 20
-3.594016
  0
VERTEX
  8
PLAN_1
  6
CONTINUOUS
 10
1.560965
 20
-3.594016
  0
VERTEX
  8
PLAN_1
  6
CONTINUOUS
 10
1.560965
 20
-3.661969
  0
SEQEND
  8
0
  0
SOLID
  8
PLAN_1
 10
1.762917
 20
-3.770311
 11
1.734406
 21
-3.770311
 12
1.762917
 22
-3.740850
 13
1.734406
 23
-3.740850
  0
POLYLINE
  8
PLAN_1
  6
CONTINUOUS
 66
     1
 40
0.003000
 41
0.003000
  0
VERTEX
  8
PLAN_1
  6
CONTINUOUS
 10
1.762917
 20
-3.770311
  0
VERTEX
  8
PLAN_1
  6
CONTINUOUS
 10
1.734406
 20
-3.770311
  0
VERTEX
  8
PLAN_1
  6
CONTINUOUS
 10
1.734406
 20
-3.740850
  0
VERTEX
  8
PLAN_1
  6
CONTINUOUS
 10
1.762917
 20
-3.740850
  0
VERTEX
  8
PLAN_1
  6
CONTINUOUS
 10
1.762917
 20
-3.770311
  0
SEQEND
  8
0
  0
POLYLINE
  8
PLAN_1
  6
CONTINUOUS
 66
     1
 40
0.003000
 41
0.003000
  0
VERTEX
  8
PLAN_1
  6
CONTINUOUS
 10
1.958220
 20
-3.770311
  0
VERTEX
  8
PLAN_1
  6
CONTINUOUS
 10
1.810913
 20
-3.770311
  0
VERTEX
  8
PLAN_1
  6
CONTINUOUS
 10
1.810913
 20
-3.571209
  0
VERTEX
  8
PLAN_1
  6
CONTINUOUS
 10
1.956319
 20
-3.571209
  0
VERTEX
  8
PLAN_1
  6
CONTINUOUS
 10
1.956319
 20
-3.594969
  0
VERTEX
  8
PLAN_1
  6
CONTINUOUS
 10
1.837996
 20
-3.594969
  0
VERTEX
  8
PLAN_1
  6
CONTINUOUS
 10
1.837996
 20
-3.655791
  0
VERTEX
  8
PLAN_1
  6
CONTINUOUS
 10
1.947291
 20
-3.655791
  0
VERTEX
  8
PLAN_1
  6
CONTINUOUS
 10
1.947291
 20
-3.680028
  0
VERTEX
  8
PLAN_1
  6
CONTINUOUS
 10
1.837996
 20
-3.680028
  0
VERTEX
  8
PLAN_1
  6
CONTINUOUS
 10
1.837996
 20
-3.746551
  0
VERTEX
  8
PLAN_1
  6
CONTINUOUS
 10
1.958220
 20
-3.746551
  0
VERTEX
  8
PLAN_1
  6
CONTINUOUS
 10
1.958220
 20
-3.770311
  0
SEQEND
  8
0
  0
POLYLINE
  8
PLAN_1
  6
CONTINUOUS
 66
     1
 40
0.003000
 41
0.003000
  0
VERTEX
  8
PLAN_1
  6
CONTINUOUS
 10
2.023319
 20
-3.770311
  0
VERTEX
  8
PLAN_1
  6
CONTINUOUS
 10
1.996236
 20
-3.770311
  0
VERTEX
  8
PLAN_1
  6
CONTINUOUS
 10
1.996236
 20
-3.571209
  0
VERTEX
  8
PLAN_1
  6
CONTINUOUS
 10
2.086043
 20
-3.571209
  0
VERTEX
  8
PLAN_1
  6
CONTINUOUS
 10
2.092697
 20
-3.571209
  0
VERTEX
  8
PLAN_1
  6
CONTINUOUS
 10
2.099350
 20
-3.572157
  0
VERTEX
  8
PLAN_1
  6
CONTINUOUS
 10
2.105051
 20
-3.573583
  0
VERTEX
  8
PLAN_1
  6
CONTINUOUS
 10
2.110756
 20
-3.575008
  0
VERTEX
  8
PLAN_1
  6
CONTINUOUS
 10
2.115980
 20
-3.577386
  0
VERTEX
  8
PLAN_1
  6
CONTINUOUS
 10
2.120732
 20
-3.580236
  0
VERTEX
  8
PLAN_1
  6
CONTINUOUS
 10
2.125484
 20
-3.583563
  0
VERTEX
  8
PLAN_1
  6
CONTINUOUS
 10
2.129287
 20
-3.586890
  0
VERTEX
  8
PLAN_1
  6
CONTINUOUS
 10
2.133091
 20
-3.590689
  0
VERTEX
  8
PLAN_1
  6
CONTINUOUS
 10
2.135941
 20
-3.594969
  0
VERTEX
  8
PLAN_1
  6
CONTINUOUS
 10
2.138791
 20
-3.599720
  0
VERTEX
  8
PLAN_1
  6
CONTINUOUS
 10
2.141165
 20
-3.604945
  0
VERTEX
  8
PLAN_1
  6
CONTINUOUS
 10
2.142594
 20
-3.610173
  0
VERTEX
  8
PLAN_1
  6
CONTINUOUS
 10
2.144020
 20
-3.615402
  0
VERTEX
  8
PLAN_1
  6
CONTINUOUS
 10
2.144969
 20
-3.621102
  0
VERTEX
  8
PLAN_1
  6
CONTINUOUS
 10
2.144969
 20
-3.627280
  0
VERTEX
  8
PLAN_1
  6
CONTINUOUS
 10
2.144969
 20
-3.632508
  0
VERTEX
  8
PLAN_1
  6
CONTINUOUS
 10
2.144492
 20
-3.637732
  0
VERTEX
  8
PLAN_1
  6
CONTINUOUS
 10
2.143543
 20
-3.642961
  0
VERTEX
  8
PLAN_1
  6
CONTINUOUS
 10
2.142118
 20
-3.648189
  0
VERTEX
  8
PLAN_1
  6
CONTINUOUS
 10
2.140217
 20
-3.652941
  0
VERTEX
  8
PLAN_1
  6
CONTINUOUS
 10
2.137843
 20
-3.658165
  0
VERTEX
  8
PLAN_1
  6
CONTINUOUS
 10
2.134988
 20
-3.662445
  0
VERTEX
  8
PLAN_1
  6
CONTINUOUS
 10
2.131661
 20
-3.667197
  0
VERTEX
  8
PLAN_1
  6
CONTINUOUS
 10
2.127862
 20
-3.670996
  0
VERTEX
  8
PLAN_1
  6
CONTINUOUS
 10
2.123587
 20
-3.674799
  0
VERTEX
  8
PLAN_1
  6
CONTINUOUS
 10
2.118835
 20
-3.678126
  0
VERTEX
  8
PLAN_1
  6
CONTINUOUS
 10
2.113606
 20
-3.680976
  0
VERTEX
  8
PLAN_1
  6
CONTINUOUS
 10
2.107429
 20
-3.683350
  0
VERTEX
  8
PLAN_1
  6
CONTINUOUS
 10
2.100776
 20
-3.684776
  0
VERTEX
  8
PLAN_1
  6
CONTINUOUS
 10
2.093650
 20
-3.685728
  0
VERTEX
  8
PLAN_1
  6
CONTINUOUS
 10
2.086043
 20
-3.686205
  0
VERTEX
  8
PLAN_1
  6
CONTINUOUS
 10
2.023319
 20
-3.686205
  0
VERTEX
  8
PLAN_1
  6
CONTINUOUS
 10
2.023319
 20
-3.770311
  0
SEQEND
  8
0
  0
POLYLINE
  8
PLAN_1
  6
CONTINUOUS
 66
     1
 40
0.003000
 41
0.003000
  0
VERTEX
  8
PLAN_1
  6
CONTINUOUS
 10
2.023319
 20
-3.663394
  0
VERTEX
  8
PLAN_1
  6
CONTINUOUS
 10
2.077016
 20
-3.663394
  0
VERTEX
  8
PLAN_1
  6
CONTINUOUS
 10
2.081295
 20
-3.662917
  0
VERTEX
  8
PLAN_1
  6
CONTINUOUS
 10
2.085571
 20
-3.662917
  0
VERTEX
  8
PLAN_1
  6
CONTINUOUS
 10
2.089370
 20
-3.661969
  0
VERTEX
  8
PLAN_1
  6
CONTINUOUS
 10
2.093173
 20
-3.661492
  0
VERTEX
  8
PLAN_1
  6
CONTINUOUS
 10
2.096976
 20
-3.660067
  0
VERTEX
  8
PLAN_1
  6
CONTINUOUS
 10
2.100299
 20
-3.659118
  0
VERTEX
  8
PLAN_1
  6
CONTINUOUS
 10
2.103154
 20
-3.657217
  0
VERTEX
  8
PLAN_1
  6
CONTINUOUS
 10
2.106004
 20
-3.655315
  0
VERTEX
  8
PLAN_1
  6
CONTINUOUS
 10
2.108854
 20
-3.652941
  0
VERTEX
  8
PLAN_1
  6
CONTINUOUS
 10
2.110756
 20
-3.650563
  0
VERTEX
  8
PLAN_1
  6
CONTINUOUS
 10
2.112657
 20
-3.647713
  0
VERTEX
  8
PLAN_1
  6
CONTINUOUS
 10
2.114555
 20
-3.644386
  0
VERTEX
  8
PLAN_1
  6
CONTINUOUS
 10
2.115508
 20
-3.640587
  0
VERTEX
  8
PLAN_1
  6
CONTINUOUS
 10
2.116457
 20
-3.636783
  0
VERTEX
  8
PLAN_1
  6
CONTINUOUS
 10
2.117409
 20
-3.632031
  0
VERTEX
  8
PLAN_1
  6
CONTINUOUS
 10
2.117409
 20
-3.627280
  0
VERTEX
  8
PLAN_1
  6
CONTINUOUS
 10
2.116933
 20
-3.623004
  0
VERTEX
  8
PLAN_1
  6
CONTINUOUS
 10
2.116457
 20
-3.618728
  0
VERTEX
  8
PLAN_1
  6
CONTINUOUS
 10
2.115508
 20
-3.614925
  0
VERTEX
  8
PLAN_1
  6
CONTINUOUS
 10
2.114555
 20
-3.611598
  0
VERTEX
  8
PLAN_1
  6
CONTINUOUS
 10
2.112657
 20
-3.608272
  0
VERTEX
  8
PLAN_1
  6
CONTINUOUS
 10
2.110756
 20
-3.605898
  0
VERTEX
  8
PLAN_1
  6
CONTINUOUS
 10
2.108378
 20
-3.603520
  0
VERTEX
  8
PLAN_1
  6
CONTINUOUS
 10
2.106004
 20
-3.601146
  0
VERTEX
  8
PLAN_1
  6
CONTINUOUS
 10
2.103154
 20
-3.599244
  0
VERTEX
  8
PLAN_1
  6
CONTINUOUS
 10
2.100299
 20
-3.597819
  0
VERTEX
  8
PLAN_1
  6
CONTINUOUS
 10
2.096976
 20
-3.596866
  0
VERTEX
  8
PLAN_1
  6
CONTINUOUS
 10
2.093650
 20
-3.595917
  0
VERTEX
  8
PLAN_1
  6
CONTINUOUS
 10
2.086043
 20
-3.594492
  0
VERTEX
  8
PLAN_1
  6
CONTINUOUS
 10
2.077969
 20
-3.594016
  0
VERTEX
  8
PLAN_1
  6
CONTINUOUS
 10
2.023319
 20
-3.594016
  0
VERTEX
  8
PLAN_1
  6
CONTINUOUS
 10
2.023319
 20
-3.663394
  0
SEQEND
  8
0
  0
POLYLINE
  8
PLAN_1
  6
CONTINUOUS
 66
     1
 40
0.003000
 41
0.003000
  0
VERTEX
  8
PLAN_1
  6
CONTINUOUS
 10
2.298929
 20
-3.629181
  0
VERTEX
  8
PLAN_1
  6
CONTINUOUS
 10
2.298453
 20
-3.623953
  0
VERTEX
  8
PLAN_1
  6
CONTINUOUS
 10
2.297504
 20
-3.618728
  0
VERTEX
  8
PLAN_1
  6
CONTINUOUS
 10
2.296079
 20
-3.613976
  0
VERTEX
  8
PLAN_1
  6
CONTINUOUS
 10
2.293701
 20
-3.610173
  0
VERTEX
  8
PLAN_1
  6
CONTINUOUS
 10
2.291327
 20
-3.606370
  0
VERTEX
  8
PLAN_1
  6
CONTINUOUS
 10
2.288476
 20
-3.603043
  0
VERTEX
  8
PLAN_1
  6
CONTINUOUS
 10
2.285622
 20
-3.600193
  0
VERTEX
  8
PLAN_1
  6
CONTINUOUS
 10
2.282299
 20
-3.597343
  0
VERTEX
  8
PLAN_1
  6
CONTINUOUS
 10
2.278496
 20
-3.595441
  0
VERTEX
  8
PLAN_1
  6
CONTINUOUS
 10
2.274693
 20
-3.593543
  0
VERTEX
  8
PLAN_1
  6
CONTINUOUS
 10
2.270894
 20
-3.592114
  0
VERTEX
  8
PLAN_1
  6
CONTINUOUS
 10
2.266618
 20
-3.590689
  0
VERTEX
  8
PLAN_1
  6
CONTINUOUS
 10
2.262339
 20
-3.589740
  0
VERTEX
  8
PLAN_1
  6
CONTINUOUS
 10
2.258063
 20
-3.589264
  0
VERTEX
  8
PLAN_1
  6
CONTINUOUS
 10
2.253787
 20
-3.588791
  0
VERTEX
  8
PLAN_1
  6
CONTINUOUS
 10
2.249508
 20
-3.588791
  0
VERTEX
  8
PLAN_1
  6
CONTINUOUS
 10
2.242858
 20
-3.589264
  0
VERTEX
  8
PLAN_1
  6
CONTINUOUS
 10
2.235256
 20
-3.590217
  0
VERTEX
  8
PLAN_1
  6
CONTINUOUS
 10
2.231453
 20
-3.590689
  0
VERTEX
  8
PLAN_1
  6
CONTINUOUS
 10
2.227650
 20
-3.591642
  0
VERTEX
  8
PLAN_1
  6
CONTINUOUS
 10
2.223850
 20
-3.593067
  0
VERTEX
  8
PLAN_1
  6
CONTINUOUS
 10
2.220524
 20
-3.594969
  0
VERTEX
  8
PLAN_1
  6
CONTINUOUS
 10
2.217197
 20
-3.596866
  0
VERTEX
  8
PLAN_1
  6
CONTINUOUS
 10
2.213870
 20
-3.599244
  0
VERTEX
  8
PLAN_1
  6
CONTINUOUS
 10
2.211020
 20
-3.602094
  0
VERTEX
  8
PLAN_1
  6
CONTINUOUS
 10
2.208642
 20
-3.605421
  0
VERTEX
  8
PLAN_1
  6
CONTINUOUS
 10
2.206744
 20
-3.609224
  0
VERTEX
  8
PLAN_1
  6
CONTINUOUS
 10
2.205319
 20
-3.613500
  0
VERTEX
  8
PLAN_1
  6
CONTINUOUS
 10
2.204366
 20
-3.618252
  0
VERTEX
  8
PLAN_1
  6
CONTINUOUS
 10
2.203890
 20
-3.623953
  0
VERTEX
  8
PLAN_1
  6
CONTINUOUS
 10
2.204366
 20
-3.626803
  0
VERTEX
  8
PLAN_1
  6
CONTINUOUS
 10
2.204366
 20
-3.629657
  0
VERTEX
  8
PLAN_1
  6
CONTINUOUS
 10
2.205319
 20
-3.632031
  0
VERTEX
  8
PLAN_1
  6
CONTINUOUS
 10
2.206268
 20
-3.634409
  0
VERTEX
  8
PLAN_1
  6
CONTINUOUS
 10
2.207217
 20
-3.636783
  0
VERTEX
  8
PLAN_1
  6
CONTINUOUS
 10
2.208642
 20
-3.638685
  0
VERTEX
  8
PLAN_1
  6
CONTINUOUS
 10
2.210071
 20
-3.640110
  0
VERTEX
  8
PLAN_1
  6
CONTINUOUS
 10
2.211496
 20
-3.641535
  0
VERTEX
  8
PLAN_1
  6
CONTINUOUS
 10
2.215295
 20
-3.644386
  0
VERTEX
  8
PLAN_1
  6
CONTINUOUS
 10
2.219098
 20
-3.646287
  0
VERTEX
  8
PLAN_1
  6
CONTINUOUS
 10
2.223374
 20
-3.647713
  0
VERTEX
  8
PLAN_1
  6
CONTINUOUS
 10
2.227650
 20
-3.649138
  0
VERTEX
  8
PLAN_1
  6
CONTINUOUS
 10
2.284673
 20
-3.661969
  0
VERTEX
  8
PLAN_1
  6
CONTINUOUS
 10
2.289425
 20
-3.663394
  0
VERTEX
  8
PLAN_1
  6
CONTINUOUS
 10
2.293701
 20
-3.664819
  0
VERTEX
  8
PLAN_1
  6
CONTINUOUS
 10
2.298453
 20
-3.666720
  0
VERTEX
  8
PLAN_1
  6
CONTINUOUS
 10
2.302732
 20
-3.668622
  0
VERTEX
  8
PLAN_1
  6
CONTINUOUS
 10
2.306531
 20
-3.670524
  0
VERTEX
  8
PLAN_1
  6
CONTINUOUS
 10
2.310335
 20
-3.673374
  0
VERTEX
  8
PLAN_1
  6
CONTINUOUS
 10
2.313661
 20
-3.676224
  0
VERTEX
  8
PLAN_1
  6
CONTINUOUS
 10
2.316988
 20
-3.679075
  0
VERTEX
  8
PLAN_1
  6
CONTINUOUS
 10
2.319839
 20
-3.682402
  0
VERTEX
  8
PLAN_1
  6
CONTINUOUS
 10
2.322213
 20
-3.686205
  0
VERTEX
  8
PLAN_1
  6
CONTINUOUS
 10
2.324591
 20
-3.690004
  0
VERTEX
  8
PLAN_1
  6
CONTINUOUS
 10
2.326488
 20
-3.694756
  0
VERTEX
  8
PLAN_1
  6
CONTINUOUS
 10
2.327917
 20
-3.699031
  0
VERTEX
  8
PLAN_1
  6
CONTINUOUS
 10
2.328866
 20
-3.704260
  0
VERTEX
  8
PLAN_1
  6
CONTINUOUS
 10
2.329815
 20
-3.709488
  0
VERTEX
  8
PLAN_1
  6
CONTINUOUS
 10
2.329815
 20
-3.715189
  0
VERTEX
  8
PLAN_1
  6
CONTINUOUS
 10
2.329815
 20
-3.719465
  0
VERTEX
  8
PLAN_1
  6
CONTINUOUS
 10
2.329343
 20
-3.723744
  0
VERTEX
  8
PLAN_1
  6
CONTINUOUS
 10
2.328866
 20
-3.727543
  0
VERTEX
  8
PLAN_1
  6
CONTINUOUS
 10
2.327917
 20
-3.731346
  0
VERTEX
  8
PLAN_1
  6
CONTINUOUS
 10
2.326965
 20
-3.735146
  0
VERTEX
  8
PLAN_1
  6
CONTINUOUS
 10
2.325539
 20
-3.738472
  0
VERTEX
  8
PLAN_1
  6
CONTINUOUS
 10
2.324114
 20
-3.741799
  0
VERTEX
  8
PLAN_1
  6
CONTINUOUS
 10
2.322213
 20
-3.744650
  0
VERTEX
  8
PLAN_1
  6
CONTINUOUS
 10
2.318413
 20
-3.750354
  0
VERTEX
  8
PLAN_1
  6
CONTINUOUS
 10
2.314134
 20
-3.755106
  0
VERTEX
  8
PLAN_1
  6
CONTINUOUS
 10
2.308909
 20
-3.759382
  0
VERTEX
  8
PLAN_1
  6
CONTINUOUS
 10
2.303681
 20
-3.763185
  0
VERTEX
  8
PLAN_1
  6
CONTINUOUS
 10
2.297504
 20
-3.766508
  0
VERTEX
  8
PLAN_1
  6
CONTINUOUS
 10
2.291327
 20
-3.768886
  0
VERTEX
  8
PLAN_1
  6
CONTINUOUS
 10
2.285150
 20
-3.771260
  0
VERTEX
  8
PLAN_1
  6
CONTINUOUS
 10
2.278496
 20
-3.772689
  0
VERTEX
  8
PLAN_1
  6
CONTINUOUS
 10
2.271843
 20
-3.774114
  0
VERTEX
  8
PLAN_1
  6
CONTINUOUS
 10
2.265189
 20
-3.775063
  0
VERTEX
  8
PLAN_1
  6
CONTINUOUS
 10
2.258539
 20
-3.775539
  0
VERTEX
  8
PLAN_1
  6
CONTINUOUS
 10
2.251886
 20
-3.775539
  0
VERTEX
  8
PLAN_1
  6
CONTINUOUS
 10
2.245232
 20
-3.775539
  0
VERTEX
  8
PLAN_1
  6
CONTINUOUS
 10
2.239055
 20
-3.775063
  0
VERTEX
  8
PLAN_1
  6
CONTINUOUS
 10
2.233354
 20
-3.774587
  0
VERTEX
  8
PLAN_1
  6
CONTINUOUS
 10
2.228126
 20
-3.773638
  0
VERTEX
  8
PLAN_1
  6
CONTINUOUS
 10
2.219098
 20
-3.771736
  0
VERTEX
  8
PLAN_1
  6
CONTINUOUS
 10
2.211020
 20
-3.768886
  0
VERTEX
  8
PLAN_1
  6
CONTINUOUS
 10
2.204843
 20
-3.766035
  0
VERTEX
  8
PLAN_1
  6
CONTINUOUS
 10
2.199614
 20
-3.762709
  0
VERTEX
  8
PLAN_1
  6
CONTINUOUS
 10
2.195339
 20
-3.759382
  0
VERTEX
  8
PLAN_1
  6
CONTINUOUS
 10
2.191535
 20
-3.756531
  0
VERTEX
  8
PLAN_1
  6
CONTINUOUS
 10
2.188685
 20
-3.753681
  0
VERTEX
  8
PLAN_1
  6
CONTINUOUS
 10
2.185835
 20
-3.750827
  0
VERTEX
  8
PLAN_1
  6
CONTINUOUS
 10
2.183457
 20
-3.747504
  0
VERTEX
  8
PLAN_1
  6
CONTINUOUS
 10
2.181083
 20
-3.744650
  0
VERTEX
  8
PLAN_1
  6
CONTINUOUS
 10
2.177756
 20
-3.738472
  0
VERTEX
  8
PLAN_1
  6
CONTINUOUS
 10
2.174906
 20
-3.732295
  0
VERTEX
  8
PLAN_1
  6
CONTINUOUS
 10
2.173480
 20
-3.726118
  0
VERTEX
  8
PLAN_1
  6
CONTINUOUS
 10
2.172055
 20
-3.719465
  0
VERTEX
  8
PLAN_1
  6
CONTINUOUS
 10
2.171579
 20
-3.712815
  0
VERTEX
  8
PLAN_1
  6
CONTINUOUS
 10
2.171102
 20
-3.705685
  0
VERTEX
  8
PLAN_1
  6
CONTINUOUS
 10
2.196764
 20
-3.705685
  0
VERTEX
  8
PLAN_1
  6
CONTINUOUS
 10
2.196764
 20
-3.712339
  0
VERTEX
  8
PLAN_1
  6
CONTINUOUS
 10
2.197713
 20
-3.718039
  0
VERTEX
  8
PLAN_1
  6
CONTINUOUS
 10
2.199614
 20
-3.723744
  0
VERTEX
  8
PLAN_1
  6
CONTINUOUS
 10
2.201516
 20
-3.728496
  0
VERTEX
  8
PLAN_1
  6
CONTINUOUS
 10
2.204366
 20
-3.732772
  0
VERTEX
  8
PLAN_1
  6
CONTINUOUS
 10
2.207217
 20
-3.736575
  0
VERTEX
  8
PLAN_1
  6
CONTINUOUS
 10
2.210543
 20
-3.739898
  0
VERTEX
  8
PLAN_1
  6
CONTINUOUS
 10
2.214346
 20
-3.742752
  0
VERTEX
  8
PLAN_1
  6
CONTINUOUS
 10
2.218622
 20
-3.745126
  0
VERTEX
  8
PLAN_1
  6
CONTINUOUS
 10
2.222898
 20
-3.747504
  0
VERTEX
  8
PLAN_1
  6
CONTINUOUS
 10
2.227650
 20
-3.748929
  0
VERTEX
  8
PLAN_1
  6
CONTINUOUS
 10
2.232402
 20
-3.750354
  0
VERTEX
  8
PLAN_1
  6
CONTINUOUS
 10
2.237154
 20
-3.751303
  0
VERTEX
  8
PLAN_1
  6
CONTINUOUS
 10
2.241906
 20
-3.752256
  0
VERTEX
  8
PLAN_1
  6
CONTINUOUS
 10
2.246657
 20
-3.752256
  0
VERTEX
  8
PLAN_1
  6
CONTINUOUS
 10
2.251409
 20
-3.752728
  0
VERTEX
  8
PLAN_1
  6
CONTINUOUS
 10
2.259488
 20
-3.752256
  0
VERTEX
  8
PLAN_1
  6
CONTINUOUS
 10
2.268043
 20
-3.751303
  0
VERTEX
  8
PLAN_1
  6
CONTINUOUS
 10
2.272319
 20
-3.750354
  0
VERTEX
  8
PLAN_1
  6
CONTINUOUS
 10
2.276594
 20
-3.749402
  0
VERTEX
  8
PLAN_1
  6
CONTINUOUS
 10
2.280874
 20
-3.747976
  0
VERTEX
  8
PLAN_1
  6
CONTINUOUS
 10
2.285150
 20
-3.746551
  0
VERTEX
  8
PLAN_1
  6
CONTINUOUS
 10
2.288949
 20
-3.744650
  0
VERTEX
  8
PLAN_1
  6
CONTINUOUS
 10
2.292276
 20
-3.742276
  0
VERTEX
  8
PLAN_1
  6
CONTINUOUS
 10
2.295602
 20
-3.739425
  0
VERTEX
  8
PLAN_1
  6
CONTINUOUS
 10
2.298453
 20
-3.736098
  0
VERTEX
  8
PLAN_1
  6
CONTINUOUS
 10
2.300354
 20
-3.732772
  0
VERTEX
  8
PLAN_1
  6
CONTINUOUS
 10
2.302256
 20
-3.728496
  0
VERTEX
  8
PLAN_1
  6
CONTINUOUS
 10
2.303205
 20
-3.724217
  0
VERTEX
  8
PLAN_1
  6
CONTINUOUS
 10
2.303681
 20
-3.718992
  0
VERTEX
  8
PLAN_1
  6
CONTINUOUS
 10
2.303681
 20
-3.715189
  0
VERTEX
  8
PLAN_1
  6
CONTINUOUS
 10
2.303205
 20
-3.711862
  0
VERTEX
  8
PLAN_1
  6
CONTINUOUS
 10
2.302732
 20
-3.708535
  0
VERTEX
  8
PLAN_1
  6
CONTINUOUS
 10
2.301780
 20
-3.705685
  0
VERTEX
  8
PLAN_1
  6
CONTINUOUS
 10
2.300354
 20
-3.703311
  0
VERTEX
  8
PLAN_1
  6
CONTINUOUS
 10
2.298929
 20
-3.700933
  0
VERTEX
  8
PLAN_1
  6
CONTINUOUS
 10
2.297028
 20
-3.698559
  0
VERTEX
  8
PLAN_1
  6
CONTINUOUS
 10
2.294654
 20
-3.696657
  0
VERTEX
  8
PLAN_1
  6
CONTINUOUS
 10
2.292276
 20
-3.694756
  0
VERTEX
  8
PLAN_1
  6
CONTINUOUS
 10
2.288949
 20
-3.692854
  0
VERTEX
  8
PLAN_1
  6
CONTINUOUS
 10
2.285622
 20
-3.690957
  0
VERTEX
  8
PLAN_1
  6
CONTINUOUS
 10
2.281823
 20
-3.689528
  0
VERTEX
  8
PLAN_1
  6
CONTINUOUS
 10
2.272319
 20
-3.686677
  0
VERTEX
  8
PLAN_1
  6
CONTINUOUS
 10
2.261390
 20
-3.683827
  0
VERTEX
  8
PLAN_1
  6
CONTINUOUS
 10
2.220524
 20
-3.674323
  0
VERTEX
  8
PLAN_1
  6
CONTINUOUS
 10
2.214823
 20
-3.672898
  0
VERTEX
  8
PLAN_1
  6
CONTINUOUS
 10
2.208169
 20
-3.670524
  0
VERTEX
  8
PLAN_1
  6
CONTINUOUS
 10
2.204843
 20
-3.669094
  0
VERTEX
  8
PLAN_1
  6
CONTINUOUS
 10
2.201039
 20
-3.667197
  0
VERTEX
  8
PLAN_1
  6
CONTINUOUS
 10
2.197713
 20
-3.665295
  0
VERTEX
  8
PLAN_1
  6
CONTINUOUS
 10
2.194390
 20
-3.662445
  0
VERTEX
  8
PLAN_1
  6
CONTINUOUS
 10
2.191063
 20
-3.660067
  0
VERTEX
  8
PLAN_1
  6
CONTINUOUS
 10
2.187736
 20
-3.656740
  0
VERTEX
  8
PLAN_1
  6
CONTINUOUS
 10
2.185358
 20
-3.652941
  0
VERTEX
  8
PLAN_1
  6
CONTINUOUS
 10
2.182984
 20
-3.648661
  0
VERTEX
  8
PLAN_1
  6
CONTINUOUS
 10
2.180606
 20
-3.644386
  0
VERTEX
  8
PLAN_1
  6
CONTINUOUS
 10
2.179181
 20
-3.639161
  0
VERTEX
  8
PLAN_1
  6
CONTINUOUS
 10
2.178232
 20
-3.633457
  0
VERTEX
  8
PLAN_1
  6
CONTINUOUS
 10
2.177756
 20
-3.627280
  0
VERTEX
  8
PLAN_1
  6
CONTINUOUS
 10
2.178232
 20
-3.621579
  0
VERTEX
  8
PLAN_1
  6
CONTINUOUS
 10
2.178709
 20
-3.615874
  0
VERTEX
  8
PLAN_1
  6
CONTINUOUS
 10
2.180134
 20
-3.610173
  0
VERTEX
  8
PLAN_1
  6
CONTINUOUS
 10
2.182031
 20
-3.604472
  0
VERTEX
  8
PLAN_1
  6
CONTINUOUS
 10
2.183933
 20
-3.599244
  0
VERTEX
  8
PLAN_1
  6
CONTINUOUS
 10
2.186783
 20
-3.594016
  0
VERTEX
  8
PLAN_1
  6
CONTINUOUS
 10
2.190110
 20
-3.589264
  0
VERTEX
  8
PLAN_1
  6
CONTINUOUS
 10
2.193913
 20
-3.584988
  0
VERTEX
  8
PLAN_1
  6
CONTINUOUS
 10
2.198665
 20
-3.580713
  0
VERTEX
  8
PLAN_1
  6
CONTINUOUS
 10
2.203417
 20
-3.576909
  0
VERTEX
  8
PLAN_1
  6
CONTINUOUS
 10
2.209118
 20
-3.573583
  0
VERTEX
  8
PLAN_1
  6
CONTINUOUS
 10
2.215295
 20
-3.571209
  0
VERTEX
  8
PLAN_1
  6
CONTINUOUS
 10
2.222425
 20
-3.568831
  0
VERTEX
  8
PLAN_1
  6
CONTINUOUS
 10
2.229551
 20
-3.566929
  0
VERTEX
  8
PLAN_1
  6
CONTINUOUS
 10
2.237630
 20
-3.565980
  0
VERTEX
  8
PLAN_1
  6
CONTINUOUS
 10
2.246657
 20
-3.565504
  0
VERTEX
  8
PLAN_1
  6
CONTINUOUS
 10
2.252835
 20
-3.565980
  0
VERTEX
  8
PLAN_1
  6
CONTINUOUS
 10
2.259012
 20
-3.565980
  0
VERTEX
  8
PLAN_1
  6
CONTINUOUS
 10
2.264717
 20
-3.566929
  0
VERTEX
  8
PLAN_1
  6
CONTINUOUS
 10
2.269941
 20
-3.567406
  0
VERTEX
  8
PLAN_1
  6
CONTINUOUS
 10
2.274693
 20
-3.568358
  0
VERTEX
  8
PLAN_1
  6
CONTINUOUS
 10
2.279445
 20
-3.569783
  0
VERTEX
  8
PLAN_1
  6
CONTINUOUS
 10
2.283724
 20
-3.571209
  0
VERTEX
  8
PLAN_1
  6
CONTINUOUS
 10
2.288000
 20
-3.572634
  0
VERTEX
  8
PLAN_1
  6
CONTINUOUS
 10
2.291803
 20
-3.574059
  0
VERTEX
  8
PLAN_1
  6
CONTINUOUS
 10
2.295126
 20
-3.575961
  0
VERTEX
  8
PLAN_1
  6
CONTINUOUS
 10
2.298453
 20
-3.577862
  0
VERTEX
  8
PLAN_1
  6
CONTINUOUS
 10
2.301307
 20
-3.580236
  0
VERTEX
  8
PLAN_1
  6
CONTINUOUS
 10
2.306531
 20
-3.584512
  0
VERTEX
  8
PLAN_1
  6
CONTINUOUS
 10
2.311283
 20
-3.589264
  0
VERTEX
  8
PLAN_1
  6
CONTINUOUS
 10
2.314610
 20
-3.594492
  0
VERTEX
  8
PLAN_1
  6
CONTINUOUS
 10
2.317461
 20
-3.599720
  0
VERTEX
  8
PLAN_1
  6
CONTINUOUS
 10
2.319839
 20
-3.604945
  0
VERTEX
  8
PLAN_1
  6
CONTINUOUS
 10
2.321264
 20
-3.610173
  0
VERTEX
  8
PLAN_1
  6
CONTINUOUS
 10
2.322689
 20
-3.615402
  0
VERTEX
  8
PLAN_1
  6
CONTINUOUS
 10
2.323638
 20
-3.620154
  0
VERTEX
  8
PLAN_1
  6
CONTINUOUS
 10
2.324114
 20
-3.624906
  0
VERTEX
  8
PLAN_1
  6
CONTINUOUS
 10
2.324114
 20
-3.629181
  0
VERTEX
  8
PLAN_1
  6
CONTINUOUS
 10
2.298929
 20
-3.629181
  0
SEQEND
  8
0
  0
POLYLINE
  8
PLAN_1
  6
CONTINUOUS
 66
     1
 40
0.008551
 41
0.008551
  0
VERTEX
  8
PLAN_1
  6
CONTINUOUS
 10
-1.138102
 20
1.039063
  0
VERTEX
  8
PLAN_1
  6
CONTINUOUS
 10
-1.138102
 20
3.542823
  0
VERTEX
  8
PLAN_1
  6
CONTINUOUS
 10
-2.224382
 20
3.542823
  0
VERTEX
  8
PLAN_1
  6
CONTINUOUS
 10
-2.265720
 20
3.240130
  0
VERTEX
  8
PLAN_1
  6
CONTINUOUS
 10
-2.135047
 20
3.240130
  0
VERTEX
  8
PLAN_1
  6
CONTINUOUS
 10
-2.135047
 20
1.039063
  0
VERTEX
  8
PLAN_1
  6
CONTINUOUS
 10
-1.138102
 20
1.039063
  0
SEQEND
  8
0
  0
POLYLINE
  8
PLAN_1
  6
CONTINUOUS
 66
     1
 40
0.008551
 41
0.008551
  0
VERTEX
  8
PLAN_1
  6
CONTINUOUS
 10
-2.135047
 20
1.039063
  0
VERTEX
  8
PLAN_1
  6
CONTINUOUS
 10
-2.135047
 20
3.239654
  0
VERTEX
  8
PLAN_1
  6
CONTINUOUS
 10
-2.265720
 20
3.239654
  0
VERTEX
  8
PLAN_1
  6
CONTINUOUS
 10
-2.265720
 20
1.039063
  0
VERTEX
  8
PLAN_1
  6
CONTINUOUS
 10
-2.135047
 20
1.039063
  0
SEQEND
  8
0
  0
POLYLINE
  8
PLAN_1
  6
CONTINUOUS
 66
     1
 40
0.007126
 41
0.007126
  0
VERTEX
  8
PLAN_1
  6
CONTINUOUS
 10
-2.132669
 20
3.029622
  0
VERTEX
  8
PLAN_1
  6
CONTINUOUS
 10
-1.388051
 20
3.029622
  0
SEQEND
  8
0
  0
POLYLINE
  8
PLAN_1
  6
CONTINUOUS
 66
     1
 40
0.007126
 41
0.007126
  0
VERTEX
  8
PLAN_1
  6
CONTINUOUS
 10
-1.388051
 20
2.832894
  0
VERTEX
  8
PLAN_1
  6
CONTINUOUS
 10
-1.388051
 20
3.540925
  0
SEQEND
  8
0
  0
POLYLINE
  8
PLAN_1
  6
CONTINUOUS
 66
     1
 40
0.008551
 41
0.008551
  0
VERTEX
  8
PLAN_1
  6
CONTINUOUS
 10
-2.265720
 20
2.732630
  0
VERTEX
  8
PLAN_1
  6
CONTINUOUS
 10
-2.265720
 20
2.918902
  0
VERTEX
  8
PLAN_1
  6
CONTINUOUS
 10
-2.332724
 20
2.918902
  0
VERTEX
  8
PLAN_1
  6
CONTINUOUS
 10
-2.332724
 20
2.732630
  0
VERTEX
  8
PLAN_1
  6
CONTINUOUS
 10
-2.265720
 20
2.732630
  0
SEQEND
  8
0
  0
POLYLINE
  8
PLAN_1
  6
CONTINUOUS
 66
     1
 40
0.008551
 41
0.008551
  0
VERTEX
  8
PLAN_1
  6
CONTINUOUS
 10
-1.242169
 20
0.535362
  0
VERTEX
  8
PLAN_1
  6
CONTINUOUS
 10
-1.242169
 20
0.620421
  0
VERTEX
  8
PLAN_1
  6
CONTINUOUS
 10
-2.045236
 20
0.620421
  0
VERTEX
  8
PLAN_1
  6
CONTINUOUS
 10
-2.045236
 20
0.535362
  0
VERTEX
  8
PLAN_1
  6
CONTINUOUS
 10
-1.242169
 20
0.535362
  0
SEQEND
  8
0
  0
POLYLINE
  8
PLAN_1
  6
CONTINUOUS
 66
     1
 40
0.008551
 41
0.008551
  0
VERTEX
  8
PLAN_1
  6
CONTINUOUS
 10
-1.139528
 20
0.620421
  0
VERTEX
  8
PLAN_1
  6
CONTINUOUS
 10
-1.139528
 20
1.039063
  0
VERTEX
  8
PLAN_1
  6
CONTINUOUS
 10
-2.135047
 20
1.039063
  0
VERTEX
  8
PLAN_1
  6
CONTINUOUS
 10
-2.135047
 20
0.620421
  0
VERTEX
  8
PLAN_1
  6
CONTINUOUS
 10
-1.139528
 20
0.620421
  0
SEQEND
  8
0
  0
POLYLINE
  8
PLAN_1
  6
CONTINUOUS
 66
     1
 40
0.008551
 41
0.008551
  0
VERTEX
  8
PLAN_1
  6
CONTINUOUS
 10
-1.194650
 20
0.360492
  0
VERTEX
  8
PLAN_1
  6
CONTINUOUS
 10
-1.194650
 20
0.535362
  0
VERTEX
  8
PLAN_1
  6
CONTINUOUS
 10
-2.079925
 20
0.535362
  0
VERTEX
  8
PLAN_1
  6
CONTINUOUS
 10
-2.079925
 20
0.360492
  0
VERTEX
  8
PLAN_1
  6
CONTINUOUS
 10
-1.194650
 20
0.360492
  0
SEQEND
  8
0
  0
POLYLINE
  8
PLAN_1
  6
CONTINUOUS
 66
     1
 40
0.008551
 41
0.008551
  0
VERTEX
  8
PLAN_1
  6
CONTINUOUS
 10
-2.082299
 20
0.441276
  0
VERTEX
  8
PLAN_1
  6
CONTINUOUS
 10
-2.070894
 20
0.432248
  0
VERTEX
  8
PLAN_1
  6
CONTINUOUS
 10
-2.059016
 20
0.423693
  0
VERTEX
  8
PLAN_1
  6
CONTINUOUS
 10
-2.047134
 20
0.415614
  0
VERTEX
  8
PLAN_1
  6
CONTINUOUS
 10
-2.034307
 20
0.408012
  0
VERTEX
  8
PLAN_1
  6
CONTINUOUS
 10
-2.021476
 20
0.401358
  0
VERTEX
  8
PLAN_1
  6
CONTINUOUS
 10
-2.008169
 20
0.394709
  0
VERTEX
  8
PLAN_1
  6
CONTINUOUS
 10
-1.994866
 20
0.388531
  0
VERTEX
  8
PLAN_1
  6
CONTINUOUS
 10
-1.981083
 20
0.383303
  0
VERTEX
  8
PLAN_1
  6
CONTINUOUS
 10
-1.966831
 20
0.378551
  0
VERTEX
  8
PLAN_1
  6
CONTINUOUS
 10
-1.952575
 20
0.374276
  0
VERTEX
  8
PLAN_1
  6
CONTINUOUS
 10
-1.937843
 20
0.370949
  0
VERTEX
  8
PLAN_1
  6
CONTINUOUS
 10
-1.923110
 20
0.367622
  0
VERTEX
  8
PLAN_1
  6
CONTINUOUS
 10
-1.907906
 20
0.365720
  0
VERTEX
  8
PLAN_1
  6
CONTINUOUS
 10
-1.892701
 20
0.363819
  0
VERTEX
  8
PLAN_1
  6
CONTINUOUS
 10
-1.877492
 20
0.362870
  0
VERTEX
  8
PLAN_1
  6
CONTINUOUS
 10
-1.861811
 20
0.362394
  0
VERTEX
  8
PLAN_1
  6
CONTINUOUS
 10
-1.846130
 20
0.362870
  0
VERTEX
  8
PLAN_1
  6
CONTINUOUS
 10
-1.830925
 20
0.363346
  0
VERTEX
  8
PLAN_1
  6
CONTINUOUS
 10
-1.816193
 20
0.364772
  0
VERTEX
  8
PLAN_1
  6
CONTINUOUS
 10
-1.802413
 20
0.366669
  0
VERTEX
  8
PLAN_1
  6
CONTINUOUS
 10
-1.788634
 20
0.369524
  0
VERTEX
  8
PLAN_1
  6
CONTINUOUS
 10
-1.774854
 20
0.372374
  0
VERTEX
  8
PLAN_1
  6
CONTINUOUS
 10
-1.761547
 20
0.376173
  0
VERTEX
  8
PLAN_1
  6
CONTINUOUS
 10
-1.748717
 20
0.380925
  0
VERTEX
  8
PLAN_1
  6
CONTINUOUS
 10
-1.735413
 20
0.385677
  0
VERTEX
  8
PLAN_1
  6
CONTINUOUS
 10
-1.722583
 20
0.391854
  0
VERTEX
  8
PLAN_1
  6
CONTINUOUS
 10
-1.709276
 20
0.398031
  0
VERTEX
  8
PLAN_1
  6
CONTINUOUS
 10
-1.695972
 20
0.405161
  0
VERTEX
  8
PLAN_1
  6
CONTINUOUS
 10
-1.682665
 20
0.413240
  0
VERTEX
  8
PLAN_1
  6
CONTINUOUS
 10
-1.668886
 20
0.421791
  0
VERTEX
  8
PLAN_1
  6
CONTINUOUS
 10
-1.655106
 20
0.431295
  0
VERTEX
  8
PLAN_1
  6
CONTINUOUS
 10
-1.640850
 20
0.441276
  0
VERTEX
  8
PLAN_1
  6
CONTINUOUS
 10
-1.630398
 20
0.433197
  0
VERTEX
  8
PLAN_1
  6
CONTINUOUS
 10
-1.618992
 20
0.425118
  0
VERTEX
  8
PLAN_1
  6
CONTINUOUS
 10
-1.607587
 20
0.417516
  0
VERTEX
  8
PLAN_1
  6
CONTINUOUS
 10
-1.595232
 20
0.410390
  0
VERTEX
  8
PLAN_1
  6
CONTINUOUS
 10
-1.582402
 20
0.403260
  0
VERTEX
  8
PLAN_1
  6
CONTINUOUS
 10
-1.569098
 20
0.397083
  0
VERTEX
  8
PLAN_1
  6
CONTINUOUS
 10
-1.555791
 20
0.390906
  0
VERTEX
  8
PLAN_1
  6
CONTINUOUS
 10
-1.541535
 20
0.385205
  0
VERTEX
  8
PLAN_1
  6
CONTINUOUS
 10
-1.527280
 20
0.380453
  0
VERTEX
  8
PLAN_1
  6
CONTINUOUS
 10
-1.512551
 20
0.375701
  0
VERTEX
  8
PLAN_1
  6
CONTINUOUS
 10
-1.497343
 20
0.371898
  0
VERTEX
  8
PLAN_1
  6
CONTINUOUS
 10
-1.482138
 20
0.368571
  0
VERTEX
  8
PLAN_1
  6
CONTINUOUS
 10
-1.466933
 20
0.365720
  0
VERTEX
  8
PLAN_1
  6
CONTINUOUS
 10
-1.451252
 20
0.363819
  0
VERTEX
  8
PLAN_1
  6
CONTINUOUS
 10
-1.435571
 20
0.362870
  0
VERTEX
  8
PLAN_1
  6
CONTINUOUS
 10
-1.419890
 20
0.362394
  0
VERTEX
  8
PLAN_1
  6
CONTINUOUS
 10
-1.404209
 20
0.362870
  0
VERTEX
  8
PLAN_1
  6
CONTINUOUS
 10
-1.388528
 20
0.363819
  0
VERTEX
  8
PLAN_1
  6
CONTINUOUS
 10
-1.372846
 20
0.365720
  0
VERTEX
  8
PLAN_1
  6
CONTINUOUS
 10
-1.357638
 20
0.368098
  0
VERTEX
  8
PLAN_1
  6
CONTINUOUS
 10
-1.342433
 20
0.370949
  0
VERTEX
  8
PLAN_1
  6
CONTINUOUS
 10
-1.327701
 20
0.374748
  0
VERTEX
  8
PLAN_1
  6
CONTINUOUS
 10
-1.312972
 20
0.379028
  0
VERTEX
  8
PLAN_1
  6
CONTINUOUS
 10
-1.298717
 20
0.384252
  0
VERTEX
  8
PLAN_1
  6
CONTINUOUS
 10
-1.284933
 20
0.389480
  0
VERTEX
  8
PLAN_1
  6
CONTINUOUS
 10
-1.271154
 20
0.395657
  0
VERTEX
  8
PLAN_1
  6
CONTINUOUS
 10
-1.257850
 20
0.402311
  0
VERTEX
  8
PLAN_1
  6
CONTINUOUS
 10
-1.244543
 20
0.409437
  0
VERTEX
  8
PLAN_1
  6
CONTINUOUS
 10
-1.232189
 20
0.417516
  0
VERTEX
  8
PLAN_1
  6
CONTINUOUS
 10
-1.219835
 20
0.425594
  0
VERTEX
  8
PLAN_1
  6
CONTINUOUS
 10
-1.207953
 20
0.434622
  0
VERTEX
  8
PLAN_1
  6
CONTINUOUS
 10
-1.196075
 20
0.443650
  0
SEQEND
  8
0
  0
POLYLINE
  8
PLAN_1
  6
CONTINUOUS
 66
     1
 40
0.008551
 41
0.008551
  0
VERTEX
  8
PLAN_1
  6
CONTINUOUS
 10
-1.640850
 20
0.535362
  0
VERTEX
  8
PLAN_1
  6
CONTINUOUS
 10
-1.640850
 20
0.440327
  0
SEQEND
  8
0
  0
POLYLINE
  8
PLAN_1
  6
CONTINUOUS
 66
     1
 40
0.008551
 41
0.008551
  0
VERTEX
  8
PLAN_1
  6
CONTINUOUS
 10
-2.265720
 20
1.072799
  0
VERTEX
  8
PLAN_1
  6
CONTINUOUS
 10
-2.265720
 20
1.259075
  0
VERTEX
  8
PLAN_1
  6
CONTINUOUS
 10
-2.332724
 20
1.259075
  0
VERTEX
  8
PLAN_1
  6
CONTINUOUS
 10
-2.332724
 20
1.072799
  0
VERTEX
  8
PLAN_1
  6
CONTINUOUS
 10
-2.265720
 20
1.072799
  0
SEQEND
  8
0
  0
POLYLINE
  8
PLAN_1
  6
CONTINUOUS
 66
     1
 40
0.008551
 41
0.008551
  0
VERTEX
  8
PLAN_1
  6
CONTINUOUS
 10
-2.196346
 20
3.239181
  0
VERTEX
  8
PLAN_1
  6
CONTINUOUS
 10
-2.196346
 20
1.040012
  0
SEQEND
  8
0
  0
POLYLINE
  8
PLAN_1
 62
     2
  6
CONTINUOUS
 66
     1
 40
0.004276
 41
0.004276
  0
VERTEX
  8
PLAN_1
 62
     2
  6
CONTINUOUS
 10
-1.355264
 20
3.701063
  0
VERTEX
  8
PLAN_1
 62
     2
  6
CONTINUOUS
 10
-1.172791
 20
3.701063
  0
SEQEND
  8
0
  0
SOLID
  8
PLAN_1
 62
     2
 10
-1.143331
 20
3.701063
 11
-1.202252
 21
3.717217
 12
-1.143331
 22
3.701063
 13
-1.202252
 23
3.685382
  0
POLYLINE
  8
PLAN_1
 62
     2
  6
CONTINUOUS
 66
     1
 40
0.003000
 41
0.003000
  0
VERTEX
  8
PLAN_1
 62
     2
  6
CONTINUOUS
 10
-1.143331
 20
3.701063
  0
VERTEX
  8
PLAN_1
 62
     2
  6
CONTINUOUS
 10
-1.202252
 20
3.717217
  0
VERTEX
  8
PLAN_1
 62
     2
  6
CONTINUOUS
 10
-1.202252
 20
3.685382
  0
VERTEX
  8
PLAN_1
 62
     2
  6
CONTINUOUS
 10
-1.143331
 20
3.701063
  0
SEQEND
  8
0
  0
SOLID
  8
PLAN_1
 62
     2
 10
-1.384724
 20
3.701063
 11
-1.325327
 21
3.717217
 12
-1.384724
 22
3.701063
 13
-1.325327
 23
3.685382
  0
POLYLINE
  8
PLAN_1
 62
     2
  6
CONTINUOUS
 66
     1
 40
0.003000
 41
0.003000
  0
VERTEX
  8
PLAN_1
 62
     2
  6
CONTINUOUS
 10
-1.384724
 20
3.701063
  0
VERTEX
  8
PLAN_1
 62
     2
  6
CONTINUOUS
 10
-1.325327
 20
3.717217
  0
VERTEX
  8
PLAN_1
 62
     2
  6
CONTINUOUS
 10
-1.325327
 20
3.685382
  0
VERTEX
  8
PLAN_1
 62
     2
  6
CONTINUOUS
 10
-1.384724
 20
3.701063
  0
SEQEND
  8
0
  0
POLYLINE
  8
PLAN_1
 62
     2
  6
CONTINUOUS
 66
     1
 40
0.003000
 41
0.003000
  0
VERTEX
  8
PLAN_1
 62
     2
  6
CONTINUOUS
 10
-1.249772
 20
3.778516
  0
VERTEX
  8
PLAN_1
 62
     2
  6
CONTINUOUS
 10
-1.250248
 20
3.780894
  0
VERTEX
  8
PLAN_1
 62
     2
  6
CONTINUOUS
 10
-1.250720
 20
3.782795
  0
VERTEX
  8
PLAN_1
 62
     2
  6
CONTINUOUS
 10
-1.252146
 20
3.784693
  0
VERTEX
  8
PLAN_1
 62
     2
  6
CONTINUOUS
 10
-1.253098
 20
3.786594
  0
VERTEX
  8
PLAN_1
 62
     2
  6
CONTINUOUS
 10
-1.255000
 20
3.788020
  0
VERTEX
  8
PLAN_1
 62
     2
  6
CONTINUOUS
 10
-1.256898
 20
3.788972
  0
VERTEX
  8
PLAN_1
 62
     2
  6
CONTINUOUS
 10
-1.259276
 20
3.789445
  0
VERTEX
  8
PLAN_1
 62
     2
  6
CONTINUOUS
 10
-1.262126
 20
3.789921
  0
VERTEX
  8
PLAN_1
 62
     2
  6
CONTINUOUS
 10
-1.264500
 20
3.789445
  0
VERTEX
  8
PLAN_1
 62
     2
  6
CONTINUOUS
 10
-1.266878
 20
3.788972
  0
VERTEX
  8
PLAN_1
 62
     2
  6
CONTINUOUS
 10
-1.269252
 20
3.788020
  0
VERTEX
  8
PLAN_1
 62
     2
  6
CONTINUOUS
 10
-1.270681
 20
3.786594
  0
VERTEX
  8
PLAN_1
 62
     2
  6
CONTINUOUS
 10
-1.272579
 20
3.785169
  0
VERTEX
  8
PLAN_1
 62
     2
  6
CONTINUOUS
 10
-1.274004
 20
3.783268
  0
VERTEX
  8
PLAN_1
 62
     2
  6
CONTINUOUS
 10
-1.274957
 20
3.781370
  0
VERTEX
  8
PLAN_1
 62
     2
  6
CONTINUOUS
 10
-1.276382
 20
3.778992
  0
VERTEX
  8
PLAN_1
 62
     2
  6
CONTINUOUS
 10
-1.277807
 20
3.774717
  0
VERTEX
  8
PLAN_1
 62
     2
  6
CONTINUOUS
 10
-1.278756
 20
3.769965
  0
VERTEX
  8
PLAN_1
 62
     2
  6
CONTINUOUS
 10
-1.279232
 20
3.766161
  0
VERTEX
  8
PLAN_1
 62
     2
  6
CONTINUOUS
 10
-1.279709
 20
3.762835
  0
VERTEX
  8
PLAN_1
 62
     2
  6
CONTINUOUS
 10
-1.279232
 20
3.762362
  0
VERTEX
  8
PLAN_1
 62
     2
  6
CONTINUOUS
 10
-1.278283
 20
3.764260
  0
VERTEX
  8
PLAN_1
 62
     2
  6
CONTINUOUS
 10
-1.276858
 20
3.765689
  0
VERTEX
  8
PLAN_1
 62
     2
  6
CONTINUOUS
 10
-1.275433
 20
3.767114
  0
VERTEX
  8
PLAN_1
 62
     2
  6
CONTINUOUS
 10
-1.273531
 20
3.768539
  0
VERTEX
  8
PLAN_1
 62
     2
  6
CONTINUOUS
 10
-1.271154
 20
3.769488
  0
VERTEX
  8
PLAN_1
 62
     2
  6
CONTINUOUS
 10
-1.268303
 20
3.770441
  0
VERTEX
  8
PLAN_1
 62
     2
  6
CONTINUOUS
 10
-1.265453
 20
3.771390
  0
VERTEX
  8
PLAN_1
 62
     2
  6
CONTINUOUS
 10
-1.262126
 20
3.771390
  0
VERTEX
  8
PLAN_1
 62
     2
  6
CONTINUOUS
 10
-1.258323
 20
3.771390
  0
VERTEX
  8
PLAN_1
 62
     2
  6
CONTINUOUS
 10
-1.254524
 20
3.770441
  0
VERTEX
  8
PLAN_1
 62
     2
  6
CONTINUOUS
 10
-1.250720
 20
3.768539
  0
VERTEX
  8
PLAN_1
 62
     2
  6
CONTINUOUS
 10
-1.246921
 20
3.766638
  0
VERTEX
  8
PLAN_1
 62
     2
  6
CONTINUOUS
 10
-1.245496
 20
3.764736
  0
VERTEX
  8
PLAN_1
 62
     2
  6
CONTINUOUS
 10
-1.244067
 20
3.763311
  0
VERTEX
  8
PLAN_1
 62
     2
  6
CONTINUOUS
 10
-1.242642
 20
3.761409
  0
VERTEX
  8
PLAN_1
 62
     2
  6
CONTINUOUS
 10
-1.241217
 20
3.759035
  0
VERTEX
  8
PLAN_1
 62
     2
  6
CONTINUOUS
 10
-1.240268
 20
3.756657
  0
VERTEX
  8
PLAN_1
 62
     2
  6
CONTINUOUS
 10
-1.239791
 20
3.754283
  0
VERTEX
  8
PLAN_1
 62
     2
  6
CONTINUOUS
 10
-1.239315
 20
3.751433
  0
VERTEX
  8
PLAN_1
 62
     2
  6
CONTINUOUS
 10
-1.238843
 20
3.748106
  0
VERTEX
  8
PLAN_1
 62
     2
  6
CONTINUOUS
 10
-1.239315
 20
3.745728
  0
VERTEX
  8
PLAN_1
 62
     2
  6
CONTINUOUS
 10
-1.239315
 20
3.742878
  0
VERTEX
  8
PLAN_1
 62
     2
  6
CONTINUOUS
 10
-1.239791
 20
3.740504
  0
VERTEX
  8
PLAN_1
 62
     2
  6
CONTINUOUS
 10
-1.240744
 20
3.738126
  0
VERTEX
  8
PLAN_1
 62
     2
  6
CONTINUOUS
 10
-1.241693
 20
3.736224
  0
VERTEX
  8
PLAN_1
 62
     2
  6
CONTINUOUS
 10
-1.242642
 20
3.733850
  0
VERTEX
  8
PLAN_1
 62
     2
  6
CONTINUOUS
 10
-1.244067
 20
3.731949
  0
VERTEX
  8
PLAN_1
 62
     2
  6
CONTINUOUS
 10
-1.245969
 20
3.730047
  0
VERTEX
  8
PLAN_1
 62
     2
  6
CONTINUOUS
 10
-1.247394
 20
3.728622
  0
VERTEX
  8
PLAN_1
 62
     2
  6
CONTINUOUS
 10
-1.249295
 20
3.727197
  0
VERTEX
  8
PLAN_1
 62
     2
  6
CONTINUOUS
 10
-1.250720
 20
3.725772
  0
VERTEX
  8
PLAN_1
 62
     2
  6
CONTINUOUS
 10
-1.252622
 20
3.724823
  0
VERTEX
  8
PLAN_1
 62
     2
  6
CONTINUOUS
 10
-1.255000
 20
3.723870
  0
VERTEX
  8
PLAN_1
 62
     2
  6
CONTINUOUS
 10
-1.257850
 20
3.723394
  0
VERTEX
  8
PLAN_1
 62
     2
  6
CONTINUOUS
 10
-1.260701
 20
3.722921
  0
VERTEX
  8
PLAN_1
 62
     2
  6
CONTINUOUS
 10
-1.264500
 20
3.722921
  0
VERTEX
  8
PLAN_1
 62
     2
  6
CONTINUOUS
 10
-1.266878
 20
3.722921
  0
VERTEX
  8
PLAN_1
 62
     2
  6
CONTINUOUS
 10
-1.269252
 20
3.723394
  0
VERTEX
  8
PLAN_1
 62
     2
  6
CONTINUOUS
 10
-1.271630
 20
3.723870
  0
VERTEX
  8
PLAN_1
 62
     2
  6
CONTINUOUS
 10
-1.274004
 20
3.725295
  0
VERTEX
  8
PLAN_1
 62
     2
  6
CONTINUOUS
 10
-1.276382
 20
3.726720
  0
VERTEX
  8
PLAN_1
 62
     2
  6
CONTINUOUS
 10
-1.279232
 20
3.728622
  0
VERTEX
  8
PLAN_1
 62
     2
  6
CONTINUOUS
 10
-1.281134
 20
3.730524
  0
VERTEX
  8
PLAN_1
 62
     2
  6
CONTINUOUS
 10
-1.283508
 20
3.733374
  0
VERTEX
  8
PLAN_1
 62
     2
  6
CONTINUOUS
 10
-1.284933
 20
3.736224
  0
VERTEX
  8
PLAN_1
 62
     2
  6
CONTINUOUS
 10
-1.285886
 20
3.739075
  0
VERTEX
  8
PLAN_1
 62
     2
  6
CONTINUOUS
 10
-1.286835
 20
3.741929
  0
VERTEX
  8
PLAN_1
 62
     2
  6
CONTINUOUS
 10
-1.287787
 20
3.745256
  0
VERTEX
  8
PLAN_1
 62
     2
  6
CONTINUOUS
 10
-1.288260
 20
3.748579
  0
VERTEX
  8
PLAN_1
 62
     2
  6
CONTINUOUS
 10
-1.288736
 20
3.751906
  0
VERTEX
  8
PLAN_1
 62
     2
  6
CONTINUOUS
 10
-1.288736
 20
3.755232
  0
VERTEX
  8
PLAN_1
 62
     2
  6
CONTINUOUS
 10
-1.289213
 20
3.759035
  0
VERTEX
  8
PLAN_1
 62
     2
  6
CONTINUOUS
 10
-1.288736
 20
3.765213
  0
VERTEX
  8
PLAN_1
 62
     2
  6
CONTINUOUS
 10
-1.287787
 20
3.771866
  0
VERTEX
  8
PLAN_1
 62
     2
  6
CONTINUOUS
 10
-1.287311
 20
3.775193
  0
VERTEX
  8
PLAN_1
 62
     2
  6
CONTINUOUS
 10
-1.286362
 20
3.778516
  0
VERTEX
  8
PLAN_1
 62
     2
  6
CONTINUOUS
 10
-1.284933
 20
3.781370
  0
VERTEX
  8
PLAN_1
 62
     2
  6
CONTINUOUS
 10
-1.283508
 20
3.784220
  0
VERTEX
  8
PLAN_1
 62
     2
  6
CONTINUOUS
 10
-1.282083
 20
3.787071
  0
VERTEX
  8
PLAN_1
 62
     2
  6
CONTINUOUS
 10
-1.280181
 20
3.789921
  0
VERTEX
  8
PLAN_1
 62
     2
  6
CONTINUOUS
 10
-1.277807
 20
3.792299
  0
VERTEX
  8
PLAN_1
 62
     2
  6
CONTINUOUS
 10
-1.275433
 20
3.794197
  0
VERTEX
  8
PLAN_1
 62
     2
  6
CONTINUOUS
 10
-1.272579
 20
3.795626
  0
VERTEX
  8
PLAN_1
 62
     2
  6
CONTINUOUS
 10
-1.269252
 20
3.797051
  0
VERTEX
  8
PLAN_1
 62
     2
  6
CONTINUOUS
 10
-1.265929
 20
3.797524
  0
VERTEX
  8
PLAN_1
 62
     2
  6
CONTINUOUS
 10
-1.262126
 20
3.798000
  0
VERTEX
  8
PLAN_1
 62
     2
  6
CONTINUOUS
 10
-1.258799
 20
3.798000
  0
VERTEX
  8
PLAN_1
 62
     2
  6
CONTINUOUS
 10
-1.255000
 20
3.797051
  0
VERTEX
  8
PLAN_1
 62
     2
  6
CONTINUOUS
 10
-1.251673
 20
3.795626
  0
VERTEX
  8
PLAN_1
 62
     2
  6
CONTINUOUS
 10
-1.248346
 20
3.793724
  0
VERTEX
  8
PLAN_1
 62
     2
  6
CONTINUOUS
 10
-1.245496
 20
3.791346
  0
VERTEX
  8
PLAN_1
 62
     2
  6
CONTINUOUS
 10
-1.243118
 20
3.788020
  0
VERTEX
  8
PLAN_1
 62
     2
  6
CONTINUOUS
 10
-1.242169
 20
3.785646
  0
VERTEX
  8
PLAN_1
 62
     2
  6
CONTINUOUS
 10
-1.241217
 20
3.783744
  0
VERTEX
  8
PLAN_1
 62
     2
  6
CONTINUOUS
 10
-1.240744
 20
3.781370
  0
VERTEX
  8
PLAN_1
 62
     2
  6
CONTINUOUS
 10
-1.240744
 20
3.778516
  0
VERTEX
  8
PLAN_1
 62
     2
  6
CONTINUOUS
 10
-1.249772
 20
3.778516
  0
SEQEND
  8
0
  0
POLYLINE
  8
PLAN_1
 62
     2
  6
CONTINUOUS
 66
     1
 40
0.003000
 41
0.003000
  0
VERTEX
  8
PLAN_1
 62
     2
  6
CONTINUOUS
 10
-1.263075
 20
3.731000
  0
VERTEX
  8
PLAN_1
 62
     2
  6
CONTINUOUS
 10
-1.259748
 20
3.731472
  0
VERTEX
  8
PLAN_1
 62
     2
  6
CONTINUOUS
 10
-1.256898
 20
3.732425
  0
VERTEX
  8
PLAN_1
 62
     2
  6
CONTINUOUS
 10
-1.254524
 20
3.733850
  0
VERTEX
  8
PLAN_1
 62
     2
  6
CONTINUOUS
 10
-1.252622
 20
3.735752
  0
VERTEX
  8
PLAN_1
 62
     2
  6
CONTINUOUS
 10
-1.250720
 20
3.738126
  0
VERTEX
  8
PLAN_1
 62
     2
  6
CONTINUOUS
 10
-1.249295
 20
3.740976
  0
VERTEX
  8
PLAN_1
 62
     2
  6
CONTINUOUS
 10
-1.248819
 20
3.744303
  0
VERTEX
  8
PLAN_1
 62
     2
  6
CONTINUOUS
 10
-1.248346
 20
3.747630
  0
VERTEX
  8
PLAN_1
 62
     2
  6
CONTINUOUS
 10
-1.248819
 20
3.750480
  0
VERTEX
  8
PLAN_1
 62
     2
  6
CONTINUOUS
 10
-1.249295
 20
3.752858
  0
VERTEX
  8
PLAN_1
 62
     2
  6
CONTINUOUS
 10
-1.250248
 20
3.755709
  0
VERTEX
  8
PLAN_1
 62
     2
  6
CONTINUOUS
 10
-1.251673
 20
3.758083
  0
VERTEX
  8
PLAN_1
 62
     2
  6
CONTINUOUS
 10
-1.253571
 20
3.759984
  0
VERTEX
  8
PLAN_1
 62
     2
  6
CONTINUOUS
 10
-1.256425
 20
3.761886
  0
VERTEX
  8
PLAN_1
 62
     2
  6
CONTINUOUS
 10
-1.259276
 20
3.762835
  0
VERTEX
  8
PLAN_1
 62
     2
  6
CONTINUOUS
 10
-1.263075
 20
3.763311
  0
VERTEX
  8
PLAN_1
 62
     2
  6
CONTINUOUS
 10
-1.266878
 20
3.762835
  0
VERTEX
  8
PLAN_1
 62
     2
  6
CONTINUOUS
 10
-1.269728
 20
3.761886
  0
VERTEX
  8
PLAN_1
 62
     2
  6
CONTINUOUS
 10
-1.272579
 20
3.760461
  0
VERTEX
  8
PLAN_1
 62
     2
  6
CONTINUOUS
 10
-1.274480
 20
3.758559
  0
VERTEX
  8
PLAN_1
 62
     2
  6
CONTINUOUS
 10
-1.276382
 20
3.756185
  0
VERTEX
  8
PLAN_1
 62
     2
  6
CONTINUOUS
 10
-1.277331
 20
3.753331
  0
VERTEX
  8
PLAN_1
 62
     2
  6
CONTINUOUS
 10
-1.277807
 20
3.750480
  0
VERTEX
  8
PLAN_1
 62
     2
  6
CONTINUOUS
 10
-1.278283
 20
3.747154
  0
VERTEX
  8
PLAN_1
 62
     2
  6
CONTINUOUS
 10
-1.277807
 20
3.744303
  0
VERTEX
  8
PLAN_1
 62
     2
  6
CONTINUOUS
 10
-1.277331
 20
3.741453
  0
VERTEX
  8
PLAN_1
 62
     2
  6
CONTINUOUS
 10
-1.276382
 20
3.738602
  0
VERTEX
  8
PLAN_1
 62
     2
  6
CONTINUOUS
 10
-1.274480
 20
3.736224
  0
VERTEX
  8
PLAN_1
 62
     2
  6
CONTINUOUS
 10
-1.272579
 20
3.734327
  0
VERTEX
  8
PLAN_1
 62
     2
  6
CONTINUOUS
 10
-1.269728
 20
3.732425
  0
VERTEX
  8
PLAN_1
 62
     2
  6
CONTINUOUS
 10
-1.266402
 20
3.731472
  0
VERTEX
  8
PLAN_1
 62
     2
  6
CONTINUOUS
 10
-1.263075
 20
3.731000
  0
SEQEND
  8
0
  0
POLYLINE
  8
PLAN_1
 62
     2
  6
CONTINUOUS
 66
     1
 40
0.004276
 41
0.004276
  0
VERTEX
  8
PLAN_1
 62
     2
  6
CONTINUOUS
 10
-0.981291
 20
0.651307
  0
VERTEX
  8
PLAN_1
 62
     2
  6
CONTINUOUS
 10
-0.981291
 20
3.516213
  0
SEQEND
  8
0
  0
SOLID
  8
PLAN_1
 62
     2
 10
-0.981291
 20
3.545677
 11
-0.996972
 21
3.486752
 12
-0.981291
 22
3.545677
 13
-0.965610
 23
3.486752
  0
POLYLINE
  8
PLAN_1
 62
     2
  6
CONTINUOUS
 66
     1
 40
0.003000
 41
0.003000
  0
VERTEX
  8
PLAN_1
 62
     2
  6
CONTINUOUS
 10
-0.981291
 20
3.545677
  0
VERTEX
  8
PLAN_1
 62
     2
  6
CONTINUOUS
 10
-0.996972
 20
3.486752
  0
VERTEX
  8
PLAN_1
 62
     2
  6
CONTINUOUS
 10
-0.965610
 20
3.486752
  0
VERTEX
  8
PLAN_1
 62
     2
  6
CONTINUOUS
 10
-0.981291
 20
3.545677
  0
SEQEND
  8
0
  0
SOLID
  8
PLAN_1
 62
     2
 10
-0.981291
 20
0.621846
 11
-0.996972
 21
0.680772
 12
-0.981291
 22
0.621846
 13
-0.965610
 23
0.680772
  0
POLYLINE
  8
PLAN_1
 62
     2
  6
CONTINUOUS
 66
     1
 40
0.003000
 41
0.003000
  0
VERTEX
  8
PLAN_1
 62
     2
  6
CONTINUOUS
 10
-0.981291
 20
0.621846
  0
VERTEX
  8
PLAN_1
 62
     2
  6
CONTINUOUS
 10
-0.996972
 20
0.680772
  0
VERTEX
  8
PLAN_1
 62
     2
  6
CONTINUOUS
 10
-0.965610
 20
0.680772
  0
VERTEX
  8
PLAN_1
 62
     2
  6
CONTINUOUS
 10
-0.981291
 20
0.621846
  0
SEQEND
  8
0
  0
POLYLINE
  8
PLAN_1
 62
     2
  6
CONTINUOUS
 66
     1
 40
0.003000
 41
0.003000
  0
VERTEX
  8
PLAN_1
 62
     2
  6
CONTINUOUS
 10
-1.076327
 20
2.029350
  0
VERTEX
  8
PLAN_1
 62
     2
  6
CONTINUOUS
 10
-1.076327
 20
2.080197
  0
VERTEX
  8
PLAN_1
 62
     2
  6
CONTINUOUS
 10
-1.068248
 20
2.080197
  0
VERTEX
  8
PLAN_1
 62
     2
  6
CONTINUOUS
 10
-1.064921
 20
2.076870
  0
VERTEX
  8
PLAN_1
 62
     2
  6
CONTINUOUS
 10
-1.059697
 20
2.073071
  0
VERTEX
  8
PLAN_1
 62
     2
  6
CONTINUOUS
 10
-1.053520
 20
2.068791
  0
VERTEX
  8
PLAN_1
 62
     2
  6
CONTINUOUS
 10
-1.045917
 20
2.064516
  0
VERTEX
  8
PLAN_1
 62
     2
  6
CONTINUOUS
 10
-1.037362
 20
2.059764
  0
VERTEX
  8
PLAN_1
 62
     2
  6
CONTINUOUS
 10
-1.027382
 20
2.055965
  0
VERTEX
  8
PLAN_1
 62
     2
  6
CONTINUOUS
 10
-1.022157
 20
2.054063
  0
VERTEX
  8
PLAN_1
 62
     2
  6
CONTINUOUS
 10
-1.016453
 20
2.052638
  0
VERTEX
  8
PLAN_1
 62
     2
  6
CONTINUOUS
 10
-1.010752
 20
2.051213
  0
VERTEX
  8
PLAN_1
 62
     2
  6
CONTINUOUS
 10
-1.004575
 20
2.050260
  0
VERTEX
  8
PLAN_1
 62
     2
  6
CONTINUOUS
 10
-1.004575
 20
2.039807
  0
VERTEX
  8
PLAN_1
 62
     2
  6
CONTINUOUS
 10
-1.012654
 20
2.041232
  0
VERTEX
  8
PLAN_1
 62
     2
  6
CONTINUOUS
 10
-1.020732
 20
2.043606
  0
VERTEX
  8
PLAN_1
 62
     2
  6
CONTINUOUS
 10
-1.029283
 20
2.046933
  0
VERTEX
  8
PLAN_1
 62
     2
  6
CONTINUOUS
 10
-1.037362
 20
2.050736
  0
VERTEX
  8
PLAN_1
 62
     2
  6
CONTINUOUS
 10
-1.045917
 20
2.055012
  0
VERTEX
  8
PLAN_1
 62
     2
  6
CONTINUOUS
 10
-1.053520
 20
2.059764
  0
VERTEX
  8
PLAN_1
 62
     2
  6
CONTINUOUS
 10
-1.060646
 20
2.064516
  0
VERTEX
  8
PLAN_1
 62
     2
  6
CONTINUOUS
 10
-1.067299
 20
2.069744
  0
VERTEX
  8
PLAN_1
 62
     2
  6
CONTINUOUS
 10
-1.067299
 20
2.029350
  0
VERTEX
  8
PLAN_1
 62
     2
  6
CONTINUOUS
 10
-1.076327
 20
2.029350
  0
SEQEND
  8
0
  0
POLYLINE
  8
PLAN_1
 62
     2
  6
CONTINUOUS
 66
     1
 40
0.003000
 41
0.003000
  0
VERTEX
  8
PLAN_1
 62
     2
  6
CONTINUOUS
 10
-1.051618
 20
2.088276
  0
VERTEX
  8
PLAN_1
 62
     2
  6
CONTINUOUS
 10
-1.055894
 20
2.088276
  0
VERTEX
  8
PLAN_1
 62
     2
  6
CONTINUOUS
 10
-1.059697
 20
2.088752
  0
VERTEX
  8
PLAN_1
 62
     2
  6
CONTINUOUS
 10
-1.063024
 20
2.089701
  0
VERTEX
  8
PLAN_1
 62
     2
  6
CONTINUOUS
 10
-1.065874
 20
2.091126
  0
VERTEX
  8
PLAN_1
 62
     2
  6
CONTINUOUS
 10
-1.068248
 20
2.092551
  0
VERTEX
  8
PLAN_1
 62
     2
  6
CONTINUOUS
 10
-1.070626
 20
2.093976
  0
VERTEX
  8
PLAN_1
 62
     2
  6
CONTINUOUS
 10
-1.072528
 20
2.095878
  0
VERTEX
  8
PLAN_1
 62
     2
  6
CONTINUOUS
 10
-1.073953
 20
2.097780
  0
VERTEX
  8
PLAN_1
 62
     2
  6
CONTINUOUS
 10
-1.075854
 20
2.102055
  0
VERTEX
  8
PLAN_1
 62
     2
  6
CONTINUOUS
 10
-1.077280
 20
2.106331
  0
VERTEX
  8
PLAN_1
 62
     2
  6
CONTINUOUS
 10
-1.077752
 20
2.110134
  0
VERTEX
  8
PLAN_1
 62
     2
  6
CONTINUOUS
 10
-1.077752
 20
2.113461
  0
VERTEX
  8
PLAN_1
 62
     2
  6
CONTINUOUS
 10
-1.077752
 20
2.118213
  0
VERTEX
  8
PLAN_1
 62
     2
  6
CONTINUOUS
 10
-1.076327
 20
2.122488
  0
VERTEX
  8
PLAN_1
 62
     2
  6
CONTINUOUS
 10
-1.074425
 20
2.126291
  0
VERTEX
  8
PLAN_1
 62
     2
  6
CONTINUOUS
 10
-1.072051
 20
2.129618
  0
VERTEX
  8
PLAN_1
 62
     2
  6
CONTINUOUS
 10
-1.069201
 20
2.132469
  0
VERTEX
  8
PLAN_1
 62
     2
  6
CONTINUOUS
 10
-1.065398
 20
2.134370
  0
VERTEX
  8
PLAN_1
 62
     2
  6
CONTINUOUS
 10
-1.063024
 20
2.135319
  0
VERTEX
  8
PLAN_1
 62
     2
  6
CONTINUOUS
 10
-1.061122
 20
2.135795
  0
VERTEX
  8
PLAN_1
 62
     2
  6
CONTINUOUS
 10
-1.058744
 20
2.136268
  0
VERTEX
  8
PLAN_1
 62
     2
  6
CONTINUOUS
 10
-1.055894
 20
2.136268
  0
VERTEX
  8
PLAN_1
 62
     2
  6
CONTINUOUS
 10
-1.051618
 20
2.135795
  0
VERTEX
  8
PLAN_1
 62
     2
  6
CONTINUOUS
 10
-1.047343
 20
2.134843
  0
VERTEX
  8
PLAN_1
 62
     2
  6
CONTINUOUS
 10
-1.044016
 20
2.132945
  0
VERTEX
  8
PLAN_1
 62
     2
  6
CONTINUOUS
 10
-1.041165
 20
2.130567
  0
VERTEX
  8
PLAN_1
 62
     2
  6
CONTINUOUS
 10
-1.038311
 20
2.127717
  0
VERTEX
  8
PLAN_1
 62
     2
  6
CONTINUOUS
 10
-1.035937
 20
2.124390
  0
VERTEX
  8
PLAN_1
 62
     2
  6
CONTINUOUS
 10
-1.034035
 20
2.120587
  0
VERTEX
  8
PLAN_1
 62
     2
  6
CONTINUOUS
 10
-1.031661
 20
2.116787
  0
VERTEX
  8
PLAN_1
 62
     2
  6
CONTINUOUS
 10
-1.027382
 20
2.109185
  0
VERTEX
  8
PLAN_1
 62
     2
  6
CONTINUOUS
 10
-1.025484
 20
2.105858
  0
VERTEX
  8
PLAN_1
 62
     2
  6
CONTINUOUS
 10
-1.023583
 20
2.103008
  0
VERTEX
  8
PLAN_1
 62
     2
  6
CONTINUOUS
 10
-1.021205
 20
2.101106
  0
VERTEX
  8
PLAN_1
 62
     2
  6
CONTINUOUS
 10
-1.019303
 20
2.099205
  0
VERTEX
  8
PLAN_1
 62
     2
  6
CONTINUOUS
 10
-1.017878
 20
2.098256
  0
VERTEX
  8
PLAN_1
 62
     2
  6
CONTINUOUS
 10
-1.015980
 20
2.097303
  0
VERTEX
  8
PLAN_1
 62
     2
  6
CONTINUOUS
 10
-1.014555
 20
2.096831
  0
VERTEX
  8
PLAN_1
 62
     2
  6
CONTINUOUS
 10
-1.013602
 20
2.096831
  0
VERTEX
  8
PLAN_1
 62
     2
  6
CONTINUOUS
 10
-1.013602
 20
2.136268
  0
VERTEX
  8
PLAN_1
 62
     2
  6
CONTINUOUS
 10
-1.004575
 20
2.136268
  0
VERTEX
  8
PLAN_1
 62
     2
  6
CONTINUOUS
 10
-1.004575
 20
2.086374
  0
VERTEX
  8
PLAN_1
 62
     2
  6
CONTINUOUS
 10
-1.010276
 20
2.086850
  0
VERTEX
  8
PLAN_1
 62
     2
  6
CONTINUOUS
 10
-1.015028
 20
2.087799
  0
VERTEX
  8
PLAN_1
 62
     2
  6
CONTINUOUS
 10
-1.019303
 20
2.089224
  0
VERTEX
  8
PLAN_1
 62
     2
  6
CONTINUOUS
 10
-1.023106
 20
2.091602
  0
VERTEX
  8
PLAN_1
 62
     2
  6
CONTINUOUS
 10
-1.025957
 20
2.093976
  0
VERTEX
  8
PLAN_1
 62
     2
  6
CONTINUOUS
 10
-1.028807
 20
2.096831
  0
VERTEX
  8
PLAN_1
 62
     2
  6
CONTINUOUS
 10
-1.031661
 20
2.100154
  0
VERTEX
  8
PLAN_1
 62
     2
  6
CONTINUOUS
 10
-1.034035
 20
2.103480
  0
VERTEX
  8
PLAN_1
 62
     2
  6
CONTINUOUS
 10
-1.039264
 20
2.112984
  0
VERTEX
  8
PLAN_1
 62
     2
  6
CONTINUOUS
 10
-1.041165
 20
2.115835
  0
VERTEX
  8
PLAN_1
 62
     2
  6
CONTINUOUS
 10
-1.042591
 20
2.118689
  0
VERTEX
  8
PLAN_1
 62
     2
  6
CONTINUOUS
 10
-1.044488
 20
2.121063
  0
VERTEX
  8
PLAN_1
 62
     2
  6
CONTINUOUS
 10
-1.045917
 20
2.122965
  0
VERTEX
  8
PLAN_1
 62
     2
  6
CONTINUOUS
 10
-1.048291
 20
2.124390
  0
VERTEX
  8
PLAN_1
 62
     2
  6
CONTINUOUS
 10
-1.050669
 20
2.125815
  0
VERTEX
  8
PLAN_1
 62
     2
  6
CONTINUOUS
 10
-1.053043
 20
2.126291
  0
VERTEX
  8
PLAN_1
 62
     2
  6
CONTINUOUS
 10
-1.056370
 20
2.126764
  0
VERTEX
  8
PLAN_1
 62
     2
  6
CONTINUOUS
 10
-1.058744
 20
2.126291
  0
VERTEX
  8
PLAN_1
 62
     2
  6
CONTINUOUS
 10
-1.061122
 20
2.125815
  0
VERTEX
  8
PLAN_1
 62
     2
  6
CONTINUOUS
 10
-1.063024
 20
2.124866
  0
VERTEX
  8
PLAN_1
 62
     2
  6
CONTINUOUS
 10
-1.065398
 20
2.123441
  0
VERTEX
  8
PLAN_1
 62
     2
  6
CONTINUOUS
 10
-1.067299
 20
2.121539
  0
VERTEX
  8
PLAN_1
 62
     2
  6
CONTINUOUS
 10
-1.068248
 20
2.118689
  0
VERTEX
  8
PLAN_1
 62
     2
  6
CONTINUOUS
 10
-1.069201
 20
2.115835
  0
VERTEX
  8
PLAN_1
 62
     2
  6
CONTINUOUS
 10
-1.069673
 20
2.112035
  0
VERTEX
  8
PLAN_1
 62
     2
  6
CONTINUOUS
 10
-1.069673
 20
2.109657
  0
VERTEX
  8
PLAN_1
 62
     2
  6
CONTINUOUS
 10
-1.069201
 20
2.107760
  0
VERTEX
  8
PLAN_1
 62
     2
  6
CONTINUOUS
 10
-1.068724
 20
2.105858
  0
VERTEX
  8
PLAN_1
 62
     2
  6
CONTINUOUS
 10
-1.067776
 20
2.103957
  0
VERTEX
  8
PLAN_1
 62
     2
  6
CONTINUOUS
 10
-1.065398
 20
2.101579
  0
VERTEX
  8
PLAN_1
 62
     2
  6
CONTINUOUS
 10
-1.062547
 20
2.099681
  0
VERTEX
  8
PLAN_1
 62
     2
  6
CONTINUOUS
 10
-1.059697
 20
2.098728
  0
VERTEX
  8
PLAN_1
 62
     2
  6
CONTINUOUS
 10
-1.056846
 20
2.097780
  0
VERTEX
  8
PLAN_1
 62
     2
  6
CONTINUOUS
 10
-1.053992
 20
2.097303
  0
VERTEX
  8
PLAN_1
 62
     2
  6
CONTINUOUS
 10
-1.051618
 20
2.097303
  0
VERTEX
  8
PLAN_1
 62
     2
  6
CONTINUOUS
 10
-1.051618
 20
2.088276
  0
SEQEND
  8
0
  0
POLYLINE
  8
PLAN_1
 62
     2
  6
CONTINUOUS
 66
     1
 40
0.003000
 41
0.003000
  0
VERTEX
  8
PLAN_1
 62
     2
  6
CONTINUOUS
 10
-0.977488
 20
0.207957
  0
VERTEX
  8
PLAN_1
 62
     2
  6
CONTINUOUS
 10
-0.987469
 20
0.207957
  0
VERTEX
  8
PLAN_1
 62
     2
  6
CONTINUOUS
 10
-0.987469
 20
0.282563
  0
VERTEX
  8
PLAN_1
 62
     2
  6
CONTINUOUS
 10
-0.954205
 20
0.282563
  0
VERTEX
  8
PLAN_1
 62
     2
  6
CONTINUOUS
 10
-0.948976
 20
0.282087
  0
VERTEX
  8
PLAN_1
 62
     2
  6
CONTINUOUS
 10
-0.944701
 20
0.281138
  0
VERTEX
  8
PLAN_1
 62
     2
  6
CONTINUOUS
 10
-0.940898
 20
0.279236
  0
VERTEX
  8
PLAN_1
 62
     2
  6
CONTINUOUS
 10
-0.937571
 20
0.276386
  0
VERTEX
  8
PLAN_1
 62
     2
  6
CONTINUOUS
 10
-0.935197
 20
0.273535
  0
VERTEX
  8
PLAN_1
 62
     2
  6
CONTINUOUS
 10
-0.933295
 20
0.269732
  0
VERTEX
  8
PLAN_1
 62
     2
  6
CONTINUOUS
 10
-0.932346
 20
0.265933
  0
VERTEX
  8
PLAN_1
 62
     2
  6
CONTINUOUS
 10
-0.931870
 20
0.261654
  0
VERTEX
  8
PLAN_1
 62
     2
  6
CONTINUOUS
 10
-0.932346
 20
0.257378
  0
VERTEX
  8
PLAN_1
 62
     2
  6
CONTINUOUS
 10
-0.932823
 20
0.253575
  0
VERTEX
  8
PLAN_1
 62
     2
  6
CONTINUOUS
 10
-0.934720
 20
0.249776
  0
VERTEX
  8
PLAN_1
 62
     2
  6
CONTINUOUS
 10
-0.936622
 20
0.246449
  0
VERTEX
  8
PLAN_1
 62
     2
  6
CONTINUOUS
 10
-0.938047
 20
0.245024
  0
VERTEX
  8
PLAN_1
 62
     2
  6
CONTINUOUS
 10
-0.939949
 20
0.243598
  0
VERTEX
  8
PLAN_1
 62
     2
  6
CONTINUOUS
 10
-0.941850
 20
0.242173
  0
VERTEX
  8
PLAN_1
 62
     2
  6
CONTINUOUS
 10
-0.943752
 20
0.241220
  0
VERTEX
  8
PLAN_1
 62
     2
  6
CONTINUOUS
 10
-0.946126
 20
0.240748
  0
VERTEX
  8
PLAN_1
 62
     2
  6
CONTINUOUS
 10
-0.948504
 20
0.239795
  0
VERTEX
  8
PLAN_1
 62
     2
  6
CONTINUOUS
 10
-0.950878
 20
0.239319
  0
VERTEX
  8
PLAN_1
 62
     2
  6
CONTINUOUS
 10
-0.954205
 20
0.239319
  0
VERTEX
  8
PLAN_1
 62
     2
  6
CONTINUOUS
 10
-0.977488
 20
0.239319
  0
VERTEX
  8
PLAN_1
 62
     2
  6
CONTINUOUS
 10
-0.977488
 20
0.207957
  0
SEQEND
  8
0
  0
POLYLINE
  8
PLAN_1
 62
     2
  6
CONTINUOUS
 66
     1
 40
0.003000
 41
0.003000
  0
VERTEX
  8
PLAN_1
 62
     2
  6
CONTINUOUS
 10
-0.977488
 20
0.247874
  0
VERTEX
  8
PLAN_1
 62
     2
  6
CONTINUOUS
 10
-0.957531
 20
0.247874
  0
VERTEX
  8
PLAN_1
 62
     2
  6
CONTINUOUS
 10
-0.954205
 20
0.248350
  0
VERTEX
  8
PLAN_1
 62
     2
  6
CONTINUOUS
 10
-0.951354
 20
0.248823
  0
VERTEX
  8
PLAN_1
 62
     2
  6
CONTINUOUS
 10
-0.948504
 20
0.249776
  0
VERTEX
  8
PLAN_1
 62
     2
  6
CONTINUOUS
 10
-0.946602
 20
0.250724
  0
VERTEX
  8
PLAN_1
 62
     2
  6
CONTINUOUS
 10
-0.944701
 20
0.252626
  0
VERTEX
  8
PLAN_1
 62
     2
  6
CONTINUOUS
 10
-0.943276
 20
0.255004
  0
VERTEX
  8
PLAN_1
 62
     2
  6
CONTINUOUS
 10
-0.942323
 20
0.257854
  0
VERTEX
  8
PLAN_1
 62
     2
  6
CONTINUOUS
 10
-0.942323
 20
0.261654
  0
VERTEX
  8
PLAN_1
 62
     2
  6
CONTINUOUS
 10
-0.942799
 20
0.264504
  0
VERTEX
  8
PLAN_1
 62
     2
  6
CONTINUOUS
 10
-0.943276
 20
0.267358
  0
VERTEX
  8
PLAN_1
 62
     2
  6
CONTINUOUS
 10
-0.944701
 20
0.269732
  0
VERTEX
  8
PLAN_1
 62
     2
  6
CONTINUOUS
 10
-0.946602
 20
0.271157
  0
VERTEX
  8
PLAN_1
 62
     2
  6
CONTINUOUS
 10
-0.948504
 20
0.272583
  0
VERTEX
  8
PLAN_1
 62
     2
  6
CONTINUOUS
 10
-0.951354
 20
0.273059
  0
VERTEX
  8
PLAN_1
 62
     2
  6
CONTINUOUS
 10
-0.954205
 20
0.273535
  0
VERTEX
  8
PLAN_1
 62
     2
  6
CONTINUOUS
 10
-0.957055
 20
0.274008
  0
VERTEX
  8
PLAN_1
 62
     2
  6
CONTINUOUS
 10
-0.977488
 20
0.274008
  0
VERTEX
  8
PLAN_1
 62
     2
  6
CONTINUOUS
 10
-0.977488
 20
0.247874
  0
SEQEND
  8
0
  0
POLYLINE
  8
PLAN_1
 62
     2
  6
CONTINUOUS
 66
     1
 40
0.003000
 41
0.003000
  0
VERTEX
  8
PLAN_1
 62
     2
  6
CONTINUOUS
 10
-0.910012
 20
0.207957
  0
VERTEX
  8
PLAN_1
 62
     2
  6
CONTINUOUS
 10
-0.919039
 20
0.207957
  0
VERTEX
  8
PLAN_1
 62
     2
  6
CONTINUOUS
 10
-0.919039
 20
0.262130
  0
VERTEX
  8
PLAN_1
 62
     2
  6
CONTINUOUS
 10
-0.910488
 20
0.262130
  0
VERTEX
  8
PLAN_1
 62
     2
  6
CONTINUOUS
 10
-0.910488
 20
0.253102
  0
VERTEX
  8
PLAN_1
 62
     2
  6
CONTINUOUS
 10
-0.909063
 20
0.255476
  0
VERTEX
  8
PLAN_1
 62
     2
  6
CONTINUOUS
 10
-0.907161
 20
0.257378
  0
VERTEX
  8
PLAN_1
 62
     2
  6
CONTINUOUS
 10
-0.905736
 20
0.259280
  0
VERTEX
  8
PLAN_1
 62
     2
  6
CONTINUOUS
 10
-0.903835
 20
0.260705
  0
VERTEX
  8
PLAN_1
 62
     2
  6
CONTINUOUS
 10
-0.901933
 20
0.262130
  0
VERTEX
  8
PLAN_1
 62
     2
  6
CONTINUOUS
 10
-0.899559
 20
0.263079
  0
VERTEX
  8
PLAN_1
 62
     2
  6
CONTINUOUS
 10
-0.897657
 20
0.263555
  0
VERTEX
  8
PLAN_1
 62
     2
  6
CONTINUOUS
 10
-0.894807
 20
0.264031
  0
VERTEX
  8
PLAN_1
 62
     2
  6
CONTINUOUS
 10
-0.894331
 20
0.264031
  0
VERTEX
  8
PLAN_1
 62
     2
  6
CONTINUOUS
 10
-0.893854
 20
0.263555
  0
VERTEX
  8
PLAN_1
 62
     2
  6
CONTINUOUS
 10
-0.893382
 20
0.263555
  0
VERTEX
  8
PLAN_1
 62
     2
  6
CONTINUOUS
 10
-0.892906
 20
0.263555
  0
VERTEX
  8
PLAN_1
 62
     2
  6
CONTINUOUS
 10
-0.892429
 20
0.263555
  0
VERTEX
  8
PLAN_1
 62
     2
  6
CONTINUOUS
 10
-0.892429
 20
0.254051
  0
VERTEX
  8
PLAN_1
 62
     2
  6
CONTINUOUS
 10
-0.896232
 20
0.254051
  0
VERTEX
  8
PLAN_1
 62
     2
  6
CONTINUOUS
 10
-0.899083
 20
0.253575
  0
VERTEX
  8
PLAN_1
 62
     2
  6
CONTINUOUS
 10
-0.901933
 20
0.253102
  0
VERTEX
  8
PLAN_1
 62
     2
  6
CONTINUOUS
 10
-0.904311
 20
0.251677
  0
VERTEX
  8
PLAN_1
 62
     2
  6
CONTINUOUS
 10
-0.906209
 20
0.249776
  0
VERTEX
  8
PLAN_1
 62
     2
  6
CONTINUOUS
 10
-0.907638
 20
0.247398
  0
VERTEX
  8
PLAN_1
 62
     2
  6
CONTINUOUS
 10
-0.909063
 20
0.245024
  0
VERTEX
  8
PLAN_1
 62
     2
  6
CONTINUOUS
 10
-0.909535
 20
0.242173
  0
VERTEX
  8
PLAN_1
 62
     2
  6
CONTINUOUS
 10
-0.910012
 20
0.239319
  0
VERTEX
  8
PLAN_1
 62
     2
  6
CONTINUOUS
 10
-0.910012
 20
0.207957
  0
SEQEND
  8
0
  0
POLYLINE
  8
PLAN_1
 62
     2
  6
CONTINUOUS
 66
     1
 40
0.003000
 41
0.003000
  0
VERTEX
  8
PLAN_1
 62
     2
  6
CONTINUOUS
 10
-0.839685
 20
0.225067
  0
VERTEX
  8
PLAN_1
 62
     2
  6
CONTINUOUS
 10
-0.839685
 20
0.223638
  0
VERTEX
  8
PLAN_1
 62
     2
  6
CONTINUOUS
 10
-0.840157
 20
0.222213
  0
VERTEX
  8
PLAN_1
 62
     2
  6
CONTINUOUS
 10
-0.841110
 20
0.220315
  0
VERTEX
  8
PLAN_1
 62
     2
  6
CONTINUOUS
 10
-0.842059
 20
0.218413
  0
VERTEX
  8
PLAN_1
 62
     2
  6
CONTINUOUS
 10
-0.843012
 20
0.216035
  0
VERTEX
  8
PLAN_1
 62
     2
  6
CONTINUOUS
 10
-0.844909
 20
0.214138
  0
VERTEX
  8
PLAN_1
 62
     2
  6
CONTINUOUS
 10
-0.846811
 20
0.211760
  0
VERTEX
  8
PLAN_1
 62
     2
  6
CONTINUOUS
 10
-0.849189
 20
0.209858
  0
VERTEX
  8
PLAN_1
 62
     2
  6
CONTINUOUS
 10
-0.850138
 20
0.209386
  0
VERTEX
  8
PLAN_1
 62
     2
  6
CONTINUOUS
 10
-0.851091
 20
0.208909
  0
VERTEX
  8
PLAN_1
 62
     2
  6
CONTINUOUS
 10
-0.852516
 20
0.207957
  0
VERTEX
  8
PLAN_1
 62
     2
  6
CONTINUOUS
 10
-0.854413
 20
0.207484
  0
VERTEX
  8
PLAN_1
 62
     2
  6
CONTINUOUS
 10
-0.856315
 20
0.207008
  0
VERTEX
  8
PLAN_1
 62
     2
  6
CONTINUOUS
 10
-0.858217
 20
0.206531
  0
VERTEX
  8
PLAN_1
 62
     2
  6
CONTINUOUS
 10
-0.861067
 20
0.206531
  0
VERTEX
  8
PLAN_1
 62
     2
  6
CONTINUOUS
 10
-0.863917
 20
0.206059
  0
VERTEX
  8
PLAN_1
 62
     2
  6
CONTINUOUS
 10
-0.866772
 20
0.206531
  0
VERTEX
  8
PLAN_1
 62
     2
  6
CONTINUOUS
 10
-0.869146
 20
0.207008
  0
VERTEX
  8
PLAN_1
 62
     2
  6
CONTINUOUS
 10
-0.871996
 20
0.207484
  0
VERTEX
  8
PLAN_1
 62
     2
  6
CONTINUOUS
 10
-0.874374
 20
0.208433
  0
VERTEX
  8
PLAN_1
 62
     2
  6
CONTINUOUS
 10
-0.876276
 20
0.209386
  0
VERTEX
  8
PLAN_1
 62
     2
  6
CONTINUOUS
 10
-0.878173
 20
0.210811
  0
VERTEX
  8
PLAN_1
 62
     2
  6
CONTINUOUS
 10
-0.880075
 20
0.212236
  0
VERTEX
  8
PLAN_1
 62
     2
  6
CONTINUOUS
 10
-0.881976
 20
0.214138
  0
VERTEX
  8
PLAN_1
 62
     2
  6
CONTINUOUS
 10
-0.883402
 20
0.216035
  0
VERTEX
  8
PLAN_1
 62
     2
  6
CONTINUOUS
 10
-0.884827
 20
0.217937
  0
VERTEX
  8
PLAN_1
 62
     2
  6
CONTINUOUS
 10
-0.885776
 20
0.220315
  0
VERTEX
  8
PLAN_1
 62
     2
  6
CONTINUOUS
 10
-0.886728
 20
0.222689
  0
VERTEX
  8
PLAN_1
 62
     2
  6
CONTINUOUS
 10
-0.887677
 20
0.227917
  0
VERTEX
  8
PLAN_1
 62
     2
  6
CONTINUOUS
 10
-0.888154
 20
0.233618
  0
VERTEX
  8
PLAN_1
 62
     2
  6
CONTINUOUS
 10
-0.887677
 20
0.239795
  0
VERTEX
  8
PLAN_1
 62
     2
  6
CONTINUOUS
 10
-0.886728
 20
0.245500
  0
VERTEX
  8
PLAN_1
 62
     2
  6
CONTINUOUS
 10
-0.885776
 20
0.247874
  0
VERTEX
  8
PLAN_1
 62
     2
  6
CONTINUOUS
 10
-0.884827
 20
0.250724
  0
VERTEX
  8
PLAN_1
 62
     2
  6
CONTINUOUS
 10
-0.883402
 20
0.252626
  0
VERTEX
  8
PLAN_1
 62
     2
  6
CONTINUOUS
 10
-0.881976
 20
0.255004
  0
VERTEX
  8
PLAN_1
 62
     2
  6
CONTINUOUS
 10
-0.880075
 20
0.256902
  0
VERTEX
  8
PLAN_1
 62
     2
  6
CONTINUOUS
 10
-0.878173
 20
0.258803
  0
VERTEX
  8
PLAN_1
 62
     2
  6
CONTINUOUS
 10
-0.876276
 20
0.260228
  0
VERTEX
  8
PLAN_1
 62
     2
  6
CONTINUOUS
 10
-0.873898
 20
0.261654
  0
VERTEX
  8
PLAN_1
 62
     2
  6
CONTINUOUS
 10
-0.871047
 20
0.262606
  0
VERTEX
  8
PLAN_1
 62
     2
  6
CONTINUOUS
 10
-0.868669
 20
0.263079
  0
VERTEX
  8
PLAN_1
 62
     2
  6
CONTINUOUS
 10
-0.865343
 20
0.263555
  0
VERTEX
  8
PLAN_1
 62
     2
  6
CONTINUOUS
 10
-0.862020
 20
0.264031
  0
VERTEX
  8
PLAN_1
 62
     2
  6
CONTINUOUS
 10
-0.859165
 20
0.263555
  0
VERTEX
  8
PLAN_1
 62
     2
  6
CONTINUOUS
 10
-0.856791
 20
0.263079
  0
VERTEX
  8
PLAN_1
 62
     2
  6
CONTINUOUS
 10
-0.854413
 20
0.262606
  0
VERTEX
  8
PLAN_1
 62
     2
  6
CONTINUOUS
 10
-0.852039
 20
0.261654
  0
VERTEX
  8
PLAN_1
 62
     2
  6
CONTINUOUS
 10
-0.849661
 20
0.260228
  0
VERTEX
  8
PLAN_1
 62
     2
  6
CONTINUOUS
 10
-0.847764
 20
0.258803
  0
VERTEX
  8
PLAN_1
 62
     2
  6
CONTINUOUS
 10
-0.846339
 20
0.256902
  0
VERTEX
  8
PLAN_1
 62
     2
  6
CONTINUOUS
 10
-0.844437
 20
0.255004
  0
VERTEX
  8
PLAN_1
 62
     2
  6
CONTINUOUS
 10
-0.843012
 20
0.253102
  0
VERTEX
  8
PLAN_1
 62
     2
  6
CONTINUOUS
 10
-0.842059
 20
0.250724
  0
VERTEX
  8
PLAN_1
 62
     2
  6
CONTINUOUS
 10
-0.841110
 20
0.247874
  0
VERTEX
  8
PLAN_1
 62
     2
  6
CONTINUOUS
 10
-0.840157
 20
0.245024
  0
VERTEX
  8
PLAN_1
 62
     2
  6
CONTINUOUS
 10
-0.839209
 20
0.238846
  0
VERTEX
  8
PLAN_1
 62
     2
  6
CONTINUOUS
 10
-0.838732
 20
0.232193
  0
VERTEX
  8
PLAN_1
 62
     2
  6
CONTINUOUS
 10
-0.878650
 20
0.232193
  0
VERTEX
  8
PLAN_1
 62
     2
  6
CONTINUOUS
 10
-0.878173
 20
0.227917
  0
VERTEX
  8
PLAN_1
 62
     2
  6
CONTINUOUS
 10
-0.877701
 20
0.224591
  0
VERTEX
  8
PLAN_1
 62
     2
  6
CONTINUOUS
 10
-0.876276
 20
0.221264
  0
VERTEX
  8
PLAN_1
 62
     2
  6
CONTINUOUS
 10
-0.874374
 20
0.218886
  0
VERTEX
  8
PLAN_1
 62
     2
  6
CONTINUOUS
 10
-0.872472
 20
0.216988
  0
VERTEX
  8
PLAN_1
 62
     2
  6
CONTINUOUS
 10
-0.869622
 20
0.215563
  0
VERTEX
  8
PLAN_1
 62
     2
  6
CONTINUOUS
 10
-0.866295
 20
0.214610
  0
VERTEX
  8
PLAN_1
 62
     2
  6
CONTINUOUS
 10
-0.862492
 20
0.214138
  0
VERTEX
  8
PLAN_1
 62
     2
  6
CONTINUOUS
 10
-0.859642
 20
0.214610
  0
VERTEX
  8
PLAN_1
 62
     2
  6
CONTINUOUS
 10
-0.856791
 20
0.215087
  0
VERTEX
  8
PLAN_1
 62
     2
  6
CONTINUOUS
 10
-0.854413
 20
0.216512
  0
VERTEX
  8
PLAN_1
 62
     2
  6
CONTINUOUS
 10
-0.852516
 20
0.217937
  0
VERTEX
  8
PLAN_1
 62
     2
  6
CONTINUOUS
 10
-0.851091
 20
0.219839
  0
VERTEX
  8
PLAN_1
 62
     2
  6
CONTINUOUS
 10
-0.849661
 20
0.221740
  0
VERTEX
  8
PLAN_1
 62
     2
  6
CONTINUOUS
 10
-0.849189
 20
0.223165
  0
VERTEX
  8
PLAN_1
 62
     2
  6
CONTINUOUS
 10
-0.848713
 20
0.225067
  0
VERTEX
  8
PLAN_1
 62
     2
  6
CONTINUOUS
 10
-0.839685
 20
0.225067
  0
SEQEND
  8
0
  0
POLYLINE
  8
PLAN_1
 62
     2
  6
CONTINUOUS
 66
     1
 40
0.003000
 41
0.003000
  0
VERTEX
  8
PLAN_1
 62
     2
  6
CONTINUOUS
 10
-0.848236
 20
0.239319
  0
VERTEX
  8
PLAN_1
 62
     2
  6
CONTINUOUS
 10
-0.848713
 20
0.242646
  0
VERTEX
  8
PLAN_1
 62
     2
  6
CONTINUOUS
 10
-0.849189
 20
0.245500
  0
VERTEX
  8
PLAN_1
 62
     2
  6
CONTINUOUS
 10
-0.850138
 20
0.248350
  0
VERTEX
  8
PLAN_1
 62
     2
  6
CONTINUOUS
 10
-0.852039
 20
0.250724
  0
VERTEX
  8
PLAN_1
 62
     2
  6
CONTINUOUS
 10
-0.853941
 20
0.252626
  0
VERTEX
  8
PLAN_1
 62
     2
  6
CONTINUOUS
 10
-0.856315
 20
0.254051
  0
VERTEX
  8
PLAN_1
 62
     2
  6
CONTINUOUS
 10
-0.859642
 20
0.255476
  0
VERTEX
  8
PLAN_1
 62
     2
  6
CONTINUOUS
 10
-0.863445
 20
0.255476
  0
VERTEX
  8
PLAN_1
 62
     2
  6
CONTINUOUS
 10
-0.866295
 20
0.255476
  0
VERTEX
  8
PLAN_1
 62
     2
  6
CONTINUOUS
 10
-0.869146
 20
0.254051
  0
VERTEX
  8
PLAN_1
 62
     2
  6
CONTINUOUS
 10
-0.871996
 20
0.252626
  0
VERTEX
  8
PLAN_1
 62
     2
  6
CONTINUOUS
 10
-0.873898
 20
0.250724
  0
VERTEX
  8
PLAN_1
 62
     2
  6
CONTINUOUS
 10
-0.875799
 20
0.248350
  0
VERTEX
  8
PLAN_1
 62
     2
  6
CONTINUOUS
 10
-0.877224
 20
0.245500
  0
VERTEX
  8
PLAN_1
 62
     2
  6
CONTINUOUS
 10
-0.878173
 20
0.242646
  0
VERTEX
  8
PLAN_1
 62
     2
  6
CONTINUOUS
 10
-0.878650
 20
0.239319
  0
VERTEX
  8
PLAN_1
 62
     2
  6
CONTINUOUS
 10
-0.848236
 20
0.239319
  0
SEQEND
  8
0
  0
POLYLINE
  8
PLAN_1
 62
     2
  6
CONTINUOUS
 66
     1
 40
0.003000
 41
0.003000
  0
VERTEX
  8
PLAN_1
 62
     2
  6
CONTINUOUS
 10
-0.796917
 20
0.246925
  0
VERTEX
  8
PLAN_1
 62
     2
  6
CONTINUOUS
 10
-0.796917
 20
0.248350
  0
VERTEX
  8
PLAN_1
 62
     2
  6
CONTINUOUS
 10
-0.797394
 20
0.249776
  0
VERTEX
  8
PLAN_1
 62
     2
  6
CONTINUOUS
 10
-0.797866
 20
0.251201
  0
VERTEX
  8
PLAN_1
 62
     2
  6
CONTINUOUS
 10
-0.798819
 20
0.252626
  0
VERTEX
  8
PLAN_1
 62
     2
  6
CONTINUOUS
 10
-0.800720
 20
0.254051
  0
VERTEX
  8
PLAN_1
 62
     2
  6
CONTINUOUS
 10
-0.803094
 20
0.255004
  0
VERTEX
  8
PLAN_1
 62
     2
  6
CONTINUOUS
 10
-0.805945
 20
0.255476
  0
VERTEX
  8
PLAN_1
 62
     2
  6
CONTINUOUS
 10
-0.809748
 20
0.255953
  0
VERTEX
  8
PLAN_1
 62
     2
  6
CONTINUOUS
 10
-0.811173
 20
0.255953
  0
VERTEX
  8
PLAN_1
 62
     2
  6
CONTINUOUS
 10
-0.812598
 20
0.255476
  0
VERTEX
  8
PLAN_1
 62
     2
  6
CONTINUOUS
 10
-0.814500
 20
0.255476
  0
VERTEX
  8
PLAN_1
 62
     2
  6
CONTINUOUS
 10
-0.816402
 20
0.254528
  0
VERTEX
  8
PLAN_1
 62
     2
  6
CONTINUOUS
 10
-0.817827
 20
0.253575
  0
VERTEX
  8
PLAN_1
 62
     2
  6
CONTINUOUS
 10
-0.819252
 20
0.252150
  0
VERTEX
  8
PLAN_1
 62
     2
  6
CONTINUOUS
 10
-0.820201
 20
0.250252
  0
VERTEX
  8
PLAN_1
 62
     2
  6
CONTINUOUS
 10
-0.820677
 20
0.248350
  0
VERTEX
  8
PLAN_1
 62
     2
  6
CONTINUOUS
 10
-0.820677
 20
0.246449
  0
VERTEX
  8
PLAN_1
 62
     2
  6
CONTINUOUS
 10
-0.820201
 20
0.245500
  0
VERTEX
  8
PLAN_1
 62
     2
  6
CONTINUOUS
 10
-0.819252
 20
0.244547
  0
VERTEX
  8
PLAN_1
 62
     2
  6
CONTINUOUS
 10
-0.818299
 20
0.243598
  0
VERTEX
  8
PLAN_1
 62
     2
  6
CONTINUOUS
 10
-0.816874
 20
0.242646
  0
VERTEX
  8
PLAN_1
 62
     2
  6
CONTINUOUS
 10
-0.815449
 20
0.242173
  0
VERTEX
  8
PLAN_1
 62
     2
  6
CONTINUOUS
 10
-0.813075
 20
0.241697
  0
VERTEX
  8
PLAN_1
 62
     2
  6
CONTINUOUS
 10
-0.810697
 20
0.240748
  0
VERTEX
  8
PLAN_1
 62
     2
  6
CONTINUOUS
 10
-0.801669
 20
0.238846
  0
VERTEX
  8
PLAN_1
 62
     2
  6
CONTINUOUS
 10
-0.797866
 20
0.237421
  0
VERTEX
  8
PLAN_1
 62
     2
  6
CONTINUOUS
 10
-0.794543
 20
0.236469
  0
VERTEX
  8
PLAN_1
 62
     2
  6
CONTINUOUS
 10
-0.791689
 20
0.234571
  0
VERTEX
  8
PLAN_1
 62
     2
  6
CONTINUOUS
 10
-0.789791
 20
0.233142
  0
VERTEX
  8
PLAN_1
 62
     2
  6
CONTINUOUS
 10
-0.788362
 20
0.231244
  0
VERTEX
  8
PLAN_1
 62
     2
  6
CONTINUOUS
 10
-0.786937
 20
0.229343
  0
VERTEX
  8
PLAN_1
 62
     2
  6
CONTINUOUS
 10
-0.786465
 20
0.226965
  0
VERTEX
  8
PLAN_1
 62
     2
  6
CONTINUOUS
 10
-0.786465
 20
0.224114
  0
VERTEX
  8
PLAN_1
 62
     2
  6
CONTINUOUS
 10
-0.786465
 20
0.220315
  0
VERTEX
  8
PLAN_1
 62
     2
  6
CONTINUOUS
 10
-0.787890
 20
0.216512
  0
VERTEX
  8
PLAN_1
 62
     2
  6
CONTINUOUS
 10
-0.789791
 20
0.213661
  0
VERTEX
  8
PLAN_1
 62
     2
  6
CONTINUOUS
 10
-0.792642
 20
0.211283
  0
VERTEX
  8
PLAN_1
 62
     2
  6
CONTINUOUS
 10
-0.795492
 20
0.208909
  0
VERTEX
  8
PLAN_1
 62
     2
  6
CONTINUOUS
 10
-0.799291
 20
0.207484
  0
VERTEX
  8
PLAN_1
 62
     2
  6
CONTINUOUS
 10
-0.803571
 20
0.206531
  0
VERTEX
  8
PLAN_1
 62
     2
  6
CONTINUOUS
 10
-0.807846
 20
0.206059
  0
VERTEX
  8
PLAN_1
 62
     2
  6
CONTINUOUS
 10
-0.811650
 20
0.206531
  0
VERTEX
  8
PLAN_1
 62
     2
  6
CONTINUOUS
 10
-0.814976
 20
0.207008
  0
VERTEX
  8
PLAN_1
 62
     2
  6
CONTINUOUS
 10
-0.817827
 20
0.207484
  0
VERTEX
  8
PLAN_1
 62
     2
  6
CONTINUOUS
 10
-0.820677
 20
0.208433
  0
VERTEX
  8
PLAN_1
 62
     2
  6
CONTINUOUS
 10
-0.822579
 20
0.209386
  0
VERTEX
  8
PLAN_1
 62
     2
  6
CONTINUOUS
 10
-0.824476
 20
0.210811
  0
VERTEX
  8
PLAN_1
 62
     2
  6
CONTINUOUS
 10
-0.826378
 20
0.211760
  0
VERTEX
  8
PLAN_1
 62
     2
  6
CONTINUOUS
 10
-0.827331
 20
0.213185
  0
VERTEX
  8
PLAN_1
 62
     2
  6
CONTINUOUS
 10
-0.829228
 20
0.216512
  0
VERTEX
  8
PLAN_1
 62
     2
  6
CONTINUOUS
 10
-0.830657
 20
0.219362
  0
VERTEX
  8
PLAN_1
 62
     2
  6
CONTINUOUS
 10
-0.831130
 20
0.222689
  0
VERTEX
  8
PLAN_1
 62
     2
  6
CONTINUOUS
 10
-0.831130
 20
0.225539
  0
VERTEX
  8
PLAN_1
 62
     2
  6
CONTINUOUS
 10
-0.822579
 20
0.225539
  0
VERTEX
  8
PLAN_1
 62
     2
  6
CONTINUOUS
 10
-0.822102
 20
0.223638
  0
VERTEX
  8
PLAN_1
 62
     2
  6
CONTINUOUS
 10
-0.821626
 20
0.221740
  0
VERTEX
  8
PLAN_1
 62
     2
  6
CONTINUOUS
 10
-0.821154
 20
0.219839
  0
VERTEX
  8
PLAN_1
 62
     2
  6
CONTINUOUS
 10
-0.819724
 20
0.217937
  0
VERTEX
  8
PLAN_1
 62
     2
  6
CONTINUOUS
 10
-0.818299
 20
0.216512
  0
VERTEX
  8
PLAN_1
 62
     2
  6
CONTINUOUS
 10
-0.815449
 20
0.215563
  0
VERTEX
  8
PLAN_1
 62
     2
  6
CONTINUOUS
 10
-0.812122
 20
0.214610
  0
VERTEX
  8
PLAN_1
 62
     2
  6
CONTINUOUS
 10
-0.807846
 20
0.214138
  0
VERTEX
  8
PLAN_1
 62
     2
  6
CONTINUOUS
 10
-0.805472
 20
0.214138
  0
VERTEX
  8
PLAN_1
 62
     2
  6
CONTINUOUS
 10
-0.803094
 20
0.214610
  0
VERTEX
  8
PLAN_1
 62
     2
  6
CONTINUOUS
 10
-0.801193
 20
0.215563
  0
VERTEX
  8
PLAN_1
 62
     2
  6
CONTINUOUS
 10
-0.799291
 20
0.216035
  0
VERTEX
  8
PLAN_1
 62
     2
  6
CONTINUOUS
 10
-0.797866
 20
0.217461
  0
VERTEX
  8
PLAN_1
 62
     2
  6
CONTINUOUS
 10
-0.796441
 20
0.218886
  0
VERTEX
  8
PLAN_1
 62
     2
  6
CONTINUOUS
 10
-0.795492
 20
0.220787
  0
VERTEX
  8
PLAN_1
 62
     2
  6
CONTINUOUS
 10
-0.795492
 20
0.222689
  0
VERTEX
  8
PLAN_1
 62
     2
  6
CONTINUOUS
 10
-0.795492
 20
0.224114
  0
VERTEX
  8
PLAN_1
 62
     2
  6
CONTINUOUS
 10
-0.795969
 20
0.225539
  0
VERTEX
  8
PLAN_1
 62
     2
  6
CONTINUOUS
 10
-0.796917
 20
0.226492
  0
VERTEX
  8
PLAN_1
 62
     2
  6
CONTINUOUS
 10
-0.797866
 20
0.227441
  0
VERTEX
  8
PLAN_1
 62
     2
  6
CONTINUOUS
 10
-0.799291
 20
0.228390
  0
VERTEX
  8
PLAN_1
 62
     2
  6
CONTINUOUS
 10
-0.801193
 20
0.229343
  0
VERTEX
  8
PLAN_1
 62
     2
  6
CONTINUOUS
 10
-0.803571
 20
0.229819
  0
VERTEX
  8
PLAN_1
 62
     2
  6
CONTINUOUS
 10
-0.806421
 20
0.230768
  0
VERTEX
  8
PLAN_1
 62
     2
  6
CONTINUOUS
 10
-0.816874
 20
0.233142
  0
VERTEX
  8
PLAN_1
 62
     2
  6
CONTINUOUS
 10
-0.819724
 20
0.234094
  0
VERTEX
  8
PLAN_1
 62
     2
  6
CONTINUOUS
 10
-0.822102
 20
0.235043
  0
VERTEX
  8
PLAN_1
 62
     2
  6
CONTINUOUS
 10
-0.824004
 20
0.236469
  0
VERTEX
  8
PLAN_1
 62
     2
  6
CONTINUOUS
 10
-0.825906
 20
0.237894
  0
VERTEX
  8
PLAN_1
 62
     2
  6
CONTINUOUS
 10
-0.827331
 20
0.239319
  0
VERTEX
  8
PLAN_1
 62
     2
  6
CONTINUOUS
 10
-0.828756
 20
0.241697
  0
VERTEX
  8
PLAN_1
 62
     2
  6
CONTINUOUS
 10
-0.829228
 20
0.243598
  0
VERTEX
  8
PLAN_1
 62
     2
  6
CONTINUOUS
 10
-0.829228
 20
0.246449
  0
VERTEX
  8
PLAN_1
 62
     2
  6
CONTINUOUS
 10
-0.829228
 20
0.250724
  0
VERTEX
  8
PLAN_1
 62
     2
  6
CONTINUOUS
 10
-0.827803
 20
0.254051
  0
VERTEX
  8
PLAN_1
 62
     2
  6
CONTINUOUS
 10
-0.825906
 20
0.257378
  0
VERTEX
  8
PLAN_1
 62
     2
  6
CONTINUOUS
 10
-0.823051
 20
0.259752
  0
VERTEX
  8
PLAN_1
 62
     2
  6
CONTINUOUS
 10
-0.820201
 20
0.261654
  0
VERTEX
  8
PLAN_1
 62
     2
  6
CONTINUOUS
 10
-0.816402
 20
0.262606
  0
VERTEX
  8
PLAN_1
 62
     2
  6
CONTINUOUS
 10
-0.812598
 20
0.263555
  0
VERTEX
  8
PLAN_1
 62
     2
  6
CONTINUOUS
 10
-0.808795
 20
0.264031
  0
VERTEX
  8
PLAN_1
 62
     2
  6
CONTINUOUS
 10
-0.805472
 20
0.263555
  0
VERTEX
  8
PLAN_1
 62
     2
  6
CONTINUOUS
 10
-0.802146
 20
0.263079
  0
VERTEX
  8
PLAN_1
 62
     2
  6
CONTINUOUS
 10
-0.799768
 20
0.262606
  0
VERTEX
  8
PLAN_1
 62
     2
  6
CONTINUOUS
 10
-0.797394
 20
0.261654
  0
VERTEX
  8
PLAN_1
 62
     2
  6
CONTINUOUS
 10
-0.795492
 20
0.260228
  0
VERTEX
  8
PLAN_1
 62
     2
  6
CONTINUOUS
 10
-0.793591
 20
0.259280
  0
VERTEX
  8
PLAN_1
 62
     2
  6
CONTINUOUS
 10
-0.792165
 20
0.257854
  0
VERTEX
  8
PLAN_1
 62
     2
  6
CONTINUOUS
 10
-0.791217
 20
0.256429
  0
VERTEX
  8
PLAN_1
 62
     2
  6
CONTINUOUS
 10
-0.789315
 20
0.253575
  0
VERTEX
  8
PLAN_1
 62
     2
  6
CONTINUOUS
 10
-0.788362
 20
0.250724
  0
VERTEX
  8
PLAN_1
 62
     2
  6
CONTINUOUS
 10
-0.788362
 20
0.248350
  0
VERTEX
  8
PLAN_1
 62
     2
  6
CONTINUOUS
 10
-0.787890
 20
0.246925
  0
VERTEX
  8
PLAN_1
 62
     2
  6
CONTINUOUS
 10
-0.796917
 20
0.246925
  0
SEQEND
  8
0
  0
POLYLINE
  8
PLAN_1
 62
     2
  6
CONTINUOUS
 66
     1
 40
0.003000
 41
0.003000
  0
VERTEX
  8
PLAN_1
 62
     2
  6
CONTINUOUS
 10
-0.744646
 20
0.246925
  0
VERTEX
  8
PLAN_1
 62
     2
  6
CONTINUOUS
 10
-0.745122
 20
0.248350
  0
VERTEX
  8
PLAN_1
 62
     2
  6
CONTINUOUS
 10
-0.745122
 20
0.249776
  0
VERTEX
  8
PLAN_1
 62
     2
  6
CONTINUOUS
 10
-0.746071
 20
0.251201
  0
VERTEX
  8
PLAN_1
 62
     2
  6
CONTINUOUS
 10
-0.747024
 20
0.252626
  0
VERTEX
  8
PLAN_1
 62
     2
  6
CONTINUOUS
 10
-0.748449
 20
0.254051
  0
VERTEX
  8
PLAN_1
 62
     2
  6
CONTINUOUS
 10
-0.750823
 20
0.255004
  0
VERTEX
  8
PLAN_1
 62
     2
  6
CONTINUOUS
 10
-0.753677
 20
0.255476
  0
VERTEX
  8
PLAN_1
 62
     2
  6
CONTINUOUS
 10
-0.757953
 20
0.255953
  0
VERTEX
  8
PLAN_1
 62
     2
  6
CONTINUOUS
 10
-0.758902
 20
0.255953
  0
VERTEX
  8
PLAN_1
 62
     2
  6
CONTINUOUS
 10
-0.760803
 20
0.255476
  0
VERTEX
  8
PLAN_1
 62
     2
  6
CONTINUOUS
 10
-0.762228
 20
0.255476
  0
VERTEX
  8
PLAN_1
 62
     2
  6
CONTINUOUS
 10
-0.764130
 20
0.254528
  0
VERTEX
  8
PLAN_1
 62
     2
  6
CONTINUOUS
 10
-0.766031
 20
0.253575
  0
VERTEX
  8
PLAN_1
 62
     2
  6
CONTINUOUS
 10
-0.767457
 20
0.252150
  0
VERTEX
  8
PLAN_1
 62
     2
  6
CONTINUOUS
 10
-0.768406
 20
0.250252
  0
VERTEX
  8
PLAN_1
 62
     2
  6
CONTINUOUS
 10
-0.768406
 20
0.248350
  0
VERTEX
  8
PLAN_1
 62
     2
  6
CONTINUOUS
 10
-0.768406
 20
0.246449
  0
VERTEX
  8
PLAN_1
 62
     2
  6
CONTINUOUS
 10
-0.767929
 20
0.245500
  0
VERTEX
  8
PLAN_1
 62
     2
  6
CONTINUOUS
 10
-0.767457
 20
0.244547
  0
VERTEX
  8
PLAN_1
 62
     2
  6
CONTINUOUS
 10
-0.766031
 20
0.243598
  0
VERTEX
  8
PLAN_1
 62
     2
  6
CONTINUOUS
 10
-0.765079
 20
0.242646
  0
VERTEX
  8
PLAN_1
 62
     2
  6
CONTINUOUS
 10
-0.763177
 20
0.242173
  0
VERTEX
  8
PLAN_1
 62
     2
  6
CONTINUOUS
 10
-0.761280
 20
0.241697
  0
VERTEX
  8
PLAN_1
 62
     2
  6
CONTINUOUS
 10
-0.758425
 20
0.240748
  0
VERTEX
  8
PLAN_1
 62
     2
  6
CONTINUOUS
 10
-0.749398
 20
0.238846
  0
VERTEX
  8
PLAN_1
 62
     2
  6
CONTINUOUS
 10
-0.745598
 20
0.237421
  0
VERTEX
  8
PLAN_1
 62
     2
  6
CONTINUOUS
 10
-0.742272
 20
0.236469
  0
VERTEX
  8
PLAN_1
 62
     2
  6
CONTINUOUS
 10
-0.739894
 20
0.234571
  0
VERTEX
  8
PLAN_1
 62
     2
  6
CONTINUOUS
 10
-0.737520
 20
0.233142
  0
VERTEX
  8
PLAN_1
 62
     2
  6
CONTINUOUS
 10
-0.736094
 20
0.231244
  0
VERTEX
  8
PLAN_1
 62
     2
  6
CONTINUOUS
 10
-0.735142
 20
0.229343
  0
VERTEX
  8
PLAN_1
 62
     2
  6
CONTINUOUS
 10
-0.734193
 20
0.226965
  0
VERTEX
  8
PLAN_1
 62
     2
  6
CONTINUOUS
 10
-0.734193
 20
0.224114
  0
VERTEX
  8
PLAN_1
 62
     2
  6
CONTINUOUS
 10
-0.734669
 20
0.220315
  0
VERTEX
  8
PLAN_1
 62
     2
  6
CONTINUOUS
 10
-0.735618
 20
0.216512
  0
VERTEX
  8
PLAN_1
 62
     2
  6
CONTINUOUS
 10
-0.737992
 20
0.213661
  0
VERTEX
  8
PLAN_1
 62
     2
  6
CONTINUOUS
 10
-0.740370
 20
0.211283
  0
VERTEX
  8
PLAN_1
 62
     2
  6
CONTINUOUS
 10
-0.743697
 20
0.208909
  0
VERTEX
  8
PLAN_1
 62
     2
  6
CONTINUOUS
 10
-0.747024
 20
0.207484
  0
VERTEX
  8
PLAN_1
 62
     2
  6
CONTINUOUS
 10
-0.751299
 20
0.206531
  0
VERTEX
  8
PLAN_1
 62
     2
  6
CONTINUOUS
 10
-0.755575
 20
0.206059
  0
VERTEX
  8
PLAN_1
 62
     2
  6
CONTINUOUS
 10
-0.759378
 20
0.206531
  0
VERTEX
  8
PLAN_1
 62
     2
  6
CONTINUOUS
 10
-0.762705
 20
0.207008
  0
VERTEX
  8
PLAN_1
 62
     2
  6
CONTINUOUS
 10
-0.766031
 20
0.207484
  0
VERTEX
  8
PLAN_1
 62
     2
  6
CONTINUOUS
 10
-0.768406
 20
0.208433
  0
VERTEX
  8
PLAN_1
 62
     2
  6
CONTINUOUS
 10
-0.770783
 20
0.209386
  0
VERTEX
  8
PLAN_1
 62
     2
  6
CONTINUOUS
 10
-0.772681
 20
0.210811
  0
VERTEX
  8
PLAN_1
 62
     2
  6
CONTINUOUS
 10
-0.774110
 20
0.211760
  0
VERTEX
  8
PLAN_1
 62
     2
  6
CONTINUOUS
 10
-0.775535
 20
0.213185
  0
VERTEX
  8
PLAN_1
 62
     2
  6
CONTINUOUS
 10
-0.777433
 20
0.216512
  0
VERTEX
  8
PLAN_1
 62
     2
  6
CONTINUOUS
 10
-0.778386
 20
0.219362
  0
VERTEX
  8
PLAN_1
 62
     2
  6
CONTINUOUS
 10
-0.778858
 20
0.222689
  0
VERTEX
  8
PLAN_1
 62
     2
  6
CONTINUOUS
 10
-0.779335
 20
0.225539
  0
VERTEX
  8
PLAN_1
 62
     2
  6
CONTINUOUS
 10
-0.770307
 20
0.225539
  0
VERTEX
  8
PLAN_1
 62
     2
  6
CONTINUOUS
 10
-0.770307
 20
0.223638
  0
VERTEX
  8
PLAN_1
 62
     2
  6
CONTINUOUS
 10
-0.769831
 20
0.221740
  0
VERTEX
  8
PLAN_1
 62
     2
  6
CONTINUOUS
 10
-0.768882
 20
0.219839
  0
VERTEX
  8
PLAN_1
 62
     2
  6
CONTINUOUS
 10
-0.767929
 20
0.217937
  0
VERTEX
  8
PLAN_1
 62
     2
  6
CONTINUOUS
 10
-0.766031
 20
0.216512
  0
VERTEX
  8
PLAN_1
 62
     2
  6
CONTINUOUS
 10
-0.763654
 20
0.215563
  0
VERTEX
  8
PLAN_1
 62
     2
  6
CONTINUOUS
 10
-0.760327
 20
0.214610
  0
VERTEX
  8
PLAN_1
 62
     2
  6
CONTINUOUS
 10
-0.756051
 20
0.214138
  0
VERTEX
  8
PLAN_1
 62
     2
  6
CONTINUOUS
 10
-0.753201
 20
0.214138
  0
VERTEX
  8
PLAN_1
 62
     2
  6
CONTINUOUS
 10
-0.751299
 20
0.214610
  0
VERTEX
  8
PLAN_1
 62
     2
  6
CONTINUOUS
 10
-0.748925
 20
0.215563
  0
VERTEX
  8
PLAN_1
 62
     2
  6
CONTINUOUS
 10
-0.747024
 20
0.216035
  0
VERTEX
  8
PLAN_1
 62
     2
  6
CONTINUOUS
 10
-0.745598
 20
0.217461
  0
VERTEX
  8
PLAN_1
 62
     2
  6
CONTINUOUS
 10
-0.744173
 20
0.218886
  0
VERTEX
  8
PLAN_1
 62
     2
  6
CONTINUOUS
 10
-0.743697
 20
0.220787
  0
VERTEX
  8
PLAN_1
 62
     2
  6
CONTINUOUS
 10
-0.743220
 20
0.222689
  0
VERTEX
  8
PLAN_1
 62
     2
  6
CONTINUOUS
 10
-0.743697
 20
0.224114
  0
VERTEX
  8
PLAN_1
 62
     2
  6
CONTINUOUS
 10
-0.744173
 20
0.225539
  0
VERTEX
  8
PLAN_1
 62
     2
  6
CONTINUOUS
 10
-0.744646
 20
0.226492
  0
VERTEX
  8
PLAN_1
 62
     2
  6
CONTINUOUS
 10
-0.746071
 20
0.227441
  0
VERTEX
  8
PLAN_1
 62
     2
  6
CONTINUOUS
 10
-0.747496
 20
0.228390
  0
VERTEX
  8
PLAN_1
 62
     2
  6
CONTINUOUS
 10
-0.749398
 20
0.229343
  0
VERTEX
  8
PLAN_1
 62
     2
  6
CONTINUOUS
 10
-0.751299
 20
0.229819
  0
VERTEX
  8
PLAN_1
 62
     2
  6
CONTINUOUS
 10
-0.754150
 20
0.230768
  0
VERTEX
  8
PLAN_1
 62
     2
  6
CONTINUOUS
 10
-0.764606
 20
0.233142
  0
VERTEX
  8
PLAN_1
 62
     2
  6
CONTINUOUS
 10
-0.767457
 20
0.234094
  0
VERTEX
  8
PLAN_1
 62
     2
  6
CONTINUOUS
 10
-0.769831
 20
0.235043
  0
VERTEX
  8
PLAN_1
 62
     2
  6
CONTINUOUS
 10
-0.772209
 20
0.236469
  0
VERTEX
  8
PLAN_1
 62
     2
  6
CONTINUOUS
 10
-0.774110
 20
0.237894
  0
VERTEX
  8
PLAN_1
 62
     2
  6
CONTINUOUS
 10
-0.775535
 20
0.239319
  0
VERTEX
  8
PLAN_1
 62
     2
  6
CONTINUOUS
 10
-0.776484
 20
0.241697
  0
VERTEX
  8
PLAN_1
 62
     2
  6
CONTINUOUS
 10
-0.776961
 20
0.243598
  0
VERTEX
  8
PLAN_1
 62
     2
  6
CONTINUOUS
 10
-0.777433
 20
0.246449
  0
VERTEX
  8
PLAN_1
 62
     2
  6
CONTINUOUS
 10
-0.776961
 20
0.250724
  0
VERTEX
  8
PLAN_1
 62
     2
  6
CONTINUOUS
 10
-0.775535
 20
0.254051
  0
VERTEX
  8
PLAN_1
 62
     2
  6
CONTINUOUS
 10
-0.773634
 20
0.257378
  0
VERTEX
  8
PLAN_1
 62
     2
  6
CONTINUOUS
 10
-0.771256
 20
0.259752
  0
VERTEX
  8
PLAN_1
 62
     2
  6
CONTINUOUS
 10
-0.767929
 20
0.261654
  0
VERTEX
  8
PLAN_1
 62
     2
  6
CONTINUOUS
 10
-0.764606
 20
0.262606
  0
VERTEX
  8
PLAN_1
 62
     2
  6
CONTINUOUS
 10
-0.760803
 20
0.263555
  0
VERTEX
  8
PLAN_1
 62
     2
  6
CONTINUOUS
 10
-0.757000
 20
0.264031
  0
VERTEX
  8
PLAN_1
 62
     2
  6
CONTINUOUS
 10
-0.753201
 20
0.263555
  0
VERTEX
  8
PLAN_1
 62
     2
  6
CONTINUOUS
 10
-0.750350
 20
0.263079
  0
VERTEX
  8
PLAN_1
 62
     2
  6
CONTINUOUS
 10
-0.747496
 20
0.262606
  0
VERTEX
  8
PLAN_1
 62
     2
  6
CONTINUOUS
 10
-0.745122
 20
0.261654
  0
VERTEX
  8
PLAN_1
 62
     2
  6
CONTINUOUS
 10
-0.743220
 20
0.260228
  0
VERTEX
  8
PLAN_1
 62
     2
  6
CONTINUOUS
 10
-0.741795
 20
0.259280
  0
VERTEX
  8
PLAN_1
 62
     2
  6
CONTINUOUS
 10
-0.740370
 20
0.257854
  0
VERTEX
  8
PLAN_1
 62
     2
  6
CONTINUOUS
 10
-0.738945
 20
0.256429
  0
VERTEX
  8
PLAN_1
 62
     2
  6
CONTINUOUS
 10
-0.737520
 20
0.253575
  0
VERTEX
  8
PLAN_1
 62
     2
  6
CONTINUOUS
 10
-0.736567
 20
0.250724
  0
VERTEX
  8
PLAN_1
 62
     2
  6
CONTINUOUS
 10
-0.736094
 20
0.248350
  0
VERTEX
  8
PLAN_1
 62
     2
  6
CONTINUOUS
 10
-0.736094
 20
0.246925
  0
VERTEX
  8
PLAN_1
 62
     2
  6
CONTINUOUS
 10
-0.744646
 20
0.246925
  0
SEQEND
  8
0
  0
POLYLINE
  8
PLAN_1
 62
     2
  6
CONTINUOUS
 66
     1
 40
0.003000
 41
0.003000
  0
VERTEX
  8
PLAN_1
 62
     2
  6
CONTINUOUS
 10
-0.677646
 20
0.225067
  0
VERTEX
  8
PLAN_1
 62
     2
  6
CONTINUOUS
 10
-0.677646
 20
0.223638
  0
VERTEX
  8
PLAN_1
 62
     2
  6
CONTINUOUS
 10
-0.678122
 20
0.222213
  0
VERTEX
  8
PLAN_1
 62
     2
  6
CONTINUOUS
 10
-0.679071
 20
0.220315
  0
VERTEX
  8
PLAN_1
 62
     2
  6
CONTINUOUS
 10
-0.680020
 20
0.218413
  0
VERTEX
  8
PLAN_1
 62
     2
  6
CONTINUOUS
 10
-0.680972
 20
0.216035
  0
VERTEX
  8
PLAN_1
 62
     2
  6
CONTINUOUS
 10
-0.682874
 20
0.214138
  0
VERTEX
  8
PLAN_1
 62
     2
  6
CONTINUOUS
 10
-0.684772
 20
0.211760
  0
VERTEX
  8
PLAN_1
 62
     2
  6
CONTINUOUS
 10
-0.687150
 20
0.209858
  0
VERTEX
  8
PLAN_1
 62
     2
  6
CONTINUOUS
 10
-0.688098
 20
0.209386
  0
VERTEX
  8
PLAN_1
 62
     2
  6
CONTINUOUS
 10
-0.689051
 20
0.208909
  0
VERTEX
  8
PLAN_1
 62
     2
  6
CONTINUOUS
 10
-0.690476
 20
0.207957
  0
VERTEX
  8
PLAN_1
 62
     2
  6
CONTINUOUS
 10
-0.692378
 20
0.207484
  0
VERTEX
  8
PLAN_1
 62
     2
  6
CONTINUOUS
 10
-0.694276
 20
0.207008
  0
VERTEX
  8
PLAN_1
 62
     2
  6
CONTINUOUS
 10
-0.696177
 20
0.206531
  0
VERTEX
  8
PLAN_1
 62
     2
  6
CONTINUOUS
 10
-0.699028
 20
0.206531
  0
VERTEX
  8
PLAN_1
 62
     2
  6
CONTINUOUS
 10
-0.701878
 20
0.206059
  0
VERTEX
  8
PLAN_1
 62
     2
  6
CONTINUOUS
 10
-0.704732
 20
0.206531
  0
VERTEX
  8
PLAN_1
 62
     2
  6
CONTINUOUS
 10
-0.707106
 20
0.207008
  0
VERTEX
  8
PLAN_1
 62
     2
  6
CONTINUOUS
 10
-0.709957
 20
0.207484
  0
VERTEX
  8
PLAN_1
 62
     2
  6
CONTINUOUS
 10
-0.712335
 20
0.208433
  0
VERTEX
  8
PLAN_1
 62
     2
  6
CONTINUOUS
 10
-0.714236
 20
0.209386
  0
VERTEX
  8
PLAN_1
 62
     2
  6
CONTINUOUS
 10
-0.716134
 20
0.210811
  0
VERTEX
  8
PLAN_1
 62
     2
  6
CONTINUOUS
 10
-0.718035
 20
0.212236
  0
VERTEX
  8
PLAN_1
 62
     2
  6
CONTINUOUS
 10
-0.719937
 20
0.214138
  0
VERTEX
  8
PLAN_1
 62
     2
  6
CONTINUOUS
 10
-0.721362
 20
0.216035
  0
VERTEX
  8
PLAN_1
 62
     2
  6
CONTINUOUS
 10
-0.722787
 20
0.217937
  0
VERTEX
  8
PLAN_1
 62
     2
  6
CONTINUOUS
 10
-0.723740
 20
0.220315
  0
VERTEX
  8
PLAN_1
 62
     2
  6
CONTINUOUS
 10
-0.724689
 20
0.222689
  0
VERTEX
  8
PLAN_1
 62
     2
  6
CONTINUOUS
 10
-0.725638
 20
0.227917
  0
VERTEX
  8
PLAN_1
 62
     2
  6
CONTINUOUS
 10
-0.726114
 20
0.233618
  0
VERTEX
  8
PLAN_1
 62
     2
  6
CONTINUOUS
 10
-0.725638
 20
0.239795
  0
VERTEX
  8
PLAN_1
 62
     2
  6
CONTINUOUS
 10
-0.724689
 20
0.245500
  0
VERTEX
  8
PLAN_1
 62
     2
  6
CONTINUOUS
 10
-0.723740
 20
0.247874
  0
VERTEX
  8
PLAN_1
 62
     2
  6
CONTINUOUS
 10
-0.722787
 20
0.250724
  0
VERTEX
  8
PLAN_1
 62
     2
  6
CONTINUOUS
 10
-0.721362
 20
0.252626
  0
VERTEX
  8
PLAN_1
 62
     2
  6
CONTINUOUS
 10
-0.719937
 20
0.255004
  0
VERTEX
  8
PLAN_1
 62
     2
  6
CONTINUOUS
 10
-0.718035
 20
0.256902
  0
VERTEX
  8
PLAN_1
 62
     2
  6
CONTINUOUS
 10
-0.716134
 20
0.258803
  0
VERTEX
  8
PLAN_1
 62
     2
  6
CONTINUOUS
 10
-0.714236
 20
0.260228
  0
VERTEX
  8
PLAN_1
 62
     2
  6
CONTINUOUS
 10
-0.711858
 20
0.261654
  0
VERTEX
  8
PLAN_1
 62
     2
  6
CONTINUOUS
 10
-0.709008
 20
0.262606
  0
VERTEX
  8
PLAN_1
 62
     2
  6
CONTINUOUS
 10
-0.706630
 20
0.263079
  0
VERTEX
  8
PLAN_1
 62
     2
  6
CONTINUOUS
 10
-0.703307
 20
0.263555
  0
VERTEX
  8
PLAN_1
 62
     2
  6
CONTINUOUS
 10
-0.699980
 20
0.264031
  0
VERTEX
  8
PLAN_1
 62
     2
  6
CONTINUOUS
 10
-0.697126
 20
0.263555
  0
VERTEX
  8
PLAN_1
 62
     2
  6
CONTINUOUS
 10
-0.694752
 20
0.263079
  0
VERTEX
  8
PLAN_1
 62
     2
  6
CONTINUOUS
 10
-0.691902
 20
0.262606
  0
VERTEX
  8
PLAN_1
 62
     2
  6
CONTINUOUS
 10
-0.690000
 20
0.261654
  0
VERTEX
  8
PLAN_1
 62
     2
  6
CONTINUOUS
 10
-0.687626
 20
0.260228
  0
VERTEX
  8
PLAN_1
 62
     2
  6
CONTINUOUS
 10
-0.685724
 20
0.258803
  0
VERTEX
  8
PLAN_1
 62
     2
  6
CONTINUOUS
 10
-0.684299
 20
0.256902
  0
VERTEX
  8
PLAN_1
 62
     2
  6
CONTINUOUS
 10
-0.682398
 20
0.255004
  0
VERTEX
  8
PLAN_1
 62
     2
  6
CONTINUOUS
 10
-0.680972
 20
0.253102
  0
VERTEX
  8
PLAN_1
 62
     2
  6
CONTINUOUS
 10
-0.680020
 20
0.250724
  0
VERTEX
  8
PLAN_1
 62
     2
  6
CONTINUOUS
 10
-0.679071
 20
0.247874
  0
VERTEX
  8
PLAN_1
 62
     2
  6
CONTINUOUS
 10
-0.678122
 20
0.245024
  0
VERTEX
  8
PLAN_1
 62
     2
  6
CONTINUOUS
 10
-0.677169
 20
0.238846
  0
VERTEX
  8
PLAN_1
 62
     2
  6
CONTINUOUS
 10
-0.676697
 20
0.232193
  0
VERTEX
  8
PLAN_1
 62
     2
  6
CONTINUOUS
 10
-0.716610
 20
0.232193
  0
VERTEX
  8
PLAN_1
 62
     2
  6
CONTINUOUS
 10
-0.716134
 20
0.227917
  0
VERTEX
  8
PLAN_1
 62
     2
  6
CONTINUOUS
 10
-0.715661
 20
0.224591
  0
VERTEX
  8
PLAN_1
 62
     2
  6
CONTINUOUS
 10
-0.714236
 20
0.221264
  0
VERTEX
  8
PLAN_1
 62
     2
  6
CONTINUOUS
 10
-0.712335
 20
0.218886
  0
VERTEX
  8
PLAN_1
 62
     2
  6
CONTINUOUS
 10
-0.710433
 20
0.216988
  0
VERTEX
  8
PLAN_1
 62
     2
  6
CONTINUOUS
 10
-0.707583
 20
0.215563
  0
VERTEX
  8
PLAN_1
 62
     2
  6
CONTINUOUS
 10
-0.704256
 20
0.214610
  0
VERTEX
  8
PLAN_1
 62
     2
  6
CONTINUOUS
 10
-0.700453
 20
0.214138
  0
VERTEX
  8
PLAN_1
 62
     2
  6
CONTINUOUS
 10
-0.697602
 20
0.214610
  0
VERTEX
  8
PLAN_1
 62
     2
  6
CONTINUOUS
 10
-0.694752
 20
0.215087
  0
VERTEX
  8
PLAN_1
 62
     2
  6
CONTINUOUS
 10
-0.692378
 20
0.216512
  0
VERTEX
  8
PLAN_1
 62
     2
  6
CONTINUOUS
 10
-0.690476
 20
0.217937
  0
VERTEX
  8
PLAN_1
 62
     2
  6
CONTINUOUS
 10
-0.689051
 20
0.219839
  0
VERTEX
  8
PLAN_1
 62
     2
  6
CONTINUOUS
 10
-0.687626
 20
0.221740
  0
VERTEX
  8
PLAN_1
 62
     2
  6
CONTINUOUS
 10
-0.687150
 20
0.223165
  0
VERTEX
  8
PLAN_1
 62
     2
  6
CONTINUOUS
 10
-0.686673
 20
0.225067
  0
VERTEX
  8
PLAN_1
 62
     2
  6
CONTINUOUS
 10
-0.677646
 20
0.225067
  0
SEQEND
  8
0
  0
POLYLINE
  8
PLAN_1
 62
     2
  6
CONTINUOUS
 66
     1
 40
0.003000
 41
0.003000
  0
VERTEX
  8
PLAN_1
 62
     2
  6
CONTINUOUS
 10
-0.686197
 20
0.239319
  0
VERTEX
  8
PLAN_1
 62
     2
  6
CONTINUOUS
 10
-0.686673
 20
0.242646
  0
VERTEX
  8
PLAN_1
 62
     2
  6
CONTINUOUS
 10
-0.687150
 20
0.245500
  0
VERTEX
  8
PLAN_1
 62
     2
  6
CONTINUOUS
 10
-0.688098
 20
0.248350
  0
VERTEX
  8
PLAN_1
 62
     2
  6
CONTINUOUS
 10
-0.690000
 20
0.250724
  0
VERTEX
  8
PLAN_1
 62
     2
  6
CONTINUOUS
 10
-0.691902
 20
0.252626
  0
VERTEX
  8
PLAN_1
 62
     2
  6
CONTINUOUS
 10
-0.694276
 20
0.254051
  0
VERTEX
  8
PLAN_1
 62
     2
  6
CONTINUOUS
 10
-0.697602
 20
0.255476
  0
VERTEX
  8
PLAN_1
 62
     2
  6
CONTINUOUS
 10
-0.701406
 20
0.255476
  0
VERTEX
  8
PLAN_1
 62
     2
  6
CONTINUOUS
 10
-0.704256
 20
0.255476
  0
VERTEX
  8
PLAN_1
 62
     2
  6
CONTINUOUS
 10
-0.707106
 20
0.254051
  0
VERTEX
  8
PLAN_1
 62
     2
  6
CONTINUOUS
 10
-0.709957
 20
0.252626
  0
VERTEX
  8
PLAN_1
 62
     2
  6
CONTINUOUS
 10
-0.711858
 20
0.250724
  0
VERTEX
  8
PLAN_1
 62
     2
  6
CONTINUOUS
 10
-0.713760
 20
0.248350
  0
VERTEX
  8
PLAN_1
 62
     2
  6
CONTINUOUS
 10
-0.715185
 20
0.245500
  0
VERTEX
  8
PLAN_1
 62
     2
  6
CONTINUOUS
 10
-0.716134
 20
0.242646
  0
VERTEX
  8
PLAN_1
 62
     2
  6
CONTINUOUS
 10
-0.716610
 20
0.239319
  0
VERTEX
  8
PLAN_1
 62
     2
  6
CONTINUOUS
 10
-0.686197
 20
0.239319
  0
SEQEND
  8
0
  0
SOLID
  8
PLAN_1
 62
     2
 10
-0.642480
 20
0.232193
 11
-0.668142
 21
0.232193
 12
-0.642480
 22
0.241220
 13
-0.668142
 23
0.241220
  0
POLYLINE
  8
PLAN_1
 62
     2
  6
CONTINUOUS
 66
     1
 40
0.003000
 41
0.003000
  0
VERTEX
  8
PLAN_1
 62
     2
  6
CONTINUOUS
 10
-0.642480
 20
0.232193
  0
VERTEX
  8
PLAN_1
 62
     2
  6
CONTINUOUS
 10
-0.668142
 20
0.232193
  0
VERTEX
  8
PLAN_1
 62
     2
  6
CONTINUOUS
 10
-0.668142
 20
0.241220
  0
VERTEX
  8
PLAN_1
 62
     2
  6
CONTINUOUS
 10
-0.642480
 20
0.241220
  0
VERTEX
  8
PLAN_1
 62
     2
  6
CONTINUOUS
 10
-0.642480
 20
0.232193
  0
SEQEND
  8
0
  0
SOLID
  8
PLAN_1
 62
     2
 10
-0.606366
 20
0.269732
 11
-0.613496
 21
0.269732
 12
-0.593063
 22
0.283988
 13
-0.604465
 23
0.283988
  0
POLYLINE
  8
PLAN_1
 62
     2
  6
CONTINUOUS
 66
     1
 40
0.003000
 41
0.003000
  0
VERTEX
  8
PLAN_1
 62
     2
  6
CONTINUOUS
 10
-0.606366
 20
0.269732
  0
VERTEX
  8
PLAN_1
 62
     2
  6
CONTINUOUS
 10
-0.613496
 20
0.269732
  0
VERTEX
  8
PLAN_1
 62
     2
  6
CONTINUOUS
 10
-0.604465
 20
0.283988
  0
VERTEX
  8
PLAN_1
 62
     2
  6
CONTINUOUS
 10
-0.593063
 20
0.283988
  0
VERTEX
  8
PLAN_1
 62
     2
  6
CONTINUOUS
 10
-0.606366
 20
0.269732
  0
SEQEND
  8
0
  0
POLYLINE
  8
PLAN_1
 62
     2
  6
CONTINUOUS
 66
     1
 40
0.003000
 41
0.003000
  0
VERTEX
  8
PLAN_1
 62
     2
  6
CONTINUOUS
 10
-0.584984
 20
0.225067
  0
VERTEX
  8
PLAN_1
 62
     2
  6
CONTINUOUS
 10
-0.584984
 20
0.223638
  0
VERTEX
  8
PLAN_1
 62
     2
  6
CONTINUOUS
 10
-0.585461
 20
0.222213
  0
VERTEX
  8
PLAN_1
 62
     2
  6
CONTINUOUS
 10
-0.586409
 20
0.220315
  0
VERTEX
  8
PLAN_1
 62
     2
  6
CONTINUOUS
 10
-0.587358
 20
0.218413
  0
VERTEX
  8
PLAN_1
 62
     2
  6
CONTINUOUS
 10
-0.588783
 20
0.216035
  0
VERTEX
  8
PLAN_1
 62
     2
  6
CONTINUOUS
 10
-0.590213
 20
0.214138
  0
VERTEX
  8
PLAN_1
 62
     2
  6
CONTINUOUS
 10
-0.592110
 20
0.211760
  0
VERTEX
  8
PLAN_1
 62
     2
  6
CONTINUOUS
 10
-0.594488
 20
0.209858
  0
VERTEX
  8
PLAN_1
 62
     2
  6
CONTINUOUS
 10
-0.595437
 20
0.209386
  0
VERTEX
  8
PLAN_1
 62
     2
  6
CONTINUOUS
 10
-0.596862
 20
0.208909
  0
VERTEX
  8
PLAN_1
 62
     2
  6
CONTINUOUS
 10
-0.597815
 20
0.207957
  0
VERTEX
  8
PLAN_1
 62
     2
  6
CONTINUOUS
 10
-0.599713
 20
0.207484
  0
VERTEX
  8
PLAN_1
 62
     2
  6
CONTINUOUS
 10
-0.601614
 20
0.207008
  0
VERTEX
  8
PLAN_1
 62
     2
  6
CONTINUOUS
 10
-0.603516
 20
0.206531
  0
VERTEX
  8
PLAN_1
 62
     2
  6
CONTINUOUS
 10
-0.606366
 20
0.206531
  0
VERTEX
  8
PLAN_1
 62
     2
  6
CONTINUOUS
 10
-0.609217
 20
0.206059
  0
VERTEX
  8
PLAN_1
 62
     2
  6
CONTINUOUS
 10
-0.612071
 20
0.206531
  0
VERTEX
  8
PLAN_1
 62
     2
  6
CONTINUOUS
 10
-0.614921
 20
0.207008
  0
VERTEX
  8
PLAN_1
 62
     2
  6
CONTINUOUS
 10
-0.617295
 20
0.207484
  0
VERTEX
  8
PLAN_1
 62
     2
  6
CONTINUOUS
 10
-0.619673
 20
0.208433
  0
VERTEX
  8
PLAN_1
 62
     2
  6
CONTINUOUS
 10
-0.621575
 20
0.209386
  0
VERTEX
  8
PLAN_1
 62
     2
  6
CONTINUOUS
 10
-0.623949
 20
0.210811
  0
VERTEX
  8
PLAN_1
 62
     2
  6
CONTINUOUS
 10
-0.625374
 20
0.212236
  0
VERTEX
  8
PLAN_1
 62
     2
  6
CONTINUOUS
 10
-0.627276
 20
0.214138
  0
VERTEX
  8
PLAN_1
 62
     2
  6
CONTINUOUS
 10
-0.628701
 20
0.216035
  0
VERTEX
  8
PLAN_1
 62
     2
  6
CONTINUOUS
 10
-0.630126
 20
0.217937
  0
VERTEX
  8
PLAN_1
 62
     2
  6
CONTINUOUS
 10
-0.631079
 20
0.220315
  0
VERTEX
  8
PLAN_1
 62
     2
  6
CONTINUOUS
 10
-0.632028
 20
0.222689
  0
VERTEX
  8
PLAN_1
 62
     2
  6
CONTINUOUS
 10
-0.633453
 20
0.227917
  0
VERTEX
  8
PLAN_1
 62
     2
  6
CONTINUOUS
 10
-0.633453
 20
0.233618
  0
VERTEX
  8
PLAN_1
 62
     2
  6
CONTINUOUS
 10
-0.633453
 20
0.239795
  0
VERTEX
  8
PLAN_1
 62
     2
  6
CONTINUOUS
 10
-0.632028
 20
0.245500
  0
VERTEX
  8
PLAN_1
 62
     2
  6
CONTINUOUS
 10
-0.631079
 20
0.247874
  0
VERTEX
  8
PLAN_1
 62
     2
  6
CONTINUOUS
 10
-0.630126
 20
0.250724
  0
VERTEX
  8
PLAN_1
 62
     2
  6
CONTINUOUS
 10
-0.628701
 20
0.252626
  0
VERTEX
  8
PLAN_1
 62
     2
  6
CONTINUOUS
 10
-0.627276
 20
0.255004
  0
VERTEX
  8
PLAN_1
 62
     2
  6
CONTINUOUS
 10
-0.625850
 20
0.256902
  0
VERTEX
  8
PLAN_1
 62
     2
  6
CONTINUOUS
 10
-0.623949
 20
0.258803
  0
VERTEX
  8
PLAN_1
 62
     2
  6
CONTINUOUS
 10
-0.621575
 20
0.260228
  0
VERTEX
  8
PLAN_1
 62
     2
  6
CONTINUOUS
 10
-0.619197
 20
0.261654
  0
VERTEX
  8
PLAN_1
 62
     2
  6
CONTINUOUS
 10
-0.616823
 20
0.262606
  0
VERTEX
  8
PLAN_1
 62
     2
  6
CONTINUOUS
 10
-0.613969
 20
0.263079
  0
VERTEX
  8
PLAN_1
 62
     2
  6
CONTINUOUS
 10
-0.610646
 20
0.263555
  0
VERTEX
  8
PLAN_1
 62
     2
  6
CONTINUOUS
 10
-0.607791
 20
0.264031
  0
VERTEX
  8
PLAN_1
 62
     2
  6
CONTINUOUS
 10
-0.604941
 20
0.263555
  0
VERTEX
  8
PLAN_1
 62
     2
  6
CONTINUOUS
 10
-0.602091
 20
0.263079
  0
VERTEX
  8
PLAN_1
 62
     2
  6
CONTINUOUS
 10
-0.599713
 20
0.262606
  0
VERTEX
  8
PLAN_1
 62
     2
  6
CONTINUOUS
 10
-0.597339
 20
0.261654
  0
VERTEX
  8
PLAN_1
 62
     2
  6
CONTINUOUS
 10
-0.594965
 20
0.260228
  0
VERTEX
  8
PLAN_1
 62
     2
  6
CONTINUOUS
 10
-0.593063
 20
0.258803
  0
VERTEX
  8
PLAN_1
 62
     2
  6
CONTINUOUS
 10
-0.591638
 20
0.256902
  0
VERTEX
  8
PLAN_1
 62
     2
  6
CONTINUOUS
 10
-0.589736
 20
0.255004
  0
VERTEX
  8
PLAN_1
 62
     2
  6
CONTINUOUS
 10
-0.588783
 20
0.253102
  0
VERTEX
  8
PLAN_1
 62
     2
  6
CONTINUOUS
 10
-0.587358
 20
0.250724
  0
VERTEX
  8
PLAN_1
 62
     2
  6
CONTINUOUS
 10
-0.586409
 20
0.247874
  0
VERTEX
  8
PLAN_1
 62
     2
  6
CONTINUOUS
 10
-0.585461
 20
0.245024
  0
VERTEX
  8
PLAN_1
 62
     2
  6
CONTINUOUS
 10
-0.584508
 20
0.238846
  0
VERTEX
  8
PLAN_1
 62
     2
  6
CONTINUOUS
 10
-0.584031
 20
0.232193
  0
VERTEX
  8
PLAN_1
 62
     2
  6
CONTINUOUS
 10
-0.623949
 20
0.232193
  0
VERTEX
  8
PLAN_1
 62
     2
  6
CONTINUOUS
 10
-0.623472
 20
0.227917
  0
VERTEX
  8
PLAN_1
 62
     2
  6
CONTINUOUS
 10
-0.623000
 20
0.224591
  0
VERTEX
  8
PLAN_1
 62
     2
  6
CONTINUOUS
 10
-0.621575
 20
0.221264
  0
VERTEX
  8
PLAN_1
 62
     2
  6
CONTINUOUS
 10
-0.620146
 20
0.218886
  0
VERTEX
  8
PLAN_1
 62
     2
  6
CONTINUOUS
 10
-0.617772
 20
0.216988
  0
VERTEX
  8
PLAN_1
 62
     2
  6
CONTINUOUS
 10
-0.614921
 20
0.215563
  0
VERTEX
  8
PLAN_1
 62
     2
  6
CONTINUOUS
 10
-0.611594
 20
0.214610
  0
VERTEX
  8
PLAN_1
 62
     2
  6
CONTINUOUS
 10
-0.608268
 20
0.214138
  0
VERTEX
  8
PLAN_1
 62
     2
  6
CONTINUOUS
 10
-0.604941
 20
0.214610
  0
VERTEX
  8
PLAN_1
 62
     2
  6
CONTINUOUS
 10
-0.602091
 20
0.215087
  0
VERTEX
  8
PLAN_1
 62
     2
  6
CONTINUOUS
 10
-0.599713
 20
0.216512
  0
VERTEX
  8
PLAN_1
 62
     2
  6
CONTINUOUS
 10
-0.597815
 20
0.217937
  0
VERTEX
  8
PLAN_1
 62
     2
  6
CONTINUOUS
 10
-0.596390
 20
0.219839
  0
VERTEX
  8
PLAN_1
 62
     2
  6
CONTINUOUS
 10
-0.594965
 20
0.221740
  0
VERTEX
  8
PLAN_1
 62
     2
  6
CONTINUOUS
 10
-0.594488
 20
0.223165
  0
VERTEX
  8
PLAN_1
 62
     2
  6
CONTINUOUS
 10
-0.594012
 20
0.225067
  0
VERTEX
  8
PLAN_1
 62
     2
  6
CONTINUOUS
 10
-0.584984
 20
0.225067
  0
SEQEND
  8
0
  0
POLYLINE
  8
PLAN_1
 62
     2
  6
CONTINUOUS
 66
     1
 40
0.003000
 41
0.003000
  0
VERTEX
  8
PLAN_1
 62
     2
  6
CONTINUOUS
 10
-0.593535
 20
0.239319
  0
VERTEX
  8
PLAN_1
 62
     2
  6
CONTINUOUS
 10
-0.594012
 20
0.242646
  0
VERTEX
  8
PLAN_1
 62
     2
  6
CONTINUOUS
 10
-0.594488
 20
0.245500
  0
VERTEX
  8
PLAN_1
 62
     2
  6
CONTINUOUS
 10
-0.595913
 20
0.248350
  0
VERTEX
  8
PLAN_1
 62
     2
  6
CONTINUOUS
 10
-0.597339
 20
0.250724
  0
VERTEX
  8
PLAN_1
 62
     2
  6
CONTINUOUS
 10
-0.599240
 20
0.252626
  0
VERTEX
  8
PLAN_1
 62
     2
  6
CONTINUOUS
 10
-0.601614
 20
0.254051
  0
VERTEX
  8
PLAN_1
 62
     2
  6
CONTINUOUS
 10
-0.604941
 20
0.255476
  0
VERTEX
  8
PLAN_1
 62
     2
  6
CONTINUOUS
 10
-0.608744
 20
0.255476
  0
VERTEX
  8
PLAN_1
 62
     2
  6
CONTINUOUS
 10
-0.612071
 20
0.255476
  0
VERTEX
  8
PLAN_1
 62
     2
  6
CONTINUOUS
 10
-0.614921
 20
0.254051
  0
VERTEX
  8
PLAN_1
 62
     2
  6
CONTINUOUS
 10
-0.617295
 20
0.252626
  0
VERTEX
  8
PLAN_1
 62
     2
  6
CONTINUOUS
 10
-0.619673
 20
0.250724
  0
VERTEX
  8
PLAN_1
 62
     2
  6
CONTINUOUS
 10
-0.621575
 20
0.248350
  0
VERTEX
  8
PLAN_1
 62
     2
  6
CONTINUOUS
 10
-0.622524
 20
0.245500
  0
VERTEX
  8
PLAN_1
 62
     2
  6
CONTINUOUS
 10
-0.623472
 20
0.242646
  0
VERTEX
  8
PLAN_1
 62
     2
  6
CONTINUOUS
 10
-0.623949
 20
0.239319
  0
VERTEX
  8
PLAN_1
 62
     2
  6
CONTINUOUS
 10
-0.593535
 20
0.239319
  0
SEQEND
  8
0
  0
POLYLINE
  8
PLAN_1
 62
     2
  6
CONTINUOUS
 66
     1
 40
0.003000
 41
0.003000
  0
VERTEX
  8
PLAN_1
 62
     2
  6
CONTINUOUS
 10
-0.562173
 20
0.254528
  0
VERTEX
  8
PLAN_1
 62
     2
  6
CONTINUOUS
 10
-0.562173
 20
0.219362
  0
VERTEX
  8
PLAN_1
 62
     2
  6
CONTINUOUS
 10
-0.561701
 20
0.217937
  0
VERTEX
  8
PLAN_1
 62
     2
  6
CONTINUOUS
 10
-0.561224
 20
0.216988
  0
VERTEX
  8
PLAN_1
 62
     2
  6
CONTINUOUS
 10
-0.560748
 20
0.216035
  0
VERTEX
  8
PLAN_1
 62
     2
  6
CONTINUOUS
 10
-0.559799
 20
0.215563
  0
VERTEX
  8
PLAN_1
 62
     2
  6
CONTINUOUS
 10
-0.558846
 20
0.215087
  0
VERTEX
  8
PLAN_1
 62
     2
  6
CONTINUOUS
 10
-0.557898
 20
0.215087
  0
VERTEX
  8
PLAN_1
 62
     2
  6
CONTINUOUS
 10
-0.557421
 20
0.215087
  0
VERTEX
  8
PLAN_1
 62
     2
  6
CONTINUOUS
 10
-0.556472
 20
0.215087
  0
VERTEX
  8
PLAN_1
 62
     2
  6
CONTINUOUS
 10
-0.553146
 20
0.215087
  0
VERTEX
  8
PLAN_1
 62
     2
  6
CONTINUOUS
 10
-0.553146
 20
0.207957
  0
VERTEX
  8
PLAN_1
 62
     2
  6
CONTINUOUS
 10
-0.554571
 20
0.207957
  0
VERTEX
  8
PLAN_1
 62
     2
  6
CONTINUOUS
 10
-0.555524
 20
0.207484
  0
VERTEX
  8
PLAN_1
 62
     2
  6
CONTINUOUS
 10
-0.556472
 20
0.207484
  0
VERTEX
  8
PLAN_1
 62
     2
  6
CONTINUOUS
 10
-0.557421
 20
0.207484
  0
VERTEX
  8
PLAN_1
 62
     2
  6
CONTINUOUS
 10
-0.558374
 20
0.207484
  0
VERTEX
  8
PLAN_1
 62
     2
  6
CONTINUOUS
 10
-0.558846
 20
0.207008
  0
VERTEX
  8
PLAN_1
 62
     2
  6
CONTINUOUS
 10
-0.559799
 20
0.207008
  0
VERTEX
  8
PLAN_1
 62
     2
  6
CONTINUOUS
 10
-0.560276
 20
0.207008
  0
VERTEX
  8
PLAN_1
 62
     2
  6
CONTINUOUS
 10
-0.563126
 20
0.207484
  0
VERTEX
  8
PLAN_1
 62
     2
  6
CONTINUOUS
 10
-0.565500
 20
0.207957
  0
VERTEX
  8
PLAN_1
 62
     2
  6
CONTINUOUS
 10
-0.567402
 20
0.208909
  0
VERTEX
  8
PLAN_1
 62
     2
  6
CONTINUOUS
 10
-0.568827
 20
0.210335
  0
VERTEX
  8
PLAN_1
 62
     2
  6
CONTINUOUS
 10
-0.569780
 20
0.212236
  0
VERTEX
  8
PLAN_1
 62
     2
  6
CONTINUOUS
 10
-0.570728
 20
0.214138
  0
VERTEX
  8
PLAN_1
 62
     2
  6
CONTINUOUS
 10
-0.571205
 20
0.216512
  0
VERTEX
  8
PLAN_1
 62
     2
  6
CONTINUOUS
 10
-0.571205
 20
0.218886
  0
VERTEX
  8
PLAN_1
 62
     2
  6
CONTINUOUS
 10
-0.571205
 20
0.254528
  0
VERTEX
  8
PLAN_1
 62
     2
  6
CONTINUOUS
 10
-0.578331
 20
0.254528
  0
VERTEX
  8
PLAN_1
 62
     2
  6
CONTINUOUS
 10
-0.578331
 20
0.262130
  0
VERTEX
  8
PLAN_1
 62
     2
  6
CONTINUOUS
 10
-0.571205
 20
0.262130
  0
VERTEX
  8
PLAN_1
 62
     2
  6
CONTINUOUS
 10
-0.571205
 20
0.277335
  0
VERTEX
  8
PLAN_1
 62
     2
  6
CONTINUOUS
 10
-0.562173
 20
0.277335
  0
VERTEX
  8
PLAN_1
 62
     2
  6
CONTINUOUS
 10
-0.562173
 20
0.262130
  0
VERTEX
  8
PLAN_1
 62
     2
  6
CONTINUOUS
 10
-0.553146
 20
0.262130
  0
VERTEX
  8
PLAN_1
 62
     2
  6
CONTINUOUS
 10
-0.553146
 20
0.254528
  0
VERTEX
  8
PLAN_1
 62
     2
  6
CONTINUOUS
 10
-0.562173
 20
0.254528
  0
SEQEND
  8
0
  0
POLYLINE
  8
PLAN_1
 62
     2
  6
CONTINUOUS
 66
     1
 40
0.003000
 41
0.003000
  0
VERTEX
  8
PLAN_1
 62
     2
  6
CONTINUOUS
 10
-0.522260
 20
0.264031
  0
VERTEX
  8
PLAN_1
 62
     2
  6
CONTINUOUS
 10
-0.518933
 20
0.263555
  0
VERTEX
  8
PLAN_1
 62
     2
  6
CONTINUOUS
 10
-0.516083
 20
0.263079
  0
VERTEX
  8
PLAN_1
 62
     2
  6
CONTINUOUS
 10
-0.513232
 20
0.262606
  0
VERTEX
  8
PLAN_1
 62
     2
  6
CONTINUOUS
 10
-0.510854
 20
0.261181
  0
VERTEX
  8
PLAN_1
 62
     2
  6
CONTINUOUS
 10
-0.508480
 20
0.259752
  0
VERTEX
  8
PLAN_1
 62
     2
  6
CONTINUOUS
 10
-0.506579
 20
0.258327
  0
VERTEX
  8
PLAN_1
 62
     2
  6
CONTINUOUS
 10
-0.504677
 20
0.256902
  0
VERTEX
  8
PLAN_1
 62
     2
  6
CONTINUOUS
 10
-0.502776
 20
0.254528
  0
VERTEX
  8
PLAN_1
 62
     2
  6
CONTINUOUS
 10
-0.500402
 20
0.250252
  0
VERTEX
  8
PLAN_1
 62
     2
  6
CONTINUOUS
 10
-0.498500
 20
0.245500
  0
VERTEX
  8
PLAN_1
 62
     2
  6
CONTINUOUS
 10
-0.497075
 20
0.240272
  0
VERTEX
  8
PLAN_1
 62
     2
  6
CONTINUOUS
 10
-0.496598
 20
0.235043
  0
VERTEX
  8
PLAN_1
 62
     2
  6
CONTINUOUS
 10
-0.497075
 20
0.229819
  0
VERTEX
  8
PLAN_1
 62
     2
  6
CONTINUOUS
 10
-0.498500
 20
0.224591
  0
VERTEX
  8
PLAN_1
 62
     2
  6
CONTINUOUS
 10
-0.500402
 20
0.219839
  0
VERTEX
  8
PLAN_1
 62
     2
  6
CONTINUOUS
 10
-0.502776
 20
0.215563
  0
VERTEX
  8
PLAN_1
 62
     2
  6
CONTINUOUS
 10
-0.504677
 20
0.213661
  0
VERTEX
  8
PLAN_1
 62
     2
  6
CONTINUOUS
 10
-0.506579
 20
0.211760
  0
VERTEX
  8
PLAN_1
 62
     2
  6
CONTINUOUS
 10
-0.508480
 20
0.210335
  0
VERTEX
  8
PLAN_1
 62
     2
  6
CONTINUOUS
 10
-0.510854
 20
0.208909
  0
VERTEX
  8
PLAN_1
 62
     2
  6
CONTINUOUS
 10
-0.513232
 20
0.207957
  0
VERTEX
  8
PLAN_1
 62
     2
  6
CONTINUOUS
 10
-0.516083
 20
0.207008
  0
VERTEX
  8
PLAN_1
 62
     2
  6
CONTINUOUS
 10
-0.518933
 20
0.206531
  0
VERTEX
  8
PLAN_1
 62
     2
  6
CONTINUOUS
 10
-0.522260
 20
0.206531
  0
VERTEX
  8
PLAN_1
 62
     2
  6
CONTINUOUS
 10
-0.525110
 20
0.206531
  0
VERTEX
  8
PLAN_1
 62
     2
  6
CONTINUOUS
 10
-0.527961
 20
0.207008
  0
VERTEX
  8
PLAN_1
 62
     2
  6
CONTINUOUS
 10
-0.530811
 20
0.207957
  0
VERTEX
  8
PLAN_1
 62
     2
  6
CONTINUOUS
 10
-0.533189
 20
0.208909
  0
VERTEX
  8
PLAN_1
 62
     2
  6
CONTINUOUS
 10
-0.535563
 20
0.210335
  0
VERTEX
  8
PLAN_1
 62
     2
  6
CONTINUOUS
 10
-0.537941
 20
0.211760
  0
VERTEX
  8
PLAN_1
 62
     2
  6
CONTINUOUS
 10
-0.539366
 20
0.213661
  0
VERTEX
  8
PLAN_1
 62
     2
  6
CONTINUOUS
 10
-0.541268
 20
0.215563
  0
VERTEX
  8
PLAN_1
 62
     2
  6
CONTINUOUS
 10
-0.544118
 20
0.219839
  0
VERTEX
  8
PLAN_1
 62
     2
  6
CONTINUOUS
 10
-0.546020
 20
0.224591
  0
VERTEX
  8
PLAN_1
 62
     2
  6
CONTINUOUS
 10
-0.546969
 20
0.229819
  0
VERTEX
  8
PLAN_1
 62
     2
  6
CONTINUOUS
 10
-0.547445
 20
0.235043
  0
VERTEX
  8
PLAN_1
 62
     2
  6
CONTINUOUS
 10
-0.546969
 20
0.240272
  0
VERTEX
  8
PLAN_1
 62
     2
  6
CONTINUOUS
 10
-0.546020
 20
0.245500
  0
VERTEX
  8
PLAN_1
 62
     2
  6
CONTINUOUS
 10
-0.544118
 20
0.250252
  0
VERTEX
  8
PLAN_1
 62
     2
  6
CONTINUOUS
 10
-0.541268
 20
0.254528
  0
VERTEX
  8
PLAN_1
 62
     2
  6
CONTINUOUS
 10
-0.539366
 20
0.256902
  0
VERTEX
  8
PLAN_1
 62
     2
  6
CONTINUOUS
 10
-0.537941
 20
0.258327
  0
VERTEX
  8
PLAN_1
 62
     2
  6
CONTINUOUS
 10
-0.535563
 20
0.259752
  0
VERTEX
  8
PLAN_1
 62
     2
  6
CONTINUOUS
 10
-0.533189
 20
0.261181
  0
VERTEX
  8
PLAN_1
 62
     2
  6
CONTINUOUS
 10
-0.530811
 20
0.262606
  0
VERTEX
  8
PLAN_1
 62
     2
  6
CONTINUOUS
 10
-0.527961
 20
0.263079
  0
VERTEX
  8
PLAN_1
 62
     2
  6
CONTINUOUS
 10
-0.525110
 20
0.263555
  0
VERTEX
  8
PLAN_1
 62
     2
  6
CONTINUOUS
 10
-0.522260
 20
0.264031
  0
SEQEND
  8
0
  0
POLYLINE
  8
PLAN_1
 62
     2
  6
CONTINUOUS
 66
     1
 40
0.003000
 41
0.003000
  0
VERTEX
  8
PLAN_1
 62
     2
  6
CONTINUOUS
 10
-0.522260
 20
0.214138
  0
VERTEX
  8
PLAN_1
 62
     2
  6
CONTINUOUS
 10
-0.519882
 20
0.214610
  0
VERTEX
  8
PLAN_1
 62
     2
  6
CONTINUOUS
 10
-0.517508
 20
0.215087
  0
VERTEX
  8
PLAN_1
 62
     2
  6
CONTINUOUS
 10
-0.515606
 20
0.215563
  0
VERTEX
  8
PLAN_1
 62
     2
  6
CONTINUOUS
 10
-0.514181
 20
0.216512
  0
VERTEX
  8
PLAN_1
 62
     2
  6
CONTINUOUS
 10
-0.511331
 20
0.218886
  0
VERTEX
  8
PLAN_1
 62
     2
  6
CONTINUOUS
 10
-0.509429
 20
0.221740
  0
VERTEX
  8
PLAN_1
 62
     2
  6
CONTINUOUS
 10
-0.508004
 20
0.225539
  0
VERTEX
  8
PLAN_1
 62
     2
  6
CONTINUOUS
 10
-0.507051
 20
0.228866
  0
VERTEX
  8
PLAN_1
 62
     2
  6
CONTINUOUS
 10
-0.506579
 20
0.232193
  0
VERTEX
  8
PLAN_1
 62
     2
  6
CONTINUOUS
 10
-0.506102
 20
0.235043
  0
VERTEX
  8
PLAN_1
 62
     2
  6
CONTINUOUS
 10
-0.506579
 20
0.237894
  0
VERTEX
  8
PLAN_1
 62
     2
  6
CONTINUOUS
 10
-0.507051
 20
0.241220
  0
VERTEX
  8
PLAN_1
 62
     2
  6
CONTINUOUS
 10
-0.508004
 20
0.245024
  0
VERTEX
  8
PLAN_1
 62
     2
  6
CONTINUOUS
 10
-0.509429
 20
0.248350
  0
VERTEX
  8
PLAN_1
 62
     2
  6
CONTINUOUS
 10
-0.511331
 20
0.251201
  0
VERTEX
  8
PLAN_1
 62
     2
  6
CONTINUOUS
 10
-0.514181
 20
0.253575
  0
VERTEX
  8
PLAN_1
 62
     2
  6
CONTINUOUS
 10
-0.515606
 20
0.254528
  0
VERTEX
  8
PLAN_1
 62
     2
  6
CONTINUOUS
 10
-0.517508
 20
0.255476
  0
VERTEX
  8
PLAN_1
 62
     2
  6
CONTINUOUS
 10
-0.519882
 20
0.255953
  0
VERTEX
  8
PLAN_1
 62
     2
  6
CONTINUOUS
 10
-0.522260
 20
0.255953
  0
VERTEX
  8
PLAN_1
 62
     2
  6
CONTINUOUS
 10
-0.524634
 20
0.255953
  0
VERTEX
  8
PLAN_1
 62
     2
  6
CONTINUOUS
 10
-0.526535
 20
0.255476
  0
VERTEX
  8
PLAN_1
 62
     2
  6
CONTINUOUS
 10
-0.528437
 20
0.254528
  0
VERTEX
  8
PLAN_1
 62
     2
  6
CONTINUOUS
 10
-0.529862
 20
0.253575
  0
VERTEX
  8
PLAN_1
 62
     2
  6
CONTINUOUS
 10
-0.532713
 20
0.251201
  0
VERTEX
  8
PLAN_1
 62
     2
  6
CONTINUOUS
 10
-0.535091
 20
0.248350
  0
VERTEX
  8
PLAN_1
 62
     2
  6
CONTINUOUS
 10
-0.536516
 20
0.245024
  0
VERTEX
  8
PLAN_1
 62
     2
  6
CONTINUOUS
 10
-0.537465
 20
0.241220
  0
VERTEX
  8
PLAN_1
 62
     2
  6
CONTINUOUS
 10
-0.537941
 20
0.237894
  0
VERTEX
  8
PLAN_1
 62
     2
  6
CONTINUOUS
 10
-0.537941
 20
0.235043
  0
VERTEX
  8
PLAN_1
 62
     2
  6
CONTINUOUS
 10
-0.537941
 20
0.232193
  0
VERTEX
  8
PLAN_1
 62
     2
  6
CONTINUOUS
 10
-0.537465
 20
0.228866
  0
VERTEX
  8
PLAN_1
 62
     2
  6
CONTINUOUS
 10
-0.536516
 20
0.225539
  0
VERTEX
  8
PLAN_1
 62
     2
  6
CONTINUOUS
 10
-0.535091
 20
0.221740
  0
VERTEX
  8
PLAN_1
 62
     2
  6
CONTINUOUS
 10
-0.532713
 20
0.218886
  0
VERTEX
  8
PLAN_1
 62
     2
  6
CONTINUOUS
 10
-0.529862
 20
0.216512
  0
VERTEX
  8
PLAN_1
 62
     2
  6
CONTINUOUS
 10
-0.528437
 20
0.215563
  0
VERTEX
  8
PLAN_1
 62
     2
  6
CONTINUOUS
 10
-0.526535
 20
0.215087
  0
VERTEX
  8
PLAN_1
 62
     2
  6
CONTINUOUS
 10
-0.524634
 20
0.214610
  0
VERTEX
  8
PLAN_1
 62
     2
  6
CONTINUOUS
 10
-0.522260
 20
0.214138
  0
SEQEND
  8
0
  0
POLYLINE
  8
PLAN_1
 62
     2
  6
CONTINUOUS
 66
     1
 40
0.003000
 41
0.003000
  0
VERTEX
  8
PLAN_1
 62
     2
  6
CONTINUOUS
 10
-0.450980
 20
0.207957
  0
VERTEX
  8
PLAN_1
 62
     2
  6
CONTINUOUS
 10
-0.450980
 20
0.215563
  0
VERTEX
  8
PLAN_1
 62
     2
  6
CONTINUOUS
 10
-0.450980
 20
0.216035
  0
VERTEX
  8
PLAN_1
 62
     2
  6
CONTINUOUS
 10
-0.452406
 20
0.213661
  0
VERTEX
  8
PLAN_1
 62
     2
  6
CONTINUOUS
 10
-0.454307
 20
0.211760
  0
VERTEX
  8
PLAN_1
 62
     2
  6
CONTINUOUS
 10
-0.455732
 20
0.210335
  0
VERTEX
  8
PLAN_1
 62
     2
  6
CONTINUOUS
 10
-0.458110
 20
0.208909
  0
VERTEX
  8
PLAN_1
 62
     2
  6
CONTINUOUS
 10
-0.460008
 20
0.207484
  0
VERTEX
  8
PLAN_1
 62
     2
  6
CONTINUOUS
 10
-0.462386
 20
0.207008
  0
VERTEX
  8
PLAN_1
 62
     2
  6
CONTINUOUS
 10
-0.465236
 20
0.206531
  0
VERTEX
  8
PLAN_1
 62
     2
  6
CONTINUOUS
 10
-0.468563
 20
0.206059
  0
VERTEX
  8
PLAN_1
 62
     2
  6
CONTINUOUS
 10
-0.471413
 20
0.206531
  0
VERTEX
  8
PLAN_1
 62
     2
  6
CONTINUOUS
 10
-0.474264
 20
0.207008
  0
VERTEX
  8
PLAN_1
 62
     2
  6
CONTINUOUS
 10
-0.477591
 20
0.207957
  0
VERTEX
  8
PLAN_1
 62
     2
  6
CONTINUOUS
 10
-0.479969
 20
0.209858
  0
VERTEX
  8
PLAN_1
 62
     2
  6
CONTINUOUS
 10
-0.482343
 20
0.212236
  0
VERTEX
  8
PLAN_1
 62
     2
  6
CONTINUOUS
 10
-0.484244
 20
0.215087
  0
VERTEX
  8
PLAN_1
 62
     2
  6
CONTINUOUS
 10
-0.485669
 20
0.218886
  0
VERTEX
  8
PLAN_1
 62
     2
  6
CONTINUOUS
 10
-0.486146
 20
0.223165
  0
VERTEX
  8
PLAN_1
 62
     2
  6
CONTINUOUS
 10
-0.486146
 20
0.262130
  0
VERTEX
  8
PLAN_1
 62
     2
  6
CONTINUOUS
 10
-0.476642
 20
0.262130
  0
VERTEX
  8
PLAN_1
 62
     2
  6
CONTINUOUS
 10
-0.476642
 20
0.226016
  0
VERTEX
  8
PLAN_1
 62
     2
  6
CONTINUOUS
 10
-0.476642
 20
0.223165
  0
VERTEX
  8
PLAN_1
 62
     2
  6
CONTINUOUS
 10
-0.476165
 20
0.220315
  0
VERTEX
  8
PLAN_1
 62
     2
  6
CONTINUOUS
 10
-0.475217
 20
0.218413
  0
VERTEX
  8
PLAN_1
 62
     2
  6
CONTINUOUS
 10
-0.473791
 20
0.216988
  0
VERTEX
  8
PLAN_1
 62
     2
  6
CONTINUOUS
 10
-0.472366
 20
0.215563
  0
VERTEX
  8
PLAN_1
 62
     2
  6
CONTINUOUS
 10
-0.470465
 20
0.214610
  0
VERTEX
  8
PLAN_1
 62
     2
  6
CONTINUOUS
 10
-0.468563
 20
0.214138
  0
VERTEX
  8
PLAN_1
 62
     2
  6
CONTINUOUS
 10
-0.466185
 20
0.214138
  0
VERTEX
  8
PLAN_1
 62
     2
  6
CONTINUOUS
 10
-0.464287
 20
0.214138
  0
VERTEX
  8
PLAN_1
 62
     2
  6
CONTINUOUS
 10
-0.462386
 20
0.214610
  0
VERTEX
  8
PLAN_1
 62
     2
  6
CONTINUOUS
 10
-0.460484
 20
0.215087
  0
VERTEX
  8
PLAN_1
 62
     2
  6
CONTINUOUS
 10
-0.459059
 20
0.216035
  0
VERTEX
  8
PLAN_1
 62
     2
  6
CONTINUOUS
 10
-0.456685
 20
0.217937
  0
VERTEX
  8
PLAN_1
 62
     2
  6
CONTINUOUS
 10
-0.454783
 20
0.220315
  0
VERTEX
  8
PLAN_1
 62
     2
  6
CONTINUOUS
 10
-0.452882
 20
0.223165
  0
VERTEX
  8
PLAN_1
 62
     2
  6
CONTINUOUS
 10
-0.451933
 20
0.226016
  0
VERTEX
  8
PLAN_1
 62
     2
  6
CONTINUOUS
 10
-0.451457
 20
0.229343
  0
VERTEX
  8
PLAN_1
 62
     2
  6
CONTINUOUS
 10
-0.451457
 20
0.232193
  0
VERTEX
  8
PLAN_1
 62
     2
  6
CONTINUOUS
 10
-0.451457
 20
0.262130
  0
VERTEX
  8
PLAN_1
 62
     2
  6
CONTINUOUS
 10
-0.442429
 20
0.262130
  0
VERTEX
  8
PLAN_1
 62
     2
  6
CONTINUOUS
 10
-0.442429
 20
0.207957
  0
VERTEX
  8
PLAN_1
 62
     2
  6
CONTINUOUS
 10
-0.450980
 20
0.207957
  0
SEQEND
  8
0
  0
POLYLINE
  8
PLAN_1
 62
     2
  6
CONTINUOUS
 66
     1
 40
0.003000
 41
0.003000
  0
VERTEX
  8
PLAN_1
 62
     2
  6
CONTINUOUS
 10
-0.429122
 20
0.262130
  0
VERTEX
  8
PLAN_1
 62
     2
  6
CONTINUOUS
 10
-0.420567
 20
0.262130
  0
VERTEX
  8
PLAN_1
 62
     2
  6
CONTINUOUS
 10
-0.420567
 20
0.254528
  0
VERTEX
  8
PLAN_1
 62
     2
  6
CONTINUOUS
 10
-0.420094
 20
0.254528
  0
VERTEX
  8
PLAN_1
 62
     2
  6
CONTINUOUS
 10
-0.419618
 20
0.255953
  0
VERTEX
  8
PLAN_1
 62
     2
  6
CONTINUOUS
 10
-0.418193
 20
0.257378
  0
VERTEX
  8
PLAN_1
 62
     2
  6
CONTINUOUS
 10
-0.416768
 20
0.258803
  0
VERTEX
  8
PLAN_1
 62
     2
  6
CONTINUOUS
 10
-0.414866
 20
0.260228
  0
VERTEX
  8
PLAN_1
 62
     2
  6
CONTINUOUS
 10
-0.412965
 20
0.261654
  0
VERTEX
  8
PLAN_1
 62
     2
  6
CONTINUOUS
 10
-0.410591
 20
0.262606
  0
VERTEX
  8
PLAN_1
 62
     2
  6
CONTINUOUS
 10
-0.407740
 20
0.263555
  0
VERTEX
  8
PLAN_1
 62
     2
  6
CONTINUOUS
 10
-0.403937
 20
0.264031
  0
VERTEX
  8
PLAN_1
 62
     2
  6
CONTINUOUS
 10
-0.401563
 20
0.263555
  0
VERTEX
  8
PLAN_1
 62
     2
  6
CONTINUOUS
 10
-0.399185
 20
0.263079
  0
VERTEX
  8
PLAN_1
 62
     2
  6
CONTINUOUS
 10
-0.396811
 20
0.262606
  0
VERTEX
  8
PLAN_1
 62
     2
  6
CONTINUOUS
 10
-0.394433
 20
0.261654
  0
VERTEX
  8
PLAN_1
 62
     2
  6
CONTINUOUS
 10
-0.392531
 20
0.260705
  0
VERTEX
  8
PLAN_1
 62
     2
  6
CONTINUOUS
 10
-0.390634
 20
0.259280
  0
VERTEX
  8
PLAN_1
 62
     2
  6
CONTINUOUS
 10
-0.388732
 20
0.257854
  0
VERTEX
  8
PLAN_1
 62
     2
  6
CONTINUOUS
 10
-0.387307
 20
0.255953
  0
VERTEX
  8
PLAN_1
 62
     2
  6
CONTINUOUS
 10
-0.384929
 20
0.252150
  0
VERTEX
  8
PLAN_1
 62
     2
  6
CONTINUOUS
 10
-0.383028
 20
0.247398
  0
VERTEX
  8
PLAN_1
 62
     2
  6
CONTINUOUS
 10
-0.381602
 20
0.242173
  0
VERTEX
  8
PLAN_1
 62
     2
  6
CONTINUOUS
 10
-0.381602
 20
0.236469
  0
VERTEX
  8
PLAN_1
 62
     2
  6
CONTINUOUS
 10
-0.381602
 20
0.231717
  0
VERTEX
  8
PLAN_1
 62
     2
  6
CONTINUOUS
 10
-0.382555
 20
0.226492
  0
VERTEX
  8
PLAN_1
 62
     2
  6
CONTINUOUS
 10
-0.383980
 20
0.221264
  0
VERTEX
  8
PLAN_1
 62
     2
  6
CONTINUOUS
 10
-0.386354
 20
0.216512
  0
VERTEX
  8
PLAN_1
 62
     2
  6
CONTINUOUS
 10
-0.387780
 20
0.214610
  0
VERTEX
  8
PLAN_1
 62
     2
  6
CONTINUOUS
 10
-0.389681
 20
0.212236
  0
VERTEX
  8
PLAN_1
 62
     2
  6
CONTINUOUS
 10
-0.391583
 20
0.210811
  0
VERTEX
  8
PLAN_1
 62
     2
  6
CONTINUOUS
 10
-0.393957
 20
0.209386
  0
VERTEX
  8
PLAN_1
 62
     2
  6
CONTINUOUS
 10
-0.396335
 20
0.207957
  0
VERTEX
  8
PLAN_1
 62
     2
  6
CONTINUOUS
 10
-0.399185
 20
0.207008
  0
VERTEX
  8
PLAN_1
 62
     2
  6
CONTINUOUS
 10
-0.402035
 20
0.206531
  0
VERTEX
  8
PLAN_1
 62
     2
  6
CONTINUOUS
 10
-0.405362
 20
0.206059
  0
VERTEX
  8
PLAN_1
 62
     2
  6
CONTINUOUS
 10
-0.407740
 20
0.206531
  0
VERTEX
  8
PLAN_1
 62
     2
  6
CONTINUOUS
 10
-0.410114
 20
0.207008
  0
VERTEX
  8
PLAN_1
 62
     2
  6
CONTINUOUS
 10
-0.412492
 20
0.207484
  0
VERTEX
  8
PLAN_1
 62
     2
  6
CONTINUOUS
 10
-0.414390
 20
0.208433
  0
VERTEX
  8
PLAN_1
 62
     2
  6
CONTINUOUS
 10
-0.416291
 20
0.209386
  0
VERTEX
  8
PLAN_1
 62
     2
  6
CONTINUOUS
 10
-0.417717
 20
0.210811
  0
VERTEX
  8
PLAN_1
 62
     2
  6
CONTINUOUS
 10
-0.418669
 20
0.212236
  0
VERTEX
  8
PLAN_1
 62
     2
  6
CONTINUOUS
 10
-0.419618
 20
0.213661
  0
VERTEX
  8
PLAN_1
 62
     2
  6
CONTINUOUS
 10
-0.420094
 20
0.213661
  0
VERTEX
  8
PLAN_1
 62
     2
  6
CONTINUOUS
 10
-0.420094
 20
0.186098
  0
VERTEX
  8
PLAN_1
 62
     2
  6
CONTINUOUS
 10
-0.429122
 20
0.186098
  0
VERTEX
  8
PLAN_1
 62
     2
  6
CONTINUOUS
 10
-0.429122
 20
0.262130
  0
SEQEND
  8
0
  0
POLYLINE
  8
PLAN_1
 62
     2
  6
CONTINUOUS
 66
     1
 40
0.003000
 41
0.003000
  0
VERTEX
  8
PLAN_1
 62
     2
  6
CONTINUOUS
 10
-0.405362
 20
0.214138
  0
VERTEX
  8
PLAN_1
 62
     2
  6
CONTINUOUS
 10
-0.402035
 20
0.214610
  0
VERTEX
  8
PLAN_1
 62
     2
  6
CONTINUOUS
 10
-0.399185
 20
0.215563
  0
VERTEX
  8
PLAN_1
 62
     2
  6
CONTINUOUS
 10
-0.396335
 20
0.217461
  0
VERTEX
  8
PLAN_1
 62
     2
  6
CONTINUOUS
 10
-0.394433
 20
0.220315
  0
VERTEX
  8
PLAN_1
 62
     2
  6
CONTINUOUS
 10
-0.393008
 20
0.223165
  0
VERTEX
  8
PLAN_1
 62
     2
  6
CONTINUOUS
 10
-0.391583
 20
0.226965
  0
VERTEX
  8
PLAN_1
 62
     2
  6
CONTINUOUS
 10
-0.391106
 20
0.230768
  0
VERTEX
  8
PLAN_1
 62
     2
  6
CONTINUOUS
 10
-0.391106
 20
0.235043
  0
VERTEX
  8
PLAN_1
 62
     2
  6
CONTINUOUS
 10
-0.391106
 20
0.237894
  0
VERTEX
  8
PLAN_1
 62
     2
  6
CONTINUOUS
 10
-0.391106
 20
0.241220
  0
VERTEX
  8
PLAN_1
 62
     2
  6
CONTINUOUS
 10
-0.392059
 20
0.244547
  0
VERTEX
  8
PLAN_1
 62
     2
  6
CONTINUOUS
 10
-0.393008
 20
0.247874
  0
VERTEX
  8
PLAN_1
 62
     2
  6
CONTINUOUS
 10
-0.393957
 20
0.249776
  0
VERTEX
  8
PLAN_1
 62
     2
  6
CONTINUOUS
 10
-0.394909
 20
0.251201
  0
VERTEX
  8
PLAN_1
 62
     2
  6
CONTINUOUS
 10
-0.395858
 20
0.252150
  0
VERTEX
  8
PLAN_1
 62
     2
  6
CONTINUOUS
 10
-0.397283
 20
0.253575
  0
VERTEX
  8
PLAN_1
 62
     2
  6
CONTINUOUS
 10
-0.399185
 20
0.254528
  0
VERTEX
  8
PLAN_1
 62
     2
  6
CONTINUOUS
 10
-0.401087
 20
0.255004
  0
VERTEX
  8
PLAN_1
 62
     2
  6
CONTINUOUS
 10
-0.403461
 20
0.255476
  0
VERTEX
  8
PLAN_1
 62
     2
  6
CONTINUOUS
 10
-0.405839
 20
0.255476
  0
VERTEX
  8
PLAN_1
 62
     2
  6
CONTINUOUS
 10
-0.408213
 20
0.255476
  0
VERTEX
  8
PLAN_1
 62
     2
  6
CONTINUOUS
 10
-0.410114
 20
0.255004
  0
VERTEX
  8
PLAN_1
 62
     2
  6
CONTINUOUS
 10
-0.412016
 20
0.254051
  0
VERTEX
  8
PLAN_1
 62
     2
  6
CONTINUOUS
 10
-0.413441
 20
0.253102
  0
VERTEX
  8
PLAN_1
 62
     2
  6
CONTINUOUS
 10
-0.414866
 20
0.252150
  0
VERTEX
  8
PLAN_1
 62
     2
  6
CONTINUOUS
 10
-0.416291
 20
0.250724
  0
VERTEX
  8
PLAN_1
 62
     2
  6
CONTINUOUS
 10
-0.417244
 20
0.248823
  0
VERTEX
  8
PLAN_1
 62
     2
  6
CONTINUOUS
 10
-0.418193
 20
0.247398
  0
VERTEX
  8
PLAN_1
 62
     2
  6
CONTINUOUS
 10
-0.419142
 20
0.243598
  0
VERTEX
  8
PLAN_1
 62
     2
  6
CONTINUOUS
 10
-0.420094
 20
0.239795
  0
VERTEX
  8
PLAN_1
 62
     2
  6
CONTINUOUS
 10
-0.420567
 20
0.235996
  0
VERTEX
  8
PLAN_1
 62
     2
  6
CONTINUOUS
 10
-0.420567
 20
0.232669
  0
VERTEX
  8
PLAN_1
 62
     2
  6
CONTINUOUS
 10
-0.420094
 20
0.227441
  0
VERTEX
  8
PLAN_1
 62
     2
  6
CONTINUOUS
 10
-0.419142
 20
0.223638
  0
VERTEX
  8
PLAN_1
 62
     2
  6
CONTINUOUS
 10
-0.417244
 20
0.220315
  0
VERTEX
  8
PLAN_1
 62
     2
  6
CONTINUOUS
 10
-0.415343
 20
0.217937
  0
VERTEX
  8
PLAN_1
 62
     2
  6
CONTINUOUS
 10
-0.412965
 20
0.216035
  0
VERTEX
  8
PLAN_1
 62
     2
  6
CONTINUOUS
 10
-0.410114
 20
0.215087
  0
VERTEX
  8
PLAN_1
 62
     2
  6
CONTINUOUS
 10
-0.407740
 20
0.214610
  0
VERTEX
  8
PLAN_1
 62
     2
  6
CONTINUOUS
 10
-0.405362
 20
0.214138
  0
SEQEND
  8
0
  0
POLYLINE
  8
PLAN_1
 62
     2
  6
CONTINUOUS
 66
     1
 40
0.003000
 41
0.003000
  0
VERTEX
  8
PLAN_1
 62
     2
  6
CONTINUOUS
 10
-0.324583
 20
0.225067
  0
VERTEX
  8
PLAN_1
 62
     2
  6
CONTINUOUS
 10
-0.324583
 20
0.223638
  0
VERTEX
  8
PLAN_1
 62
     2
  6
CONTINUOUS
 10
-0.325055
 20
0.222213
  0
VERTEX
  8
PLAN_1
 62
     2
  6
CONTINUOUS
 10
-0.325531
 20
0.220315
  0
VERTEX
  8
PLAN_1
 62
     2
  6
CONTINUOUS
 10
-0.326957
 20
0.218413
  0
VERTEX
  8
PLAN_1
 62
     2
  6
CONTINUOUS
 10
-0.327906
 20
0.216035
  0
VERTEX
  8
PLAN_1
 62
     2
  6
CONTINUOUS
 10
-0.329807
 20
0.214138
  0
VERTEX
  8
PLAN_1
 62
     2
  6
CONTINUOUS
 10
-0.331709
 20
0.211760
  0
VERTEX
  8
PLAN_1
 62
     2
  6
CONTINUOUS
 10
-0.334087
 20
0.209858
  0
VERTEX
  8
PLAN_1
 62
     2
  6
CONTINUOUS
 10
-0.335035
 20
0.209386
  0
VERTEX
  8
PLAN_1
 62
     2
  6
CONTINUOUS
 10
-0.335984
 20
0.208909
  0
VERTEX
  8
PLAN_1
 62
     2
  6
CONTINUOUS
 10
-0.337409
 20
0.207957
  0
VERTEX
  8
PLAN_1
 62
     2
  6
CONTINUOUS
 10
-0.339311
 20
0.207484
  0
VERTEX
  8
PLAN_1
 62
     2
  6
CONTINUOUS
 10
-0.340736
 20
0.207008
  0
VERTEX
  8
PLAN_1
 62
     2
  6
CONTINUOUS
 10
-0.343114
 20
0.206531
  0
VERTEX
  8
PLAN_1
 62
     2
  6
CONTINUOUS
 10
-0.345965
 20
0.206531
  0
VERTEX
  8
PLAN_1
 62
     2
  6
CONTINUOUS
 10
-0.348815
 20
0.206059
  0
VERTEX
  8
PLAN_1
 62
     2
  6
CONTINUOUS
 10
-0.351665
 20
0.206531
  0
VERTEX
  8
PLAN_1
 62
     2
  6
CONTINUOUS
 10
-0.354043
 20
0.207008
  0
VERTEX
  8
PLAN_1
 62
     2
  6
CONTINUOUS
 10
-0.356894
 20
0.207484
  0
VERTEX
  8
PLAN_1
 62
     2
  6
CONTINUOUS
 10
-0.359268
 20
0.208433
  0
VERTEX
  8
PLAN_1
 62
     2
  6
CONTINUOUS
 10
-0.361169
 20
0.209386
  0
VERTEX
  8
PLAN_1
 62
     2
  6
CONTINUOUS
 10
-0.363071
 20
0.210811
  0
VERTEX
  8
PLAN_1
 62
     2
  6
CONTINUOUS
 10
-0.364972
 20
0.212236
  0
VERTEX
  8
PLAN_1
 62
     2
  6
CONTINUOUS
 10
-0.366874
 20
0.214138
  0
VERTEX
  8
PLAN_1
 62
     2
  6
CONTINUOUS
 10
-0.368299
 20
0.216035
  0
VERTEX
  8
PLAN_1
 62
     2
  6
CONTINUOUS
 10
-0.369248
 20
0.217937
  0
VERTEX
  8
PLAN_1
 62
     2
  6
CONTINUOUS
 10
-0.370673
 20
0.220315
  0
VERTEX
  8
PLAN_1
 62
     2
  6
CONTINUOUS
 10
-0.371626
 20
0.222689
  0
VERTEX
  8
PLAN_1
 62
     2
  6
CONTINUOUS
 10
-0.372575
 20
0.227917
  0
VERTEX
  8
PLAN_1
 62
     2
  6
CONTINUOUS
 10
-0.373051
 20
0.233618
  0
VERTEX
  8
PLAN_1
 62
     2
  6
CONTINUOUS
 10
-0.372575
 20
0.239795
  0
VERTEX
  8
PLAN_1
 62
     2
  6
CONTINUOUS
 10
-0.371626
 20
0.245500
  0
VERTEX
  8
PLAN_1
 62
     2
  6
CONTINUOUS
 10
-0.370673
 20
0.247874
  0
VERTEX
  8
PLAN_1
 62
     2
  6
CONTINUOUS
 10
-0.369724
 20
0.250724
  0
VERTEX
  8
PLAN_1
 62
     2
  6
CONTINUOUS
 10
-0.368299
 20
0.252626
  0
VERTEX
  8
PLAN_1
 62
     2
  6
CONTINUOUS
 10
-0.366874
 20
0.255004
  0
VERTEX
  8
PLAN_1
 62
     2
  6
CONTINUOUS
 10
-0.364972
 20
0.256902
  0
VERTEX
  8
PLAN_1
 62
     2
  6
CONTINUOUS
 10
-0.363071
 20
0.258803
  0
VERTEX
  8
PLAN_1
 62
     2
  6
CONTINUOUS
 10
-0.361169
 20
0.260228
  0
VERTEX
  8
PLAN_1
 62
     2
  6
CONTINUOUS
 10
-0.358795
 20
0.261654
  0
VERTEX
  8
PLAN_1
 62
     2
  6
CONTINUOUS
 10
-0.355945
 20
0.262606
  0
VERTEX
  8
PLAN_1
 62
     2
  6
CONTINUOUS
 10
-0.353091
 20
0.263079
  0
VERTEX
  8
PLAN_1
 62
     2
  6
CONTINUOUS
 10
-0.350240
 20
0.263555
  0
VERTEX
  8
PLAN_1
 62
     2
  6
CONTINUOUS
 10
-0.346913
 20
0.264031
  0
VERTEX
  8
PLAN_1
 62
     2
  6
CONTINUOUS
 10
-0.344063
 20
0.263555
  0
VERTEX
  8
PLAN_1
 62
     2
  6
CONTINUOUS
 10
-0.341689
 20
0.263079
  0
VERTEX
  8
PLAN_1
 62
     2
  6
CONTINUOUS
 10
-0.338835
 20
0.262606
  0
VERTEX
  8
PLAN_1
 62
     2
  6
CONTINUOUS
 10
-0.336937
 20
0.261654
  0
VERTEX
  8
PLAN_1
 62
     2
  6
CONTINUOUS
 10
-0.334559
 20
0.260228
  0
VERTEX
  8
PLAN_1
 62
     2
  6
CONTINUOUS
 10
-0.332657
 20
0.258803
  0
VERTEX
  8
PLAN_1
 62
     2
  6
CONTINUOUS
 10
-0.331232
 20
0.256902
  0
VERTEX
  8
PLAN_1
 62
     2
  6
CONTINUOUS
 10
-0.329335
 20
0.255004
  0
VERTEX
  8
PLAN_1
 62
     2
  6
CONTINUOUS
 10
-0.327906
 20
0.253102
  0
VERTEX
  8
PLAN_1
 62
     2
  6
CONTINUOUS
 10
-0.326957
 20
0.250724
  0
VERTEX
  8
PLAN_1
 62
     2
  6
CONTINUOUS
 10
-0.326008
 20
0.247874
  0
VERTEX
  8
PLAN_1
 62
     2
  6
CONTINUOUS
 10
-0.325055
 20
0.245024
  0
VERTEX
  8
PLAN_1
 62
     2
  6
CONTINUOUS
 10
-0.324106
 20
0.238846
  0
VERTEX
  8
PLAN_1
 62
     2
  6
CONTINUOUS
 10
-0.323630
 20
0.232193
  0
VERTEX
  8
PLAN_1
 62
     2
  6
CONTINUOUS
 10
-0.363547
 20
0.232193
  0
VERTEX
  8
PLAN_1
 62
     2
  6
CONTINUOUS
 10
-0.363071
 20
0.227917
  0
VERTEX
  8
PLAN_1
 62
     2
  6
CONTINUOUS
 10
-0.362594
 20
0.224591
  0
VERTEX
  8
PLAN_1
 62
     2
  6
CONTINUOUS
 10
-0.361169
 20
0.221264
  0
VERTEX
  8
PLAN_1
 62
     2
  6
CONTINUOUS
 10
-0.359268
 20
0.218886
  0
VERTEX
  8
PLAN_1
 62
     2
  6
CONTINUOUS
 10
-0.357370
 20
0.216988
  0
VERTEX
  8
PLAN_1
 62
     2
  6
CONTINUOUS
 10
-0.354520
 20
0.215563
  0
VERTEX
  8
PLAN_1
 62
     2
  6
CONTINUOUS
 10
-0.351193
 20
0.214610
  0
VERTEX
  8
PLAN_1
 62
     2
  6
CONTINUOUS
 10
-0.347390
 20
0.214138
  0
VERTEX
  8
PLAN_1
 62
     2
  6
CONTINUOUS
 10
-0.344539
 20
0.214610
  0
VERTEX
  8
PLAN_1
 62
     2
  6
CONTINUOUS
 10
-0.341689
 20
0.215087
  0
VERTEX
  8
PLAN_1
 62
     2
  6
CONTINUOUS
 10
-0.339311
 20
0.216512
  0
VERTEX
  8
PLAN_1
 62
     2
  6
CONTINUOUS
 10
-0.337409
 20
0.217937
  0
VERTEX
  8
PLAN_1
 62
     2
  6
CONTINUOUS
 10
-0.335984
 20
0.219839
  0
VERTEX
  8
PLAN_1
 62
     2
  6
CONTINUOUS
 10
-0.334559
 20
0.221740
  0
VERTEX
  8
PLAN_1
 62
     2
  6
CONTINUOUS
 10
-0.333610
 20
0.223165
  0
VERTEX
  8
PLAN_1
 62
     2
  6
CONTINUOUS
 10
-0.333610
 20
0.225067
  0
VERTEX
  8
PLAN_1
 62
     2
  6
CONTINUOUS
 10
-0.324583
 20
0.225067
  0
SEQEND
  8
0
  0
POLYLINE
  8
PLAN_1
 62
     2
  6
CONTINUOUS
 66
     1
 40
0.003000
 41
0.003000
  0
VERTEX
  8
PLAN_1
 62
     2
  6
CONTINUOUS
 10
-0.333134
 20
0.239319
  0
VERTEX
  8
PLAN_1
 62
     2
  6
CONTINUOUS
 10
-0.333610
 20
0.242646
  0
VERTEX
  8
PLAN_1
 62
     2
  6
CONTINUOUS
 10
-0.334087
 20
0.245500
  0
VERTEX
  8
PLAN_1
 62
     2
  6
CONTINUOUS
 10
-0.335035
 20
0.248350
  0
VERTEX
  8
PLAN_1
 62
     2
  6
CONTINUOUS
 10
-0.336937
 20
0.250724
  0
VERTEX
  8
PLAN_1
 62
     2
  6
CONTINUOUS
 10
-0.338835
 20
0.252626
  0
VERTEX
  8
PLAN_1
 62
     2
  6
CONTINUOUS
 10
-0.341213
 20
0.254051
  0
VERTEX
  8
PLAN_1
 62
     2
  6
CONTINUOUS
 10
-0.344539
 20
0.255476
  0
VERTEX
  8
PLAN_1
 62
     2
  6
CONTINUOUS
 10
-0.348339
 20
0.255476
  0
VERTEX
  8
PLAN_1
 62
     2
  6
CONTINUOUS
 10
-0.351193
 20
0.255476
  0
VERTEX
  8
PLAN_1
 62
     2
  6
CONTINUOUS
 10
-0.354043
 20
0.254051
  0
VERTEX
  8
PLAN_1
 62
     2
  6
CONTINUOUS
 10
-0.356894
 20
0.252626
  0
VERTEX
  8
PLAN_1
 62
     2
  6
CONTINUOUS
 10
-0.358795
 20
0.250724
  0
VERTEX
  8
PLAN_1
 62
     2
  6
CONTINUOUS
 10
-0.360697
 20
0.248350
  0
VERTEX
  8
PLAN_1
 62
     2
  6
CONTINUOUS
 10
-0.362122
 20
0.245500
  0
VERTEX
  8
PLAN_1
 62
     2
  6
CONTINUOUS
 10
-0.363071
 20
0.242646
  0
VERTEX
  8
PLAN_1
 62
     2
  6
CONTINUOUS
 10
-0.363547
 20
0.239319
  0
VERTEX
  8
PLAN_1
 62
     2
  6
CONTINUOUS
 10
-0.333134
 20
0.239319
  0
SEQEND
  8
0
  0
SOLID
  8
PLAN_1
 62
     2
 10
-0.977012
 20
0.082984
 11
-0.986992
 21
0.082984
 12
-0.977012
 22
0.157591
 13
-0.986992
 23
0.157591
  0
POLYLINE
  8
PLAN_1
 62
     2
  6
CONTINUOUS
 66
     1
 40
0.003000
 41
0.003000
  0
VERTEX
  8
PLAN_1
 62
     2
  6
CONTINUOUS
 10
-0.977012
 20
0.082984
  0
VERTEX
  8
PLAN_1
 62
     2
  6
CONTINUOUS
 10
-0.986992
 20
0.082984
  0
VERTEX
  8
PLAN_1
 62
     2
  6
CONTINUOUS
 10
-0.986992
 20
0.157591
  0
VERTEX
  8
PLAN_1
 62
     2
  6
CONTINUOUS
 10
-0.977012
 20
0.157591
  0
VERTEX
  8
PLAN_1
 62
     2
  6
CONTINUOUS
 10
-0.977012
 20
0.082984
  0
SEQEND
  8
0
  0
POLYLINE
  8
PLAN_1
 62
     2
  6
CONTINUOUS
 66
     1
 40
0.003000
 41
0.003000
  0
VERTEX
  8
PLAN_1
 62
     2
  6
CONTINUOUS
 10
-0.916665
 20
0.082984
  0
VERTEX
  8
PLAN_1
 62
     2
  6
CONTINUOUS
 10
-0.925693
 20
0.082984
  0
VERTEX
  8
PLAN_1
 62
     2
  6
CONTINUOUS
 10
-0.925693
 20
0.116248
  0
VERTEX
  8
PLAN_1
 62
     2
  6
CONTINUOUS
 10
-0.925693
 20
0.119575
  0
VERTEX
  8
PLAN_1
 62
     2
  6
CONTINUOUS
 10
-0.926169
 20
0.122425
  0
VERTEX
  8
PLAN_1
 62
     2
  6
CONTINUOUS
 10
-0.927118
 20
0.124799
  0
VERTEX
  8
PLAN_1
 62
     2
  6
CONTINUOUS
 10
-0.928071
 20
0.127177
  0
VERTEX
  8
PLAN_1
 62
     2
  6
CONTINUOUS
 10
-0.929969
 20
0.128602
  0
VERTEX
  8
PLAN_1
 62
     2
  6
CONTINUOUS
 10
-0.931870
 20
0.129551
  0
VERTEX
  8
PLAN_1
 62
     2
  6
CONTINUOUS
 10
-0.934248
 20
0.130504
  0
VERTEX
  8
PLAN_1
 62
     2
  6
CONTINUOUS
 10
-0.937571
 20
0.130504
  0
VERTEX
  8
PLAN_1
 62
     2
  6
CONTINUOUS
 10
-0.939472
 20
0.130504
  0
VERTEX
  8
PLAN_1
 62
     2
  6
CONTINUOUS
 10
-0.941850
 20
0.130028
  0
VERTEX
  8
PLAN_1
 62
     2
  6
CONTINUOUS
 10
-0.944224
 20
0.128602
  0
VERTEX
  8
PLAN_1
 62
     2
  6
CONTINUOUS
 10
-0.946602
 20
0.127177
  0
VERTEX
  8
PLAN_1
 62
     2
  6
CONTINUOUS
 10
-0.948504
 20
0.124799
  0
VERTEX
  8
PLAN_1
 62
     2
  6
CONTINUOUS
 10
-0.950402
 20
0.121472
  0
VERTEX
  8
PLAN_1
 62
     2
  6
CONTINUOUS
 10
-0.951354
 20
0.117673
  0
VERTEX
  8
PLAN_1
 62
     2
  6
CONTINUOUS
 10
-0.951827
 20
0.112445
  0
VERTEX
  8
PLAN_1
 62
     2
  6
CONTINUOUS
 10
-0.951827
 20
0.082984
  0
VERTEX
  8
PLAN_1
 62
     2
  6
CONTINUOUS
 10
-0.960858
 20
0.082984
  0
VERTEX
  8
PLAN_1
 62
     2
  6
CONTINUOUS
 10
-0.960858
 20
0.137157
  0
VERTEX
  8
PLAN_1
 62
     2
  6
CONTINUOUS
 10
-0.952303
 20
0.137157
  0
VERTEX
  8
PLAN_1
 62
     2
  6
CONTINUOUS
 10
-0.952303
 20
0.129551
  0
VERTEX
  8
PLAN_1
 62
     2
  6
CONTINUOUS
 10
-0.951827
 20
0.129551
  0
VERTEX
  8
PLAN_1
 62
     2
  6
CONTINUOUS
 10
-0.951354
 20
0.130976
  0
VERTEX
  8
PLAN_1
 62
     2
  6
CONTINUOUS
 10
-0.949929
 20
0.132406
  0
VERTEX
  8
PLAN_1
 62
     2
  6
CONTINUOUS
 10
-0.948504
 20
0.133831
  0
VERTEX
  8
PLAN_1
 62
     2
  6
CONTINUOUS
 10
-0.946602
 20
0.135256
  0
VERTEX
  8
PLAN_1
 62
     2
  6
CONTINUOUS
 10
-0.944224
 20
0.136681
  0
VERTEX
  8
PLAN_1
 62
     2
  6
CONTINUOUS
 10
-0.941850
 20
0.137630
  0
VERTEX
  8
PLAN_1
 62
     2
  6
CONTINUOUS
 10
-0.939000
 20
0.138583
  0
VERTEX
  8
PLAN_1
 62
     2
  6
CONTINUOUS
 10
-0.935673
 20
0.139055
  0
VERTEX
  8
PLAN_1
 62
     2
  6
CONTINUOUS
 10
-0.932346
 20
0.138583
  0
VERTEX
  8
PLAN_1
 62
     2
  6
CONTINUOUS
 10
-0.929020
 20
0.138106
  0
VERTEX
  8
PLAN_1
 62
     2
  6
CONTINUOUS
 10
-0.925693
 20
0.137157
  0
VERTEX
  8
PLAN_1
 62
     2
  6
CONTINUOUS
 10
-0.922843
 20
0.135256
  0
VERTEX
  8
PLAN_1
 62
     2
  6
CONTINUOUS
 10
-0.920465
 20
0.132878
  0
VERTEX
  8
PLAN_1
 62
     2
  6
CONTINUOUS
 10
-0.918567
 20
0.129551
  0
VERTEX
  8
PLAN_1
 62
     2
  6
CONTINUOUS
 10
-0.917614
 20
0.127177
  0
VERTEX
  8
PLAN_1
 62
     2
  6
CONTINUOUS
 10
-0.917138
 20
0.125276
  0
VERTEX
  8
PLAN_1
 62
     2
  6
CONTINUOUS
 10
-0.916665
 20
0.122902
  0
VERTEX
  8
PLAN_1
 62
     2
  6
CONTINUOUS
 10
-0.916665
 20
0.120047
  0
VERTEX
  8
PLAN_1
 62
     2
  6
CONTINUOUS
 10
-0.916665
 20
0.082984
  0
SEQEND
  8
0
  0
POLYLINE
  8
PLAN_1
 62
     2
  6
CONTINUOUS
 66
     1
 40
0.003000
 41
0.003000
  0
VERTEX
  8
PLAN_1
 62
     2
  6
CONTINUOUS
 10
-0.869146
 20
0.119098
  0
VERTEX
  8
PLAN_1
 62
     2
  6
CONTINUOUS
 10
-0.869622
 20
0.121472
  0
VERTEX
  8
PLAN_1
 62
     2
  6
CONTINUOUS
 10
-0.870571
 20
0.123850
  0
VERTEX
  8
PLAN_1
 62
     2
  6
CONTINUOUS
 10
-0.871524
 20
0.125752
  0
VERTEX
  8
PLAN_1
 62
     2
  6
CONTINUOUS
 10
-0.872949
 20
0.127654
  0
VERTEX
  8
PLAN_1
 62
     2
  6
CONTINUOUS
 10
-0.874846
 20
0.129079
  0
VERTEX
  8
PLAN_1
 62
     2
  6
CONTINUOUS
 10
-0.876748
 20
0.130028
  0
VERTEX
  8
PLAN_1
 62
     2
  6
CONTINUOUS
 10
-0.879126
 20
0.130504
  0
VERTEX
  8
PLAN_1
 62
     2
  6
CONTINUOUS
 10
-0.881976
 20
0.130504
  0
VERTEX
  8
PLAN_1
 62
     2
  6
CONTINUOUS
 10
-0.883878
 20
0.130504
  0
VERTEX
  8
PLAN_1
 62
     2
  6
CONTINUOUS
 10
-0.885776
 20
0.130028
  0
VERTEX
  8
PLAN_1
 62
     2
  6
CONTINUOUS
 10
-0.887677
 20
0.129551
  0
VERTEX
  8
PLAN_1
 62
     2
  6
CONTINUOUS
 10
-0.889102
 20
0.128602
  0
VERTEX
  8
PLAN_1
 62
     2
  6
CONTINUOUS
 10
-0.891480
 20
0.126701
  0
VERTEX
  8
PLAN_1
 62
     2
  6
CONTINUOUS
 10
-0.893382
 20
0.123850
  0
VERTEX
  8
PLAN_1
 62
     2
  6
CONTINUOUS
 10
-0.895280
 20
0.121000
  0
VERTEX
  8
PLAN_1
 62
     2
  6
CONTINUOUS
 10
-0.896232
 20
0.117197
  0
VERTEX
  8
PLAN_1
 62
     2
  6
CONTINUOUS
 10
-0.896709
 20
0.113870
  0
VERTEX
  8
PLAN_1
 62
     2
  6
CONTINUOUS
 10
-0.896709
 20
0.110071
  0
VERTEX
  8
PLAN_1
 62
     2
  6
CONTINUOUS
 10
-0.896709
 20
0.106744
  0
VERTEX
  8
PLAN_1
 62
     2
  6
CONTINUOUS
 10
-0.896232
 20
0.102941
  0
VERTEX
  8
PLAN_1
 62
     2
  6
CONTINUOUS
 10
-0.895280
 20
0.099614
  0
VERTEX
  8
PLAN_1
 62
     2
  6
CONTINUOUS
 10
-0.894331
 20
0.096291
  0
VERTEX
  8
PLAN_1
 62
     2
  6
CONTINUOUS
 10
-0.892429
 20
0.093437
  0
VERTEX
  8
PLAN_1
 62
     2
  6
CONTINUOUS
 10
-0.889579
 20
0.091063
  0
VERTEX
  8
PLAN_1
 62
     2
  6
CONTINUOUS
 10
-0.888154
 20
0.090110
  0
VERTEX
  8
PLAN_1
 62
     2
  6
CONTINUOUS
 10
-0.886252
 20
0.089638
  0
VERTEX
  8
PLAN_1
 62
     2
  6
CONTINUOUS
 10
-0.884350
 20
0.089161
  0
VERTEX
  8
PLAN_1
 62
     2
  6
CONTINUOUS
 10
-0.881976
 20
0.089161
  0
VERTEX
  8
PLAN_1
 62
     2
  6
CONTINUOUS
 10
-0.879598
 20
0.089638
  0
VERTEX
  8
PLAN_1
 62
     2
  6
CONTINUOUS
 10
-0.877701
 20
0.090110
  0
VERTEX
  8
PLAN_1
 62
     2
  6
CONTINUOUS
 10
-0.875799
 20
0.091063
  0
VERTEX
  8
PLAN_1
 62
     2
  6
CONTINUOUS
 10
-0.873898
 20
0.092488
  0
VERTEX
  8
PLAN_1
 62
     2
  6
CONTINUOUS
 10
-0.871996
 20
0.094390
  0
VERTEX
  8
PLAN_1
 62
     2
  6
CONTINUOUS
 10
-0.870571
 20
0.096764
  0
VERTEX
  8
PLAN_1
 62
     2
  6
CONTINUOUS
 10
-0.869622
 20
0.099142
  0
VERTEX
  8
PLAN_1
 62
     2
  6
CONTINUOUS
 10
-0.869146
 20
0.101992
  0
VERTEX
  8
PLAN_1
 62
     2
  6
CONTINUOUS
 10
-0.860118
 20
0.101992
  0
VERTEX
  8
PLAN_1
 62
     2
  6
CONTINUOUS
 10
-0.860591
 20
0.098665
  0
VERTEX
  8
PLAN_1
 62
     2
  6
CONTINUOUS
 10
-0.861543
 20
0.095339
  0
VERTEX
  8
PLAN_1
 62
     2
  6
CONTINUOUS
 10
-0.863445
 20
0.091539
  0
VERTEX
  8
PLAN_1
 62
     2
  6
CONTINUOUS
 10
-0.865343
 20
0.088685
  0
VERTEX
  8
PLAN_1
 62
     2
  6
CONTINUOUS
 10
-0.868669
 20
0.085835
  0
VERTEX
  8
PLAN_1
 62
     2
  6
CONTINUOUS
 10
-0.871996
 20
0.083461
  0
VERTEX
  8
PLAN_1
 62
     2
  6
CONTINUOUS
 10
-0.874374
 20
0.082508
  0
VERTEX
  8
PLAN_1
 62
     2
  6
CONTINUOUS
 10
-0.876748
 20
0.082035
  0
VERTEX
  8
PLAN_1
 62
     2
  6
CONTINUOUS
 10
-0.879598
 20
0.081559
  0
VERTEX
  8
PLAN_1
 62
     2
  6
CONTINUOUS
 10
-0.882453
 20
0.081083
  0
VERTEX
  8
PLAN_1
 62
     2
  6
CONTINUOUS
 10
-0.885303
 20
0.081559
  0
VERTEX
  8
PLAN_1
 62
     2
  6
CONTINUOUS
 10
-0.887677
 20
0.082035
  0
VERTEX
  8
PLAN_1
 62
     2
  6
CONTINUOUS
 10
-0.890055
 20
0.082508
  0
VERTEX
  8
PLAN_1
 62
     2
  6
CONTINUOUS
 10
-0.892429
 20
0.083461
  0
VERTEX
  8
PLAN_1
 62
     2
  6
CONTINUOUS
 10
-0.894807
 20
0.084409
  0
VERTEX
  8
PLAN_1
 62
     2
  6
CONTINUOUS
 10
-0.896709
 20
0.085835
  0
VERTEX
  8
PLAN_1
 62
     2
  6
CONTINUOUS
 10
-0.898606
 20
0.087260
  0
VERTEX
  8
PLAN_1
 62
     2
  6
CONTINUOUS
 10
-0.900031
 20
0.089161
  0
VERTEX
  8
PLAN_1
 62
     2
  6
CONTINUOUS
 10
-0.901457
 20
0.091063
  0
VERTEX
  8
PLAN_1
 62
     2
  6
CONTINUOUS
 10
-0.902886
 20
0.092965
  0
VERTEX
  8
PLAN_1
 62
     2
  6
CONTINUOUS
 10
-0.903835
 20
0.095339
  0
VERTEX
  8
PLAN_1
 62
     2
  6
CONTINUOUS
 10
-0.904783
 20
0.097717
  0
VERTEX
  8
PLAN_1
 62
     2
  6
CONTINUOUS
 10
-0.906209
 20
0.102941
  0
VERTEX
  8
PLAN_1
 62
     2
  6
CONTINUOUS
 10
-0.906685
 20
0.108646
  0
VERTEX
  8
PLAN_1
 62
     2
  6
CONTINUOUS
 10
-0.906209
 20
0.114823
  0
VERTEX
  8
PLAN_1
 62
     2
  6
CONTINUOUS
 10
-0.905260
 20
0.120524
  0
VERTEX
  8
PLAN_1
 62
     2
  6
CONTINUOUS
 10
-0.904311
 20
0.122902
  0
VERTEX
  8
PLAN_1
 62
     2
  6
CONTINUOUS
 10
-0.902886
 20
0.125752
  0
VERTEX
  8
PLAN_1
 62
     2
  6
CONTINUOUS
 10
-0.901933
 20
0.127654
  0
VERTEX
  8
PLAN_1
 62
     2
  6
CONTINUOUS
 10
-0.900508
 20
0.130028
  0
VERTEX
  8
PLAN_1
 62
     2
  6
CONTINUOUS
 10
-0.898606
 20
0.131929
  0
VERTEX
  8
PLAN_1
 62
     2
  6
CONTINUOUS
 10
-0.896709
 20
0.133831
  0
VERTEX
  8
PLAN_1
 62
     2
  6
CONTINUOUS
 10
-0.894331
 20
0.135256
  0
VERTEX
  8
PLAN_1
 62
     2
  6
CONTINUOUS
 10
-0.891957
 20
0.136681
  0
VERTEX
  8
PLAN_1
 62
     2
  6
CONTINUOUS
 10
-0.889579
 20
0.137630
  0
VERTEX
  8
PLAN_1
 62
     2
  6
CONTINUOUS
 10
-0.886728
 20
0.138106
  0
VERTEX
  8
PLAN_1
 62
     2
  6
CONTINUOUS
 10
-0.883878
 20
0.138583
  0
VERTEX
  8
PLAN_1
 62
     2
  6
CONTINUOUS
 10
-0.880551
 20
0.139055
  0
VERTEX
  8
PLAN_1
 62
     2
  6
CONTINUOUS
 10
-0.878173
 20
0.138583
  0
VERTEX
  8
PLAN_1
 62
     2
  6
CONTINUOUS
 10
-0.875799
 20
0.138583
  0
VERTEX
  8
PLAN_1
 62
     2
  6
CONTINUOUS
 10
-0.873421
 20
0.137630
  0
VERTEX
  8
PLAN_1
 62
     2
  6
CONTINUOUS
 10
-0.871524
 20
0.137157
  0
VERTEX
  8
PLAN_1
 62
     2
  6
CONTINUOUS
 10
-0.868197
 20
0.135256
  0
VERTEX
  8
PLAN_1
 62
     2
  6
CONTINUOUS
 10
-0.865343
 20
0.132406
  0
VERTEX
  8
PLAN_1
 62
     2
  6
CONTINUOUS
 10
-0.862969
 20
0.129551
  0
VERTEX
  8
PLAN_1
 62
     2
  6
CONTINUOUS
 10
-0.861543
 20
0.126224
  0
VERTEX
  8
PLAN_1
 62
     2
  6
CONTINUOUS
 10
-0.860591
 20
0.122425
  0
VERTEX
  8
PLAN_1
 62
     2
  6
CONTINUOUS
 10
-0.860118
 20
0.119098
  0
VERTEX
  8
PLAN_1
 62
     2
  6
CONTINUOUS
 10
-0.869146
 20
0.119098
  0
SEQEND
  8
0
  0
POLYLINE
  8
PLAN_1
 62
     2
  6
CONTINUOUS
 66
     1
 40
0.003000
 41
0.003000
  0
VERTEX
  8
PLAN_1
 62
     2
  6
CONTINUOUS
 10
-0.828756
 20
0.139055
  0
VERTEX
  8
PLAN_1
 62
     2
  6
CONTINUOUS
 10
-0.825429
 20
0.138583
  0
VERTEX
  8
PLAN_1
 62
     2
  6
CONTINUOUS
 10
-0.822579
 20
0.138106
  0
VERTEX
  8
PLAN_1
 62
     2
  6
CONTINUOUS
 10
-0.820201
 20
0.137157
  0
VERTEX
  8
PLAN_1
 62
     2
  6
CONTINUOUS
 10
-0.817350
 20
0.136205
  0
VERTEX
  8
PLAN_1
 62
     2
  6
CONTINUOUS
 10
-0.814976
 20
0.134780
  0
VERTEX
  8
PLAN_1
 62
     2
  6
CONTINUOUS
 10
-0.813075
 20
0.133354
  0
VERTEX
  8
PLAN_1
 62
     2
  6
CONTINUOUS
 10
-0.811173
 20
0.131929
  0
VERTEX
  8
PLAN_1
 62
     2
  6
CONTINUOUS
 10
-0.809748
 20
0.129551
  0
VERTEX
  8
PLAN_1
 62
     2
  6
CONTINUOUS
 10
-0.806898
 20
0.125276
  0
VERTEX
  8
PLAN_1
 62
     2
  6
CONTINUOUS
 10
-0.804996
 20
0.120524
  0
VERTEX
  8
PLAN_1
 62
     2
  6
CONTINUOUS
 10
-0.804043
 20
0.115295
  0
VERTEX
  8
PLAN_1
 62
     2
  6
CONTINUOUS
 10
-0.803571
 20
0.110071
  0
VERTEX
  8
PLAN_1
 62
     2
  6
CONTINUOUS
 10
-0.804043
 20
0.104843
  0
VERTEX
  8
PLAN_1
 62
     2
  6
CONTINUOUS
 10
-0.804996
 20
0.099614
  0
VERTEX
  8
PLAN_1
 62
     2
  6
CONTINUOUS
 10
-0.806898
 20
0.094862
  0
VERTEX
  8
PLAN_1
 62
     2
  6
CONTINUOUS
 10
-0.809748
 20
0.090587
  0
VERTEX
  8
PLAN_1
 62
     2
  6
CONTINUOUS
 10
-0.811173
 20
0.088685
  0
VERTEX
  8
PLAN_1
 62
     2
  6
CONTINUOUS
 10
-0.813075
 20
0.086787
  0
VERTEX
  8
PLAN_1
 62
     2
  6
CONTINUOUS
 10
-0.814976
 20
0.085358
  0
VERTEX
  8
PLAN_1
 62
     2
  6
CONTINUOUS
 10
-0.817350
 20
0.083933
  0
VERTEX
  8
PLAN_1
 62
     2
  6
CONTINUOUS
 10
-0.820201
 20
0.082984
  0
VERTEX
  8
PLAN_1
 62
     2
  6
CONTINUOUS
 10
-0.822579
 20
0.082035
  0
VERTEX
  8
PLAN_1
 62
     2
  6
CONTINUOUS
 10
-0.825429
 20
0.081559
  0
VERTEX
  8
PLAN_1
 62
     2
  6
CONTINUOUS
 10
-0.828756
 20
0.081559
  0
VERTEX
  8
PLAN_1
 62
     2
  6
CONTINUOUS
 10
-0.832083
 20
0.081559
  0
VERTEX
  8
PLAN_1
 62
     2
  6
CONTINUOUS
 10
-0.834933
 20
0.082035
  0
VERTEX
  8
PLAN_1
 62
     2
  6
CONTINUOUS
 10
-0.837307
 20
0.082984
  0
VERTEX
  8
PLAN_1
 62
     2
  6
CONTINUOUS
 10
-0.840157
 20
0.083933
  0
VERTEX
  8
PLAN_1
 62
     2
  6
CONTINUOUS
 10
-0.842535
 20
0.085358
  0
VERTEX
  8
PLAN_1
 62
     2
  6
CONTINUOUS
 10
-0.844437
 20
0.086787
  0
VERTEX
  8
PLAN_1
 62
     2
  6
CONTINUOUS
 10
-0.846339
 20
0.088685
  0
VERTEX
  8
PLAN_1
 62
     2
  6
CONTINUOUS
 10
-0.847764
 20
0.090587
  0
VERTEX
  8
PLAN_1
 62
     2
  6
CONTINUOUS
 10
-0.850614
 20
0.094862
  0
VERTEX
  8
PLAN_1
 62
     2
  6
CONTINUOUS
 10
-0.852516
 20
0.099614
  0
VERTEX
  8
PLAN_1
 62
     2
  6
CONTINUOUS
 10
-0.853465
 20
0.104843
  0
VERTEX
  8
PLAN_1
 62
     2
  6
CONTINUOUS
 10
-0.853941
 20
0.110071
  0
VERTEX
  8
PLAN_1
 62
     2
  6
CONTINUOUS
 10
-0.853465
 20
0.115295
  0
VERTEX
  8
PLAN_1
 62
     2
  6
CONTINUOUS
 10
-0.852516
 20
0.120524
  0
VERTEX
  8
PLAN_1
 62
     2
  6
CONTINUOUS
 10
-0.850614
 20
0.125276
  0
VERTEX
  8
PLAN_1
 62
     2
  6
CONTINUOUS
 10
-0.847764
 20
0.129551
  0
VERTEX
  8
PLAN_1
 62
     2
  6
CONTINUOUS
 10
-0.846339
 20
0.131929
  0
VERTEX
  8
PLAN_1
 62
     2
  6
CONTINUOUS
 10
-0.844437
 20
0.133354
  0
VERTEX
  8
PLAN_1
 62
     2
  6
CONTINUOUS
 10
-0.842535
 20
0.134780
  0
VERTEX
  8
PLAN_1
 62
     2
  6
CONTINUOUS
 10
-0.840157
 20
0.136205
  0
VERTEX
  8
PLAN_1
 62
     2
  6
CONTINUOUS
 10
-0.837307
 20
0.137157
  0
VERTEX
  8
PLAN_1
 62
     2
  6
CONTINUOUS
 10
-0.834933
 20
0.138106
  0
VERTEX
  8
PLAN_1
 62
     2
  6
CONTINUOUS
 10
-0.832083
 20
0.138583
  0
VERTEX
  8
PLAN_1
 62
     2
  6
CONTINUOUS
 10
-0.828756
 20
0.139055
  0
SEQEND
  8
0
  0
POLYLINE
  8
PLAN_1
 62
     2
  6
CONTINUOUS
 66
     1
 40
0.003000
 41
0.003000
  0
VERTEX
  8
PLAN_1
 62
     2
  6
CONTINUOUS
 10
-0.828756
 20
0.089161
  0
VERTEX
  8
PLAN_1
 62
     2
  6
CONTINUOUS
 10
-0.826378
 20
0.089638
  0
VERTEX
  8
PLAN_1
 62
     2
  6
CONTINUOUS
 10
-0.824476
 20
0.090110
  0
VERTEX
  8
PLAN_1
 62
     2
  6
CONTINUOUS
 10
-0.822579
 20
0.090587
  0
VERTEX
  8
PLAN_1
 62
     2
  6
CONTINUOUS
 10
-0.820677
 20
0.091539
  0
VERTEX
  8
PLAN_1
 62
     2
  6
CONTINUOUS
 10
-0.817827
 20
0.093913
  0
VERTEX
  8
PLAN_1
 62
     2
  6
CONTINUOUS
 10
-0.815925
 20
0.096764
  0
VERTEX
  8
PLAN_1
 62
     2
  6
CONTINUOUS
 10
-0.814500
 20
0.100567
  0
VERTEX
  8
PLAN_1
 62
     2
  6
CONTINUOUS
 10
-0.813547
 20
0.103894
  0
VERTEX
  8
PLAN_1
 62
     2
  6
CONTINUOUS
 10
-0.813075
 20
0.107220
  0
VERTEX
  8
PLAN_1
 62
     2
  6
CONTINUOUS
 10
-0.813075
 20
0.110071
  0
VERTEX
  8
PLAN_1
 62
     2
  6
CONTINUOUS
 10
-0.813075
 20
0.112921
  0
VERTEX
  8
PLAN_1
 62
     2
  6
CONTINUOUS
 10
-0.813547
 20
0.116248
  0
VERTEX
  8
PLAN_1
 62
     2
  6
CONTINUOUS
 10
-0.814500
 20
0.120047
  0
VERTEX
  8
PLAN_1
 62
     2
  6
CONTINUOUS
 10
-0.815925
 20
0.123374
  0
VERTEX
  8
PLAN_1
 62
     2
  6
CONTINUOUS
 10
-0.817827
 20
0.126224
  0
VERTEX
  8
PLAN_1
 62
     2
  6
CONTINUOUS
 10
-0.820677
 20
0.128602
  0
VERTEX
  8
PLAN_1
 62
     2
  6
CONTINUOUS
 10
-0.822579
 20
0.129551
  0
VERTEX
  8
PLAN_1
 62
     2
  6
CONTINUOUS
 10
-0.824476
 20
0.130504
  0
VERTEX
  8
PLAN_1
 62
     2
  6
CONTINUOUS
 10
-0.826378
 20
0.130976
  0
VERTEX
  8
PLAN_1
 62
     2
  6
CONTINUOUS
 10
-0.828756
 20
0.130976
  0
VERTEX
  8
PLAN_1
 62
     2
  6
CONTINUOUS
 10
-0.831130
 20
0.130976
  0
VERTEX
  8
PLAN_1
 62
     2
  6
CONTINUOUS
 10
-0.833031
 20
0.130504
  0
VERTEX
  8
PLAN_1
 62
     2
  6
CONTINUOUS
 10
-0.834933
 20
0.129551
  0
VERTEX
  8
PLAN_1
 62
     2
  6
CONTINUOUS
 10
-0.836835
 20
0.128602
  0
VERTEX
  8
PLAN_1
 62
     2
  6
CONTINUOUS
 10
-0.839685
 20
0.126224
  0
VERTEX
  8
PLAN_1
 62
     2
  6
CONTINUOUS
 10
-0.841587
 20
0.123374
  0
VERTEX
  8
PLAN_1
 62
     2
  6
CONTINUOUS
 10
-0.843012
 20
0.120047
  0
VERTEX
  8
PLAN_1
 62
     2
  6
CONTINUOUS
 10
-0.843961
 20
0.116248
  0
VERTEX
  8
PLAN_1
 62
     2
  6
CONTINUOUS
 10
-0.844437
 20
0.112921
  0
VERTEX
  8
PLAN_1
 62
     2
  6
CONTINUOUS
 10
-0.844437
 20
0.110071
  0
VERTEX
  8
PLAN_1
 62
     2
  6
CONTINUOUS
 10
-0.844437
 20
0.107220
  0
VERTEX
  8
PLAN_1
 62
     2
  6
CONTINUOUS
 10
-0.843961
 20
0.103894
  0
VERTEX
  8
PLAN_1
 62
     2
  6
CONTINUOUS
 10
-0.843012
 20
0.100567
  0
VERTEX
  8
PLAN_1
 62
     2
  6
CONTINUOUS
 10
-0.841587
 20
0.096764
  0
VERTEX
  8
PLAN_1
 62
     2
  6
CONTINUOUS
 10
-0.839685
 20
0.093913
  0
VERTEX
  8
PLAN_1
 62
     2
  6
CONTINUOUS
 10
-0.836835
 20
0.091539
  0
VERTEX
  8
PLAN_1
 62
     2
  6
CONTINUOUS
 10
-0.834933
 20
0.090587
  0
VERTEX
  8
PLAN_1
 62
     2
  6
CONTINUOUS
 10
-0.833031
 20
0.090110
  0
VERTEX
  8
PLAN_1
 62
     2
  6
CONTINUOUS
 10
-0.831130
 20
0.089638
  0
VERTEX
  8
PLAN_1
 62
     2
  6
CONTINUOUS
 10
-0.828756
 20
0.089161
  0
SEQEND
  8
0
  0
POLYLINE
  8
PLAN_1
 62
     2
  6
CONTINUOUS
 66
     1
 40
0.003000
 41
0.003000
  0
VERTEX
  8
PLAN_1
 62
     2
  6
CONTINUOUS
 10
-0.782661
 20
0.082984
  0
VERTEX
  8
PLAN_1
 62
     2
  6
CONTINUOUS
 10
-0.791689
 20
0.082984
  0
VERTEX
  8
PLAN_1
 62
     2
  6
CONTINUOUS
 10
-0.791689
 20
0.137157
  0
VERTEX
  8
PLAN_1
 62
     2
  6
CONTINUOUS
 10
-0.783138
 20
0.137157
  0
VERTEX
  8
PLAN_1
 62
     2
  6
CONTINUOUS
 10
-0.783138
 20
0.128126
  0
VERTEX
  8
PLAN_1
 62
     2
  6
CONTINUOUS
 10
-0.781713
 20
0.130504
  0
VERTEX
  8
PLAN_1
 62
     2
  6
CONTINUOUS
 10
-0.779811
 20
0.132406
  0
VERTEX
  8
PLAN_1
 62
     2
  6
CONTINUOUS
 10
-0.778386
 20
0.134303
  0
VERTEX
  8
PLAN_1
 62
     2
  6
CONTINUOUS
 10
-0.776484
 20
0.135728
  0
VERTEX
  8
PLAN_1
 62
     2
  6
CONTINUOUS
 10
-0.774583
 20
0.137157
  0
VERTEX
  8
PLAN_1
 62
     2
  6
CONTINUOUS
 10
-0.772209
 20
0.138106
  0
VERTEX
  8
PLAN_1
 62
     2
  6
CONTINUOUS
 10
-0.770307
 20
0.138583
  0
VERTEX
  8
PLAN_1
 62
     2
  6
CONTINUOUS
 10
-0.767457
 20
0.139055
  0
VERTEX
  8
PLAN_1
 62
     2
  6
CONTINUOUS
 10
-0.766980
 20
0.139055
  0
VERTEX
  8
PLAN_1
 62
     2
  6
CONTINUOUS
 10
-0.766980
 20
0.138583
  0
VERTEX
  8
PLAN_1
 62
     2
  6
CONTINUOUS
 10
-0.766504
 20
0.138583
  0
VERTEX
  8
PLAN_1
 62
     2
  6
CONTINUOUS
 10
-0.766031
 20
0.138583
  0
VERTEX
  8
PLAN_1
 62
     2
  6
CONTINUOUS
 10
-0.765555
 20
0.138583
  0
VERTEX
  8
PLAN_1
 62
     2
  6
CONTINUOUS
 10
-0.765079
 20
0.138583
  0
VERTEX
  8
PLAN_1
 62
     2
  6
CONTINUOUS
 10
-0.765079
 20
0.129079
  0
VERTEX
  8
PLAN_1
 62
     2
  6
CONTINUOUS
 10
-0.768882
 20
0.129079
  0
VERTEX
  8
PLAN_1
 62
     2
  6
CONTINUOUS
 10
-0.771732
 20
0.128602
  0
VERTEX
  8
PLAN_1
 62
     2
  6
CONTINUOUS
 10
-0.774583
 20
0.128126
  0
VERTEX
  8
PLAN_1
 62
     2
  6
CONTINUOUS
 10
-0.776961
 20
0.126701
  0
VERTEX
  8
PLAN_1
 62
     2
  6
CONTINUOUS
 10
-0.778858
 20
0.124799
  0
VERTEX
  8
PLAN_1
 62
     2
  6
CONTINUOUS
 10
-0.780287
 20
0.122425
  0
VERTEX
  8
PLAN_1
 62
     2
  6
CONTINUOUS
 10
-0.781713
 20
0.120047
  0
VERTEX
  8
PLAN_1
 62
     2
  6
CONTINUOUS
 10
-0.782185
 20
0.117197
  0
VERTEX
  8
PLAN_1
 62
     2
  6
CONTINUOUS
 10
-0.782661
 20
0.114346
  0
VERTEX
  8
PLAN_1
 62
     2
  6
CONTINUOUS
 10
-0.782661
 20
0.082984
  0
SEQEND
  8
0
  0
POLYLINE
  8
PLAN_1
 62
     2
  6
CONTINUOUS
 66
     1
 40
0.003000
 41
0.003000
  0
VERTEX
  8
PLAN_1
 62
     2
  6
CONTINUOUS
 10
-0.756051
 20
0.137157
  0
VERTEX
  8
PLAN_1
 62
     2
  6
CONTINUOUS
 10
-0.747496
 20
0.137157
  0
VERTEX
  8
PLAN_1
 62
     2
  6
CONTINUOUS
 10
-0.747496
 20
0.129551
  0
VERTEX
  8
PLAN_1
 62
     2
  6
CONTINUOUS
 10
-0.747024
 20
0.129551
  0
VERTEX
  8
PLAN_1
 62
     2
  6
CONTINUOUS
 10
-0.746071
 20
0.130976
  0
VERTEX
  8
PLAN_1
 62
     2
  6
CONTINUOUS
 10
-0.745122
 20
0.132406
  0
VERTEX
  8
PLAN_1
 62
     2
  6
CONTINUOUS
 10
-0.743697
 20
0.133831
  0
VERTEX
  8
PLAN_1
 62
     2
  6
CONTINUOUS
 10
-0.741795
 20
0.135256
  0
VERTEX
  8
PLAN_1
 62
     2
  6
CONTINUOUS
 10
-0.739894
 20
0.136681
  0
VERTEX
  8
PLAN_1
 62
     2
  6
CONTINUOUS
 10
-0.737520
 20
0.137630
  0
VERTEX
  8
PLAN_1
 62
     2
  6
CONTINUOUS
 10
-0.734193
 20
0.138583
  0
VERTEX
  8
PLAN_1
 62
     2
  6
CONTINUOUS
 10
-0.730866
 20
0.139055
  0
VERTEX
  8
PLAN_1
 62
     2
  6
CONTINUOUS
 10
-0.728492
 20
0.138583
  0
VERTEX
  8
PLAN_1
 62
     2
  6
CONTINUOUS
 10
-0.725638
 20
0.138106
  0
VERTEX
  8
PLAN_1
 62
     2
  6
CONTINUOUS
 10
-0.723264
 20
0.137630
  0
VERTEX
  8
PLAN_1
 62
     2
  6
CONTINUOUS
 10
-0.721362
 20
0.136681
  0
VERTEX
  8
PLAN_1
 62
     2
  6
CONTINUOUS
 10
-0.719461
 20
0.135728
  0
VERTEX
  8
PLAN_1
 62
     2
  6
CONTINUOUS
 10
-0.717559
 20
0.134303
  0
VERTEX
  8
PLAN_1
 62
     2
  6
CONTINUOUS
 10
-0.715661
 20
0.132878
  0
VERTEX
  8
PLAN_1
 62
     2
  6
CONTINUOUS
 10
-0.714236
 20
0.130976
  0
VERTEX
  8
PLAN_1
 62
     2
  6
CONTINUOUS
 10
-0.711382
 20
0.127177
  0
VERTEX
  8
PLAN_1
 62
     2
  6
CONTINUOUS
 10
-0.709957
 20
0.122425
  0
VERTEX
  8
PLAN_1
 62
     2
  6
CONTINUOUS
 10
-0.708531
 20
0.117197
  0
VERTEX
  8
PLAN_1
 62
     2
  6
CONTINUOUS
 10
-0.708059
 20
0.111496
  0
VERTEX
  8
PLAN_1
 62
     2
  6
CONTINUOUS
 10
-0.708531
 20
0.106744
  0
VERTEX
  8
PLAN_1
 62
     2
  6
CONTINUOUS
 10
-0.709484
 20
0.101516
  0
VERTEX
  8
PLAN_1
 62
     2
  6
CONTINUOUS
 10
-0.710909
 20
0.096291
  0
VERTEX
  8
PLAN_1
 62
     2
  6
CONTINUOUS
 10
-0.713283
 20
0.091539
  0
VERTEX
  8
PLAN_1
 62
     2
  6
CONTINUOUS
 10
-0.714709
 20
0.089638
  0
VERTEX
  8
PLAN_1
 62
     2
  6
CONTINUOUS
 10
-0.716610
 20
0.087260
  0
VERTEX
  8
PLAN_1
 62
     2
  6
CONTINUOUS
 10
-0.718512
 20
0.085835
  0
VERTEX
  8
PLAN_1
 62
     2
  6
CONTINUOUS
 10
-0.720413
 20
0.084409
  0
VERTEX
  8
PLAN_1
 62
     2
  6
CONTINUOUS
 10
-0.723264
 20
0.082984
  0
VERTEX
  8
PLAN_1
 62
     2
  6
CONTINUOUS
 10
-0.725638
 20
0.082035
  0
VERTEX
  8
PLAN_1
 62
     2
  6
CONTINUOUS
 10
-0.728965
 20
0.081559
  0
VERTEX
  8
PLAN_1
 62
     2
  6
CONTINUOUS
 10
-0.732291
 20
0.081083
  0
VERTEX
  8
PLAN_1
 62
     2
  6
CONTINUOUS
 10
-0.734669
 20
0.081559
  0
VERTEX
  8
PLAN_1
 62
     2
  6
CONTINUOUS
 10
-0.737043
 20
0.082035
  0
VERTEX
  8
PLAN_1
 62
     2
  6
CONTINUOUS
 10
-0.739421
 20
0.082508
  0
VERTEX
  8
PLAN_1
 62
     2
  6
CONTINUOUS
 10
-0.741319
 20
0.083461
  0
VERTEX
  8
PLAN_1
 62
     2
  6
CONTINUOUS
 10
-0.742744
 20
0.084409
  0
VERTEX
  8
PLAN_1
 62
     2
  6
CONTINUOUS
 10
-0.744173
 20
0.085835
  0
VERTEX
  8
PLAN_1
 62
     2
  6
CONTINUOUS
 10
-0.745598
 20
0.087260
  0
VERTEX
  8
PLAN_1
 62
     2
  6
CONTINUOUS
 10
-0.746547
 20
0.088685
  0
VERTEX
  8
PLAN_1
 62
     2
  6
CONTINUOUS
 10
-0.747024
 20
0.088685
  0
VERTEX
  8
PLAN_1
 62
     2
  6
CONTINUOUS
 10
-0.747024
 20
0.061126
  0
VERTEX
  8
PLAN_1
 62
     2
  6
CONTINUOUS
 10
-0.756051
 20
0.061126
  0
VERTEX
  8
PLAN_1
 62
     2
  6
CONTINUOUS
 10
-0.756051
 20
0.137157
  0
SEQEND
  8
0
  0
POLYLINE
  8
PLAN_1
 62
     2
  6
CONTINUOUS
 66
     1
 40
0.003000
 41
0.003000
  0
VERTEX
  8
PLAN_1
 62
     2
  6
CONTINUOUS
 10
-0.732291
 20
0.089161
  0
VERTEX
  8
PLAN_1
 62
     2
  6
CONTINUOUS
 10
-0.728965
 20
0.089638
  0
VERTEX
  8
PLAN_1
 62
     2
  6
CONTINUOUS
 10
-0.725638
 20
0.090587
  0
VERTEX
  8
PLAN_1
 62
     2
  6
CONTINUOUS
 10
-0.723264
 20
0.092488
  0
VERTEX
  8
PLAN_1
 62
     2
  6
CONTINUOUS
 10
-0.721362
 20
0.095339
  0
VERTEX
  8
PLAN_1
 62
     2
  6
CONTINUOUS
 10
-0.719461
 20
0.098189
  0
VERTEX
  8
PLAN_1
 62
     2
  6
CONTINUOUS
 10
-0.718512
 20
0.101992
  0
VERTEX
  8
PLAN_1
 62
     2
  6
CONTINUOUS
 10
-0.718035
 20
0.105791
  0
VERTEX
  8
PLAN_1
 62
     2
  6
CONTINUOUS
 10
-0.717559
 20
0.110071
  0
VERTEX
  8
PLAN_1
 62
     2
  6
CONTINUOUS
 10
-0.717559
 20
0.112921
  0
VERTEX
  8
PLAN_1
 62
     2
  6
CONTINUOUS
 10
-0.718035
 20
0.116248
  0
VERTEX
  8
PLAN_1
 62
     2
  6
CONTINUOUS
 10
-0.718512
 20
0.119575
  0
VERTEX
  8
PLAN_1
 62
     2
  6
CONTINUOUS
 10
-0.719937
 20
0.122902
  0
VERTEX
  8
PLAN_1
 62
     2
  6
CONTINUOUS
 10
-0.720413
 20
0.124799
  0
VERTEX
  8
PLAN_1
 62
     2
  6
CONTINUOUS
 10
-0.721839
 20
0.126224
  0
VERTEX
  8
PLAN_1
 62
     2
  6
CONTINUOUS
 10
-0.722787
 20
0.127177
  0
VERTEX
  8
PLAN_1
 62
     2
  6
CONTINUOUS
 10
-0.724213
 20
0.128602
  0
VERTEX
  8
PLAN_1
 62
     2
  6
CONTINUOUS
 10
-0.726114
 20
0.129551
  0
VERTEX
  8
PLAN_1
 62
     2
  6
CONTINUOUS
 10
-0.728016
 20
0.130028
  0
VERTEX
  8
PLAN_1
 62
     2
  6
CONTINUOUS
 10
-0.729917
 20
0.130504
  0
VERTEX
  8
PLAN_1
 62
     2
  6
CONTINUOUS
 10
-0.732768
 20
0.130504
  0
VERTEX
  8
PLAN_1
 62
     2
  6
CONTINUOUS
 10
-0.735142
 20
0.130504
  0
VERTEX
  8
PLAN_1
 62
     2
  6
CONTINUOUS
 10
-0.737043
 20
0.130028
  0
VERTEX
  8
PLAN_1
 62
     2
  6
CONTINUOUS
 10
-0.738945
 20
0.129079
  0
VERTEX
  8
PLAN_1
 62
     2
  6
CONTINUOUS
 10
-0.740370
 20
0.128126
  0
VERTEX
  8
PLAN_1
 62
     2
  6
CONTINUOUS
 10
-0.741795
 20
0.127177
  0
VERTEX
  8
PLAN_1
 62
     2
  6
CONTINUOUS
 10
-0.743220
 20
0.125752
  0
VERTEX
  8
PLAN_1
 62
     2
  6
CONTINUOUS
 10
-0.744173
 20
0.123850
  0
VERTEX
  8
PLAN_1
 62
     2
  6
CONTINUOUS
 10
-0.744646
 20
0.122425
  0
VERTEX
  8
PLAN_1
 62
     2
  6
CONTINUOUS
 10
-0.746071
 20
0.118622
  0
VERTEX
  8
PLAN_1
 62
     2
  6
CONTINUOUS
 10
-0.747024
 20
0.114823
  0
VERTEX
  8
PLAN_1
 62
     2
  6
CONTINUOUS
 10
-0.747024
 20
0.111020
  0
VERTEX
  8
PLAN_1
 62
     2
  6
CONTINUOUS
 10
-0.747024
 20
0.107693
  0
VERTEX
  8
PLAN_1
 62
     2
  6
CONTINUOUS
 10
-0.747024
 20
0.102469
  0
VERTEX
  8
PLAN_1
 62
     2
  6
CONTINUOUS
 10
-0.745598
 20
0.098665
  0
VERTEX
  8
PLAN_1
 62
     2
  6
CONTINUOUS
 10
-0.744173
 20
0.095339
  0
VERTEX
  8
PLAN_1
 62
     2
  6
CONTINUOUS
 10
-0.741795
 20
0.092965
  0
VERTEX
  8
PLAN_1
 62
     2
  6
CONTINUOUS
 10
-0.739421
 20
0.091063
  0
VERTEX
  8
PLAN_1
 62
     2
  6
CONTINUOUS
 10
-0.737043
 20
0.090110
  0
VERTEX
  8
PLAN_1
 62
     2
  6
CONTINUOUS
 10
-0.734669
 20
0.089638
  0
VERTEX
  8
PLAN_1
 62
     2
  6
CONTINUOUS
 10
-0.732291
 20
0.089161
  0
SEQEND
  8
0
  0
POLYLINE
  8
PLAN_1
 62
     2
  6
CONTINUOUS
 66
     1
 40
0.003000
 41
0.003000
  0
VERTEX
  8
PLAN_1
 62
     2
  6
CONTINUOUS
 10
-0.675268
 20
0.139055
  0
VERTEX
  8
PLAN_1
 62
     2
  6
CONTINUOUS
 10
-0.671945
 20
0.138583
  0
VERTEX
  8
PLAN_1
 62
     2
  6
CONTINUOUS
 10
-0.669091
 20
0.138106
  0
VERTEX
  8
PLAN_1
 62
     2
  6
CONTINUOUS
 10
-0.666240
 20
0.137157
  0
VERTEX
  8
PLAN_1
 62
     2
  6
CONTINUOUS
 10
-0.663866
 20
0.136205
  0
VERTEX
  8
PLAN_1
 62
     2
  6
CONTINUOUS
 10
-0.661488
 20
0.134780
  0
VERTEX
  8
PLAN_1
 62
     2
  6
CONTINUOUS
 10
-0.659587
 20
0.133354
  0
VERTEX
  8
PLAN_1
 62
     2
  6
CONTINUOUS
 10
-0.657689
 20
0.131929
  0
VERTEX
  8
PLAN_1
 62
     2
  6
CONTINUOUS
 10
-0.656264
 20
0.129551
  0
VERTEX
  8
PLAN_1
 62
     2
  6
CONTINUOUS
 10
-0.653409
 20
0.125276
  0
VERTEX
  8
PLAN_1
 62
     2
  6
CONTINUOUS
 10
-0.651512
 20
0.120524
  0
VERTEX
  8
PLAN_1
 62
     2
  6
CONTINUOUS
 10
-0.650083
 20
0.115295
  0
VERTEX
  8
PLAN_1
 62
     2
  6
CONTINUOUS
 10
-0.650083
 20
0.110071
  0
VERTEX
  8
PLAN_1
 62
     2
  6
CONTINUOUS
 10
-0.650083
 20
0.104843
  0
VERTEX
  8
PLAN_1
 62
     2
  6
CONTINUOUS
 10
-0.651512
 20
0.099614
  0
VERTEX
  8
PLAN_1
 62
     2
  6
CONTINUOUS
 10
-0.653409
 20
0.094862
  0
VERTEX
  8
PLAN_1
 62
     2
  6
CONTINUOUS
 10
-0.656264
 20
0.090587
  0
VERTEX
  8
PLAN_1
 62
     2
  6
CONTINUOUS
 10
-0.657689
 20
0.088685
  0
VERTEX
  8
PLAN_1
 62
     2
  6
CONTINUOUS
 10
-0.659587
 20
0.086787
  0
VERTEX
  8
PLAN_1
 62
     2
  6
CONTINUOUS
 10
-0.661488
 20
0.085358
  0
VERTEX
  8
PLAN_1
 62
     2
  6
CONTINUOUS
 10
-0.663866
 20
0.083933
  0
VERTEX
  8
PLAN_1
 62
     2
  6
CONTINUOUS
 10
-0.666240
 20
0.082984
  0
VERTEX
  8
PLAN_1
 62
     2
  6
CONTINUOUS
 10
-0.669091
 20
0.082035
  0
VERTEX
  8
PLAN_1
 62
     2
  6
CONTINUOUS
 10
-0.671945
 20
0.081559
  0
VERTEX
  8
PLAN_1
 62
     2
  6
CONTINUOUS
 10
-0.675268
 20
0.081559
  0
VERTEX
  8
PLAN_1
 62
     2
  6
CONTINUOUS
 10
-0.678122
 20
0.081559
  0
VERTEX
  8
PLAN_1
 62
     2
  6
CONTINUOUS
 10
-0.681445
 20
0.082035
  0
VERTEX
  8
PLAN_1
 62
     2
  6
CONTINUOUS
 10
-0.683823
 20
0.082984
  0
VERTEX
  8
PLAN_1
 62
     2
  6
CONTINUOUS
 10
-0.686673
 20
0.083933
  0
VERTEX
  8
PLAN_1
 62
     2
  6
CONTINUOUS
 10
-0.688575
 20
0.085358
  0
VERTEX
  8
PLAN_1
 62
     2
  6
CONTINUOUS
 10
-0.690949
 20
0.086787
  0
VERTEX
  8
PLAN_1
 62
     2
  6
CONTINUOUS
 10
-0.692850
 20
0.088685
  0
VERTEX
  8
PLAN_1
 62
     2
  6
CONTINUOUS
 10
-0.694276
 20
0.090587
  0
VERTEX
  8
PLAN_1
 62
     2
  6
CONTINUOUS
 10
-0.697126
 20
0.094862
  0
VERTEX
  8
PLAN_1
 62
     2
  6
CONTINUOUS
 10
-0.699028
 20
0.099614
  0
VERTEX
  8
PLAN_1
 62
     2
  6
CONTINUOUS
 10
-0.699980
 20
0.104843
  0
VERTEX
  8
PLAN_1
 62
     2
  6
CONTINUOUS
 10
-0.700453
 20
0.110071
  0
VERTEX
  8
PLAN_1
 62
     2
  6
CONTINUOUS
 10
-0.699980
 20
0.115295
  0
VERTEX
  8
PLAN_1
 62
     2
  6
CONTINUOUS
 10
-0.699028
 20
0.120524
  0
VERTEX
  8
PLAN_1
 62
     2
  6
CONTINUOUS
 10
-0.697126
 20
0.125276
  0
VERTEX
  8
PLAN_1
 62
     2
  6
CONTINUOUS
 10
-0.694276
 20
0.129551
  0
VERTEX
  8
PLAN_1
 62
     2
  6
CONTINUOUS
 10
-0.692850
 20
0.131929
  0
VERTEX
  8
PLAN_1
 62
     2
  6
CONTINUOUS
 10
-0.690949
 20
0.133354
  0
VERTEX
  8
PLAN_1
 62
     2
  6
CONTINUOUS
 10
-0.688575
 20
0.134780
  0
VERTEX
  8
PLAN_1
 62
     2
  6
CONTINUOUS
 10
-0.686673
 20
0.136205
  0
VERTEX
  8
PLAN_1
 62
     2
  6
CONTINUOUS
 10
-0.683823
 20
0.137157
  0
VERTEX
  8
PLAN_1
 62
     2
  6
CONTINUOUS
 10
-0.681445
 20
0.138106
  0
VERTEX
  8
PLAN_1
 62
     2
  6
CONTINUOUS
 10
-0.678122
 20
0.138583
  0
VERTEX
  8
PLAN_1
 62
     2
  6
CONTINUOUS
 10
-0.675268
 20
0.139055
  0
SEQEND
  8
0
  0
POLYLINE
  8
PLAN_1
 62
     2
  6
CONTINUOUS
 66
     1
 40
0.003000
 41
0.003000
  0
VERTEX
  8
PLAN_1
 62
     2
  6
CONTINUOUS
 10
-0.675268
 20
0.089161
  0
VERTEX
  8
PLAN_1
 62
     2
  6
CONTINUOUS
 10
-0.672894
 20
0.089638
  0
VERTEX
  8
PLAN_1
 62
     2
  6
CONTINUOUS
 10
-0.670516
 20
0.090110
  0
VERTEX
  8
PLAN_1
 62
     2
  6
CONTINUOUS
 10
-0.669091
 20
0.090587
  0
VERTEX
  8
PLAN_1
 62
     2
  6
CONTINUOUS
 10
-0.667193
 20
0.091539
  0
VERTEX
  8
PLAN_1
 62
     2
  6
CONTINUOUS
 10
-0.664339
 20
0.093913
  0
VERTEX
  8
PLAN_1
 62
     2
  6
CONTINUOUS
 10
-0.662441
 20
0.096764
  0
VERTEX
  8
PLAN_1
 62
     2
  6
CONTINUOUS
 10
-0.661012
 20
0.100567
  0
VERTEX
  8
PLAN_1
 62
     2
  6
CONTINUOUS
 10
-0.660063
 20
0.103894
  0
VERTEX
  8
PLAN_1
 62
     2
  6
CONTINUOUS
 10
-0.659587
 20
0.107220
  0
VERTEX
  8
PLAN_1
 62
     2
  6
CONTINUOUS
 10
-0.659587
 20
0.110071
  0
VERTEX
  8
PLAN_1
 62
     2
  6
CONTINUOUS
 10
-0.659587
 20
0.112921
  0
VERTEX
  8
PLAN_1
 62
     2
  6
CONTINUOUS
 10
-0.660063
 20
0.116248
  0
VERTEX
  8
PLAN_1
 62
     2
  6
CONTINUOUS
 10
-0.661012
 20
0.120047
  0
VERTEX
  8
PLAN_1
 62
     2
  6
CONTINUOUS
 10
-0.662441
 20
0.123374
  0
VERTEX
  8
PLAN_1
 62
     2
  6
CONTINUOUS
 10
-0.664339
 20
0.126224
  0
VERTEX
  8
PLAN_1
 62
     2
  6
CONTINUOUS
 10
-0.667193
 20
0.128602
  0
VERTEX
  8
PLAN_1
 62
     2
  6
CONTINUOUS
 10
-0.669091
 20
0.129551
  0
VERTEX
  8
PLAN_1
 62
     2
  6
CONTINUOUS
 10
-0.670516
 20
0.130504
  0
VERTEX
  8
PLAN_1
 62
     2
  6
CONTINUOUS
 10
-0.672894
 20
0.130976
  0
VERTEX
  8
PLAN_1
 62
     2
  6
CONTINUOUS
 10
-0.675268
 20
0.130976
  0
VERTEX
  8
PLAN_1
 62
     2
  6
CONTINUOUS
 10
-0.677646
 20
0.130976
  0
VERTEX
  8
PLAN_1
 62
     2
  6
CONTINUOUS
 10
-0.679547
 20
0.130504
  0
VERTEX
  8
PLAN_1
 62
     2
  6
CONTINUOUS
 10
-0.681445
 20
0.129551
  0
VERTEX
  8
PLAN_1
 62
     2
  6
CONTINUOUS
 10
-0.683346
 20
0.128602
  0
VERTEX
  8
PLAN_1
 62
     2
  6
CONTINUOUS
 10
-0.685724
 20
0.126224
  0
VERTEX
  8
PLAN_1
 62
     2
  6
CONTINUOUS
 10
-0.688098
 20
0.123374
  0
VERTEX
  8
PLAN_1
 62
     2
  6
CONTINUOUS
 10
-0.689524
 20
0.120047
  0
VERTEX
  8
PLAN_1
 62
     2
  6
CONTINUOUS
 10
-0.690476
 20
0.116248
  0
VERTEX
  8
PLAN_1
 62
     2
  6
CONTINUOUS
 10
-0.690949
 20
0.112921
  0
VERTEX
  8
PLAN_1
 62
     2
  6
CONTINUOUS
 10
-0.690949
 20
0.110071
  0
VERTEX
  8
PLAN_1
 62
     2
  6
CONTINUOUS
 10
-0.690949
 20
0.107220
  0
VERTEX
  8
PLAN_1
 62
     2
  6
CONTINUOUS
 10
-0.690476
 20
0.103894
  0
VERTEX
  8
PLAN_1
 62
     2
  6
CONTINUOUS
 10
-0.689524
 20
0.100567
  0
VERTEX
  8
PLAN_1
 62
     2
  6
CONTINUOUS
 10
-0.688098
 20
0.096764
  0
VERTEX
  8
PLAN_1
 62
     2
  6
CONTINUOUS
 10
-0.685724
 20
0.093913
  0
VERTEX
  8
PLAN_1
 62
     2
  6
CONTINUOUS
 10
-0.683346
 20
0.091539
  0
VERTEX
  8
PLAN_1
 62
     2
  6
CONTINUOUS
 10
-0.681445
 20
0.090587
  0
VERTEX
  8
PLAN_1
 62
     2
  6
CONTINUOUS
 10
-0.679547
 20
0.090110
  0
VERTEX
  8
PLAN_1
 62
     2
  6
CONTINUOUS
 10
-0.677646
 20
0.089638
  0
VERTEX
  8
PLAN_1
 62
     2
  6
CONTINUOUS
 10
-0.675268
 20
0.089161
  0
SEQEND
  8
0
  0
POLYLINE
  8
PLAN_1
 62
     2
  6
CONTINUOUS
 66
     1
 40
0.003000
 41
0.003000
  0
VERTEX
  8
PLAN_1
 62
     2
  6
CONTINUOUS
 10
-0.629177
 20
0.082984
  0
VERTEX
  8
PLAN_1
 62
     2
  6
CONTINUOUS
 10
-0.638205
 20
0.082984
  0
VERTEX
  8
PLAN_1
 62
     2
  6
CONTINUOUS
 10
-0.638205
 20
0.137157
  0
VERTEX
  8
PLAN_1
 62
     2
  6
CONTINUOUS
 10
-0.629650
 20
0.137157
  0
VERTEX
  8
PLAN_1
 62
     2
  6
CONTINUOUS
 10
-0.629650
 20
0.128126
  0
VERTEX
  8
PLAN_1
 62
     2
  6
CONTINUOUS
 10
-0.629177
 20
0.128126
  0
VERTEX
  8
PLAN_1
 62
     2
  6
CONTINUOUS
 10
-0.627752
 20
0.130504
  0
VERTEX
  8
PLAN_1
 62
     2
  6
CONTINUOUS
 10
-0.626327
 20
0.132406
  0
VERTEX
  8
PLAN_1
 62
     2
  6
CONTINUOUS
 10
-0.624898
 20
0.134303
  0
VERTEX
  8
PLAN_1
 62
     2
  6
CONTINUOUS
 10
-0.623000
 20
0.135728
  0
VERTEX
  8
PLAN_1
 62
     2
  6
CONTINUOUS
 10
-0.621098
 20
0.137157
  0
VERTEX
  8
PLAN_1
 62
     2
  6
CONTINUOUS
 10
-0.618720
 20
0.138106
  0
VERTEX
  8
PLAN_1
 62
     2
  6
CONTINUOUS
 10
-0.616346
 20
0.138583
  0
VERTEX
  8
PLAN_1
 62
     2
  6
CONTINUOUS
 10
-0.613969
 20
0.139055
  0
VERTEX
  8
PLAN_1
 62
     2
  6
CONTINUOUS
 10
-0.613496
 20
0.139055
  0
VERTEX
  8
PLAN_1
 62
     2
  6
CONTINUOUS
 10
-0.613496
 20
0.138583
  0
VERTEX
  8
PLAN_1
 62
     2
  6
CONTINUOUS
 10
-0.613020
 20
0.138583
  0
VERTEX
  8
PLAN_1
 62
     2
  6
CONTINUOUS
 10
-0.612543
 20
0.138583
  0
VERTEX
  8
PLAN_1
 62
     2
  6
CONTINUOUS
 10
-0.612071
 20
0.138583
  0
VERTEX
  8
PLAN_1
 62
     2
  6
CONTINUOUS
 10
-0.611594
 20
0.138583
  0
VERTEX
  8
PLAN_1
 62
     2
  6
CONTINUOUS
 10
-0.611594
 20
0.129079
  0
VERTEX
  8
PLAN_1
 62
     2
  6
CONTINUOUS
 10
-0.614921
 20
0.129079
  0
VERTEX
  8
PLAN_1
 62
     2
  6
CONTINUOUS
 10
-0.618248
 20
0.128602
  0
VERTEX
  8
PLAN_1
 62
     2
  6
CONTINUOUS
 10
-0.621098
 20
0.128126
  0
VERTEX
  8
PLAN_1
 62
     2
  6
CONTINUOUS
 10
-0.623472
 20
0.126701
  0
VERTEX
  8
PLAN_1
 62
     2
  6
CONTINUOUS
 10
-0.625374
 20
0.124799
  0
VERTEX
  8
PLAN_1
 62
     2
  6
CONTINUOUS
 10
-0.626799
 20
0.122425
  0
VERTEX
  8
PLAN_1
 62
     2
  6
CONTINUOUS
 10
-0.628224
 20
0.120047
  0
VERTEX
  8
PLAN_1
 62
     2
  6
CONTINUOUS
 10
-0.628701
 20
0.117197
  0
VERTEX
  8
PLAN_1
 62
     2
  6
CONTINUOUS
 10
-0.629177
 20
0.114346
  0
VERTEX
  8
PLAN_1
 62
     2
  6
CONTINUOUS
 10
-0.629177
 20
0.082984
  0
SEQEND
  8
0
  0
SOLID
  8
PLAN_1
 62
     2
 10
-0.580232
 20
0.144760
 11
-0.587358
 21
0.144760
 12
-0.566925
 22
0.159016
 13
-0.577854
 23
0.159016
  0
POLYLINE
  8
PLAN_1
 62
     2
  6
CONTINUOUS
 66
     1
 40
0.003000
 41
0.003000
  0
VERTEX
  8
PLAN_1
 62
     2
  6
CONTINUOUS
 10
-0.580232
 20
0.144760
  0
VERTEX
  8
PLAN_1
 62
     2
  6
CONTINUOUS
 10
-0.587358
 20
0.144760
  0
VERTEX
  8
PLAN_1
 62
     2
  6
CONTINUOUS
 10
-0.577854
 20
0.159016
  0
VERTEX
  8
PLAN_1
 62
     2
  6
CONTINUOUS
 10
-0.566925
 20
0.159016
  0
VERTEX
  8
PLAN_1
 62
     2
  6
CONTINUOUS
 10
-0.580232
 20
0.144760
  0
SEQEND
  8
0
  0
POLYLINE
  8
PLAN_1
 62
     2
  6
CONTINUOUS
 66
     1
 40
0.003000
 41
0.003000
  0
VERTEX
  8
PLAN_1
 62
     2
  6
CONTINUOUS
 10
-0.558374
 20
0.100091
  0
VERTEX
  8
PLAN_1
 62
     2
  6
CONTINUOUS
 10
-0.558846
 20
0.098665
  0
VERTEX
  8
PLAN_1
 62
     2
  6
CONTINUOUS
 10
-0.559323
 20
0.097240
  0
VERTEX
  8
PLAN_1
 62
     2
  6
CONTINUOUS
 10
-0.559799
 20
0.095339
  0
VERTEX
  8
PLAN_1
 62
     2
  6
CONTINUOUS
 10
-0.560748
 20
0.093437
  0
VERTEX
  8
PLAN_1
 62
     2
  6
CONTINUOUS
 10
-0.562173
 20
0.091063
  0
VERTEX
  8
PLAN_1
 62
     2
  6
CONTINUOUS
 10
-0.564075
 20
0.089161
  0
VERTEX
  8
PLAN_1
 62
     2
  6
CONTINUOUS
 10
-0.565976
 20
0.086787
  0
VERTEX
  8
PLAN_1
 62
     2
  6
CONTINUOUS
 10
-0.568350
 20
0.084886
  0
VERTEX
  8
PLAN_1
 62
     2
  6
CONTINUOUS
 10
-0.569303
 20
0.084409
  0
VERTEX
  8
PLAN_1
 62
     2
  6
CONTINUOUS
 10
-0.570252
 20
0.083933
  0
VERTEX
  8
PLAN_1
 62
     2
  6
CONTINUOUS
 10
-0.571677
 20
0.082984
  0
VERTEX
  8
PLAN_1
 62
     2
  6
CONTINUOUS
 10
-0.573102
 20
0.082508
  0
VERTEX
  8
PLAN_1
 62
     2
  6
CONTINUOUS
 10
-0.575004
 20
0.082035
  0
VERTEX
  8
PLAN_1
 62
     2
  6
CONTINUOUS
 10
-0.577382
 20
0.081559
  0
VERTEX
  8
PLAN_1
 62
     2
  6
CONTINUOUS
 10
-0.580232
 20
0.081559
  0
VERTEX
  8
PLAN_1
 62
     2
  6
CONTINUOUS
 10
-0.583083
 20
0.081083
  0
VERTEX
  8
PLAN_1
 62
     2
  6
CONTINUOUS
 10
-0.585933
 20
0.081559
  0
VERTEX
  8
PLAN_1
 62
     2
  6
CONTINUOUS
 10
-0.588311
 20
0.082035
  0
VERTEX
  8
PLAN_1
 62
     2
  6
CONTINUOUS
 10
-0.591161
 20
0.082508
  0
VERTEX
  8
PLAN_1
 62
     2
  6
CONTINUOUS
 10
-0.593063
 20
0.083461
  0
VERTEX
  8
PLAN_1
 62
     2
  6
CONTINUOUS
 10
-0.595437
 20
0.084409
  0
VERTEX
  8
PLAN_1
 62
     2
  6
CONTINUOUS
 10
-0.597339
 20
0.085835
  0
VERTEX
  8
PLAN_1
 62
     2
  6
CONTINUOUS
 10
-0.599240
 20
0.087260
  0
VERTEX
  8
PLAN_1
 62
     2
  6
CONTINUOUS
 10
-0.601142
 20
0.089161
  0
VERTEX
  8
PLAN_1
 62
     2
  6
CONTINUOUS
 10
-0.602567
 20
0.091063
  0
VERTEX
  8
PLAN_1
 62
     2
  6
CONTINUOUS
 10
-0.603516
 20
0.092965
  0
VERTEX
  8
PLAN_1
 62
     2
  6
CONTINUOUS
 10
-0.604941
 20
0.095339
  0
VERTEX
  8
PLAN_1
 62
     2
  6
CONTINUOUS
 10
-0.605894
 20
0.097717
  0
VERTEX
  8
PLAN_1
 62
     2
  6
CONTINUOUS
 10
-0.606843
 20
0.102941
  0
VERTEX
  8
PLAN_1
 62
     2
  6
CONTINUOUS
 10
-0.607319
 20
0.108646
  0
VERTEX
  8
PLAN_1
 62
     2
  6
CONTINUOUS
 10
-0.606843
 20
0.114823
  0
VERTEX
  8
PLAN_1
 62
     2
  6
CONTINUOUS
 10
-0.605894
 20
0.120524
  0
VERTEX
  8
PLAN_1
 62
     2
  6
CONTINUOUS
 10
-0.604941
 20
0.122902
  0
VERTEX
  8
PLAN_1
 62
     2
  6
CONTINUOUS
 10
-0.603992
 20
0.125752
  0
VERTEX
  8
PLAN_1
 62
     2
  6
CONTINUOUS
 10
-0.602567
 20
0.127654
  0
VERTEX
  8
PLAN_1
 62
     2
  6
CONTINUOUS
 10
-0.601142
 20
0.130028
  0
VERTEX
  8
PLAN_1
 62
     2
  6
CONTINUOUS
 10
-0.599240
 20
0.131929
  0
VERTEX
  8
PLAN_1
 62
     2
  6
CONTINUOUS
 10
-0.597339
 20
0.133831
  0
VERTEX
  8
PLAN_1
 62
     2
  6
CONTINUOUS
 10
-0.595437
 20
0.135256
  0
VERTEX
  8
PLAN_1
 62
     2
  6
CONTINUOUS
 10
-0.593063
 20
0.136681
  0
VERTEX
  8
PLAN_1
 62
     2
  6
CONTINUOUS
 10
-0.590213
 20
0.137630
  0
VERTEX
  8
PLAN_1
 62
     2
  6
CONTINUOUS
 10
-0.587358
 20
0.138106
  0
VERTEX
  8
PLAN_1
 62
     2
  6
CONTINUOUS
 10
-0.584508
 20
0.138583
  0
VERTEX
  8
PLAN_1
 62
     2
  6
CONTINUOUS
 10
-0.581181
 20
0.139055
  0
VERTEX
  8
PLAN_1
 62
     2
  6
CONTINUOUS
 10
-0.578331
 20
0.138583
  0
VERTEX
  8
PLAN_1
 62
     2
  6
CONTINUOUS
 10
-0.575957
 20
0.138106
  0
VERTEX
  8
PLAN_1
 62
     2
  6
CONTINUOUS
 10
-0.573102
 20
0.137630
  0
VERTEX
  8
PLAN_1
 62
     2
  6
CONTINUOUS
 10
-0.571205
 20
0.136681
  0
VERTEX
  8
PLAN_1
 62
     2
  6
CONTINUOUS
 10
-0.568827
 20
0.135256
  0
VERTEX
  8
PLAN_1
 62
     2
  6
CONTINUOUS
 10
-0.566925
 20
0.133831
  0
VERTEX
  8
PLAN_1
 62
     2
  6
CONTINUOUS
 10
-0.565028
 20
0.131929
  0
VERTEX
  8
PLAN_1
 62
     2
  6
CONTINUOUS
 10
-0.563598
 20
0.130028
  0
VERTEX
  8
PLAN_1
 62
     2
  6
CONTINUOUS
 10
-0.562173
 20
0.128126
  0
VERTEX
  8
PLAN_1
 62
     2
  6
CONTINUOUS
 10
-0.561224
 20
0.125752
  0
VERTEX
  8
PLAN_1
 62
     2
  6
CONTINUOUS
 10
-0.560276
 20
0.122902
  0
VERTEX
  8
PLAN_1
 62
     2
  6
CONTINUOUS
 10
-0.559323
 20
0.120047
  0
VERTEX
  8
PLAN_1
 62
     2
  6
CONTINUOUS
 10
-0.558374
 20
0.113870
  0
VERTEX
  8
PLAN_1
 62
     2
  6
CONTINUOUS
 10
-0.557898
 20
0.107220
  0
VERTEX
  8
PLAN_1
 62
     2
  6
CONTINUOUS
 10
-0.597815
 20
0.107220
  0
VERTEX
  8
PLAN_1
 62
     2
  6
CONTINUOUS
 10
-0.597339
 20
0.102941
  0
VERTEX
  8
PLAN_1
 62
     2
  6
CONTINUOUS
 10
-0.596390
 20
0.099614
  0
VERTEX
  8
PLAN_1
 62
     2
  6
CONTINUOUS
 10
-0.595437
 20
0.096291
  0
VERTEX
  8
PLAN_1
 62
     2
  6
CONTINUOUS
 10
-0.593535
 20
0.093913
  0
VERTEX
  8
PLAN_1
 62
     2
  6
CONTINUOUS
 10
-0.591638
 20
0.092012
  0
VERTEX
  8
PLAN_1
 62
     2
  6
CONTINUOUS
 10
-0.588783
 20
0.090587
  0
VERTEX
  8
PLAN_1
 62
     2
  6
CONTINUOUS
 10
-0.585461
 20
0.089638
  0
VERTEX
  8
PLAN_1
 62
     2
  6
CONTINUOUS
 10
-0.581657
 20
0.089161
  0
VERTEX
  8
PLAN_1
 62
     2
  6
CONTINUOUS
 10
-0.578807
 20
0.089638
  0
VERTEX
  8
PLAN_1
 62
     2
  6
CONTINUOUS
 10
-0.575957
 20
0.090110
  0
VERTEX
  8
PLAN_1
 62
     2
  6
CONTINUOUS
 10
-0.573579
 20
0.091539
  0
VERTEX
  8
PLAN_1
 62
     2
  6
CONTINUOUS
 10
-0.571677
 20
0.092965
  0
VERTEX
  8
PLAN_1
 62
     2
  6
CONTINUOUS
 10
-0.570252
 20
0.094862
  0
VERTEX
  8
PLAN_1
 62
     2
  6
CONTINUOUS
 10
-0.568827
 20
0.096764
  0
VERTEX
  8
PLAN_1
 62
     2
  6
CONTINUOUS
 10
-0.567878
 20
0.098189
  0
VERTEX
  8
PLAN_1
 62
     2
  6
CONTINUOUS
 10
-0.567878
 20
0.100091
  0
VERTEX
  8
PLAN_1
 62
     2
  6
CONTINUOUS
 10
-0.558374
 20
0.100091
  0
SEQEND
  8
0
  0
POLYLINE
  8
PLAN_1
 62
     2
  6
CONTINUOUS
 66
     1
 40
0.003000
 41
0.003000
  0
VERTEX
  8
PLAN_1
 62
     2
  6
CONTINUOUS
 10
-0.567402
 20
0.114346
  0
VERTEX
  8
PLAN_1
 62
     2
  6
CONTINUOUS
 10
-0.567878
 20
0.117673
  0
VERTEX
  8
PLAN_1
 62
     2
  6
CONTINUOUS
 10
-0.568350
 20
0.120524
  0
VERTEX
  8
PLAN_1
 62
     2
  6
CONTINUOUS
 10
-0.569303
 20
0.123374
  0
VERTEX
  8
PLAN_1
 62
     2
  6
CONTINUOUS
 10
-0.570728
 20
0.125752
  0
VERTEX
  8
PLAN_1
 62
     2
  6
CONTINUOUS
 10
-0.573102
 20
0.127654
  0
VERTEX
  8
PLAN_1
 62
     2
  6
CONTINUOUS
 10
-0.575480
 20
0.129079
  0
VERTEX
  8
PLAN_1
 62
     2
  6
CONTINUOUS
 10
-0.578807
 20
0.130028
  0
VERTEX
  8
PLAN_1
 62
     2
  6
CONTINUOUS
 10
-0.582606
 20
0.130504
  0
VERTEX
  8
PLAN_1
 62
     2
  6
CONTINUOUS
 10
-0.585461
 20
0.130028
  0
VERTEX
  8
PLAN_1
 62
     2
  6
CONTINUOUS
 10
-0.588311
 20
0.129079
  0
VERTEX
  8
PLAN_1
 62
     2
  6
CONTINUOUS
 10
-0.591161
 20
0.127654
  0
VERTEX
  8
PLAN_1
 62
     2
  6
CONTINUOUS
 10
-0.593063
 20
0.125752
  0
VERTEX
  8
PLAN_1
 62
     2
  6
CONTINUOUS
 10
-0.594965
 20
0.123374
  0
VERTEX
  8
PLAN_1
 62
     2
  6
CONTINUOUS
 10
-0.596390
 20
0.120524
  0
VERTEX
  8
PLAN_1
 62
     2
  6
CONTINUOUS
 10
-0.597339
 20
0.117673
  0
VERTEX
  8
PLAN_1
 62
     2
  6
CONTINUOUS
 10
-0.597815
 20
0.114346
  0
VERTEX
  8
PLAN_1
 62
     2
  6
CONTINUOUS
 10
-0.567402
 20
0.114346
  0
SEQEND
  8
0
  0
SOLID
  8
PLAN_1
 62
     2
 10
-1.723531
 20
0.355268
 11
-1.669839
 21
0.326280
 12
-1.723531
 22
0.355268
 13
-1.662709
 23
0.357169
  0
POLYLINE
  8
PLAN_1
 62
     2
  6
CONTINUOUS
 66
     1
 40
0.003000
 41
0.003000
  0
VERTEX
  8
PLAN_1
 62
     2
  6
CONTINUOUS
 10
-1.723531
 20
0.355268
  0
VERTEX
  8
PLAN_1
 62
     2
  6
CONTINUOUS
 10
-1.669839
 20
0.326280
  0
VERTEX
  8
PLAN_1
 62
     2
  6
CONTINUOUS
 10
-1.662709
 20
0.357169
  0
VERTEX
  8
PLAN_1
 62
     2
  6
CONTINUOUS
 10
-1.723531
 20
0.355268
  0
SEQEND
  8
0
  0
POLYLINE
  8
PLAN_1
 62
     2
  6
CONTINUOUS
 66
     1
 40
0.004276
 41
0.004276
  0
VERTEX
  8
PLAN_1
 62
     2
  6
CONTINUOUS
 10
-1.687417
 20
0.346713
  0
VERTEX
  8
PLAN_1
 62
     2
  6
CONTINUOUS
 10
-1.047815
 20
0.184201
  0
VERTEX
  8
PLAN_1
 62
     2
  6
CONTINUOUS
 10
-0.089362
 20
0.184201
  0
SEQEND
  8
0
  0
POLYLINE
  8
PLAN_1
 62
     2
  6
CONTINUOUS
 66
     1
 40
0.004276
 41
0.004276
  0
VERTEX
  8
PLAN_1
 62
     2
  6
CONTINUOUS
 10
-2.295657
 20
0.052098
  0
VERTEX
  8
PLAN_1
 62
     2
  6
CONTINUOUS
 10
-1.173740
 20
0.052098
  0
SEQEND
  8
0
  0
SOLID
  8
PLAN_1
 62
     2
 10
-1.144280
 20
0.052098
 11
-1.203201
 21
0.067780
 12
-1.144280
 22
0.052098
 13
-1.203201
 23
0.036417
  0
POLYLINE
  8
PLAN_1
 62
     2
  6
CONTINUOUS
 66
     1
 40
0.003000
 41
0.003000
  0
VERTEX
  8
PLAN_1
 62
     2
  6
CONTINUOUS
 10
-1.144280
 20
0.052098
  0
VERTEX
  8
PLAN_1
 62
     2
  6
CONTINUOUS
 10
-1.203201
 20
0.067780
  0
VERTEX
  8
PLAN_1
 62
     2
  6
CONTINUOUS
 10
-1.203201
 20
0.036417
  0
VERTEX
  8
PLAN_1
 62
     2
  6
CONTINUOUS
 10
-1.144280
 20
0.052098
  0
SEQEND
  8
0
  0
SOLID
  8
PLAN_1
 62
     2
 10
-2.325122
 20
0.052098
 11
-2.266197
 21
0.067780
 12
-2.325122
 22
0.052098
 13
-2.266197
 23
0.036417
  0
POLYLINE
  8
PLAN_1
 62
     2
  6
CONTINUOUS
 66
     1
 40
0.003000
 41
0.003000
  0
VERTEX
  8
PLAN_1
 62
     2
  6
CONTINUOUS
 10
-2.325122
 20
0.052098
  0
VERTEX
  8
PLAN_1
 62
     2
  6
CONTINUOUS
 10
-2.266197
 20
0.067780
  0
VERTEX
  8
PLAN_1
 62
     2
  6
CONTINUOUS
 10
-2.266197
 20
0.036417
  0
VERTEX
  8
PLAN_1
 62
     2
  6
CONTINUOUS
 10
-2.325122
 20
0.052098
  0
SEQEND
  8
0
  0
POLYLINE
  8
PLAN_1
 62
     2
  6
CONTINUOUS
 66
     1
 40
0.003000
 41
0.003000
  0
VERTEX
  8
PLAN_1
 62
     2
  6
CONTINUOUS
 10
-1.769150
 20
0.117673
  0
VERTEX
  8
PLAN_1
 62
     2
  6
CONTINUOUS
 10
-1.768677
 20
0.117197
  0
VERTEX
  8
PLAN_1
 62
     2
  6
CONTINUOUS
 10
-1.768201
 20
0.117197
  0
VERTEX
  8
PLAN_1
 62
     2
  6
CONTINUOUS
 10
-1.767724
 20
0.117197
  0
VERTEX
  8
PLAN_1
 62
     2
  6
CONTINUOUS
 10
-1.766776
 20
0.117197
  0
VERTEX
  8
PLAN_1
 62
     2
  6
CONTINUOUS
 10
-1.766299
 20
0.117197
  0
VERTEX
  8
PLAN_1
 62
     2
  6
CONTINUOUS
 10
-1.765823
 20
0.117197
  0
VERTEX
  8
PLAN_1
 62
     2
  6
CONTINUOUS
 10
-1.765350
 20
0.117197
  0
VERTEX
  8
PLAN_1
 62
     2
  6
CONTINUOUS
 10
-1.764398
 20
0.117197
  0
VERTEX
  8
PLAN_1
 62
     2
  6
CONTINUOUS
 10
-1.762024
 20
0.117197
  0
VERTEX
  8
PLAN_1
 62
     2
  6
CONTINUOUS
 10
-1.759173
 20
0.117673
  0
VERTEX
  8
PLAN_1
 62
     2
  6
CONTINUOUS
 10
-1.756795
 20
0.118622
  0
VERTEX
  8
PLAN_1
 62
     2
  6
CONTINUOUS
 10
-1.754894
 20
0.119575
  0
VERTEX
  8
PLAN_1
 62
     2
  6
CONTINUOUS
 10
-1.752996
 20
0.121472
  0
VERTEX
  8
PLAN_1
 62
     2
  6
CONTINUOUS
 10
-1.751571
 20
0.123374
  0
VERTEX
  8
PLAN_1
 62
     2
  6
CONTINUOUS
 10
-1.751094
 20
0.126224
  0
VERTEX
  8
PLAN_1
 62
     2
  6
CONTINUOUS
 10
-1.750618
 20
0.129079
  0
VERTEX
  8
PLAN_1
 62
     2
  6
CONTINUOUS
 10
-1.750618
 20
0.130976
  0
VERTEX
  8
PLAN_1
 62
     2
  6
CONTINUOUS
 10
-1.751094
 20
0.132878
  0
VERTEX
  8
PLAN_1
 62
     2
  6
CONTINUOUS
 10
-1.752043
 20
0.134780
  0
VERTEX
  8
PLAN_1
 62
     2
  6
CONTINUOUS
 10
-1.753469
 20
0.136681
  0
VERTEX
  8
PLAN_1
 62
     2
  6
CONTINUOUS
 10
-1.754894
 20
0.138106
  0
VERTEX
  8
PLAN_1
 62
     2
  6
CONTINUOUS
 10
-1.757272
 20
0.139531
  0
VERTEX
  8
PLAN_1
 62
     2
  6
CONTINUOUS
 10
-1.760598
 20
0.140480
  0
VERTEX
  8
PLAN_1
 62
     2
  6
CONTINUOUS
 10
-1.763925
 20
0.140957
  0
VERTEX
  8
PLAN_1
 62
     2
  6
CONTINUOUS
 10
-1.766299
 20
0.140480
  0
VERTEX
  8
PLAN_1
 62
     2
  6
CONTINUOUS
 10
-1.768201
 20
0.140480
  0
VERTEX
  8
PLAN_1
 62
     2
  6
CONTINUOUS
 10
-1.770102
 20
0.139531
  0
VERTEX
  8
PLAN_1
 62
     2
  6
CONTINUOUS
 10
-1.771528
 20
0.139055
  0
VERTEX
  8
PLAN_1
 62
     2
  6
CONTINUOUS
 10
-1.774378
 20
0.137157
  0
VERTEX
  8
PLAN_1
 62
     2
  6
CONTINUOUS
 10
-1.775803
 20
0.134780
  0
VERTEX
  8
PLAN_1
 62
     2
  6
CONTINUOUS
 10
-1.777228
 20
0.132406
  0
VERTEX
  8
PLAN_1
 62
     2
  6
CONTINUOUS
 10
-1.777705
 20
0.129551
  0
VERTEX
  8
PLAN_1
 62
     2
  6
CONTINUOUS
 10
-1.778181
 20
0.127177
  0
VERTEX
  8
PLAN_1
 62
     2
  6
CONTINUOUS
 10
-1.778181
 20
0.125276
  0
VERTEX
  8
PLAN_1
 62
     2
  6
CONTINUOUS
 10
-1.787209
 20
0.125276
  0
VERTEX
  8
PLAN_1
 62
     2
  6
CONTINUOUS
 10
-1.787209
 20
0.129079
  0
VERTEX
  8
PLAN_1
 62
     2
  6
CONTINUOUS
 10
-1.786256
 20
0.133354
  0
VERTEX
  8
PLAN_1
 62
     2
  6
CONTINUOUS
 10
-1.784831
 20
0.137157
  0
VERTEX
  8
PLAN_1
 62
     2
  6
CONTINUOUS
 10
-1.782933
 20
0.140957
  0
VERTEX
  8
PLAN_1
 62
     2
  6
CONTINUOUS
 10
-1.781504
 20
0.142858
  0
VERTEX
  8
PLAN_1
 62
     2
  6
CONTINUOUS
 10
-1.779606
 20
0.144283
  0
VERTEX
  8
PLAN_1
 62
     2
  6
CONTINUOUS
 10
-1.777705
 20
0.145709
  0
VERTEX
  8
PLAN_1
 62
     2
  6
CONTINUOUS
 10
-1.775327
 20
0.146657
  0
VERTEX
  8
PLAN_1
 62
     2
  6
CONTINUOUS
 10
-1.772953
 20
0.147610
  0
VERTEX
  8
PLAN_1
 62
     2
  6
CONTINUOUS
 10
-1.770102
 20
0.148559
  0
VERTEX
  8
PLAN_1
 62
     2
  6
CONTINUOUS
 10
-1.767252
 20
0.149035
  0
VERTEX
  8
PLAN_1
 62
     2
  6
CONTINUOUS
 10
-1.763925
 20
0.149035
  0
VERTEX
  8
PLAN_1
 62
     2
  6
CONTINUOUS
 10
-1.758697
 20
0.148559
  0
VERTEX
  8
PLAN_1
 62
     2
  6
CONTINUOUS
 10
-1.754421
 20
0.147610
  0
VERTEX
  8
PLAN_1
 62
     2
  6
CONTINUOUS
 10
-1.750142
 20
0.145709
  0
VERTEX
  8
PLAN_1
 62
     2
  6
CONTINUOUS
 10
-1.747291
 20
0.143335
  0
VERTEX
  8
PLAN_1
 62
     2
  6
CONTINUOUS
 10
-1.744441
 20
0.140480
  0
VERTEX
  8
PLAN_1
 62
     2
  6
CONTINUOUS
 10
-1.742539
 20
0.137630
  0
VERTEX
  8
PLAN_1
 62
     2
  6
CONTINUOUS
 10
-1.741591
 20
0.133831
  0
VERTEX
  8
PLAN_1
 62
     2
  6
CONTINUOUS
 10
-1.741114
 20
0.129551
  0
VERTEX
  8
PLAN_1
 62
     2
  6
CONTINUOUS
 10
-1.741114
 20
0.126224
  0
VERTEX
  8
PLAN_1
 62
     2
  6
CONTINUOUS
 10
-1.742067
 20
0.123374
  0
VERTEX
  8
PLAN_1
 62
     2
  6
CONTINUOUS
 10
-1.743016
 20
0.121000
  0
VERTEX
  8
PLAN_1
 62
     2
  6
CONTINUOUS
 10
-1.744441
 20
0.119098
  0
VERTEX
  8
PLAN_1
 62
     2
  6
CONTINUOUS
 10
-1.745866
 20
0.117673
  0
VERTEX
  8
PLAN_1
 62
     2
  6
CONTINUOUS
 10
-1.747291
 20
0.116248
  0
VERTEX
  8
PLAN_1
 62
     2
  6
CONTINUOUS
 10
-1.748717
 20
0.115295
  0
VERTEX
  8
PLAN_1
 62
     2
  6
CONTINUOUS
 10
-1.750618
 20
0.114823
  0
VERTEX
  8
PLAN_1
 62
     2
  6
CONTINUOUS
 10
-1.750618
 20
0.114346
  0
VERTEX
  8
PLAN_1
 62
     2
  6
CONTINUOUS
 10
-1.747768
 20
0.113398
  0
VERTEX
  8
PLAN_1
 62
     2
  6
CONTINUOUS
 10
-1.745390
 20
0.111972
  0
VERTEX
  8
PLAN_1
 62
     2
  6
CONTINUOUS
 10
-1.743492
 20
0.110543
  0
VERTEX
  8
PLAN_1
 62
     2
  6
CONTINUOUS
 10
-1.741591
 20
0.108646
  0
VERTEX
  8
PLAN_1
 62
     2
  6
CONTINUOUS
 10
-1.740165
 20
0.106268
  0
VERTEX
  8
PLAN_1
 62
     2
  6
CONTINUOUS
 10
-1.739213
 20
0.103894
  0
VERTEX
  8
PLAN_1
 62
     2
  6
CONTINUOUS
 10
-1.738740
 20
0.101039
  0
VERTEX
  8
PLAN_1
 62
     2
  6
CONTINUOUS
 10
-1.738264
 20
0.097240
  0
VERTEX
  8
PLAN_1
 62
     2
  6
CONTINUOUS
 10
-1.738740
 20
0.092965
  0
VERTEX
  8
PLAN_1
 62
     2
  6
CONTINUOUS
 10
-1.739689
 20
0.088685
  0
VERTEX
  8
PLAN_1
 62
     2
  6
CONTINUOUS
 10
-1.741591
 20
0.084886
  0
VERTEX
  8
PLAN_1
 62
     2
  6
CONTINUOUS
 10
-1.744441
 20
0.081083
  0
VERTEX
  8
PLAN_1
 62
     2
  6
CONTINUOUS
 10
-1.746343
 20
0.079657
  0
VERTEX
  8
PLAN_1
 62
     2
  6
CONTINUOUS
 10
-1.748244
 20
0.078232
  0
VERTEX
  8
PLAN_1
 62
     2
  6
CONTINUOUS
 10
-1.750142
 20
0.076807
  0
VERTEX
  8
PLAN_1
 62
     2
  6
CONTINUOUS
 10
-1.752520
 20
0.075858
  0
VERTEX
  8
PLAN_1
 62
     2
  6
CONTINUOUS
 10
-1.755370
 20
0.074906
  0
VERTEX
  8
PLAN_1
 62
     2
  6
CONTINUOUS
 10
-1.758220
 20
0.074429
  0
VERTEX
  8
PLAN_1
 62
     2
  6
CONTINUOUS
 10
-1.761071
 20
0.073957
  0
VERTEX
  8
PLAN_1
 62
     2
  6
CONTINUOUS
 10
-1.764398
 20
0.073957
  0
VERTEX
  8
PLAN_1
 62
     2
  6
CONTINUOUS
 10
-1.766776
 20
0.073957
  0
VERTEX
  8
PLAN_1
 62
     2
  6
CONTINUOUS
 10
-1.768677
 20
0.073957
  0
VERTEX
  8
PLAN_1
 62
     2
  6
CONTINUOUS
 10
-1.770575
 20
0.074429
  0
VERTEX
  8
PLAN_1
 62
     2
  6
CONTINUOUS
 10
-1.772004
 20
0.074906
  0
VERTEX
  8
PLAN_1
 62
     2
  6
CONTINUOUS
 10
-1.773902
 20
0.075382
  0
VERTEX
  8
PLAN_1
 62
     2
  6
CONTINUOUS
 10
-1.775327
 20
0.075858
  0
VERTEX
  8
PLAN_1
 62
     2
  6
CONTINUOUS
 10
-1.776756
 20
0.076331
  0
VERTEX
  8
PLAN_1
 62
     2
  6
CONTINUOUS
 10
-1.778181
 20
0.077283
  0
VERTEX
  8
PLAN_1
 62
     2
  6
CONTINUOUS
 10
-1.781031
 20
0.078709
  0
VERTEX
  8
PLAN_1
 62
     2
  6
CONTINUOUS
 10
-1.783406
 20
0.081083
  0
VERTEX
  8
PLAN_1
 62
     2
  6
CONTINUOUS
 10
-1.784831
 20
0.083461
  0
VERTEX
  8
PLAN_1
 62
     2
  6
CONTINUOUS
 10
-1.786256
 20
0.086311
  0
VERTEX
  8
PLAN_1
 62
     2
  6
CONTINUOUS
 10
-1.787685
 20
0.089161
  0
VERTEX
  8
PLAN_1
 62
     2
  6
CONTINUOUS
 10
-1.788157
 20
0.092012
  0
VERTEX
  8
PLAN_1
 62
     2
  6
CONTINUOUS
 10
-1.788634
 20
0.094862
  0
VERTEX
  8
PLAN_1
 62
     2
  6
CONTINUOUS
 10
-1.789110
 20
0.098189
  0
VERTEX
  8
PLAN_1
 62
     2
  6
CONTINUOUS
 10
-1.779606
 20
0.098189
  0
VERTEX
  8
PLAN_1
 62
     2
  6
CONTINUOUS
 10
-1.779606
 20
0.095339
  0
VERTEX
  8
PLAN_1
 62
     2
  6
CONTINUOUS
 10
-1.779130
 20
0.092965
  0
VERTEX
  8
PLAN_1
 62
     2
  6
CONTINUOUS
 10
-1.778181
 20
0.090110
  0
VERTEX
  8
PLAN_1
 62
     2
  6
CONTINUOUS
 10
-1.776756
 20
0.087736
  0
VERTEX
  8
PLAN_1
 62
     2
  6
CONTINUOUS
 10
-1.774854
 20
0.085358
  0
VERTEX
  8
PLAN_1
 62
     2
  6
CONTINUOUS
 10
-1.772004
 20
0.083461
  0
VERTEX
  8
PLAN_1
 62
     2
  6
CONTINUOUS
 10
-1.768677
 20
0.082508
  0
VERTEX
  8
PLAN_1
 62
     2
  6
CONTINUOUS
 10
-1.763925
 20
0.082035
  0
VERTEX
  8
PLAN_1
 62
     2
  6
CONTINUOUS
 10
-1.760598
 20
0.082508
  0
VERTEX
  8
PLAN_1
 62
     2
  6
CONTINUOUS
 10
-1.757748
 20
0.082984
  0
VERTEX
  8
PLAN_1
 62
     2
  6
CONTINUOUS
 10
-1.754894
 20
0.084409
  0
VERTEX
  8
PLAN_1
 62
     2
  6
CONTINUOUS
 10
-1.752520
 20
0.085835
  0
VERTEX
  8
PLAN_1
 62
     2
  6
CONTINUOUS
 10
-1.750618
 20
0.088213
  0
VERTEX
  8
PLAN_1
 62
     2
  6
CONTINUOUS
 10
-1.749193
 20
0.090587
  0
VERTEX
  8
PLAN_1
 62
     2
  6
CONTINUOUS
 10
-1.748244
 20
0.093437
  0
VERTEX
  8
PLAN_1
 62
     2
  6
CONTINUOUS
 10
-1.748244
 20
0.096291
  0
VERTEX
  8
PLAN_1
 62
     2
  6
CONTINUOUS
 10
-1.748244
 20
0.098189
  0
VERTEX
  8
PLAN_1
 62
     2
  6
CONTINUOUS
 10
-1.748717
 20
0.100567
  0
VERTEX
  8
PLAN_1
 62
     2
  6
CONTINUOUS
 10
-1.749193
 20
0.101992
  0
VERTEX
  8
PLAN_1
 62
     2
  6
CONTINUOUS
 10
-1.749669
 20
0.103417
  0
VERTEX
  8
PLAN_1
 62
     2
  6
CONTINUOUS
 10
-1.752043
 20
0.105791
  0
VERTEX
  8
PLAN_1
 62
     2
  6
CONTINUOUS
 10
-1.754421
 20
0.107693
  0
VERTEX
  8
PLAN_1
 62
     2
  6
CONTINUOUS
 10
-1.756795
 20
0.108646
  0
VERTEX
  8
PLAN_1
 62
     2
  6
CONTINUOUS
 10
-1.759646
 20
0.109118
  0
VERTEX
  8
PLAN_1
 62
     2
  6
CONTINUOUS
 10
-1.762500
 20
0.109594
  0
VERTEX
  8
PLAN_1
 62
     2
  6
CONTINUOUS
 10
-1.765350
 20
0.109594
  0
VERTEX
  8
PLAN_1
 62
     2
  6
CONTINUOUS
 10
-1.765823
 20
0.109594
  0
VERTEX
  8
PLAN_1
 62
     2
  6
CONTINUOUS
 10
-1.766299
 20
0.109594
  0
VERTEX
  8
PLAN_1
 62
     2
  6
CONTINUOUS
 10
-1.766776
 20
0.109594
  0
VERTEX
  8
PLAN_1
 62
     2
  6
CONTINUOUS
 10
-1.767252
 20
0.109594
  0
VERTEX
  8
PLAN_1
 62
     2
  6
CONTINUOUS
 10
-1.767724
 20
0.109594
  0
VERTEX
  8
PLAN_1
 62
     2
  6
CONTINUOUS
 10
-1.768201
 20
0.109594
  0
VERTEX
  8
PLAN_1
 62
     2
  6
CONTINUOUS
 10
-1.768677
 20
0.109594
  0
VERTEX
  8
PLAN_1
 62
     2
  6
CONTINUOUS
 10
-1.769150
 20
0.109594
  0
VERTEX
  8
PLAN_1
 62
     2
  6
CONTINUOUS
 10
-1.769150
 20
0.117673
  0
SEQEND
  8
0
  0
POLYLINE
  8
PLAN_1
 62
     2
  6
CONTINUOUS
 66
     1
 40
0.003000
 41
0.003000
  0
VERTEX
  8
PLAN_1
 62
     2
  6
CONTINUOUS
 10
-1.705953
 20
0.073957
  0
VERTEX
  8
PLAN_1
 62
     2
  6
CONTINUOUS
 10
-1.709752
 20
0.073957
  0
VERTEX
  8
PLAN_1
 62
     2
  6
CONTINUOUS
 10
-1.713079
 20
0.074906
  0
VERTEX
  8
PLAN_1
 62
     2
  6
CONTINUOUS
 10
-1.715929
 20
0.075858
  0
VERTEX
  8
PLAN_1
 62
     2
  6
CONTINUOUS
 10
-1.718780
 20
0.077756
  0
VERTEX
  8
PLAN_1
 62
     2
  6
CONTINUOUS
 10
-1.721157
 20
0.079657
  0
VERTEX
  8
PLAN_1
 62
     2
  6
CONTINUOUS
 10
-1.723059
 20
0.081559
  0
VERTEX
  8
PLAN_1
 62
     2
  6
CONTINUOUS
 10
-1.724484
 20
0.084409
  0
VERTEX
  8
PLAN_1
 62
     2
  6
CONTINUOUS
 10
-1.726386
 20
0.086787
  0
VERTEX
  8
PLAN_1
 62
     2
  6
CONTINUOUS
 10
-1.728283
 20
0.092965
  0
VERTEX
  8
PLAN_1
 62
     2
  6
CONTINUOUS
 10
-1.729709
 20
0.099142
  0
VERTEX
  8
PLAN_1
 62
     2
  6
CONTINUOUS
 10
-1.730661
 20
0.105319
  0
VERTEX
  8
PLAN_1
 62
     2
  6
CONTINUOUS
 10
-1.730661
 20
0.111496
  0
VERTEX
  8
PLAN_1
 62
     2
  6
CONTINUOUS
 10
-1.730661
 20
0.117197
  0
VERTEX
  8
PLAN_1
 62
     2
  6
CONTINUOUS
 10
-1.729709
 20
0.123850
  0
VERTEX
  8
PLAN_1
 62
     2
  6
CONTINUOUS
 10
-1.728283
 20
0.130028
  0
VERTEX
  8
PLAN_1
 62
     2
  6
CONTINUOUS
 10
-1.726386
 20
0.135728
  0
VERTEX
  8
PLAN_1
 62
     2
  6
CONTINUOUS
 10
-1.724484
 20
0.138583
  0
VERTEX
  8
PLAN_1
 62
     2
  6
CONTINUOUS
 10
-1.723059
 20
0.140957
  0
VERTEX
  8
PLAN_1
 62
     2
  6
CONTINUOUS
 10
-1.721157
 20
0.143335
  0
VERTEX
  8
PLAN_1
 62
     2
  6
CONTINUOUS
 10
-1.718780
 20
0.145232
  0
VERTEX
  8
PLAN_1
 62
     2
  6
CONTINUOUS
 10
-1.715929
 20
0.146657
  0
VERTEX
  8
PLAN_1
 62
     2
  6
CONTINUOUS
 10
-1.713079
 20
0.148087
  0
VERTEX
  8
PLAN_1
 62
     2
  6
CONTINUOUS
 10
-1.709752
 20
0.148559
  0
VERTEX
  8
PLAN_1
 62
     2
  6
CONTINUOUS
 10
-1.705953
 20
0.149035
  0
VERTEX
  8
PLAN_1
 62
     2
  6
CONTINUOUS
 10
-1.702150
 20
0.148559
  0
VERTEX
  8
PLAN_1
 62
     2
  6
CONTINUOUS
 10
-1.698823
 20
0.148087
  0
VERTEX
  8
PLAN_1
 62
     2
  6
CONTINUOUS
 10
-1.695496
 20
0.146657
  0
VERTEX
  8
PLAN_1
 62
     2
  6
CONTINUOUS
 10
-1.693122
 20
0.145232
  0
VERTEX
  8
PLAN_1
 62
     2
  6
CONTINUOUS
 10
-1.690744
 20
0.143335
  0
VERTEX
  8
PLAN_1
 62
     2
  6
CONTINUOUS
 10
-1.688843
 20
0.140957
  0
VERTEX
  8
PLAN_1
 62
     2
  6
CONTINUOUS
 10
-1.686945
 20
0.138583
  0
VERTEX
  8
PLAN_1
 62
     2
  6
CONTINUOUS
 10
-1.685520
 20
0.135728
  0
VERTEX
  8
PLAN_1
 62
     2
  6
CONTINUOUS
 10
-1.683142
 20
0.130028
  0
VERTEX
  8
PLAN_1
 62
     2
  6
CONTINUOUS
 10
-1.681717
 20
0.123850
  0
VERTEX
  8
PLAN_1
 62
     2
  6
CONTINUOUS
 10
-1.680768
 20
0.117197
  0
VERTEX
  8
PLAN_1
 62
     2
  6
CONTINUOUS
 10
-1.680768
 20
0.111496
  0
VERTEX
  8
PLAN_1
 62
     2
  6
CONTINUOUS
 10
-1.680768
 20
0.105319
  0
VERTEX
  8
PLAN_1
 62
     2
  6
CONTINUOUS
 10
-1.681717
 20
0.099142
  0
VERTEX
  8
PLAN_1
 62
     2
  6
CONTINUOUS
 10
-1.683142
 20
0.092965
  0
VERTEX
  8
PLAN_1
 62
     2
  6
CONTINUOUS
 10
-1.685520
 20
0.086787
  0
VERTEX
  8
PLAN_1
 62
     2
  6
CONTINUOUS
 10
-1.686945
 20
0.084409
  0
VERTEX
  8
PLAN_1
 62
     2
  6
CONTINUOUS
 10
-1.688843
 20
0.081559
  0
VERTEX
  8
PLAN_1
 62
     2
  6
CONTINUOUS
 10
-1.690744
 20
0.079657
  0
VERTEX
  8
PLAN_1
 62
     2
  6
CONTINUOUS
 10
-1.693122
 20
0.077756
  0
VERTEX
  8
PLAN_1
 62
     2
  6
CONTINUOUS
 10
-1.695496
 20
0.075858
  0
VERTEX
  8
PLAN_1
 62
     2
  6
CONTINUOUS
 10
-1.698823
 20
0.074906
  0
VERTEX
  8
PLAN_1
 62
     2
  6
CONTINUOUS
 10
-1.702150
 20
0.073957
  0
VERTEX
  8
PLAN_1
 62
     2
  6
CONTINUOUS
 10
-1.705953
 20
0.073957
  0
SEQEND
  8
0
  0
POLYLINE
  8
PLAN_1
 62
     2
  6
CONTINUOUS
 66
     1
 40
0.003000
 41
0.003000
  0
VERTEX
  8
PLAN_1
 62
     2
  6
CONTINUOUS
 10
-1.705953
 20
0.140957
  0
VERTEX
  8
PLAN_1
 62
     2
  6
CONTINUOUS
 10
-1.707850
 20
0.140480
  0
VERTEX
  8
PLAN_1
 62
     2
  6
CONTINUOUS
 10
-1.709276
 20
0.140480
  0
VERTEX
  8
PLAN_1
 62
     2
  6
CONTINUOUS
 10
-1.711177
 20
0.139531
  0
VERTEX
  8
PLAN_1
 62
     2
  6
CONTINUOUS
 10
-1.712602
 20
0.138583
  0
VERTEX
  8
PLAN_1
 62
     2
  6
CONTINUOUS
 10
-1.714028
 20
0.137630
  0
VERTEX
  8
PLAN_1
 62
     2
  6
CONTINUOUS
 10
-1.715457
 20
0.136205
  0
VERTEX
  8
PLAN_1
 62
     2
  6
CONTINUOUS
 10
-1.716406
 20
0.134780
  0
VERTEX
  8
PLAN_1
 62
     2
  6
CONTINUOUS
 10
-1.717354
 20
0.132878
  0
VERTEX
  8
PLAN_1
 62
     2
  6
CONTINUOUS
 10
-1.719256
 20
0.128602
  0
VERTEX
  8
PLAN_1
 62
     2
  6
CONTINUOUS
 10
-1.720205
 20
0.123850
  0
VERTEX
  8
PLAN_1
 62
     2
  6
CONTINUOUS
 10
-1.720681
 20
0.118150
  0
VERTEX
  8
PLAN_1
 62
     2
  6
CONTINUOUS
 10
-1.721157
 20
0.111496
  0
VERTEX
  8
PLAN_1
 62
     2
  6
CONTINUOUS
 10
-1.720681
 20
0.104843
  0
VERTEX
  8
PLAN_1
 62
     2
  6
CONTINUOUS
 10
-1.720205
 20
0.099142
  0
VERTEX
  8
PLAN_1
 62
     2
  6
CONTINUOUS
 10
-1.719256
 20
0.093913
  0
VERTEX
  8
PLAN_1
 62
     2
  6
CONTINUOUS
 10
-1.717354
 20
0.090110
  0
VERTEX
  8
PLAN_1
 62
     2
  6
CONTINUOUS
 10
-1.716406
 20
0.088213
  0
VERTEX
  8
PLAN_1
 62
     2
  6
CONTINUOUS
 10
-1.715457
 20
0.086311
  0
VERTEX
  8
PLAN_1
 62
     2
  6
CONTINUOUS
 10
-1.714028
 20
0.085358
  0
VERTEX
  8
PLAN_1
 62
     2
  6
CONTINUOUS
 10
-1.712602
 20
0.083933
  0
VERTEX
  8
PLAN_1
 62
     2
  6
CONTINUOUS
 10
-1.711177
 20
0.083461
  0
VERTEX
  8
PLAN_1
 62
     2
  6
CONTINUOUS
 10
-1.709276
 20
0.082508
  0
VERTEX
  8
PLAN_1
 62
     2
  6
CONTINUOUS
 10
-1.707850
 20
0.082035
  0
VERTEX
  8
PLAN_1
 62
     2
  6
CONTINUOUS
 10
-1.705953
 20
0.082035
  0
VERTEX
  8
PLAN_1
 62
     2
  6
CONTINUOUS
 10
-1.704051
 20
0.082035
  0
VERTEX
  8
PLAN_1
 62
     2
  6
CONTINUOUS
 10
-1.702150
 20
0.082508
  0
VERTEX
  8
PLAN_1
 62
     2
  6
CONTINUOUS
 10
-1.700248
 20
0.083461
  0
VERTEX
  8
PLAN_1
 62
     2
  6
CONTINUOUS
 10
-1.698823
 20
0.083933
  0
VERTEX
  8
PLAN_1
 62
     2
  6
CONTINUOUS
 10
-1.697398
 20
0.085358
  0
VERTEX
  8
PLAN_1
 62
     2
  6
CONTINUOUS
 10
-1.696449
 20
0.086311
  0
VERTEX
  8
PLAN_1
 62
     2
  6
CONTINUOUS
 10
-1.695024
 20
0.088213
  0
VERTEX
  8
PLAN_1
 62
     2
  6
CONTINUOUS
 10
-1.694071
 20
0.090110
  0
VERTEX
  8
PLAN_1
 62
     2
  6
CONTINUOUS
 10
-1.692646
 20
0.093913
  0
VERTEX
  8
PLAN_1
 62
     2
  6
CONTINUOUS
 10
-1.691220
 20
0.099142
  0
VERTEX
  8
PLAN_1
 62
     2
  6
CONTINUOUS
 10
-1.690744
 20
0.104843
  0
VERTEX
  8
PLAN_1
 62
     2
  6
CONTINUOUS
 10
-1.690272
 20
0.111496
  0
VERTEX
  8
PLAN_1
 62
     2
  6
CONTINUOUS
 10
-1.690744
 20
0.118150
  0
VERTEX
  8
PLAN_1
 62
     2
  6
CONTINUOUS
 10
-1.691220
 20
0.123850
  0
VERTEX
  8
PLAN_1
 62
     2
  6
CONTINUOUS
 10
-1.692646
 20
0.128602
  0
VERTEX
  8
PLAN_1
 62
     2
  6
CONTINUOUS
 10
-1.694071
 20
0.132878
  0
VERTEX
  8
PLAN_1
 62
     2
  6
CONTINUOUS
 10
-1.696449
 20
0.136205
  0
VERTEX
  8
PLAN_1
 62
     2
  6
CONTINUOUS
 10
-1.698823
 20
0.138583
  0
VERTEX
  8
PLAN_1
 62
     2
  6
CONTINUOUS
 10
-1.700248
 20
0.139531
  0
VERTEX
  8
PLAN_1
 62
     2
  6
CONTINUOUS
 10
-1.702150
 20
0.140480
  0
VERTEX
  8
PLAN_1
 62
     2
  6
CONTINUOUS
 10
-1.704051
 20
0.140480
  0
VERTEX
  8
PLAN_1
 62
     2
  6
CONTINUOUS
 10
-1.705953
 20
0.140957
  0
SEQEND
  8
0
  0
POLYLINE
  8
PLAN_1
 62
     2
  6
CONTINUOUS
 66
     1
 40
0.004276
 41
0.004276
  0
VERTEX
  8
PLAN_1
 62
     2
  6
CONTINUOUS
 10
-2.325122
 20
0.028811
  0
VERTEX
  8
PLAN_1
 62
     2
  6
CONTINUOUS
 10
-2.325122
 20
1.049039
  0
SEQEND
  8
0
  0
POLYLINE
  8
PLAN_1
 62
     2
  6
CONTINUOUS
 66
     1
 40
0.004276
 41
0.004276
  0
VERTEX
  8
PLAN_1
 62
     2
  6
CONTINUOUS
 10
-0.957531
 20
3.545677
  0
VERTEX
  8
PLAN_1
 62
     2
  6
CONTINUOUS
 10
-1.114343
 20
3.545677
  0
SEQEND
  8
0
  0
POLYLINE
  8
PLAN_1
 62
     2
  6
CONTINUOUS
 66
     1
 40
0.004276
 41
0.004276
  0
VERTEX
  8
PLAN_1
 62
     2
  6
CONTINUOUS
 10
-0.957531
 20
0.621846
  0
VERTEX
  8
PLAN_1
 62
     2
  6
CONTINUOUS
 10
-1.115768
 20
0.621846
  0
SEQEND
  8
0
  0
POLYLINE
  8
PLAN_1
 62
     2
  6
CONTINUOUS
 66
     1
 40
0.004276
 41
0.004276
  0
VERTEX
  8
PLAN_1
 62
     2
  6
CONTINUOUS
 10
-1.384724
 20
3.564209
  0
VERTEX
  8
PLAN_1
 62
     2
  6
CONTINUOUS
 10
-1.384724
 20
3.724823
  0
SEQEND
  8
0
  0
POLYLINE
  8
PLAN_1
 62
     2
  6
CONTINUOUS
 66
     1
 40
0.004276
 41
0.004276
  0
VERTEX
  8
PLAN_1
 62
     2
  6
CONTINUOUS
 10
-1.143331
 20
3.566583
  0
VERTEX
  8
PLAN_1
 62
     2
  6
CONTINUOUS
 10
-1.143331
 20
3.724823
  0
SEQEND
  8
0
  0
POLYLINE
  8
PLAN_1
 62
     2
  6
CONTINUOUS
 66
     1
 40
0.004276
 41
0.004276
  0
VERTEX
  8
PLAN_1
 62
     2
  6
CONTINUOUS
 10
-1.144280
 20
0.028811
  0
VERTEX
  8
PLAN_1
 62
     2
  6
CONTINUOUS
 10
-1.144280
 20
0.185626
  0
SEQEND
  8
0
  0
POLYLINE
  8
PLAN_1
 62
     2
  6
CONTINUOUS
 66
     1
 40
0.004276
 41
0.004276
  0
VERTEX
  8
PLAN_1
 62
     2
  6
CONTINUOUS
 10
-1.144280
 20
0.232669
  0
VERTEX
  8
PLAN_1
 62
     2
  6
CONTINUOUS
 10
-1.144280
 20
0.597138
  0
SEQEND
  8
0
  0
ENDSEC
  0
EOF
