  0
SECTION
  2
HEADER
  9
$ACADVER
  1
AC1006
  9
$EXTMIN
 10
-2.199000
 20
-4.089898
  9
$EXTMAX
 10
2.190000
 20
4.089000
  9
$LTSCALE
 40
0.000394
  9
$PDMODE
 70
    35
  9
$PDSIZE
 40
0.000315
  0
ENDSEC
  0
SECTION
  2
TABLES
  0
TABLE
  2
LTYPE
 70
     9
  0
LTYPE
  2
CONTINUOUS
 70
    64
  3
Solid line
 72
    65
 73
     0
 40
0.000000
  0
LTYPE
  2
DASHED
 70
    64
  3
__ __ __ __ __ __ __ __ __ __ __ __ __ __ __
 72
    65
 73
     2
 40
0.000003
 49
0.000002
 49
-0.000001
  0
LTYPE
  2
HIDDEN
 70
    64
  3
 _ _ _ _ _ _ _ _ _ _ _ _ _ _ _ _ _ _ _ _ _ _
 72
    65
 73
     2
 40
0.000001
 49
0.000001
 49
-0.000000
  0
LTYPE
  2
CENTER
 70
    64
  3
____ _ ____ _ ____ _ ____ _ ____ _ ____ _ ____
 72
    65
 73
     4
 40
0.000008
 49
0.000005
 49
-0.000001
 49
0.000001
 49
-0.000001
  0
LTYPE
  2
PHANTOM
 70
    64
  3
_____ _ _ _____ _ _ _____ _ _ _____ _ _ ____
 72
    65
 73
     6
 40
0.000010
 49
0.000005
 49
-0.000001
 49
0.000001
 49
-0.000001
 49
0.000001
 49
-0.000001
  0
LTYPE
  2
DOT
 70
    64
  3
...............................................
 72
    65
 73
     2
 40
0.000001
 49
0.000000
 49
-0.000001
  0
LTYPE
  2
DASHDOT
 70
    64
  3
__ . __ . __ . __ . __ . __ . __ . __ . __ . __
 72
    65
 73
     4
 40
0.000004
 49
0.000002
 49
-0.000001
 49
0.000000
 49
-0.000001
  0
LTYPE
  2
BORDER
 70
    64
  3
__ __ . __ __ . __ __ . __ __ . __ __ . __ __
 72
    65
 73
     6
 40
0.000007
 49
0.000002
 49
-0.000001
 49
0.000002
 49
-0.000001
 49
0.000000
 49
-0.000001
  0
LTYPE
  2
DIVIDE
 70
    64
  3
__ . . __ . . __ . . __ . . __ . . __ . . __
 72
    65
 73
     6
 40
0.000005
 49
0.000002
 49
-0.000001
 49
0.000000
 49
-0.000001
 49
0.000000
 49
-0.000001
  0
LTYPE
  2
DOTDOT
 70
    64
  3
 . .  . .  . .  . .  . .  . . 
 72
    65
 73
     5
 40
0.000002
 49
-0.000001
 49
0.000000
 49
-0.000001
 49
0.000000
 49
-0.000001
  0
ENDTAB
  0
TABLE
  2
STYLE
 70
     0
  0
ENDTAB
  0
TABLE
  2
LAYER
 70
     3
  0
LAYER
  2
FOREGROUND
 70
    64
 62
     7
  6
CONTINUOUS
  0
LAYER
  2
BACKGROUND
 70
    65
 62
    -7
  6
CONTINUOUS
  0
LAYER
  2
PLAN_1
 70
    64
 62
     7
  6
CONTINUOUS
  0
ENDTAB
  0
ENDSEC
  0
SECTION
  2
ENTITIES
  0
POLYLINE
  8
PLAN_1
  6
CONTINUOUS
 66
     1
 40
0.003000
 41
0.003000
  0
VERTEX
  8
PLAN_1
  6
CONTINUOUS
 10
0.386043
 20
-4.055134
  0
VERTEX
  8
PLAN_1
  6
CONTINUOUS
 10
0.229110
 20
-4.055134
  0
VERTEX
  8
PLAN_1
  6
CONTINUOUS
 10
0.229110
 20
-4.032642
  0
VERTEX
  8
PLAN_1
  6
CONTINUOUS
 10
0.351283
 20
-3.879799
  0
VERTEX
  8
PLAN_1
  6
CONTINUOUS
 10
0.238311
 20
-3.879799
  0
VERTEX
  8
PLAN_1
  6
CONTINUOUS
 10
0.238311
 20
-3.855776
  0
VERTEX
  8
PLAN_1
  6
CONTINUOUS
 10
0.386043
 20
-3.855776
  0
VERTEX
  8
PLAN_1
  6
CONTINUOUS
 10
0.386043
 20
-3.879287
  0
VERTEX
  8
PLAN_1
  6
CONTINUOUS
 10
0.263358
 20
-4.031110
  0
VERTEX
  8
PLAN_1
  6
CONTINUOUS
 10
0.386043
 20
-4.031110
  0
VERTEX
  8
PLAN_1
  6
CONTINUOUS
 10
0.386043
 20
-4.055134
  0
SEQEND
  8
0
  0
POLYLINE
  8
PLAN_1
  6
CONTINUOUS
 66
     1
 40
0.003000
 41
0.003000
  0
VERTEX
  8
PLAN_1
  6
CONTINUOUS
 10
0.553709
 20
-3.915583
  0
VERTEX
  8
PLAN_1
  6
CONTINUOUS
 10
0.552177
 20
-3.909449
  0
VERTEX
  8
PLAN_1
  6
CONTINUOUS
 10
0.549622
 20
-3.903827
  0
VERTEX
  8
PLAN_1
  6
CONTINUOUS
 10
0.547575
 20
-3.899224
  0
VERTEX
  8
PLAN_1
  6
CONTINUOUS
 10
0.544508
 20
-3.894626
  0
VERTEX
  8
PLAN_1
  6
CONTINUOUS
 10
0.541441
 20
-3.890535
  0
VERTEX
  8
PLAN_1
  6
CONTINUOUS
 10
0.537862
 20
-3.887469
  0
VERTEX
  8
PLAN_1
  6
CONTINUOUS
 10
0.533772
 20
-3.884402
  0
VERTEX
  8
PLAN_1
  6
CONTINUOUS
 10
0.530197
 20
-3.881846
  0
VERTEX
  8
PLAN_1
  6
CONTINUOUS
 10
0.526106
 20
-3.879799
  0
VERTEX
  8
PLAN_1
  6
CONTINUOUS
 10
0.522016
 20
-3.878268
  0
VERTEX
  8
PLAN_1
  6
CONTINUOUS
 10
0.517925
 20
-3.877244
  0
VERTEX
  8
PLAN_1
  6
CONTINUOUS
 10
0.513327
 20
-3.876220
  0
VERTEX
  8
PLAN_1
  6
CONTINUOUS
 10
0.505657
 20
-3.874689
  0
VERTEX
  8
PLAN_1
  6
CONTINUOUS
 10
0.497992
 20
-3.874689
  0
VERTEX
  8
PLAN_1
  6
CONTINUOUS
 10
0.491346
 20
-3.874689
  0
VERTEX
  8
PLAN_1
  6
CONTINUOUS
 10
0.484701
 20
-3.875713
  0
VERTEX
  8
PLAN_1
  6
CONTINUOUS
 10
0.478567
 20
-3.877244
  0
VERTEX
  8
PLAN_1
  6
CONTINUOUS
 10
0.472433
 20
-3.879287
  0
VERTEX
  8
PLAN_1
  6
CONTINUOUS
 10
0.466807
 20
-3.882358
  0
VERTEX
  8
PLAN_1
  6
CONTINUOUS
 10
0.461185
 20
-3.885933
  0
VERTEX
  8
PLAN_1
  6
CONTINUOUS
 10
0.456075
 20
-3.889512
  0
VERTEX
  8
PLAN_1
  6
CONTINUOUS
 10
0.451472
 20
-3.894114
  0
VERTEX
  8
PLAN_1
  6
CONTINUOUS
 10
0.447386
 20
-3.899736
  0
VERTEX
  8
PLAN_1
  6
CONTINUOUS
 10
0.443807
 20
-3.905358
  0
VERTEX
  8
PLAN_1
  6
CONTINUOUS
 10
0.440228
 20
-3.912004
  0
VERTEX
  8
PLAN_1
  6
CONTINUOUS
 10
0.437673
 20
-3.919161
  0
VERTEX
  8
PLAN_1
  6
CONTINUOUS
 10
0.435626
 20
-3.926831
  0
VERTEX
  8
PLAN_1
  6
CONTINUOUS
 10
0.434094
 20
-3.935008
  0
VERTEX
  8
PLAN_1
  6
CONTINUOUS
 10
0.433071
 20
-3.944209
  0
VERTEX
  8
PLAN_1
  6
CONTINUOUS
 10
0.432559
 20
-3.953409
  0
VERTEX
  8
PLAN_1
  6
CONTINUOUS
 10
0.432559
 20
-3.962102
  0
VERTEX
  8
PLAN_1
  6
CONTINUOUS
 10
0.433583
 20
-3.970791
  0
VERTEX
  8
PLAN_1
  6
CONTINUOUS
 10
0.434606
 20
-3.978457
  0
VERTEX
  8
PLAN_1
  6
CONTINUOUS
 10
0.436138
 20
-3.986126
  0
VERTEX
  8
PLAN_1
  6
CONTINUOUS
 10
0.438181
 20
-3.993795
  0
VERTEX
  8
PLAN_1
  6
CONTINUOUS
 10
0.440228
 20
-4.000441
  0
VERTEX
  8
PLAN_1
  6
CONTINUOUS
 10
0.443295
 20
-4.007083
  0
VERTEX
  8
PLAN_1
  6
CONTINUOUS
 10
0.446874
 20
-4.012709
  0
VERTEX
  8
PLAN_1
  6
CONTINUOUS
 10
0.451472
 20
-4.017819
  0
VERTEX
  8
PLAN_1
  6
CONTINUOUS
 10
0.456075
 20
-4.022933
  0
VERTEX
  8
PLAN_1
  6
CONTINUOUS
 10
0.461185
 20
-4.027020
  0
VERTEX
  8
PLAN_1
  6
CONTINUOUS
 10
0.467319
 20
-4.030087
  0
VERTEX
  8
PLAN_1
  6
CONTINUOUS
 10
0.473965
 20
-4.033154
  0
VERTEX
  8
PLAN_1
  6
CONTINUOUS
 10
0.481634
 20
-4.035201
  0
VERTEX
  8
PLAN_1
  6
CONTINUOUS
 10
0.489811
 20
-4.036220
  0
VERTEX
  8
PLAN_1
  6
CONTINUOUS
 10
0.498504
 20
-4.036732
  0
VERTEX
  8
PLAN_1
  6
CONTINUOUS
 10
0.505657
 20
-4.036220
  0
VERTEX
  8
PLAN_1
  6
CONTINUOUS
 10
0.513839
 20
-4.034689
  0
VERTEX
  8
PLAN_1
  6
CONTINUOUS
 10
0.517925
 20
-4.033154
  0
VERTEX
  8
PLAN_1
  6
CONTINUOUS
 10
0.522016
 20
-4.031622
  0
VERTEX
  8
PLAN_1
  6
CONTINUOUS
 10
0.526106
 20
-4.029575
  0
VERTEX
  8
PLAN_1
  6
CONTINUOUS
 10
0.530197
 20
-4.026508
  0
VERTEX
  8
PLAN_1
  6
CONTINUOUS
 10
0.534283
 20
-4.023441
  0
VERTEX
  8
PLAN_1
  6
CONTINUOUS
 10
0.538374
 20
-4.019354
  0
VERTEX
  8
PLAN_1
  6
CONTINUOUS
 10
0.541953
 20
-4.015264
  0
VERTEX
  8
PLAN_1
  6
CONTINUOUS
 10
0.545020
 20
-4.010154
  0
VERTEX
  8
PLAN_1
  6
CONTINUOUS
 10
0.548598
 20
-4.004016
  0
VERTEX
  8
PLAN_1
  6
CONTINUOUS
 10
0.551154
 20
-3.997374
  0
VERTEX
  8
PLAN_1
  6
CONTINUOUS
 10
0.553709
 20
-3.990217
  0
VERTEX
  8
PLAN_1
  6
CONTINUOUS
 10
0.555756
 20
-3.982035
  0
VERTEX
  8
PLAN_1
  6
CONTINUOUS
 10
0.581823
 20
-3.982035
  0
VERTEX
  8
PLAN_1
  6
CONTINUOUS
 10
0.580291
 20
-3.988681
  0
VERTEX
  8
PLAN_1
  6
CONTINUOUS
 10
0.579268
 20
-3.995327
  0
VERTEX
  8
PLAN_1
  6
CONTINUOUS
 10
0.577224
 20
-4.001461
  0
VERTEX
  8
PLAN_1
  6
CONTINUOUS
 10
0.575181
 20
-4.007083
  0
VERTEX
  8
PLAN_1
  6
CONTINUOUS
 10
0.573134
 20
-4.012197
  0
VERTEX
  8
PLAN_1
  6
CONTINUOUS
 10
0.570579
 20
-4.017307
  0
VERTEX
  8
PLAN_1
  6
CONTINUOUS
 10
0.568024
 20
-4.021909
  0
VERTEX
  8
PLAN_1
  6
CONTINUOUS
 10
0.565469
 20
-4.026000
  0
VERTEX
  8
PLAN_1
  6
CONTINUOUS
 10
0.562402
 20
-4.030087
  0
VERTEX
  8
PLAN_1
  6
CONTINUOUS
 10
0.559331
 20
-4.033665
  0
VERTEX
  8
PLAN_1
  6
CONTINUOUS
 10
0.556264
 20
-4.036732
  0
VERTEX
  8
PLAN_1
  6
CONTINUOUS
 10
0.553197
 20
-4.039799
  0
VERTEX
  8
PLAN_1
  6
CONTINUOUS
 10
0.546551
 20
-4.044913
  0
VERTEX
  8
PLAN_1
  6
CONTINUOUS
 10
0.539398
 20
-4.049512
  0
VERTEX
  8
PLAN_1
  6
CONTINUOUS
 10
0.532752
 20
-4.052579
  0
VERTEX
  8
PLAN_1
  6
CONTINUOUS
 10
0.525594
 20
-4.055646
  0
VERTEX
  8
PLAN_1
  6
CONTINUOUS
 10
0.518949
 20
-4.057181
  0
VERTEX
  8
PLAN_1
  6
CONTINUOUS
 10
0.512815
 20
-4.058713
  0
VERTEX
  8
PLAN_1
  6
CONTINUOUS
 10
0.502079
 20
-4.060248
  0
VERTEX
  8
PLAN_1
  6
CONTINUOUS
 10
0.494413
 20
-4.060248
  0
VERTEX
  8
PLAN_1
  6
CONTINUOUS
 10
0.486232
 20
-4.060248
  0
VERTEX
  8
PLAN_1
  6
CONTINUOUS
 10
0.477543
 20
-4.059224
  0
VERTEX
  8
PLAN_1
  6
CONTINUOUS
 10
0.469366
 20
-4.057181
  0
VERTEX
  8
PLAN_1
  6
CONTINUOUS
 10
0.461185
 20
-4.054626
  0
VERTEX
  8
PLAN_1
  6
CONTINUOUS
 10
0.453520
 20
-4.051559
  0
VERTEX
  8
PLAN_1
  6
CONTINUOUS
 10
0.446362
 20
-4.046957
  0
VERTEX
  8
PLAN_1
  6
CONTINUOUS
 10
0.439205
 20
-4.041846
  0
VERTEX
  8
PLAN_1
  6
CONTINUOUS
 10
0.432559
 20
-4.036220
  0
VERTEX
  8
PLAN_1
  6
CONTINUOUS
 10
0.429492
 20
-4.033154
  0
VERTEX
  8
PLAN_1
  6
CONTINUOUS
 10
0.426425
 20
-4.029575
  0
VERTEX
  8
PLAN_1
  6
CONTINUOUS
 10
0.423870
 20
-4.025488
  0
VERTEX
  8
PLAN_1
  6
CONTINUOUS
 10
0.421315
 20
-4.021909
  0
VERTEX
  8
PLAN_1
  6
CONTINUOUS
 10
0.418756
 20
-4.017307
  0
VERTEX
  8
PLAN_1
  6
CONTINUOUS
 10
0.416713
 20
-4.013220
  0
VERTEX
  8
PLAN_1
  6
CONTINUOUS
 10
0.414157
 20
-4.008106
  0
VERTEX
  8
PLAN_1
  6
CONTINUOUS
 10
0.412622
 20
-4.003508
  0
VERTEX
  8
PLAN_1
  6
CONTINUOUS
 10
0.410579
 20
-3.997882
  0
VERTEX
  8
PLAN_1
  6
CONTINUOUS
 10
0.409047
 20
-3.992772
  0
VERTEX
  8
PLAN_1
  6
CONTINUOUS
 10
0.408024
 20
-3.987150
  0
VERTEX
  8
PLAN_1
  6
CONTINUOUS
 10
0.407000
 20
-3.981016
  0
VERTEX
  8
PLAN_1
  6
CONTINUOUS
 10
0.405976
 20
-3.974882
  0
VERTEX
  8
PLAN_1
  6
CONTINUOUS
 10
0.405469
 20
-3.968236
  0
VERTEX
  8
PLAN_1
  6
CONTINUOUS
 10
0.404957
 20
-3.961591
  0
VERTEX
  8
PLAN_1
  6
CONTINUOUS
 10
0.404957
 20
-3.954433
  0
VERTEX
  8
PLAN_1
  6
CONTINUOUS
 10
0.405469
 20
-3.943185
  0
VERTEX
  8
PLAN_1
  6
CONTINUOUS
 10
0.406488
 20
-3.932453
  0
VERTEX
  8
PLAN_1
  6
CONTINUOUS
 10
0.408535
 20
-3.922228
  0
VERTEX
  8
PLAN_1
  6
CONTINUOUS
 10
0.411091
 20
-3.912516
  0
VERTEX
  8
PLAN_1
  6
CONTINUOUS
 10
0.414669
 20
-3.903315
  0
VERTEX
  8
PLAN_1
  6
CONTINUOUS
 10
0.418756
 20
-3.894626
  0
VERTEX
  8
PLAN_1
  6
CONTINUOUS
 10
0.423870
 20
-3.886957
  0
VERTEX
  8
PLAN_1
  6
CONTINUOUS
 10
0.429492
 20
-3.879287
  0
VERTEX
  8
PLAN_1
  6
CONTINUOUS
 10
0.436138
 20
-3.873154
  0
VERTEX
  8
PLAN_1
  6
CONTINUOUS
 10
0.442783
 20
-3.867531
  0
VERTEX
  8
PLAN_1
  6
CONTINUOUS
 10
0.446874
 20
-3.864465
  0
VERTEX
  8
PLAN_1
  6
CONTINUOUS
 10
0.450453
 20
-3.862421
  0
VERTEX
  8
PLAN_1
  6
CONTINUOUS
 10
0.454539
 20
-3.860374
  0
VERTEX
  8
PLAN_1
  6
CONTINUOUS
 10
0.458630
 20
-3.858331
  0
VERTEX
  8
PLAN_1
  6
CONTINUOUS
 10
0.467831
 20
-3.854752
  0
VERTEX
  8
PLAN_1
  6
CONTINUOUS
 10
0.477031
 20
-3.852709
  0
VERTEX
  8
PLAN_1
  6
CONTINUOUS
 10
0.487256
 20
-3.851173
  0
VERTEX
  8
PLAN_1
  6
CONTINUOUS
 10
0.497992
 20
-3.850661
  0
VERTEX
  8
PLAN_1
  6
CONTINUOUS
 10
0.507193
 20
-3.851173
  0
VERTEX
  8
PLAN_1
  6
CONTINUOUS
 10
0.515882
 20
-3.852197
  0
VERTEX
  8
PLAN_1
  6
CONTINUOUS
 10
0.524063
 20
-3.853728
  0
VERTEX
  8
PLAN_1
  6
CONTINUOUS
 10
0.531728
 20
-3.856287
  0
VERTEX
  8
PLAN_1
  6
CONTINUOUS
 10
0.538886
 20
-3.858843
  0
VERTEX
  8
PLAN_1
  6
CONTINUOUS
 10
0.545531
 20
-3.862421
  0
VERTEX
  8
PLAN_1
  6
CONTINUOUS
 10
0.551154
 20
-3.866508
  0
VERTEX
  8
PLAN_1
  6
CONTINUOUS
 10
0.556776
 20
-3.870598
  0
VERTEX
  8
PLAN_1
  6
CONTINUOUS
 10
0.561378
 20
-3.875713
  0
VERTEX
  8
PLAN_1
  6
CONTINUOUS
 10
0.565469
 20
-3.880823
  0
VERTEX
  8
PLAN_1
  6
CONTINUOUS
 10
0.569555
 20
-3.885933
  0
VERTEX
  8
PLAN_1
  6
CONTINUOUS
 10
0.572622
 20
-3.891559
  0
VERTEX
  8
PLAN_1
  6
CONTINUOUS
 10
0.575181
 20
-3.897693
  0
VERTEX
  8
PLAN_1
  6
CONTINUOUS
 10
0.577224
 20
-3.903315
  0
VERTEX
  8
PLAN_1
  6
CONTINUOUS
 10
0.578756
 20
-3.909449
  0
VERTEX
  8
PLAN_1
  6
CONTINUOUS
 10
0.579780
 20
-3.915583
  0
VERTEX
  8
PLAN_1
  6
CONTINUOUS
 10
0.553709
 20
-3.915583
  0
SEQEND
  8
0
  0
POLYLINE
  8
PLAN_1
  6
CONTINUOUS
 66
     1
 40
0.003000
 41
0.003000
  0
VERTEX
  8
PLAN_1
  6
CONTINUOUS
 10
0.641122
 20
-4.055134
  0
VERTEX
  8
PLAN_1
  6
CONTINUOUS
 10
0.614028
 20
-4.055134
  0
VERTEX
  8
PLAN_1
  6
CONTINUOUS
 10
0.614028
 20
-3.855776
  0
VERTEX
  8
PLAN_1
  6
CONTINUOUS
 10
0.641122
 20
-3.855776
  0
VERTEX
  8
PLAN_1
  6
CONTINUOUS
 10
0.641122
 20
-3.952390
  0
VERTEX
  8
PLAN_1
  6
CONTINUOUS
 10
0.737736
 20
-3.855776
  0
VERTEX
  8
PLAN_1
  6
CONTINUOUS
 10
0.775051
 20
-3.855776
  0
VERTEX
  8
PLAN_1
  6
CONTINUOUS
 10
0.691728
 20
-3.936543
  0
VERTEX
  8
PLAN_1
  6
CONTINUOUS
 10
0.777094
 20
-4.055134
  0
VERTEX
  8
PLAN_1
  6
CONTINUOUS
 10
0.742335
 20
-4.055134
  0
VERTEX
  8
PLAN_1
  6
CONTINUOUS
 10
0.672303
 20
-3.955457
  0
VERTEX
  8
PLAN_1
  6
CONTINUOUS
 10
0.641122
 20
-3.985102
  0
VERTEX
  8
PLAN_1
  6
CONTINUOUS
 10
0.641122
 20
-4.055134
  0
SEQEND
  8
0
  0
POLYLINE
  8
PLAN_1
  6
CONTINUOUS
 66
     1
 40
0.003000
 41
0.003000
  0
VERTEX
  8
PLAN_1
  6
CONTINUOUS
 10
0.801122
 20
-3.855776
  0
VERTEX
  8
PLAN_1
  6
CONTINUOUS
 10
0.881890
 20
-3.855776
  0
VERTEX
  8
PLAN_1
  6
CONTINUOUS
 10
0.891091
 20
-3.856287
  0
VERTEX
  8
PLAN_1
  6
CONTINUOUS
 10
0.900291
 20
-3.857819
  0
VERTEX
  8
PLAN_1
  6
CONTINUOUS
 10
0.908469
 20
-3.859866
  0
VERTEX
  8
PLAN_1
  6
CONTINUOUS
 10
0.916650
 20
-3.862933
  0
VERTEX
  8
PLAN_1
  6
CONTINUOUS
 10
0.924315
 20
-3.867020
  0
VERTEX
  8
PLAN_1
  6
CONTINUOUS
 10
0.930961
 20
-3.871622
  0
VERTEX
  8
PLAN_1
  6
CONTINUOUS
 10
0.937094
 20
-3.876732
  0
VERTEX
  8
PLAN_1
  6
CONTINUOUS
 10
0.943228
 20
-3.882866
  0
VERTEX
  8
PLAN_1
  6
CONTINUOUS
 10
0.948343
 20
-3.889512
  0
VERTEX
  8
PLAN_1
  6
CONTINUOUS
 10
0.952429
 20
-3.896669
  0
VERTEX
  8
PLAN_1
  6
CONTINUOUS
 10
0.956520
 20
-3.904846
  0
VERTEX
  8
PLAN_1
  6
CONTINUOUS
 10
0.959587
 20
-3.913539
  0
VERTEX
  8
PLAN_1
  6
CONTINUOUS
 10
0.962142
 20
-3.922740
  0
VERTEX
  8
PLAN_1
  6
CONTINUOUS
 10
0.964189
 20
-3.931941
  0
VERTEX
  8
PLAN_1
  6
CONTINUOUS
 10
0.965209
 20
-3.942165
  0
VERTEX
  8
PLAN_1
  6
CONTINUOUS
 10
0.965720
 20
-3.952898
  0
VERTEX
  8
PLAN_1
  6
CONTINUOUS
 10
0.965209
 20
-3.961079
  0
VERTEX
  8
PLAN_1
  6
CONTINUOUS
 10
0.964701
 20
-3.969768
  0
VERTEX
  8
PLAN_1
  6
CONTINUOUS
 10
0.963165
 20
-3.978969
  0
VERTEX
  8
PLAN_1
  6
CONTINUOUS
 10
0.961634
 20
-3.987661
  0
VERTEX
  8
PLAN_1
  6
CONTINUOUS
 10
0.959075
 20
-3.996350
  0
VERTEX
  8
PLAN_1
  6
CONTINUOUS
 10
0.956008
 20
-4.005039
  0
VERTEX
  8
PLAN_1
  6
CONTINUOUS
 10
0.951921
 20
-4.013220
  0
VERTEX
  8
PLAN_1
  6
CONTINUOUS
 10
0.947831
 20
-4.020886
  0
VERTEX
  8
PLAN_1
  6
CONTINUOUS
 10
0.942209
 20
-4.028043
  0
VERTEX
  8
PLAN_1
  6
CONTINUOUS
 10
0.936075
 20
-4.034689
  0
VERTEX
  8
PLAN_1
  6
CONTINUOUS
 10
0.933008
 20
-4.037756
  0
VERTEX
  8
PLAN_1
  6
CONTINUOUS
 10
0.929429
 20
-4.040311
  0
VERTEX
  8
PLAN_1
  6
CONTINUOUS
 10
0.925339
 20
-4.042866
  0
VERTEX
  8
PLAN_1
  6
CONTINUOUS
 10
0.921248
 20
-4.045421
  0
VERTEX
  8
PLAN_1
  6
CONTINUOUS
 10
0.917157
 20
-4.047469
  0
VERTEX
  8
PLAN_1
  6
CONTINUOUS
 10
0.912559
 20
-4.049512
  0
VERTEX
  8
PLAN_1
  6
CONTINUOUS
 10
0.907957
 20
-4.051047
  0
VERTEX
  8
PLAN_1
  6
CONTINUOUS
 10
0.902846
 20
-4.052579
  0
VERTEX
  8
PLAN_1
  6
CONTINUOUS
 10
0.897736
 20
-4.053602
  0
VERTEX
  8
PLAN_1
  6
CONTINUOUS
 10
0.892110
 20
-4.054626
  0
VERTEX
  8
PLAN_1
  6
CONTINUOUS
 10
0.886488
 20
-4.055134
  0
VERTEX
  8
PLAN_1
  6
CONTINUOUS
 10
0.880354
 20
-4.055134
  0
VERTEX
  8
PLAN_1
  6
CONTINUOUS
 10
0.801122
 20
-4.055134
  0
VERTEX
  8
PLAN_1
  6
CONTINUOUS
 10
0.801122
 20
-3.855776
  0
SEQEND
  8
0
  0
POLYLINE
  8
PLAN_1
  6
CONTINUOUS
 66
     1
 40
0.003000
 41
0.003000
  0
VERTEX
  8
PLAN_1
  6
CONTINUOUS
 10
0.827701
 20
-4.032134
  0
VERTEX
  8
PLAN_1
  6
CONTINUOUS
 10
0.879843
 20
-4.032134
  0
VERTEX
  8
PLAN_1
  6
CONTINUOUS
 10
0.886488
 20
-4.031622
  0
VERTEX
  8
PLAN_1
  6
CONTINUOUS
 10
0.892622
 20
-4.031110
  0
VERTEX
  8
PLAN_1
  6
CONTINUOUS
 10
0.898244
 20
-4.029067
  0
VERTEX
  8
PLAN_1
  6
CONTINUOUS
 10
0.903870
 20
-4.027020
  0
VERTEX
  8
PLAN_1
  6
CONTINUOUS
 10
0.908980
 20
-4.024465
  0
VERTEX
  8
PLAN_1
  6
CONTINUOUS
 10
0.913583
 20
-4.020886
  0
VERTEX
  8
PLAN_1
  6
CONTINUOUS
 10
0.918181
 20
-4.016795
  0
VERTEX
  8
PLAN_1
  6
CONTINUOUS
 10
0.921760
 20
-4.012197
  0
VERTEX
  8
PLAN_1
  6
CONTINUOUS
 10
0.925339
 20
-4.007083
  0
VERTEX
  8
PLAN_1
  6
CONTINUOUS
 10
0.928917
 20
-4.000949
  0
VERTEX
  8
PLAN_1
  6
CONTINUOUS
 10
0.931472
 20
-3.994815
  0
VERTEX
  8
PLAN_1
  6
CONTINUOUS
 10
0.933516
 20
-3.987661
  0
VERTEX
  8
PLAN_1
  6
CONTINUOUS
 10
0.935563
 20
-3.980504
  0
VERTEX
  8
PLAN_1
  6
CONTINUOUS
 10
0.936583
 20
-3.972323
  0
VERTEX
  8
PLAN_1
  6
CONTINUOUS
 10
0.937606
 20
-3.963634
  0
VERTEX
  8
PLAN_1
  6
CONTINUOUS
 10
0.937606
 20
-3.954433
  0
VERTEX
  8
PLAN_1
  6
CONTINUOUS
 10
0.937606
 20
-3.945232
  0
VERTEX
  8
PLAN_1
  6
CONTINUOUS
 10
0.936583
 20
-3.936543
  0
VERTEX
  8
PLAN_1
  6
CONTINUOUS
 10
0.935563
 20
-3.928874
  0
VERTEX
  8
PLAN_1
  6
CONTINUOUS
 10
0.933516
 20
-3.921205
  0
VERTEX
  8
PLAN_1
  6
CONTINUOUS
 10
0.931472
 20
-3.914559
  0
VERTEX
  8
PLAN_1
  6
CONTINUOUS
 10
0.928406
 20
-3.908425
  0
VERTEX
  8
PLAN_1
  6
CONTINUOUS
 10
0.925339
 20
-3.902803
  0
VERTEX
  8
PLAN_1
  6
CONTINUOUS
 10
0.921760
 20
-3.897693
  0
VERTEX
  8
PLAN_1
  6
CONTINUOUS
 10
0.917669
 20
-3.893602
  0
VERTEX
  8
PLAN_1
  6
CONTINUOUS
 10
0.913071
 20
-3.889512
  0
VERTEX
  8
PLAN_1
  6
CONTINUOUS
 10
0.907957
 20
-3.886445
  0
VERTEX
  8
PLAN_1
  6
CONTINUOUS
 10
0.902846
 20
-3.883890
  0
VERTEX
  8
PLAN_1
  6
CONTINUOUS
 10
0.897224
 20
-3.881846
  0
VERTEX
  8
PLAN_1
  6
CONTINUOUS
 10
0.891091
 20
-3.880311
  0
VERTEX
  8
PLAN_1
  6
CONTINUOUS
 10
0.884957
 20
-3.879287
  0
VERTEX
  8
PLAN_1
  6
CONTINUOUS
 10
0.878311
 20
-3.878780
  0
VERTEX
  8
PLAN_1
  6
CONTINUOUS
 10
0.827701
 20
-3.878780
  0
VERTEX
  8
PLAN_1
  6
CONTINUOUS
 10
0.827701
 20
-4.032134
  0
SEQEND
  8
0
  0
POLYLINE
  8
PLAN_1
  6
CONTINUOUS
 66
     1
 40
0.003000
 41
0.003000
  0
VERTEX
  8
PLAN_1
  6
CONTINUOUS
 10
0.990768
 20
-3.926831
  0
VERTEX
  8
PLAN_1
  6
CONTINUOUS
 10
0.990768
 20
-3.920185
  0
VERTEX
  8
PLAN_1
  6
CONTINUOUS
 10
0.991791
 20
-3.914051
  0
VERTEX
  8
PLAN_1
  6
CONTINUOUS
 10
0.992815
 20
-3.907406
  0
VERTEX
  8
PLAN_1
  6
CONTINUOUS
 10
0.994858
 20
-3.901272
  0
VERTEX
  8
PLAN_1
  6
CONTINUOUS
 10
0.996906
 20
-3.895646
  0
VERTEX
  8
PLAN_1
  6
CONTINUOUS
 10
0.999461
 20
-3.890024
  0
VERTEX
  8
PLAN_1
  6
CONTINUOUS
 10
1.003039
 20
-3.884913
  0
VERTEX
  8
PLAN_1
  6
CONTINUOUS
 10
1.006614
 20
-3.880311
  0
VERTEX
  8
PLAN_1
  6
CONTINUOUS
 10
1.010705
 20
-3.875713
  0
VERTEX
  8
PLAN_1
  6
CONTINUOUS
 10
1.015307
 20
-3.871622
  0
VERTEX
  8
PLAN_1
  6
CONTINUOUS
 10
1.020417
 20
-3.868555
  0
VERTEX
  8
PLAN_1
  6
CONTINUOUS
 10
1.026039
 20
-3.865488
  0
VERTEX
  8
PLAN_1
  6
CONTINUOUS
 10
1.032173
 20
-3.862933
  0
VERTEX
  8
PLAN_1
  6
CONTINUOUS
 10
1.038819
 20
-3.861398
  0
VERTEX
  8
PLAN_1
  6
CONTINUOUS
 10
1.045976
 20
-3.860374
  0
VERTEX
  8
PLAN_1
  6
CONTINUOUS
 10
1.053134
 20
-3.859866
  0
VERTEX
  8
PLAN_1
  6
CONTINUOUS
 10
1.058756
 20
-3.860374
  0
VERTEX
  8
PLAN_1
  6
CONTINUOUS
 10
1.064378
 20
-3.860886
  0
VERTEX
  8
PLAN_1
  6
CONTINUOUS
 10
1.069492
 20
-3.861398
  0
VERTEX
  8
PLAN_1
  6
CONTINUOUS
 10
1.074091
 20
-3.862421
  0
VERTEX
  8
PLAN_1
  6
CONTINUOUS
 10
1.078693
 20
-3.863953
  0
VERTEX
  8
PLAN_1
  6
CONTINUOUS
 10
1.082783
 20
-3.865488
  0
VERTEX
  8
PLAN_1
  6
CONTINUOUS
 10
1.086362
 20
-3.867531
  0
VERTEX
  8
PLAN_1
  6
CONTINUOUS
 10
1.090449
 20
-3.869579
  0
VERTEX
  8
PLAN_1
  6
CONTINUOUS
 10
1.093516
 20
-3.872134
  0
VERTEX
  8
PLAN_1
  6
CONTINUOUS
 10
1.096583
 20
-3.874689
  0
VERTEX
  8
PLAN_1
  6
CONTINUOUS
 10
1.099650
 20
-3.877244
  0
VERTEX
  8
PLAN_1
  6
CONTINUOUS
 10
1.102209
 20
-3.880311
  0
VERTEX
  8
PLAN_1
  6
CONTINUOUS
 10
1.106807
 20
-3.886445
  0
VERTEX
  8
PLAN_1
  6
CONTINUOUS
 10
1.110898
 20
-3.893602
  0
VERTEX
  8
PLAN_1
  6
CONTINUOUS
 10
1.113965
 20
-3.900760
  0
VERTEX
  8
PLAN_1
  6
CONTINUOUS
 10
1.116520
 20
-3.907917
  0
VERTEX
  8
PLAN_1
  6
CONTINUOUS
 10
1.118055
 20
-3.915583
  0
VERTEX
  8
PLAN_1
  6
CONTINUOUS
 10
1.119587
 20
-3.923252
  0
VERTEX
  8
PLAN_1
  6
CONTINUOUS
 10
1.120610
 20
-3.930406
  0
VERTEX
  8
PLAN_1
  6
CONTINUOUS
 10
1.121122
 20
-3.937563
  0
VERTEX
  8
PLAN_1
  6
CONTINUOUS
 10
1.121630
 20
-3.944209
  0
VERTEX
  8
PLAN_1
  6
CONTINUOUS
 10
1.121630
 20
-3.950343
  0
VERTEX
  8
PLAN_1
  6
CONTINUOUS
 10
1.121122
 20
-3.961079
  0
VERTEX
  8
PLAN_1
  6
CONTINUOUS
 10
1.120098
 20
-3.976413
  0
VERTEX
  8
PLAN_1
  6
CONTINUOUS
 10
1.118563
 20
-3.985102
  0
VERTEX
  8
PLAN_1
  6
CONTINUOUS
 10
1.117031
 20
-3.994303
  0
VERTEX
  8
PLAN_1
  6
CONTINUOUS
 10
1.114476
 20
-4.004016
  0
VERTEX
  8
PLAN_1
  6
CONTINUOUS
 10
1.111409
 20
-4.013220
  0
VERTEX
  8
PLAN_1
  6
CONTINUOUS
 10
1.107319
 20
-4.022421
  0
VERTEX
  8
PLAN_1
  6
CONTINUOUS
 10
1.102717
 20
-4.031110
  0
VERTEX
  8
PLAN_1
  6
CONTINUOUS
 10
1.100161
 20
-4.035201
  0
VERTEX
  8
PLAN_1
  6
CONTINUOUS
 10
1.097094
 20
-4.039287
  0
VERTEX
  8
PLAN_1
  6
CONTINUOUS
 10
1.093516
 20
-4.042866
  0
VERTEX
  8
PLAN_1
  6
CONTINUOUS
 10
1.090449
 20
-4.046445
  0
VERTEX
  8
PLAN_1
  6
CONTINUOUS
 10
1.086362
 20
-4.049512
  0
VERTEX
  8
PLAN_1
  6
CONTINUOUS
 10
1.082272
 20
-4.052067
  0
VERTEX
  8
PLAN_1
  6
CONTINUOUS
 10
1.077669
 20
-4.054626
  0
VERTEX
  8
PLAN_1
  6
CONTINUOUS
 10
1.073071
 20
-4.056669
  0
VERTEX
  8
PLAN_1
  6
CONTINUOUS
 10
1.067957
 20
-4.058201
  0
VERTEX
  8
PLAN_1
  6
CONTINUOUS
 10
1.062846
 20
-4.059224
  0
VERTEX
  8
PLAN_1
  6
CONTINUOUS
 10
1.056713
 20
-4.060248
  0
VERTEX
  8
PLAN_1
  6
CONTINUOUS
 10
1.050579
 20
-4.060248
  0
VERTEX
  8
PLAN_1
  6
CONTINUOUS
 10
1.042398
 20
-4.060248
  0
VERTEX
  8
PLAN_1
  6
CONTINUOUS
 10
1.035244
 20
-4.059224
  0
VERTEX
  8
PLAN_1
  6
CONTINUOUS
 10
1.028598
 20
-4.057181
  0
VERTEX
  8
PLAN_1
  6
CONTINUOUS
 10
1.022465
 20
-4.055134
  0
VERTEX
  8
PLAN_1
  6
CONTINUOUS
 10
1.016839
 20
-4.052067
  0
VERTEX
  8
PLAN_1
  6
CONTINUOUS
 10
1.012240
 20
-4.049000
  0
VERTEX
  8
PLAN_1
  6
CONTINUOUS
 10
1.008150
 20
-4.045421
  0
VERTEX
  8
PLAN_1
  6
CONTINUOUS
 10
1.004571
 20
-4.041335
  0
VERTEX
  8
PLAN_1
  6
CONTINUOUS
 10
1.001504
 20
-4.037244
  0
VERTEX
  8
PLAN_1
  6
CONTINUOUS
 10
0.998949
 20
-4.033154
  0
VERTEX
  8
PLAN_1
  6
CONTINUOUS
 10
0.996906
 20
-4.028555
  0
VERTEX
  8
PLAN_1
  6
CONTINUOUS
 10
0.995370
 20
-4.024465
  0
VERTEX
  8
PLAN_1
  6
CONTINUOUS
 10
0.994346
 20
-4.019862
  0
VERTEX
  8
PLAN_1
  6
CONTINUOUS
 10
0.993327
 20
-4.015776
  0
VERTEX
  8
PLAN_1
  6
CONTINUOUS
 10
0.992815
 20
-4.012197
  0
VERTEX
  8
PLAN_1
  6
CONTINUOUS
 10
0.992815
 20
-4.008106
  0
VERTEX
  8
PLAN_1
  6
CONTINUOUS
 10
1.017350
 20
-4.008106
  0
VERTEX
  8
PLAN_1
  6
CONTINUOUS
 10
1.017862
 20
-4.011685
  0
VERTEX
  8
PLAN_1
  6
CONTINUOUS
 10
1.018374
 20
-4.015264
  0
VERTEX
  8
PLAN_1
  6
CONTINUOUS
 10
1.018886
 20
-4.018331
  0
VERTEX
  8
PLAN_1
  6
CONTINUOUS
 10
1.020417
 20
-4.021398
  0
VERTEX
  8
PLAN_1
  6
CONTINUOUS
 10
1.021441
 20
-4.024465
  0
VERTEX
  8
PLAN_1
  6
CONTINUOUS
 10
1.022972
 20
-4.027020
  0
VERTEX
  8
PLAN_1
  6
CONTINUOUS
 10
1.025020
 20
-4.029575
  0
VERTEX
  8
PLAN_1
  6
CONTINUOUS
 10
1.026551
 20
-4.031622
  0
VERTEX
  8
PLAN_1
  6
CONTINUOUS
 10
1.029106
 20
-4.033665
  0
VERTEX
  8
PLAN_1
  6
CONTINUOUS
 10
1.031154
 20
-4.035201
  0
VERTEX
  8
PLAN_1
  6
CONTINUOUS
 10
1.034220
 20
-4.036732
  0
VERTEX
  8
PLAN_1
  6
CONTINUOUS
 10
1.036776
 20
-4.037756
  0
VERTEX
  8
PLAN_1
  6
CONTINUOUS
 10
1.039843
 20
-4.038780
  0
VERTEX
  8
PLAN_1
  6
CONTINUOUS
 10
1.043421
 20
-4.039799
  0
VERTEX
  8
PLAN_1
  6
CONTINUOUS
 10
1.046488
 20
-4.040311
  0
VERTEX
  8
PLAN_1
  6
CONTINUOUS
 10
1.050067
 20
-4.040311
  0
VERTEX
  8
PLAN_1
  6
CONTINUOUS
 10
1.055177
 20
-4.039799
  0
VERTEX
  8
PLAN_1
  6
CONTINUOUS
 10
1.059780
 20
-4.039287
  0
VERTEX
  8
PLAN_1
  6
CONTINUOUS
 10
1.063870
 20
-4.037756
  0
VERTEX
  8
PLAN_1
  6
CONTINUOUS
 10
1.067957
 20
-4.035713
  0
VERTEX
  8
PLAN_1
  6
CONTINUOUS
 10
1.071535
 20
-4.033665
  0
VERTEX
  8
PLAN_1
  6
CONTINUOUS
 10
1.075114
 20
-4.030598
  0
VERTEX
  8
PLAN_1
  6
CONTINUOUS
 10
1.078693
 20
-4.027020
  0
VERTEX
  8
PLAN_1
  6
CONTINUOUS
 10
1.081248
 20
-4.022421
  0
VERTEX
  8
PLAN_1
  6
CONTINUOUS
 10
1.084315
 20
-4.017819
  0
VERTEX
  8
PLAN_1
  6
CONTINUOUS
 10
1.086870
 20
-4.012709
  0
VERTEX
  8
PLAN_1
  6
CONTINUOUS
 10
1.088917
 20
-4.006575
  0
VERTEX
  8
PLAN_1
  6
CONTINUOUS
 10
1.090961
 20
-3.999929
  0
VERTEX
  8
PLAN_1
  6
CONTINUOUS
 10
1.093004
 20
-3.992772
  0
VERTEX
  8
PLAN_1
  6
CONTINUOUS
 10
1.094539
 20
-3.984594
  0
VERTEX
  8
PLAN_1
  6
CONTINUOUS
 10
1.096071
 20
-3.976413
  0
VERTEX
  8
PLAN_1
  6
CONTINUOUS
 10
1.097094
 20
-3.967213
  0
VERTEX
  8
PLAN_1
  6
CONTINUOUS
 10
1.096583
 20
-3.966701
  0
VERTEX
  8
PLAN_1
  6
CONTINUOUS
 10
1.095051
 20
-3.969256
  0
VERTEX
  8
PLAN_1
  6
CONTINUOUS
 10
1.093516
 20
-3.971815
  0
VERTEX
  8
PLAN_1
  6
CONTINUOUS
 10
1.091472
 20
-3.974370
  0
VERTEX
  8
PLAN_1
  6
CONTINUOUS
 10
1.088917
 20
-3.976413
  0
VERTEX
  8
PLAN_1
  6
CONTINUOUS
 10
1.084315
 20
-3.980504
  0
VERTEX
  8
PLAN_1
  6
CONTINUOUS
 10
1.078181
 20
-3.984083
  0
VERTEX
  8
PLAN_1
  6
CONTINUOUS
 10
1.072047
 20
-3.986638
  0
VERTEX
  8
PLAN_1
  6
CONTINUOUS
 10
1.065402
 20
-3.988681
  0
VERTEX
  8
PLAN_1
  6
CONTINUOUS
 10
1.058756
 20
-3.989705
  0
VERTEX
  8
PLAN_1
  6
CONTINUOUS
 10
1.052110
 20
-3.990217
  0
VERTEX
  8
PLAN_1
  6
CONTINUOUS
 10
1.045465
 20
-3.989705
  0
VERTEX
  8
PLAN_1
  6
CONTINUOUS
 10
1.038819
 20
-3.988681
  0
VERTEX
  8
PLAN_1
  6
CONTINUOUS
 10
1.032685
 20
-3.987661
  0
VERTEX
  8
PLAN_1
  6
CONTINUOUS
 10
1.027063
 20
-3.985614
  0
VERTEX
  8
PLAN_1
  6
CONTINUOUS
 10
1.021953
 20
-3.983059
  0
VERTEX
  8
PLAN_1
  6
CONTINUOUS
 10
1.016839
 20
-3.980504
  0
VERTEX
  8
PLAN_1
  6
CONTINUOUS
 10
1.012240
 20
-3.976925
  0
VERTEX
  8
PLAN_1
  6
CONTINUOUS
 10
1.007638
 20
-3.972835
  0
VERTEX
  8
PLAN_1
  6
CONTINUOUS
 10
1.004059
 20
-3.968744
  0
VERTEX
  8
PLAN_1
  6
CONTINUOUS
 10
1.000480
 20
-3.964146
  0
VERTEX
  8
PLAN_1
  6
CONTINUOUS
 10
0.997413
 20
-3.959035
  0
VERTEX
  8
PLAN_1
  6
CONTINUOUS
 10
0.994858
 20
-3.953409
  0
VERTEX
  8
PLAN_1
  6
CONTINUOUS
 10
0.993327
 20
-3.947276
  0
VERTEX
  8
PLAN_1
  6
CONTINUOUS
 10
0.991791
 20
-3.940630
  0
VERTEX
  8
PLAN_1
  6
CONTINUOUS
 10
0.990768
 20
-3.933984
  0
VERTEX
  8
PLAN_1
  6
CONTINUOUS
 10
0.990768
 20
-3.926831
  0
SEQEND
  8
0
  0
POLYLINE
  8
PLAN_1
  6
CONTINUOUS
 66
     1
 40
0.003000
 41
0.003000
  0
VERTEX
  8
PLAN_1
  6
CONTINUOUS
 10
1.093004
 20
-3.923764
  0
VERTEX
  8
PLAN_1
  6
CONTINUOUS
 10
1.093004
 20
-3.919673
  0
VERTEX
  8
PLAN_1
  6
CONTINUOUS
 10
1.092496
 20
-3.915583
  0
VERTEX
  8
PLAN_1
  6
CONTINUOUS
 10
1.091984
 20
-3.911492
  0
VERTEX
  8
PLAN_1
  6
CONTINUOUS
 10
1.090961
 20
-3.907917
  0
VERTEX
  8
PLAN_1
  6
CONTINUOUS
 10
1.089429
 20
-3.904339
  0
VERTEX
  8
PLAN_1
  6
CONTINUOUS
 10
1.087894
 20
-3.900760
  0
VERTEX
  8
PLAN_1
  6
CONTINUOUS
 10
1.085850
 20
-3.897693
  0
VERTEX
  8
PLAN_1
  6
CONTINUOUS
 10
1.083803
 20
-3.894626
  0
VERTEX
  8
PLAN_1
  6
CONTINUOUS
 10
1.081248
 20
-3.891559
  0
VERTEX
  8
PLAN_1
  6
CONTINUOUS
 10
1.078181
 20
-3.889512
  0
VERTEX
  8
PLAN_1
  6
CONTINUOUS
 10
1.075114
 20
-3.886957
  0
VERTEX
  8
PLAN_1
  6
CONTINUOUS
 10
1.071535
 20
-3.885425
  0
VERTEX
  8
PLAN_1
  6
CONTINUOUS
 10
1.067445
 20
-3.883890
  0
VERTEX
  8
PLAN_1
  6
CONTINUOUS
 10
1.063358
 20
-3.882866
  0
VERTEX
  8
PLAN_1
  6
CONTINUOUS
 10
1.058756
 20
-3.882358
  0
VERTEX
  8
PLAN_1
  6
CONTINUOUS
 10
1.053646
 20
-3.881846
  0
VERTEX
  8
PLAN_1
  6
CONTINUOUS
 10
1.049555
 20
-3.882358
  0
VERTEX
  8
PLAN_1
  6
CONTINUOUS
 10
1.045465
 20
-3.882866
  0
VERTEX
  8
PLAN_1
  6
CONTINUOUS
 10
1.041886
 20
-3.883890
  0
VERTEX
  8
PLAN_1
  6
CONTINUOUS
 10
1.038311
 20
-3.884913
  0
VERTEX
  8
PLAN_1
  6
CONTINUOUS
 10
1.034732
 20
-3.886957
  0
VERTEX
  8
PLAN_1
  6
CONTINUOUS
 10
1.031665
 20
-3.889000
  0
VERTEX
  8
PLAN_1
  6
CONTINUOUS
 10
1.028598
 20
-3.891559
  0
VERTEX
  8
PLAN_1
  6
CONTINUOUS
 10
1.026039
 20
-3.894114
  0
VERTEX
  8
PLAN_1
  6
CONTINUOUS
 10
1.023996
 20
-3.897181
  0
VERTEX
  8
PLAN_1
  6
CONTINUOUS
 10
1.021953
 20
-3.900248
  0
VERTEX
  8
PLAN_1
  6
CONTINUOUS
 10
1.019906
 20
-3.904339
  0
VERTEX
  8
PLAN_1
  6
CONTINUOUS
 10
1.018374
 20
-3.907917
  0
VERTEX
  8
PLAN_1
  6
CONTINUOUS
 10
1.017350
 20
-3.912004
  0
VERTEX
  8
PLAN_1
  6
CONTINUOUS
 10
1.016327
 20
-3.916606
  0
VERTEX
  8
PLAN_1
  6
CONTINUOUS
 10
1.015819
 20
-3.921205
  0
VERTEX
  8
PLAN_1
  6
CONTINUOUS
 10
1.015819
 20
-3.925807
  0
VERTEX
  8
PLAN_1
  6
CONTINUOUS
 10
1.016327
 20
-3.932453
  0
VERTEX
  8
PLAN_1
  6
CONTINUOUS
 10
1.016839
 20
-3.938587
  0
VERTEX
  8
PLAN_1
  6
CONTINUOUS
 10
1.017862
 20
-3.943697
  0
VERTEX
  8
PLAN_1
  6
CONTINUOUS
 10
1.019906
 20
-3.948299
  0
VERTEX
  8
PLAN_1
  6
CONTINUOUS
 10
1.021953
 20
-3.952390
  0
VERTEX
  8
PLAN_1
  6
CONTINUOUS
 10
1.023996
 20
-3.955457
  0
VERTEX
  8
PLAN_1
  6
CONTINUOUS
 10
1.026551
 20
-3.958524
  0
VERTEX
  8
PLAN_1
  6
CONTINUOUS
 10
1.029618
 20
-3.961079
  0
VERTEX
  8
PLAN_1
  6
CONTINUOUS
 10
1.032685
 20
-3.963122
  0
VERTEX
  8
PLAN_1
  6
CONTINUOUS
 10
1.035752
 20
-3.964657
  0
VERTEX
  8
PLAN_1
  6
CONTINUOUS
 10
1.038819
 20
-3.965677
  0
VERTEX
  8
PLAN_1
  6
CONTINUOUS
 10
1.042398
 20
-3.966701
  0
VERTEX
  8
PLAN_1
  6
CONTINUOUS
 10
1.049043
 20
-3.967724
  0
VERTEX
  8
PLAN_1
  6
CONTINUOUS
 10
1.055689
 20
-3.968236
  0
VERTEX
  8
PLAN_1
  6
CONTINUOUS
 10
1.060803
 20
-3.967724
  0
VERTEX
  8
PLAN_1
  6
CONTINUOUS
 10
1.066937
 20
-3.966701
  0
VERTEX
  8
PLAN_1
  6
CONTINUOUS
 10
1.070004
 20
-3.965677
  0
VERTEX
  8
PLAN_1
  6
CONTINUOUS
 10
1.073071
 20
-3.964146
  0
VERTEX
  8
PLAN_1
  6
CONTINUOUS
 10
1.076138
 20
-3.962610
  0
VERTEX
  8
PLAN_1
  6
CONTINUOUS
 10
1.079205
 20
-3.960055
  0
VERTEX
  8
PLAN_1
  6
CONTINUOUS
 10
1.081760
 20
-3.957500
  0
VERTEX
  8
PLAN_1
  6
CONTINUOUS
 10
1.084315
 20
-3.954433
  0
VERTEX
  8
PLAN_1
  6
CONTINUOUS
 10
1.086870
 20
-3.950854
  0
VERTEX
  8
PLAN_1
  6
CONTINUOUS
 10
1.088917
 20
-3.946764
  0
VERTEX
  8
PLAN_1
  6
CONTINUOUS
 10
1.090449
 20
-3.942165
  0
VERTEX
  8
PLAN_1
  6
CONTINUOUS
 10
1.091984
 20
-3.936543
  0
VERTEX
  8
PLAN_1
  6
CONTINUOUS
 10
1.092496
 20
-3.930406
  0
VERTEX
  8
PLAN_1
  6
CONTINUOUS
 10
1.093004
 20
-3.923764
  0
SEQEND
  8
0
  0
POLYLINE
  8
PLAN_1
  6
CONTINUOUS
 66
     1
 40
0.003000
 41
0.003000
  0
VERTEX
  8
PLAN_1
  6
CONTINUOUS
 10
1.233071
 20
-4.055134
  0
VERTEX
  8
PLAN_1
  6
CONTINUOUS
 10
1.207000
 20
-4.055134
  0
VERTEX
  8
PLAN_1
  6
CONTINUOUS
 10
1.207000
 20
-3.916606
  0
VERTEX
  8
PLAN_1
  6
CONTINUOUS
 10
1.161504
 20
-3.916606
  0
VERTEX
  8
PLAN_1
  6
CONTINUOUS
 10
1.161504
 20
-3.897181
  0
VERTEX
  8
PLAN_1
  6
CONTINUOUS
 10
1.172240
 20
-3.896157
  0
VERTEX
  8
PLAN_1
  6
CONTINUOUS
 10
1.181953
 20
-3.895138
  0
VERTEX
  8
PLAN_1
  6
CONTINUOUS
 10
1.186039
 20
-3.894114
  0
VERTEX
  8
PLAN_1
  6
CONTINUOUS
 10
1.189618
 20
-3.893091
  0
VERTEX
  8
PLAN_1
  6
CONTINUOUS
 10
1.193197
 20
-3.891559
  0
VERTEX
  8
PLAN_1
  6
CONTINUOUS
 10
1.196776
 20
-3.890024
  0
VERTEX
  8
PLAN_1
  6
CONTINUOUS
 10
1.199331
 20
-3.887469
  0
VERTEX
  8
PLAN_1
  6
CONTINUOUS
 10
1.202398
 20
-3.885425
  0
VERTEX
  8
PLAN_1
  6
CONTINUOUS
 10
1.204445
 20
-3.882358
  0
VERTEX
  8
PLAN_1
  6
CONTINUOUS
 10
1.207000
 20
-3.878780
  0
VERTEX
  8
PLAN_1
  6
CONTINUOUS
 10
1.209043
 20
-3.875201
  0
VERTEX
  8
PLAN_1
  6
CONTINUOUS
 10
1.210579
 20
-3.870598
  0
VERTEX
  8
PLAN_1
  6
CONTINUOUS
 10
1.212110
 20
-3.865488
  0
VERTEX
  8
PLAN_1
  6
CONTINUOUS
 10
1.213646
 20
-3.859866
  0
VERTEX
  8
PLAN_1
  6
CONTINUOUS
 10
1.233071
 20
-3.859866
  0
VERTEX
  8
PLAN_1
  6
CONTINUOUS
 10
1.233071
 20
-4.055134
  0
SEQEND
  8
0
  0
SOLID
  8
PLAN_1
 10
1.287764
 20
-4.089898
 11
1.287764
 21
-4.076094
 12
1.442142
 22
-4.089898
 13
1.442142
 23
-4.076094
  0
POLYLINE
  8
PLAN_1
  6
CONTINUOUS
 66
     1
 40
0.003000
 41
0.003000
  0
VERTEX
  8
PLAN_1
  6
CONTINUOUS
 10
1.287764
 20
-4.089898
  0
VERTEX
  8
PLAN_1
  6
CONTINUOUS
 10
1.287764
 20
-4.076094
  0
VERTEX
  8
PLAN_1
  6
CONTINUOUS
 10
1.442142
 20
-4.076094
  0
VERTEX
  8
PLAN_1
  6
CONTINUOUS
 10
1.442142
 20
-4.089898
  0
VERTEX
  8
PLAN_1
  6
CONTINUOUS
 10
1.287764
 20
-4.089898
  0
SEQEND
  8
0
  0
POLYLINE
  8
PLAN_1
  6
CONTINUOUS
 66
     1
 40
0.003000
 41
0.003000
  0
VERTEX
  8
PLAN_1
  6
CONTINUOUS
 10
1.492748
 20
-4.055134
  0
VERTEX
  8
PLAN_1
  6
CONTINUOUS
 10
1.466169
 20
-4.055134
  0
VERTEX
  8
PLAN_1
  6
CONTINUOUS
 10
1.466169
 20
-3.855776
  0
VERTEX
  8
PLAN_1
  6
CONTINUOUS
 10
1.604185
 20
-3.855776
  0
VERTEX
  8
PLAN_1
  6
CONTINUOUS
 10
1.604185
 20
-3.879799
  0
VERTEX
  8
PLAN_1
  6
CONTINUOUS
 10
1.492748
 20
-3.879799
  0
VERTEX
  8
PLAN_1
  6
CONTINUOUS
 10
1.492748
 20
-3.940630
  0
VERTEX
  8
PLAN_1
  6
CONTINUOUS
 10
1.590898
 20
-3.940630
  0
VERTEX
  8
PLAN_1
  6
CONTINUOUS
 10
1.590898
 20
-3.964657
  0
VERTEX
  8
PLAN_1
  6
CONTINUOUS
 10
1.492748
 20
-3.964657
  0
VERTEX
  8
PLAN_1
  6
CONTINUOUS
 10
1.492748
 20
-4.055134
  0
SEQEND
  8
0
  0
SOLID
  8
PLAN_1
 10
1.623098
 20
-4.055134
 11
1.594472
 21
-4.055134
 12
1.623098
 22
-4.026000
 13
1.594472
 23
-4.026000
  0
POLYLINE
  8
PLAN_1
  6
CONTINUOUS
 66
     1
 40
0.003000
 41
0.003000
  0
VERTEX
  8
PLAN_1
  6
CONTINUOUS
 10
1.623098
 20
-4.055134
  0
VERTEX
  8
PLAN_1
  6
CONTINUOUS
 10
1.594472
 20
-4.055134
  0
VERTEX
  8
PLAN_1
  6
CONTINUOUS
 10
1.594472
 20
-4.026000
  0
VERTEX
  8
PLAN_1
  6
CONTINUOUS
 10
1.623098
 20
-4.026000
  0
VERTEX
  8
PLAN_1
  6
CONTINUOUS
 10
1.623098
 20
-4.055134
  0
SEQEND
  8
0
  0
POLYLINE
  8
PLAN_1
  6
CONTINUOUS
 66
     1
 40
0.003000
 41
0.003000
  0
VERTEX
  8
PLAN_1
  6
CONTINUOUS
 10
1.818370
 20
-4.055134
  0
VERTEX
  8
PLAN_1
  6
CONTINUOUS
 10
1.671150
 20
-4.055134
  0
VERTEX
  8
PLAN_1
  6
CONTINUOUS
 10
1.671150
 20
-3.855776
  0
VERTEX
  8
PLAN_1
  6
CONTINUOUS
 10
1.816327
 20
-3.855776
  0
VERTEX
  8
PLAN_1
  6
CONTINUOUS
 10
1.816327
 20
-3.879799
  0
VERTEX
  8
PLAN_1
  6
CONTINUOUS
 10
1.698244
 20
-3.879799
  0
VERTEX
  8
PLAN_1
  6
CONTINUOUS
 10
1.698244
 20
-3.940630
  0
VERTEX
  8
PLAN_1
  6
CONTINUOUS
 10
1.807126
 20
-3.940630
  0
VERTEX
  8
PLAN_1
  6
CONTINUOUS
 10
1.807126
 20
-3.964657
  0
VERTEX
  8
PLAN_1
  6
CONTINUOUS
 10
1.698244
 20
-3.964657
  0
VERTEX
  8
PLAN_1
  6
CONTINUOUS
 10
1.698244
 20
-4.031110
  0
VERTEX
  8
PLAN_1
  6
CONTINUOUS
 10
1.818370
 20
-4.031110
  0
VERTEX
  8
PLAN_1
  6
CONTINUOUS
 10
1.818370
 20
-4.055134
  0
SEQEND
  8
0
  0
POLYLINE
  8
PLAN_1
  6
CONTINUOUS
 66
     1
 40
0.003000
 41
0.003000
  0
VERTEX
  8
PLAN_1
  6
CONTINUOUS
 10
1.883291
 20
-4.055134
  0
VERTEX
  8
PLAN_1
  6
CONTINUOUS
 10
1.856709
 20
-4.055134
  0
VERTEX
  8
PLAN_1
  6
CONTINUOUS
 10
1.856709
 20
-3.855776
  0
VERTEX
  8
PLAN_1
  6
CONTINUOUS
 10
1.946165
 20
-3.855776
  0
VERTEX
  8
PLAN_1
  6
CONTINUOUS
 10
1.952811
 20
-3.856287
  0
VERTEX
  8
PLAN_1
  6
CONTINUOUS
 10
1.959457
 20
-3.856799
  0
VERTEX
  8
PLAN_1
  6
CONTINUOUS
 10
1.965079
 20
-3.858331
  0
VERTEX
  8
PLAN_1
  6
CONTINUOUS
 10
1.971213
 20
-3.859866
  0
VERTEX
  8
PLAN_1
  6
CONTINUOUS
 10
1.976327
 20
-3.862421
  0
VERTEX
  8
PLAN_1
  6
CONTINUOUS
 10
1.980925
 20
-3.864976
  0
VERTEX
  8
PLAN_1
  6
CONTINUOUS
 10
1.985528
 20
-3.868043
  0
VERTEX
  8
PLAN_1
  6
CONTINUOUS
 10
1.989618
 20
-3.871622
  0
VERTEX
  8
PLAN_1
  6
CONTINUOUS
 10
1.993197
 20
-3.875713
  0
VERTEX
  8
PLAN_1
  6
CONTINUOUS
 10
1.996264
 20
-3.880311
  0
VERTEX
  8
PLAN_1
  6
CONTINUOUS
 10
1.998819
 20
-3.884913
  0
VERTEX
  8
PLAN_1
  6
CONTINUOUS
 10
2.001374
 20
-3.889512
  0
VERTEX
  8
PLAN_1
  6
CONTINUOUS
 10
2.002909
 20
-3.894626
  0
VERTEX
  8
PLAN_1
  6
CONTINUOUS
 10
2.004441
 20
-3.900248
  0
VERTEX
  8
PLAN_1
  6
CONTINUOUS
 10
2.004953
 20
-3.905870
  0
VERTEX
  8
PLAN_1
  6
CONTINUOUS
 10
2.005465
 20
-3.912004
  0
VERTEX
  8
PLAN_1
  6
CONTINUOUS
 10
2.004953
 20
-3.917118
  0
VERTEX
  8
PLAN_1
  6
CONTINUOUS
 10
2.004441
 20
-3.922228
  0
VERTEX
  8
PLAN_1
  6
CONTINUOUS
 10
2.003417
 20
-3.927850
  0
VERTEX
  8
PLAN_1
  6
CONTINUOUS
 10
2.002398
 20
-3.932965
  0
VERTEX
  8
PLAN_1
  6
CONTINUOUS
 10
2.000350
 20
-3.938075
  0
VERTEX
  8
PLAN_1
  6
CONTINUOUS
 10
1.997795
 20
-3.942677
  0
VERTEX
  8
PLAN_1
  6
CONTINUOUS
 10
1.995240
 20
-3.947787
  0
VERTEX
  8
PLAN_1
  6
CONTINUOUS
 10
1.992173
 20
-3.951878
  0
VERTEX
  8
PLAN_1
  6
CONTINUOUS
 10
1.988083
 20
-3.955965
  0
VERTEX
  8
PLAN_1
  6
CONTINUOUS
 10
1.983992
 20
-3.959543
  0
VERTEX
  8
PLAN_1
  6
CONTINUOUS
 10
1.978882
 20
-3.963122
  0
VERTEX
  8
PLAN_1
  6
CONTINUOUS
 10
1.973772
 20
-3.965677
  0
VERTEX
  8
PLAN_1
  6
CONTINUOUS
 10
1.967638
 20
-3.968236
  0
VERTEX
  8
PLAN_1
  6
CONTINUOUS
 10
1.960992
 20
-3.969768
  0
VERTEX
  8
PLAN_1
  6
CONTINUOUS
 10
1.953835
 20
-3.970791
  0
VERTEX
  8
PLAN_1
  6
CONTINUOUS
 10
1.946165
 20
-3.971303
  0
VERTEX
  8
PLAN_1
  6
CONTINUOUS
 10
1.883291
 20
-3.971303
  0
VERTEX
  8
PLAN_1
  6
CONTINUOUS
 10
1.883291
 20
-4.055134
  0
SEQEND
  8
0
  0
POLYLINE
  8
PLAN_1
  6
CONTINUOUS
 66
     1
 40
0.003000
 41
0.003000
  0
VERTEX
  8
PLAN_1
  6
CONTINUOUS
 10
1.883291
 20
-3.947787
  0
VERTEX
  8
PLAN_1
  6
CONTINUOUS
 10
1.936965
 20
-3.947787
  0
VERTEX
  8
PLAN_1
  6
CONTINUOUS
 10
1.941567
 20
-3.947787
  0
VERTEX
  8
PLAN_1
  6
CONTINUOUS
 10
1.945654
 20
-3.947787
  0
VERTEX
  8
PLAN_1
  6
CONTINUOUS
 10
1.949744
 20
-3.947276
  0
VERTEX
  8
PLAN_1
  6
CONTINUOUS
 10
1.953323
 20
-3.946256
  0
VERTEX
  8
PLAN_1
  6
CONTINUOUS
 10
1.956902
 20
-3.945232
  0
VERTEX
  8
PLAN_1
  6
CONTINUOUS
 10
1.960480
 20
-3.943697
  0
VERTEX
  8
PLAN_1
  6
CONTINUOUS
 10
1.963547
 20
-3.942165
  0
VERTEX
  8
PLAN_1
  6
CONTINUOUS
 10
1.966102
 20
-3.940118
  0
VERTEX
  8
PLAN_1
  6
CONTINUOUS
 10
1.968657
 20
-3.938075
  0
VERTEX
  8
PLAN_1
  6
CONTINUOUS
 10
1.971213
 20
-3.935520
  0
VERTEX
  8
PLAN_1
  6
CONTINUOUS
 10
1.972748
 20
-3.932453
  0
VERTEX
  8
PLAN_1
  6
CONTINUOUS
 10
1.974791
 20
-3.929386
  0
VERTEX
  8
PLAN_1
  6
CONTINUOUS
 10
1.975815
 20
-3.925295
  0
VERTEX
  8
PLAN_1
  6
CONTINUOUS
 10
1.976839
 20
-3.921717
  0
VERTEX
  8
PLAN_1
  6
CONTINUOUS
 10
1.977350
 20
-3.917118
  0
VERTEX
  8
PLAN_1
  6
CONTINUOUS
 10
1.977350
 20
-3.912004
  0
VERTEX
  8
PLAN_1
  6
CONTINUOUS
 10
1.977350
 20
-3.907917
  0
VERTEX
  8
PLAN_1
  6
CONTINUOUS
 10
1.976839
 20
-3.903315
  0
VERTEX
  8
PLAN_1
  6
CONTINUOUS
 10
1.975815
 20
-3.899736
  0
VERTEX
  8
PLAN_1
  6
CONTINUOUS
 10
1.974283
 20
-3.896157
  0
VERTEX
  8
PLAN_1
  6
CONTINUOUS
 10
1.972748
 20
-3.893091
  0
VERTEX
  8
PLAN_1
  6
CONTINUOUS
 10
1.970705
 20
-3.890535
  0
VERTEX
  8
PLAN_1
  6
CONTINUOUS
 10
1.968657
 20
-3.887980
  0
VERTEX
  8
PLAN_1
  6
CONTINUOUS
 10
1.966102
 20
-3.885933
  0
VERTEX
  8
PLAN_1
  6
CONTINUOUS
 10
1.963547
 20
-3.884402
  0
VERTEX
  8
PLAN_1
  6
CONTINUOUS
 10
1.960480
 20
-3.882866
  0
VERTEX
  8
PLAN_1
  6
CONTINUOUS
 10
1.956902
 20
-3.881335
  0
VERTEX
  8
PLAN_1
  6
CONTINUOUS
 10
1.953835
 20
-3.880823
  0
VERTEX
  8
PLAN_1
  6
CONTINUOUS
 10
1.946165
 20
-3.879287
  0
VERTEX
  8
PLAN_1
  6
CONTINUOUS
 10
1.937988
 20
-3.878780
  0
VERTEX
  8
PLAN_1
  6
CONTINUOUS
 10
1.883291
 20
-3.878780
  0
VERTEX
  8
PLAN_1
  6
CONTINUOUS
 10
1.883291
 20
-3.947787
  0
SEQEND
  8
0
  0
POLYLINE
  8
PLAN_1
  6
CONTINUOUS
 66
     1
 40
0.003000
 41
0.003000
  0
VERTEX
  8
PLAN_1
  6
CONTINUOUS
 10
2.159331
 20
-3.914051
  0
VERTEX
  8
PLAN_1
  6
CONTINUOUS
 10
2.158819
 20
-3.908425
  0
VERTEX
  8
PLAN_1
  6
CONTINUOUS
 10
2.157795
 20
-3.903827
  0
VERTEX
  8
PLAN_1
  6
CONTINUOUS
 10
2.156264
 20
-3.899224
  0
VERTEX
  8
PLAN_1
  6
CONTINUOUS
 10
2.154217
 20
-3.894626
  0
VERTEX
  8
PLAN_1
  6
CONTINUOUS
 10
2.151661
 20
-3.891047
  0
VERTEX
  8
PLAN_1
  6
CONTINUOUS
 10
2.149106
 20
-3.887980
  0
VERTEX
  8
PLAN_1
  6
CONTINUOUS
 10
2.145528
 20
-3.884913
  0
VERTEX
  8
PLAN_1
  6
CONTINUOUS
 10
2.142461
 20
-3.882358
  0
VERTEX
  8
PLAN_1
  6
CONTINUOUS
 10
2.138882
 20
-3.880311
  0
VERTEX
  8
PLAN_1
  6
CONTINUOUS
 10
2.134791
 20
-3.878268
  0
VERTEX
  8
PLAN_1
  6
CONTINUOUS
 10
2.130705
 20
-3.876732
  0
VERTEX
  8
PLAN_1
  6
CONTINUOUS
 10
2.126614
 20
-3.875713
  0
VERTEX
  8
PLAN_1
  6
CONTINUOUS
 10
2.122524
 20
-3.874689
  0
VERTEX
  8
PLAN_1
  6
CONTINUOUS
 10
2.118433
 20
-3.874177
  0
VERTEX
  8
PLAN_1
  6
CONTINUOUS
 10
2.113835
 20
-3.873665
  0
VERTEX
  8
PLAN_1
  6
CONTINUOUS
 10
2.109744
 20
-3.873665
  0
VERTEX
  8
PLAN_1
  6
CONTINUOUS
 10
2.103098
 20
-3.873665
  0
VERTEX
  8
PLAN_1
  6
CONTINUOUS
 10
2.095433
 20
-3.874689
  0
VERTEX
  8
PLAN_1
  6
CONTINUOUS
 10
2.091854
 20
-3.875713
  0
VERTEX
  8
PLAN_1
  6
CONTINUOUS
 10
2.087764
 20
-3.876732
  0
VERTEX
  8
PLAN_1
  6
CONTINUOUS
 10
2.084185
 20
-3.878268
  0
VERTEX
  8
PLAN_1
  6
CONTINUOUS
 10
2.080606
 20
-3.879799
  0
VERTEX
  8
PLAN_1
  6
CONTINUOUS
 10
2.077539
 20
-3.881846
  0
VERTEX
  8
PLAN_1
  6
CONTINUOUS
 10
2.073961
 20
-3.884402
  0
VERTEX
  8
PLAN_1
  6
CONTINUOUS
 10
2.071406
 20
-3.886957
  0
VERTEX
  8
PLAN_1
  6
CONTINUOUS
 10
2.068850
 20
-3.890535
  0
VERTEX
  8
PLAN_1
  6
CONTINUOUS
 10
2.066807
 20
-3.894114
  0
VERTEX
  8
PLAN_1
  6
CONTINUOUS
 10
2.065272
 20
-3.898205
  0
VERTEX
  8
PLAN_1
  6
CONTINUOUS
 10
2.064760
 20
-3.903315
  0
VERTEX
  8
PLAN_1
  6
CONTINUOUS
 10
2.064248
 20
-3.908425
  0
VERTEX
  8
PLAN_1
  6
CONTINUOUS
 10
2.064248
 20
-3.911492
  0
VERTEX
  8
PLAN_1
  6
CONTINUOUS
 10
2.064760
 20
-3.914559
  0
VERTEX
  8
PLAN_1
  6
CONTINUOUS
 10
2.065272
 20
-3.917118
  0
VERTEX
  8
PLAN_1
  6
CONTINUOUS
 10
2.066295
 20
-3.919161
  0
VERTEX
  8
PLAN_1
  6
CONTINUOUS
 10
2.068850
 20
-3.923252
  0
VERTEX
  8
PLAN_1
  6
CONTINUOUS
 10
2.071917
 20
-3.926319
  0
VERTEX
  8
PLAN_1
  6
CONTINUOUS
 10
2.075496
 20
-3.929386
  0
VERTEX
  8
PLAN_1
  6
CONTINUOUS
 10
2.079075
 20
-3.930917
  0
VERTEX
  8
PLAN_1
  6
CONTINUOUS
 10
2.083673
 20
-3.932453
  0
VERTEX
  8
PLAN_1
  6
CONTINUOUS
 10
2.087764
 20
-3.933984
  0
VERTEX
  8
PLAN_1
  6
CONTINUOUS
 10
2.144504
 20
-3.946764
  0
VERTEX
  8
PLAN_1
  6
CONTINUOUS
 10
2.149618
 20
-3.948299
  0
VERTEX
  8
PLAN_1
  6
CONTINUOUS
 10
2.154217
 20
-3.949831
  0
VERTEX
  8
PLAN_1
  6
CONTINUOUS
 10
2.158307
 20
-3.951366
  0
VERTEX
  8
PLAN_1
  6
CONTINUOUS
 10
2.162906
 20
-3.953409
  0
VERTEX
  8
PLAN_1
  6
CONTINUOUS
 10
2.166484
 20
-3.955457
  0
VERTEX
  8
PLAN_1
  6
CONTINUOUS
 10
2.170575
 20
-3.958012
  0
VERTEX
  8
PLAN_1
  6
CONTINUOUS
 10
2.173642
 20
-3.961079
  0
VERTEX
  8
PLAN_1
  6
CONTINUOUS
 10
2.177220
 20
-3.964146
  0
VERTEX
  8
PLAN_1
  6
CONTINUOUS
 10
2.179776
 20
-3.967213
  0
VERTEX
  8
PLAN_1
  6
CONTINUOUS
 10
2.182331
 20
-3.971303
  0
VERTEX
  8
PLAN_1
  6
CONTINUOUS
 10
2.184890
 20
-3.974882
  0
VERTEX
  8
PLAN_1
  6
CONTINUOUS
 10
2.186421
 20
-3.979480
  0
VERTEX
  8
PLAN_1
  6
CONTINUOUS
 10
2.187957
 20
-3.984083
  0
VERTEX
  8
PLAN_1
  6
CONTINUOUS
 10
2.188976
 20
-3.989193
  0
VERTEX
  8
PLAN_1
  6
CONTINUOUS
 10
2.190000
 20
-3.994303
  0
VERTEX
  8
PLAN_1
  6
CONTINUOUS
 10
2.190000
 20
-4.000441
  0
VERTEX
  8
PLAN_1
  6
CONTINUOUS
 10
2.190000
 20
-4.004528
  0
VERTEX
  8
PLAN_1
  6
CONTINUOUS
 10
2.189488
 20
-4.008618
  0
VERTEX
  8
PLAN_1
  6
CONTINUOUS
 10
2.188976
 20
-4.012709
  0
VERTEX
  8
PLAN_1
  6
CONTINUOUS
 10
2.187957
 20
-4.016287
  0
VERTEX
  8
PLAN_1
  6
CONTINUOUS
 10
2.185909
 20
-4.023441
  0
VERTEX
  8
PLAN_1
  6
CONTINUOUS
 10
2.182843
 20
-4.029575
  0
VERTEX
  8
PLAN_1
  6
CONTINUOUS
 10
2.178756
 20
-4.035201
  0
VERTEX
  8
PLAN_1
  6
CONTINUOUS
 10
2.174154
 20
-4.039799
  0
VERTEX
  8
PLAN_1
  6
CONTINUOUS
 10
2.169043
 20
-4.044402
  0
VERTEX
  8
PLAN_1
  6
CONTINUOUS
 10
2.163929
 20
-4.047980
  0
VERTEX
  8
PLAN_1
  6
CONTINUOUS
 10
2.157795
 20
-4.051047
  0
VERTEX
  8
PLAN_1
  6
CONTINUOUS
 10
2.151661
 20
-4.054114
  0
VERTEX
  8
PLAN_1
  6
CONTINUOUS
 10
2.145016
 20
-4.056157
  0
VERTEX
  8
PLAN_1
  6
CONTINUOUS
 10
2.138370
 20
-4.057693
  0
VERTEX
  8
PLAN_1
  6
CONTINUOUS
 10
2.131724
 20
-4.058713
  0
VERTEX
  8
PLAN_1
  6
CONTINUOUS
 10
2.125079
 20
-4.059736
  0
VERTEX
  8
PLAN_1
  6
CONTINUOUS
 10
2.118433
 20
-4.060248
  0
VERTEX
  8
PLAN_1
  6
CONTINUOUS
 10
2.111787
 20
-4.060248
  0
VERTEX
  8
PLAN_1
  6
CONTINUOUS
 10
2.099008
 20
-4.059736
  0
VERTEX
  8
PLAN_1
  6
CONTINUOUS
 10
2.088276
 20
-4.058713
  0
VERTEX
  8
PLAN_1
  6
CONTINUOUS
 10
2.079075
 20
-4.056669
  0
VERTEX
  8
PLAN_1
  6
CONTINUOUS
 10
2.071406
 20
-4.054114
  0
VERTEX
  8
PLAN_1
  6
CONTINUOUS
 10
2.064760
 20
-4.051047
  0
VERTEX
  8
PLAN_1
  6
CONTINUOUS
 10
2.059650
 20
-4.047469
  0
VERTEX
  8
PLAN_1
  6
CONTINUOUS
 10
2.055559
 20
-4.044402
  0
VERTEX
  8
PLAN_1
  6
CONTINUOUS
 10
2.051980
 20
-4.041335
  0
VERTEX
  8
PLAN_1
  6
CONTINUOUS
 10
2.045846
 20
-4.035713
  0
VERTEX
  8
PLAN_1
  6
CONTINUOUS
 10
2.041248
 20
-4.029575
  0
VERTEX
  8
PLAN_1
  6
CONTINUOUS
 10
2.037669
 20
-4.023441
  0
VERTEX
  8
PLAN_1
  6
CONTINUOUS
 10
2.035110
 20
-4.017307
  0
VERTEX
  8
PLAN_1
  6
CONTINUOUS
 10
2.033579
 20
-4.011173
  0
VERTEX
  8
PLAN_1
  6
CONTINUOUS
 10
2.032043
 20
-4.004528
  0
VERTEX
  8
PLAN_1
  6
CONTINUOUS
 10
2.031535
 20
-3.997882
  0
VERTEX
  8
PLAN_1
  6
CONTINUOUS
 10
2.031535
 20
-3.990728
  0
VERTEX
  8
PLAN_1
  6
CONTINUOUS
 10
2.056583
 20
-3.990728
  0
VERTEX
  8
PLAN_1
  6
CONTINUOUS
 10
2.057094
 20
-3.997374
  0
VERTEX
  8
PLAN_1
  6
CONTINUOUS
 10
2.058114
 20
-4.002996
  0
VERTEX
  8
PLAN_1
  6
CONTINUOUS
 10
2.059650
 20
-4.008618
  0
VERTEX
  8
PLAN_1
  6
CONTINUOUS
 10
2.061693
 20
-4.013220
  0
VERTEX
  8
PLAN_1
  6
CONTINUOUS
 10
2.064248
 20
-4.017819
  0
VERTEX
  8
PLAN_1
  6
CONTINUOUS
 10
2.067315
 20
-4.021398
  0
VERTEX
  8
PLAN_1
  6
CONTINUOUS
 10
2.070894
 20
-4.024976
  0
VERTEX
  8
PLAN_1
  6
CONTINUOUS
 10
2.074472
 20
-4.027531
  0
VERTEX
  8
PLAN_1
  6
CONTINUOUS
 10
2.078563
 20
-4.030087
  0
VERTEX
  8
PLAN_1
  6
CONTINUOUS
 10
2.083161
 20
-4.032134
  0
VERTEX
  8
PLAN_1
  6
CONTINUOUS
 10
2.087764
 20
-4.033665
  0
VERTEX
  8
PLAN_1
  6
CONTINUOUS
 10
2.092366
 20
-4.035201
  0
VERTEX
  8
PLAN_1
  6
CONTINUOUS
 10
2.096965
 20
-4.036220
  0
VERTEX
  8
PLAN_1
  6
CONTINUOUS
 10
2.102079
 20
-4.036732
  0
VERTEX
  8
PLAN_1
  6
CONTINUOUS
 10
2.106677
 20
-4.037244
  0
VERTEX
  8
PLAN_1
  6
CONTINUOUS
 10
2.111787
 20
-4.037244
  0
VERTEX
  8
PLAN_1
  6
CONTINUOUS
 10
2.119457
 20
-4.037244
  0
VERTEX
  8
PLAN_1
  6
CONTINUOUS
 10
2.128146
 20
-4.036220
  0
VERTEX
  8
PLAN_1
  6
CONTINUOUS
 10
2.132236
 20
-4.035201
  0
VERTEX
  8
PLAN_1
  6
CONTINUOUS
 10
2.136839
 20
-4.034177
  0
VERTEX
  8
PLAN_1
  6
CONTINUOUS
 10
2.140925
 20
-4.033154
  0
VERTEX
  8
PLAN_1
  6
CONTINUOUS
 10
2.145016
 20
-4.031110
  0
VERTEX
  8
PLAN_1
  6
CONTINUOUS
 10
2.149106
 20
-4.029575
  0
VERTEX
  8
PLAN_1
  6
CONTINUOUS
 10
2.152685
 20
-4.027020
  0
VERTEX
  8
PLAN_1
  6
CONTINUOUS
 10
2.155752
 20
-4.024465
  0
VERTEX
  8
PLAN_1
  6
CONTINUOUS
 10
2.158307
 20
-4.021398
  0
VERTEX
  8
PLAN_1
  6
CONTINUOUS
 10
2.160862
 20
-4.017307
  0
VERTEX
  8
PLAN_1
  6
CONTINUOUS
 10
2.162398
 20
-4.013728
  0
VERTEX
  8
PLAN_1
  6
CONTINUOUS
 10
2.163417
 20
-4.009130
  0
VERTEX
  8
PLAN_1
  6
CONTINUOUS
 10
2.163929
 20
-4.004016
  0
VERTEX
  8
PLAN_1
  6
CONTINUOUS
 10
2.163929
 20
-3.999929
  0
VERTEX
  8
PLAN_1
  6
CONTINUOUS
 10
2.163417
 20
-3.996862
  0
VERTEX
  8
PLAN_1
  6
CONTINUOUS
 10
2.162906
 20
-3.993283
  0
VERTEX
  8
PLAN_1
  6
CONTINUOUS
 10
2.161886
 20
-3.990728
  0
VERTEX
  8
PLAN_1
  6
CONTINUOUS
 10
2.160862
 20
-3.988169
  0
VERTEX
  8
PLAN_1
  6
CONTINUOUS
 10
2.159331
 20
-3.985614
  0
VERTEX
  8
PLAN_1
  6
CONTINUOUS
 10
2.157283
 20
-3.983571
  0
VERTEX
  8
PLAN_1
  6
CONTINUOUS
 10
2.154728
 20
-3.981524
  0
VERTEX
  8
PLAN_1
  6
CONTINUOUS
 10
2.152173
 20
-3.979480
  0
VERTEX
  8
PLAN_1
  6
CONTINUOUS
 10
2.149106
 20
-3.977437
  0
VERTEX
  8
PLAN_1
  6
CONTINUOUS
 10
2.146039
 20
-3.975902
  0
VERTEX
  8
PLAN_1
  6
CONTINUOUS
 10
2.141949
 20
-3.974370
  0
VERTEX
  8
PLAN_1
  6
CONTINUOUS
 10
2.132748
 20
-3.971303
  0
VERTEX
  8
PLAN_1
  6
CONTINUOUS
 10
2.121500
 20
-3.968744
  0
VERTEX
  8
PLAN_1
  6
CONTINUOUS
 10
2.080606
 20
-3.959035
  0
VERTEX
  8
PLAN_1
  6
CONTINUOUS
 10
2.074984
 20
-3.957500
  0
VERTEX
  8
PLAN_1
  6
CONTINUOUS
 10
2.068339
 20
-3.955457
  0
VERTEX
  8
PLAN_1
  6
CONTINUOUS
 10
2.064760
 20
-3.953921
  0
VERTEX
  8
PLAN_1
  6
CONTINUOUS
 10
2.061693
 20
-3.951878
  0
VERTEX
  8
PLAN_1
  6
CONTINUOUS
 10
2.058114
 20
-3.949831
  0
VERTEX
  8
PLAN_1
  6
CONTINUOUS
 10
2.054535
 20
-3.947787
  0
VERTEX
  8
PLAN_1
  6
CONTINUOUS
 10
2.050961
 20
-3.944720
  0
VERTEX
  8
PLAN_1
  6
CONTINUOUS
 10
2.047890
 20
-3.941654
  0
VERTEX
  8
PLAN_1
  6
CONTINUOUS
 10
2.045335
 20
-3.938075
  0
VERTEX
  8
PLAN_1
  6
CONTINUOUS
 10
2.042780
 20
-3.933984
  0
VERTEX
  8
PLAN_1
  6
CONTINUOUS
 10
2.040736
 20
-3.929386
  0
VERTEX
  8
PLAN_1
  6
CONTINUOUS
 10
2.039201
 20
-3.924272
  0
VERTEX
  8
PLAN_1
  6
CONTINUOUS
 10
2.038689
 20
-3.918650
  0
VERTEX
  8
PLAN_1
  6
CONTINUOUS
 10
2.038181
 20
-3.912004
  0
VERTEX
  8
PLAN_1
  6
CONTINUOUS
 10
2.038181
 20
-3.906382
  0
VERTEX
  8
PLAN_1
  6
CONTINUOUS
 10
2.039201
 20
-3.900760
  0
VERTEX
  8
PLAN_1
  6
CONTINUOUS
 10
2.040224
 20
-3.895138
  0
VERTEX
  8
PLAN_1
  6
CONTINUOUS
 10
2.042268
 20
-3.889512
  0
VERTEX
  8
PLAN_1
  6
CONTINUOUS
 10
2.044315
 20
-3.884402
  0
VERTEX
  8
PLAN_1
  6
CONTINUOUS
 10
2.046870
 20
-3.879287
  0
VERTEX
  8
PLAN_1
  6
CONTINUOUS
 10
2.050449
 20
-3.874177
  0
VERTEX
  8
PLAN_1
  6
CONTINUOUS
 10
2.054535
 20
-3.869579
  0
VERTEX
  8
PLAN_1
  6
CONTINUOUS
 10
2.058626
 20
-3.865488
  0
VERTEX
  8
PLAN_1
  6
CONTINUOUS
 10
2.063740
 20
-3.861909
  0
VERTEX
  8
PLAN_1
  6
CONTINUOUS
 10
2.069362
 20
-3.858843
  0
VERTEX
  8
PLAN_1
  6
CONTINUOUS
 10
2.075496
 20
-3.855776
  0
VERTEX
  8
PLAN_1
  6
CONTINUOUS
 10
2.082654
 20
-3.853728
  0
VERTEX
  8
PLAN_1
  6
CONTINUOUS
 10
2.089807
 20
-3.852197
  0
VERTEX
  8
PLAN_1
  6
CONTINUOUS
 10
2.097988
 20
-3.851173
  0
VERTEX
  8
PLAN_1
  6
CONTINUOUS
 10
2.106677
 20
-3.850661
  0
VERTEX
  8
PLAN_1
  6
CONTINUOUS
 10
2.118945
 20
-3.851173
  0
VERTEX
  8
PLAN_1
  6
CONTINUOUS
 10
2.130193
 20
-3.852197
  0
VERTEX
  8
PLAN_1
  6
CONTINUOUS
 10
2.139906
 20
-3.854752
  0
VERTEX
  8
PLAN_1
  6
CONTINUOUS
 10
2.148083
 20
-3.857307
  0
VERTEX
  8
PLAN_1
  6
CONTINUOUS
 10
2.155240
 20
-3.860886
  0
VERTEX
  8
PLAN_1
  6
CONTINUOUS
 10
2.161886
 20
-3.864976
  0
VERTEX
  8
PLAN_1
  6
CONTINUOUS
 10
2.166996
 20
-3.869579
  0
VERTEX
  8
PLAN_1
  6
CONTINUOUS
 10
2.171087
 20
-3.874177
  0
VERTEX
  8
PLAN_1
  6
CONTINUOUS
 10
2.174665
 20
-3.879287
  0
VERTEX
  8
PLAN_1
  6
CONTINUOUS
 10
2.177732
 20
-3.884402
  0
VERTEX
  8
PLAN_1
  6
CONTINUOUS
 10
2.179776
 20
-3.889512
  0
VERTEX
  8
PLAN_1
  6
CONTINUOUS
 10
2.181823
 20
-3.895138
  0
VERTEX
  8
PLAN_1
  6
CONTINUOUS
 10
2.182843
 20
-3.900248
  0
VERTEX
  8
PLAN_1
  6
CONTINUOUS
 10
2.183866
 20
-3.905358
  0
VERTEX
  8
PLAN_1
  6
CONTINUOUS
 10
2.184378
 20
-3.909961
  0
VERTEX
  8
PLAN_1
  6
CONTINUOUS
 10
2.184378
 20
-3.914051
  0
VERTEX
  8
PLAN_1
  6
CONTINUOUS
 10
2.159331
 20
-3.914051
  0
SEQEND
  8
0
  0
POLYLINE
  8
PLAN_1
  6
CONTINUOUS
 66
     1
 40
0.008177
 41
0.008177
  0
VERTEX
  8
PLAN_1
  6
CONTINUOUS
 10
-1.537531
 20
0.618591
  0
VERTEX
  8
PLAN_1
  6
CONTINUOUS
 10
-1.537020
 20
-0.295398
  0
VERTEX
  8
PLAN_1
  6
CONTINUOUS
 10
-0.476831
 20
-0.295398
  0
VERTEX
  8
PLAN_1
  6
CONTINUOUS
 10
-0.476831
 20
0.618591
  0
VERTEX
  8
PLAN_1
  6
CONTINUOUS
 10
-1.537531
 20
0.618591
  0
SEQEND
  8
0
  0
POLYLINE
  8
PLAN_1
  6
CONTINUOUS
 66
     1
 40
0.008177
 41
0.008177
  0
VERTEX
  8
PLAN_1
  6
CONTINUOUS
 10
-0.569354
 20
-0.354697
  0
VERTEX
  8
PLAN_1
  6
CONTINUOUS
 10
-0.565264
 20
-0.354185
  0
VERTEX
  8
PLAN_1
  6
CONTINUOUS
 10
-0.561177
 20
-0.353673
  0
VERTEX
  8
PLAN_1
  6
CONTINUOUS
 10
-0.557598
 20
-0.353161
  0
VERTEX
  8
PLAN_1
  6
CONTINUOUS
 10
-0.554020
 20
-0.352142
  0
VERTEX
  8
PLAN_1
  6
CONTINUOUS
 10
-0.550953
 20
-0.350606
  0
VERTEX
  8
PLAN_1
  6
CONTINUOUS
 10
-0.548398
 20
-0.349075
  0
VERTEX
  8
PLAN_1
  6
CONTINUOUS
 10
-0.545843
 20
-0.347028
  0
VERTEX
  8
PLAN_1
  6
CONTINUOUS
 10
-0.543283
 20
-0.345496
  0
VERTEX
  8
PLAN_1
  6
CONTINUOUS
 10
-0.539705
 20
-0.340894
  0
VERTEX
  8
PLAN_1
  6
CONTINUOUS
 10
-0.536638
 20
-0.335783
  0
VERTEX
  8
PLAN_1
  6
CONTINUOUS
 10
-0.534083
 20
-0.330669
  0
VERTEX
  8
PLAN_1
  6
CONTINUOUS
 10
-0.532551
 20
-0.325047
  0
VERTEX
  8
PLAN_1
  6
CONTINUOUS
 10
-0.531528
 20
-0.319425
  0
VERTEX
  8
PLAN_1
  6
CONTINUOUS
 10
-0.531016
 20
-0.314315
  0
VERTEX
  8
PLAN_1
  6
CONTINUOUS
 10
-0.530504
 20
-0.309201
  0
VERTEX
  8
PLAN_1
  6
CONTINUOUS
 10
-0.530504
 20
-0.304602
  0
VERTEX
  8
PLAN_1
  6
CONTINUOUS
 10
-0.531016
 20
-0.297957
  0
VERTEX
  8
PLAN_1
  6
CONTINUOUS
 10
-0.531016
 20
-0.295398
  0
SEQEND
  8
0
  0
POLYLINE
  8
PLAN_1
  6
CONTINUOUS
 66
     1
 40
0.008177
 41
0.008177
  0
VERTEX
  8
PLAN_1
  6
CONTINUOUS
 10
-0.531016
 20
-0.295398
  0
VERTEX
  8
PLAN_1
  6
CONTINUOUS
 10
-1.474146
 20
-0.295398
  0
SEQEND
  8
0
  0
POLYLINE
  8
PLAN_1
  6
CONTINUOUS
 66
     1
 40
0.008177
 41
0.008177
  0
VERTEX
  8
PLAN_1
  6
CONTINUOUS
 10
-1.474146
 20
-0.295398
  0
VERTEX
  8
PLAN_1
  6
CONTINUOUS
 10
-1.475169
 20
-0.297957
  0
VERTEX
  8
PLAN_1
  6
CONTINUOUS
 10
-1.476701
 20
-0.304602
  0
VERTEX
  8
PLAN_1
  6
CONTINUOUS
 10
-1.477724
 20
-0.309201
  0
VERTEX
  8
PLAN_1
  6
CONTINUOUS
 10
-1.478236
 20
-0.314315
  0
VERTEX
  8
PLAN_1
  6
CONTINUOUS
 10
-1.478744
 20
-0.319425
  0
VERTEX
  8
PLAN_1
  6
CONTINUOUS
 10
-1.478744
 20
-0.325047
  0
VERTEX
  8
PLAN_1
  6
CONTINUOUS
 10
-1.478236
 20
-0.330669
  0
VERTEX
  8
PLAN_1
  6
CONTINUOUS
 10
-1.476701
 20
-0.335783
  0
VERTEX
  8
PLAN_1
  6
CONTINUOUS
 10
-1.475677
 20
-0.338339
  0
VERTEX
  8
PLAN_1
  6
CONTINUOUS
 10
-1.474146
 20
-0.340894
  0
VERTEX
  8
PLAN_1
  6
CONTINUOUS
 10
-1.472610
 20
-0.342941
  0
VERTEX
  8
PLAN_1
  6
CONTINUOUS
 10
-1.471079
 20
-0.345496
  0
VERTEX
  8
PLAN_1
  6
CONTINUOUS
 10
-1.469035
 20
-0.347539
  0
VERTEX
  8
PLAN_1
  6
CONTINUOUS
 10
-1.466476
 20
-0.349075
  0
VERTEX
  8
PLAN_1
  6
CONTINUOUS
 10
-1.463921
 20
-0.350606
  0
VERTEX
  8
PLAN_1
  6
CONTINUOUS
 10
-1.460854
 20
-0.352142
  0
VERTEX
  8
PLAN_1
  6
CONTINUOUS
 10
-1.457276
 20
-0.353161
  0
VERTEX
  8
PLAN_1
  6
CONTINUOUS
 10
-1.453697
 20
-0.353673
  0
VERTEX
  8
PLAN_1
  6
CONTINUOUS
 10
-1.449098
 20
-0.354185
  0
VERTEX
  8
PLAN_1
  6
CONTINUOUS
 10
-1.444496
 20
-0.354697
  0
VERTEX
  8
PLAN_1
  6
CONTINUOUS
 10
-1.400024
 20
-0.354697
  0
VERTEX
  8
PLAN_1
  6
CONTINUOUS
 10
-1.302390
 20
-0.354697
  0
VERTEX
  8
PLAN_1
  6
CONTINUOUS
 10
-1.169480
 20
-0.354697
  0
VERTEX
  8
PLAN_1
  6
CONTINUOUS
 10
-1.018173
 20
-0.354697
  0
VERTEX
  8
PLAN_1
  6
CONTINUOUS
 10
-0.865331
 20
-0.354697
  0
VERTEX
  8
PLAN_1
  6
CONTINUOUS
 10
-0.728331
 20
-0.354697
  0
VERTEX
  8
PLAN_1
  6
CONTINUOUS
 10
-0.624051
 20
-0.354697
  0
VERTEX
  8
PLAN_1
  6
CONTINUOUS
 10
-0.569354
 20
-0.354697
  0
SEQEND
  8
0
  0
POLYLINE
  8
PLAN_1
  6
CONTINUOUS
 66
     1
 40
0.008177
 41
0.008177
  0
VERTEX
  8
PLAN_1
  6
CONTINUOUS
 10
-1.398492
 20
-0.354697
  0
VERTEX
  8
PLAN_1
  6
CONTINUOUS
 10
-1.398492
 20
-0.669071
  0
VERTEX
  8
PLAN_1
  6
CONTINUOUS
 10
-1.357087
 20
-0.669071
  0
VERTEX
  8
PLAN_1
  6
CONTINUOUS
 10
-1.357087
 20
-0.712012
  0
VERTEX
  8
PLAN_1
  6
CONTINUOUS
 10
-1.318748
 20
-0.712012
  0
VERTEX
  8
PLAN_1
  6
CONTINUOUS
 10
-1.318748
 20
-0.669071
  0
VERTEX
  8
PLAN_1
  6
CONTINUOUS
 10
-0.709929
 20
-0.669071
  0
VERTEX
  8
PLAN_1
  6
CONTINUOUS
 10
-0.709929
 20
-0.712012
  0
VERTEX
  8
PLAN_1
  6
CONTINUOUS
 10
-0.671591
 20
-0.712012
  0
VERTEX
  8
PLAN_1
  6
CONTINUOUS
 10
-0.671591
 20
-0.669071
  0
VERTEX
  8
PLAN_1
  6
CONTINUOUS
 10
-0.612807
 20
-0.669071
  0
VERTEX
  8
PLAN_1
  6
CONTINUOUS
 10
-0.612807
 20
-0.354697
  0
VERTEX
  8
PLAN_1
  6
CONTINUOUS
 10
-1.398492
 20
-0.354697
  0
SEQEND
  8
0
  0
POLYLINE
  8
PLAN_1
  6
CONTINUOUS
 66
     1
 40
0.007154
 41
0.007154
  0
VERTEX
  8
PLAN_1
  6
CONTINUOUS
 10
-1.126031
 20
-0.668563
  0
VERTEX
  8
PLAN_1
  6
CONTINUOUS
 10
-1.247693
 20
-0.690031
  0
VERTEX
  8
PLAN_1
  6
CONTINUOUS
 10
-1.255870
 20
-0.691563
  0
SEQEND
  8
0
  0
POLYLINE
  8
PLAN_1
  6
CONTINUOUS
 66
     1
 40
0.007154
 41
0.007154
  0
VERTEX
  8
PLAN_1
  6
CONTINUOUS
 10
-1.255870
 20
-0.691563
  0
VERTEX
  8
PLAN_1
  6
CONTINUOUS
 10
-1.259449
 20
-0.692587
  0
VERTEX
  8
PLAN_1
  6
CONTINUOUS
 10
-1.263028
 20
-0.694630
  0
VERTEX
  8
PLAN_1
  6
CONTINUOUS
 10
-1.266094
 20
-0.696677
  0
VERTEX
  8
PLAN_1
  6
CONTINUOUS
 10
-1.268138
 20
-0.699744
  0
VERTEX
  8
PLAN_1
  6
CONTINUOUS
 10
-1.270185
 20
-0.702811
  0
VERTEX
  8
PLAN_1
  6
CONTINUOUS
 10
-1.271205
 20
-0.706390
  0
VERTEX
  8
PLAN_1
  6
CONTINUOUS
 10
-1.271717
 20
-0.710476
  0
VERTEX
  8
PLAN_1
  6
CONTINUOUS
 10
-1.271717
 20
-0.714567
  0
VERTEX
  8
PLAN_1
  6
CONTINUOUS
 10
-1.270697
 20
-0.718146
  0
VERTEX
  8
PLAN_1
  6
CONTINUOUS
 10
-1.268650
 20
-0.721724
  0
VERTEX
  8
PLAN_1
  6
CONTINUOUS
 10
-1.266606
 20
-0.724791
  0
VERTEX
  8
PLAN_1
  6
CONTINUOUS
 10
-1.263539
 20
-0.726835
  0
VERTEX
  8
PLAN_1
  6
CONTINUOUS
 10
-1.259961
 20
-0.728882
  0
VERTEX
  8
PLAN_1
  6
CONTINUOUS
 10
-1.256382
 20
-0.729902
  0
VERTEX
  8
PLAN_1
  6
CONTINUOUS
 10
-1.252803
 20
-0.730413
  0
VERTEX
  8
PLAN_1
  6
CONTINUOUS
 10
-1.248713
 20
-0.730413
  0
SEQEND
  8
0
  0
POLYLINE
  8
PLAN_1
  6
CONTINUOUS
 66
     1
 40
0.007154
 41
0.007154
  0
VERTEX
  8
PLAN_1
  6
CONTINUOUS
 10
-1.248713
 20
-0.730413
  0
VERTEX
  8
PLAN_1
  6
CONTINUOUS
 10
-1.241047
 20
-0.728882
  0
VERTEX
  8
PLAN_1
  6
CONTINUOUS
 10
-0.900598
 20
-0.668563
  0
VERTEX
  8
PLAN_1
  6
CONTINUOUS
 10
-1.126031
 20
-0.668563
  0
SEQEND
  8
0
  0
POLYLINE
  8
PLAN_1
  6
CONTINUOUS
 66
     1
 40
0.007154
 41
0.007154
  0
VERTEX
  8
PLAN_1
  6
CONTINUOUS
 10
-0.766669
 20
-0.816291
  0
VERTEX
  8
PLAN_1
  6
CONTINUOUS
 10
-0.762583
 20
-0.815272
  0
VERTEX
  8
PLAN_1
  6
CONTINUOUS
 10
-0.759516
 20
-0.813224
  0
VERTEX
  8
PLAN_1
  6
CONTINUOUS
 10
-0.756449
 20
-0.810669
  0
VERTEX
  8
PLAN_1
  6
CONTINUOUS
 10
-0.753890
 20
-0.808114
  0
VERTEX
  8
PLAN_1
  6
CONTINUOUS
 10
-0.751846
 20
-0.804535
  0
VERTEX
  8
PLAN_1
  6
CONTINUOUS
 10
-0.750823
 20
-0.800957
  0
VERTEX
  8
PLAN_1
  6
CONTINUOUS
 10
-0.750315
 20
-0.797378
  0
VERTEX
  8
PLAN_1
  6
CONTINUOUS
 10
-0.750823
 20
-0.793291
  0
VERTEX
  8
PLAN_1
  6
CONTINUOUS
 10
-0.751846
 20
-0.789713
  0
VERTEX
  8
PLAN_1
  6
CONTINUOUS
 10
-0.753382
 20
-0.786134
  0
VERTEX
  8
PLAN_1
  6
CONTINUOUS
 10
-0.755937
 20
-0.783067
  0
VERTEX
  8
PLAN_1
  6
CONTINUOUS
 10
-0.758492
 20
-0.780512
  0
VERTEX
  8
PLAN_1
  6
CONTINUOUS
 10
-0.762071
 20
-0.778976
  0
VERTEX
  8
PLAN_1
  6
CONTINUOUS
 10
-0.765650
 20
-0.777445
  0
VERTEX
  8
PLAN_1
  6
CONTINUOUS
 10
-0.769228
 20
-0.776933
  0
VERTEX
  8
PLAN_1
  6
CONTINUOUS
 10
-0.773315
 20
-0.777445
  0
SEQEND
  8
0
  0
POLYLINE
  8
PLAN_1
  6
CONTINUOUS
 66
     1
 40
0.007154
 41
0.007154
  0
VERTEX
  8
PLAN_1
  6
CONTINUOUS
 10
-0.773315
 20
-0.777445
  0
VERTEX
  8
PLAN_1
  6
CONTINUOUS
 10
-0.785583
 20
-0.779488
  0
VERTEX
  8
PLAN_1
  6
CONTINUOUS
 10
-1.247693
 20
-0.861276
  0
VERTEX
  8
PLAN_1
  6
CONTINUOUS
 10
-1.255358
 20
-0.862811
  0
SEQEND
  8
0
  0
POLYLINE
  8
PLAN_1
  6
CONTINUOUS
 66
     1
 40
0.007154
 41
0.007154
  0
VERTEX
  8
PLAN_1
  6
CONTINUOUS
 10
-1.255358
 20
-0.862811
  0
VERTEX
  8
PLAN_1
  6
CONTINUOUS
 10
-1.259449
 20
-0.863831
  0
VERTEX
  8
PLAN_1
  6
CONTINUOUS
 10
-1.262516
 20
-0.865366
  0
VERTEX
  8
PLAN_1
  6
CONTINUOUS
 10
-1.265583
 20
-0.867921
  0
VERTEX
  8
PLAN_1
  6
CONTINUOUS
 10
-1.268138
 20
-0.870476
  0
VERTEX
  8
PLAN_1
  6
CONTINUOUS
 10
-1.270185
 20
-0.874055
  0
VERTEX
  8
PLAN_1
  6
CONTINUOUS
 10
-1.271205
 20
-0.877634
  0
VERTEX
  8
PLAN_1
  6
CONTINUOUS
 10
-1.271717
 20
-0.881213
  0
VERTEX
  8
PLAN_1
  6
CONTINUOUS
 10
-1.271205
 20
-0.885303
  0
VERTEX
  8
PLAN_1
  6
CONTINUOUS
 10
-1.270185
 20
-0.889390
  0
VERTEX
  8
PLAN_1
  6
CONTINUOUS
 10
-1.268650
 20
-0.892461
  0
VERTEX
  8
PLAN_1
  6
CONTINUOUS
 10
-1.266094
 20
-0.895528
  0
VERTEX
  8
PLAN_1
  6
CONTINUOUS
 10
-1.263539
 20
-0.898083
  0
VERTEX
  8
PLAN_1
  6
CONTINUOUS
 10
-1.259961
 20
-0.900126
  0
VERTEX
  8
PLAN_1
  6
CONTINUOUS
 10
-1.256382
 20
-0.901150
  0
VERTEX
  8
PLAN_1
  6
CONTINUOUS
 10
-1.252803
 20
-0.901661
  0
VERTEX
  8
PLAN_1
  6
CONTINUOUS
 10
-1.248713
 20
-0.901150
  0
SEQEND
  8
0
  0
POLYLINE
  8
PLAN_1
  6
CONTINUOUS
 66
     1
 40
0.007154
 41
0.007154
  0
VERTEX
  8
PLAN_1
  6
CONTINUOUS
 10
-1.248713
 20
-0.901150
  0
VERTEX
  8
PLAN_1
  6
CONTINUOUS
 10
-1.240535
 20
-0.900126
  0
VERTEX
  8
PLAN_1
  6
CONTINUOUS
 10
-0.778941
 20
-0.818339
  0
VERTEX
  8
PLAN_1
  6
CONTINUOUS
 10
-0.766669
 20
-0.816291
  0
SEQEND
  8
0
  0
POLYLINE
  8
PLAN_1
  6
CONTINUOUS
 66
     1
 40
0.007154
 41
0.007154
  0
VERTEX
  8
PLAN_1
  6
CONTINUOUS
 10
-0.762071
 20
-1.072394
  0
VERTEX
  8
PLAN_1
  6
CONTINUOUS
 10
-0.758492
 20
-1.071882
  0
VERTEX
  8
PLAN_1
  6
CONTINUOUS
 10
-0.754402
 20
-1.070862
  0
VERTEX
  8
PLAN_1
  6
CONTINUOUS
 10
-0.751335
 20
-1.068815
  0
VERTEX
  8
PLAN_1
  6
CONTINUOUS
 10
-0.748268
 20
-1.066260
  0
VERTEX
  8
PLAN_1
  6
CONTINUOUS
 10
-0.745713
 20
-1.063705
  0
VERTEX
  8
PLAN_1
  6
CONTINUOUS
 10
-0.744177
 20
-1.060126
  0
VERTEX
  8
PLAN_1
  6
CONTINUOUS
 10
-0.743157
 20
-1.056547
  0
VERTEX
  8
PLAN_1
  6
CONTINUOUS
 10
-0.742646
 20
-1.052457
  0
VERTEX
  8
PLAN_1
  6
CONTINUOUS
 10
-0.743157
 20
-1.048882
  0
VERTEX
  8
PLAN_1
  6
CONTINUOUS
 10
-0.744177
 20
-1.044791
  0
VERTEX
  8
PLAN_1
  6
CONTINUOUS
 10
-0.745713
 20
-1.041724
  0
VERTEX
  8
PLAN_1
  6
CONTINUOUS
 10
-0.748268
 20
-1.038657
  0
VERTEX
  8
PLAN_1
  6
CONTINUOUS
 10
-0.751335
 20
-1.036102
  0
VERTEX
  8
PLAN_1
  6
CONTINUOUS
 10
-0.754402
 20
-1.034567
  0
VERTEX
  8
PLAN_1
  6
CONTINUOUS
 10
-0.758492
 20
-1.033543
  0
VERTEX
  8
PLAN_1
  6
CONTINUOUS
 10
-0.762071
 20
-1.033035
  0
SEQEND
  8
0
  0
POLYLINE
  8
PLAN_1
  6
CONTINUOUS
 66
     1
 40
0.007154
 41
0.007154
  0
VERTEX
  8
PLAN_1
  6
CONTINUOUS
 10
-0.762071
 20
-1.033035
  0
VERTEX
  8
PLAN_1
  6
CONTINUOUS
 10
-0.774339
 20
-1.033035
  0
VERTEX
  8
PLAN_1
  6
CONTINUOUS
 10
-1.243602
 20
-1.033035
  0
VERTEX
  8
PLAN_1
  6
CONTINUOUS
 10
-1.251783
 20
-1.033035
  0
SEQEND
  8
0
  0
POLYLINE
  8
PLAN_1
  6
CONTINUOUS
 66
     1
 40
0.007154
 41
0.007154
  0
VERTEX
  8
PLAN_1
  6
CONTINUOUS
 10
-1.251783
 20
-1.033035
  0
VERTEX
  8
PLAN_1
  6
CONTINUOUS
 10
-1.255870
 20
-1.033543
  0
VERTEX
  8
PLAN_1
  6
CONTINUOUS
 10
-1.259449
 20
-1.034567
  0
VERTEX
  8
PLAN_1
  6
CONTINUOUS
 10
-1.262516
 20
-1.036610
  0
VERTEX
  8
PLAN_1
  6
CONTINUOUS
 10
-1.265583
 20
-1.038657
  0
VERTEX
  8
PLAN_1
  6
CONTINUOUS
 10
-1.268138
 20
-1.041724
  0
VERTEX
  8
PLAN_1
  6
CONTINUOUS
 10
-1.269673
 20
-1.045303
  0
VERTEX
  8
PLAN_1
  6
CONTINUOUS
 10
-1.271205
 20
-1.048882
  0
VERTEX
  8
PLAN_1
  6
CONTINUOUS
 10
-1.271205
 20
-1.052969
  0
VERTEX
  8
PLAN_1
  6
CONTINUOUS
 10
-1.271205
 20
-1.056547
  0
VERTEX
  8
PLAN_1
  6
CONTINUOUS
 10
-1.269673
 20
-1.060638
  0
VERTEX
  8
PLAN_1
  6
CONTINUOUS
 10
-1.268138
 20
-1.063705
  0
VERTEX
  8
PLAN_1
  6
CONTINUOUS
 10
-1.265583
 20
-1.066772
  0
VERTEX
  8
PLAN_1
  6
CONTINUOUS
 10
-1.262516
 20
-1.069327
  0
VERTEX
  8
PLAN_1
  6
CONTINUOUS
 10
-1.259449
 20
-1.070862
  0
VERTEX
  8
PLAN_1
  6
CONTINUOUS
 10
-1.255870
 20
-1.071882
  0
VERTEX
  8
PLAN_1
  6
CONTINUOUS
 10
-1.251783
 20
-1.072394
  0
SEQEND
  8
0
  0
POLYLINE
  8
PLAN_1
  6
CONTINUOUS
 66
     1
 40
0.007154
 41
0.007154
  0
VERTEX
  8
PLAN_1
  6
CONTINUOUS
 10
-1.251783
 20
-1.072394
  0
VERTEX
  8
PLAN_1
  6
CONTINUOUS
 10
-1.243602
 20
-1.072394
  0
VERTEX
  8
PLAN_1
  6
CONTINUOUS
 10
-0.774339
 20
-1.072394
  0
VERTEX
  8
PLAN_1
  6
CONTINUOUS
 10
-0.762071
 20
-1.072394
  0
SEQEND
  8
0
  0
POLYLINE
  8
PLAN_1
  6
CONTINUOUS
 66
     1
 40
0.008177
 41
0.008177
  0
VERTEX
  8
PLAN_1
  6
CONTINUOUS
 10
-0.476831
 20
0.618591
  0
VERTEX
  8
PLAN_1
  6
CONTINUOUS
 10
-0.476831
 20
0.737185
  0
VERTEX
  8
PLAN_1
  6
CONTINUOUS
 10
-1.537020
 20
0.737185
  0
VERTEX
  8
PLAN_1
  6
CONTINUOUS
 10
-1.537531
 20
0.618591
  0
SEQEND
  8
0
  0
POLYLINE
  8
PLAN_1
  6
CONTINUOUS
 66
     1
 40
0.008177
 41
0.008177
  0
VERTEX
  8
PLAN_1
  6
CONTINUOUS
 10
-1.274783
 20
0.619614
  0
VERTEX
  8
PLAN_1
  6
CONTINUOUS
 10
-1.537020
 20
0.619614
  0
VERTEX
  8
PLAN_1
  6
CONTINUOUS
 10
-1.537020
 20
0.678402
  0
VERTEX
  8
PLAN_1
  6
CONTINUOUS
 10
-1.274783
 20
0.678402
  0
SEQEND
  8
0
  0
POLYLINE
  8
PLAN_1
  6
CONTINUOUS
 66
     1
 40
0.008177
 41
0.008177
  0
VERTEX
  8
PLAN_1
  6
CONTINUOUS
 10
-1.381110
 20
0.655909
  0
VERTEX
  8
PLAN_1
  6
CONTINUOUS
 10
-1.381110
 20
0.678402
  0
VERTEX
  8
PLAN_1
  6
CONTINUOUS
 10
-1.428138
 20
0.678402
  0
VERTEX
  8
PLAN_1
  6
CONTINUOUS
 10
-1.428138
 20
0.655909
  0
VERTEX
  8
PLAN_1
  6
CONTINUOUS
 10
-1.381110
 20
0.655909
  0
SEQEND
  8
0
  0
POLYLINE
  8
PLAN_1
  6
CONTINUOUS
 66
     1
 40
0.008177
 41
0.008177
  0
VERTEX
  8
PLAN_1
  6
CONTINUOUS
 10
-0.728331
 20
0.678402
  0
VERTEX
  8
PLAN_1
  6
CONTINUOUS
 10
-0.479386
 20
0.678402
  0
VERTEX
  8
PLAN_1
  6
CONTINUOUS
 10
-0.479386
 20
0.619614
  0
VERTEX
  8
PLAN_1
  6
CONTINUOUS
 10
-0.728331
 20
0.619614
  0
SEQEND
  8
0
  0
POLYLINE
  8
PLAN_1
  6
CONTINUOUS
 66
     1
 40
0.008177
 41
0.008177
  0
VERTEX
  8
PLAN_1
  6
CONTINUOUS
 10
-0.587756
 20
0.655909
  0
VERTEX
  8
PLAN_1
  6
CONTINUOUS
 10
-0.587756
 20
0.678402
  0
VERTEX
  8
PLAN_1
  6
CONTINUOUS
 10
-0.634787
 20
0.678402
  0
VERTEX
  8
PLAN_1
  6
CONTINUOUS
 10
-0.634787
 20
0.655909
  0
VERTEX
  8
PLAN_1
  6
CONTINUOUS
 10
-0.587756
 20
0.655909
  0
SEQEND
  8
0
  0
POLYLINE
  8
PLAN_1
  6
CONTINUOUS
 66
     1
 40
0.005622
 41
0.005622
  0
VERTEX
  8
PLAN_1
  6
CONTINUOUS
 10
-1.036575
 20
0.539870
  0
VERTEX
  8
PLAN_1
  6
CONTINUOUS
 10
-1.036575
 20
0.491819
  0
SEQEND
  8
0
  0
POLYLINE
  8
PLAN_1
  6
CONTINUOUS
 66
     1
 40
0.007154
 41
0.007154
  0
VERTEX
  8
PLAN_1
  6
CONTINUOUS
 10
-1.255870
 20
0.560831
  0
VERTEX
  8
PLAN_1
  6
CONTINUOUS
 10
-1.255870
 20
0.562874
  0
VERTEX
  8
PLAN_1
  6
CONTINUOUS
 10
-1.255870
 20
0.568496
  0
VERTEX
  8
PLAN_1
  6
CONTINUOUS
 10
-1.255870
 20
0.576677
  0
VERTEX
  8
PLAN_1
  6
CONTINUOUS
 10
-1.255870
 20
0.586390
  0
VERTEX
  8
PLAN_1
  6
CONTINUOUS
 10
-1.255870
 20
0.596098
  0
VERTEX
  8
PLAN_1
  6
CONTINUOUS
 10
-1.255870
 20
0.604791
  0
VERTEX
  8
PLAN_1
  6
CONTINUOUS
 10
-1.255870
 20
0.610925
  0
VERTEX
  8
PLAN_1
  6
CONTINUOUS
 10
-1.255870
 20
0.612969
  0
SEQEND
  8
0
  0
POLYLINE
  8
PLAN_1
  6
CONTINUOUS
 66
     1
 40
0.007154
 41
0.007154
  0
VERTEX
  8
PLAN_1
  6
CONTINUOUS
 10
-1.235425
 20
0.560831
  0
VERTEX
  8
PLAN_1
  6
CONTINUOUS
 10
-1.234913
 20
0.612969
  0
SEQEND
  8
0
  0
POLYLINE
  8
PLAN_1
  6
CONTINUOUS
 66
     1
 40
0.005622
 41
0.005622
  0
VERTEX
  8
PLAN_1
  6
CONTINUOUS
 10
-0.770760
 20
0.304728
  0
VERTEX
  8
PLAN_1
  6
CONTINUOUS
 10
-0.633252
 20
0.304728
  0
SEQEND
  8
0
  0
POLYLINE
  8
PLAN_1
  6
CONTINUOUS
 66
     1
 40
0.005622
 41
0.005622
  0
VERTEX
  8
PLAN_1
  6
CONTINUOUS
 10
-0.633252
 20
0.304728
  0
VERTEX
  8
PLAN_1
  6
CONTINUOUS
 10
-0.635299
 20
0.324154
  0
VERTEX
  8
PLAN_1
  6
CONTINUOUS
 10
-0.638366
 20
0.343067
  0
VERTEX
  8
PLAN_1
  6
CONTINUOUS
 10
-0.642453
 20
0.361469
  0
VERTEX
  8
PLAN_1
  6
CONTINUOUS
 10
-0.647567
 20
0.379870
  0
VERTEX
  8
PLAN_1
  6
CONTINUOUS
 10
-0.653189
 20
0.397252
  0
VERTEX
  8
PLAN_1
  6
CONTINUOUS
 10
-0.659835
 20
0.414630
  0
VERTEX
  8
PLAN_1
  6
CONTINUOUS
 10
-0.667500
 20
0.432012
  0
VERTEX
  8
PLAN_1
  6
CONTINUOUS
 10
-0.675681
 20
0.448370
  0
VERTEX
  8
PLAN_1
  6
CONTINUOUS
 10
-0.684882
 20
0.464217
  0
VERTEX
  8
PLAN_1
  6
CONTINUOUS
 10
-0.694594
 20
0.480063
  0
VERTEX
  8
PLAN_1
  6
CONTINUOUS
 10
-0.705331
 20
0.494886
  0
VERTEX
  8
PLAN_1
  6
CONTINUOUS
 10
-0.716575
 20
0.509201
  0
VERTEX
  8
PLAN_1
  6
CONTINUOUS
 10
-0.728843
 20
0.523000
  0
VERTEX
  8
PLAN_1
  6
CONTINUOUS
 10
-0.741110
 20
0.536291
  0
VERTEX
  8
PLAN_1
  6
CONTINUOUS
 10
-0.754402
 20
0.549071
  0
VERTEX
  8
PLAN_1
  6
CONTINUOUS
 10
-0.768717
 20
0.560831
  0
SEQEND
  8
0
  0
POLYLINE
  8
PLAN_1
  6
CONTINUOUS
 66
     1
 40
0.005622
 41
0.005622
  0
VERTEX
  8
PLAN_1
  6
CONTINUOUS
 10
-0.963988
 20
0.539358
  0
VERTEX
  8
PLAN_1
  6
CONTINUOUS
 10
-0.963988
 20
0.491819
  0
SEQEND
  8
0
  0
POLYLINE
  8
PLAN_1
  6
CONTINUOUS
 66
     1
 40
0.005622
 41
0.005622
  0
VERTEX
  8
PLAN_1
  6
CONTINUOUS
 10
-0.767181
 20
0.232138
  0
VERTEX
  8
PLAN_1
  6
CONTINUOUS
 10
-0.634276
 20
0.232138
  0
SEQEND
  8
0
  0
POLYLINE
  8
PLAN_1
  6
CONTINUOUS
 66
     1
 40
0.005622
 41
0.005622
  0
VERTEX
  8
PLAN_1
  6
CONTINUOUS
 10
-0.634276
 20
0.232138
  0
VERTEX
  8
PLAN_1
  6
CONTINUOUS
 10
-0.636319
 20
0.215783
  0
VERTEX
  8
PLAN_1
  6
CONTINUOUS
 10
-0.639386
 20
0.199933
  0
VERTEX
  8
PLAN_1
  6
CONTINUOUS
 10
-0.642453
 20
0.184598
  0
VERTEX
  8
PLAN_1
  6
CONTINUOUS
 10
-0.647055
 20
0.169264
  0
VERTEX
  8
PLAN_1
  6
CONTINUOUS
 10
-0.651654
 20
0.154441
  0
VERTEX
  8
PLAN_1
  6
CONTINUOUS
 10
-0.656768
 20
0.139614
  0
VERTEX
  8
PLAN_1
  6
CONTINUOUS
 10
-0.662902
 20
0.124791
  0
VERTEX
  8
PLAN_1
  6
CONTINUOUS
 10
-0.669547
 20
0.110988
  0
VERTEX
  8
PLAN_1
  6
CONTINUOUS
 10
-0.676705
 20
0.097189
  0
VERTEX
  8
PLAN_1
  6
CONTINUOUS
 10
-0.684370
 20
0.083386
  0
VERTEX
  8
PLAN_1
  6
CONTINUOUS
 10
-0.692551
 20
0.070606
  0
VERTEX
  8
PLAN_1
  6
CONTINUOUS
 10
-0.701240
 20
0.057827
  0
VERTEX
  8
PLAN_1
  6
CONTINUOUS
 10
-0.710441
 20
0.045559
  0
VERTEX
  8
PLAN_1
  6
CONTINUOUS
 10
-0.720665
 20
0.033291
  0
VERTEX
  8
PLAN_1
  6
CONTINUOUS
 10
-0.730890
 20
0.022043
  0
VERTEX
  8
PLAN_1
  6
CONTINUOUS
 10
-0.741622
 20
0.010799
  0
VERTEX
  8
PLAN_1
  6
CONTINUOUS
 10
-0.752358
 20
0.000063
  0
VERTEX
  8
PLAN_1
  6
CONTINUOUS
 10
-0.764114
 20
-0.010161
  0
VERTEX
  8
PLAN_1
  6
CONTINUOUS
 10
-0.776382
 20
-0.019362
  0
VERTEX
  8
PLAN_1
  6
CONTINUOUS
 10
-0.788654
 20
-0.028563
  0
VERTEX
  8
PLAN_1
  6
CONTINUOUS
 10
-0.801433
 20
-0.037252
  0
VERTEX
  8
PLAN_1
  6
CONTINUOUS
 10
-0.814720
 20
-0.045433
  0
VERTEX
  8
PLAN_1
  6
CONTINUOUS
 10
-0.828012
 20
-0.053098
  0
VERTEX
  8
PLAN_1
  6
CONTINUOUS
 10
-0.841815
 20
-0.060256
  0
VERTEX
  8
PLAN_1
  6
CONTINUOUS
 10
-0.856126
 20
-0.066390
  0
VERTEX
  8
PLAN_1
  6
CONTINUOUS
 10
-0.870953
 20
-0.072524
  0
VERTEX
  8
PLAN_1
  6
CONTINUOUS
 10
-0.885776
 20
-0.077638
  0
VERTEX
  8
PLAN_1
  6
CONTINUOUS
 10
-0.900598
 20
-0.082236
  0
VERTEX
  8
PLAN_1
  6
CONTINUOUS
 10
-0.915937
 20
-0.086327
  0
VERTEX
  8
PLAN_1
  6
CONTINUOUS
 10
-0.931783
 20
-0.089906
  0
VERTEX
  8
PLAN_1
  6
CONTINUOUS
 10
-0.947630
 20
-0.092461
  0
VERTEX
  8
PLAN_1
  6
CONTINUOUS
 10
-0.963476
 20
-0.094504
  0
SEQEND
  8
0
  0
POLYLINE
  8
PLAN_1
  6
CONTINUOUS
 66
     1
 40
0.005622
 41
0.005622
  0
VERTEX
  8
PLAN_1
  6
CONTINUOUS
 10
-0.963476
 20
-0.094504
  0
VERTEX
  8
PLAN_1
  6
CONTINUOUS
 10
-0.963988
 20
0.026134
  0
SEQEND
  8
0
  0
POLYLINE
  8
PLAN_1
  6
CONTINUOUS
 66
     1
 40
0.007154
 41
0.007154
  0
VERTEX
  8
PLAN_1
  6
CONTINUOUS
 10
-0.768717
 20
0.560831
  0
VERTEX
  8
PLAN_1
  6
CONTINUOUS
 10
-0.768717
 20
0.612457
  0
SEQEND
  8
0
  0
POLYLINE
  8
PLAN_1
  6
CONTINUOUS
 66
     1
 40
0.007154
 41
0.007154
  0
VERTEX
  8
PLAN_1
  6
CONTINUOUS
 10
-0.747756
 20
0.560831
  0
VERTEX
  8
PLAN_1
  6
CONTINUOUS
 10
-0.748268
 20
0.612457
  0
SEQEND
  8
0
  0
POLYLINE
  8
PLAN_1
  6
CONTINUOUS
 66
     1
 40
0.007154
 41
0.007154
  0
VERTEX
  8
PLAN_1
  6
CONTINUOUS
 10
-0.779961
 20
0.540382
  0
VERTEX
  8
PLAN_1
  6
CONTINUOUS
 10
-0.779961
 20
0.612969
  0
VERTEX
  8
PLAN_1
  6
CONTINUOUS
 10
-1.213953
 20
0.612969
  0
VERTEX
  8
PLAN_1
  6
CONTINUOUS
 10
-1.213953
 20
0.540382
  0
VERTEX
  8
PLAN_1
  6
CONTINUOUS
 10
-0.779961
 20
0.540382
  0
SEQEND
  8
0
  0
POLYLINE
  8
PLAN_1
  6
CONTINUOUS
 66
     1
 40
0.007154
 41
0.007154
  0
VERTEX
  8
PLAN_1
  6
CONTINUOUS
 10
-1.001815
 20
0.023067
  0
VERTEX
  8
PLAN_1
  6
CONTINUOUS
 10
-0.989547
 20
0.023579
  0
VERTEX
  8
PLAN_1
  6
CONTINUOUS
 10
-0.977276
 20
0.024598
  0
VERTEX
  8
PLAN_1
  6
CONTINUOUS
 10
-0.965520
 20
0.026134
  0
VERTEX
  8
PLAN_1
  6
CONTINUOUS
 10
-0.954276
 20
0.028177
  0
VERTEX
  8
PLAN_1
  6
CONTINUOUS
 10
-0.942516
 20
0.030732
  0
VERTEX
  8
PLAN_1
  6
CONTINUOUS
 10
-0.931272
 20
0.033803
  0
VERTEX
  8
PLAN_1
  6
CONTINUOUS
 10
-0.920535
 20
0.037378
  0
VERTEX
  8
PLAN_1
  6
CONTINUOUS
 10
-0.909803
 20
0.041980
  0
VERTEX
  8
PLAN_1
  6
CONTINUOUS
 10
-0.899579
 20
0.046583
  0
VERTEX
  8
PLAN_1
  6
CONTINUOUS
 10
-0.889354
 20
0.051693
  0
VERTEX
  8
PLAN_1
  6
CONTINUOUS
 10
-0.879130
 20
0.057315
  0
VERTEX
  8
PLAN_1
  6
CONTINUOUS
 10
-0.869929
 20
0.063449
  0
VERTEX
  8
PLAN_1
  6
CONTINUOUS
 10
-0.860728
 20
0.070094
  0
VERTEX
  8
PLAN_1
  6
CONTINUOUS
 10
-0.851528
 20
0.077252
  0
VERTEX
  8
PLAN_1
  6
CONTINUOUS
 10
-0.843346
 20
0.084409
  0
VERTEX
  8
PLAN_1
  6
CONTINUOUS
 10
-0.835169
 20
0.092075
  0
VERTEX
  8
PLAN_1
  6
CONTINUOUS
 10
-0.826992
 20
0.100256
  0
VERTEX
  8
PLAN_1
  6
CONTINUOUS
 10
-0.819835
 20
0.108945
  0
VERTEX
  8
PLAN_1
  6
CONTINUOUS
 10
-0.812677
 20
0.118146
  0
VERTEX
  8
PLAN_1
  6
CONTINUOUS
 10
-0.806031
 20
0.127346
  0
VERTEX
  8
PLAN_1
  6
CONTINUOUS
 10
-0.799898
 20
0.136547
  0
VERTEX
  8
PLAN_1
  6
CONTINUOUS
 10
-0.794276
 20
0.146772
  0
VERTEX
  8
PLAN_1
  6
CONTINUOUS
 10
-0.789161
 20
0.156996
  0
VERTEX
  8
PLAN_1
  6
CONTINUOUS
 10
-0.784563
 20
0.167220
  0
VERTEX
  8
PLAN_1
  6
CONTINUOUS
 10
-0.779961
 20
0.177953
  0
VERTEX
  8
PLAN_1
  6
CONTINUOUS
 10
-0.776382
 20
0.188689
  0
VERTEX
  8
PLAN_1
  6
CONTINUOUS
 10
-0.773315
 20
0.199933
  0
VERTEX
  8
PLAN_1
  6
CONTINUOUS
 10
-0.770760
 20
0.211693
  0
VERTEX
  8
PLAN_1
  6
CONTINUOUS
 10
-0.768717
 20
0.222937
  0
VERTEX
  8
PLAN_1
  6
CONTINUOUS
 10
-0.767181
 20
0.234697
  0
VERTEX
  8
PLAN_1
  6
CONTINUOUS
 10
-0.766161
 20
0.246965
  0
VERTEX
  8
PLAN_1
  6
CONTINUOUS
 10
-0.765650
 20
0.258720
  0
VERTEX
  8
PLAN_1
  6
CONTINUOUS
 10
-0.766161
 20
0.270988
  0
VERTEX
  8
PLAN_1
  6
CONTINUOUS
 10
-0.767181
 20
0.283256
  0
VERTEX
  8
PLAN_1
  6
CONTINUOUS
 10
-0.768717
 20
0.295016
  0
VERTEX
  8
PLAN_1
  6
CONTINUOUS
 10
-0.770760
 20
0.306260
  0
VERTEX
  8
PLAN_1
  6
CONTINUOUS
 10
-0.773315
 20
0.318020
  0
VERTEX
  8
PLAN_1
  6
CONTINUOUS
 10
-0.776382
 20
0.329264
  0
VERTEX
  8
PLAN_1
  6
CONTINUOUS
 10
-0.779961
 20
0.340000
  0
VERTEX
  8
PLAN_1
  6
CONTINUOUS
 10
-0.784563
 20
0.350732
  0
VERTEX
  8
PLAN_1
  6
CONTINUOUS
 10
-0.789161
 20
0.360957
  0
VERTEX
  8
PLAN_1
  6
CONTINUOUS
 10
-0.794276
 20
0.371181
  0
VERTEX
  8
PLAN_1
  6
CONTINUOUS
 10
-0.799898
 20
0.381406
  0
VERTEX
  8
PLAN_1
  6
CONTINUOUS
 10
-0.806031
 20
0.390606
  0
VERTEX
  8
PLAN_1
  6
CONTINUOUS
 10
-0.812677
 20
0.399807
  0
VERTEX
  8
PLAN_1
  6
CONTINUOUS
 10
-0.819835
 20
0.409008
  0
VERTEX
  8
PLAN_1
  6
CONTINUOUS
 10
-0.826992
 20
0.417697
  0
VERTEX
  8
PLAN_1
  6
CONTINUOUS
 10
-0.835169
 20
0.425878
  0
VERTEX
  8
PLAN_1
  6
CONTINUOUS
 10
-0.843346
 20
0.433543
  0
VERTEX
  8
PLAN_1
  6
CONTINUOUS
 10
-0.851528
 20
0.440701
  0
VERTEX
  8
PLAN_1
  6
CONTINUOUS
 10
-0.860728
 20
0.447858
  0
VERTEX
  8
PLAN_1
  6
CONTINUOUS
 10
-0.869929
 20
0.454504
  0
VERTEX
  8
PLAN_1
  6
CONTINUOUS
 10
-0.879130
 20
0.460638
  0
VERTEX
  8
PLAN_1
  6
CONTINUOUS
 10
-0.889354
 20
0.466260
  0
VERTEX
  8
PLAN_1
  6
CONTINUOUS
 10
-0.899579
 20
0.471374
  0
VERTEX
  8
PLAN_1
  6
CONTINUOUS
 10
-0.909803
 20
0.475972
  0
VERTEX
  8
PLAN_1
  6
CONTINUOUS
 10
-0.920535
 20
0.480575
  0
VERTEX
  8
PLAN_1
  6
CONTINUOUS
 10
-0.931272
 20
0.484154
  0
VERTEX
  8
PLAN_1
  6
CONTINUOUS
 10
-0.942516
 20
0.487220
  0
VERTEX
  8
PLAN_1
  6
CONTINUOUS
 10
-0.954276
 20
0.489776
  0
VERTEX
  8
PLAN_1
  6
CONTINUOUS
 10
-0.965520
 20
0.491819
  0
VERTEX
  8
PLAN_1
  6
CONTINUOUS
 10
-0.977276
 20
0.493354
  0
VERTEX
  8
PLAN_1
  6
CONTINUOUS
 10
-0.989547
 20
0.494374
  0
VERTEX
  8
PLAN_1
  6
CONTINUOUS
 10
-1.001815
 20
0.494886
  0
VERTEX
  8
PLAN_1
  6
CONTINUOUS
 10
-1.013571
 20
0.494374
  0
VERTEX
  8
PLAN_1
  6
CONTINUOUS
 10
-1.025839
 20
0.493354
  0
VERTEX
  8
PLAN_1
  6
CONTINUOUS
 10
-1.037598
 20
0.491819
  0
VERTEX
  8
PLAN_1
  6
CONTINUOUS
 10
-1.049354
 20
0.489776
  0
VERTEX
  8
PLAN_1
  6
CONTINUOUS
 10
-1.060598
 20
0.487220
  0
VERTEX
  8
PLAN_1
  6
CONTINUOUS
 10
-1.071846
 20
0.484154
  0
VERTEX
  8
PLAN_1
  6
CONTINUOUS
 10
-1.082583
 20
0.480575
  0
VERTEX
  8
PLAN_1
  6
CONTINUOUS
 10
-1.093315
 20
0.475972
  0
VERTEX
  8
PLAN_1
  6
CONTINUOUS
 10
-1.104051
 20
0.471374
  0
VERTEX
  8
PLAN_1
  6
CONTINUOUS
 10
-1.113764
 20
0.466260
  0
VERTEX
  8
PLAN_1
  6
CONTINUOUS
 10
-1.123988
 20
0.460638
  0
VERTEX
  8
PLAN_1
  6
CONTINUOUS
 10
-1.133189
 20
0.454504
  0
VERTEX
  8
PLAN_1
  6
CONTINUOUS
 10
-1.142902
 20
0.447858
  0
VERTEX
  8
PLAN_1
  6
CONTINUOUS
 10
-1.151591
 20
0.440701
  0
VERTEX
  8
PLAN_1
  6
CONTINUOUS
 10
-1.160280
 20
0.433543
  0
VERTEX
  8
PLAN_1
  6
CONTINUOUS
 10
-1.168461
 20
0.425878
  0
VERTEX
  8
PLAN_1
  6
CONTINUOUS
 10
-1.176126
 20
0.417697
  0
VERTEX
  8
PLAN_1
  6
CONTINUOUS
 10
-1.183283
 20
0.409008
  0
VERTEX
  8
PLAN_1
  6
CONTINUOUS
 10
-1.190441
 20
0.399807
  0
VERTEX
  8
PLAN_1
  6
CONTINUOUS
 10
-1.197087
 20
0.390606
  0
VERTEX
  8
PLAN_1
  6
CONTINUOUS
 10
-1.203220
 20
0.381406
  0
VERTEX
  8
PLAN_1
  6
CONTINUOUS
 10
-1.208843
 20
0.371181
  0
VERTEX
  8
PLAN_1
  6
CONTINUOUS
 10
-1.213953
 20
0.360957
  0
VERTEX
  8
PLAN_1
  6
CONTINUOUS
 10
-1.218555
 20
0.350732
  0
VERTEX
  8
PLAN_1
  6
CONTINUOUS
 10
-1.223154
 20
0.340000
  0
VERTEX
  8
PLAN_1
  6
CONTINUOUS
 10
-1.226732
 20
0.329264
  0
VERTEX
  8
PLAN_1
  6
CONTINUOUS
 10
-1.229799
 20
0.318020
  0
VERTEX
  8
PLAN_1
  6
CONTINUOUS
 10
-1.232358
 20
0.306260
  0
VERTEX
  8
PLAN_1
  6
CONTINUOUS
 10
-1.234402
 20
0.295016
  0
VERTEX
  8
PLAN_1
  6
CONTINUOUS
 10
-1.235933
 20
0.283256
  0
VERTEX
  8
PLAN_1
  6
CONTINUOUS
 10
-1.236957
 20
0.270988
  0
VERTEX
  8
PLAN_1
  6
CONTINUOUS
 10
-1.237469
 20
0.258720
  0
VERTEX
  8
PLAN_1
  6
CONTINUOUS
 10
-1.236957
 20
0.246965
  0
VERTEX
  8
PLAN_1
  6
CONTINUOUS
 10
-1.235933
 20
0.234697
  0
VERTEX
  8
PLAN_1
  6
CONTINUOUS
 10
-1.234402
 20
0.222937
  0
VERTEX
  8
PLAN_1
  6
CONTINUOUS
 10
-1.232358
 20
0.211693
  0
VERTEX
  8
PLAN_1
  6
CONTINUOUS
 10
-1.229799
 20
0.199933
  0
VERTEX
  8
PLAN_1
  6
CONTINUOUS
 10
-1.226732
 20
0.188689
  0
VERTEX
  8
PLAN_1
  6
CONTINUOUS
 10
-1.223154
 20
0.177953
  0
VERTEX
  8
PLAN_1
  6
CONTINUOUS
 10
-1.218555
 20
0.167220
  0
VERTEX
  8
PLAN_1
  6
CONTINUOUS
 10
-1.213953
 20
0.156996
  0
VERTEX
  8
PLAN_1
  6
CONTINUOUS
 10
-1.208843
 20
0.146772
  0
VERTEX
  8
PLAN_1
  6
CONTINUOUS
 10
-1.203220
 20
0.136547
  0
VERTEX
  8
PLAN_1
  6
CONTINUOUS
 10
-1.197087
 20
0.127346
  0
VERTEX
  8
PLAN_1
  6
CONTINUOUS
 10
-1.190441
 20
0.118146
  0
VERTEX
  8
PLAN_1
  6
CONTINUOUS
 10
-1.183283
 20
0.108945
  0
VERTEX
  8
PLAN_1
  6
CONTINUOUS
 10
-1.176126
 20
0.100256
  0
VERTEX
  8
PLAN_1
  6
CONTINUOUS
 10
-1.168461
 20
0.092075
  0
VERTEX
  8
PLAN_1
  6
CONTINUOUS
 10
-1.160280
 20
0.084409
  0
VERTEX
  8
PLAN_1
  6
CONTINUOUS
 10
-1.151591
 20
0.077252
  0
VERTEX
  8
PLAN_1
  6
CONTINUOUS
 10
-1.142902
 20
0.070094
  0
VERTEX
  8
PLAN_1
  6
CONTINUOUS
 10
-1.133189
 20
0.063449
  0
VERTEX
  8
PLAN_1
  6
CONTINUOUS
 10
-1.123988
 20
0.057315
  0
VERTEX
  8
PLAN_1
  6
CONTINUOUS
 10
-1.113764
 20
0.051693
  0
VERTEX
  8
PLAN_1
  6
CONTINUOUS
 10
-1.104051
 20
0.046583
  0
VERTEX
  8
PLAN_1
  6
CONTINUOUS
 10
-1.093315
 20
0.041980
  0
VERTEX
  8
PLAN_1
  6
CONTINUOUS
 10
-1.082583
 20
0.037378
  0
VERTEX
  8
PLAN_1
  6
CONTINUOUS
 10
-1.071846
 20
0.033803
  0
VERTEX
  8
PLAN_1
  6
CONTINUOUS
 10
-1.060598
 20
0.030732
  0
VERTEX
  8
PLAN_1
  6
CONTINUOUS
 10
-1.049354
 20
0.028177
  0
VERTEX
  8
PLAN_1
  6
CONTINUOUS
 10
-1.037598
 20
0.026134
  0
VERTEX
  8
PLAN_1
  6
CONTINUOUS
 10
-1.025839
 20
0.024598
  0
VERTEX
  8
PLAN_1
  6
CONTINUOUS
 10
-1.013571
 20
0.023579
  0
VERTEX
  8
PLAN_1
  6
CONTINUOUS
 10
-1.001815
 20
0.023067
  0
SEQEND
  8
0
  0
POLYLINE
  8
PLAN_1
  6
CONTINUOUS
 66
     1
 40
0.007154
 41
0.007154
  0
VERTEX
  8
PLAN_1
  6
CONTINUOUS
 10
-1.012547
 20
0.487728
  0
VERTEX
  8
PLAN_1
  6
CONTINUOUS
 10
-0.809610
 20
0.378846
  0
VERTEX
  8
PLAN_1
  6
CONTINUOUS
 10
-0.809610
 20
0.138594
  0
VERTEX
  8
PLAN_1
  6
CONTINUOUS
 10
-1.012547
 20
0.026646
  0
VERTEX
  8
PLAN_1
  6
CONTINUOUS
 10
-1.205776
 20
0.138594
  0
VERTEX
  8
PLAN_1
  6
CONTINUOUS
 10
-1.205776
 20
0.378846
  0
VERTEX
  8
PLAN_1
  6
CONTINUOUS
 10
-1.012547
 20
0.487728
  0
SEQEND
  8
0
  0
POLYLINE
  8
PLAN_1
  6
CONTINUOUS
 66
     1
 40
0.008177
 41
0.008177
  0
VERTEX
  8
PLAN_1
  6
CONTINUOUS
 10
-1.008461
 20
0.140126
  0
VERTEX
  8
PLAN_1
  6
CONTINUOUS
 10
-1.002835
 20
0.140126
  0
VERTEX
  8
PLAN_1
  6
CONTINUOUS
 10
-0.996701
 20
0.140638
  0
VERTEX
  8
PLAN_1
  6
CONTINUOUS
 10
-0.990567
 20
0.141661
  0
VERTEX
  8
PLAN_1
  6
CONTINUOUS
 10
-0.984945
 20
0.142681
  0
VERTEX
  8
PLAN_1
  6
CONTINUOUS
 10
-0.979323
 20
0.143705
  0
VERTEX
  8
PLAN_1
  6
CONTINUOUS
 10
-0.973701
 20
0.145748
  0
VERTEX
  8
PLAN_1
  6
CONTINUOUS
 10
-0.968075
 20
0.147283
  0
VERTEX
  8
PLAN_1
  6
CONTINUOUS
 10
-0.962965
 20
0.149327
  0
VERTEX
  8
PLAN_1
  6
CONTINUOUS
 10
-0.957854
 20
0.151886
  0
VERTEX
  8
PLAN_1
  6
CONTINUOUS
 10
-0.952740
 20
0.154441
  0
VERTEX
  8
PLAN_1
  6
CONTINUOUS
 10
-0.947630
 20
0.157508
  0
VERTEX
  8
PLAN_1
  6
CONTINUOUS
 10
-0.943028
 20
0.160575
  0
VERTEX
  8
PLAN_1
  6
CONTINUOUS
 10
-0.938429
 20
0.163642
  0
VERTEX
  8
PLAN_1
  6
CONTINUOUS
 10
-0.933827
 20
0.167220
  0
VERTEX
  8
PLAN_1
  6
CONTINUOUS
 10
-0.929228
 20
0.170799
  0
VERTEX
  8
PLAN_1
  6
CONTINUOUS
 10
-0.925138
 20
0.174886
  0
VERTEX
  8
PLAN_1
  6
CONTINUOUS
 10
-0.921559
 20
0.178976
  0
VERTEX
  8
PLAN_1
  6
CONTINUOUS
 10
-0.917980
 20
0.183067
  0
VERTEX
  8
PLAN_1
  6
CONTINUOUS
 10
-0.914402
 20
0.187665
  0
VERTEX
  8
PLAN_1
  6
CONTINUOUS
 10
-0.910823
 20
0.192268
  0
VERTEX
  8
PLAN_1
  6
CONTINUOUS
 10
-0.907756
 20
0.196866
  0
VERTEX
  8
PLAN_1
  6
CONTINUOUS
 10
-0.905201
 20
0.201980
  0
VERTEX
  8
PLAN_1
  6
CONTINUOUS
 10
-0.902646
 20
0.207091
  0
VERTEX
  8
PLAN_1
  6
CONTINUOUS
 10
-0.900091
 20
0.212205
  0
VERTEX
  8
PLAN_1
  6
CONTINUOUS
 10
-0.898043
 20
0.217315
  0
VERTEX
  8
PLAN_1
  6
CONTINUOUS
 10
-0.896000
 20
0.222937
  0
VERTEX
  8
PLAN_1
  6
CONTINUOUS
 10
-0.894465
 20
0.228563
  0
VERTEX
  8
PLAN_1
  6
CONTINUOUS
 10
-0.893445
 20
0.234185
  0
VERTEX
  8
PLAN_1
  6
CONTINUOUS
 10
-0.892421
 20
0.240319
  0
VERTEX
  8
PLAN_1
  6
CONTINUOUS
 10
-0.891398
 20
0.245941
  0
VERTEX
  8
PLAN_1
  6
CONTINUOUS
 10
-0.890890
 20
0.252075
  0
VERTEX
  8
PLAN_1
  6
CONTINUOUS
 10
-0.890890
 20
0.258209
  0
VERTEX
  8
PLAN_1
  6
CONTINUOUS
 10
-0.890890
 20
0.264343
  0
VERTEX
  8
PLAN_1
  6
CONTINUOUS
 10
-0.891398
 20
0.269969
  0
VERTEX
  8
PLAN_1
  6
CONTINUOUS
 10
-0.892421
 20
0.276102
  0
VERTEX
  8
PLAN_1
  6
CONTINUOUS
 10
-0.893445
 20
0.281724
  0
VERTEX
  8
PLAN_1
  6
CONTINUOUS
 10
-0.894465
 20
0.287346
  0
VERTEX
  8
PLAN_1
  6
CONTINUOUS
 10
-0.896000
 20
0.292969
  0
VERTEX
  8
PLAN_1
  6
CONTINUOUS
 10
-0.898043
 20
0.298594
  0
VERTEX
  8
PLAN_1
  6
CONTINUOUS
 10
-0.900091
 20
0.303705
  0
VERTEX
  8
PLAN_1
  6
CONTINUOUS
 10
-0.902646
 20
0.309327
  0
VERTEX
  8
PLAN_1
  6
CONTINUOUS
 10
-0.905201
 20
0.314441
  0
VERTEX
  8
PLAN_1
  6
CONTINUOUS
 10
-0.907756
 20
0.319039
  0
VERTEX
  8
PLAN_1
  6
CONTINUOUS
 10
-0.910823
 20
0.324154
  0
VERTEX
  8
PLAN_1
  6
CONTINUOUS
 10
-0.914402
 20
0.328752
  0
VERTEX
  8
PLAN_1
  6
CONTINUOUS
 10
-0.917980
 20
0.332843
  0
VERTEX
  8
PLAN_1
  6
CONTINUOUS
 10
-0.921559
 20
0.337441
  0
VERTEX
  8
PLAN_1
  6
CONTINUOUS
 10
-0.925138
 20
0.341531
  0
VERTEX
  8
PLAN_1
  6
CONTINUOUS
 10
-0.929228
 20
0.345110
  0
VERTEX
  8
PLAN_1
  6
CONTINUOUS
 10
-0.933827
 20
0.349201
  0
VERTEX
  8
PLAN_1
  6
CONTINUOUS
 10
-0.938429
 20
0.352268
  0
VERTEX
  8
PLAN_1
  6
CONTINUOUS
 10
-0.943028
 20
0.355846
  0
VERTEX
  8
PLAN_1
  6
CONTINUOUS
 10
-0.947630
 20
0.358913
  0
VERTEX
  8
PLAN_1
  6
CONTINUOUS
 10
-0.952740
 20
0.361469
  0
VERTEX
  8
PLAN_1
  6
CONTINUOUS
 10
-0.957854
 20
0.364535
  0
VERTEX
  8
PLAN_1
  6
CONTINUOUS
 10
-0.962965
 20
0.366579
  0
VERTEX
  8
PLAN_1
  6
CONTINUOUS
 10
-0.968075
 20
0.368626
  0
VERTEX
  8
PLAN_1
  6
CONTINUOUS
 10
-0.973701
 20
0.370669
  0
VERTEX
  8
PLAN_1
  6
CONTINUOUS
 10
-0.979323
 20
0.372205
  0
VERTEX
  8
PLAN_1
  6
CONTINUOUS
 10
-0.984945
 20
0.373736
  0
VERTEX
  8
PLAN_1
  6
CONTINUOUS
 10
-0.990567
 20
0.374760
  0
VERTEX
  8
PLAN_1
  6
CONTINUOUS
 10
-0.996701
 20
0.375272
  0
VERTEX
  8
PLAN_1
  6
CONTINUOUS
 10
-1.002835
 20
0.375780
  0
VERTEX
  8
PLAN_1
  6
CONTINUOUS
 10
-1.008461
 20
0.375780
  0
VERTEX
  8
PLAN_1
  6
CONTINUOUS
 10
-1.014594
 20
0.375780
  0
VERTEX
  8
PLAN_1
  6
CONTINUOUS
 10
-1.020728
 20
0.375272
  0
VERTEX
  8
PLAN_1
  6
CONTINUOUS
 10
-1.026862
 20
0.374760
  0
VERTEX
  8
PLAN_1
  6
CONTINUOUS
 10
-1.032484
 20
0.373736
  0
VERTEX
  8
PLAN_1
  6
CONTINUOUS
 10
-1.038106
 20
0.372205
  0
VERTEX
  8
PLAN_1
  6
CONTINUOUS
 10
-1.043732
 20
0.370669
  0
VERTEX
  8
PLAN_1
  6
CONTINUOUS
 10
-1.049354
 20
0.368626
  0
VERTEX
  8
PLAN_1
  6
CONTINUOUS
 10
-1.054465
 20
0.366579
  0
VERTEX
  8
PLAN_1
  6
CONTINUOUS
 10
-1.059579
 20
0.364535
  0
VERTEX
  8
PLAN_1
  6
CONTINUOUS
 10
-1.064689
 20
0.361469
  0
VERTEX
  8
PLAN_1
  6
CONTINUOUS
 10
-1.069803
 20
0.358913
  0
VERTEX
  8
PLAN_1
  6
CONTINUOUS
 10
-1.074402
 20
0.355846
  0
VERTEX
  8
PLAN_1
  6
CONTINUOUS
 10
-1.079004
 20
0.352268
  0
VERTEX
  8
PLAN_1
  6
CONTINUOUS
 10
-1.083602
 20
0.349201
  0
VERTEX
  8
PLAN_1
  6
CONTINUOUS
 10
-1.088205
 20
0.345110
  0
VERTEX
  8
PLAN_1
  6
CONTINUOUS
 10
-1.092291
 20
0.341531
  0
VERTEX
  8
PLAN_1
  6
CONTINUOUS
 10
-1.095870
 20
0.337441
  0
VERTEX
  8
PLAN_1
  6
CONTINUOUS
 10
-1.099449
 20
0.332843
  0
VERTEX
  8
PLAN_1
  6
CONTINUOUS
 10
-1.103028
 20
0.328752
  0
VERTEX
  8
PLAN_1
  6
CONTINUOUS
 10
-1.106606
 20
0.324154
  0
VERTEX
  8
PLAN_1
  6
CONTINUOUS
 10
-1.109673
 20
0.319039
  0
VERTEX
  8
PLAN_1
  6
CONTINUOUS
 10
-1.112228
 20
0.314441
  0
VERTEX
  8
PLAN_1
  6
CONTINUOUS
 10
-1.114783
 20
0.309327
  0
VERTEX
  8
PLAN_1
  6
CONTINUOUS
 10
-1.117343
 20
0.303705
  0
VERTEX
  8
PLAN_1
  6
CONTINUOUS
 10
-1.119386
 20
0.298594
  0
VERTEX
  8
PLAN_1
  6
CONTINUOUS
 10
-1.121429
 20
0.292969
  0
VERTEX
  8
PLAN_1
  6
CONTINUOUS
 10
-1.122965
 20
0.287346
  0
VERTEX
  8
PLAN_1
  6
CONTINUOUS
 10
-1.123988
 20
0.281724
  0
VERTEX
  8
PLAN_1
  6
CONTINUOUS
 10
-1.125008
 20
0.276102
  0
VERTEX
  8
PLAN_1
  6
CONTINUOUS
 10
-1.126031
 20
0.269969
  0
VERTEX
  8
PLAN_1
  6
CONTINUOUS
 10
-1.126543
 20
0.264343
  0
VERTEX
  8
PLAN_1
  6
CONTINUOUS
 10
-1.126543
 20
0.258209
  0
VERTEX
  8
PLAN_1
  6
CONTINUOUS
 10
-1.126543
 20
0.252075
  0
VERTEX
  8
PLAN_1
  6
CONTINUOUS
 10
-1.126031
 20
0.245941
  0
VERTEX
  8
PLAN_1
  6
CONTINUOUS
 10
-1.125008
 20
0.240319
  0
VERTEX
  8
PLAN_1
  6
CONTINUOUS
 10
-1.123988
 20
0.234185
  0
VERTEX
  8
PLAN_1
  6
CONTINUOUS
 10
-1.122965
 20
0.228563
  0
VERTEX
  8
PLAN_1
  6
CONTINUOUS
 10
-1.121429
 20
0.222937
  0
VERTEX
  8
PLAN_1
  6
CONTINUOUS
 10
-1.119386
 20
0.217315
  0
VERTEX
  8
PLAN_1
  6
CONTINUOUS
 10
-1.117343
 20
0.212205
  0
VERTEX
  8
PLAN_1
  6
CONTINUOUS
 10
-1.114783
 20
0.207091
  0
VERTEX
  8
PLAN_1
  6
CONTINUOUS
 10
-1.112228
 20
0.201980
  0
VERTEX
  8
PLAN_1
  6
CONTINUOUS
 10
-1.109673
 20
0.196866
  0
VERTEX
  8
PLAN_1
  6
CONTINUOUS
 10
-1.106606
 20
0.192268
  0
VERTEX
  8
PLAN_1
  6
CONTINUOUS
 10
-1.103028
 20
0.187665
  0
VERTEX
  8
PLAN_1
  6
CONTINUOUS
 10
-1.099449
 20
0.183067
  0
VERTEX
  8
PLAN_1
  6
CONTINUOUS
 10
-1.095870
 20
0.178976
  0
VERTEX
  8
PLAN_1
  6
CONTINUOUS
 10
-1.092291
 20
0.174886
  0
VERTEX
  8
PLAN_1
  6
CONTINUOUS
 10
-1.088205
 20
0.170799
  0
VERTEX
  8
PLAN_1
  6
CONTINUOUS
 10
-1.083602
 20
0.167220
  0
VERTEX
  8
PLAN_1
  6
CONTINUOUS
 10
-1.079004
 20
0.163642
  0
VERTEX
  8
PLAN_1
  6
CONTINUOUS
 10
-1.074402
 20
0.160575
  0
VERTEX
  8
PLAN_1
  6
CONTINUOUS
 10
-1.069803
 20
0.157508
  0
VERTEX
  8
PLAN_1
  6
CONTINUOUS
 10
-1.064689
 20
0.154441
  0
VERTEX
  8
PLAN_1
  6
CONTINUOUS
 10
-1.059579
 20
0.151886
  0
VERTEX
  8
PLAN_1
  6
CONTINUOUS
 10
-1.054465
 20
0.149327
  0
VERTEX
  8
PLAN_1
  6
CONTINUOUS
 10
-1.049354
 20
0.147283
  0
VERTEX
  8
PLAN_1
  6
CONTINUOUS
 10
-1.043732
 20
0.145748
  0
VERTEX
  8
PLAN_1
  6
CONTINUOUS
 10
-1.038106
 20
0.143705
  0
VERTEX
  8
PLAN_1
  6
CONTINUOUS
 10
-1.032484
 20
0.142681
  0
VERTEX
  8
PLAN_1
  6
CONTINUOUS
 10
-1.026862
 20
0.141661
  0
VERTEX
  8
PLAN_1
  6
CONTINUOUS
 10
-1.020728
 20
0.140638
  0
VERTEX
  8
PLAN_1
  6
CONTINUOUS
 10
-1.014594
 20
0.140126
  0
VERTEX
  8
PLAN_1
  6
CONTINUOUS
 10
-1.008461
 20
0.140126
  0
SEQEND
  8
0
  0
POLYLINE
  8
PLAN_1
  6
CONTINUOUS
 66
     1
 40
0.005622
 41
0.005622
  0
VERTEX
  8
PLAN_1
  6
CONTINUOUS
 10
-1.232358
 20
0.304728
  0
VERTEX
  8
PLAN_1
  6
CONTINUOUS
 10
-1.370374
 20
0.304728
  0
SEQEND
  8
0
  0
POLYLINE
  8
PLAN_1
  6
CONTINUOUS
 66
     1
 40
0.005622
 41
0.005622
  0
VERTEX
  8
PLAN_1
  6
CONTINUOUS
 10
-1.370374
 20
0.304728
  0
VERTEX
  8
PLAN_1
  6
CONTINUOUS
 10
-1.368331
 20
0.324154
  0
VERTEX
  8
PLAN_1
  6
CONTINUOUS
 10
-1.365264
 20
0.343067
  0
VERTEX
  8
PLAN_1
  6
CONTINUOUS
 10
-1.361173
 20
0.361469
  0
VERTEX
  8
PLAN_1
  6
CONTINUOUS
 10
-1.356575
 20
0.379870
  0
VERTEX
  8
PLAN_1
  6
CONTINUOUS
 10
-1.350441
 20
0.397252
  0
VERTEX
  8
PLAN_1
  6
CONTINUOUS
 10
-1.343795
 20
0.414630
  0
VERTEX
  8
PLAN_1
  6
CONTINUOUS
 10
-1.336638
 20
0.432012
  0
VERTEX
  8
PLAN_1
  6
CONTINUOUS
 10
-1.327949
 20
0.448370
  0
VERTEX
  8
PLAN_1
  6
CONTINUOUS
 10
-1.318748
 20
0.464217
  0
VERTEX
  8
PLAN_1
  6
CONTINUOUS
 10
-1.309035
 20
0.480063
  0
VERTEX
  8
PLAN_1
  6
CONTINUOUS
 10
-1.298299
 20
0.494886
  0
VERTEX
  8
PLAN_1
  6
CONTINUOUS
 10
-1.287051
 20
0.509201
  0
VERTEX
  8
PLAN_1
  6
CONTINUOUS
 10
-1.275295
 20
0.523000
  0
VERTEX
  8
PLAN_1
  6
CONTINUOUS
 10
-1.262516
 20
0.536291
  0
VERTEX
  8
PLAN_1
  6
CONTINUOUS
 10
-1.249224
 20
0.549071
  0
VERTEX
  8
PLAN_1
  6
CONTINUOUS
 10
-1.235425
 20
0.560831
  0
SEQEND
  8
0
  0
POLYLINE
  8
PLAN_1
  6
CONTINUOUS
 66
     1
 40
0.005622
 41
0.005622
  0
VERTEX
  8
PLAN_1
  6
CONTINUOUS
 10
-1.234913
 20
0.232138
  0
VERTEX
  8
PLAN_1
  6
CONTINUOUS
 10
-1.369354
 20
0.232138
  0
SEQEND
  8
0
  0
POLYLINE
  8
PLAN_1
  6
CONTINUOUS
 66
     1
 40
0.005622
 41
0.005622
  0
VERTEX
  8
PLAN_1
  6
CONTINUOUS
 10
-1.369354
 20
0.232138
  0
VERTEX
  8
PLAN_1
  6
CONTINUOUS
 10
-1.367307
 20
0.215783
  0
VERTEX
  8
PLAN_1
  6
CONTINUOUS
 10
-1.364752
 20
0.199933
  0
VERTEX
  8
PLAN_1
  6
CONTINUOUS
 10
-1.361173
 20
0.184087
  0
VERTEX
  8
PLAN_1
  6
CONTINUOUS
 10
-1.356575
 20
0.168752
  0
VERTEX
  8
PLAN_1
  6
CONTINUOUS
 10
-1.351972
 20
0.153929
  0
VERTEX
  8
PLAN_1
  6
CONTINUOUS
 10
-1.346350
 20
0.139106
  0
VERTEX
  8
PLAN_1
  6
CONTINUOUS
 10
-1.340728
 20
0.124280
  0
VERTEX
  8
PLAN_1
  6
CONTINUOUS
 10
-1.334083
 20
0.109969
  0
VERTEX
  8
PLAN_1
  6
CONTINUOUS
 10
-1.326413
 20
0.096165
  0
VERTEX
  8
PLAN_1
  6
CONTINUOUS
 10
-1.318748
 20
0.082874
  0
VERTEX
  8
PLAN_1
  6
CONTINUOUS
 10
-1.310567
 20
0.069583
  0
VERTEX
  8
PLAN_1
  6
CONTINUOUS
 10
-1.301878
 20
0.056803
  0
VERTEX
  8
PLAN_1
  6
CONTINUOUS
 10
-1.292165
 20
0.044535
  0
VERTEX
  8
PLAN_1
  6
CONTINUOUS
 10
-1.282453
 20
0.032268
  0
VERTEX
  8
PLAN_1
  6
CONTINUOUS
 10
-1.272228
 20
0.021024
  0
VERTEX
  8
PLAN_1
  6
CONTINUOUS
 10
-1.260984
 20
0.009776
  0
VERTEX
  8
PLAN_1
  6
CONTINUOUS
 10
-1.249736
 20
-0.000961
  0
VERTEX
  8
PLAN_1
  6
CONTINUOUS
 10
-1.237980
 20
-0.011181
  0
VERTEX
  8
PLAN_1
  6
CONTINUOUS
 10
-1.226224
 20
-0.020894
  0
VERTEX
  8
PLAN_1
  6
CONTINUOUS
 10
-1.213445
 20
-0.030094
  0
VERTEX
  8
PLAN_1
  6
CONTINUOUS
 10
-1.200665
 20
-0.038787
  0
VERTEX
  8
PLAN_1
  6
CONTINUOUS
 10
-1.187374
 20
-0.046453
  0
VERTEX
  8
PLAN_1
  6
CONTINUOUS
 10
-1.173571
 20
-0.054122
  0
VERTEX
  8
PLAN_1
  6
CONTINUOUS
 10
-1.159256
 20
-0.061280
  0
VERTEX
  8
PLAN_1
  6
CONTINUOUS
 10
-1.144945
 20
-0.067413
  0
VERTEX
  8
PLAN_1
  6
CONTINUOUS
 10
-1.130122
 20
-0.073547
  0
VERTEX
  8
PLAN_1
  6
CONTINUOUS
 10
-1.115295
 20
-0.078657
  0
VERTEX
  8
PLAN_1
  6
CONTINUOUS
 10
-1.099961
 20
-0.083260
  0
VERTEX
  8
PLAN_1
  6
CONTINUOUS
 10
-1.084626
 20
-0.086839
  0
VERTEX
  8
PLAN_1
  6
CONTINUOUS
 10
-1.068780
 20
-0.090417
  0
VERTEX
  8
PLAN_1
  6
CONTINUOUS
 10
-1.052933
 20
-0.092972
  0
VERTEX
  8
PLAN_1
  6
CONTINUOUS
 10
-1.036575
 20
-0.094504
  0
SEQEND
  8
0
  0
POLYLINE
  8
PLAN_1
  6
CONTINUOUS
 66
     1
 40
0.005622
 41
0.005622
  0
VERTEX
  8
PLAN_1
  6
CONTINUOUS
 10
-1.036575
 20
-0.094504
  0
VERTEX
  8
PLAN_1
  6
CONTINUOUS
 10
-1.036575
 20
0.026134
  0
SEQEND
  8
0
  0
POLYLINE
  8
PLAN_1
  6
CONTINUOUS
 66
     1
 40
0.007154
 41
0.007154
  0
VERTEX
  8
PLAN_1
  6
CONTINUOUS
 10
-1.255870
 20
0.560831
  0
VERTEX
  8
PLAN_1
  6
CONTINUOUS
 10
-1.263539
 20
0.554185
  0
VERTEX
  8
PLAN_1
  6
CONTINUOUS
 10
-1.270697
 20
0.547028
  0
VERTEX
  8
PLAN_1
  6
CONTINUOUS
 10
-1.277850
 20
0.539870
  0
VERTEX
  8
PLAN_1
  6
CONTINUOUS
 10
-1.284496
 20
0.532713
  0
VERTEX
  8
PLAN_1
  6
CONTINUOUS
 10
-1.291142
 20
0.525047
  0
VERTEX
  8
PLAN_1
  6
CONTINUOUS
 10
-1.297787
 20
0.517890
  0
VERTEX
  8
PLAN_1
  6
CONTINUOUS
 10
-1.303921
 20
0.509713
  0
VERTEX
  8
PLAN_1
  6
CONTINUOUS
 10
-1.310055
 20
0.502043
  0
VERTEX
  8
PLAN_1
  6
CONTINUOUS
 10
-1.316189
 20
0.493862
  0
VERTEX
  8
PLAN_1
  6
CONTINUOUS
 10
-1.321815
 20
0.485685
  0
VERTEX
  8
PLAN_1
  6
CONTINUOUS
 10
-1.327437
 20
0.476996
  0
VERTEX
  8
PLAN_1
  6
CONTINUOUS
 10
-1.332547
 20
0.468815
  0
VERTEX
  8
PLAN_1
  6
CONTINUOUS
 10
-1.337661
 20
0.460126
  0
VERTEX
  8
PLAN_1
  6
CONTINUOUS
 10
-1.342260
 20
0.450925
  0
VERTEX
  8
PLAN_1
  6
CONTINUOUS
 10
-1.346862
 20
0.442236
  0
VERTEX
  8
PLAN_1
  6
CONTINUOUS
 10
-1.351461
 20
0.433035
  0
VERTEX
  8
PLAN_1
  6
CONTINUOUS
 10
-1.355551
 20
0.423831
  0
VERTEX
  8
PLAN_1
  6
CONTINUOUS
 10
-1.359130
 20
0.414118
  0
VERTEX
  8
PLAN_1
  6
CONTINUOUS
 10
-1.362709
 20
0.404917
  0
VERTEX
  8
PLAN_1
  6
CONTINUOUS
 10
-1.366287
 20
0.395205
  0
VERTEX
  8
PLAN_1
  6
CONTINUOUS
 10
-1.369354
 20
0.385492
  0
VERTEX
  8
PLAN_1
  6
CONTINUOUS
 10
-1.372421
 20
0.375780
  0
VERTEX
  8
PLAN_1
  6
CONTINUOUS
 10
-1.374976
 20
0.365559
  0
VERTEX
  8
PLAN_1
  6
CONTINUOUS
 10
-1.377531
 20
0.355846
  0
VERTEX
  8
PLAN_1
  6
CONTINUOUS
 10
-1.379579
 20
0.345622
  0
VERTEX
  8
PLAN_1
  6
CONTINUOUS
 10
-1.381110
 20
0.335398
  0
VERTEX
  8
PLAN_1
  6
CONTINUOUS
 10
-1.383154
 20
0.324661
  0
VERTEX
  8
PLAN_1
  6
CONTINUOUS
 10
-1.384177
 20
0.314441
  0
VERTEX
  8
PLAN_1
  6
CONTINUOUS
 10
-1.385201
 20
0.303705
  0
VERTEX
  8
PLAN_1
  6
CONTINUOUS
 10
-1.385713
 20
0.293480
  0
VERTEX
  8
PLAN_1
  6
CONTINUOUS
 10
-1.386220
 20
0.282748
  0
VERTEX
  8
PLAN_1
  6
CONTINUOUS
 10
-1.386732
 20
0.272012
  0
VERTEX
  8
PLAN_1
  6
CONTINUOUS
 10
-1.386220
 20
0.252075
  0
VERTEX
  8
PLAN_1
  6
CONTINUOUS
 10
-1.384689
 20
0.232650
  0
VERTEX
  8
PLAN_1
  6
CONTINUOUS
 10
-1.382134
 20
0.213224
  0
VERTEX
  8
PLAN_1
  6
CONTINUOUS
 10
-1.378555
 20
0.194311
  0
VERTEX
  8
PLAN_1
  6
CONTINUOUS
 10
-1.374465
 20
0.175909
  0
VERTEX
  8
PLAN_1
  6
CONTINUOUS
 10
-1.369354
 20
0.157508
  0
VERTEX
  8
PLAN_1
  6
CONTINUOUS
 10
-1.363220
 20
0.139614
  0
VERTEX
  8
PLAN_1
  6
CONTINUOUS
 10
-1.356063
 20
0.122236
  0
VERTEX
  8
PLAN_1
  6
CONTINUOUS
 10
-1.348394
 20
0.105366
  0
VERTEX
  8
PLAN_1
  6
CONTINUOUS
 10
-1.340217
 20
0.088496
  0
VERTEX
  8
PLAN_1
  6
CONTINUOUS
 10
-1.331016
 20
0.072650
  0
VERTEX
  8
PLAN_1
  6
CONTINUOUS
 10
-1.320791
 20
0.056803
  0
VERTEX
  8
PLAN_1
  6
CONTINUOUS
 10
-1.310055
 20
0.041980
  0
VERTEX
  8
PLAN_1
  6
CONTINUOUS
 10
-1.298811
 20
0.027157
  0
VERTEX
  8
PLAN_1
  6
CONTINUOUS
 10
-1.286543
 20
0.013354
  0
VERTEX
  8
PLAN_1
  6
CONTINUOUS
 10
-1.273764
 20
0.000063
  0
VERTEX
  8
PLAN_1
  6
CONTINUOUS
 10
-1.260472
 20
-0.012717
  0
VERTEX
  8
PLAN_1
  6
CONTINUOUS
 10
-1.246669
 20
-0.024984
  0
VERTEX
  8
PLAN_1
  6
CONTINUOUS
 10
-1.231846
 20
-0.036232
  0
VERTEX
  8
PLAN_1
  6
CONTINUOUS
 10
-1.217020
 20
-0.046965
  0
VERTEX
  8
PLAN_1
  6
CONTINUOUS
 10
-1.201173
 20
-0.057189
  0
VERTEX
  8
PLAN_1
  6
CONTINUOUS
 10
-1.185327
 20
-0.066390
  0
VERTEX
  8
PLAN_1
  6
CONTINUOUS
 10
-1.168461
 20
-0.075079
  0
VERTEX
  8
PLAN_1
  6
CONTINUOUS
 10
-1.151591
 20
-0.082748
  0
VERTEX
  8
PLAN_1
  6
CONTINUOUS
 10
-1.134209
 20
-0.089394
  0
VERTEX
  8
PLAN_1
  6
CONTINUOUS
 10
-1.116319
 20
-0.095528
  0
VERTEX
  8
PLAN_1
  6
CONTINUOUS
 10
-1.097917
 20
-0.100638
  0
VERTEX
  8
PLAN_1
  6
CONTINUOUS
 10
-1.079512
 20
-0.104728
  0
VERTEX
  8
PLAN_1
  6
CONTINUOUS
 10
-1.060598
 20
-0.108307
  0
VERTEX
  8
PLAN_1
  6
CONTINUOUS
 10
-1.041173
 20
-0.110862
  0
VERTEX
  8
PLAN_1
  6
CONTINUOUS
 10
-1.021752
 20
-0.112398
  0
VERTEX
  8
PLAN_1
  6
CONTINUOUS
 10
-1.001815
 20
-0.112909
  0
VERTEX
  8
PLAN_1
  6
CONTINUOUS
 10
-0.981878
 20
-0.112398
  0
VERTEX
  8
PLAN_1
  6
CONTINUOUS
 10
-0.962453
 20
-0.110862
  0
VERTEX
  8
PLAN_1
  6
CONTINUOUS
 10
-0.943539
 20
-0.108307
  0
VERTEX
  8
PLAN_1
  6
CONTINUOUS
 10
-0.924114
 20
-0.104728
  0
VERTEX
  8
PLAN_1
  6
CONTINUOUS
 10
-0.905713
 20
-0.100638
  0
VERTEX
  8
PLAN_1
  6
CONTINUOUS
 10
-0.887311
 20
-0.095528
  0
VERTEX
  8
PLAN_1
  6
CONTINUOUS
 10
-0.869417
 20
-0.089394
  0
VERTEX
  8
PLAN_1
  6
CONTINUOUS
 10
-0.852039
 20
-0.082748
  0
VERTEX
  8
PLAN_1
  6
CONTINUOUS
 10
-0.835169
 20
-0.075079
  0
VERTEX
  8
PLAN_1
  6
CONTINUOUS
 10
-0.818299
 20
-0.066390
  0
VERTEX
  8
PLAN_1
  6
CONTINUOUS
 10
-0.802453
 20
-0.057189
  0
VERTEX
  8
PLAN_1
  6
CONTINUOUS
 10
-0.786606
 20
-0.046965
  0
VERTEX
  8
PLAN_1
  6
CONTINUOUS
 10
-0.771783
 20
-0.036232
  0
VERTEX
  8
PLAN_1
  6
CONTINUOUS
 10
-0.756957
 20
-0.024984
  0
VERTEX
  8
PLAN_1
  6
CONTINUOUS
 10
-0.743157
 20
-0.012717
  0
VERTEX
  8
PLAN_1
  6
CONTINUOUS
 10
-0.729866
 20
0.000063
  0
VERTEX
  8
PLAN_1
  6
CONTINUOUS
 10
-0.717087
 20
0.013354
  0
VERTEX
  8
PLAN_1
  6
CONTINUOUS
 10
-0.704819
 20
0.027157
  0
VERTEX
  8
PLAN_1
  6
CONTINUOUS
 10
-0.693571
 20
0.041980
  0
VERTEX
  8
PLAN_1
  6
CONTINUOUS
 10
-0.682839
 20
0.056803
  0
VERTEX
  8
PLAN_1
  6
CONTINUOUS
 10
-0.673126
 20
0.072650
  0
VERTEX
  8
PLAN_1
  6
CONTINUOUS
 10
-0.663413
 20
0.088496
  0
VERTEX
  8
PLAN_1
  6
CONTINUOUS
 10
-0.655232
 20
0.105366
  0
VERTEX
  8
PLAN_1
  6
CONTINUOUS
 10
-0.647567
 20
0.122236
  0
VERTEX
  8
PLAN_1
  6
CONTINUOUS
 10
-0.640409
 20
0.139614
  0
VERTEX
  8
PLAN_1
  6
CONTINUOUS
 10
-0.634276
 20
0.157508
  0
VERTEX
  8
PLAN_1
  6
CONTINUOUS
 10
-0.629161
 20
0.175909
  0
VERTEX
  8
PLAN_1
  6
CONTINUOUS
 10
-0.625075
 20
0.194311
  0
VERTEX
  8
PLAN_1
  6
CONTINUOUS
 10
-0.621496
 20
0.213224
  0
VERTEX
  8
PLAN_1
  6
CONTINUOUS
 10
-0.618941
 20
0.232650
  0
VERTEX
  8
PLAN_1
  6
CONTINUOUS
 10
-0.617917
 20
0.252075
  0
VERTEX
  8
PLAN_1
  6
CONTINUOUS
 10
-0.617406
 20
0.272012
  0
VERTEX
  8
PLAN_1
  6
CONTINUOUS
 10
-0.617406
 20
0.282748
  0
VERTEX
  8
PLAN_1
  6
CONTINUOUS
 10
-0.617917
 20
0.293480
  0
VERTEX
  8
PLAN_1
  6
CONTINUOUS
 10
-0.618429
 20
0.303705
  0
VERTEX
  8
PLAN_1
  6
CONTINUOUS
 10
-0.619449
 20
0.314441
  0
VERTEX
  8
PLAN_1
  6
CONTINUOUS
 10
-0.620984
 20
0.324661
  0
VERTEX
  8
PLAN_1
  6
CONTINUOUS
 10
-0.622520
 20
0.335398
  0
VERTEX
  8
PLAN_1
  6
CONTINUOUS
 10
-0.624051
 20
0.345622
  0
VERTEX
  8
PLAN_1
  6
CONTINUOUS
 10
-0.626094
 20
0.355846
  0
VERTEX
  8
PLAN_1
  6
CONTINUOUS
 10
-0.628654
 20
0.365559
  0
VERTEX
  8
PLAN_1
  6
CONTINUOUS
 10
-0.631209
 20
0.375780
  0
VERTEX
  8
PLAN_1
  6
CONTINUOUS
 10
-0.634276
 20
0.385492
  0
VERTEX
  8
PLAN_1
  6
CONTINUOUS
 10
-0.637343
 20
0.395205
  0
VERTEX
  8
PLAN_1
  6
CONTINUOUS
 10
-0.640921
 20
0.404917
  0
VERTEX
  8
PLAN_1
  6
CONTINUOUS
 10
-0.644500
 20
0.414118
  0
VERTEX
  8
PLAN_1
  6
CONTINUOUS
 10
-0.648587
 20
0.423831
  0
VERTEX
  8
PLAN_1
  6
CONTINUOUS
 10
-0.652677
 20
0.433035
  0
VERTEX
  8
PLAN_1
  6
CONTINUOUS
 10
-0.656768
 20
0.442236
  0
VERTEX
  8
PLAN_1
  6
CONTINUOUS
 10
-0.661366
 20
0.450925
  0
VERTEX
  8
PLAN_1
  6
CONTINUOUS
 10
-0.666480
 20
0.460126
  0
VERTEX
  8
PLAN_1
  6
CONTINUOUS
 10
-0.671079
 20
0.468815
  0
VERTEX
  8
PLAN_1
  6
CONTINUOUS
 10
-0.676705
 20
0.476996
  0
VERTEX
  8
PLAN_1
  6
CONTINUOUS
 10
-0.681815
 20
0.485685
  0
VERTEX
  8
PLAN_1
  6
CONTINUOUS
 10
-0.687949
 20
0.493862
  0
VERTEX
  8
PLAN_1
  6
CONTINUOUS
 10
-0.693571
 20
0.502043
  0
VERTEX
  8
PLAN_1
  6
CONTINUOUS
 10
-0.699705
 20
0.509713
  0
VERTEX
  8
PLAN_1
  6
CONTINUOUS
 10
-0.705839
 20
0.517890
  0
VERTEX
  8
PLAN_1
  6
CONTINUOUS
 10
-0.712484
 20
0.525047
  0
VERTEX
  8
PLAN_1
  6
CONTINUOUS
 10
-0.719130
 20
0.532713
  0
VERTEX
  8
PLAN_1
  6
CONTINUOUS
 10
-0.726287
 20
0.539870
  0
VERTEX
  8
PLAN_1
  6
CONTINUOUS
 10
-0.732933
 20
0.547028
  0
VERTEX
  8
PLAN_1
  6
CONTINUOUS
 10
-0.740091
 20
0.554185
  0
VERTEX
  8
PLAN_1
  6
CONTINUOUS
 10
-0.747756
 20
0.560831
  0
SEQEND
  8
0
  0
POLYLINE
  8
PLAN_1
  6
CONTINUOUS
 66
     1
 40
0.007154
 41
0.007154
  0
VERTEX
  8
PLAN_1
  6
CONTINUOUS
 10
-0.728843
 20
0.701406
  0
VERTEX
  8
PLAN_1
  6
CONTINUOUS
 10
-0.728843
 20
0.612969
  0
VERTEX
  8
PLAN_1
  6
CONTINUOUS
 10
-1.274783
 20
0.612969
  0
VERTEX
  8
PLAN_1
  6
CONTINUOUS
 10
-1.274783
 20
0.701406
  0
VERTEX
  8
PLAN_1
  6
CONTINUOUS
 10
-0.728843
 20
0.701406
  0
SEQEND
  8
0
  0
POLYLINE
  8
PLAN_1
  6
CONTINUOUS
 66
     1
 40
0.007154
 41
0.007154
  0
VERTEX
  8
PLAN_1
  6
CONTINUOUS
 10
-0.863795
 20
1.339870
  0
VERTEX
  8
PLAN_1
  6
CONTINUOUS
 10
-0.858685
 20
1.344469
  0
VERTEX
  8
PLAN_1
  6
CONTINUOUS
 10
-0.855106
 20
1.349071
  0
VERTEX
  8
PLAN_1
  6
CONTINUOUS
 10
-0.852551
 20
1.353157
  0
VERTEX
  8
PLAN_1
  6
CONTINUOUS
 10
-0.851016
 20
1.357760
  0
VERTEX
  8
PLAN_1
  6
CONTINUOUS
 10
-0.850504
 20
1.361850
  0
VERTEX
  8
PLAN_1
  6
CONTINUOUS
 10
-0.850504
 20
1.365429
  0
VERTEX
  8
PLAN_1
  6
CONTINUOUS
 10
-0.851528
 20
1.369008
  0
VERTEX
  8
PLAN_1
  6
CONTINUOUS
 10
-0.852551
 20
1.372583
  0
VERTEX
  8
PLAN_1
  6
CONTINUOUS
 10
-0.854083
 20
1.375650
  0
VERTEX
  8
PLAN_1
  6
CONTINUOUS
 10
-0.855618
 20
1.378209
  0
VERTEX
  8
PLAN_1
  6
CONTINUOUS
 10
-0.857661
 20
1.380764
  0
VERTEX
  8
PLAN_1
  6
CONTINUOUS
 10
-0.859705
 20
1.382807
  0
VERTEX
  8
PLAN_1
  6
CONTINUOUS
 10
-0.862260
 20
1.385874
  0
VERTEX
  8
PLAN_1
  6
CONTINUOUS
 10
-0.863795
 20
1.386898
  0
SEQEND
  8
0
  0
POLYLINE
  8
PLAN_1
  6
CONTINUOUS
 66
     1
 40
0.007154
 41
0.007154
  0
VERTEX
  8
PLAN_1
  6
CONTINUOUS
 10
-0.863795
 20
1.386898
  0
VERTEX
  8
PLAN_1
  6
CONTINUOUS
 10
-1.151079
 20
1.386898
  0
SEQEND
  8
0
  0
POLYLINE
  8
PLAN_1
  6
CONTINUOUS
 66
     1
 40
0.007154
 41
0.007154
  0
VERTEX
  8
PLAN_1
  6
CONTINUOUS
 10
-1.151079
 20
1.386898
  0
VERTEX
  8
PLAN_1
  6
CONTINUOUS
 10
-1.152102
 20
1.385874
  0
VERTEX
  8
PLAN_1
  6
CONTINUOUS
 10
-1.154657
 20
1.383319
  0
VERTEX
  8
PLAN_1
  6
CONTINUOUS
 10
-1.158236
 20
1.378717
  0
VERTEX
  8
PLAN_1
  6
CONTINUOUS
 10
-1.160791
 20
1.373094
  0
VERTEX
  8
PLAN_1
  6
CONTINUOUS
 10
-1.161815
 20
1.370028
  0
VERTEX
  8
PLAN_1
  6
CONTINUOUS
 10
-1.162835
 20
1.366449
  0
VERTEX
  8
PLAN_1
  6
CONTINUOUS
 10
-1.162835
 20
1.362362
  0
VERTEX
  8
PLAN_1
  6
CONTINUOUS
 10
-1.162327
 20
1.358272
  0
VERTEX
  8
PLAN_1
  6
CONTINUOUS
 10
-1.160791
 20
1.354181
  0
VERTEX
  8
PLAN_1
  6
CONTINUOUS
 10
-1.158748
 20
1.349583
  0
VERTEX
  8
PLAN_1
  6
CONTINUOUS
 10
-1.155681
 20
1.344980
  0
VERTEX
  8
PLAN_1
  6
CONTINUOUS
 10
-1.151079
 20
1.339870
  0
SEQEND
  8
0
  0
POLYLINE
  8
PLAN_1
  6
CONTINUOUS
 66
     1
 40
0.007154
 41
0.007154
  0
VERTEX
  8
PLAN_1
  6
CONTINUOUS
 10
-1.151079
 20
1.339870
  0
VERTEX
  8
PLAN_1
  6
CONTINUOUS
 10
-0.863795
 20
1.339870
  0
SEQEND
  8
0
  0
POLYLINE
  8
PLAN_1
  6
CONTINUOUS
 66
     1
 40
0.007154
 41
0.007154
  0
VERTEX
  8
PLAN_1
  6
CONTINUOUS
 10
-0.863283
 20
1.293862
  0
VERTEX
  8
PLAN_1
  6
CONTINUOUS
 10
-0.858173
 20
1.298465
  0
VERTEX
  8
PLAN_1
  6
CONTINUOUS
 10
-0.854594
 20
1.302551
  0
VERTEX
  8
PLAN_1
  6
CONTINUOUS
 10
-0.852039
 20
1.307154
  0
VERTEX
  8
PLAN_1
  6
CONTINUOUS
 10
-0.850504
 20
1.311244
  0
VERTEX
  8
PLAN_1
  6
CONTINUOUS
 10
-0.849992
 20
1.315331
  0
VERTEX
  8
PLAN_1
  6
CONTINUOUS
 10
-0.849992
 20
1.319421
  0
VERTEX
  8
PLAN_1
  6
CONTINUOUS
 10
-0.851016
 20
1.323000
  0
VERTEX
  8
PLAN_1
  6
CONTINUOUS
 10
-0.852039
 20
1.326067
  0
VERTEX
  8
PLAN_1
  6
CONTINUOUS
 10
-0.853571
 20
1.329134
  0
VERTEX
  8
PLAN_1
  6
CONTINUOUS
 10
-0.855618
 20
1.332201
  0
VERTEX
  8
PLAN_1
  6
CONTINUOUS
 10
-0.857150
 20
1.334756
  0
VERTEX
  8
PLAN_1
  6
CONTINUOUS
 10
-0.859193
 20
1.336803
  0
VERTEX
  8
PLAN_1
  6
CONTINUOUS
 10
-0.861752
 20
1.339358
  0
VERTEX
  8
PLAN_1
  6
CONTINUOUS
 10
-0.863283
 20
1.340378
  0
SEQEND
  8
0
  0
POLYLINE
  8
PLAN_1
  6
CONTINUOUS
 66
     1
 40
0.007154
 41
0.007154
  0
VERTEX
  8
PLAN_1
  6
CONTINUOUS
 10
-0.863283
 20
1.340378
  0
VERTEX
  8
PLAN_1
  6
CONTINUOUS
 10
-1.150567
 20
1.340378
  0
SEQEND
  8
0
  0
POLYLINE
  8
PLAN_1
  6
CONTINUOUS
 66
     1
 40
0.007154
 41
0.007154
  0
VERTEX
  8
PLAN_1
  6
CONTINUOUS
 10
-1.150567
 20
1.340378
  0
VERTEX
  8
PLAN_1
  6
CONTINUOUS
 10
-1.151591
 20
1.339358
  0
VERTEX
  8
PLAN_1
  6
CONTINUOUS
 10
-1.154657
 20
1.336803
  0
VERTEX
  8
PLAN_1
  6
CONTINUOUS
 10
-1.157724
 20
1.332713
  0
VERTEX
  8
PLAN_1
  6
CONTINUOUS
 10
-1.160280
 20
1.327091
  0
VERTEX
  8
PLAN_1
  6
CONTINUOUS
 10
-1.161815
 20
1.323512
  0
VERTEX
  8
PLAN_1
  6
CONTINUOUS
 10
-1.162327
 20
1.319933
  0
VERTEX
  8
PLAN_1
  6
CONTINUOUS
 10
-1.162327
 20
1.315843
  0
VERTEX
  8
PLAN_1
  6
CONTINUOUS
 10
-1.161815
 20
1.311752
  0
VERTEX
  8
PLAN_1
  6
CONTINUOUS
 10
-1.160280
 20
1.307665
  0
VERTEX
  8
PLAN_1
  6
CONTINUOUS
 10
-1.158236
 20
1.303063
  0
VERTEX
  8
PLAN_1
  6
CONTINUOUS
 10
-1.155169
 20
1.298465
  0
VERTEX
  8
PLAN_1
  6
CONTINUOUS
 10
-1.150567
 20
1.293862
  0
SEQEND
  8
0
  0
POLYLINE
  8
PLAN_1
  6
CONTINUOUS
 66
     1
 40
0.007154
 41
0.007154
  0
VERTEX
  8
PLAN_1
  6
CONTINUOUS
 10
-1.150567
 20
1.293862
  0
VERTEX
  8
PLAN_1
  6
CONTINUOUS
 10
-0.863283
 20
1.293862
  0
SEQEND
  8
0
  0
POLYLINE
  8
PLAN_1
  6
CONTINUOUS
 66
     1
 40
0.007154
 41
0.007154
  0
VERTEX
  8
PLAN_1
  6
CONTINUOUS
 10
-0.863283
 20
1.246835
  0
VERTEX
  8
PLAN_1
  6
CONTINUOUS
 10
-0.858685
 20
1.251433
  0
VERTEX
  8
PLAN_1
  6
CONTINUOUS
 10
-0.855106
 20
1.255524
  0
VERTEX
  8
PLAN_1
  6
CONTINUOUS
 10
-0.852551
 20
1.260126
  0
VERTEX
  8
PLAN_1
  6
CONTINUOUS
 10
-0.851016
 20
1.264213
  0
VERTEX
  8
PLAN_1
  6
CONTINUOUS
 10
-0.850504
 20
1.268303
  0
VERTEX
  8
PLAN_1
  6
CONTINUOUS
 10
-0.850504
 20
1.272394
  0
VERTEX
  8
PLAN_1
  6
CONTINUOUS
 10
-0.851016
 20
1.275972
  0
VERTEX
  8
PLAN_1
  6
CONTINUOUS
 10
-0.852551
 20
1.279039
  0
VERTEX
  8
PLAN_1
  6
CONTINUOUS
 10
-0.854083
 20
1.282106
  0
VERTEX
  8
PLAN_1
  6
CONTINUOUS
 10
-0.855618
 20
1.285173
  0
VERTEX
  8
PLAN_1
  6
CONTINUOUS
 10
-0.857661
 20
1.287728
  0
VERTEX
  8
PLAN_1
  6
CONTINUOUS
 10
-0.859193
 20
1.289772
  0
VERTEX
  8
PLAN_1
  6
CONTINUOUS
 10
-0.862260
 20
1.292331
  0
VERTEX
  8
PLAN_1
  6
CONTINUOUS
 10
-0.863283
 20
1.293350
  0
SEQEND
  8
0
  0
POLYLINE
  8
PLAN_1
  6
CONTINUOUS
 66
     1
 40
0.007154
 41
0.007154
  0
VERTEX
  8
PLAN_1
  6
CONTINUOUS
 10
-0.863283
 20
1.293350
  0
VERTEX
  8
PLAN_1
  6
CONTINUOUS
 10
-1.151079
 20
1.293350
  0
SEQEND
  8
0
  0
POLYLINE
  8
PLAN_1
  6
CONTINUOUS
 66
     1
 40
0.007154
 41
0.007154
  0
VERTEX
  8
PLAN_1
  6
CONTINUOUS
 10
-1.151079
 20
1.293350
  0
VERTEX
  8
PLAN_1
  6
CONTINUOUS
 10
-1.152102
 20
1.292331
  0
VERTEX
  8
PLAN_1
  6
CONTINUOUS
 10
-1.154657
 20
1.289772
  0
VERTEX
  8
PLAN_1
  6
CONTINUOUS
 10
-1.157724
 20
1.285685
  0
VERTEX
  8
PLAN_1
  6
CONTINUOUS
 10
-1.160791
 20
1.280059
  0
VERTEX
  8
PLAN_1
  6
CONTINUOUS
 10
-1.161815
 20
1.276480
  0
VERTEX
  8
PLAN_1
  6
CONTINUOUS
 10
-1.162327
 20
1.272906
  0
VERTEX
  8
PLAN_1
  6
CONTINUOUS
 10
-1.162327
 20
1.269327
  0
VERTEX
  8
PLAN_1
  6
CONTINUOUS
 10
-1.161815
 20
1.265236
  0
VERTEX
  8
PLAN_1
  6
CONTINUOUS
 10
-1.160791
 20
1.260634
  0
VERTEX
  8
PLAN_1
  6
CONTINUOUS
 10
-1.158236
 20
1.256035
  0
VERTEX
  8
PLAN_1
  6
CONTINUOUS
 10
-1.155169
 20
1.251433
  0
VERTEX
  8
PLAN_1
  6
CONTINUOUS
 10
-1.151079
 20
1.246835
  0
SEQEND
  8
0
  0
POLYLINE
  8
PLAN_1
  6
CONTINUOUS
 66
     1
 40
0.007154
 41
0.007154
  0
VERTEX
  8
PLAN_1
  6
CONTINUOUS
 10
-1.151079
 20
1.246835
  0
VERTEX
  8
PLAN_1
  6
CONTINUOUS
 10
-0.863283
 20
1.246835
  0
SEQEND
  8
0
  0
POLYLINE
  8
PLAN_1
  6
CONTINUOUS
 66
     1
 40
0.007154
 41
0.007154
  0
VERTEX
  8
PLAN_1
  6
CONTINUOUS
 10
-0.862772
 20
1.200315
  0
VERTEX
  8
PLAN_1
  6
CONTINUOUS
 10
-0.858173
 20
1.204917
  0
VERTEX
  8
PLAN_1
  6
CONTINUOUS
 10
-0.854594
 20
1.209516
  0
VERTEX
  8
PLAN_1
  6
CONTINUOUS
 10
-0.852039
 20
1.213606
  0
VERTEX
  8
PLAN_1
  6
CONTINUOUS
 10
-0.850504
 20
1.217697
  0
VERTEX
  8
PLAN_1
  6
CONTINUOUS
 10
-0.849992
 20
1.221787
  0
VERTEX
  8
PLAN_1
  6
CONTINUOUS
 10
-0.849992
 20
1.225874
  0
VERTEX
  8
PLAN_1
  6
CONTINUOUS
 10
-0.850504
 20
1.229453
  0
VERTEX
  8
PLAN_1
  6
CONTINUOUS
 10
-0.852039
 20
1.233031
  0
VERTEX
  8
PLAN_1
  6
CONTINUOUS
 10
-0.853571
 20
1.236098
  0
VERTEX
  8
PLAN_1
  6
CONTINUOUS
 10
-0.855106
 20
1.238654
  0
VERTEX
  8
PLAN_1
  6
CONTINUOUS
 10
-0.857150
 20
1.241213
  0
VERTEX
  8
PLAN_1
  6
CONTINUOUS
 10
-0.858685
 20
1.243256
  0
VERTEX
  8
PLAN_1
  6
CONTINUOUS
 10
-0.861752
 20
1.246323
  0
VERTEX
  8
PLAN_1
  6
CONTINUOUS
 10
-0.862772
 20
1.247346
  0
SEQEND
  8
0
  0
POLYLINE
  8
PLAN_1
  6
CONTINUOUS
 66
     1
 40
0.007154
 41
0.007154
  0
VERTEX
  8
PLAN_1
  6
CONTINUOUS
 10
-0.862772
 20
1.247346
  0
VERTEX
  8
PLAN_1
  6
CONTINUOUS
 10
-1.150567
 20
1.247346
  0
SEQEND
  8
0
  0
POLYLINE
  8
PLAN_1
  6
CONTINUOUS
 66
     1
 40
0.007154
 41
0.007154
  0
VERTEX
  8
PLAN_1
  6
CONTINUOUS
 10
-1.150567
 20
1.247346
  0
VERTEX
  8
PLAN_1
  6
CONTINUOUS
 10
-1.151591
 20
1.246323
  0
VERTEX
  8
PLAN_1
  6
CONTINUOUS
 10
-1.154146
 20
1.243256
  0
VERTEX
  8
PLAN_1
  6
CONTINUOUS
 10
-1.157213
 20
1.239165
  0
VERTEX
  8
PLAN_1
  6
CONTINUOUS
 10
-1.160280
 20
1.233543
  0
VERTEX
  8
PLAN_1
  6
CONTINUOUS
 10
-1.161303
 20
1.229965
  0
VERTEX
  8
PLAN_1
  6
CONTINUOUS
 10
-1.161815
 20
1.226386
  0
VERTEX
  8
PLAN_1
  6
CONTINUOUS
 10
-1.161815
 20
1.222807
  0
VERTEX
  8
PLAN_1
  6
CONTINUOUS
 10
-1.161303
 20
1.218720
  0
VERTEX
  8
PLAN_1
  6
CONTINUOUS
 10
-1.160280
 20
1.214118
  0
VERTEX
  8
PLAN_1
  6
CONTINUOUS
 10
-1.158236
 20
1.210028
  0
VERTEX
  8
PLAN_1
  6
CONTINUOUS
 10
-1.154657
 20
1.205429
  0
VERTEX
  8
PLAN_1
  6
CONTINUOUS
 10
-1.150567
 20
1.200315
  0
SEQEND
  8
0
  0
POLYLINE
  8
PLAN_1
  6
CONTINUOUS
 66
     1
 40
0.007154
 41
0.007154
  0
VERTEX
  8
PLAN_1
  6
CONTINUOUS
 10
-1.150567
 20
1.200315
  0
VERTEX
  8
PLAN_1
  6
CONTINUOUS
 10
-0.862772
 20
1.200315
  0
SEQEND
  8
0
  0
POLYLINE
  8
PLAN_1
  6
CONTINUOUS
 66
     1
 40
0.007154
 41
0.007154
  0
VERTEX
  8
PLAN_1
  6
CONTINUOUS
 10
-0.863283
 20
1.153799
  0
VERTEX
  8
PLAN_1
  6
CONTINUOUS
 10
-0.858685
 20
1.158398
  0
VERTEX
  8
PLAN_1
  6
CONTINUOUS
 10
-0.855106
 20
1.163000
  0
VERTEX
  8
PLAN_1
  6
CONTINUOUS
 10
-0.852551
 20
1.167602
  0
VERTEX
  8
PLAN_1
  6
CONTINUOUS
 10
-0.851016
 20
1.171689
  0
VERTEX
  8
PLAN_1
  6
CONTINUOUS
 10
-0.850504
 20
1.175780
  0
VERTEX
  8
PLAN_1
  6
CONTINUOUS
 10
-0.850504
 20
1.179358
  0
VERTEX
  8
PLAN_1
  6
CONTINUOUS
 10
-0.851016
 20
1.182937
  0
VERTEX
  8
PLAN_1
  6
CONTINUOUS
 10
-0.852551
 20
1.186516
  0
VERTEX
  8
PLAN_1
  6
CONTINUOUS
 10
-0.854083
 20
1.189583
  0
VERTEX
  8
PLAN_1
  6
CONTINUOUS
 10
-0.855618
 20
1.192650
  0
VERTEX
  8
PLAN_1
  6
CONTINUOUS
 10
-0.857661
 20
1.194693
  0
VERTEX
  8
PLAN_1
  6
CONTINUOUS
 10
-0.859193
 20
1.196736
  0
VERTEX
  8
PLAN_1
  6
CONTINUOUS
 10
-0.862260
 20
1.199803
  0
VERTEX
  8
PLAN_1
  6
CONTINUOUS
 10
-0.863283
 20
1.200827
  0
SEQEND
  8
0
  0
POLYLINE
  8
PLAN_1
  6
CONTINUOUS
 66
     1
 40
0.007154
 41
0.007154
  0
VERTEX
  8
PLAN_1
  6
CONTINUOUS
 10
-0.863283
 20
1.200827
  0
VERTEX
  8
PLAN_1
  6
CONTINUOUS
 10
-1.151079
 20
1.200827
  0
SEQEND
  8
0
  0
POLYLINE
  8
PLAN_1
  6
CONTINUOUS
 66
     1
 40
0.007154
 41
0.007154
  0
VERTEX
  8
PLAN_1
  6
CONTINUOUS
 10
-1.151079
 20
1.200827
  0
VERTEX
  8
PLAN_1
  6
CONTINUOUS
 10
-1.152102
 20
1.199803
  0
VERTEX
  8
PLAN_1
  6
CONTINUOUS
 10
-1.154657
 20
1.197248
  0
VERTEX
  8
PLAN_1
  6
CONTINUOUS
 10
-1.157724
 20
1.192650
  0
VERTEX
  8
PLAN_1
  6
CONTINUOUS
 10
-1.160791
 20
1.187024
  0
VERTEX
  8
PLAN_1
  6
CONTINUOUS
 10
-1.161815
 20
1.183957
  0
VERTEX
  8
PLAN_1
  6
CONTINUOUS
 10
-1.162327
 20
1.180382
  0
VERTEX
  8
PLAN_1
  6
CONTINUOUS
 10
-1.162327
 20
1.176291
  0
VERTEX
  8
PLAN_1
  6
CONTINUOUS
 10
-1.161815
 20
1.172201
  0
VERTEX
  8
PLAN_1
  6
CONTINUOUS
 10
-1.160791
 20
1.168110
  0
VERTEX
  8
PLAN_1
  6
CONTINUOUS
 10
-1.158236
 20
1.163512
  0
VERTEX
  8
PLAN_1
  6
CONTINUOUS
 10
-1.155169
 20
1.158909
  0
VERTEX
  8
PLAN_1
  6
CONTINUOUS
 10
-1.151079
 20
1.153799
  0
SEQEND
  8
0
  0
POLYLINE
  8
PLAN_1
  6
CONTINUOUS
 66
     1
 40
0.007154
 41
0.007154
  0
VERTEX
  8
PLAN_1
  6
CONTINUOUS
 10
-1.151079
 20
1.153799
  0
VERTEX
  8
PLAN_1
  6
CONTINUOUS
 10
-0.863283
 20
1.153799
  0
SEQEND
  8
0
  0
POLYLINE
  8
PLAN_1
  6
CONTINUOUS
 66
     1
 40
0.007154
 41
0.007154
  0
VERTEX
  8
PLAN_1
  6
CONTINUOUS
 10
-0.862772
 20
1.107791
  0
VERTEX
  8
PLAN_1
  6
CONTINUOUS
 10
-0.858173
 20
1.112394
  0
VERTEX
  8
PLAN_1
  6
CONTINUOUS
 10
-0.854594
 20
1.116484
  0
VERTEX
  8
PLAN_1
  6
CONTINUOUS
 10
-0.852039
 20
1.121083
  0
VERTEX
  8
PLAN_1
  6
CONTINUOUS
 10
-0.850504
 20
1.125173
  0
VERTEX
  8
PLAN_1
  6
CONTINUOUS
 10
-0.849992
 20
1.129264
  0
VERTEX
  8
PLAN_1
  6
CONTINUOUS
 10
-0.849992
 20
1.133350
  0
VERTEX
  8
PLAN_1
  6
CONTINUOUS
 10
-0.850504
 20
1.136929
  0
VERTEX
  8
PLAN_1
  6
CONTINUOUS
 10
-0.852039
 20
1.139996
  0
VERTEX
  8
PLAN_1
  6
CONTINUOUS
 10
-0.853571
 20
1.143063
  0
VERTEX
  8
PLAN_1
  6
CONTINUOUS
 10
-0.855106
 20
1.146130
  0
VERTEX
  8
PLAN_1
  6
CONTINUOUS
 10
-0.857150
 20
1.148685
  0
VERTEX
  8
PLAN_1
  6
CONTINUOUS
 10
-0.858685
 20
1.150732
  0
VERTEX
  8
PLAN_1
  6
CONTINUOUS
 10
-0.861752
 20
1.153287
  0
VERTEX
  8
PLAN_1
  6
CONTINUOUS
 10
-0.862772
 20
1.154311
  0
SEQEND
  8
0
  0
POLYLINE
  8
PLAN_1
  6
CONTINUOUS
 66
     1
 40
0.007154
 41
0.007154
  0
VERTEX
  8
PLAN_1
  6
CONTINUOUS
 10
-0.862772
 20
1.154311
  0
VERTEX
  8
PLAN_1
  6
CONTINUOUS
 10
-1.150567
 20
1.154311
  0
SEQEND
  8
0
  0
POLYLINE
  8
PLAN_1
  6
CONTINUOUS
 66
     1
 40
0.007154
 41
0.007154
  0
VERTEX
  8
PLAN_1
  6
CONTINUOUS
 10
-1.150567
 20
1.154311
  0
VERTEX
  8
PLAN_1
  6
CONTINUOUS
 10
-1.151591
 20
1.153287
  0
VERTEX
  8
PLAN_1
  6
CONTINUOUS
 10
-1.154146
 20
1.150732
  0
VERTEX
  8
PLAN_1
  6
CONTINUOUS
 10
-1.157213
 20
1.146642
  0
VERTEX
  8
PLAN_1
  6
CONTINUOUS
 10
-1.160280
 20
1.141020
  0
VERTEX
  8
PLAN_1
  6
CONTINUOUS
 10
-1.161303
 20
1.137441
  0
VERTEX
  8
PLAN_1
  6
CONTINUOUS
 10
-1.161815
 20
1.133862
  0
VERTEX
  8
PLAN_1
  6
CONTINUOUS
 10
-1.161815
 20
1.130283
  0
VERTEX
  8
PLAN_1
  6
CONTINUOUS
 10
-1.161303
 20
1.126197
  0
VERTEX
  8
PLAN_1
  6
CONTINUOUS
 10
-1.160280
 20
1.121594
  0
VERTEX
  8
PLAN_1
  6
CONTINUOUS
 10
-1.158236
 20
1.116992
  0
VERTEX
  8
PLAN_1
  6
CONTINUOUS
 10
-1.154657
 20
1.112394
  0
VERTEX
  8
PLAN_1
  6
CONTINUOUS
 10
-1.150567
 20
1.107791
  0
SEQEND
  8
0
  0
POLYLINE
  8
PLAN_1
  6
CONTINUOUS
 66
     1
 40
0.007154
 41
0.007154
  0
VERTEX
  8
PLAN_1
  6
CONTINUOUS
 10
-1.150567
 20
1.107791
  0
VERTEX
  8
PLAN_1
  6
CONTINUOUS
 10
-0.862772
 20
1.107791
  0
SEQEND
  8
0
  0
POLYLINE
  8
PLAN_1
  6
CONTINUOUS
 66
     1
 40
0.007154
 41
0.007154
  0
VERTEX
  8
PLAN_1
  6
CONTINUOUS
 10
-0.863283
 20
1.061276
  0
VERTEX
  8
PLAN_1
  6
CONTINUOUS
 10
-0.858685
 20
1.065874
  0
VERTEX
  8
PLAN_1
  6
CONTINUOUS
 10
-0.855106
 20
1.070476
  0
VERTEX
  8
PLAN_1
  6
CONTINUOUS
 10
-0.852551
 20
1.074567
  0
VERTEX
  8
PLAN_1
  6
CONTINUOUS
 10
-0.851016
 20
1.078654
  0
VERTEX
  8
PLAN_1
  6
CONTINUOUS
 10
-0.850504
 20
1.082744
  0
VERTEX
  8
PLAN_1
  6
CONTINUOUS
 10
-0.850504
 20
1.086835
  0
VERTEX
  8
PLAN_1
  6
CONTINUOUS
 10
-0.851016
 20
1.090413
  0
VERTEX
  8
PLAN_1
  6
CONTINUOUS
 10
-0.852551
 20
1.093992
  0
VERTEX
  8
PLAN_1
  6
CONTINUOUS
 10
-0.854083
 20
1.097059
  0
VERTEX
  8
PLAN_1
  6
CONTINUOUS
 10
-0.855618
 20
1.099614
  0
VERTEX
  8
PLAN_1
  6
CONTINUOUS
 10
-0.857661
 20
1.102169
  0
VERTEX
  8
PLAN_1
  6
CONTINUOUS
 10
-0.859193
 20
1.104213
  0
VERTEX
  8
PLAN_1
  6
CONTINUOUS
 10
-0.862260
 20
1.107280
  0
VERTEX
  8
PLAN_1
  6
CONTINUOUS
 10
-0.863283
 20
1.108303
  0
SEQEND
  8
0
  0
POLYLINE
  8
PLAN_1
  6
CONTINUOUS
 66
     1
 40
0.007154
 41
0.007154
  0
VERTEX
  8
PLAN_1
  6
CONTINUOUS
 10
-0.863283
 20
1.108303
  0
VERTEX
  8
PLAN_1
  6
CONTINUOUS
 10
-1.151079
 20
1.108303
  0
SEQEND
  8
0
  0
POLYLINE
  8
PLAN_1
  6
CONTINUOUS
 66
     1
 40
0.007154
 41
0.007154
  0
VERTEX
  8
PLAN_1
  6
CONTINUOUS
 10
-1.151079
 20
1.108303
  0
VERTEX
  8
PLAN_1
  6
CONTINUOUS
 10
-1.152102
 20
1.107280
  0
VERTEX
  8
PLAN_1
  6
CONTINUOUS
 10
-1.154657
 20
1.104724
  0
VERTEX
  8
PLAN_1
  6
CONTINUOUS
 10
-1.157724
 20
1.100126
  0
VERTEX
  8
PLAN_1
  6
CONTINUOUS
 10
-1.160791
 20
1.094500
  0
VERTEX
  8
PLAN_1
  6
CONTINUOUS
 10
-1.161815
 20
1.090925
  0
VERTEX
  8
PLAN_1
  6
CONTINUOUS
 10
-1.162327
 20
1.087346
  0
VERTEX
  8
PLAN_1
  6
CONTINUOUS
 10
-1.162327
 20
1.083768
  0
VERTEX
  8
PLAN_1
  6
CONTINUOUS
 10
-1.161815
 20
1.079677
  0
VERTEX
  8
PLAN_1
  6
CONTINUOUS
 10
-1.160791
 20
1.075079
  0
VERTEX
  8
PLAN_1
  6
CONTINUOUS
 10
-1.158236
 20
1.070988
  0
VERTEX
  8
PLAN_1
  6
CONTINUOUS
 10
-1.155169
 20
1.066386
  0
VERTEX
  8
PLAN_1
  6
CONTINUOUS
 10
-1.151079
 20
1.061276
  0
SEQEND
  8
0
  0
POLYLINE
  8
PLAN_1
  6
CONTINUOUS
 66
     1
 40
0.007154
 41
0.007154
  0
VERTEX
  8
PLAN_1
  6
CONTINUOUS
 10
-1.151079
 20
1.061276
  0
VERTEX
  8
PLAN_1
  6
CONTINUOUS
 10
-0.863283
 20
1.061276
  0
SEQEND
  8
0
  0
POLYLINE
  8
PLAN_1
  6
CONTINUOUS
 66
     1
 40
0.007154
 41
0.007154
  0
VERTEX
  8
PLAN_1
  6
CONTINUOUS
 10
-0.862772
 20
1.014756
  0
VERTEX
  8
PLAN_1
  6
CONTINUOUS
 10
-0.858173
 20
1.019358
  0
VERTEX
  8
PLAN_1
  6
CONTINUOUS
 10
-0.854594
 20
1.023961
  0
VERTEX
  8
PLAN_1
  6
CONTINUOUS
 10
-0.852039
 20
1.028559
  0
VERTEX
  8
PLAN_1
  6
CONTINUOUS
 10
-0.850504
 20
1.032650
  0
VERTEX
  8
PLAN_1
  6
CONTINUOUS
 10
-0.849992
 20
1.036740
  0
VERTEX
  8
PLAN_1
  6
CONTINUOUS
 10
-0.849992
 20
1.040315
  0
VERTEX
  8
PLAN_1
  6
CONTINUOUS
 10
-0.850504
 20
1.043894
  0
VERTEX
  8
PLAN_1
  6
CONTINUOUS
 10
-0.852039
 20
1.047472
  0
VERTEX
  8
PLAN_1
  6
CONTINUOUS
 10
-0.853571
 20
1.050539
  0
VERTEX
  8
PLAN_1
  6
CONTINUOUS
 10
-0.855106
 20
1.053606
  0
VERTEX
  8
PLAN_1
  6
CONTINUOUS
 10
-0.857150
 20
1.055654
  0
VERTEX
  8
PLAN_1
  6
CONTINUOUS
 10
-0.858685
 20
1.057697
  0
VERTEX
  8
PLAN_1
  6
CONTINUOUS
 10
-0.861752
 20
1.060764
  0
VERTEX
  8
PLAN_1
  6
CONTINUOUS
 10
-0.862772
 20
1.061787
  0
SEQEND
  8
0
  0
POLYLINE
  8
PLAN_1
  6
CONTINUOUS
 66
     1
 40
0.007154
 41
0.007154
  0
VERTEX
  8
PLAN_1
  6
CONTINUOUS
 10
-0.862772
 20
1.061787
  0
VERTEX
  8
PLAN_1
  6
CONTINUOUS
 10
-1.150567
 20
1.061787
  0
SEQEND
  8
0
  0
POLYLINE
  8
PLAN_1
  6
CONTINUOUS
 66
     1
 40
0.007154
 41
0.007154
  0
VERTEX
  8
PLAN_1
  6
CONTINUOUS
 10
-1.150567
 20
1.061787
  0
VERTEX
  8
PLAN_1
  6
CONTINUOUS
 10
-1.151591
 20
1.060764
  0
VERTEX
  8
PLAN_1
  6
CONTINUOUS
 10
-1.154146
 20
1.058209
  0
VERTEX
  8
PLAN_1
  6
CONTINUOUS
 10
-1.157213
 20
1.053606
  0
VERTEX
  8
PLAN_1
  6
CONTINUOUS
 10
-1.160280
 20
1.047984
  0
VERTEX
  8
PLAN_1
  6
CONTINUOUS
 10
-1.161303
 20
1.044917
  0
VERTEX
  8
PLAN_1
  6
CONTINUOUS
 10
-1.161815
 20
1.041339
  0
VERTEX
  8
PLAN_1
  6
CONTINUOUS
 10
-1.161815
 20
1.037248
  0
VERTEX
  8
PLAN_1
  6
CONTINUOUS
 10
-1.161303
 20
1.033161
  0
VERTEX
  8
PLAN_1
  6
CONTINUOUS
 10
-1.160280
 20
1.029071
  0
VERTEX
  8
PLAN_1
  6
CONTINUOUS
 10
-1.158236
 20
1.024469
  0
VERTEX
  8
PLAN_1
  6
CONTINUOUS
 10
-1.154657
 20
1.019870
  0
VERTEX
  8
PLAN_1
  6
CONTINUOUS
 10
-1.150567
 20
1.014756
  0
SEQEND
  8
0
  0
POLYLINE
  8
PLAN_1
  6
CONTINUOUS
 66
     1
 40
0.007154
 41
0.007154
  0
VERTEX
  8
PLAN_1
  6
CONTINUOUS
 10
-1.150567
 20
1.014756
  0
VERTEX
  8
PLAN_1
  6
CONTINUOUS
 10
-0.862772
 20
1.014756
  0
SEQEND
  8
0
  0
POLYLINE
  8
PLAN_1
  6
CONTINUOUS
 66
     1
 40
0.007154
 41
0.007154
  0
VERTEX
  8
PLAN_1
  6
CONTINUOUS
 10
-0.863283
 20
0.968752
  0
VERTEX
  8
PLAN_1
  6
CONTINUOUS
 10
-0.858685
 20
0.973350
  0
VERTEX
  8
PLAN_1
  6
CONTINUOUS
 10
-0.855106
 20
0.977441
  0
VERTEX
  8
PLAN_1
  6
CONTINUOUS
 10
-0.852551
 20
0.982043
  0
VERTEX
  8
PLAN_1
  6
CONTINUOUS
 10
-0.851016
 20
0.986130
  0
VERTEX
  8
PLAN_1
  6
CONTINUOUS
 10
-0.850504
 20
0.990220
  0
VERTEX
  8
PLAN_1
  6
CONTINUOUS
 10
-0.850504
 20
0.994311
  0
VERTEX
  8
PLAN_1
  6
CONTINUOUS
 10
-0.851016
 20
0.997890
  0
VERTEX
  8
PLAN_1
  6
CONTINUOUS
 10
-0.852551
 20
1.000957
  0
VERTEX
  8
PLAN_1
  6
CONTINUOUS
 10
-0.854083
 20
1.004024
  0
VERTEX
  8
PLAN_1
  6
CONTINUOUS
 10
-0.855618
 20
1.007091
  0
VERTEX
  8
PLAN_1
  6
CONTINUOUS
 10
-0.857661
 20
1.009646
  0
VERTEX
  8
PLAN_1
  6
CONTINUOUS
 10
-0.859193
 20
1.011689
  0
VERTEX
  8
PLAN_1
  6
CONTINUOUS
 10
-0.862260
 20
1.014248
  0
VERTEX
  8
PLAN_1
  6
CONTINUOUS
 10
-0.863283
 20
1.015268
  0
SEQEND
  8
0
  0
POLYLINE
  8
PLAN_1
  6
CONTINUOUS
 66
     1
 40
0.007154
 41
0.007154
  0
VERTEX
  8
PLAN_1
  6
CONTINUOUS
 10
-0.863283
 20
1.015268
  0
VERTEX
  8
PLAN_1
  6
CONTINUOUS
 10
-1.151079
 20
1.015268
  0
SEQEND
  8
0
  0
POLYLINE
  8
PLAN_1
  6
CONTINUOUS
 66
     1
 40
0.007154
 41
0.007154
  0
VERTEX
  8
PLAN_1
  6
CONTINUOUS
 10
-1.151079
 20
1.015268
  0
VERTEX
  8
PLAN_1
  6
CONTINUOUS
 10
-1.152102
 20
1.014248
  0
VERTEX
  8
PLAN_1
  6
CONTINUOUS
 10
-1.154657
 20
1.011689
  0
VERTEX
  8
PLAN_1
  6
CONTINUOUS
 10
-1.157724
 20
1.007602
  0
VERTEX
  8
PLAN_1
  6
CONTINUOUS
 10
-1.160791
 20
1.001976
  0
VERTEX
  8
PLAN_1
  6
CONTINUOUS
 10
-1.161815
 20
0.998402
  0
VERTEX
  8
PLAN_1
  6
CONTINUOUS
 10
-1.162327
 20
0.994823
  0
VERTEX
  8
PLAN_1
  6
CONTINUOUS
 10
-1.162327
 20
0.991244
  0
VERTEX
  8
PLAN_1
  6
CONTINUOUS
 10
-1.161815
 20
0.987154
  0
VERTEX
  8
PLAN_1
  6
CONTINUOUS
 10
-1.160791
 20
0.982551
  0
VERTEX
  8
PLAN_1
  6
CONTINUOUS
 10
-1.158236
 20
0.977953
  0
VERTEX
  8
PLAN_1
  6
CONTINUOUS
 10
-1.155169
 20
0.973350
  0
VERTEX
  8
PLAN_1
  6
CONTINUOUS
 10
-1.151079
 20
0.968752
  0
SEQEND
  8
0
  0
POLYLINE
  8
PLAN_1
  6
CONTINUOUS
 66
     1
 40
0.007154
 41
0.007154
  0
VERTEX
  8
PLAN_1
  6
CONTINUOUS
 10
-1.151079
 20
0.968752
  0
VERTEX
  8
PLAN_1
  6
CONTINUOUS
 10
-0.863283
 20
0.968752
  0
SEQEND
  8
0
  0
POLYLINE
  8
PLAN_1
  6
CONTINUOUS
 66
     1
 40
0.007154
 41
0.007154
  0
VERTEX
  8
PLAN_1
  6
CONTINUOUS
 10
-0.862772
 20
0.922232
  0
VERTEX
  8
PLAN_1
  6
CONTINUOUS
 10
-0.858173
 20
0.926835
  0
VERTEX
  8
PLAN_1
  6
CONTINUOUS
 10
-0.854594
 20
0.931433
  0
VERTEX
  8
PLAN_1
  6
CONTINUOUS
 10
-0.852039
 20
0.935524
  0
VERTEX
  8
PLAN_1
  6
CONTINUOUS
 10
-0.850504
 20
0.939614
  0
VERTEX
  8
PLAN_1
  6
CONTINUOUS
 10
-0.849992
 20
0.943705
  0
VERTEX
  8
PLAN_1
  6
CONTINUOUS
 10
-0.849992
 20
0.947791
  0
VERTEX
  8
PLAN_1
  6
CONTINUOUS
 10
-0.850504
 20
0.951370
  0
VERTEX
  8
PLAN_1
  6
CONTINUOUS
 10
-0.852039
 20
0.954949
  0
VERTEX
  8
PLAN_1
  6
CONTINUOUS
 10
-0.853571
 20
0.958016
  0
VERTEX
  8
PLAN_1
  6
CONTINUOUS
 10
-0.855106
 20
0.960571
  0
VERTEX
  8
PLAN_1
  6
CONTINUOUS
 10
-0.857150
 20
0.963130
  0
VERTEX
  8
PLAN_1
  6
CONTINUOUS
 10
-0.858685
 20
0.965173
  0
VERTEX
  8
PLAN_1
  6
CONTINUOUS
 10
-0.861752
 20
0.968240
  0
VERTEX
  8
PLAN_1
  6
CONTINUOUS
 10
-0.862772
 20
0.969264
  0
SEQEND
  8
0
  0
POLYLINE
  8
PLAN_1
  6
CONTINUOUS
 66
     1
 40
0.007154
 41
0.007154
  0
VERTEX
  8
PLAN_1
  6
CONTINUOUS
 10
-0.862772
 20
0.969264
  0
VERTEX
  8
PLAN_1
  6
CONTINUOUS
 10
-1.150567
 20
0.969264
  0
SEQEND
  8
0
  0
POLYLINE
  8
PLAN_1
  6
CONTINUOUS
 66
     1
 40
0.007154
 41
0.007154
  0
VERTEX
  8
PLAN_1
  6
CONTINUOUS
 10
-1.150567
 20
0.969264
  0
VERTEX
  8
PLAN_1
  6
CONTINUOUS
 10
-1.151591
 20
0.968240
  0
VERTEX
  8
PLAN_1
  6
CONTINUOUS
 10
-1.154146
 20
0.965685
  0
VERTEX
  8
PLAN_1
  6
CONTINUOUS
 10
-1.157213
 20
0.961083
  0
VERTEX
  8
PLAN_1
  6
CONTINUOUS
 10
-1.160280
 20
0.955461
  0
VERTEX
  8
PLAN_1
  6
CONTINUOUS
 10
-1.161303
 20
0.951882
  0
VERTEX
  8
PLAN_1
  6
CONTINUOUS
 10
-1.161815
 20
0.948303
  0
VERTEX
  8
PLAN_1
  6
CONTINUOUS
 10
-1.161815
 20
0.944724
  0
VERTEX
  8
PLAN_1
  6
CONTINUOUS
 10
-1.161303
 20
0.940638
  0
VERTEX
  8
PLAN_1
  6
CONTINUOUS
 10
-1.160280
 20
0.936035
  0
VERTEX
  8
PLAN_1
  6
CONTINUOUS
 10
-1.158236
 20
0.931945
  0
VERTEX
  8
PLAN_1
  6
CONTINUOUS
 10
-1.154657
 20
0.927346
  0
VERTEX
  8
PLAN_1
  6
CONTINUOUS
 10
-1.150567
 20
0.922232
  0
SEQEND
  8
0
  0
POLYLINE
  8
PLAN_1
  6
CONTINUOUS
 66
     1
 40
0.007154
 41
0.007154
  0
VERTEX
  8
PLAN_1
  6
CONTINUOUS
 10
-1.150567
 20
0.922232
  0
VERTEX
  8
PLAN_1
  6
CONTINUOUS
 10
-0.862772
 20
0.922232
  0
SEQEND
  8
0
  0
POLYLINE
  8
PLAN_1
  6
CONTINUOUS
 66
     1
 40
0.007154
 41
0.007154
  0
VERTEX
  8
PLAN_1
  6
CONTINUOUS
 10
-0.863283
 20
0.876228
  0
VERTEX
  8
PLAN_1
  6
CONTINUOUS
 10
-0.858685
 20
0.880315
  0
VERTEX
  8
PLAN_1
  6
CONTINUOUS
 10
-0.855106
 20
0.884917
  0
VERTEX
  8
PLAN_1
  6
CONTINUOUS
 10
-0.852551
 20
0.889520
  0
VERTEX
  8
PLAN_1
  6
CONTINUOUS
 10
-0.851016
 20
0.893606
  0
VERTEX
  8
PLAN_1
  6
CONTINUOUS
 10
-0.850504
 20
0.897697
  0
VERTEX
  8
PLAN_1
  6
CONTINUOUS
 10
-0.850504
 20
0.901276
  0
VERTEX
  8
PLAN_1
  6
CONTINUOUS
 10
-0.851016
 20
0.904854
  0
VERTEX
  8
PLAN_1
  6
CONTINUOUS
 10
-0.852551
 20
0.908433
  0
VERTEX
  8
PLAN_1
  6
CONTINUOUS
 10
-0.854083
 20
0.911500
  0
VERTEX
  8
PLAN_1
  6
CONTINUOUS
 10
-0.855618
 20
0.914567
  0
VERTEX
  8
PLAN_1
  6
CONTINUOUS
 10
-0.857661
 20
0.916610
  0
VERTEX
  8
PLAN_1
  6
CONTINUOUS
 10
-0.859193
 20
0.918654
  0
VERTEX
  8
PLAN_1
  6
CONTINUOUS
 10
-0.862260
 20
0.921724
  0
VERTEX
  8
PLAN_1
  6
CONTINUOUS
 10
-0.863283
 20
0.922744
  0
SEQEND
  8
0
  0
POLYLINE
  8
PLAN_1
  6
CONTINUOUS
 66
     1
 40
0.007154
 41
0.007154
  0
VERTEX
  8
PLAN_1
  6
CONTINUOUS
 10
-0.863283
 20
0.922744
  0
VERTEX
  8
PLAN_1
  6
CONTINUOUS
 10
-1.151079
 20
0.922744
  0
SEQEND
  8
0
  0
POLYLINE
  8
PLAN_1
  6
CONTINUOUS
 66
     1
 40
0.007154
 41
0.007154
  0
VERTEX
  8
PLAN_1
  6
CONTINUOUS
 10
-1.151079
 20
0.922744
  0
VERTEX
  8
PLAN_1
  6
CONTINUOUS
 10
-1.152102
 20
0.921724
  0
VERTEX
  8
PLAN_1
  6
CONTINUOUS
 10
-1.154657
 20
0.919165
  0
VERTEX
  8
PLAN_1
  6
CONTINUOUS
 10
-1.157724
 20
0.914567
  0
VERTEX
  8
PLAN_1
  6
CONTINUOUS
 10
-1.160791
 20
0.908945
  0
VERTEX
  8
PLAN_1
  6
CONTINUOUS
 10
-1.161815
 20
0.905874
  0
VERTEX
  8
PLAN_1
  6
CONTINUOUS
 10
-1.162327
 20
0.902299
  0
VERTEX
  8
PLAN_1
  6
CONTINUOUS
 10
-1.162327
 20
0.898209
  0
VERTEX
  8
PLAN_1
  6
CONTINUOUS
 10
-1.161815
 20
0.894118
  0
VERTEX
  8
PLAN_1
  6
CONTINUOUS
 10
-1.160791
 20
0.890028
  0
VERTEX
  8
PLAN_1
  6
CONTINUOUS
 10
-1.158236
 20
0.885429
  0
VERTEX
  8
PLAN_1
  6
CONTINUOUS
 10
-1.155169
 20
0.880827
  0
VERTEX
  8
PLAN_1
  6
CONTINUOUS
 10
-1.151079
 20
0.876228
  0
SEQEND
  8
0
  0
POLYLINE
  8
PLAN_1
  6
CONTINUOUS
 66
     1
 40
0.007154
 41
0.007154
  0
VERTEX
  8
PLAN_1
  6
CONTINUOUS
 10
-1.151079
 20
0.876228
  0
VERTEX
  8
PLAN_1
  6
CONTINUOUS
 10
-0.863283
 20
0.876228
  0
SEQEND
  8
0
  0
POLYLINE
  8
PLAN_1
  6
CONTINUOUS
 66
     1
 40
0.007154
 41
0.007154
  0
VERTEX
  8
PLAN_1
  6
CONTINUOUS
 10
-0.862772
 20
0.829709
  0
VERTEX
  8
PLAN_1
  6
CONTINUOUS
 10
-0.858173
 20
0.834311
  0
VERTEX
  8
PLAN_1
  6
CONTINUOUS
 10
-0.854594
 20
0.838402
  0
VERTEX
  8
PLAN_1
  6
CONTINUOUS
 10
-0.852039
 20
0.843000
  0
VERTEX
  8
PLAN_1
  6
CONTINUOUS
 10
-0.850504
 20
0.847091
  0
VERTEX
  8
PLAN_1
  6
CONTINUOUS
 10
-0.849992
 20
0.851181
  0
VERTEX
  8
PLAN_1
  6
CONTINUOUS
 10
-0.849992
 20
0.855268
  0
VERTEX
  8
PLAN_1
  6
CONTINUOUS
 10
-0.850504
 20
0.858846
  0
VERTEX
  8
PLAN_1
  6
CONTINUOUS
 10
-0.852039
 20
0.861913
  0
VERTEX
  8
PLAN_1
  6
CONTINUOUS
 10
-0.853571
 20
0.864980
  0
VERTEX
  8
PLAN_1
  6
CONTINUOUS
 10
-0.855106
 20
0.868047
  0
VERTEX
  8
PLAN_1
  6
CONTINUOUS
 10
-0.857150
 20
0.870606
  0
VERTEX
  8
PLAN_1
  6
CONTINUOUS
 10
-0.858685
 20
0.872650
  0
VERTEX
  8
PLAN_1
  6
CONTINUOUS
 10
-0.861752
 20
0.875205
  0
VERTEX
  8
PLAN_1
  6
CONTINUOUS
 10
-0.862772
 20
0.876228
  0
SEQEND
  8
0
  0
POLYLINE
  8
PLAN_1
  6
CONTINUOUS
 66
     1
 40
0.007154
 41
0.007154
  0
VERTEX
  8
PLAN_1
  6
CONTINUOUS
 10
-0.862772
 20
0.876228
  0
VERTEX
  8
PLAN_1
  6
CONTINUOUS
 10
-1.150567
 20
0.876228
  0
SEQEND
  8
0
  0
POLYLINE
  8
PLAN_1
  6
CONTINUOUS
 66
     1
 40
0.007154
 41
0.007154
  0
VERTEX
  8
PLAN_1
  6
CONTINUOUS
 10
-1.150567
 20
0.876228
  0
VERTEX
  8
PLAN_1
  6
CONTINUOUS
 10
-1.151591
 20
0.875717
  0
VERTEX
  8
PLAN_1
  6
CONTINUOUS
 10
-1.154146
 20
0.872650
  0
VERTEX
  8
PLAN_1
  6
CONTINUOUS
 10
-1.157213
 20
0.868559
  0
VERTEX
  8
PLAN_1
  6
CONTINUOUS
 10
-1.160280
 20
0.862937
  0
VERTEX
  8
PLAN_1
  6
CONTINUOUS
 10
-1.161303
 20
0.859358
  0
VERTEX
  8
PLAN_1
  6
CONTINUOUS
 10
-1.161815
 20
0.855780
  0
VERTEX
  8
PLAN_1
  6
CONTINUOUS
 10
-1.161815
 20
0.852201
  0
VERTEX
  8
PLAN_1
  6
CONTINUOUS
 10
-1.161303
 20
0.848114
  0
VERTEX
  8
PLAN_1
  6
CONTINUOUS
 10
-1.160280
 20
0.843512
  0
VERTEX
  8
PLAN_1
  6
CONTINUOUS
 10
-1.158236
 20
0.838909
  0
VERTEX
  8
PLAN_1
  6
CONTINUOUS
 10
-1.154657
 20
0.834311
  0
VERTEX
  8
PLAN_1
  6
CONTINUOUS
 10
-1.150567
 20
0.829709
  0
SEQEND
  8
0
  0
POLYLINE
  8
PLAN_1
  6
CONTINUOUS
 66
     1
 40
0.007154
 41
0.007154
  0
VERTEX
  8
PLAN_1
  6
CONTINUOUS
 10
-1.150567
 20
0.829709
  0
VERTEX
  8
PLAN_1
  6
CONTINUOUS
 10
-0.862772
 20
0.829709
  0
SEQEND
  8
0
  0
POLYLINE
  8
PLAN_1
  6
CONTINUOUS
 66
     1
 40
0.007154
 41
0.007154
  0
VERTEX
  8
PLAN_1
  6
CONTINUOUS
 10
-0.863283
 20
0.783193
  0
VERTEX
  8
PLAN_1
  6
CONTINUOUS
 10
-0.858685
 20
0.787791
  0
VERTEX
  8
PLAN_1
  6
CONTINUOUS
 10
-0.855106
 20
0.792394
  0
VERTEX
  8
PLAN_1
  6
CONTINUOUS
 10
-0.852551
 20
0.796484
  0
VERTEX
  8
PLAN_1
  6
CONTINUOUS
 10
-0.851016
 20
0.800571
  0
VERTEX
  8
PLAN_1
  6
CONTINUOUS
 10
-0.850504
 20
0.804661
  0
VERTEX
  8
PLAN_1
  6
CONTINUOUS
 10
-0.850504
 20
0.808752
  0
VERTEX
  8
PLAN_1
  6
CONTINUOUS
 10
-0.851016
 20
0.812331
  0
VERTEX
  8
PLAN_1
  6
CONTINUOUS
 10
-0.852551
 20
0.815909
  0
VERTEX
  8
PLAN_1
  6
CONTINUOUS
 10
-0.854083
 20
0.818976
  0
VERTEX
  8
PLAN_1
  6
CONTINUOUS
 10
-0.855618
 20
0.821531
  0
VERTEX
  8
PLAN_1
  6
CONTINUOUS
 10
-0.857661
 20
0.824087
  0
VERTEX
  8
PLAN_1
  6
CONTINUOUS
 10
-0.859193
 20
0.826130
  0
VERTEX
  8
PLAN_1
  6
CONTINUOUS
 10
-0.862260
 20
0.829197
  0
VERTEX
  8
PLAN_1
  6
CONTINUOUS
 10
-0.863283
 20
0.830220
  0
SEQEND
  8
0
  0
POLYLINE
  8
PLAN_1
  6
CONTINUOUS
 66
     1
 40
0.007154
 41
0.007154
  0
VERTEX
  8
PLAN_1
  6
CONTINUOUS
 10
-0.863283
 20
0.830220
  0
VERTEX
  8
PLAN_1
  6
CONTINUOUS
 10
-1.151079
 20
0.830220
  0
SEQEND
  8
0
  0
POLYLINE
  8
PLAN_1
  6
CONTINUOUS
 66
     1
 40
0.007154
 41
0.007154
  0
VERTEX
  8
PLAN_1
  6
CONTINUOUS
 10
-1.151079
 20
0.830220
  0
VERTEX
  8
PLAN_1
  6
CONTINUOUS
 10
-1.152102
 20
0.829197
  0
VERTEX
  8
PLAN_1
  6
CONTINUOUS
 10
-1.154657
 20
0.826642
  0
VERTEX
  8
PLAN_1
  6
CONTINUOUS
 10
-1.157724
 20
0.822043
  0
VERTEX
  8
PLAN_1
  6
CONTINUOUS
 10
-1.160791
 20
0.816417
  0
VERTEX
  8
PLAN_1
  6
CONTINUOUS
 10
-1.161815
 20
0.812843
  0
VERTEX
  8
PLAN_1
  6
CONTINUOUS
 10
-1.162327
 20
0.809264
  0
VERTEX
  8
PLAN_1
  6
CONTINUOUS
 10
-1.162327
 20
0.805685
  0
VERTEX
  8
PLAN_1
  6
CONTINUOUS
 10
-1.161815
 20
0.801594
  0
VERTEX
  8
PLAN_1
  6
CONTINUOUS
 10
-1.160791
 20
0.796996
  0
VERTEX
  8
PLAN_1
  6
CONTINUOUS
 10
-1.158236
 20
0.792906
  0
VERTEX
  8
PLAN_1
  6
CONTINUOUS
 10
-1.155169
 20
0.788303
  0
VERTEX
  8
PLAN_1
  6
CONTINUOUS
 10
-1.151079
 20
0.783193
  0
SEQEND
  8
0
  0
POLYLINE
  8
PLAN_1
  6
CONTINUOUS
 66
     1
 40
0.007154
 41
0.007154
  0
VERTEX
  8
PLAN_1
  6
CONTINUOUS
 10
-1.151079
 20
0.783193
  0
VERTEX
  8
PLAN_1
  6
CONTINUOUS
 10
-0.863283
 20
0.783193
  0
SEQEND
  8
0
  0
POLYLINE
  8
PLAN_1
  6
CONTINUOUS
 66
     1
 40
0.007154
 41
0.007154
  0
VERTEX
  8
PLAN_1
  6
CONTINUOUS
 10
-0.862772
 20
0.737185
  0
VERTEX
  8
PLAN_1
  6
CONTINUOUS
 10
-0.858173
 20
0.741276
  0
VERTEX
  8
PLAN_1
  6
CONTINUOUS
 10
-0.854594
 20
0.745878
  0
VERTEX
  8
PLAN_1
  6
CONTINUOUS
 10
-0.852039
 20
0.750476
  0
VERTEX
  8
PLAN_1
  6
CONTINUOUS
 10
-0.850504
 20
0.754567
  0
VERTEX
  8
PLAN_1
  6
CONTINUOUS
 10
-0.849992
 20
0.758657
  0
VERTEX
  8
PLAN_1
  6
CONTINUOUS
 10
-0.849992
 20
0.762232
  0
VERTEX
  8
PLAN_1
  6
CONTINUOUS
 10
-0.850504
 20
0.765811
  0
VERTEX
  8
PLAN_1
  6
CONTINUOUS
 10
-0.852039
 20
0.769390
  0
VERTEX
  8
PLAN_1
  6
CONTINUOUS
 10
-0.853571
 20
0.772457
  0
VERTEX
  8
PLAN_1
  6
CONTINUOUS
 10
-0.855106
 20
0.775524
  0
VERTEX
  8
PLAN_1
  6
CONTINUOUS
 10
-0.857150
 20
0.777571
  0
VERTEX
  8
PLAN_1
  6
CONTINUOUS
 10
-0.858685
 20
0.779614
  0
VERTEX
  8
PLAN_1
  6
CONTINUOUS
 10
-0.861752
 20
0.782681
  0
VERTEX
  8
PLAN_1
  6
CONTINUOUS
 10
-0.862772
 20
0.783705
  0
SEQEND
  8
0
  0
POLYLINE
  8
PLAN_1
  6
CONTINUOUS
 66
     1
 40
0.007154
 41
0.007154
  0
VERTEX
  8
PLAN_1
  6
CONTINUOUS
 10
-0.862772
 20
0.783705
  0
VERTEX
  8
PLAN_1
  6
CONTINUOUS
 10
-1.150567
 20
0.783705
  0
SEQEND
  8
0
  0
POLYLINE
  8
PLAN_1
  6
CONTINUOUS
 66
     1
 40
0.007154
 41
0.007154
  0
VERTEX
  8
PLAN_1
  6
CONTINUOUS
 10
-1.150567
 20
0.783705
  0
VERTEX
  8
PLAN_1
  6
CONTINUOUS
 10
-1.151591
 20
0.782681
  0
VERTEX
  8
PLAN_1
  6
CONTINUOUS
 10
-1.154146
 20
0.780126
  0
VERTEX
  8
PLAN_1
  6
CONTINUOUS
 10
-1.157213
 20
0.775524
  0
VERTEX
  8
PLAN_1
  6
CONTINUOUS
 10
-1.160280
 20
0.769902
  0
VERTEX
  8
PLAN_1
  6
CONTINUOUS
 10
-1.161303
 20
0.766835
  0
VERTEX
  8
PLAN_1
  6
CONTINUOUS
 10
-1.161815
 20
0.763256
  0
VERTEX
  8
PLAN_1
  6
CONTINUOUS
 10
-1.161815
 20
0.759165
  0
VERTEX
  8
PLAN_1
  6
CONTINUOUS
 10
-1.161303
 20
0.755079
  0
VERTEX
  8
PLAN_1
  6
CONTINUOUS
 10
-1.160280
 20
0.750988
  0
VERTEX
  8
PLAN_1
  6
CONTINUOUS
 10
-1.158236
 20
0.746386
  0
VERTEX
  8
PLAN_1
  6
CONTINUOUS
 10
-1.154657
 20
0.741787
  0
VERTEX
  8
PLAN_1
  6
CONTINUOUS
 10
-1.150567
 20
0.737185
  0
SEQEND
  8
0
  0
POLYLINE
  8
PLAN_1
  6
CONTINUOUS
 66
     1
 40
0.007154
 41
0.007154
  0
VERTEX
  8
PLAN_1
  6
CONTINUOUS
 10
-1.150567
 20
0.737185
  0
VERTEX
  8
PLAN_1
  6
CONTINUOUS
 10
-0.862772
 20
0.737185
  0
SEQEND
  8
0
  0
POLYLINE
  8
PLAN_1
  6
CONTINUOUS
 66
     1
 40
0.007154
 41
0.007154
  0
VERTEX
  8
PLAN_1
  6
CONTINUOUS
 10
-0.863795
 20
1.989579
  0
VERTEX
  8
PLAN_1
  6
CONTINUOUS
 10
-0.858685
 20
1.994181
  0
VERTEX
  8
PLAN_1
  6
CONTINUOUS
 10
-0.855106
 20
1.998780
  0
VERTEX
  8
PLAN_1
  6
CONTINUOUS
 10
-0.852551
 20
2.002870
  0
VERTEX
  8
PLAN_1
  6
CONTINUOUS
 10
-0.851016
 20
2.007472
  0
VERTEX
  8
PLAN_1
  6
CONTINUOUS
 10
-0.850504
 20
2.011051
  0
VERTEX
  8
PLAN_1
  6
CONTINUOUS
 10
-0.850504
 20
2.015138
  0
VERTEX
  8
PLAN_1
  6
CONTINUOUS
 10
-0.851528
 20
2.018717
  0
VERTEX
  8
PLAN_1
  6
CONTINUOUS
 10
-0.852551
 20
2.022295
  0
VERTEX
  8
PLAN_1
  6
CONTINUOUS
 10
-0.854083
 20
2.025362
  0
VERTEX
  8
PLAN_1
  6
CONTINUOUS
 10
-0.855618
 20
2.027917
  0
VERTEX
  8
PLAN_1
  6
CONTINUOUS
 10
-0.857661
 20
2.030472
  0
VERTEX
  8
PLAN_1
  6
CONTINUOUS
 10
-0.859705
 20
2.032520
  0
VERTEX
  8
PLAN_1
  6
CONTINUOUS
 10
-0.862260
 20
2.035587
  0
VERTEX
  8
PLAN_1
  6
CONTINUOUS
 10
-0.863795
 20
2.036610
  0
SEQEND
  8
0
  0
POLYLINE
  8
PLAN_1
  6
CONTINUOUS
 66
     1
 40
0.007154
 41
0.007154
  0
VERTEX
  8
PLAN_1
  6
CONTINUOUS
 10
-0.863795
 20
2.036610
  0
VERTEX
  8
PLAN_1
  6
CONTINUOUS
 10
-1.151079
 20
2.036610
  0
SEQEND
  8
0
  0
POLYLINE
  8
PLAN_1
  6
CONTINUOUS
 66
     1
 40
0.007154
 41
0.007154
  0
VERTEX
  8
PLAN_1
  6
CONTINUOUS
 10
-1.151079
 20
2.036610
  0
VERTEX
  8
PLAN_1
  6
CONTINUOUS
 10
-1.152102
 20
2.035587
  0
VERTEX
  8
PLAN_1
  6
CONTINUOUS
 10
-1.154657
 20
2.033031
  0
VERTEX
  8
PLAN_1
  6
CONTINUOUS
 10
-1.158236
 20
2.028429
  0
VERTEX
  8
PLAN_1
  6
CONTINUOUS
 10
-1.160791
 20
2.022807
  0
VERTEX
  8
PLAN_1
  6
CONTINUOUS
 10
-1.161815
 20
2.019740
  0
VERTEX
  8
PLAN_1
  6
CONTINUOUS
 10
-1.162835
 20
2.016161
  0
VERTEX
  8
PLAN_1
  6
CONTINUOUS
 10
-1.162835
 20
2.012071
  0
VERTEX
  8
PLAN_1
  6
CONTINUOUS
 10
-1.162327
 20
2.007980
  0
VERTEX
  8
PLAN_1
  6
CONTINUOUS
 10
-1.160791
 20
2.003894
  0
VERTEX
  8
PLAN_1
  6
CONTINUOUS
 10
-1.158748
 20
1.999291
  0
VERTEX
  8
PLAN_1
  6
CONTINUOUS
 10
-1.155681
 20
1.994693
  0
VERTEX
  8
PLAN_1
  6
CONTINUOUS
 10
-1.151079
 20
1.989579
  0
SEQEND
  8
0
  0
POLYLINE
  8
PLAN_1
  6
CONTINUOUS
 66
     1
 40
0.007154
 41
0.007154
  0
VERTEX
  8
PLAN_1
  6
CONTINUOUS
 10
-1.151079
 20
1.989579
  0
VERTEX
  8
PLAN_1
  6
CONTINUOUS
 10
-0.863795
 20
1.989579
  0
SEQEND
  8
0
  0
POLYLINE
  8
PLAN_1
  6
CONTINUOUS
 66
     1
 40
0.007154
 41
0.007154
  0
VERTEX
  8
PLAN_1
  6
CONTINUOUS
 10
-0.863283
 20
1.943575
  0
VERTEX
  8
PLAN_1
  6
CONTINUOUS
 10
-0.858173
 20
1.947661
  0
VERTEX
  8
PLAN_1
  6
CONTINUOUS
 10
-0.854594
 20
1.952264
  0
VERTEX
  8
PLAN_1
  6
CONTINUOUS
 10
-0.852039
 20
1.956862
  0
VERTEX
  8
PLAN_1
  6
CONTINUOUS
 10
-0.850504
 20
1.960953
  0
VERTEX
  8
PLAN_1
  6
CONTINUOUS
 10
-0.849992
 20
1.965043
  0
VERTEX
  8
PLAN_1
  6
CONTINUOUS
 10
-0.849992
 20
1.968622
  0
VERTEX
  8
PLAN_1
  6
CONTINUOUS
 10
-0.851016
 20
1.972201
  0
VERTEX
  8
PLAN_1
  6
CONTINUOUS
 10
-0.852039
 20
1.975780
  0
VERTEX
  8
PLAN_1
  6
CONTINUOUS
 10
-0.853571
 20
1.978846
  0
VERTEX
  8
PLAN_1
  6
CONTINUOUS
 10
-0.855618
 20
1.981913
  0
VERTEX
  8
PLAN_1
  6
CONTINUOUS
 10
-0.857150
 20
1.983957
  0
VERTEX
  8
PLAN_1
  6
CONTINUOUS
 10
-0.859193
 20
1.986000
  0
VERTEX
  8
PLAN_1
  6
CONTINUOUS
 10
-0.861752
 20
1.989067
  0
VERTEX
  8
PLAN_1
  6
CONTINUOUS
 10
-0.863283
 20
1.990091
  0
SEQEND
  8
0
  0
POLYLINE
  8
PLAN_1
  6
CONTINUOUS
 66
     1
 40
0.007154
 41
0.007154
  0
VERTEX
  8
PLAN_1
  6
CONTINUOUS
 10
-0.863283
 20
1.990091
  0
VERTEX
  8
PLAN_1
  6
CONTINUOUS
 10
-1.150567
 20
1.990091
  0
SEQEND
  8
0
  0
POLYLINE
  8
PLAN_1
  6
CONTINUOUS
 66
     1
 40
0.007154
 41
0.007154
  0
VERTEX
  8
PLAN_1
  6
CONTINUOUS
 10
-1.150567
 20
1.990091
  0
VERTEX
  8
PLAN_1
  6
CONTINUOUS
 10
-1.151591
 20
1.989067
  0
VERTEX
  8
PLAN_1
  6
CONTINUOUS
 10
-1.154657
 20
1.986512
  0
VERTEX
  8
PLAN_1
  6
CONTINUOUS
 10
-1.157724
 20
1.982421
  0
VERTEX
  8
PLAN_1
  6
CONTINUOUS
 10
-1.160280
 20
1.976287
  0
VERTEX
  8
PLAN_1
  6
CONTINUOUS
 10
-1.161815
 20
1.973220
  0
VERTEX
  8
PLAN_1
  6
CONTINUOUS
 10
-1.162327
 20
1.969642
  0
VERTEX
  8
PLAN_1
  6
CONTINUOUS
 10
-1.162327
 20
1.965555
  0
VERTEX
  8
PLAN_1
  6
CONTINUOUS
 10
-1.161815
 20
1.961465
  0
VERTEX
  8
PLAN_1
  6
CONTINUOUS
 10
-1.160280
 20
1.957374
  0
VERTEX
  8
PLAN_1
  6
CONTINUOUS
 10
-1.158236
 20
1.952776
  0
VERTEX
  8
PLAN_1
  6
CONTINUOUS
 10
-1.155169
 20
1.948173
  0
VERTEX
  8
PLAN_1
  6
CONTINUOUS
 10
-1.150567
 20
1.943575
  0
SEQEND
  8
0
  0
POLYLINE
  8
PLAN_1
  6
CONTINUOUS
 66
     1
 40
0.007154
 41
0.007154
  0
VERTEX
  8
PLAN_1
  6
CONTINUOUS
 10
-1.150567
 20
1.943575
  0
VERTEX
  8
PLAN_1
  6
CONTINUOUS
 10
-0.863283
 20
1.943575
  0
SEQEND
  8
0
  0
POLYLINE
  8
PLAN_1
  6
CONTINUOUS
 66
     1
 40
0.007154
 41
0.007154
  0
VERTEX
  8
PLAN_1
  6
CONTINUOUS
 10
-0.863283
 20
1.896543
  0
VERTEX
  8
PLAN_1
  6
CONTINUOUS
 10
-0.858685
 20
1.901146
  0
VERTEX
  8
PLAN_1
  6
CONTINUOUS
 10
-0.855106
 20
1.905236
  0
VERTEX
  8
PLAN_1
  6
CONTINUOUS
 10
-0.852551
 20
1.909835
  0
VERTEX
  8
PLAN_1
  6
CONTINUOUS
 10
-0.851016
 20
1.913925
  0
VERTEX
  8
PLAN_1
  6
CONTINUOUS
 10
-0.850504
 20
1.918016
  0
VERTEX
  8
PLAN_1
  6
CONTINUOUS
 10
-0.850504
 20
1.921594
  0
VERTEX
  8
PLAN_1
  6
CONTINUOUS
 10
-0.851016
 20
1.925681
  0
VERTEX
  8
PLAN_1
  6
CONTINUOUS
 10
-0.852551
 20
1.928748
  0
VERTEX
  8
PLAN_1
  6
CONTINUOUS
 10
-0.854083
 20
1.931815
  0
VERTEX
  8
PLAN_1
  6
CONTINUOUS
 10
-0.855618
 20
1.934882
  0
VERTEX
  8
PLAN_1
  6
CONTINUOUS
 10
-0.857661
 20
1.936929
  0
VERTEX
  8
PLAN_1
  6
CONTINUOUS
 10
-0.859193
 20
1.939484
  0
VERTEX
  8
PLAN_1
  6
CONTINUOUS
 10
-0.862260
 20
1.942039
  0
VERTEX
  8
PLAN_1
  6
CONTINUOUS
 10
-0.863283
 20
1.943063
  0
SEQEND
  8
0
  0
POLYLINE
  8
PLAN_1
  6
CONTINUOUS
 66
     1
 40
0.007154
 41
0.007154
  0
VERTEX
  8
PLAN_1
  6
CONTINUOUS
 10
-0.863283
 20
1.943063
  0
VERTEX
  8
PLAN_1
  6
CONTINUOUS
 10
-1.151079
 20
1.943063
  0
SEQEND
  8
0
  0
POLYLINE
  8
PLAN_1
  6
CONTINUOUS
 66
     1
 40
0.007154
 41
0.007154
  0
VERTEX
  8
PLAN_1
  6
CONTINUOUS
 10
-1.151079
 20
1.943063
  0
VERTEX
  8
PLAN_1
  6
CONTINUOUS
 10
-1.152102
 20
1.942039
  0
VERTEX
  8
PLAN_1
  6
CONTINUOUS
 10
-1.154657
 20
1.939484
  0
VERTEX
  8
PLAN_1
  6
CONTINUOUS
 10
-1.157724
 20
1.935394
  0
VERTEX
  8
PLAN_1
  6
CONTINUOUS
 10
-1.160791
 20
1.929260
  0
VERTEX
  8
PLAN_1
  6
CONTINUOUS
 10
-1.161815
 20
1.926193
  0
VERTEX
  8
PLAN_1
  6
CONTINUOUS
 10
-1.162327
 20
1.922614
  0
VERTEX
  8
PLAN_1
  6
CONTINUOUS
 10
-1.162327
 20
1.918524
  0
VERTEX
  8
PLAN_1
  6
CONTINUOUS
 10
-1.161815
 20
1.914437
  0
VERTEX
  8
PLAN_1
  6
CONTINUOUS
 10
-1.160791
 20
1.910346
  0
VERTEX
  8
PLAN_1
  6
CONTINUOUS
 10
-1.158236
 20
1.905744
  0
VERTEX
  8
PLAN_1
  6
CONTINUOUS
 10
-1.155169
 20
1.901146
  0
VERTEX
  8
PLAN_1
  6
CONTINUOUS
 10
-1.151079
 20
1.896543
  0
SEQEND
  8
0
  0
POLYLINE
  8
PLAN_1
  6
CONTINUOUS
 66
     1
 40
0.007154
 41
0.007154
  0
VERTEX
  8
PLAN_1
  6
CONTINUOUS
 10
-1.151079
 20
1.896543
  0
VERTEX
  8
PLAN_1
  6
CONTINUOUS
 10
-0.863283
 20
1.896543
  0
SEQEND
  8
0
  0
POLYLINE
  8
PLAN_1
  6
CONTINUOUS
 66
     1
 40
0.007154
 41
0.007154
  0
VERTEX
  8
PLAN_1
  6
CONTINUOUS
 10
-0.862772
 20
1.850028
  0
VERTEX
  8
PLAN_1
  6
CONTINUOUS
 10
-0.858173
 20
1.854626
  0
VERTEX
  8
PLAN_1
  6
CONTINUOUS
 10
-0.854594
 20
1.859228
  0
VERTEX
  8
PLAN_1
  6
CONTINUOUS
 10
-0.852039
 20
1.863319
  0
VERTEX
  8
PLAN_1
  6
CONTINUOUS
 10
-0.850504
 20
1.867406
  0
VERTEX
  8
PLAN_1
  6
CONTINUOUS
 10
-0.849992
 20
1.871496
  0
VERTEX
  8
PLAN_1
  6
CONTINUOUS
 10
-0.849992
 20
1.875587
  0
VERTEX
  8
PLAN_1
  6
CONTINUOUS
 10
-0.850504
 20
1.879165
  0
VERTEX
  8
PLAN_1
  6
CONTINUOUS
 10
-0.852039
 20
1.882744
  0
VERTEX
  8
PLAN_1
  6
CONTINUOUS
 10
-0.853571
 20
1.885811
  0
VERTEX
  8
PLAN_1
  6
CONTINUOUS
 10
-0.855106
 20
1.888366
  0
VERTEX
  8
PLAN_1
  6
CONTINUOUS
 10
-0.857150
 20
1.890921
  0
VERTEX
  8
PLAN_1
  6
CONTINUOUS
 10
-0.858685
 20
1.892965
  0
VERTEX
  8
PLAN_1
  6
CONTINUOUS
 10
-0.861752
 20
1.895524
  0
VERTEX
  8
PLAN_1
  6
CONTINUOUS
 10
-0.862772
 20
1.896543
  0
SEQEND
  8
0
  0
POLYLINE
  8
PLAN_1
  6
CONTINUOUS
 66
     1
 40
0.007154
 41
0.007154
  0
VERTEX
  8
PLAN_1
  6
CONTINUOUS
 10
-0.862772
 20
1.896543
  0
VERTEX
  8
PLAN_1
  6
CONTINUOUS
 10
-1.150567
 20
1.896543
  0
SEQEND
  8
0
  0
POLYLINE
  8
PLAN_1
  6
CONTINUOUS
 66
     1
 40
0.007154
 41
0.007154
  0
VERTEX
  8
PLAN_1
  6
CONTINUOUS
 10
-1.150567
 20
1.896543
  0
VERTEX
  8
PLAN_1
  6
CONTINUOUS
 10
-1.151591
 20
1.896035
  0
VERTEX
  8
PLAN_1
  6
CONTINUOUS
 10
-1.154146
 20
1.892965
  0
VERTEX
  8
PLAN_1
  6
CONTINUOUS
 10
-1.157213
 20
1.888878
  0
VERTEX
  8
PLAN_1
  6
CONTINUOUS
 10
-1.160280
 20
1.883256
  0
VERTEX
  8
PLAN_1
  6
CONTINUOUS
 10
-1.161303
 20
1.879677
  0
VERTEX
  8
PLAN_1
  6
CONTINUOUS
 10
-1.161815
 20
1.876098
  0
VERTEX
  8
PLAN_1
  6
CONTINUOUS
 10
-1.161815
 20
1.872520
  0
VERTEX
  8
PLAN_1
  6
CONTINUOUS
 10
-1.161303
 20
1.868429
  0
VERTEX
  8
PLAN_1
  6
CONTINUOUS
 10
-1.160280
 20
1.863831
  0
VERTEX
  8
PLAN_1
  6
CONTINUOUS
 10
-1.158236
 20
1.859228
  0
VERTEX
  8
PLAN_1
  6
CONTINUOUS
 10
-1.154657
 20
1.854626
  0
VERTEX
  8
PLAN_1
  6
CONTINUOUS
 10
-1.150567
 20
1.850028
  0
SEQEND
  8
0
  0
POLYLINE
  8
PLAN_1
  6
CONTINUOUS
 66
     1
 40
0.007154
 41
0.007154
  0
VERTEX
  8
PLAN_1
  6
CONTINUOUS
 10
-1.150567
 20
1.850028
  0
VERTEX
  8
PLAN_1
  6
CONTINUOUS
 10
-0.862772
 20
1.850028
  0
SEQEND
  8
0
  0
POLYLINE
  8
PLAN_1
  6
CONTINUOUS
 66
     1
 40
0.007154
 41
0.007154
  0
VERTEX
  8
PLAN_1
  6
CONTINUOUS
 10
-0.863283
 20
1.803508
  0
VERTEX
  8
PLAN_1
  6
CONTINUOUS
 10
-0.858685
 20
1.808110
  0
VERTEX
  8
PLAN_1
  6
CONTINUOUS
 10
-0.855106
 20
1.812713
  0
VERTEX
  8
PLAN_1
  6
CONTINUOUS
 10
-0.852551
 20
1.816799
  0
VERTEX
  8
PLAN_1
  6
CONTINUOUS
 10
-0.851016
 20
1.821402
  0
VERTEX
  8
PLAN_1
  6
CONTINUOUS
 10
-0.850504
 20
1.825492
  0
VERTEX
  8
PLAN_1
  6
CONTINUOUS
 10
-0.850504
 20
1.829067
  0
VERTEX
  8
PLAN_1
  6
CONTINUOUS
 10
-0.851016
 20
1.832646
  0
VERTEX
  8
PLAN_1
  6
CONTINUOUS
 10
-0.852551
 20
1.836224
  0
VERTEX
  8
PLAN_1
  6
CONTINUOUS
 10
-0.854083
 20
1.839291
  0
VERTEX
  8
PLAN_1
  6
CONTINUOUS
 10
-0.855618
 20
1.841846
  0
VERTEX
  8
PLAN_1
  6
CONTINUOUS
 10
-0.857661
 20
1.844406
  0
VERTEX
  8
PLAN_1
  6
CONTINUOUS
 10
-0.859193
 20
1.846449
  0
VERTEX
  8
PLAN_1
  6
CONTINUOUS
 10
-0.862260
 20
1.849516
  0
VERTEX
  8
PLAN_1
  6
CONTINUOUS
 10
-0.863283
 20
1.850539
  0
SEQEND
  8
0
  0
POLYLINE
  8
PLAN_1
  6
CONTINUOUS
 66
     1
 40
0.007154
 41
0.007154
  0
VERTEX
  8
PLAN_1
  6
CONTINUOUS
 10
-0.863283
 20
1.850539
  0
VERTEX
  8
PLAN_1
  6
CONTINUOUS
 10
-1.151079
 20
1.850539
  0
SEQEND
  8
0
  0
POLYLINE
  8
PLAN_1
  6
CONTINUOUS
 66
     1
 40
0.007154
 41
0.007154
  0
VERTEX
  8
PLAN_1
  6
CONTINUOUS
 10
-1.151079
 20
1.850539
  0
VERTEX
  8
PLAN_1
  6
CONTINUOUS
 10
-1.152102
 20
1.849516
  0
VERTEX
  8
PLAN_1
  6
CONTINUOUS
 10
-1.154657
 20
1.846961
  0
VERTEX
  8
PLAN_1
  6
CONTINUOUS
 10
-1.157724
 20
1.842358
  0
VERTEX
  8
PLAN_1
  6
CONTINUOUS
 10
-1.160791
 20
1.836736
  0
VERTEX
  8
PLAN_1
  6
CONTINUOUS
 10
-1.161815
 20
1.833669
  0
VERTEX
  8
PLAN_1
  6
CONTINUOUS
 10
-1.162327
 20
1.830091
  0
VERTEX
  8
PLAN_1
  6
CONTINUOUS
 10
-1.162327
 20
1.826000
  0
VERTEX
  8
PLAN_1
  6
CONTINUOUS
 10
-1.161815
 20
1.821913
  0
VERTEX
  8
PLAN_1
  6
CONTINUOUS
 10
-1.160791
 20
1.817823
  0
VERTEX
  8
PLAN_1
  6
CONTINUOUS
 10
-1.158236
 20
1.813220
  0
VERTEX
  8
PLAN_1
  6
CONTINUOUS
 10
-1.155169
 20
1.808622
  0
VERTEX
  8
PLAN_1
  6
CONTINUOUS
 10
-1.151079
 20
1.803508
  0
SEQEND
  8
0
  0
POLYLINE
  8
PLAN_1
  6
CONTINUOUS
 66
     1
 40
0.007154
 41
0.007154
  0
VERTEX
  8
PLAN_1
  6
CONTINUOUS
 10
-1.151079
 20
1.803508
  0
VERTEX
  8
PLAN_1
  6
CONTINUOUS
 10
-0.863283
 20
1.803508
  0
SEQEND
  8
0
  0
POLYLINE
  8
PLAN_1
  6
CONTINUOUS
 66
     1
 40
0.007154
 41
0.007154
  0
VERTEX
  8
PLAN_1
  6
CONTINUOUS
 10
-0.862772
 20
1.757504
  0
VERTEX
  8
PLAN_1
  6
CONTINUOUS
 10
-0.858173
 20
1.761594
  0
VERTEX
  8
PLAN_1
  6
CONTINUOUS
 10
-0.854594
 20
1.766193
  0
VERTEX
  8
PLAN_1
  6
CONTINUOUS
 10
-0.852039
 20
1.770795
  0
VERTEX
  8
PLAN_1
  6
CONTINUOUS
 10
-0.850504
 20
1.774882
  0
VERTEX
  8
PLAN_1
  6
CONTINUOUS
 10
-0.849992
 20
1.778972
  0
VERTEX
  8
PLAN_1
  6
CONTINUOUS
 10
-0.849992
 20
1.782551
  0
VERTEX
  8
PLAN_1
  6
CONTINUOUS
 10
-0.850504
 20
1.786642
  0
VERTEX
  8
PLAN_1
  6
CONTINUOUS
 10
-0.852039
 20
1.789709
  0
VERTEX
  8
PLAN_1
  6
CONTINUOUS
 10
-0.853571
 20
1.792776
  0
VERTEX
  8
PLAN_1
  6
CONTINUOUS
 10
-0.855106
 20
1.795843
  0
VERTEX
  8
PLAN_1
  6
CONTINUOUS
 10
-0.857150
 20
1.797886
  0
VERTEX
  8
PLAN_1
  6
CONTINUOUS
 10
-0.858685
 20
1.800441
  0
VERTEX
  8
PLAN_1
  6
CONTINUOUS
 10
-0.861752
 20
1.803000
  0
VERTEX
  8
PLAN_1
  6
CONTINUOUS
 10
-0.862772
 20
1.804020
  0
SEQEND
  8
0
  0
POLYLINE
  8
PLAN_1
  6
CONTINUOUS
 66
     1
 40
0.007154
 41
0.007154
  0
VERTEX
  8
PLAN_1
  6
CONTINUOUS
 10
-0.862772
 20
1.804020
  0
VERTEX
  8
PLAN_1
  6
CONTINUOUS
 10
-1.150567
 20
1.804020
  0
SEQEND
  8
0
  0
POLYLINE
  8
PLAN_1
  6
CONTINUOUS
 66
     1
 40
0.007154
 41
0.007154
  0
VERTEX
  8
PLAN_1
  6
CONTINUOUS
 10
-1.150567
 20
1.804020
  0
VERTEX
  8
PLAN_1
  6
CONTINUOUS
 10
-1.151591
 20
1.803000
  0
VERTEX
  8
PLAN_1
  6
CONTINUOUS
 10
-1.154146
 20
1.800441
  0
VERTEX
  8
PLAN_1
  6
CONTINUOUS
 10
-1.157213
 20
1.796354
  0
VERTEX
  8
PLAN_1
  6
CONTINUOUS
 10
-1.160280
 20
1.790220
  0
VERTEX
  8
PLAN_1
  6
CONTINUOUS
 10
-1.161303
 20
1.787154
  0
VERTEX
  8
PLAN_1
  6
CONTINUOUS
 10
-1.161815
 20
1.783575
  0
VERTEX
  8
PLAN_1
  6
CONTINUOUS
 10
-1.161815
 20
1.779484
  0
VERTEX
  8
PLAN_1
  6
CONTINUOUS
 10
-1.161303
 20
1.775394
  0
VERTEX
  8
PLAN_1
  6
CONTINUOUS
 10
-1.160280
 20
1.771307
  0
VERTEX
  8
PLAN_1
  6
CONTINUOUS
 10
-1.158236
 20
1.766705
  0
VERTEX
  8
PLAN_1
  6
CONTINUOUS
 10
-1.154657
 20
1.762102
  0
VERTEX
  8
PLAN_1
  6
CONTINUOUS
 10
-1.150567
 20
1.757504
  0
SEQEND
  8
0
  0
POLYLINE
  8
PLAN_1
  6
CONTINUOUS
 66
     1
 40
0.007154
 41
0.007154
  0
VERTEX
  8
PLAN_1
  6
CONTINUOUS
 10
-1.150567
 20
1.757504
  0
VERTEX
  8
PLAN_1
  6
CONTINUOUS
 10
-0.862772
 20
1.757504
  0
SEQEND
  8
0
  0
POLYLINE
  8
PLAN_1
  6
CONTINUOUS
 66
     1
 40
0.007154
 41
0.007154
  0
VERTEX
  8
PLAN_1
  6
CONTINUOUS
 10
-0.863283
 20
1.710984
  0
VERTEX
  8
PLAN_1
  6
CONTINUOUS
 10
-0.858685
 20
1.715587
  0
VERTEX
  8
PLAN_1
  6
CONTINUOUS
 10
-0.855106
 20
1.720189
  0
VERTEX
  8
PLAN_1
  6
CONTINUOUS
 10
-0.852551
 20
1.724276
  0
VERTEX
  8
PLAN_1
  6
CONTINUOUS
 10
-0.851016
 20
1.728366
  0
VERTEX
  8
PLAN_1
  6
CONTINUOUS
 10
-0.850504
 20
1.732457
  0
VERTEX
  8
PLAN_1
  6
CONTINUOUS
 10
-0.850504
 20
1.736543
  0
VERTEX
  8
PLAN_1
  6
CONTINUOUS
 10
-0.851016
 20
1.740122
  0
VERTEX
  8
PLAN_1
  6
CONTINUOUS
 10
-0.852551
 20
1.743701
  0
VERTEX
  8
PLAN_1
  6
CONTINUOUS
 10
-0.854083
 20
1.746768
  0
VERTEX
  8
PLAN_1
  6
CONTINUOUS
 10
-0.855618
 20
1.749323
  0
VERTEX
  8
PLAN_1
  6
CONTINUOUS
 10
-0.857661
 20
1.751882
  0
VERTEX
  8
PLAN_1
  6
CONTINUOUS
 10
-0.859193
 20
1.753925
  0
VERTEX
  8
PLAN_1
  6
CONTINUOUS
 10
-0.862260
 20
1.756992
  0
VERTEX
  8
PLAN_1
  6
CONTINUOUS
 10
-0.863283
 20
1.758016
  0
SEQEND
  8
0
  0
POLYLINE
  8
PLAN_1
  6
CONTINUOUS
 66
     1
 40
0.007154
 41
0.007154
  0
VERTEX
  8
PLAN_1
  6
CONTINUOUS
 10
-0.863283
 20
1.758016
  0
VERTEX
  8
PLAN_1
  6
CONTINUOUS
 10
-1.151079
 20
1.758016
  0
SEQEND
  8
0
  0
POLYLINE
  8
PLAN_1
  6
CONTINUOUS
 66
     1
 40
0.007154
 41
0.007154
  0
VERTEX
  8
PLAN_1
  6
CONTINUOUS
 10
-1.151079
 20
1.758016
  0
VERTEX
  8
PLAN_1
  6
CONTINUOUS
 10
-1.152102
 20
1.756992
  0
VERTEX
  8
PLAN_1
  6
CONTINUOUS
 10
-1.154657
 20
1.753925
  0
VERTEX
  8
PLAN_1
  6
CONTINUOUS
 10
-1.157724
 20
1.749835
  0
VERTEX
  8
PLAN_1
  6
CONTINUOUS
 10
-1.160791
 20
1.744213
  0
VERTEX
  8
PLAN_1
  6
CONTINUOUS
 10
-1.161815
 20
1.740634
  0
VERTEX
  8
PLAN_1
  6
CONTINUOUS
 10
-1.162327
 20
1.737055
  0
VERTEX
  8
PLAN_1
  6
CONTINUOUS
 10
-1.162327
 20
1.733476
  0
VERTEX
  8
PLAN_1
  6
CONTINUOUS
 10
-1.161815
 20
1.729390
  0
VERTEX
  8
PLAN_1
  6
CONTINUOUS
 10
-1.160791
 20
1.724787
  0
VERTEX
  8
PLAN_1
  6
CONTINUOUS
 10
-1.158236
 20
1.720697
  0
VERTEX
  8
PLAN_1
  6
CONTINUOUS
 10
-1.155169
 20
1.715587
  0
VERTEX
  8
PLAN_1
  6
CONTINUOUS
 10
-1.151079
 20
1.710984
  0
SEQEND
  8
0
  0
POLYLINE
  8
PLAN_1
  6
CONTINUOUS
 66
     1
 40
0.007154
 41
0.007154
  0
VERTEX
  8
PLAN_1
  6
CONTINUOUS
 10
-1.151079
 20
1.710984
  0
VERTEX
  8
PLAN_1
  6
CONTINUOUS
 10
-0.863283
 20
1.710984
  0
SEQEND
  8
0
  0
POLYLINE
  8
PLAN_1
  6
CONTINUOUS
 66
     1
 40
0.007154
 41
0.007154
  0
VERTEX
  8
PLAN_1
  6
CONTINUOUS
 10
-0.862772
 20
1.664469
  0
VERTEX
  8
PLAN_1
  6
CONTINUOUS
 10
-0.858173
 20
1.669071
  0
VERTEX
  8
PLAN_1
  6
CONTINUOUS
 10
-0.854594
 20
1.673669
  0
VERTEX
  8
PLAN_1
  6
CONTINUOUS
 10
-0.852039
 20
1.677760
  0
VERTEX
  8
PLAN_1
  6
CONTINUOUS
 10
-0.850504
 20
1.682358
  0
VERTEX
  8
PLAN_1
  6
CONTINUOUS
 10
-0.849992
 20
1.686449
  0
VERTEX
  8
PLAN_1
  6
CONTINUOUS
 10
-0.849992
 20
1.690028
  0
VERTEX
  8
PLAN_1
  6
CONTINUOUS
 10
-0.850504
 20
1.693606
  0
VERTEX
  8
PLAN_1
  6
CONTINUOUS
 10
-0.852039
 20
1.697185
  0
VERTEX
  8
PLAN_1
  6
CONTINUOUS
 10
-0.853571
 20
1.700252
  0
VERTEX
  8
PLAN_1
  6
CONTINUOUS
 10
-0.855106
 20
1.702807
  0
VERTEX
  8
PLAN_1
  6
CONTINUOUS
 10
-0.857150
 20
1.705362
  0
VERTEX
  8
PLAN_1
  6
CONTINUOUS
 10
-0.858685
 20
1.707409
  0
VERTEX
  8
PLAN_1
  6
CONTINUOUS
 10
-0.861752
 20
1.710476
  0
VERTEX
  8
PLAN_1
  6
CONTINUOUS
 10
-0.862772
 20
1.711496
  0
SEQEND
  8
0
  0
POLYLINE
  8
PLAN_1
  6
CONTINUOUS
 66
     1
 40
0.007154
 41
0.007154
  0
VERTEX
  8
PLAN_1
  6
CONTINUOUS
 10
-0.862772
 20
1.711496
  0
VERTEX
  8
PLAN_1
  6
CONTINUOUS
 10
-1.150567
 20
1.711496
  0
SEQEND
  8
0
  0
POLYLINE
  8
PLAN_1
  6
CONTINUOUS
 66
     1
 40
0.007154
 41
0.007154
  0
VERTEX
  8
PLAN_1
  6
CONTINUOUS
 10
-1.150567
 20
1.711496
  0
VERTEX
  8
PLAN_1
  6
CONTINUOUS
 10
-1.151591
 20
1.710476
  0
VERTEX
  8
PLAN_1
  6
CONTINUOUS
 10
-1.154146
 20
1.707917
  0
VERTEX
  8
PLAN_1
  6
CONTINUOUS
 10
-1.157213
 20
1.703319
  0
VERTEX
  8
PLAN_1
  6
CONTINUOUS
 10
-1.160280
 20
1.697697
  0
VERTEX
  8
PLAN_1
  6
CONTINUOUS
 10
-1.161303
 20
1.694630
  0
VERTEX
  8
PLAN_1
  6
CONTINUOUS
 10
-1.161815
 20
1.691051
  0
VERTEX
  8
PLAN_1
  6
CONTINUOUS
 10
-1.161815
 20
1.686961
  0
VERTEX
  8
PLAN_1
  6
CONTINUOUS
 10
-1.161303
 20
1.682870
  0
VERTEX
  8
PLAN_1
  6
CONTINUOUS
 10
-1.160280
 20
1.678783
  0
VERTEX
  8
PLAN_1
  6
CONTINUOUS
 10
-1.158236
 20
1.674181
  0
VERTEX
  8
PLAN_1
  6
CONTINUOUS
 10
-1.154657
 20
1.669579
  0
VERTEX
  8
PLAN_1
  6
CONTINUOUS
 10
-1.150567
 20
1.664469
  0
SEQEND
  8
0
  0
POLYLINE
  8
PLAN_1
  6
CONTINUOUS
 66
     1
 40
0.007154
 41
0.007154
  0
VERTEX
  8
PLAN_1
  6
CONTINUOUS
 10
-1.150567
 20
1.664469
  0
VERTEX
  8
PLAN_1
  6
CONTINUOUS
 10
-0.862772
 20
1.664469
  0
SEQEND
  8
0
  0
POLYLINE
  8
PLAN_1
  6
CONTINUOUS
 66
     1
 40
0.007154
 41
0.007154
  0
VERTEX
  8
PLAN_1
  6
CONTINUOUS
 10
-0.863283
 20
1.618461
  0
VERTEX
  8
PLAN_1
  6
CONTINUOUS
 10
-0.858685
 20
1.623063
  0
VERTEX
  8
PLAN_1
  6
CONTINUOUS
 10
-0.855106
 20
1.627154
  0
VERTEX
  8
PLAN_1
  6
CONTINUOUS
 10
-0.852551
 20
1.631752
  0
VERTEX
  8
PLAN_1
  6
CONTINUOUS
 10
-0.851016
 20
1.635843
  0
VERTEX
  8
PLAN_1
  6
CONTINUOUS
 10
-0.850504
 20
1.639933
  0
VERTEX
  8
PLAN_1
  6
CONTINUOUS
 10
-0.850504
 20
1.643512
  0
VERTEX
  8
PLAN_1
  6
CONTINUOUS
 10
-0.851016
 20
1.647598
  0
VERTEX
  8
PLAN_1
  6
CONTINUOUS
 10
-0.852551
 20
1.650665
  0
VERTEX
  8
PLAN_1
  6
CONTINUOUS
 10
-0.854083
 20
1.653732
  0
VERTEX
  8
PLAN_1
  6
CONTINUOUS
 10
-0.855618
 20
1.656799
  0
VERTEX
  8
PLAN_1
  6
CONTINUOUS
 10
-0.857661
 20
1.659358
  0
VERTEX
  8
PLAN_1
  6
CONTINUOUS
 10
-0.859193
 20
1.661402
  0
VERTEX
  8
PLAN_1
  6
CONTINUOUS
 10
-0.862260
 20
1.663957
  0
VERTEX
  8
PLAN_1
  6
CONTINUOUS
 10
-0.863283
 20
1.664980
  0
SEQEND
  8
0
  0
POLYLINE
  8
PLAN_1
  6
CONTINUOUS
 66
     1
 40
0.007154
 41
0.007154
  0
VERTEX
  8
PLAN_1
  6
CONTINUOUS
 10
-0.863283
 20
1.664980
  0
VERTEX
  8
PLAN_1
  6
CONTINUOUS
 10
-1.151079
 20
1.664980
  0
SEQEND
  8
0
  0
POLYLINE
  8
PLAN_1
  6
CONTINUOUS
 66
     1
 40
0.007154
 41
0.007154
  0
VERTEX
  8
PLAN_1
  6
CONTINUOUS
 10
-1.151079
 20
1.664980
  0
VERTEX
  8
PLAN_1
  6
CONTINUOUS
 10
-1.152102
 20
1.663957
  0
VERTEX
  8
PLAN_1
  6
CONTINUOUS
 10
-1.154657
 20
1.661402
  0
VERTEX
  8
PLAN_1
  6
CONTINUOUS
 10
-1.157724
 20
1.657311
  0
VERTEX
  8
PLAN_1
  6
CONTINUOUS
 10
-1.160791
 20
1.651177
  0
VERTEX
  8
PLAN_1
  6
CONTINUOUS
 10
-1.161815
 20
1.648110
  0
VERTEX
  8
PLAN_1
  6
CONTINUOUS
 10
-1.162327
 20
1.644531
  0
VERTEX
  8
PLAN_1
  6
CONTINUOUS
 10
-1.162327
 20
1.640445
  0
VERTEX
  8
PLAN_1
  6
CONTINUOUS
 10
-1.161815
 20
1.636354
  0
VERTEX
  8
PLAN_1
  6
CONTINUOUS
 10
-1.160791
 20
1.632264
  0
VERTEX
  8
PLAN_1
  6
CONTINUOUS
 10
-1.158236
 20
1.627665
  0
VERTEX
  8
PLAN_1
  6
CONTINUOUS
 10
-1.155169
 20
1.623063
  0
VERTEX
  8
PLAN_1
  6
CONTINUOUS
 10
-1.151079
 20
1.618461
  0
SEQEND
  8
0
  0
POLYLINE
  8
PLAN_1
  6
CONTINUOUS
 66
     1
 40
0.007154
 41
0.007154
  0
VERTEX
  8
PLAN_1
  6
CONTINUOUS
 10
-1.151079
 20
1.618461
  0
VERTEX
  8
PLAN_1
  6
CONTINUOUS
 10
-0.863283
 20
1.618461
  0
SEQEND
  8
0
  0
POLYLINE
  8
PLAN_1
  6
CONTINUOUS
 66
     1
 40
0.007154
 41
0.007154
  0
VERTEX
  8
PLAN_1
  6
CONTINUOUS
 10
-0.862772
 20
1.571945
  0
VERTEX
  8
PLAN_1
  6
CONTINUOUS
 10
-0.858173
 20
1.576547
  0
VERTEX
  8
PLAN_1
  6
CONTINUOUS
 10
-0.854594
 20
1.581146
  0
VERTEX
  8
PLAN_1
  6
CONTINUOUS
 10
-0.852039
 20
1.585236
  0
VERTEX
  8
PLAN_1
  6
CONTINUOUS
 10
-0.850504
 20
1.589327
  0
VERTEX
  8
PLAN_1
  6
CONTINUOUS
 10
-0.849992
 20
1.593413
  0
VERTEX
  8
PLAN_1
  6
CONTINUOUS
 10
-0.849992
 20
1.597504
  0
VERTEX
  8
PLAN_1
  6
CONTINUOUS
 10
-0.850504
 20
1.601083
  0
VERTEX
  8
PLAN_1
  6
CONTINUOUS
 10
-0.852039
 20
1.604661
  0
VERTEX
  8
PLAN_1
  6
CONTINUOUS
 10
-0.853571
 20
1.607728
  0
VERTEX
  8
PLAN_1
  6
CONTINUOUS
 10
-0.855106
 20
1.610283
  0
VERTEX
  8
PLAN_1
  6
CONTINUOUS
 10
-0.857150
 20
1.612839
  0
VERTEX
  8
PLAN_1
  6
CONTINUOUS
 10
-0.858685
 20
1.614886
  0
VERTEX
  8
PLAN_1
  6
CONTINUOUS
 10
-0.861752
 20
1.617953
  0
VERTEX
  8
PLAN_1
  6
CONTINUOUS
 10
-0.862772
 20
1.618972
  0
SEQEND
  8
0
  0
POLYLINE
  8
PLAN_1
  6
CONTINUOUS
 66
     1
 40
0.007154
 41
0.007154
  0
VERTEX
  8
PLAN_1
  6
CONTINUOUS
 10
-0.862772
 20
1.618972
  0
VERTEX
  8
PLAN_1
  6
CONTINUOUS
 10
-1.150567
 20
1.618972
  0
SEQEND
  8
0
  0
POLYLINE
  8
PLAN_1
  6
CONTINUOUS
 66
     1
 40
0.007154
 41
0.007154
  0
VERTEX
  8
PLAN_1
  6
CONTINUOUS
 10
-1.150567
 20
1.618972
  0
VERTEX
  8
PLAN_1
  6
CONTINUOUS
 10
-1.151591
 20
1.617953
  0
VERTEX
  8
PLAN_1
  6
CONTINUOUS
 10
-1.154146
 20
1.614886
  0
VERTEX
  8
PLAN_1
  6
CONTINUOUS
 10
-1.157213
 20
1.610795
  0
VERTEX
  8
PLAN_1
  6
CONTINUOUS
 10
-1.160280
 20
1.605173
  0
VERTEX
  8
PLAN_1
  6
CONTINUOUS
 10
-1.161303
 20
1.601594
  0
VERTEX
  8
PLAN_1
  6
CONTINUOUS
 10
-1.161815
 20
1.598016
  0
VERTEX
  8
PLAN_1
  6
CONTINUOUS
 10
-1.161815
 20
1.594437
  0
VERTEX
  8
PLAN_1
  6
CONTINUOUS
 10
-1.161303
 20
1.590346
  0
VERTEX
  8
PLAN_1
  6
CONTINUOUS
 10
-1.160280
 20
1.585748
  0
VERTEX
  8
PLAN_1
  6
CONTINUOUS
 10
-1.158236
 20
1.581657
  0
VERTEX
  8
PLAN_1
  6
CONTINUOUS
 10
-1.154657
 20
1.576547
  0
VERTEX
  8
PLAN_1
  6
CONTINUOUS
 10
-1.150567
 20
1.571945
  0
SEQEND
  8
0
  0
POLYLINE
  8
PLAN_1
  6
CONTINUOUS
 66
     1
 40
0.007154
 41
0.007154
  0
VERTEX
  8
PLAN_1
  6
CONTINUOUS
 10
-1.150567
 20
1.571945
  0
VERTEX
  8
PLAN_1
  6
CONTINUOUS
 10
-0.862772
 20
1.571945
  0
SEQEND
  8
0
  0
POLYLINE
  8
PLAN_1
  6
CONTINUOUS
 66
     1
 40
0.007154
 41
0.007154
  0
VERTEX
  8
PLAN_1
  6
CONTINUOUS
 10
-0.863283
 20
1.525429
  0
VERTEX
  8
PLAN_1
  6
CONTINUOUS
 10
-0.858685
 20
1.530028
  0
VERTEX
  8
PLAN_1
  6
CONTINUOUS
 10
-0.855106
 20
1.534630
  0
VERTEX
  8
PLAN_1
  6
CONTINUOUS
 10
-0.852551
 20
1.538717
  0
VERTEX
  8
PLAN_1
  6
CONTINUOUS
 10
-0.851016
 20
1.543319
  0
VERTEX
  8
PLAN_1
  6
CONTINUOUS
 10
-0.850504
 20
1.547409
  0
VERTEX
  8
PLAN_1
  6
CONTINUOUS
 10
-0.850504
 20
1.550988
  0
VERTEX
  8
PLAN_1
  6
CONTINUOUS
 10
-0.851016
 20
1.554563
  0
VERTEX
  8
PLAN_1
  6
CONTINUOUS
 10
-0.852551
 20
1.558142
  0
VERTEX
  8
PLAN_1
  6
CONTINUOUS
 10
-0.854083
 20
1.561209
  0
VERTEX
  8
PLAN_1
  6
CONTINUOUS
 10
-0.855618
 20
1.563768
  0
VERTEX
  8
PLAN_1
  6
CONTINUOUS
 10
-0.857661
 20
1.566323
  0
VERTEX
  8
PLAN_1
  6
CONTINUOUS
 10
-0.859193
 20
1.568366
  0
VERTEX
  8
PLAN_1
  6
CONTINUOUS
 10
-0.862260
 20
1.571433
  0
VERTEX
  8
PLAN_1
  6
CONTINUOUS
 10
-0.863283
 20
1.572457
  0
SEQEND
  8
0
  0
POLYLINE
  8
PLAN_1
  6
CONTINUOUS
 66
     1
 40
0.007154
 41
0.007154
  0
VERTEX
  8
PLAN_1
  6
CONTINUOUS
 10
-0.863283
 20
1.572457
  0
VERTEX
  8
PLAN_1
  6
CONTINUOUS
 10
-1.151079
 20
1.572457
  0
SEQEND
  8
0
  0
POLYLINE
  8
PLAN_1
  6
CONTINUOUS
 66
     1
 40
0.007154
 41
0.007154
  0
VERTEX
  8
PLAN_1
  6
CONTINUOUS
 10
-1.151079
 20
1.572457
  0
VERTEX
  8
PLAN_1
  6
CONTINUOUS
 10
-1.152102
 20
1.571433
  0
VERTEX
  8
PLAN_1
  6
CONTINUOUS
 10
-1.154657
 20
1.568878
  0
VERTEX
  8
PLAN_1
  6
CONTINUOUS
 10
-1.157724
 20
1.564276
  0
VERTEX
  8
PLAN_1
  6
CONTINUOUS
 10
-1.160791
 20
1.558654
  0
VERTEX
  8
PLAN_1
  6
CONTINUOUS
 10
-1.161815
 20
1.555587
  0
VERTEX
  8
PLAN_1
  6
CONTINUOUS
 10
-1.162327
 20
1.552008
  0
VERTEX
  8
PLAN_1
  6
CONTINUOUS
 10
-1.162327
 20
1.547917
  0
VERTEX
  8
PLAN_1
  6
CONTINUOUS
 10
-1.161815
 20
1.543831
  0
VERTEX
  8
PLAN_1
  6
CONTINUOUS
 10
-1.160791
 20
1.539740
  0
VERTEX
  8
PLAN_1
  6
CONTINUOUS
 10
-1.158236
 20
1.535138
  0
VERTEX
  8
PLAN_1
  6
CONTINUOUS
 10
-1.155169
 20
1.530539
  0
VERTEX
  8
PLAN_1
  6
CONTINUOUS
 10
-1.151079
 20
1.525429
  0
SEQEND
  8
0
  0
POLYLINE
  8
PLAN_1
  6
CONTINUOUS
 66
     1
 40
0.007154
 41
0.007154
  0
VERTEX
  8
PLAN_1
  6
CONTINUOUS
 10
-1.151079
 20
1.525429
  0
VERTEX
  8
PLAN_1
  6
CONTINUOUS
 10
-0.863283
 20
1.525429
  0
SEQEND
  8
0
  0
POLYLINE
  8
PLAN_1
  6
CONTINUOUS
 66
     1
 40
0.007154
 41
0.007154
  0
VERTEX
  8
PLAN_1
  6
CONTINUOUS
 10
-0.862772
 20
1.479421
  0
VERTEX
  8
PLAN_1
  6
CONTINUOUS
 10
-0.858173
 20
1.484024
  0
VERTEX
  8
PLAN_1
  6
CONTINUOUS
 10
-0.854594
 20
1.488110
  0
VERTEX
  8
PLAN_1
  6
CONTINUOUS
 10
-0.852039
 20
1.492713
  0
VERTEX
  8
PLAN_1
  6
CONTINUOUS
 10
-0.850504
 20
1.496803
  0
VERTEX
  8
PLAN_1
  6
CONTINUOUS
 10
-0.849992
 20
1.500890
  0
VERTEX
  8
PLAN_1
  6
CONTINUOUS
 10
-0.849992
 20
1.504980
  0
VERTEX
  8
PLAN_1
  6
CONTINUOUS
 10
-0.850504
 20
1.508559
  0
VERTEX
  8
PLAN_1
  6
CONTINUOUS
 10
-0.852039
 20
1.511626
  0
VERTEX
  8
PLAN_1
  6
CONTINUOUS
 10
-0.853571
 20
1.514693
  0
VERTEX
  8
PLAN_1
  6
CONTINUOUS
 10
-0.855106
 20
1.517760
  0
VERTEX
  8
PLAN_1
  6
CONTINUOUS
 10
-0.857150
 20
1.520315
  0
VERTEX
  8
PLAN_1
  6
CONTINUOUS
 10
-0.858685
 20
1.522362
  0
VERTEX
  8
PLAN_1
  6
CONTINUOUS
 10
-0.861752
 20
1.524917
  0
VERTEX
  8
PLAN_1
  6
CONTINUOUS
 10
-0.862772
 20
1.525937
  0
SEQEND
  8
0
  0
POLYLINE
  8
PLAN_1
  6
CONTINUOUS
 66
     1
 40
0.007154
 41
0.007154
  0
VERTEX
  8
PLAN_1
  6
CONTINUOUS
 10
-0.862772
 20
1.525937
  0
VERTEX
  8
PLAN_1
  6
CONTINUOUS
 10
-1.150567
 20
1.525937
  0
SEQEND
  8
0
  0
POLYLINE
  8
PLAN_1
  6
CONTINUOUS
 66
     1
 40
0.007154
 41
0.007154
  0
VERTEX
  8
PLAN_1
  6
CONTINUOUS
 10
-1.150567
 20
1.525937
  0
VERTEX
  8
PLAN_1
  6
CONTINUOUS
 10
-1.151591
 20
1.524917
  0
VERTEX
  8
PLAN_1
  6
CONTINUOUS
 10
-1.154146
 20
1.522362
  0
VERTEX
  8
PLAN_1
  6
CONTINUOUS
 10
-1.157213
 20
1.518272
  0
VERTEX
  8
PLAN_1
  6
CONTINUOUS
 10
-1.160280
 20
1.512650
  0
VERTEX
  8
PLAN_1
  6
CONTINUOUS
 10
-1.161303
 20
1.509071
  0
VERTEX
  8
PLAN_1
  6
CONTINUOUS
 10
-1.161815
 20
1.505492
  0
VERTEX
  8
PLAN_1
  6
CONTINUOUS
 10
-1.161815
 20
1.501402
  0
VERTEX
  8
PLAN_1
  6
CONTINUOUS
 10
-1.161303
 20
1.497311
  0
VERTEX
  8
PLAN_1
  6
CONTINUOUS
 10
-1.160280
 20
1.493224
  0
VERTEX
  8
PLAN_1
  6
CONTINUOUS
 10
-1.158236
 20
1.488622
  0
VERTEX
  8
PLAN_1
  6
CONTINUOUS
 10
-1.154657
 20
1.484024
  0
VERTEX
  8
PLAN_1
  6
CONTINUOUS
 10
-1.150567
 20
1.479421
  0
SEQEND
  8
0
  0
POLYLINE
  8
PLAN_1
  6
CONTINUOUS
 66
     1
 40
0.007154
 41
0.007154
  0
VERTEX
  8
PLAN_1
  6
CONTINUOUS
 10
-1.150567
 20
1.479421
  0
VERTEX
  8
PLAN_1
  6
CONTINUOUS
 10
-0.862772
 20
1.479421
  0
SEQEND
  8
0
  0
POLYLINE
  8
PLAN_1
  6
CONTINUOUS
 66
     1
 40
0.007154
 41
0.007154
  0
VERTEX
  8
PLAN_1
  6
CONTINUOUS
 10
-0.863283
 20
1.432906
  0
VERTEX
  8
PLAN_1
  6
CONTINUOUS
 10
-0.858685
 20
1.437504
  0
VERTEX
  8
PLAN_1
  6
CONTINUOUS
 10
-0.855106
 20
1.442106
  0
VERTEX
  8
PLAN_1
  6
CONTINUOUS
 10
-0.852551
 20
1.446193
  0
VERTEX
  8
PLAN_1
  6
CONTINUOUS
 10
-0.851016
 20
1.450283
  0
VERTEX
  8
PLAN_1
  6
CONTINUOUS
 10
-0.850504
 20
1.454374
  0
VERTEX
  8
PLAN_1
  6
CONTINUOUS
 10
-0.850504
 20
1.458465
  0
VERTEX
  8
PLAN_1
  6
CONTINUOUS
 10
-0.851016
 20
1.462039
  0
VERTEX
  8
PLAN_1
  6
CONTINUOUS
 10
-0.852551
 20
1.465618
  0
VERTEX
  8
PLAN_1
  6
CONTINUOUS
 10
-0.854083
 20
1.468685
  0
VERTEX
  8
PLAN_1
  6
CONTINUOUS
 10
-0.855618
 20
1.471244
  0
VERTEX
  8
PLAN_1
  6
CONTINUOUS
 10
-0.857661
 20
1.473799
  0
VERTEX
  8
PLAN_1
  6
CONTINUOUS
 10
-0.859193
 20
1.475843
  0
VERTEX
  8
PLAN_1
  6
CONTINUOUS
 10
-0.862260
 20
1.478909
  0
VERTEX
  8
PLAN_1
  6
CONTINUOUS
 10
-0.863283
 20
1.479933
  0
SEQEND
  8
0
  0
POLYLINE
  8
PLAN_1
  6
CONTINUOUS
 66
     1
 40
0.007154
 41
0.007154
  0
VERTEX
  8
PLAN_1
  6
CONTINUOUS
 10
-0.863283
 20
1.479933
  0
VERTEX
  8
PLAN_1
  6
CONTINUOUS
 10
-1.151079
 20
1.479933
  0
SEQEND
  8
0
  0
POLYLINE
  8
PLAN_1
  6
CONTINUOUS
 66
     1
 40
0.007154
 41
0.007154
  0
VERTEX
  8
PLAN_1
  6
CONTINUOUS
 10
-1.151079
 20
1.479933
  0
VERTEX
  8
PLAN_1
  6
CONTINUOUS
 10
-1.152102
 20
1.478909
  0
VERTEX
  8
PLAN_1
  6
CONTINUOUS
 10
-1.154657
 20
1.475843
  0
VERTEX
  8
PLAN_1
  6
CONTINUOUS
 10
-1.157724
 20
1.471752
  0
VERTEX
  8
PLAN_1
  6
CONTINUOUS
 10
-1.160791
 20
1.466130
  0
VERTEX
  8
PLAN_1
  6
CONTINUOUS
 10
-1.161815
 20
1.462551
  0
VERTEX
  8
PLAN_1
  6
CONTINUOUS
 10
-1.162327
 20
1.458972
  0
VERTEX
  8
PLAN_1
  6
CONTINUOUS
 10
-1.162327
 20
1.455394
  0
VERTEX
  8
PLAN_1
  6
CONTINUOUS
 10
-1.161815
 20
1.451307
  0
VERTEX
  8
PLAN_1
  6
CONTINUOUS
 10
-1.160791
 20
1.446705
  0
VERTEX
  8
PLAN_1
  6
CONTINUOUS
 10
-1.158236
 20
1.442614
  0
VERTEX
  8
PLAN_1
  6
CONTINUOUS
 10
-1.155169
 20
1.437504
  0
VERTEX
  8
PLAN_1
  6
CONTINUOUS
 10
-1.151079
 20
1.432906
  0
SEQEND
  8
0
  0
POLYLINE
  8
PLAN_1
  6
CONTINUOUS
 66
     1
 40
0.007154
 41
0.007154
  0
VERTEX
  8
PLAN_1
  6
CONTINUOUS
 10
-1.151079
 20
1.432906
  0
VERTEX
  8
PLAN_1
  6
CONTINUOUS
 10
-0.863283
 20
1.432906
  0
SEQEND
  8
0
  0
POLYLINE
  8
PLAN_1
  6
CONTINUOUS
 66
     1
 40
0.007154
 41
0.007154
  0
VERTEX
  8
PLAN_1
  6
CONTINUOUS
 10
-0.862772
 20
1.386386
  0
VERTEX
  8
PLAN_1
  6
CONTINUOUS
 10
-0.858173
 20
1.390988
  0
VERTEX
  8
PLAN_1
  6
CONTINUOUS
 10
-0.854594
 20
1.395587
  0
VERTEX
  8
PLAN_1
  6
CONTINUOUS
 10
-0.852039
 20
1.399677
  0
VERTEX
  8
PLAN_1
  6
CONTINUOUS
 10
-0.850504
 20
1.404276
  0
VERTEX
  8
PLAN_1
  6
CONTINUOUS
 10
-0.849992
 20
1.408366
  0
VERTEX
  8
PLAN_1
  6
CONTINUOUS
 10
-0.849992
 20
1.411945
  0
VERTEX
  8
PLAN_1
  6
CONTINUOUS
 10
-0.850504
 20
1.415524
  0
VERTEX
  8
PLAN_1
  6
CONTINUOUS
 10
-0.852039
 20
1.419102
  0
VERTEX
  8
PLAN_1
  6
CONTINUOUS
 10
-0.853571
 20
1.422169
  0
VERTEX
  8
PLAN_1
  6
CONTINUOUS
 10
-0.855106
 20
1.424724
  0
VERTEX
  8
PLAN_1
  6
CONTINUOUS
 10
-0.857150
 20
1.427280
  0
VERTEX
  8
PLAN_1
  6
CONTINUOUS
 10
-0.858685
 20
1.429327
  0
VERTEX
  8
PLAN_1
  6
CONTINUOUS
 10
-0.861752
 20
1.432394
  0
VERTEX
  8
PLAN_1
  6
CONTINUOUS
 10
-0.862772
 20
1.433413
  0
SEQEND
  8
0
  0
POLYLINE
  8
PLAN_1
  6
CONTINUOUS
 66
     1
 40
0.007154
 41
0.007154
  0
VERTEX
  8
PLAN_1
  6
CONTINUOUS
 10
-0.862772
 20
1.433413
  0
VERTEX
  8
PLAN_1
  6
CONTINUOUS
 10
-1.150567
 20
1.433413
  0
SEQEND
  8
0
  0
POLYLINE
  8
PLAN_1
  6
CONTINUOUS
 66
     1
 40
0.007154
 41
0.007154
  0
VERTEX
  8
PLAN_1
  6
CONTINUOUS
 10
-1.150567
 20
1.433413
  0
VERTEX
  8
PLAN_1
  6
CONTINUOUS
 10
-1.151591
 20
1.432394
  0
VERTEX
  8
PLAN_1
  6
CONTINUOUS
 10
-1.154146
 20
1.429835
  0
VERTEX
  8
PLAN_1
  6
CONTINUOUS
 10
-1.157213
 20
1.425236
  0
VERTEX
  8
PLAN_1
  6
CONTINUOUS
 10
-1.160280
 20
1.419614
  0
VERTEX
  8
PLAN_1
  6
CONTINUOUS
 10
-1.161303
 20
1.416547
  0
VERTEX
  8
PLAN_1
  6
CONTINUOUS
 10
-1.161815
 20
1.412969
  0
VERTEX
  8
PLAN_1
  6
CONTINUOUS
 10
-1.161815
 20
1.408878
  0
VERTEX
  8
PLAN_1
  6
CONTINUOUS
 10
-1.161303
 20
1.404787
  0
VERTEX
  8
PLAN_1
  6
CONTINUOUS
 10
-1.160280
 20
1.400701
  0
VERTEX
  8
PLAN_1
  6
CONTINUOUS
 10
-1.158236
 20
1.396098
  0
VERTEX
  8
PLAN_1
  6
CONTINUOUS
 10
-1.154657
 20
1.391496
  0
VERTEX
  8
PLAN_1
  6
CONTINUOUS
 10
-1.150567
 20
1.386386
  0
SEQEND
  8
0
  0
POLYLINE
  8
PLAN_1
  6
CONTINUOUS
 66
     1
 40
0.007154
 41
0.007154
  0
VERTEX
  8
PLAN_1
  6
CONTINUOUS
 10
-1.150567
 20
1.386386
  0
VERTEX
  8
PLAN_1
  6
CONTINUOUS
 10
-0.862772
 20
1.386386
  0
SEQEND
  8
0
  0
POLYLINE
  8
PLAN_1
  6
CONTINUOUS
 66
     1
 40
0.008177
 41
0.008177
  0
VERTEX
  8
PLAN_1
  6
CONTINUOUS
 10
-1.062646
 20
3.117756
  0
VERTEX
  8
PLAN_1
  6
CONTINUOUS
 10
-1.062646
 20
2.409772
  0
VERTEX
  8
PLAN_1
  6
CONTINUOUS
 10
-0.944563
 20
2.409772
  0
VERTEX
  8
PLAN_1
  6
CONTINUOUS
 10
-0.944563
 20
3.188811
  0
SEQEND
  8
0
  0
POLYLINE
  8
PLAN_1
  6
CONTINUOUS
 66
     1
 40
0.008177
 41
0.008177
  0
VERTEX
  8
PLAN_1
  6
CONTINUOUS
 10
-0.944563
 20
3.324783
  0
VERTEX
  8
PLAN_1
  6
CONTINUOUS
 10
-0.944563
 20
4.084909
  0
VERTEX
  8
PLAN_1
  6
CONTINUOUS
 10
-1.062646
 20
4.084909
  0
VERTEX
  8
PLAN_1
  6
CONTINUOUS
 10
-1.062646
 20
3.256799
  0
SEQEND
  8
0
  0
POLYLINE
  8
PLAN_1
  6
CONTINUOUS
 66
     1
 40
0.008177
 41
0.008177
  0
VERTEX
  8
PLAN_1
  6
CONTINUOUS
 10
-0.856126
 20
2.369898
  0
VERTEX
  8
PLAN_1
  6
CONTINUOUS
 10
-0.896000
 20
2.409772
  0
VERTEX
  8
PLAN_1
  6
CONTINUOUS
 10
-1.119898
 20
2.409772
  0
VERTEX
  8
PLAN_1
  6
CONTINUOUS
 10
-1.161303
 20
2.369898
  0
VERTEX
  8
PLAN_1
  6
CONTINUOUS
 10
-1.161303
 20
2.037118
  0
VERTEX
  8
PLAN_1
  6
CONTINUOUS
 10
-0.856126
 20
2.037118
  0
VERTEX
  8
PLAN_1
  6
CONTINUOUS
 10
-0.856126
 20
2.369898
  0
SEQEND
  8
0
  0
POLYLINE
  8
PLAN_1
  6
CONTINUOUS
 66
     1
 40
0.004087
 41
0.004087
  0
VERTEX
  8
PLAN_1
  6
CONTINUOUS
 10
-2.196957
 20
-0.956358
  0
VERTEX
  8
PLAN_1
  6
CONTINUOUS
 10
-2.196957
 20
-0.450287
  0
SEQEND
  8
0
  0
POLYLINE
  8
PLAN_1
  6
CONTINUOUS
 66
     1
 40
0.004087
 41
0.004087
  0
VERTEX
  8
PLAN_1
  6
CONTINUOUS
 10
-2.196957
 20
-0.450287
  0
VERTEX
  8
PLAN_1
  6
CONTINUOUS
 10
-2.196445
 20
-0.444154
  0
VERTEX
  8
PLAN_1
  6
CONTINUOUS
 10
-2.193890
 20
-0.427795
  0
VERTEX
  8
PLAN_1
  6
CONTINUOUS
 10
-2.190823
 20
-0.417059
  0
VERTEX
  8
PLAN_1
  6
CONTINUOUS
 10
-2.186732
 20
-0.404280
  0
VERTEX
  8
PLAN_1
  6
CONTINUOUS
 10
-2.184177
 20
-0.398146
  0
VERTEX
  8
PLAN_1
  6
CONTINUOUS
 10
-2.181110
 20
-0.391500
  0
VERTEX
  8
PLAN_1
  6
CONTINUOUS
 10
-2.178043
 20
-0.384854
  0
VERTEX
  8
PLAN_1
  6
CONTINUOUS
 10
-2.173953
 20
-0.377701
  0
VERTEX
  8
PLAN_1
  6
CONTINUOUS
 10
-2.169350
 20
-0.371055
  0
VERTEX
  8
PLAN_1
  6
CONTINUOUS
 10
-2.164752
 20
-0.364409
  0
VERTEX
  8
PLAN_1
  6
CONTINUOUS
 10
-2.159126
 20
-0.357764
  0
VERTEX
  8
PLAN_1
  6
CONTINUOUS
 10
-2.152992
 20
-0.351118
  0
VERTEX
  8
PLAN_1
  6
CONTINUOUS
 10
-2.146346
 20
-0.344984
  0
VERTEX
  8
PLAN_1
  6
CONTINUOUS
 10
-2.139193
 20
-0.338850
  0
VERTEX
  8
PLAN_1
  6
CONTINUOUS
 10
-2.131012
 20
-0.333228
  0
VERTEX
  8
PLAN_1
  6
CONTINUOUS
 10
-2.122323
 20
-0.327602
  0
VERTEX
  8
PLAN_1
  6
CONTINUOUS
 10
-2.113122
 20
-0.323004
  0
VERTEX
  8
PLAN_1
  6
CONTINUOUS
 10
-2.102898
 20
-0.318402
  0
VERTEX
  8
PLAN_1
  6
CONTINUOUS
 10
-2.091654
 20
-0.314823
  0
VERTEX
  8
PLAN_1
  6
CONTINUOUS
 10
-2.079894
 20
-0.311244
  0
VERTEX
  8
PLAN_1
  6
CONTINUOUS
 10
-2.067114
 20
-0.308689
  0
VERTEX
  8
PLAN_1
  6
CONTINUOUS
 10
-2.053823
 20
-0.306646
  0
VERTEX
  8
PLAN_1
  6
CONTINUOUS
 10
-2.039000
 20
-0.305622
  0
VERTEX
  8
PLAN_1
  6
CONTINUOUS
 10
-2.023665
 20
-0.305110
  0
VERTEX
  8
PLAN_1
  6
CONTINUOUS
 10
-1.886669
 20
-0.305110
  0
VERTEX
  8
PLAN_1
  6
CONTINUOUS
 10
-1.631591
 20
-0.305110
  0
VERTEX
  8
PLAN_1
  6
CONTINUOUS
 10
-1.299831
 20
-0.305110
  0
VERTEX
  8
PLAN_1
  6
CONTINUOUS
 10
-0.934339
 20
-0.305110
  0
VERTEX
  8
PLAN_1
  6
CONTINUOUS
 10
-0.576512
 20
-0.305110
  0
VERTEX
  8
PLAN_1
  6
CONTINUOUS
 10
-0.268780
 20
-0.305110
  0
VERTEX
  8
PLAN_1
  6
CONTINUOUS
 10
-0.053063
 20
-0.305110
  0
VERTEX
  8
PLAN_1
  6
CONTINUOUS
 10
0.027705
 20
-0.305110
  0
VERTEX
  8
PLAN_1
  6
CONTINUOUS
 10
0.034350
 20
-0.305110
  0
VERTEX
  8
PLAN_1
  6
CONTINUOUS
 10
0.051728
 20
-0.306646
  0
VERTEX
  8
PLAN_1
  6
CONTINUOUS
 10
0.057354
 20
-0.307669
  0
VERTEX
  8
PLAN_1
  6
CONTINUOUS
 10
0.062976
 20
-0.308689
  0
VERTEX
  8
PLAN_1
  6
CONTINUOUS
 10
0.069622
 20
-0.310224
  0
VERTEX
  8
PLAN_1
  6
CONTINUOUS
 10
0.076268
 20
-0.312268
  0
VERTEX
  8
PLAN_1
  6
CONTINUOUS
 10
0.082913
 20
-0.314823
  0
VERTEX
  8
PLAN_1
  6
CONTINUOUS
 10
0.090067
 20
-0.317890
  0
VERTEX
  8
PLAN_1
  6
CONTINUOUS
 10
0.096713
 20
-0.320957
  0
VERTEX
  8
PLAN_1
  6
CONTINUOUS
 10
0.103870
 20
-0.325047
  0
VERTEX
  8
PLAN_1
  6
CONTINUOUS
 10
0.111028
 20
-0.329650
  0
VERTEX
  8
PLAN_1
  6
CONTINUOUS
 10
0.118185
 20
-0.334760
  0
VERTEX
  8
PLAN_1
  6
CONTINUOUS
 10
0.125339
 20
-0.340382
  0
VERTEX
  8
PLAN_1
  6
CONTINUOUS
 10
0.131984
 20
-0.347028
  0
VERTEX
  8
PLAN_1
  6
CONTINUOUS
 10
0.138630
 20
-0.354185
  0
VERTEX
  8
PLAN_1
  6
CONTINUOUS
 10
0.144764
 20
-0.362362
  0
VERTEX
  8
PLAN_1
  6
CONTINUOUS
 10
0.150898
 20
-0.371055
  0
VERTEX
  8
PLAN_1
  6
CONTINUOUS
 10
0.156524
 20
-0.381280
  0
VERTEX
  8
PLAN_1
  6
CONTINUOUS
 10
0.161634
 20
-0.391500
  0
VERTEX
  8
PLAN_1
  6
CONTINUOUS
 10
0.166236
 20
-0.403260
  0
VERTEX
  8
PLAN_1
  6
CONTINUOUS
 10
0.170323
 20
-0.416039
  0
VERTEX
  8
PLAN_1
  6
CONTINUOUS
 10
0.173902
 20
-0.429839
  0
VERTEX
  8
PLAN_1
  6
CONTINUOUS
 10
0.176457
 20
-0.444665
  0
VERTEX
  8
PLAN_1
  6
CONTINUOUS
 10
0.178504
 20
-0.460512
  0
VERTEX
  8
PLAN_1
  6
CONTINUOUS
 10
0.180035
 20
-0.477378
  0
VERTEX
  8
PLAN_1
  6
CONTINUOUS
 10
0.180547
 20
-0.495783
  0
SEQEND
  8
0
  0
POLYLINE
  8
PLAN_1
  6
CONTINUOUS
 66
     1
 40
0.004087
 41
0.004087
  0
VERTEX
  8
PLAN_1
  6
CONTINUOUS
 10
0.180547
 20
-0.495783
  0
VERTEX
  8
PLAN_1
  6
CONTINUOUS
 10
0.180547
 20
-0.948689
  0
SEQEND
  8
0
  0
POLYLINE
  8
PLAN_1
  6
CONTINUOUS
 66
     1
 40
0.004087
 41
0.004087
  0
VERTEX
  8
PLAN_1
  6
CONTINUOUS
 10
-2.010886
 20
-0.513161
  0
VERTEX
  8
PLAN_1
  6
CONTINUOUS
 10
-1.739961
 20
-0.513161
  0
SEQEND
  8
0
  0
POLYLINE
  8
PLAN_1
  6
CONTINUOUS
 66
     1
 40
0.004087
 41
0.004087
  0
VERTEX
  8
PLAN_1
  6
CONTINUOUS
 10
-1.874402
 20
-0.637378
  0
VERTEX
  8
PLAN_1
  6
CONTINUOUS
 10
-1.874909
 20
-0.388433
  0
SEQEND
  8
0
  0
POLYLINE
  8
PLAN_1
  6
CONTINUOUS
 66
     1
 40
0.003000
 41
0.003000
  0
VERTEX
  8
PLAN_1
  6
CONTINUOUS
 10
-1.873378
 20
-0.481469
  0
VERTEX
  8
PLAN_1
  6
CONTINUOUS
 10
-1.876957
 20
-0.481469
  0
VERTEX
  8
PLAN_1
  6
CONTINUOUS
 10
-1.880024
 20
-0.481980
  0
VERTEX
  8
PLAN_1
  6
CONTINUOUS
 10
-1.883091
 20
-0.483004
  0
VERTEX
  8
PLAN_1
  6
CONTINUOUS
 10
-1.886157
 20
-0.484024
  0
VERTEX
  8
PLAN_1
  6
CONTINUOUS
 10
-1.888713
 20
-0.485559
  0
VERTEX
  8
PLAN_1
  6
CONTINUOUS
 10
-1.891268
 20
-0.487091
  0
VERTEX
  8
PLAN_1
  6
CONTINUOUS
 10
-1.893827
 20
-0.488626
  0
VERTEX
  8
PLAN_1
  6
CONTINUOUS
 10
-1.895870
 20
-0.490669
  0
VERTEX
  8
PLAN_1
  6
CONTINUOUS
 10
-1.897913
 20
-0.493228
  0
VERTEX
  8
PLAN_1
  6
CONTINUOUS
 10
-1.899961
 20
-0.495272
  0
VERTEX
  8
PLAN_1
  6
CONTINUOUS
 10
-1.901492
 20
-0.498339
  0
VERTEX
  8
PLAN_1
  6
CONTINUOUS
 10
-1.903028
 20
-0.500894
  0
VERTEX
  8
PLAN_1
  6
CONTINUOUS
 10
-1.904047
 20
-0.503961
  0
VERTEX
  8
PLAN_1
  6
CONTINUOUS
 10
-1.904559
 20
-0.507028
  0
VERTEX
  8
PLAN_1
  6
CONTINUOUS
 10
-1.905071
 20
-0.510094
  0
VERTEX
  8
PLAN_1
  6
CONTINUOUS
 10
-1.905583
 20
-0.513161
  0
VERTEX
  8
PLAN_1
  6
CONTINUOUS
 10
-1.905071
 20
-0.516740
  0
VERTEX
  8
PLAN_1
  6
CONTINUOUS
 10
-1.904559
 20
-0.519807
  0
VERTEX
  8
PLAN_1
  6
CONTINUOUS
 10
-1.904047
 20
-0.522874
  0
VERTEX
  8
PLAN_1
  6
CONTINUOUS
 10
-1.903028
 20
-0.525941
  0
VERTEX
  8
PLAN_1
  6
CONTINUOUS
 10
-1.901492
 20
-0.528496
  0
VERTEX
  8
PLAN_1
  6
CONTINUOUS
 10
-1.899961
 20
-0.531055
  0
VERTEX
  8
PLAN_1
  6
CONTINUOUS
 10
-1.897913
 20
-0.533610
  0
VERTEX
  8
PLAN_1
  6
CONTINUOUS
 10
-1.895870
 20
-0.535654
  0
VERTEX
  8
PLAN_1
  6
CONTINUOUS
 10
-1.893827
 20
-0.537701
  0
VERTEX
  8
PLAN_1
  6
CONTINUOUS
 10
-1.891268
 20
-0.539744
  0
VERTEX
  8
PLAN_1
  6
CONTINUOUS
 10
-1.888713
 20
-0.541276
  0
VERTEX
  8
PLAN_1
  6
CONTINUOUS
 10
-1.886157
 20
-0.542811
  0
VERTEX
  8
PLAN_1
  6
CONTINUOUS
 10
-1.883091
 20
-0.543835
  0
VERTEX
  8
PLAN_1
  6
CONTINUOUS
 10
-1.880024
 20
-0.544346
  0
VERTEX
  8
PLAN_1
  6
CONTINUOUS
 10
-1.876957
 20
-0.544854
  0
VERTEX
  8
PLAN_1
  6
CONTINUOUS
 10
-1.873378
 20
-0.545366
  0
VERTEX
  8
PLAN_1
  6
CONTINUOUS
 10
-1.870311
 20
-0.544854
  0
VERTEX
  8
PLAN_1
  6
CONTINUOUS
 10
-1.867244
 20
-0.544346
  0
VERTEX
  8
PLAN_1
  6
CONTINUOUS
 10
-1.864177
 20
-0.543835
  0
VERTEX
  8
PLAN_1
  6
CONTINUOUS
 10
-1.861110
 20
-0.542811
  0
VERTEX
  8
PLAN_1
  6
CONTINUOUS
 10
-1.858555
 20
-0.541276
  0
VERTEX
  8
PLAN_1
  6
CONTINUOUS
 10
-1.855996
 20
-0.539744
  0
VERTEX
  8
PLAN_1
  6
CONTINUOUS
 10
-1.853441
 20
-0.537701
  0
VERTEX
  8
PLAN_1
  6
CONTINUOUS
 10
-1.850886
 20
-0.535654
  0
VERTEX
  8
PLAN_1
  6
CONTINUOUS
 10
-1.848843
 20
-0.533610
  0
VERTEX
  8
PLAN_1
  6
CONTINUOUS
 10
-1.847307
 20
-0.531055
  0
VERTEX
  8
PLAN_1
  6
CONTINUOUS
 10
-1.845776
 20
-0.528496
  0
VERTEX
  8
PLAN_1
  6
CONTINUOUS
 10
-1.844240
 20
-0.525941
  0
VERTEX
  8
PLAN_1
  6
CONTINUOUS
 10
-1.843217
 20
-0.522874
  0
VERTEX
  8
PLAN_1
  6
CONTINUOUS
 10
-1.842197
 20
-0.519807
  0
VERTEX
  8
PLAN_1
  6
CONTINUOUS
 10
-1.841685
 20
-0.516740
  0
VERTEX
  8
PLAN_1
  6
CONTINUOUS
 10
-1.841685
 20
-0.513161
  0
VERTEX
  8
PLAN_1
  6
CONTINUOUS
 10
-1.841685
 20
-0.510094
  0
VERTEX
  8
PLAN_1
  6
CONTINUOUS
 10
-1.842197
 20
-0.507028
  0
VERTEX
  8
PLAN_1
  6
CONTINUOUS
 10
-1.843217
 20
-0.503961
  0
VERTEX
  8
PLAN_1
  6
CONTINUOUS
 10
-1.844240
 20
-0.500894
  0
VERTEX
  8
PLAN_1
  6
CONTINUOUS
 10
-1.845776
 20
-0.498339
  0
VERTEX
  8
PLAN_1
  6
CONTINUOUS
 10
-1.847307
 20
-0.495272
  0
VERTEX
  8
PLAN_1
  6
CONTINUOUS
 10
-1.848843
 20
-0.493228
  0
VERTEX
  8
PLAN_1
  6
CONTINUOUS
 10
-1.850886
 20
-0.490669
  0
VERTEX
  8
PLAN_1
  6
CONTINUOUS
 10
-1.853441
 20
-0.488626
  0
VERTEX
  8
PLAN_1
  6
CONTINUOUS
 10
-1.855996
 20
-0.487091
  0
VERTEX
  8
PLAN_1
  6
CONTINUOUS
 10
-1.858555
 20
-0.485559
  0
VERTEX
  8
PLAN_1
  6
CONTINUOUS
 10
-1.861110
 20
-0.484024
  0
VERTEX
  8
PLAN_1
  6
CONTINUOUS
 10
-1.864177
 20
-0.483004
  0
VERTEX
  8
PLAN_1
  6
CONTINUOUS
 10
-1.867244
 20
-0.481980
  0
VERTEX
  8
PLAN_1
  6
CONTINUOUS
 10
-1.870311
 20
-0.481469
  0
VERTEX
  8
PLAN_1
  6
CONTINUOUS
 10
-1.873378
 20
-0.481469
  0
SEQEND
  8
0
  0
POLYLINE
  8
PLAN_1
  6
CONTINUOUS
 66
     1
 40
0.004087
 41
0.004087
  0
VERTEX
  8
PLAN_1
  6
CONTINUOUS
 10
-0.265201
 20
-0.513161
  0
VERTEX
  8
PLAN_1
  6
CONTINUOUS
 10
0.005724
 20
-0.513161
  0
SEQEND
  8
0
  0
POLYLINE
  8
PLAN_1
  6
CONTINUOUS
 66
     1
 40
0.004087
 41
0.004087
  0
VERTEX
  8
PLAN_1
  6
CONTINUOUS
 10
-0.128717
 20
-0.637378
  0
VERTEX
  8
PLAN_1
  6
CONTINUOUS
 10
-0.129228
 20
-0.388433
  0
SEQEND
  8
0
  0
POLYLINE
  8
PLAN_1
  6
CONTINUOUS
 66
     1
 40
0.003000
 41
0.003000
  0
VERTEX
  8
PLAN_1
  6
CONTINUOUS
 10
-0.128205
 20
-0.481469
  0
VERTEX
  8
PLAN_1
  6
CONTINUOUS
 10
-0.131272
 20
-0.481469
  0
VERTEX
  8
PLAN_1
  6
CONTINUOUS
 10
-0.134339
 20
-0.481980
  0
VERTEX
  8
PLAN_1
  6
CONTINUOUS
 10
-0.137406
 20
-0.483004
  0
VERTEX
  8
PLAN_1
  6
CONTINUOUS
 10
-0.140472
 20
-0.484024
  0
VERTEX
  8
PLAN_1
  6
CONTINUOUS
 10
-0.143031
 20
-0.485559
  0
VERTEX
  8
PLAN_1
  6
CONTINUOUS
 10
-0.145587
 20
-0.487091
  0
VERTEX
  8
PLAN_1
  6
CONTINUOUS
 10
-0.148142
 20
-0.488626
  0
VERTEX
  8
PLAN_1
  6
CONTINUOUS
 10
-0.150697
 20
-0.490669
  0
VERTEX
  8
PLAN_1
  6
CONTINUOUS
 10
-0.152744
 20
-0.493228
  0
VERTEX
  8
PLAN_1
  6
CONTINUOUS
 10
-0.154276
 20
-0.495272
  0
VERTEX
  8
PLAN_1
  6
CONTINUOUS
 10
-0.155811
 20
-0.498339
  0
VERTEX
  8
PLAN_1
  6
CONTINUOUS
 10
-0.157343
 20
-0.500894
  0
VERTEX
  8
PLAN_1
  6
CONTINUOUS
 10
-0.158366
 20
-0.503961
  0
VERTEX
  8
PLAN_1
  6
CONTINUOUS
 10
-0.159390
 20
-0.507028
  0
VERTEX
  8
PLAN_1
  6
CONTINUOUS
 10
-0.159898
 20
-0.510094
  0
VERTEX
  8
PLAN_1
  6
CONTINUOUS
 10
-0.159898
 20
-0.513161
  0
VERTEX
  8
PLAN_1
  6
CONTINUOUS
 10
-0.159898
 20
-0.516740
  0
VERTEX
  8
PLAN_1
  6
CONTINUOUS
 10
-0.159390
 20
-0.519807
  0
VERTEX
  8
PLAN_1
  6
CONTINUOUS
 10
-0.158366
 20
-0.522874
  0
VERTEX
  8
PLAN_1
  6
CONTINUOUS
 10
-0.157343
 20
-0.525941
  0
VERTEX
  8
PLAN_1
  6
CONTINUOUS
 10
-0.155811
 20
-0.528496
  0
VERTEX
  8
PLAN_1
  6
CONTINUOUS
 10
-0.154276
 20
-0.531055
  0
VERTEX
  8
PLAN_1
  6
CONTINUOUS
 10
-0.152744
 20
-0.533610
  0
VERTEX
  8
PLAN_1
  6
CONTINUOUS
 10
-0.150697
 20
-0.535654
  0
VERTEX
  8
PLAN_1
  6
CONTINUOUS
 10
-0.148142
 20
-0.537701
  0
VERTEX
  8
PLAN_1
  6
CONTINUOUS
 10
-0.145587
 20
-0.539744
  0
VERTEX
  8
PLAN_1
  6
CONTINUOUS
 10
-0.143031
 20
-0.541276
  0
VERTEX
  8
PLAN_1
  6
CONTINUOUS
 10
-0.140472
 20
-0.542811
  0
VERTEX
  8
PLAN_1
  6
CONTINUOUS
 10
-0.137406
 20
-0.543835
  0
VERTEX
  8
PLAN_1
  6
CONTINUOUS
 10
-0.134339
 20
-0.544346
  0
VERTEX
  8
PLAN_1
  6
CONTINUOUS
 10
-0.131272
 20
-0.544854
  0
VERTEX
  8
PLAN_1
  6
CONTINUOUS
 10
-0.128205
 20
-0.545366
  0
VERTEX
  8
PLAN_1
  6
CONTINUOUS
 10
-0.124626
 20
-0.544854
  0
VERTEX
  8
PLAN_1
  6
CONTINUOUS
 10
-0.121559
 20
-0.544346
  0
VERTEX
  8
PLAN_1
  6
CONTINUOUS
 10
-0.118492
 20
-0.543835
  0
VERTEX
  8
PLAN_1
  6
CONTINUOUS
 10
-0.115425
 20
-0.542811
  0
VERTEX
  8
PLAN_1
  6
CONTINUOUS
 10
-0.112870
 20
-0.541276
  0
VERTEX
  8
PLAN_1
  6
CONTINUOUS
 10
-0.110315
 20
-0.539744
  0
VERTEX
  8
PLAN_1
  6
CONTINUOUS
 10
-0.107760
 20
-0.537701
  0
VERTEX
  8
PLAN_1
  6
CONTINUOUS
 10
-0.105713
 20
-0.535654
  0
VERTEX
  8
PLAN_1
  6
CONTINUOUS
 10
-0.103669
 20
-0.533610
  0
VERTEX
  8
PLAN_1
  6
CONTINUOUS
 10
-0.101626
 20
-0.531055
  0
VERTEX
  8
PLAN_1
  6
CONTINUOUS
 10
-0.100091
 20
-0.528496
  0
VERTEX
  8
PLAN_1
  6
CONTINUOUS
 10
-0.098559
 20
-0.525941
  0
VERTEX
  8
PLAN_1
  6
CONTINUOUS
 10
-0.097535
 20
-0.522874
  0
VERTEX
  8
PLAN_1
  6
CONTINUOUS
 10
-0.097024
 20
-0.519807
  0
VERTEX
  8
PLAN_1
  6
CONTINUOUS
 10
-0.096512
 20
-0.516740
  0
VERTEX
  8
PLAN_1
  6
CONTINUOUS
 10
-0.096000
 20
-0.513161
  0
VERTEX
  8
PLAN_1
  6
CONTINUOUS
 10
-0.096512
 20
-0.510094
  0
VERTEX
  8
PLAN_1
  6
CONTINUOUS
 10
-0.097024
 20
-0.507028
  0
VERTEX
  8
PLAN_1
  6
CONTINUOUS
 10
-0.097535
 20
-0.503961
  0
VERTEX
  8
PLAN_1
  6
CONTINUOUS
 10
-0.098559
 20
-0.500894
  0
VERTEX
  8
PLAN_1
  6
CONTINUOUS
 10
-0.100091
 20
-0.498339
  0
VERTEX
  8
PLAN_1
  6
CONTINUOUS
 10
-0.101626
 20
-0.495272
  0
VERTEX
  8
PLAN_1
  6
CONTINUOUS
 10
-0.103669
 20
-0.493228
  0
VERTEX
  8
PLAN_1
  6
CONTINUOUS
 10
-0.105713
 20
-0.490669
  0
VERTEX
  8
PLAN_1
  6
CONTINUOUS
 10
-0.107760
 20
-0.488626
  0
VERTEX
  8
PLAN_1
  6
CONTINUOUS
 10
-0.110315
 20
-0.487091
  0
VERTEX
  8
PLAN_1
  6
CONTINUOUS
 10
-0.112870
 20
-0.485559
  0
VERTEX
  8
PLAN_1
  6
CONTINUOUS
 10
-0.115425
 20
-0.484024
  0
VERTEX
  8
PLAN_1
  6
CONTINUOUS
 10
-0.118492
 20
-0.483004
  0
VERTEX
  8
PLAN_1
  6
CONTINUOUS
 10
-0.121559
 20
-0.481980
  0
VERTEX
  8
PLAN_1
  6
CONTINUOUS
 10
-0.124626
 20
-0.481469
  0
VERTEX
  8
PLAN_1
  6
CONTINUOUS
 10
-0.128205
 20
-0.481469
  0
SEQEND
  8
0
  0
POLYLINE
  8
PLAN_1
  6
CONTINUOUS
 66
     1
 40
0.007154
 41
0.007154
  0
VERTEX
  8
PLAN_1
  6
CONTINUOUS
 10
-0.769736
 20
0.700894
  0
VERTEX
  8
PLAN_1
  6
CONTINUOUS
 10
-0.769736
 20
0.737185
  0
SEQEND
  8
0
  0
POLYLINE
  8
PLAN_1
  6
CONTINUOUS
 66
     1
 40
0.007154
 41
0.007154
  0
VERTEX
  8
PLAN_1
  6
CONTINUOUS
 10
-1.241047
 20
0.737185
  0
VERTEX
  8
PLAN_1
  6
CONTINUOUS
 10
-1.241047
 20
0.700894
  0
SEQEND
  8
0
  0
POLYLINE
  8
PLAN_1
  6
CONTINUOUS
 66
     1
 40
0.004087
 41
0.004087
  0
VERTEX
  8
PLAN_1
  6
CONTINUOUS
 10
-1.243091
 20
3.151492
  0
VERTEX
  8
PLAN_1
  6
CONTINUOUS
 10
-0.755425
 20
3.433154
  0
SEQEND
  8
0
  0
POLYLINE
  8
PLAN_1
  6
CONTINUOUS
 66
     1
 40
0.004087
 41
0.004087
  0
VERTEX
  8
PLAN_1
  6
CONTINUOUS
 10
-1.242071
 20
3.019610
  0
VERTEX
  8
PLAN_1
  6
CONTINUOUS
 10
-0.751846
 20
3.300760
  0
SEQEND
  8
0
  0
POLYLINE
  8
PLAN_1
  6
CONTINUOUS
 66
     1
 40
0.007154
 41
0.007154
  0
VERTEX
  8
PLAN_1
  6
CONTINUOUS
 10
-1.161303
 20
2.369898
  0
VERTEX
  8
PLAN_1
  6
CONTINUOUS
 10
-0.856126
 20
2.369898
  0
SEQEND
  8
0
  0
POLYLINE
  8
PLAN_1
  6
CONTINUOUS
 66
     1
 40
0.007154
 41
0.007154
  0
VERTEX
  8
PLAN_1
  6
CONTINUOUS
 10
-1.022772
 20
-1.032524
  0
VERTEX
  8
PLAN_1
  6
CONTINUOUS
 10
-0.778429
 20
-0.989071
  0
VERTEX
  8
PLAN_1
  6
CONTINUOUS
 10
-0.766669
 20
-0.987028
  0
SEQEND
  8
0
  0
POLYLINE
  8
PLAN_1
  6
CONTINUOUS
 66
     1
 40
0.007154
 41
0.007154
  0
VERTEX
  8
PLAN_1
  6
CONTINUOUS
 10
-0.766669
 20
-0.987028
  0
VERTEX
  8
PLAN_1
  6
CONTINUOUS
 10
-0.762583
 20
-0.986004
  0
VERTEX
  8
PLAN_1
  6
CONTINUOUS
 10
-0.759516
 20
-0.983961
  0
VERTEX
  8
PLAN_1
  6
CONTINUOUS
 10
-0.756449
 20
-0.981917
  0
VERTEX
  8
PLAN_1
  6
CONTINUOUS
 10
-0.753890
 20
-0.978846
  0
VERTEX
  8
PLAN_1
  6
CONTINUOUS
 10
-0.751846
 20
-0.975780
  0
VERTEX
  8
PLAN_1
  6
CONTINUOUS
 10
-0.750823
 20
-0.972205
  0
VERTEX
  8
PLAN_1
  6
CONTINUOUS
 10
-0.750315
 20
-0.968114
  0
VERTEX
  8
PLAN_1
  6
CONTINUOUS
 10
-0.750823
 20
-0.964024
  0
VERTEX
  8
PLAN_1
  6
CONTINUOUS
 10
-0.751846
 20
-0.960445
  0
VERTEX
  8
PLAN_1
  6
CONTINUOUS
 10
-0.753382
 20
-0.956866
  0
VERTEX
  8
PLAN_1
  6
CONTINUOUS
 10
-0.755937
 20
-0.953799
  0
VERTEX
  8
PLAN_1
  6
CONTINUOUS
 10
-0.758492
 20
-0.951756
  0
VERTEX
  8
PLAN_1
  6
CONTINUOUS
 10
-0.762071
 20
-0.949713
  0
VERTEX
  8
PLAN_1
  6
CONTINUOUS
 10
-0.765650
 20
-0.948689
  0
VERTEX
  8
PLAN_1
  6
CONTINUOUS
 10
-0.769228
 20
-0.948177
  0
VERTEX
  8
PLAN_1
  6
CONTINUOUS
 10
-0.773315
 20
-0.948177
  0
SEQEND
  8
0
  0
POLYLINE
  8
PLAN_1
  6
CONTINUOUS
 66
     1
 40
0.007154
 41
0.007154
  0
VERTEX
  8
PLAN_1
  6
CONTINUOUS
 10
-0.773315
 20
-0.948177
  0
VERTEX
  8
PLAN_1
  6
CONTINUOUS
 10
-0.785583
 20
-0.950220
  0
VERTEX
  8
PLAN_1
  6
CONTINUOUS
 10
-1.247693
 20
-1.032012
  0
VERTEX
  8
PLAN_1
  6
CONTINUOUS
 10
-1.255358
 20
-1.033543
  0
SEQEND
  8
0
  0
POLYLINE
  8
PLAN_1
  6
CONTINUOUS
 66
     1
 40
0.007154
 41
0.007154
  0
VERTEX
  8
PLAN_1
  6
CONTINUOUS
 10
-1.255358
 20
-1.033543
  0
VERTEX
  8
PLAN_1
  6
CONTINUOUS
 10
-1.259449
 20
-1.034567
  0
VERTEX
  8
PLAN_1
  6
CONTINUOUS
 10
-1.262516
 20
-1.036102
  0
VERTEX
  8
PLAN_1
  6
CONTINUOUS
 10
-1.265583
 20
-1.038657
  0
VERTEX
  8
PLAN_1
  6
CONTINUOUS
 10
-1.268138
 20
-1.041724
  0
VERTEX
  8
PLAN_1
  6
CONTINUOUS
 10
-1.269673
 20
-1.044791
  0
VERTEX
  8
PLAN_1
  6
CONTINUOUS
 10
-1.271205
 20
-1.048370
  0
VERTEX
  8
PLAN_1
  6
CONTINUOUS
 10
-1.271717
 20
-1.052457
  0
VERTEX
  8
PLAN_1
  6
CONTINUOUS
 10
-1.271205
 20
-1.056035
  0
VERTEX
  8
PLAN_1
  6
CONTINUOUS
 10
-1.270185
 20
-1.060126
  0
VERTEX
  8
PLAN_1
  6
CONTINUOUS
 10
-1.268650
 20
-1.063705
  0
VERTEX
  8
PLAN_1
  6
CONTINUOUS
 10
-1.266094
 20
-1.066260
  0
VERTEX
  8
PLAN_1
  6
CONTINUOUS
 10
-1.263028
 20
-1.068815
  0
VERTEX
  8
PLAN_1
  6
CONTINUOUS
 10
-1.259961
 20
-1.070862
  0
VERTEX
  8
PLAN_1
  6
CONTINUOUS
 10
-1.256382
 20
-1.071882
  0
VERTEX
  8
PLAN_1
  6
CONTINUOUS
 10
-1.252291
 20
-1.072394
  0
VERTEX
  8
PLAN_1
  6
CONTINUOUS
 10
-1.248713
 20
-1.072394
  0
SEQEND
  8
0
  0
POLYLINE
  8
PLAN_1
  6
CONTINUOUS
 66
     1
 40
0.007154
 41
0.007154
  0
VERTEX
  8
PLAN_1
  6
CONTINUOUS
 10
-1.140854
 20
-0.710988
  0
VERTEX
  8
PLAN_1
  6
CONTINUOUS
 10
-0.778429
 20
-0.774886
  0
VERTEX
  8
PLAN_1
  6
CONTINUOUS
 10
-0.766161
 20
-0.776933
  0
SEQEND
  8
0
  0
POLYLINE
  8
PLAN_1
  6
CONTINUOUS
 66
     1
 40
0.007154
 41
0.007154
  0
VERTEX
  8
PLAN_1
  6
CONTINUOUS
 10
-0.766161
 20
-0.776933
  0
VERTEX
  8
PLAN_1
  6
CONTINUOUS
 10
-0.762583
 20
-0.777953
  0
VERTEX
  8
PLAN_1
  6
CONTINUOUS
 10
-0.759004
 20
-0.780000
  0
VERTEX
  8
PLAN_1
  6
CONTINUOUS
 10
-0.755937
 20
-0.782043
  0
VERTEX
  8
PLAN_1
  6
CONTINUOUS
 10
-0.753890
 20
-0.785110
  0
VERTEX
  8
PLAN_1
  6
CONTINUOUS
 10
-0.751846
 20
-0.788177
  0
VERTEX
  8
PLAN_1
  6
CONTINUOUS
 10
-0.750823
 20
-0.791756
  0
VERTEX
  8
PLAN_1
  6
CONTINUOUS
 10
-0.750315
 20
-0.795846
  0
VERTEX
  8
PLAN_1
  6
CONTINUOUS
 10
-0.750315
 20
-0.799933
  0
VERTEX
  8
PLAN_1
  6
CONTINUOUS
 10
-0.751335
 20
-0.803512
  0
VERTEX
  8
PLAN_1
  6
CONTINUOUS
 10
-0.753382
 20
-0.807091
  0
VERTEX
  8
PLAN_1
  6
CONTINUOUS
 10
-0.755425
 20
-0.810157
  0
VERTEX
  8
PLAN_1
  6
CONTINUOUS
 10
-0.758492
 20
-0.812205
  0
VERTEX
  8
PLAN_1
  6
CONTINUOUS
 10
-0.761559
 20
-0.814248
  0
VERTEX
  8
PLAN_1
  6
CONTINUOUS
 10
-0.765138
 20
-0.815272
  0
VERTEX
  8
PLAN_1
  6
CONTINUOUS
 10
-0.769228
 20
-0.815783
  0
VERTEX
  8
PLAN_1
  6
CONTINUOUS
 10
-0.773315
 20
-0.815783
  0
SEQEND
  8
0
  0
POLYLINE
  8
PLAN_1
  6
CONTINUOUS
 66
     1
 40
0.007154
 41
0.007154
  0
VERTEX
  8
PLAN_1
  6
CONTINUOUS
 10
-0.882709
 20
-0.796358
  0
VERTEX
  8
PLAN_1
  6
CONTINUOUS
 10
-1.247181
 20
-0.731949
  0
VERTEX
  8
PLAN_1
  6
CONTINUOUS
 10
-1.255358
 20
-0.730413
  0
SEQEND
  8
0
  0
POLYLINE
  8
PLAN_1
  6
CONTINUOUS
 66
     1
 40
0.007154
 41
0.007154
  0
VERTEX
  8
PLAN_1
  6
CONTINUOUS
 10
-1.255358
 20
-0.730413
  0
VERTEX
  8
PLAN_1
  6
CONTINUOUS
 10
-1.258937
 20
-0.729394
  0
VERTEX
  8
PLAN_1
  6
CONTINUOUS
 10
-1.262516
 20
-0.727858
  0
VERTEX
  8
PLAN_1
  6
CONTINUOUS
 10
-1.265583
 20
-0.725303
  0
VERTEX
  8
PLAN_1
  6
CONTINUOUS
 10
-1.268138
 20
-0.722236
  0
VERTEX
  8
PLAN_1
  6
CONTINUOUS
 10
-1.269673
 20
-0.719169
  0
VERTEX
  8
PLAN_1
  6
CONTINUOUS
 10
-1.271205
 20
-0.715591
  0
VERTEX
  8
PLAN_1
  6
CONTINUOUS
 10
-1.271205
 20
-0.711500
  0
VERTEX
  8
PLAN_1
  6
CONTINUOUS
 10
-1.271205
 20
-0.707921
  0
VERTEX
  8
PLAN_1
  6
CONTINUOUS
 10
-1.270185
 20
-0.703835
  0
VERTEX
  8
PLAN_1
  6
CONTINUOUS
 10
-1.268138
 20
-0.700768
  0
VERTEX
  8
PLAN_1
  6
CONTINUOUS
 10
-1.266094
 20
-0.697697
  0
VERTEX
  8
PLAN_1
  6
CONTINUOUS
 10
-1.263028
 20
-0.695142
  0
VERTEX
  8
PLAN_1
  6
CONTINUOUS
 10
-1.259961
 20
-0.693098
  0
VERTEX
  8
PLAN_1
  6
CONTINUOUS
 10
-1.256382
 20
-0.692075
  0
VERTEX
  8
PLAN_1
  6
CONTINUOUS
 10
-1.252291
 20
-0.691563
  0
VERTEX
  8
PLAN_1
  6
CONTINUOUS
 10
-1.248205
 20
-0.692075
  0
SEQEND
  8
0
  0
POLYLINE
  8
PLAN_1
  6
CONTINUOUS
 66
     1
 40
0.007154
 41
0.007154
  0
VERTEX
  8
PLAN_1
  6
CONTINUOUS
 10
-0.886287
 20
-0.967091
  0
VERTEX
  8
PLAN_1
  6
CONTINUOUS
 10
-1.247181
 20
-0.903193
  0
VERTEX
  8
PLAN_1
  6
CONTINUOUS
 10
-1.255358
 20
-0.901661
  0
SEQEND
  8
0
  0
POLYLINE
  8
PLAN_1
  6
CONTINUOUS
 66
     1
 40
0.007154
 41
0.007154
  0
VERTEX
  8
PLAN_1
  6
CONTINUOUS
 10
-1.255358
 20
-0.901661
  0
VERTEX
  8
PLAN_1
  6
CONTINUOUS
 10
-1.258937
 20
-0.900638
  0
VERTEX
  8
PLAN_1
  6
CONTINUOUS
 10
-1.262516
 20
-0.899102
  0
VERTEX
  8
PLAN_1
  6
CONTINUOUS
 10
-1.265583
 20
-0.896547
  0
VERTEX
  8
PLAN_1
  6
CONTINUOUS
 10
-1.268138
 20
-0.893480
  0
VERTEX
  8
PLAN_1
  6
CONTINUOUS
 10
-1.269673
 20
-0.890413
  0
VERTEX
  8
PLAN_1
  6
CONTINUOUS
 10
-1.271205
 20
-0.886835
  0
VERTEX
  8
PLAN_1
  6
CONTINUOUS
 10
-1.271717
 20
-0.882748
  0
VERTEX
  8
PLAN_1
  6
CONTINUOUS
 10
-1.271205
 20
-0.879169
  0
VERTEX
  8
PLAN_1
  6
CONTINUOUS
 10
-1.270185
 20
-0.875079
  0
VERTEX
  8
PLAN_1
  6
CONTINUOUS
 10
-1.268138
 20
-0.872012
  0
VERTEX
  8
PLAN_1
  6
CONTINUOUS
 10
-1.266094
 20
-0.868945
  0
VERTEX
  8
PLAN_1
  6
CONTINUOUS
 10
-1.263028
 20
-0.866390
  0
VERTEX
  8
PLAN_1
  6
CONTINUOUS
 10
-1.259961
 20
-0.864343
  0
VERTEX
  8
PLAN_1
  6
CONTINUOUS
 10
-1.256382
 20
-0.863323
  0
VERTEX
  8
PLAN_1
  6
CONTINUOUS
 10
-1.252291
 20
-0.862811
  0
VERTEX
  8
PLAN_1
  6
CONTINUOUS
 10
-1.248205
 20
-0.863323
  0
SEQEND
  8
0
  0
POLYLINE
  8
PLAN_1
  6
CONTINUOUS
 66
     1
 40
0.007154
 41
0.007154
  0
VERTEX
  8
PLAN_1
  6
CONTINUOUS
 10
-1.145457
 20
-0.881213
  0
VERTEX
  8
PLAN_1
  6
CONTINUOUS
 10
-0.778429
 20
-0.946134
  0
VERTEX
  8
PLAN_1
  6
CONTINUOUS
 10
-0.766669
 20
-0.948177
  0
SEQEND
  8
0
  0
POLYLINE
  8
PLAN_1
  6
CONTINUOUS
 66
     1
 40
0.007154
 41
0.007154
  0
VERTEX
  8
PLAN_1
  6
CONTINUOUS
 10
-0.766669
 20
-0.948177
  0
VERTEX
  8
PLAN_1
  6
CONTINUOUS
 10
-0.762583
 20
-0.949201
  0
VERTEX
  8
PLAN_1
  6
CONTINUOUS
 10
-0.759004
 20
-0.951244
  0
VERTEX
  8
PLAN_1
  6
CONTINUOUS
 10
-0.755937
 20
-0.953287
  0
VERTEX
  8
PLAN_1
  6
CONTINUOUS
 10
-0.753890
 20
-0.956358
  0
VERTEX
  8
PLAN_1
  6
CONTINUOUS
 10
-0.751846
 20
-0.959425
  0
VERTEX
  8
PLAN_1
  6
CONTINUOUS
 10
-0.750823
 20
-0.963000
  0
VERTEX
  8
PLAN_1
  6
CONTINUOUS
 10
-0.750315
 20
-0.967091
  0
VERTEX
  8
PLAN_1
  6
CONTINUOUS
 10
-0.750315
 20
-0.971181
  0
VERTEX
  8
PLAN_1
  6
CONTINUOUS
 10
-0.751335
 20
-0.974760
  0
VERTEX
  8
PLAN_1
  6
CONTINUOUS
 10
-0.753382
 20
-0.978339
  0
VERTEX
  8
PLAN_1
  6
CONTINUOUS
 10
-0.755937
 20
-0.981406
  0
VERTEX
  8
PLAN_1
  6
CONTINUOUS
 10
-0.758492
 20
-0.983449
  0
VERTEX
  8
PLAN_1
  6
CONTINUOUS
 10
-0.762071
 20
-0.985492
  0
VERTEX
  8
PLAN_1
  6
CONTINUOUS
 10
-0.765650
 20
-0.986516
  0
VERTEX
  8
PLAN_1
  6
CONTINUOUS
 10
-0.769228
 20
-0.987028
  0
VERTEX
  8
PLAN_1
  6
CONTINUOUS
 10
-0.773315
 20
-0.987028
  0
SEQEND
  8
0
  0
POLYLINE
  8
PLAN_1
 62
     2
  6
CONTINUOUS
 66
     1
 40
0.004087
 41
0.004087
  0
VERTEX
  8
PLAN_1
 62
     2
  6
CONTINUOUS
 10
-1.091783
 20
2.695008
  0
VERTEX
  8
PLAN_1
 62
     2
  6
CONTINUOUS
 10
-0.725264
 20
2.695008
  0
SEQEND
  8
0
  0
SOLID
  8
PLAN_1
 62
     2
 10
-1.062134
 20
2.695008
 11
-1.121429
 21
2.710346
 12
-1.062134
 22
2.695008
 13
-1.121429
 23
2.679161
  0
POLYLINE
  8
PLAN_1
 62
     2
  6
CONTINUOUS
 66
     1
 40
0.003000
 41
0.003000
  0
VERTEX
  8
PLAN_1
 62
     2
  6
CONTINUOUS
 10
-1.062134
 20
2.695008
  0
VERTEX
  8
PLAN_1
 62
     2
  6
CONTINUOUS
 10
-1.121429
 20
2.710346
  0
VERTEX
  8
PLAN_1
 62
     2
  6
CONTINUOUS
 10
-1.121429
 20
2.679161
  0
VERTEX
  8
PLAN_1
 62
     2
  6
CONTINUOUS
 10
-1.062134
 20
2.695008
  0
SEQEND
  8
0
  0
SOLID
  8
PLAN_1
 62
     2
 10
-0.945075
 20
2.695008
 11
-0.885776
 21
2.710346
 12
-0.945075
 22
2.695008
 13
-0.885776
 23
2.679161
  0
POLYLINE
  8
PLAN_1
 62
     2
  6
CONTINUOUS
 66
     1
 40
0.003000
 41
0.003000
  0
VERTEX
  8
PLAN_1
 62
     2
  6
CONTINUOUS
 10
-0.945075
 20
2.695008
  0
VERTEX
  8
PLAN_1
 62
     2
  6
CONTINUOUS
 10
-0.885776
 20
2.710346
  0
VERTEX
  8
PLAN_1
 62
     2
  6
CONTINUOUS
 10
-0.885776
 20
2.679161
  0
VERTEX
  8
PLAN_1
 62
     2
  6
CONTINUOUS
 10
-0.945075
 20
2.695008
  0
SEQEND
  8
0
  0
POLYLINE
  8
PLAN_1
 62
     2
  6
CONTINUOUS
 66
     1
 40
0.004087
 41
0.004087
  0
VERTEX
  8
PLAN_1
 62
     2
  6
CONTINUOUS
 10
0.382465
 20
-0.483516
  0
VERTEX
  8
PLAN_1
 62
     2
  6
CONTINUOUS
 10
0.382465
 20
4.055264
  0
SEQEND
  8
0
  0
SOLID
  8
PLAN_1
 62
     2
 10
0.382465
 20
4.084909
 11
0.366618
 21
4.025614
 12
0.382465
 22
4.084909
 13
0.398311
 23
4.025614
  0
POLYLINE
  8
PLAN_1
 62
     2
  6
CONTINUOUS
 66
     1
 40
0.003000
 41
0.003000
  0
VERTEX
  8
PLAN_1
 62
     2
  6
CONTINUOUS
 10
0.382465
 20
4.084909
  0
VERTEX
  8
PLAN_1
 62
     2
  6
CONTINUOUS
 10
0.366618
 20
4.025614
  0
VERTEX
  8
PLAN_1
 62
     2
  6
CONTINUOUS
 10
0.398311
 20
4.025614
  0
VERTEX
  8
PLAN_1
 62
     2
  6
CONTINUOUS
 10
0.382465
 20
4.084909
  0
SEQEND
  8
0
  0
SOLID
  8
PLAN_1
 62
     2
 10
0.382465
 20
-0.513161
 11
0.366618
 21
-0.453866
 12
0.382465
 22
-0.513161
 13
0.398311
 23
-0.453866
  0
POLYLINE
  8
PLAN_1
 62
     2
  6
CONTINUOUS
 66
     1
 40
0.003000
 41
0.003000
  0
VERTEX
  8
PLAN_1
 62
     2
  6
CONTINUOUS
 10
0.382465
 20
-0.513161
  0
VERTEX
  8
PLAN_1
 62
     2
  6
CONTINUOUS
 10
0.366618
 20
-0.453866
  0
VERTEX
  8
PLAN_1
 62
     2
  6
CONTINUOUS
 10
0.398311
 20
-0.453866
  0
VERTEX
  8
PLAN_1
 62
     2
  6
CONTINUOUS
 10
0.382465
 20
-0.513161
  0
SEQEND
  8
0
  0
POLYLINE
  8
PLAN_1
 62
     2
  6
CONTINUOUS
 66
     1
 40
0.004087
 41
0.004087
  0
VERTEX
  8
PLAN_1
 62
     2
  6
CONTINUOUS
 10
0.029236
 20
-0.513161
  0
VERTEX
  8
PLAN_1
 62
     2
  6
CONTINUOUS
 10
0.405976
 20
-0.513161
  0
SEQEND
  8
0
  0
POLYLINE
  8
PLAN_1
 62
     2
  6
CONTINUOUS
 66
     1
 40
0.004087
 41
0.004087
  0
VERTEX
  8
PLAN_1
 62
     2
  6
CONTINUOUS
 10
-0.921047
 20
4.084909
  0
VERTEX
  8
PLAN_1
 62
     2
  6
CONTINUOUS
 10
0.405976
 20
4.084909
  0
SEQEND
  8
0
  0
POLYLINE
  8
PLAN_1
 62
     2
  6
CONTINUOUS
 66
     1
 40
0.003000
 41
0.003000
  0
VERTEX
  8
PLAN_1
 62
     2
  6
CONTINUOUS
 10
0.358949
 20
1.693094
  0
VERTEX
  8
PLAN_1
 62
     2
  6
CONTINUOUS
 10
0.358949
 20
1.683382
  0
VERTEX
  8
PLAN_1
 62
     2
  6
CONTINUOUS
 10
0.306811
 20
1.683382
  0
VERTEX
  8
PLAN_1
 62
     2
  6
CONTINUOUS
 10
0.306811
 20
1.666004
  0
VERTEX
  8
PLAN_1
 62
     2
  6
CONTINUOUS
 10
0.299654
 20
1.666004
  0
VERTEX
  8
PLAN_1
 62
     2
  6
CONTINUOUS
 10
0.299142
 20
1.670091
  0
VERTEX
  8
PLAN_1
 62
     2
  6
CONTINUOUS
 10
0.298630
 20
1.673669
  0
VERTEX
  8
PLAN_1
 62
     2
  6
CONTINUOUS
 10
0.298118
 20
1.676736
  0
VERTEX
  8
PLAN_1
 62
     2
  6
CONTINUOUS
 10
0.296587
 20
1.679291
  0
VERTEX
  8
PLAN_1
 62
     2
  6
CONTINUOUS
 10
0.295051
 20
1.681339
  0
VERTEX
  8
PLAN_1
 62
     2
  6
CONTINUOUS
 10
0.292496
 20
1.683382
  0
VERTEX
  8
PLAN_1
 62
     2
  6
CONTINUOUS
 10
0.289429
 20
1.684406
  0
VERTEX
  8
PLAN_1
 62
     2
  6
CONTINUOUS
 10
0.285850
 20
1.685937
  0
VERTEX
  8
PLAN_1
 62
     2
  6
CONTINUOUS
 10
0.285850
 20
1.693094
  0
VERTEX
  8
PLAN_1
 62
     2
  6
CONTINUOUS
 10
0.358949
 20
1.693094
  0
SEQEND
  8
0
  0
POLYLINE
  8
PLAN_1
 62
     2
  6
CONTINUOUS
 66
     1
 40
0.003000
 41
0.003000
  0
VERTEX
  8
PLAN_1
 62
     2
  6
CONTINUOUS
 10
0.358949
 20
1.750858
  0
VERTEX
  8
PLAN_1
 62
     2
  6
CONTINUOUS
 10
0.358949
 20
1.741146
  0
VERTEX
  8
PLAN_1
 62
     2
  6
CONTINUOUS
 10
0.306811
 20
1.741146
  0
VERTEX
  8
PLAN_1
 62
     2
  6
CONTINUOUS
 10
0.306811
 20
1.724276
  0
VERTEX
  8
PLAN_1
 62
     2
  6
CONTINUOUS
 10
0.299654
 20
1.724276
  0
VERTEX
  8
PLAN_1
 62
     2
  6
CONTINUOUS
 10
0.299142
 20
1.728366
  0
VERTEX
  8
PLAN_1
 62
     2
  6
CONTINUOUS
 10
0.298630
 20
1.731945
  0
VERTEX
  8
PLAN_1
 62
     2
  6
CONTINUOUS
 10
0.298118
 20
1.734500
  0
VERTEX
  8
PLAN_1
 62
     2
  6
CONTINUOUS
 10
0.296587
 20
1.737055
  0
VERTEX
  8
PLAN_1
 62
     2
  6
CONTINUOUS
 10
0.295051
 20
1.739102
  0
VERTEX
  8
PLAN_1
 62
     2
  6
CONTINUOUS
 10
0.292496
 20
1.741146
  0
VERTEX
  8
PLAN_1
 62
     2
  6
CONTINUOUS
 10
0.289429
 20
1.742681
  0
VERTEX
  8
PLAN_1
 62
     2
  6
CONTINUOUS
 10
0.285850
 20
1.743701
  0
VERTEX
  8
PLAN_1
 62
     2
  6
CONTINUOUS
 10
0.285850
 20
1.750858
  0
VERTEX
  8
PLAN_1
 62
     2
  6
CONTINUOUS
 10
0.358949
 20
1.750858
  0
SEQEND
  8
0
  0
POLYLINE
  8
PLAN_1
 62
     2
  6
CONTINUOUS
 66
     1
 40
0.003000
 41
0.003000
  0
VERTEX
  8
PLAN_1
 62
     2
  6
CONTINUOUS
 10
0.287386
 20
1.775394
  0
VERTEX
  8
PLAN_1
 62
     2
  6
CONTINUOUS
 10
0.287386
 20
1.826000
  0
VERTEX
  8
PLAN_1
 62
     2
  6
CONTINUOUS
 10
0.295051
 20
1.826000
  0
VERTEX
  8
PLAN_1
 62
     2
  6
CONTINUOUS
 10
0.298630
 20
1.822425
  0
VERTEX
  8
PLAN_1
 62
     2
  6
CONTINUOUS
 10
0.303744
 20
1.818846
  0
VERTEX
  8
PLAN_1
 62
     2
  6
CONTINUOUS
 10
0.309878
 20
1.814756
  0
VERTEX
  8
PLAN_1
 62
     2
  6
CONTINUOUS
 10
0.317543
 20
1.810154
  0
VERTEX
  8
PLAN_1
 62
     2
  6
CONTINUOUS
 10
0.326232
 20
1.805555
  0
VERTEX
  8
PLAN_1
 62
     2
  6
CONTINUOUS
 10
0.335945
 20
1.801465
  0
VERTEX
  8
PLAN_1
 62
     2
  6
CONTINUOUS
 10
0.341571
 20
1.799933
  0
VERTEX
  8
PLAN_1
 62
     2
  6
CONTINUOUS
 10
0.347193
 20
1.798398
  0
VERTEX
  8
PLAN_1
 62
     2
  6
CONTINUOUS
 10
0.352815
 20
1.796866
  0
VERTEX
  8
PLAN_1
 62
     2
  6
CONTINUOUS
 10
0.358949
 20
1.795843
  0
VERTEX
  8
PLAN_1
 62
     2
  6
CONTINUOUS
 10
0.358949
 20
1.785618
  0
VERTEX
  8
PLAN_1
 62
     2
  6
CONTINUOUS
 10
0.350772
 20
1.787154
  0
VERTEX
  8
PLAN_1
 62
     2
  6
CONTINUOUS
 10
0.342591
 20
1.789197
  0
VERTEX
  8
PLAN_1
 62
     2
  6
CONTINUOUS
 10
0.334413
 20
1.792264
  0
VERTEX
  8
PLAN_1
 62
     2
  6
CONTINUOUS
 10
0.326232
 20
1.796354
  0
VERTEX
  8
PLAN_1
 62
     2
  6
CONTINUOUS
 10
0.318055
 20
1.800441
  0
VERTEX
  8
PLAN_1
 62
     2
  6
CONTINUOUS
 10
0.309878
 20
1.805043
  0
VERTEX
  8
PLAN_1
 62
     2
  6
CONTINUOUS
 10
0.302720
 20
1.810154
  0
VERTEX
  8
PLAN_1
 62
     2
  6
CONTINUOUS
 10
0.296075
 20
1.815780
  0
VERTEX
  8
PLAN_1
 62
     2
  6
CONTINUOUS
 10
0.296075
 20
1.775394
  0
VERTEX
  8
PLAN_1
 62
     2
  6
CONTINUOUS
 10
0.287386
 20
1.775394
  0
SEQEND
  8
0
  0
POLYLINE
  8
PLAN_1
 62
     2
  6
CONTINUOUS
 66
     1
 40
0.003000
 41
0.003000
  0
VERTEX
  8
PLAN_1
 62
     2
  6
CONTINUOUS
 10
0.347705
 20
1.838272
  0
VERTEX
  8
PLAN_1
 62
     2
  6
CONTINUOUS
 10
0.347705
 20
1.849004
  0
VERTEX
  8
PLAN_1
 62
     2
  6
CONTINUOUS
 10
0.357929
 20
1.849004
  0
VERTEX
  8
PLAN_1
 62
     2
  6
CONTINUOUS
 10
0.362528
 20
1.849004
  0
VERTEX
  8
PLAN_1
 62
     2
  6
CONTINUOUS
 10
0.366618
 20
1.847984
  0
VERTEX
  8
PLAN_1
 62
     2
  6
CONTINUOUS
 10
0.369173
 20
1.846449
  0
VERTEX
  8
PLAN_1
 62
     2
  6
CONTINUOUS
 10
0.371217
 20
1.844406
  0
VERTEX
  8
PLAN_1
 62
     2
  6
CONTINUOUS
 10
0.372752
 20
1.842870
  0
VERTEX
  8
PLAN_1
 62
     2
  6
CONTINUOUS
 10
0.373264
 20
1.840827
  0
VERTEX
  8
PLAN_1
 62
     2
  6
CONTINUOUS
 10
0.373776
 20
1.839291
  0
VERTEX
  8
PLAN_1
 62
     2
  6
CONTINUOUS
 10
0.374283
 20
1.838272
  0
VERTEX
  8
PLAN_1
 62
     2
  6
CONTINUOUS
 10
0.369173
 20
1.838272
  0
VERTEX
  8
PLAN_1
 62
     2
  6
CONTINUOUS
 10
0.368661
 20
1.839803
  0
VERTEX
  8
PLAN_1
 62
     2
  6
CONTINUOUS
 10
0.368150
 20
1.840827
  0
VERTEX
  8
PLAN_1
 62
     2
  6
CONTINUOUS
 10
0.367130
 20
1.841846
  0
VERTEX
  8
PLAN_1
 62
     2
  6
CONTINUOUS
 10
0.365594
 20
1.842870
  0
VERTEX
  8
PLAN_1
 62
     2
  6
CONTINUOUS
 10
0.364063
 20
1.843382
  0
VERTEX
  8
PLAN_1
 62
     2
  6
CONTINUOUS
 10
0.362528
 20
1.843894
  0
VERTEX
  8
PLAN_1
 62
     2
  6
CONTINUOUS
 10
0.360484
 20
1.843894
  0
VERTEX
  8
PLAN_1
 62
     2
  6
CONTINUOUS
 10
0.358949
 20
1.843894
  0
VERTEX
  8
PLAN_1
 62
     2
  6
CONTINUOUS
 10
0.358949
 20
1.838272
  0
VERTEX
  8
PLAN_1
 62
     2
  6
CONTINUOUS
 10
0.347705
 20
1.838272
  0
SEQEND
  8
0
  0
POLYLINE
  8
PLAN_1
 62
     2
  6
CONTINUOUS
 66
     1
 40
0.003000
 41
0.003000
  0
VERTEX
  8
PLAN_1
 62
     2
  6
CONTINUOUS
 10
0.316012
 20
1.873543
  0
VERTEX
  8
PLAN_1
 62
     2
  6
CONTINUOUS
 10
0.315500
 20
1.874563
  0
VERTEX
  8
PLAN_1
 62
     2
  6
CONTINUOUS
 10
0.314476
 20
1.876098
  0
VERTEX
  8
PLAN_1
 62
     2
  6
CONTINUOUS
 10
0.313965
 20
1.877630
  0
VERTEX
  8
PLAN_1
 62
     2
  6
CONTINUOUS
 10
0.312945
 20
1.879165
  0
VERTEX
  8
PLAN_1
 62
     2
  6
CONTINUOUS
 10
0.312433
 20
1.881209
  0
VERTEX
  8
PLAN_1
 62
     2
  6
CONTINUOUS
 10
0.311921
 20
1.883256
  0
VERTEX
  8
PLAN_1
 62
     2
  6
CONTINUOUS
 10
0.311921
 20
1.885299
  0
VERTEX
  8
PLAN_1
 62
     2
  6
CONTINUOUS
 10
0.311409
 20
1.887854
  0
VERTEX
  8
PLAN_1
 62
     2
  6
CONTINUOUS
 10
0.311921
 20
1.891945
  0
VERTEX
  8
PLAN_1
 62
     2
  6
CONTINUOUS
 10
0.312945
 20
1.896543
  0
VERTEX
  8
PLAN_1
 62
     2
  6
CONTINUOUS
 10
0.314988
 20
1.900634
  0
VERTEX
  8
PLAN_1
 62
     2
  6
CONTINUOUS
 10
0.317543
 20
1.904213
  0
VERTEX
  8
PLAN_1
 62
     2
  6
CONTINUOUS
 10
0.321122
 20
1.907280
  0
VERTEX
  8
PLAN_1
 62
     2
  6
CONTINUOUS
 10
0.325213
 20
1.909835
  0
VERTEX
  8
PLAN_1
 62
     2
  6
CONTINUOUS
 10
0.327256
 20
1.910346
  0
VERTEX
  8
PLAN_1
 62
     2
  6
CONTINUOUS
 10
0.329811
 20
1.911370
  0
VERTEX
  8
PLAN_1
 62
     2
  6
CONTINUOUS
 10
0.332370
 20
1.911370
  0
VERTEX
  8
PLAN_1
 62
     2
  6
CONTINUOUS
 10
0.334925
 20
1.911882
  0
VERTEX
  8
PLAN_1
 62
     2
  6
CONTINUOUS
 10
0.338504
 20
1.911370
  0
VERTEX
  8
PLAN_1
 62
     2
  6
CONTINUOUS
 10
0.342591
 20
1.910858
  0
VERTEX
  8
PLAN_1
 62
     2
  6
CONTINUOUS
 10
0.346681
 20
1.909323
  0
VERTEX
  8
PLAN_1
 62
     2
  6
CONTINUOUS
 10
0.350772
 20
1.907280
  0
VERTEX
  8
PLAN_1
 62
     2
  6
CONTINUOUS
 10
0.352815
 20
1.905744
  0
VERTEX
  8
PLAN_1
 62
     2
  6
CONTINUOUS
 10
0.354862
 20
1.903701
  0
VERTEX
  8
PLAN_1
 62
     2
  6
CONTINUOUS
 10
0.356394
 20
1.901657
  0
VERTEX
  8
PLAN_1
 62
     2
  6
CONTINUOUS
 10
0.357929
 20
1.899102
  0
VERTEX
  8
PLAN_1
 62
     2
  6
CONTINUOUS
 10
0.358949
 20
1.896035
  0
VERTEX
  8
PLAN_1
 62
     2
  6
CONTINUOUS
 10
0.359972
 20
1.892965
  0
VERTEX
  8
PLAN_1
 62
     2
  6
CONTINUOUS
 10
0.360484
 20
1.889390
  0
VERTEX
  8
PLAN_1
 62
     2
  6
CONTINUOUS
 10
0.360996
 20
1.885299
  0
VERTEX
  8
PLAN_1
 62
     2
  6
CONTINUOUS
 10
0.360484
 20
1.881720
  0
VERTEX
  8
PLAN_1
 62
     2
  6
CONTINUOUS
 10
0.359972
 20
1.877630
  0
VERTEX
  8
PLAN_1
 62
     2
  6
CONTINUOUS
 10
0.358437
 20
1.874051
  0
VERTEX
  8
PLAN_1
 62
     2
  6
CONTINUOUS
 10
0.356906
 20
1.870476
  0
VERTEX
  8
PLAN_1
 62
     2
  6
CONTINUOUS
 10
0.354350
 20
1.867406
  0
VERTEX
  8
PLAN_1
 62
     2
  6
CONTINUOUS
 10
0.350772
 20
1.864850
  0
VERTEX
  8
PLAN_1
 62
     2
  6
CONTINUOUS
 10
0.348724
 20
1.863831
  0
VERTEX
  8
PLAN_1
 62
     2
  6
CONTINUOUS
 10
0.346169
 20
1.862807
  0
VERTEX
  8
PLAN_1
 62
     2
  6
CONTINUOUS
 10
0.343614
 20
1.862295
  0
VERTEX
  8
PLAN_1
 62
     2
  6
CONTINUOUS
 10
0.340547
 20
1.861783
  0
VERTEX
  8
PLAN_1
 62
     2
  6
CONTINUOUS
 10
0.340547
 20
1.870984
  0
VERTEX
  8
PLAN_1
 62
     2
  6
CONTINUOUS
 10
0.343614
 20
1.871496
  0
VERTEX
  8
PLAN_1
 62
     2
  6
CONTINUOUS
 10
0.346169
 20
1.872520
  0
VERTEX
  8
PLAN_1
 62
     2
  6
CONTINUOUS
 10
0.348217
 20
1.874051
  0
VERTEX
  8
PLAN_1
 62
     2
  6
CONTINUOUS
 10
0.349748
 20
1.876098
  0
VERTEX
  8
PLAN_1
 62
     2
  6
CONTINUOUS
 10
0.351283
 20
1.878142
  0
VERTEX
  8
PLAN_1
 62
     2
  6
CONTINUOUS
 10
0.352303
 20
1.880697
  0
VERTEX
  8
PLAN_1
 62
     2
  6
CONTINUOUS
 10
0.352815
 20
1.883764
  0
VERTEX
  8
PLAN_1
 62
     2
  6
CONTINUOUS
 10
0.352815
 20
1.886323
  0
VERTEX
  8
PLAN_1
 62
     2
  6
CONTINUOUS
 10
0.352303
 20
1.889898
  0
VERTEX
  8
PLAN_1
 62
     2
  6
CONTINUOUS
 10
0.351283
 20
1.892965
  0
VERTEX
  8
PLAN_1
 62
     2
  6
CONTINUOUS
 10
0.349748
 20
1.895524
  0
VERTEX
  8
PLAN_1
 62
     2
  6
CONTINUOUS
 10
0.347705
 20
1.897567
  0
VERTEX
  8
PLAN_1
 62
     2
  6
CONTINUOUS
 10
0.345657
 20
1.899610
  0
VERTEX
  8
PLAN_1
 62
     2
  6
CONTINUOUS
 10
0.342591
 20
1.901146
  0
VERTEX
  8
PLAN_1
 62
     2
  6
CONTINUOUS
 10
0.339524
 20
1.901657
  0
VERTEX
  8
PLAN_1
 62
     2
  6
CONTINUOUS
 10
0.335945
 20
1.902169
  0
VERTEX
  8
PLAN_1
 62
     2
  6
CONTINUOUS
 10
0.332370
 20
1.901657
  0
VERTEX
  8
PLAN_1
 62
     2
  6
CONTINUOUS
 10
0.329303
 20
1.900634
  0
VERTEX
  8
PLAN_1
 62
     2
  6
CONTINUOUS
 10
0.326232
 20
1.899102
  0
VERTEX
  8
PLAN_1
 62
     2
  6
CONTINUOUS
 10
0.324189
 20
1.897055
  0
VERTEX
  8
PLAN_1
 62
     2
  6
CONTINUOUS
 10
0.322146
 20
1.895012
  0
VERTEX
  8
PLAN_1
 62
     2
  6
CONTINUOUS
 10
0.321122
 20
1.891945
  0
VERTEX
  8
PLAN_1
 62
     2
  6
CONTINUOUS
 10
0.320098
 20
1.888878
  0
VERTEX
  8
PLAN_1
 62
     2
  6
CONTINUOUS
 10
0.320098
 20
1.885811
  0
VERTEX
  8
PLAN_1
 62
     2
  6
CONTINUOUS
 10
0.320098
 20
1.883764
  0
VERTEX
  8
PLAN_1
 62
     2
  6
CONTINUOUS
 10
0.320098
 20
1.881720
  0
VERTEX
  8
PLAN_1
 62
     2
  6
CONTINUOUS
 10
0.321122
 20
1.880185
  0
VERTEX
  8
PLAN_1
 62
     2
  6
CONTINUOUS
 10
0.321634
 20
1.878142
  0
VERTEX
  8
PLAN_1
 62
     2
  6
CONTINUOUS
 10
0.322657
 20
1.876610
  0
VERTEX
  8
PLAN_1
 62
     2
  6
CONTINUOUS
 10
0.323677
 20
1.875075
  0
VERTEX
  8
PLAN_1
 62
     2
  6
CONTINUOUS
 10
0.325213
 20
1.873543
  0
VERTEX
  8
PLAN_1
 62
     2
  6
CONTINUOUS
 10
0.326744
 20
1.872008
  0
VERTEX
  8
PLAN_1
 62
     2
  6
CONTINUOUS
 10
0.326232
 20
1.864339
  0
VERTEX
  8
PLAN_1
 62
     2
  6
CONTINUOUS
 10
0.287386
 20
1.869965
  0
VERTEX
  8
PLAN_1
 62
     2
  6
CONTINUOUS
 10
0.287386
 20
1.907791
  0
VERTEX
  8
PLAN_1
 62
     2
  6
CONTINUOUS
 10
0.296075
 20
1.907791
  0
VERTEX
  8
PLAN_1
 62
     2
  6
CONTINUOUS
 10
0.296075
 20
1.876610
  0
VERTEX
  8
PLAN_1
 62
     2
  6
CONTINUOUS
 10
0.316012
 20
1.873543
  0
SEQEND
  8
0
  0
POLYLINE
  8
PLAN_1
 62
     2
  6
CONTINUOUS
 66
     1
 40
0.003000
 41
0.003000
  0
VERTEX
  8
PLAN_1
 62
     2
  6
CONTINUOUS
 10
-0.799386
 20
2.782421
  0
VERTEX
  8
PLAN_1
 62
     2
  6
CONTINUOUS
 10
-0.797343
 20
2.779354
  0
VERTEX
  8
PLAN_1
 62
     2
  6
CONTINUOUS
 10
-0.795295
 20
2.776287
  0
VERTEX
  8
PLAN_1
 62
     2
  6
CONTINUOUS
 10
-0.793764
 20
2.772709
  0
VERTEX
  8
PLAN_1
 62
     2
  6
CONTINUOUS
 10
-0.792740
 20
2.769130
  0
VERTEX
  8
PLAN_1
 62
     2
  6
CONTINUOUS
 10
-0.791720
 20
2.766063
  0
VERTEX
  8
PLAN_1
 62
     2
  6
CONTINUOUS
 10
-0.791209
 20
2.762484
  0
VERTEX
  8
PLAN_1
 62
     2
  6
CONTINUOUS
 10
-0.791209
 20
2.758906
  0
VERTEX
  8
PLAN_1
 62
     2
  6
CONTINUOUS
 10
-0.790697
 20
2.755839
  0
VERTEX
  8
PLAN_1
 62
     2
  6
CONTINUOUS
 10
-0.791209
 20
2.749193
  0
VERTEX
  8
PLAN_1
 62
     2
  6
CONTINUOUS
 10
-0.792740
 20
2.743059
  0
VERTEX
  8
PLAN_1
 62
     2
  6
CONTINUOUS
 10
-0.793764
 20
2.739480
  0
VERTEX
  8
PLAN_1
 62
     2
  6
CONTINUOUS
 10
-0.795295
 20
2.736413
  0
VERTEX
  8
PLAN_1
 62
     2
  6
CONTINUOUS
 10
-0.796831
 20
2.732839
  0
VERTEX
  8
PLAN_1
 62
     2
  6
CONTINUOUS
 10
-0.798874
 20
2.730280
  0
VERTEX
  8
PLAN_1
 62
     2
  6
CONTINUOUS
 10
-0.800921
 20
2.727213
  0
VERTEX
  8
PLAN_1
 62
     2
  6
CONTINUOUS
 10
-0.803476
 20
2.724657
  0
VERTEX
  8
PLAN_1
 62
     2
  6
CONTINUOUS
 10
-0.806543
 20
2.722102
  0
VERTEX
  8
PLAN_1
 62
     2
  6
CONTINUOUS
 10
-0.809610
 20
2.720567
  0
VERTEX
  8
PLAN_1
 62
     2
  6
CONTINUOUS
 10
-0.813701
 20
2.718524
  0
VERTEX
  8
PLAN_1
 62
     2
  6
CONTINUOUS
 10
-0.817787
 20
2.717500
  0
VERTEX
  8
PLAN_1
 62
     2
  6
CONTINUOUS
 10
-0.822390
 20
2.716480
  0
VERTEX
  8
PLAN_1
 62
     2
  6
CONTINUOUS
 10
-0.827500
 20
2.716480
  0
VERTEX
  8
PLAN_1
 62
     2
  6
CONTINUOUS
 10
-0.831079
 20
2.716480
  0
VERTEX
  8
PLAN_1
 62
     2
  6
CONTINUOUS
 10
-0.835169
 20
2.716992
  0
VERTEX
  8
PLAN_1
 62
     2
  6
CONTINUOUS
 10
-0.838236
 20
2.718012
  0
VERTEX
  8
PLAN_1
 62
     2
  6
CONTINUOUS
 10
-0.841815
 20
2.719035
  0
VERTEX
  8
PLAN_1
 62
     2
  6
CONTINUOUS
 10
-0.844370
 20
2.720059
  0
VERTEX
  8
PLAN_1
 62
     2
  6
CONTINUOUS
 10
-0.847437
 20
2.721591
  0
VERTEX
  8
PLAN_1
 62
     2
  6
CONTINUOUS
 10
-0.849480
 20
2.723634
  0
VERTEX
  8
PLAN_1
 62
     2
  6
CONTINUOUS
 10
-0.852039
 20
2.725681
  0
VERTEX
  8
PLAN_1
 62
     2
  6
CONTINUOUS
 10
-0.860217
 20
2.716480
  0
VERTEX
  8
PLAN_1
 62
     2
  6
CONTINUOUS
 10
-0.863283
 20
2.719547
  0
VERTEX
  8
PLAN_1
 62
     2
  6
CONTINUOUS
 10
-0.855106
 20
2.728748
  0
VERTEX
  8
PLAN_1
 62
     2
  6
CONTINUOUS
 10
-0.857150
 20
2.731815
  0
VERTEX
  8
PLAN_1
 62
     2
  6
CONTINUOUS
 10
-0.859193
 20
2.734882
  0
VERTEX
  8
PLAN_1
 62
     2
  6
CONTINUOUS
 10
-0.860728
 20
2.738461
  0
VERTEX
  8
PLAN_1
 62
     2
  6
CONTINUOUS
 10
-0.861752
 20
2.742039
  0
VERTEX
  8
PLAN_1
 62
     2
  6
CONTINUOUS
 10
-0.862772
 20
2.745618
  0
VERTEX
  8
PLAN_1
 62
     2
  6
CONTINUOUS
 10
-0.863283
 20
2.749193
  0
VERTEX
  8
PLAN_1
 62
     2
  6
CONTINUOUS
 10
-0.863795
 20
2.752260
  0
VERTEX
  8
PLAN_1
 62
     2
  6
CONTINUOUS
 10
-0.863795
 20
2.755839
  0
VERTEX
  8
PLAN_1
 62
     2
  6
CONTINUOUS
 10
-0.863283
 20
2.761972
  0
VERTEX
  8
PLAN_1
 62
     2
  6
CONTINUOUS
 10
-0.861752
 20
2.768618
  0
VERTEX
  8
PLAN_1
 62
     2
  6
CONTINUOUS
 10
-0.860728
 20
2.772197
  0
VERTEX
  8
PLAN_1
 62
     2
  6
CONTINUOUS
 10
-0.859705
 20
2.775264
  0
VERTEX
  8
PLAN_1
 62
     2
  6
CONTINUOUS
 10
-0.858173
 20
2.778331
  0
VERTEX
  8
PLAN_1
 62
     2
  6
CONTINUOUS
 10
-0.856126
 20
2.781398
  0
VERTEX
  8
PLAN_1
 62
     2
  6
CONTINUOUS
 10
-0.853571
 20
2.784465
  0
VERTEX
  8
PLAN_1
 62
     2
  6
CONTINUOUS
 10
-0.851016
 20
2.787024
  0
VERTEX
  8
PLAN_1
 62
     2
  6
CONTINUOUS
 10
-0.847949
 20
2.789067
  0
VERTEX
  8
PLAN_1
 62
     2
  6
CONTINUOUS
 10
-0.844882
 20
2.791110
  0
VERTEX
  8
PLAN_1
 62
     2
  6
CONTINUOUS
 10
-0.840791
 20
2.792646
  0
VERTEX
  8
PLAN_1
 62
     2
  6
CONTINUOUS
 10
-0.836701
 20
2.794177
  0
VERTEX
  8
PLAN_1
 62
     2
  6
CONTINUOUS
 10
-0.832102
 20
2.794689
  0
VERTEX
  8
PLAN_1
 62
     2
  6
CONTINUOUS
 10
-0.827500
 20
2.795201
  0
VERTEX
  8
PLAN_1
 62
     2
  6
CONTINUOUS
 10
-0.823413
 20
2.794689
  0
VERTEX
  8
PLAN_1
 62
     2
  6
CONTINUOUS
 10
-0.819323
 20
2.794177
  0
VERTEX
  8
PLAN_1
 62
     2
  6
CONTINUOUS
 10
-0.815744
 20
2.793669
  0
VERTEX
  8
PLAN_1
 62
     2
  6
CONTINUOUS
 10
-0.812677
 20
2.792646
  0
VERTEX
  8
PLAN_1
 62
     2
  6
CONTINUOUS
 10
-0.809610
 20
2.791110
  0
VERTEX
  8
PLAN_1
 62
     2
  6
CONTINUOUS
 10
-0.807055
 20
2.789579
  0
VERTEX
  8
PLAN_1
 62
     2
  6
CONTINUOUS
 10
-0.804500
 20
2.788043
  0
VERTEX
  8
PLAN_1
 62
     2
  6
CONTINUOUS
 10
-0.802453
 20
2.786000
  0
VERTEX
  8
PLAN_1
 62
     2
  6
CONTINUOUS
 10
-0.793764
 20
2.795201
  0
VERTEX
  8
PLAN_1
 62
     2
  6
CONTINUOUS
 10
-0.790697
 20
2.792134
  0
VERTEX
  8
PLAN_1
 62
     2
  6
CONTINUOUS
 10
-0.799386
 20
2.782421
  0
SEQEND
  8
0
  0
POLYLINE
  8
PLAN_1
 62
     2
  6
CONTINUOUS
 66
     1
 40
0.003000
 41
0.003000
  0
VERTEX
  8
PLAN_1
 62
     2
  6
CONTINUOUS
 10
-0.845394
 20
2.732839
  0
VERTEX
  8
PLAN_1
 62
     2
  6
CONTINUOUS
 10
-0.843346
 20
2.731303
  0
VERTEX
  8
PLAN_1
 62
     2
  6
CONTINUOUS
 10
-0.841815
 20
2.729772
  0
VERTEX
  8
PLAN_1
 62
     2
  6
CONTINUOUS
 10
-0.839772
 20
2.728236
  0
VERTEX
  8
PLAN_1
 62
     2
  6
CONTINUOUS
 10
-0.837213
 20
2.727213
  0
VERTEX
  8
PLAN_1
 62
     2
  6
CONTINUOUS
 10
-0.835169
 20
2.726701
  0
VERTEX
  8
PLAN_1
 62
     2
  6
CONTINUOUS
 10
-0.832614
 20
2.725681
  0
VERTEX
  8
PLAN_1
 62
     2
  6
CONTINUOUS
 10
-0.830059
 20
2.725681
  0
VERTEX
  8
PLAN_1
 62
     2
  6
CONTINUOUS
 10
-0.827500
 20
2.725169
  0
VERTEX
  8
PLAN_1
 62
     2
  6
CONTINUOUS
 10
-0.824433
 20
2.725681
  0
VERTEX
  8
PLAN_1
 62
     2
  6
CONTINUOUS
 10
-0.821366
 20
2.726193
  0
VERTEX
  8
PLAN_1
 62
     2
  6
CONTINUOUS
 10
-0.818811
 20
2.726701
  0
VERTEX
  8
PLAN_1
 62
     2
  6
CONTINUOUS
 10
-0.816256
 20
2.727724
  0
VERTEX
  8
PLAN_1
 62
     2
  6
CONTINUOUS
 10
-0.814213
 20
2.728748
  0
VERTEX
  8
PLAN_1
 62
     2
  6
CONTINUOUS
 10
-0.812165
 20
2.730280
  0
VERTEX
  8
PLAN_1
 62
     2
  6
CONTINUOUS
 10
-0.810122
 20
2.731815
  0
VERTEX
  8
PLAN_1
 62
     2
  6
CONTINUOUS
 10
-0.808075
 20
2.733858
  0
VERTEX
  8
PLAN_1
 62
     2
  6
CONTINUOUS
 10
-0.806543
 20
2.735906
  0
VERTEX
  8
PLAN_1
 62
     2
  6
CONTINUOUS
 10
-0.805008
 20
2.738461
  0
VERTEX
  8
PLAN_1
 62
     2
  6
CONTINUOUS
 10
-0.803988
 20
2.741016
  0
VERTEX
  8
PLAN_1
 62
     2
  6
CONTINUOUS
 10
-0.802965
 20
2.743571
  0
VERTEX
  8
PLAN_1
 62
     2
  6
CONTINUOUS
 10
-0.801941
 20
2.749193
  0
VERTEX
  8
PLAN_1
 62
     2
  6
CONTINUOUS
 10
-0.801433
 20
2.755839
  0
VERTEX
  8
PLAN_1
 62
     2
  6
CONTINUOUS
 10
-0.801433
 20
2.758398
  0
VERTEX
  8
PLAN_1
 62
     2
  6
CONTINUOUS
 10
-0.801433
 20
2.761465
  0
VERTEX
  8
PLAN_1
 62
     2
  6
CONTINUOUS
 10
-0.801941
 20
2.764020
  0
VERTEX
  8
PLAN_1
 62
     2
  6
CONTINUOUS
 10
-0.802453
 20
2.766063
  0
VERTEX
  8
PLAN_1
 62
     2
  6
CONTINUOUS
 10
-0.803476
 20
2.768618
  0
VERTEX
  8
PLAN_1
 62
     2
  6
CONTINUOUS
 10
-0.803988
 20
2.770665
  0
VERTEX
  8
PLAN_1
 62
     2
  6
CONTINUOUS
 10
-0.805008
 20
2.772709
  0
VERTEX
  8
PLAN_1
 62
     2
  6
CONTINUOUS
 10
-0.806543
 20
2.774752
  0
VERTEX
  8
PLAN_1
 62
     2
  6
CONTINUOUS
 10
-0.845394
 20
2.732839
  0
SEQEND
  8
0
  0
POLYLINE
  8
PLAN_1
 62
     2
  6
CONTINUOUS
 66
     1
 40
0.003000
 41
0.003000
  0
VERTEX
  8
PLAN_1
 62
     2
  6
CONTINUOUS
 10
-0.809098
 20
2.778331
  0
VERTEX
  8
PLAN_1
 62
     2
  6
CONTINUOUS
 10
-0.810634
 20
2.780378
  0
VERTEX
  8
PLAN_1
 62
     2
  6
CONTINUOUS
 10
-0.812677
 20
2.781909
  0
VERTEX
  8
PLAN_1
 62
     2
  6
CONTINUOUS
 10
-0.814720
 20
2.782933
  0
VERTEX
  8
PLAN_1
 62
     2
  6
CONTINUOUS
 10
-0.816768
 20
2.783957
  0
VERTEX
  8
PLAN_1
 62
     2
  6
CONTINUOUS
 10
-0.819323
 20
2.784976
  0
VERTEX
  8
PLAN_1
 62
     2
  6
CONTINUOUS
 10
-0.821878
 20
2.785488
  0
VERTEX
  8
PLAN_1
 62
     2
  6
CONTINUOUS
 10
-0.824433
 20
2.786000
  0
VERTEX
  8
PLAN_1
 62
     2
  6
CONTINUOUS
 10
-0.827500
 20
2.786000
  0
VERTEX
  8
PLAN_1
 62
     2
  6
CONTINUOUS
 10
-0.830059
 20
2.786000
  0
VERTEX
  8
PLAN_1
 62
     2
  6
CONTINUOUS
 10
-0.833126
 20
2.785488
  0
VERTEX
  8
PLAN_1
 62
     2
  6
CONTINUOUS
 10
-0.835681
 20
2.784976
  0
VERTEX
  8
PLAN_1
 62
     2
  6
CONTINUOUS
 10
-0.838236
 20
2.783957
  0
VERTEX
  8
PLAN_1
 62
     2
  6
CONTINUOUS
 10
-0.840280
 20
2.782421
  0
VERTEX
  8
PLAN_1
 62
     2
  6
CONTINUOUS
 10
-0.842839
 20
2.781398
  0
VERTEX
  8
PLAN_1
 62
     2
  6
CONTINUOUS
 10
-0.844370
 20
2.779354
  0
VERTEX
  8
PLAN_1
 62
     2
  6
CONTINUOUS
 10
-0.846413
 20
2.777311
  0
VERTEX
  8
PLAN_1
 62
     2
  6
CONTINUOUS
 10
-0.847949
 20
2.775264
  0
VERTEX
  8
PLAN_1
 62
     2
  6
CONTINUOUS
 10
-0.849480
 20
2.773220
  0
VERTEX
  8
PLAN_1
 62
     2
  6
CONTINUOUS
 10
-0.850504
 20
2.770665
  0
VERTEX
  8
PLAN_1
 62
     2
  6
CONTINUOUS
 10
-0.851528
 20
2.768110
  0
VERTEX
  8
PLAN_1
 62
     2
  6
CONTINUOUS
 10
-0.853059
 20
2.761972
  0
VERTEX
  8
PLAN_1
 62
     2
  6
CONTINUOUS
 10
-0.853059
 20
2.755839
  0
VERTEX
  8
PLAN_1
 62
     2
  6
CONTINUOUS
 10
-0.853059
 20
2.752772
  0
VERTEX
  8
PLAN_1
 62
     2
  6
CONTINUOUS
 10
-0.853059
 20
2.750217
  0
VERTEX
  8
PLAN_1
 62
     2
  6
CONTINUOUS
 10
-0.852551
 20
2.747661
  0
VERTEX
  8
PLAN_1
 62
     2
  6
CONTINUOUS
 10
-0.852039
 20
2.745106
  0
VERTEX
  8
PLAN_1
 62
     2
  6
CONTINUOUS
 10
-0.851016
 20
2.742551
  0
VERTEX
  8
PLAN_1
 62
     2
  6
CONTINUOUS
 10
-0.850504
 20
2.740504
  0
VERTEX
  8
PLAN_1
 62
     2
  6
CONTINUOUS
 10
-0.848972
 20
2.738461
  0
VERTEX
  8
PLAN_1
 62
     2
  6
CONTINUOUS
 10
-0.847949
 20
2.736413
  0
VERTEX
  8
PLAN_1
 62
     2
  6
CONTINUOUS
 10
-0.809098
 20
2.778331
  0
SEQEND
  8
0
  0
POLYLINE
  8
PLAN_1
 62
     2
  6
CONTINUOUS
 66
     1
 40
0.003000
 41
0.003000
  0
VERTEX
  8
PLAN_1
 62
     2
  6
CONTINUOUS
 10
-0.763602
 20
2.759929
  0
VERTEX
  8
PLAN_1
 62
     2
  6
CONTINUOUS
 10
-0.763094
 20
2.759929
  0
VERTEX
  8
PLAN_1
 62
     2
  6
CONTINUOUS
 10
-0.762071
 20
2.759929
  0
VERTEX
  8
PLAN_1
 62
     2
  6
CONTINUOUS
 10
-0.761559
 20
2.759929
  0
VERTEX
  8
PLAN_1
 62
     2
  6
CONTINUOUS
 10
-0.761047
 20
2.759929
  0
VERTEX
  8
PLAN_1
 62
     2
  6
CONTINUOUS
 10
-0.760535
 20
2.759929
  0
VERTEX
  8
PLAN_1
 62
     2
  6
CONTINUOUS
 10
-0.760024
 20
2.759929
  0
VERTEX
  8
PLAN_1
 62
     2
  6
CONTINUOUS
 10
-0.759004
 20
2.759929
  0
VERTEX
  8
PLAN_1
 62
     2
  6
CONTINUOUS
 10
-0.758492
 20
2.759929
  0
VERTEX
  8
PLAN_1
 62
     2
  6
CONTINUOUS
 10
-0.755937
 20
2.759929
  0
VERTEX
  8
PLAN_1
 62
     2
  6
CONTINUOUS
 10
-0.753382
 20
2.760441
  0
VERTEX
  8
PLAN_1
 62
     2
  6
CONTINUOUS
 10
-0.751335
 20
2.760953
  0
VERTEX
  8
PLAN_1
 62
     2
  6
CONTINUOUS
 10
-0.748780
 20
2.762484
  0
VERTEX
  8
PLAN_1
 62
     2
  6
CONTINUOUS
 10
-0.747244
 20
2.764020
  0
VERTEX
  8
PLAN_1
 62
     2
  6
CONTINUOUS
 10
-0.745713
 20
2.766063
  0
VERTEX
  8
PLAN_1
 62
     2
  6
CONTINUOUS
 10
-0.745201
 20
2.768618
  0
VERTEX
  8
PLAN_1
 62
     2
  6
CONTINUOUS
 10
-0.744689
 20
2.771685
  0
VERTEX
  8
PLAN_1
 62
     2
  6
CONTINUOUS
 10
-0.744689
 20
2.773732
  0
VERTEX
  8
PLAN_1
 62
     2
  6
CONTINUOUS
 10
-0.745201
 20
2.775264
  0
VERTEX
  8
PLAN_1
 62
     2
  6
CONTINUOUS
 10
-0.746224
 20
2.777311
  0
VERTEX
  8
PLAN_1
 62
     2
  6
CONTINUOUS
 10
-0.747244
 20
2.779354
  0
VERTEX
  8
PLAN_1
 62
     2
  6
CONTINUOUS
 10
-0.749291
 20
2.780890
  0
VERTEX
  8
PLAN_1
 62
     2
  6
CONTINUOUS
 10
-0.751335
 20
2.781909
  0
VERTEX
  8
PLAN_1
 62
     2
  6
CONTINUOUS
 10
-0.754402
 20
2.782933
  0
VERTEX
  8
PLAN_1
 62
     2
  6
CONTINUOUS
 10
-0.757980
 20
2.783445
  0
VERTEX
  8
PLAN_1
 62
     2
  6
CONTINUOUS
 10
-0.762583
 20
2.782933
  0
VERTEX
  8
PLAN_1
 62
     2
  6
CONTINUOUS
 10
-0.765650
 20
2.781398
  0
VERTEX
  8
PLAN_1
 62
     2
  6
CONTINUOUS
 10
-0.768205
 20
2.779866
  0
VERTEX
  8
PLAN_1
 62
     2
  6
CONTINUOUS
 10
-0.770248
 20
2.777311
  0
VERTEX
  8
PLAN_1
 62
     2
  6
CONTINUOUS
 10
-0.771272
 20
2.774752
  0
VERTEX
  8
PLAN_1
 62
     2
  6
CONTINUOUS
 10
-0.771783
 20
2.772197
  0
VERTEX
  8
PLAN_1
 62
     2
  6
CONTINUOUS
 10
-0.772295
 20
2.769642
  0
VERTEX
  8
PLAN_1
 62
     2
  6
CONTINUOUS
 10
-0.772295
 20
2.767598
  0
VERTEX
  8
PLAN_1
 62
     2
  6
CONTINUOUS
 10
-0.781496
 20
2.767598
  0
VERTEX
  8
PLAN_1
 62
     2
  6
CONTINUOUS
 10
-0.780984
 20
2.771685
  0
VERTEX
  8
PLAN_1
 62
     2
  6
CONTINUOUS
 10
-0.780472
 20
2.775776
  0
VERTEX
  8
PLAN_1
 62
     2
  6
CONTINUOUS
 10
-0.778941
 20
2.779866
  0
VERTEX
  8
PLAN_1
 62
     2
  6
CONTINUOUS
 10
-0.776894
 20
2.783445
  0
VERTEX
  8
PLAN_1
 62
     2
  6
CONTINUOUS
 10
-0.775362
 20
2.785488
  0
VERTEX
  8
PLAN_1
 62
     2
  6
CONTINUOUS
 10
-0.773827
 20
2.787024
  0
VERTEX
  8
PLAN_1
 62
     2
  6
CONTINUOUS
 10
-0.771783
 20
2.788043
  0
VERTEX
  8
PLAN_1
 62
     2
  6
CONTINUOUS
 10
-0.769736
 20
2.789579
  0
VERTEX
  8
PLAN_1
 62
     2
  6
CONTINUOUS
 10
-0.767181
 20
2.790091
  0
VERTEX
  8
PLAN_1
 62
     2
  6
CONTINUOUS
 10
-0.764114
 20
2.791110
  0
VERTEX
  8
PLAN_1
 62
     2
  6
CONTINUOUS
 10
-0.761047
 20
2.791622
  0
VERTEX
  8
PLAN_1
 62
     2
  6
CONTINUOUS
 10
-0.757980
 20
2.791622
  0
VERTEX
  8
PLAN_1
 62
     2
  6
CONTINUOUS
 10
-0.752870
 20
2.791110
  0
VERTEX
  8
PLAN_1
 62
     2
  6
CONTINUOUS
 10
-0.748268
 20
2.790091
  0
VERTEX
  8
PLAN_1
 62
     2
  6
CONTINUOUS
 10
-0.744689
 20
2.788555
  0
VERTEX
  8
PLAN_1
 62
     2
  6
CONTINUOUS
 10
-0.741110
 20
2.786000
  0
VERTEX
  8
PLAN_1
 62
     2
  6
CONTINUOUS
 10
-0.738555
 20
2.783445
  0
VERTEX
  8
PLAN_1
 62
     2
  6
CONTINUOUS
 10
-0.737024
 20
2.779866
  0
VERTEX
  8
PLAN_1
 62
     2
  6
CONTINUOUS
 10
-0.735488
 20
2.776287
  0
VERTEX
  8
PLAN_1
 62
     2
  6
CONTINUOUS
 10
-0.735488
 20
2.772197
  0
VERTEX
  8
PLAN_1
 62
     2
  6
CONTINUOUS
 10
-0.735488
 20
2.769130
  0
VERTEX
  8
PLAN_1
 62
     2
  6
CONTINUOUS
 10
-0.736000
 20
2.766063
  0
VERTEX
  8
PLAN_1
 62
     2
  6
CONTINUOUS
 10
-0.737024
 20
2.763508
  0
VERTEX
  8
PLAN_1
 62
     2
  6
CONTINUOUS
 10
-0.738555
 20
2.761972
  0
VERTEX
  8
PLAN_1
 62
     2
  6
CONTINUOUS
 10
-0.740091
 20
2.759929
  0
VERTEX
  8
PLAN_1
 62
     2
  6
CONTINUOUS
 10
-0.741622
 20
2.758906
  0
VERTEX
  8
PLAN_1
 62
     2
  6
CONTINUOUS
 10
-0.743157
 20
2.757886
  0
VERTEX
  8
PLAN_1
 62
     2
  6
CONTINUOUS
 10
-0.744689
 20
2.757374
  0
VERTEX
  8
PLAN_1
 62
     2
  6
CONTINUOUS
 10
-0.744689
 20
2.756862
  0
VERTEX
  8
PLAN_1
 62
     2
  6
CONTINUOUS
 10
-0.742134
 20
2.755839
  0
VERTEX
  8
PLAN_1
 62
     2
  6
CONTINUOUS
 10
-0.739579
 20
2.754819
  0
VERTEX
  8
PLAN_1
 62
     2
  6
CONTINUOUS
 10
-0.737535
 20
2.753283
  0
VERTEX
  8
PLAN_1
 62
     2
  6
CONTINUOUS
 10
-0.736000
 20
2.751240
  0
VERTEX
  8
PLAN_1
 62
     2
  6
CONTINUOUS
 10
-0.734465
 20
2.749193
  0
VERTEX
  8
PLAN_1
 62
     2
  6
CONTINUOUS
 10
-0.733445
 20
2.746638
  0
VERTEX
  8
PLAN_1
 62
     2
  6
CONTINUOUS
 10
-0.732421
 20
2.743571
  0
VERTEX
  8
PLAN_1
 62
     2
  6
CONTINUOUS
 10
-0.732421
 20
2.739992
  0
VERTEX
  8
PLAN_1
 62
     2
  6
CONTINUOUS
 10
-0.732933
 20
2.735394
  0
VERTEX
  8
PLAN_1
 62
     2
  6
CONTINUOUS
 10
-0.733957
 20
2.731303
  0
VERTEX
  8
PLAN_1
 62
     2
  6
CONTINUOUS
 10
-0.736000
 20
2.727213
  0
VERTEX
  8
PLAN_1
 62
     2
  6
CONTINUOUS
 10
-0.738555
 20
2.723634
  0
VERTEX
  8
PLAN_1
 62
     2
  6
CONTINUOUS
 10
-0.740091
 20
2.722102
  0
VERTEX
  8
PLAN_1
 62
     2
  6
CONTINUOUS
 10
-0.742134
 20
2.720567
  0
VERTEX
  8
PLAN_1
 62
     2
  6
CONTINUOUS
 10
-0.744177
 20
2.719547
  0
VERTEX
  8
PLAN_1
 62
     2
  6
CONTINUOUS
 10
-0.746736
 20
2.718524
  0
VERTEX
  8
PLAN_1
 62
     2
  6
CONTINUOUS
 10
-0.749291
 20
2.717500
  0
VERTEX
  8
PLAN_1
 62
     2
  6
CONTINUOUS
 10
-0.752358
 20
2.716992
  0
VERTEX
  8
PLAN_1
 62
     2
  6
CONTINUOUS
 10
-0.755425
 20
2.716480
  0
VERTEX
  8
PLAN_1
 62
     2
  6
CONTINUOUS
 10
-0.759004
 20
2.716480
  0
VERTEX
  8
PLAN_1
 62
     2
  6
CONTINUOUS
 10
-0.760535
 20
2.716480
  0
VERTEX
  8
PLAN_1
 62
     2
  6
CONTINUOUS
 10
-0.762583
 20
2.716480
  0
VERTEX
  8
PLAN_1
 62
     2
  6
CONTINUOUS
 10
-0.764626
 20
2.716992
  0
VERTEX
  8
PLAN_1
 62
     2
  6
CONTINUOUS
 10
-0.766161
 20
2.717500
  0
VERTEX
  8
PLAN_1
 62
     2
  6
CONTINUOUS
 10
-0.767693
 20
2.718012
  0
VERTEX
  8
PLAN_1
 62
     2
  6
CONTINUOUS
 10
-0.769228
 20
2.718524
  0
VERTEX
  8
PLAN_1
 62
     2
  6
CONTINUOUS
 10
-0.770760
 20
2.719035
  0
VERTEX
  8
PLAN_1
 62
     2
  6
CONTINUOUS
 10
-0.772295
 20
2.719547
  0
VERTEX
  8
PLAN_1
 62
     2
  6
CONTINUOUS
 10
-0.774850
 20
2.721591
  0
VERTEX
  8
PLAN_1
 62
     2
  6
CONTINUOUS
 10
-0.777406
 20
2.723634
  0
VERTEX
  8
PLAN_1
 62
     2
  6
CONTINUOUS
 10
-0.778941
 20
2.726193
  0
VERTEX
  8
PLAN_1
 62
     2
  6
CONTINUOUS
 10
-0.780472
 20
2.728748
  0
VERTEX
  8
PLAN_1
 62
     2
  6
CONTINUOUS
 10
-0.781496
 20
2.731303
  0
VERTEX
  8
PLAN_1
 62
     2
  6
CONTINUOUS
 10
-0.782516
 20
2.734370
  0
VERTEX
  8
PLAN_1
 62
     2
  6
CONTINUOUS
 10
-0.783028
 20
2.737437
  0
VERTEX
  8
PLAN_1
 62
     2
  6
CONTINUOUS
 10
-0.783028
 20
2.741016
  0
VERTEX
  8
PLAN_1
 62
     2
  6
CONTINUOUS
 10
-0.773827
 20
2.741016
  0
VERTEX
  8
PLAN_1
 62
     2
  6
CONTINUOUS
 10
-0.773315
 20
2.737949
  0
VERTEX
  8
PLAN_1
 62
     2
  6
CONTINUOUS
 10
-0.773315
 20
2.735394
  0
VERTEX
  8
PLAN_1
 62
     2
  6
CONTINUOUS
 10
-0.772295
 20
2.732839
  0
VERTEX
  8
PLAN_1
 62
     2
  6
CONTINUOUS
 10
-0.770760
 20
2.730280
  0
VERTEX
  8
PLAN_1
 62
     2
  6
CONTINUOUS
 10
-0.769228
 20
2.727724
  0
VERTEX
  8
PLAN_1
 62
     2
  6
CONTINUOUS
 10
-0.766161
 20
2.726193
  0
VERTEX
  8
PLAN_1
 62
     2
  6
CONTINUOUS
 10
-0.762583
 20
2.725169
  0
VERTEX
  8
PLAN_1
 62
     2
  6
CONTINUOUS
 10
-0.757980
 20
2.724657
  0
VERTEX
  8
PLAN_1
 62
     2
  6
CONTINUOUS
 10
-0.754913
 20
2.725169
  0
VERTEX
  8
PLAN_1
 62
     2
  6
CONTINUOUS
 10
-0.751846
 20
2.725681
  0
VERTEX
  8
PLAN_1
 62
     2
  6
CONTINUOUS
 10
-0.748780
 20
2.726701
  0
VERTEX
  8
PLAN_1
 62
     2
  6
CONTINUOUS
 10
-0.746736
 20
2.728748
  0
VERTEX
  8
PLAN_1
 62
     2
  6
CONTINUOUS
 10
-0.744689
 20
2.730791
  0
VERTEX
  8
PLAN_1
 62
     2
  6
CONTINUOUS
 10
-0.743157
 20
2.732839
  0
VERTEX
  8
PLAN_1
 62
     2
  6
CONTINUOUS
 10
-0.742646
 20
2.735906
  0
VERTEX
  8
PLAN_1
 62
     2
  6
CONTINUOUS
 10
-0.742134
 20
2.738972
  0
VERTEX
  8
PLAN_1
 62
     2
  6
CONTINUOUS
 10
-0.742134
 20
2.741016
  0
VERTEX
  8
PLAN_1
 62
     2
  6
CONTINUOUS
 10
-0.742646
 20
2.743059
  0
VERTEX
  8
PLAN_1
 62
     2
  6
CONTINUOUS
 10
-0.743157
 20
2.744594
  0
VERTEX
  8
PLAN_1
 62
     2
  6
CONTINUOUS
 10
-0.744177
 20
2.746126
  0
VERTEX
  8
PLAN_1
 62
     2
  6
CONTINUOUS
 10
-0.746224
 20
2.748685
  0
VERTEX
  8
PLAN_1
 62
     2
  6
CONTINUOUS
 10
-0.748268
 20
2.750217
  0
VERTEX
  8
PLAN_1
 62
     2
  6
CONTINUOUS
 10
-0.751335
 20
2.751240
  0
VERTEX
  8
PLAN_1
 62
     2
  6
CONTINUOUS
 10
-0.753890
 20
2.751752
  0
VERTEX
  8
PLAN_1
 62
     2
  6
CONTINUOUS
 10
-0.756957
 20
2.752260
  0
VERTEX
  8
PLAN_1
 62
     2
  6
CONTINUOUS
 10
-0.759516
 20
2.752260
  0
VERTEX
  8
PLAN_1
 62
     2
  6
CONTINUOUS
 10
-0.760024
 20
2.752260
  0
VERTEX
  8
PLAN_1
 62
     2
  6
CONTINUOUS
 10
-0.760535
 20
2.752260
  0
VERTEX
  8
PLAN_1
 62
     2
  6
CONTINUOUS
 10
-0.761047
 20
2.752260
  0
VERTEX
  8
PLAN_1
 62
     2
  6
CONTINUOUS
 10
-0.761559
 20
2.752260
  0
VERTEX
  8
PLAN_1
 62
     2
  6
CONTINUOUS
 10
-0.762071
 20
2.752260
  0
VERTEX
  8
PLAN_1
 62
     2
  6
CONTINUOUS
 10
-0.762583
 20
2.752260
  0
VERTEX
  8
PLAN_1
 62
     2
  6
CONTINUOUS
 10
-0.763094
 20
2.752260
  0
VERTEX
  8
PLAN_1
 62
     2
  6
CONTINUOUS
 10
-0.763602
 20
2.752260
  0
VERTEX
  8
PLAN_1
 62
     2
  6
CONTINUOUS
 10
-0.763602
 20
2.759929
  0
SEQEND
  8
0
  0
ENDSEC
  0
EOF
