  0
SECTION
  2
HEADER
  9
$ACADVER
  1
AC1006
  9
$EXTMIN
 10
-2.138000
 20
-3.817713
  9
$EXTMAX
 10
2.129000
 20
3.813000
  9
$LTSCALE
 40
0.000394
  9
$PDMODE
 70
    35
  9
$PDSIZE
 40
0.000315
  0
ENDSEC
  0
SECTION
  2
TABLES
  0
TABLE
  2
LTYPE
 70
     9
  0
LTYPE
  2
CONTINUOUS
 70
    64
  3
Solid line
 72
    65
 73
     0
 40
0.000000
  0
LTYPE
  2
DASHED
 70
    64
  3
__ __ __ __ __ __ __ __ __ __ __ __ __ __ __
 72
    65
 73
     2
 40
0.000003
 49
0.000002
 49
-0.000001
  0
LTYPE
  2
HIDDEN
 70
    64
  3
 _ _ _ _ _ _ _ _ _ _ _ _ _ _ _ _ _ _ _ _ _ _
 72
    65
 73
     2
 40
0.000001
 49
0.000001
 49
-0.000000
  0
LTYPE
  2
CENTER
 70
    64
  3
____ _ ____ _ ____ _ ____ _ ____ _ ____ _ ____
 72
    65
 73
     4
 40
0.000008
 49
0.000005
 49
-0.000001
 49
0.000001
 49
-0.000001
  0
LTYPE
  2
PHANTOM
 70
    64
  3
_____ _ _ _____ _ _ _____ _ _ _____ _ _ ____
 72
    65
 73
     6
 40
0.000010
 49
0.000005
 49
-0.000001
 49
0.000001
 49
-0.000001
 49
0.000001
 49
-0.000001
  0
LTYPE
  2
DOT
 70
    64
  3
...............................................
 72
    65
 73
     2
 40
0.000001
 49
0.000000
 49
-0.000001
  0
LTYPE
  2
DASHDOT
 70
    64
  3
__ . __ . __ . __ . __ . __ . __ . __ . __ . __
 72
    65
 73
     4
 40
0.000004
 49
0.000002
 49
-0.000001
 49
0.000000
 49
-0.000001
  0
LTYPE
  2
BORDER
 70
    64
  3
__ __ . __ __ . __ __ . __ __ . __ __ . __ __
 72
    65
 73
     6
 40
0.000007
 49
0.000002
 49
-0.000001
 49
0.000002
 49
-0.000001
 49
0.000000
 49
-0.000001
  0
LTYPE
  2
DIVIDE
 70
    64
  3
__ . . __ . . __ . . __ . . __ . . __ . . __
 72
    65
 73
     6
 40
0.000005
 49
0.000002
 49
-0.000001
 49
0.000000
 49
-0.000001
 49
0.000000
 49
-0.000001
  0
LTYPE
  2
DOTDOT
 70
    64
  3
 . .  . .  . .  . .  . .  . . 
 72
    65
 73
     5
 40
0.000002
 49
-0.000001
 49
0.000000
 49
-0.000001
 49
0.000000
 49
-0.000001
  0
ENDTAB
  0
TABLE
  2
STYLE
 70
     0
  0
ENDTAB
  0
TABLE
  2
LAYER
 70
     3
  0
LAYER
  2
FOREGROUND
 70
    64
 62
     7
  6
CONTINUOUS
  0
LAYER
  2
BACKGROUND
 70
    65
 62
    -7
  6
CONTINUOUS
  0
LAYER
  2
PLAN_1
 70
    64
 62
     7
  6
CONTINUOUS
  0
ENDTAB
  0
ENDSEC
  0
SECTION
  2
ENTITIES
  0
POLYLINE
  8
PLAN_1
  6
CONTINUOUS
 66
     1
 40
0.003000
 41
0.003000
  0
VERTEX
  8
PLAN_1
  6
CONTINUOUS
 10
0.268535
 20
-3.782898
  0
VERTEX
  8
PLAN_1
  6
CONTINUOUS
 10
0.111630
 20
-3.782898
  0
VERTEX
  8
PLAN_1
  6
CONTINUOUS
 10
0.111630
 20
-3.760484
  0
VERTEX
  8
PLAN_1
  6
CONTINUOUS
 10
0.233720
 20
-3.607394
  0
VERTEX
  8
PLAN_1
  6
CONTINUOUS
 10
0.120693
 20
-3.607394
  0
VERTEX
  8
PLAN_1
  6
CONTINUOUS
 10
0.120693
 20
-3.583547
  0
VERTEX
  8
PLAN_1
  6
CONTINUOUS
 10
0.268535
 20
-3.583547
  0
VERTEX
  8
PLAN_1
  6
CONTINUOUS
 10
0.268535
 20
-3.606917
  0
VERTEX
  8
PLAN_1
  6
CONTINUOUS
 10
0.145969
 20
-3.759051
  0
VERTEX
  8
PLAN_1
  6
CONTINUOUS
 10
0.268535
 20
-3.759051
  0
VERTEX
  8
PLAN_1
  6
CONTINUOUS
 10
0.268535
 20
-3.782898
  0
SEQEND
  8
0
  0
POLYLINE
  8
PLAN_1
  6
CONTINUOUS
 66
     1
 40
0.003000
 41
0.003000
  0
VERTEX
  8
PLAN_1
  6
CONTINUOUS
 10
0.435937
 20
-3.643638
  0
VERTEX
  8
PLAN_1
  6
CONTINUOUS
 10
0.434028
 20
-3.637437
  0
VERTEX
  8
PLAN_1
  6
CONTINUOUS
 10
0.432118
 20
-3.631717
  0
VERTEX
  8
PLAN_1
  6
CONTINUOUS
 10
0.429736
 20
-3.626945
  0
VERTEX
  8
PLAN_1
  6
CONTINUOUS
 10
0.426398
 20
-3.622654
  0
VERTEX
  8
PLAN_1
  6
CONTINUOUS
 10
0.423535
 20
-3.618839
  0
VERTEX
  8
PLAN_1
  6
CONTINUOUS
 10
0.419720
 20
-3.615024
  0
VERTEX
  8
PLAN_1
  6
CONTINUOUS
 10
0.416382
 20
-3.612161
  0
VERTEX
  8
PLAN_1
  6
CONTINUOUS
 10
0.412091
 20
-3.609776
  0
VERTEX
  8
PLAN_1
  6
CONTINUOUS
 10
0.408276
 20
-3.607870
  0
VERTEX
  8
PLAN_1
  6
CONTINUOUS
 10
0.403980
 20
-3.606437
  0
VERTEX
  8
PLAN_1
  6
CONTINUOUS
 10
0.400165
 20
-3.605008
  0
VERTEX
  8
PLAN_1
  6
CONTINUOUS
 10
0.395874
 20
-3.604055
  0
VERTEX
  8
PLAN_1
  6
CONTINUOUS
 10
0.387768
 20
-3.602622
  0
VERTEX
  8
PLAN_1
  6
CONTINUOUS
 10
0.380134
 20
-3.602146
  0
VERTEX
  8
PLAN_1
  6
CONTINUOUS
 10
0.373461
 20
-3.602622
  0
VERTEX
  8
PLAN_1
  6
CONTINUOUS
 10
0.366783
 20
-3.603579
  0
VERTEX
  8
PLAN_1
  6
CONTINUOUS
 10
0.360583
 20
-3.605008
  0
VERTEX
  8
PLAN_1
  6
CONTINUOUS
 10
0.354382
 20
-3.607394
  0
VERTEX
  8
PLAN_1
  6
CONTINUOUS
 10
0.349138
 20
-3.610256
  0
VERTEX
  8
PLAN_1
  6
CONTINUOUS
 10
0.343413
 20
-3.613594
  0
VERTEX
  8
PLAN_1
  6
CONTINUOUS
 10
0.338642
 20
-3.617409
  0
VERTEX
  8
PLAN_1
  6
CONTINUOUS
 10
0.333874
 20
-3.622177
  0
VERTEX
  8
PLAN_1
  6
CONTINUOUS
 10
0.329583
 20
-3.627425
  0
VERTEX
  8
PLAN_1
  6
CONTINUOUS
 10
0.325768
 20
-3.633146
  0
VERTEX
  8
PLAN_1
  6
CONTINUOUS
 10
0.322429
 20
-3.639823
  0
VERTEX
  8
PLAN_1
  6
CONTINUOUS
 10
0.320043
 20
-3.646976
  0
VERTEX
  8
PLAN_1
  6
CONTINUOUS
 10
0.317657
 20
-3.654606
  0
VERTEX
  8
PLAN_1
  6
CONTINUOUS
 10
0.316228
 20
-3.663193
  0
VERTEX
  8
PLAN_1
  6
CONTINUOUS
 10
0.315276
 20
-3.671776
  0
VERTEX
  8
PLAN_1
  6
CONTINUOUS
 10
0.314799
 20
-3.681315
  0
VERTEX
  8
PLAN_1
  6
CONTINUOUS
 10
0.314799
 20
-3.689902
  0
VERTEX
  8
PLAN_1
  6
CONTINUOUS
 10
0.315752
 20
-3.698484
  0
VERTEX
  8
PLAN_1
  6
CONTINUOUS
 10
0.316705
 20
-3.706591
  0
VERTEX
  8
PLAN_1
  6
CONTINUOUS
 10
0.318138
 20
-3.714224
  0
VERTEX
  8
PLAN_1
  6
CONTINUOUS
 10
0.320043
 20
-3.721378
  0
VERTEX
  8
PLAN_1
  6
CONTINUOUS
 10
0.322906
 20
-3.728531
  0
VERTEX
  8
PLAN_1
  6
CONTINUOUS
 10
0.325768
 20
-3.734728
  0
VERTEX
  8
PLAN_1
  6
CONTINUOUS
 10
0.329106
 20
-3.740453
  0
VERTEX
  8
PLAN_1
  6
CONTINUOUS
 10
0.333398
 20
-3.745701
  0
VERTEX
  8
PLAN_1
  6
CONTINUOUS
 10
0.338165
 20
-3.750469
  0
VERTEX
  8
PLAN_1
  6
CONTINUOUS
 10
0.343413
 20
-3.754760
  0
VERTEX
  8
PLAN_1
  6
CONTINUOUS
 10
0.349614
 20
-3.758098
  0
VERTEX
  8
PLAN_1
  6
CONTINUOUS
 10
0.356291
 20
-3.760961
  0
VERTEX
  8
PLAN_1
  6
CONTINUOUS
 10
0.363921
 20
-3.762870
  0
VERTEX
  8
PLAN_1
  6
CONTINUOUS
 10
0.372028
 20
-3.763823
  0
VERTEX
  8
PLAN_1
  6
CONTINUOUS
 10
0.381091
 20
-3.764299
  0
VERTEX
  8
PLAN_1
  6
CONTINUOUS
 10
0.384429
 20
-3.764299
  0
VERTEX
  8
PLAN_1
  6
CONTINUOUS
 10
0.387768
 20
-3.763823
  0
VERTEX
  8
PLAN_1
  6
CONTINUOUS
 10
0.391583
 20
-3.763346
  0
VERTEX
  8
PLAN_1
  6
CONTINUOUS
 10
0.395874
 20
-3.762390
  0
VERTEX
  8
PLAN_1
  6
CONTINUOUS
 10
0.400165
 20
-3.760961
  0
VERTEX
  8
PLAN_1
  6
CONTINUOUS
 10
0.403980
 20
-3.759531
  0
VERTEX
  8
PLAN_1
  6
CONTINUOUS
 10
0.408276
 20
-3.757146
  0
VERTEX
  8
PLAN_1
  6
CONTINUOUS
 10
0.412567
 20
-3.754283
  0
VERTEX
  8
PLAN_1
  6
CONTINUOUS
 10
0.416382
 20
-3.751421
  0
VERTEX
  8
PLAN_1
  6
CONTINUOUS
 10
0.420197
 20
-3.747606
  0
VERTEX
  8
PLAN_1
  6
CONTINUOUS
 10
0.424012
 20
-3.742839
  0
VERTEX
  8
PLAN_1
  6
CONTINUOUS
 10
0.427350
 20
-3.738067
  0
VERTEX
  8
PLAN_1
  6
CONTINUOUS
 10
0.430689
 20
-3.731870
  0
VERTEX
  8
PLAN_1
  6
CONTINUOUS
 10
0.433551
 20
-3.725193
  0
VERTEX
  8
PLAN_1
  6
CONTINUOUS
 10
0.435937
 20
-3.718039
  0
VERTEX
  8
PLAN_1
  6
CONTINUOUS
 10
0.437843
 20
-3.709929
  0
VERTEX
  8
PLAN_1
  6
CONTINUOUS
 10
0.464075
 20
-3.709929
  0
VERTEX
  8
PLAN_1
  6
CONTINUOUS
 10
0.462642
 20
-3.716606
  0
VERTEX
  8
PLAN_1
  6
CONTINUOUS
 10
0.461213
 20
-3.722807
  0
VERTEX
  8
PLAN_1
  6
CONTINUOUS
 10
0.459303
 20
-3.729008
  0
VERTEX
  8
PLAN_1
  6
CONTINUOUS
 10
0.457398
 20
-3.734728
  0
VERTEX
  8
PLAN_1
  6
CONTINUOUS
 10
0.455488
 20
-3.739976
  0
VERTEX
  8
PLAN_1
  6
CONTINUOUS
 10
0.453106
 20
-3.744744
  0
VERTEX
  8
PLAN_1
  6
CONTINUOUS
 10
0.450244
 20
-3.749516
  0
VERTEX
  8
PLAN_1
  6
CONTINUOUS
 10
0.447858
 20
-3.753807
  0
VERTEX
  8
PLAN_1
  6
CONTINUOUS
 10
0.444520
 20
-3.757622
  0
VERTEX
  8
PLAN_1
  6
CONTINUOUS
 10
0.441657
 20
-3.761437
  0
VERTEX
  8
PLAN_1
  6
CONTINUOUS
 10
0.438795
 20
-3.764776
  0
VERTEX
  8
PLAN_1
  6
CONTINUOUS
 10
0.435457
 20
-3.767638
  0
VERTEX
  8
PLAN_1
  6
CONTINUOUS
 10
0.428780
 20
-3.772882
  0
VERTEX
  8
PLAN_1
  6
CONTINUOUS
 10
0.421626
 20
-3.777177
  0
VERTEX
  8
PLAN_1
  6
CONTINUOUS
 10
0.414953
 20
-3.780516
  0
VERTEX
  8
PLAN_1
  6
CONTINUOUS
 10
0.407795
 20
-3.783378
  0
VERTEX
  8
PLAN_1
  6
CONTINUOUS
 10
0.401122
 20
-3.785283
  0
VERTEX
  8
PLAN_1
  6
CONTINUOUS
 10
0.394921
 20
-3.786713
  0
VERTEX
  8
PLAN_1
  6
CONTINUOUS
 10
0.384429
 20
-3.788146
  0
VERTEX
  8
PLAN_1
  6
CONTINUOUS
 10
0.376799
 20
-3.788146
  0
VERTEX
  8
PLAN_1
  6
CONTINUOUS
 10
0.368213
 20
-3.788146
  0
VERTEX
  8
PLAN_1
  6
CONTINUOUS
 10
0.359630
 20
-3.786713
  0
VERTEX
  8
PLAN_1
  6
CONTINUOUS
 10
0.351520
 20
-3.785283
  0
VERTEX
  8
PLAN_1
  6
CONTINUOUS
 10
0.343413
 20
-3.782421
  0
VERTEX
  8
PLAN_1
  6
CONTINUOUS
 10
0.335783
 20
-3.779083
  0
VERTEX
  8
PLAN_1
  6
CONTINUOUS
 10
0.328630
 20
-3.774791
  0
VERTEX
  8
PLAN_1
  6
CONTINUOUS
 10
0.324815
 20
-3.772406
  0
VERTEX
  8
PLAN_1
  6
CONTINUOUS
 10
0.321476
 20
-3.770024
  0
VERTEX
  8
PLAN_1
  6
CONTINUOUS
 10
0.318138
 20
-3.767161
  0
VERTEX
  8
PLAN_1
  6
CONTINUOUS
 10
0.314799
 20
-3.763823
  0
VERTEX
  8
PLAN_1
  6
CONTINUOUS
 10
0.311937
 20
-3.760961
  0
VERTEX
  8
PLAN_1
  6
CONTINUOUS
 10
0.309075
 20
-3.757146
  0
VERTEX
  8
PLAN_1
  6
CONTINUOUS
 10
0.306213
 20
-3.753331
  0
VERTEX
  8
PLAN_1
  6
CONTINUOUS
 10
0.303350
 20
-3.749516
  0
VERTEX
  8
PLAN_1
  6
CONTINUOUS
 10
0.300969
 20
-3.745220
  0
VERTEX
  8
PLAN_1
  6
CONTINUOUS
 10
0.298583
 20
-3.740929
  0
VERTEX
  8
PLAN_1
  6
CONTINUOUS
 10
0.296673
 20
-3.736161
  0
VERTEX
  8
PLAN_1
  6
CONTINUOUS
 10
0.294768
 20
-3.731394
  0
VERTEX
  8
PLAN_1
  6
CONTINUOUS
 10
0.292858
 20
-3.726146
  0
VERTEX
  8
PLAN_1
  6
CONTINUOUS
 10
0.291429
 20
-3.720421
  0
VERTEX
  8
PLAN_1
  6
CONTINUOUS
 10
0.289996
 20
-3.714701
  0
VERTEX
  8
PLAN_1
  6
CONTINUOUS
 10
0.289043
 20
-3.708976
  0
VERTEX
  8
PLAN_1
  6
CONTINUOUS
 10
0.288091
 20
-3.702776
  0
VERTEX
  8
PLAN_1
  6
CONTINUOUS
 10
0.287614
 20
-3.696098
  0
VERTEX
  8
PLAN_1
  6
CONTINUOUS
 10
0.287138
 20
-3.689421
  0
VERTEX
  8
PLAN_1
  6
CONTINUOUS
 10
0.287138
 20
-3.682268
  0
VERTEX
  8
PLAN_1
  6
CONTINUOUS
 10
0.287614
 20
-3.670823
  0
VERTEX
  8
PLAN_1
  6
CONTINUOUS
 10
0.288567
 20
-3.660331
  0
VERTEX
  8
PLAN_1
  6
CONTINUOUS
 10
0.290476
 20
-3.649839
  0
VERTEX
  8
PLAN_1
  6
CONTINUOUS
 10
0.293335
 20
-3.640299
  0
VERTEX
  8
PLAN_1
  6
CONTINUOUS
 10
0.297154
 20
-3.631240
  0
VERTEX
  8
PLAN_1
  6
CONTINUOUS
 10
0.300969
 20
-3.622654
  0
VERTEX
  8
PLAN_1
  6
CONTINUOUS
 10
0.303350
 20
-3.618362
  0
VERTEX
  8
PLAN_1
  6
CONTINUOUS
 10
0.306213
 20
-3.614547
  0
VERTEX
  8
PLAN_1
  6
CONTINUOUS
 10
0.309075
 20
-3.610732
  0
VERTEX
  8
PLAN_1
  6
CONTINUOUS
 10
0.311937
 20
-3.607394
  0
VERTEX
  8
PLAN_1
  6
CONTINUOUS
 10
0.314799
 20
-3.604055
  0
VERTEX
  8
PLAN_1
  6
CONTINUOUS
 10
0.318138
 20
-3.600717
  0
VERTEX
  8
PLAN_1
  6
CONTINUOUS
 10
0.321476
 20
-3.597854
  0
VERTEX
  8
PLAN_1
  6
CONTINUOUS
 10
0.325291
 20
-3.594992
  0
VERTEX
  8
PLAN_1
  6
CONTINUOUS
 10
0.328630
 20
-3.592606
  0
VERTEX
  8
PLAN_1
  6
CONTINUOUS
 10
0.332921
 20
-3.590224
  0
VERTEX
  8
PLAN_1
  6
CONTINUOUS
 10
0.336736
 20
-3.587839
  0
VERTEX
  8
PLAN_1
  6
CONTINUOUS
 10
0.341028
 20
-3.585933
  0
VERTEX
  8
PLAN_1
  6
CONTINUOUS
 10
0.345319
 20
-3.584500
  0
VERTEX
  8
PLAN_1
  6
CONTINUOUS
 10
0.350091
 20
-3.582594
  0
VERTEX
  8
PLAN_1
  6
CONTINUOUS
 10
0.354382
 20
-3.581638
  0
VERTEX
  8
PLAN_1
  6
CONTINUOUS
 10
0.359150
 20
-3.580209
  0
VERTEX
  8
PLAN_1
  6
CONTINUOUS
 10
0.364398
 20
-3.579732
  0
VERTEX
  8
PLAN_1
  6
CONTINUOUS
 10
0.369642
 20
-3.578776
  0
VERTEX
  8
PLAN_1
  6
CONTINUOUS
 10
0.374890
 20
-3.578776
  0
VERTEX
  8
PLAN_1
  6
CONTINUOUS
 10
0.380134
 20
-3.578299
  0
VERTEX
  8
PLAN_1
  6
CONTINUOUS
 10
0.389197
 20
-3.578776
  0
VERTEX
  8
PLAN_1
  6
CONTINUOUS
 10
0.398260
 20
-3.579732
  0
VERTEX
  8
PLAN_1
  6
CONTINUOUS
 10
0.406366
 20
-3.581638
  0
VERTEX
  8
PLAN_1
  6
CONTINUOUS
 10
0.413996
 20
-3.584024
  0
VERTEX
  8
PLAN_1
  6
CONTINUOUS
 10
0.421150
 20
-3.586886
  0
VERTEX
  8
PLAN_1
  6
CONTINUOUS
 10
0.427350
 20
-3.590224
  0
VERTEX
  8
PLAN_1
  6
CONTINUOUS
 10
0.433551
 20
-3.594039
  0
VERTEX
  8
PLAN_1
  6
CONTINUOUS
 10
0.438795
 20
-3.598807
  0
VERTEX
  8
PLAN_1
  6
CONTINUOUS
 10
0.443567
 20
-3.603579
  0
VERTEX
  8
PLAN_1
  6
CONTINUOUS
 10
0.447858
 20
-3.608346
  0
VERTEX
  8
PLAN_1
  6
CONTINUOUS
 10
0.451673
 20
-3.613594
  0
VERTEX
  8
PLAN_1
  6
CONTINUOUS
 10
0.454535
 20
-3.619315
  0
VERTEX
  8
PLAN_1
  6
CONTINUOUS
 10
0.457398
 20
-3.625516
  0
VERTEX
  8
PLAN_1
  6
CONTINUOUS
 10
0.459303
 20
-3.631240
  0
VERTEX
  8
PLAN_1
  6
CONTINUOUS
 10
0.460736
 20
-3.637437
  0
VERTEX
  8
PLAN_1
  6
CONTINUOUS
 10
0.461689
 20
-3.643638
  0
VERTEX
  8
PLAN_1
  6
CONTINUOUS
 10
0.435937
 20
-3.643638
  0
SEQEND
  8
0
  0
POLYLINE
  8
PLAN_1
  6
CONTINUOUS
 66
     1
 40
0.003000
 41
0.003000
  0
VERTEX
  8
PLAN_1
  6
CONTINUOUS
 10
0.523213
 20
-3.782898
  0
VERTEX
  8
PLAN_1
  6
CONTINUOUS
 10
0.496504
 20
-3.782898
  0
VERTEX
  8
PLAN_1
  6
CONTINUOUS
 10
0.496504
 20
-3.583547
  0
VERTEX
  8
PLAN_1
  6
CONTINUOUS
 10
0.523213
 20
-3.583547
  0
VERTEX
  8
PLAN_1
  6
CONTINUOUS
 10
0.523213
 20
-3.680362
  0
VERTEX
  8
PLAN_1
  6
CONTINUOUS
 10
0.620028
 20
-3.583547
  0
VERTEX
  8
PLAN_1
  6
CONTINUOUS
 10
0.657224
 20
-3.583547
  0
VERTEX
  8
PLAN_1
  6
CONTINUOUS
 10
0.574240
 20
-3.664146
  0
VERTEX
  8
PLAN_1
  6
CONTINUOUS
 10
0.659134
 20
-3.782898
  0
VERTEX
  8
PLAN_1
  6
CONTINUOUS
 10
0.624319
 20
-3.782898
  0
VERTEX
  8
PLAN_1
  6
CONTINUOUS
 10
0.554689
 20
-3.683224
  0
VERTEX
  8
PLAN_1
  6
CONTINUOUS
 10
0.523213
 20
-3.713268
  0
VERTEX
  8
PLAN_1
  6
CONTINUOUS
 10
0.523213
 20
-3.782898
  0
SEQEND
  8
0
  0
POLYLINE
  8
PLAN_1
  6
CONTINUOUS
 66
     1
 40
0.003000
 41
0.003000
  0
VERTEX
  8
PLAN_1
  6
CONTINUOUS
 10
0.766441
 20
-3.782898
  0
VERTEX
  8
PLAN_1
  6
CONTINUOUS
 10
0.739732
 20
-3.782898
  0
VERTEX
  8
PLAN_1
  6
CONTINUOUS
 10
0.739732
 20
-3.702776
  0
VERTEX
  8
PLAN_1
  6
CONTINUOUS
 10
0.664378
 20
-3.583547
  0
VERTEX
  8
PLAN_1
  6
CONTINUOUS
 10
0.695858
 20
-3.583547
  0
VERTEX
  8
PLAN_1
  6
CONTINUOUS
 10
0.753087
 20
-3.679409
  0
VERTEX
  8
PLAN_1
  6
CONTINUOUS
 10
0.810319
 20
-3.583547
  0
VERTEX
  8
PLAN_1
  6
CONTINUOUS
 10
0.841795
 20
-3.583547
  0
VERTEX
  8
PLAN_1
  6
CONTINUOUS
 10
0.766441
 20
-3.702776
  0
VERTEX
  8
PLAN_1
  6
CONTINUOUS
 10
0.766441
 20
-3.782898
  0
SEQEND
  8
0
  0
POLYLINE
  8
PLAN_1
  6
CONTINUOUS
 66
     1
 40
0.003000
 41
0.003000
  0
VERTEX
  8
PLAN_1
  6
CONTINUOUS
 10
0.957209
 20
-3.679409
  0
VERTEX
  8
PLAN_1
  6
CONTINUOUS
 10
0.961976
 20
-3.681315
  0
VERTEX
  8
PLAN_1
  6
CONTINUOUS
 10
0.966272
 20
-3.683701
  0
VERTEX
  8
PLAN_1
  6
CONTINUOUS
 10
0.970087
 20
-3.686563
  0
VERTEX
  8
PLAN_1
  6
CONTINUOUS
 10
0.973425
 20
-3.689421
  0
VERTEX
  8
PLAN_1
  6
CONTINUOUS
 10
0.976283
 20
-3.692283
  0
VERTEX
  8
PLAN_1
  6
CONTINUOUS
 10
0.979146
 20
-3.695146
  0
VERTEX
  8
PLAN_1
  6
CONTINUOUS
 10
0.981055
 20
-3.698484
  0
VERTEX
  8
PLAN_1
  6
CONTINUOUS
 10
0.982961
 20
-3.701823
  0
VERTEX
  8
PLAN_1
  6
CONTINUOUS
 10
0.984870
 20
-3.704685
  0
VERTEX
  8
PLAN_1
  6
CONTINUOUS
 10
0.986299
 20
-3.708024
  0
VERTEX
  8
PLAN_1
  6
CONTINUOUS
 10
0.987256
 20
-3.711362
  0
VERTEX
  8
PLAN_1
  6
CONTINUOUS
 10
0.987732
 20
-3.714701
  0
VERTEX
  8
PLAN_1
  6
CONTINUOUS
 10
0.989161
 20
-3.720898
  0
VERTEX
  8
PLAN_1
  6
CONTINUOUS
 10
0.989161
 20
-3.726622
  0
VERTEX
  8
PLAN_1
  6
CONTINUOUS
 10
0.989161
 20
-3.732346
  0
VERTEX
  8
PLAN_1
  6
CONTINUOUS
 10
0.988209
 20
-3.738547
  0
VERTEX
  8
PLAN_1
  6
CONTINUOUS
 10
0.987256
 20
-3.743791
  0
VERTEX
  8
PLAN_1
  6
CONTINUOUS
 10
0.985346
 20
-3.749516
  0
VERTEX
  8
PLAN_1
  6
CONTINUOUS
 10
0.982961
 20
-3.754760
  0
VERTEX
  8
PLAN_1
  6
CONTINUOUS
 10
0.980579
 20
-3.760008
  0
VERTEX
  8
PLAN_1
  6
CONTINUOUS
 10
0.977240
 20
-3.764776
  0
VERTEX
  8
PLAN_1
  6
CONTINUOUS
 10
0.973425
 20
-3.769067
  0
VERTEX
  8
PLAN_1
  6
CONTINUOUS
 10
0.969130
 20
-3.773362
  0
VERTEX
  8
PLAN_1
  6
CONTINUOUS
 10
0.964362
 20
-3.777177
  0
VERTEX
  8
PLAN_1
  6
CONTINUOUS
 10
0.959114
 20
-3.780516
  0
VERTEX
  8
PLAN_1
  6
CONTINUOUS
 10
0.952917
 20
-3.782898
  0
VERTEX
  8
PLAN_1
  6
CONTINUOUS
 10
0.946240
 20
-3.785283
  0
VERTEX
  8
PLAN_1
  6
CONTINUOUS
 10
0.939087
 20
-3.786713
  0
VERTEX
  8
PLAN_1
  6
CONTINUOUS
 10
0.931457
 20
-3.788146
  0
VERTEX
  8
PLAN_1
  6
CONTINUOUS
 10
0.923346
 20
-3.788146
  0
VERTEX
  8
PLAN_1
  6
CONTINUOUS
 10
0.918579
 20
-3.788146
  0
VERTEX
  8
PLAN_1
  6
CONTINUOUS
 10
0.913331
 20
-3.787669
  0
VERTEX
  8
PLAN_1
  6
CONTINUOUS
 10
0.907610
 20
-3.786713
  0
VERTEX
  8
PLAN_1
  6
CONTINUOUS
 10
0.901409
 20
-3.785283
  0
VERTEX
  8
PLAN_1
  6
CONTINUOUS
 10
0.895209
 20
-3.783378
  0
VERTEX
  8
PLAN_1
  6
CONTINUOUS
 10
0.888531
 20
-3.780992
  0
VERTEX
  8
PLAN_1
  6
CONTINUOUS
 10
0.882331
 20
-3.777654
  0
VERTEX
  8
PLAN_1
  6
CONTINUOUS
 10
0.876134
 20
-3.773362
  0
VERTEX
  8
PLAN_1
  6
CONTINUOUS
 10
0.872795
 20
-3.770500
  0
VERTEX
  8
PLAN_1
  6
CONTINUOUS
 10
0.869457
 20
-3.767161
  0
VERTEX
  8
PLAN_1
  6
CONTINUOUS
 10
0.867071
 20
-3.763823
  0
VERTEX
  8
PLAN_1
  6
CONTINUOUS
 10
0.864685
 20
-3.760961
  0
VERTEX
  8
PLAN_1
  6
CONTINUOUS
 10
0.862780
 20
-3.757622
  0
VERTEX
  8
PLAN_1
  6
CONTINUOUS
 10
0.861346
 20
-3.754283
  0
VERTEX
  8
PLAN_1
  6
CONTINUOUS
 10
0.859917
 20
-3.750945
  0
VERTEX
  8
PLAN_1
  6
CONTINUOUS
 10
0.858965
 20
-3.747606
  0
VERTEX
  8
PLAN_1
  6
CONTINUOUS
 10
0.857531
 20
-3.741406
  0
VERTEX
  8
PLAN_1
  6
CONTINUOUS
 10
0.856579
 20
-3.736161
  0
VERTEX
  8
PLAN_1
  6
CONTINUOUS
 10
0.856102
 20
-3.730913
  0
VERTEX
  8
PLAN_1
  6
CONTINUOUS
 10
0.856102
 20
-3.727098
  0
VERTEX
  8
PLAN_1
  6
CONTINUOUS
 10
0.856579
 20
-3.722807
  0
VERTEX
  8
PLAN_1
  6
CONTINUOUS
 10
0.857055
 20
-3.718516
  0
VERTEX
  8
PLAN_1
  6
CONTINUOUS
 10
0.857531
 20
-3.714224
  0
VERTEX
  8
PLAN_1
  6
CONTINUOUS
 10
0.858484
 20
-3.710886
  0
VERTEX
  8
PLAN_1
  6
CONTINUOUS
 10
0.859917
 20
-3.707067
  0
VERTEX
  8
PLAN_1
  6
CONTINUOUS
 10
0.861346
 20
-3.703732
  0
VERTEX
  8
PLAN_1
  6
CONTINUOUS
 10
0.863256
 20
-3.700394
  0
VERTEX
  8
PLAN_1
  6
CONTINUOUS
 10
0.865161
 20
-3.697531
  0
VERTEX
  8
PLAN_1
  6
CONTINUOUS
 10
0.867547
 20
-3.694669
  0
VERTEX
  8
PLAN_1
  6
CONTINUOUS
 10
0.869933
 20
-3.691807
  0
VERTEX
  8
PLAN_1
  6
CONTINUOUS
 10
0.872795
 20
-3.689421
  0
VERTEX
  8
PLAN_1
  6
CONTINUOUS
 10
0.875654
 20
-3.687039
  0
VERTEX
  8
PLAN_1
  6
CONTINUOUS
 10
0.878516
 20
-3.685130
  0
VERTEX
  8
PLAN_1
  6
CONTINUOUS
 10
0.881854
 20
-3.682744
  0
VERTEX
  8
PLAN_1
  6
CONTINUOUS
 10
0.885669
 20
-3.681315
  0
VERTEX
  8
PLAN_1
  6
CONTINUOUS
 10
0.889484
 20
-3.679409
  0
VERTEX
  8
PLAN_1
  6
CONTINUOUS
 10
0.883287
 20
-3.677024
  0
VERTEX
  8
PLAN_1
  6
CONTINUOUS
 10
0.878039
 20
-3.673685
  0
VERTEX
  8
PLAN_1
  6
CONTINUOUS
 10
0.875654
 20
-3.671776
  0
VERTEX
  8
PLAN_1
  6
CONTINUOUS
 10
0.873748
 20
-3.669394
  0
VERTEX
  8
PLAN_1
  6
CONTINUOUS
 10
0.871839
 20
-3.667484
  0
VERTEX
  8
PLAN_1
  6
CONTINUOUS
 10
0.869933
 20
-3.665098
  0
VERTEX
  8
PLAN_1
  6
CONTINUOUS
 10
0.868500
 20
-3.662717
  0
VERTEX
  8
PLAN_1
  6
CONTINUOUS
 10
0.867071
 20
-3.659854
  0
VERTEX
  8
PLAN_1
  6
CONTINUOUS
 10
0.865642
 20
-3.656992
  0
VERTEX
  8
PLAN_1
  6
CONTINUOUS
 10
0.864685
 20
-3.654130
  0
VERTEX
  8
PLAN_1
  6
CONTINUOUS
 10
0.863256
 20
-3.647929
  0
VERTEX
  8
PLAN_1
  6
CONTINUOUS
 10
0.862780
 20
-3.641256
  0
VERTEX
  8
PLAN_1
  6
CONTINUOUS
 10
0.863256
 20
-3.637437
  0
VERTEX
  8
PLAN_1
  6
CONTINUOUS
 10
0.863732
 20
-3.633146
  0
VERTEX
  8
PLAN_1
  6
CONTINUOUS
 10
0.864209
 20
-3.628854
  0
VERTEX
  8
PLAN_1
  6
CONTINUOUS
 10
0.865642
 20
-3.624563
  0
VERTEX
  8
PLAN_1
  6
CONTINUOUS
 10
0.867071
 20
-3.620268
  0
VERTEX
  8
PLAN_1
  6
CONTINUOUS
 10
0.869457
 20
-3.615500
  0
VERTEX
  8
PLAN_1
  6
CONTINUOUS
 10
0.871839
 20
-3.611209
  0
VERTEX
  8
PLAN_1
  6
CONTINUOUS
 10
0.875177
 20
-3.606917
  0
VERTEX
  8
PLAN_1
  6
CONTINUOUS
 10
0.878516
 20
-3.603098
  0
VERTEX
  8
PLAN_1
  6
CONTINUOUS
 10
0.882807
 20
-3.599764
  0
VERTEX
  8
PLAN_1
  6
CONTINUOUS
 10
0.887579
 20
-3.596425
  0
VERTEX
  8
PLAN_1
  6
CONTINUOUS
 10
0.893303
 20
-3.593563
  0
VERTEX
  8
PLAN_1
  6
CONTINUOUS
 10
0.899500
 20
-3.591177
  0
VERTEX
  8
PLAN_1
  6
CONTINUOUS
 10
0.906177
 20
-3.589272
  0
VERTEX
  8
PLAN_1
  6
CONTINUOUS
 10
0.913807
 20
-3.588315
  0
VERTEX
  8
PLAN_1
  6
CONTINUOUS
 10
0.921917
 20
-3.587839
  0
VERTEX
  8
PLAN_1
  6
CONTINUOUS
 10
0.930024
 20
-3.588315
  0
VERTEX
  8
PLAN_1
  6
CONTINUOUS
 10
0.937177
 20
-3.589272
  0
VERTEX
  8
PLAN_1
  6
CONTINUOUS
 10
0.943854
 20
-3.590701
  0
VERTEX
  8
PLAN_1
  6
CONTINUOUS
 10
0.949579
 20
-3.592606
  0
VERTEX
  8
PLAN_1
  6
CONTINUOUS
 10
0.955299
 20
-3.594992
  0
VERTEX
  8
PLAN_1
  6
CONTINUOUS
 10
0.960071
 20
-3.597854
  0
VERTEX
  8
PLAN_1
  6
CONTINUOUS
 10
0.964362
 20
-3.601193
  0
VERTEX
  8
PLAN_1
  6
CONTINUOUS
 10
0.968654
 20
-3.604531
  0
VERTEX
  8
PLAN_1
  6
CONTINUOUS
 10
0.971992
 20
-3.608346
  0
VERTEX
  8
PLAN_1
  6
CONTINUOUS
 10
0.974854
 20
-3.612161
  0
VERTEX
  8
PLAN_1
  6
CONTINUOUS
 10
0.977240
 20
-3.616453
  0
VERTEX
  8
PLAN_1
  6
CONTINUOUS
 10
0.979146
 20
-3.620748
  0
VERTEX
  8
PLAN_1
  6
CONTINUOUS
 10
0.980579
 20
-3.625039
  0
VERTEX
  8
PLAN_1
  6
CONTINUOUS
 10
0.981531
 20
-3.629331
  0
VERTEX
  8
PLAN_1
  6
CONTINUOUS
 10
0.982008
 20
-3.633622
  0
VERTEX
  8
PLAN_1
  6
CONTINUOUS
 10
0.982484
 20
-3.638394
  0
VERTEX
  8
PLAN_1
  6
CONTINUOUS
 10
0.982008
 20
-3.643161
  0
VERTEX
  8
PLAN_1
  6
CONTINUOUS
 10
0.981531
 20
-3.647929
  0
VERTEX
  8
PLAN_1
  6
CONTINUOUS
 10
0.980579
 20
-3.651748
  0
VERTEX
  8
PLAN_1
  6
CONTINUOUS
 10
0.979622
 20
-3.655563
  0
VERTEX
  8
PLAN_1
  6
CONTINUOUS
 10
0.978193
 20
-3.659378
  0
VERTEX
  8
PLAN_1
  6
CONTINUOUS
 10
0.976764
 20
-3.662240
  0
VERTEX
  8
PLAN_1
  6
CONTINUOUS
 10
0.974854
 20
-3.665098
  0
VERTEX
  8
PLAN_1
  6
CONTINUOUS
 10
0.972945
 20
-3.667484
  0
VERTEX
  8
PLAN_1
  6
CONTINUOUS
 10
0.969130
 20
-3.671776
  0
VERTEX
  8
PLAN_1
  6
CONTINUOUS
 10
0.964839
 20
-3.675114
  0
VERTEX
  8
PLAN_1
  6
CONTINUOUS
 10
0.961024
 20
-3.677500
  0
VERTEX
  8
PLAN_1
  6
CONTINUOUS
 10
0.957209
 20
-3.679409
  0
SEQEND
  8
0
  0
POLYLINE
  8
PLAN_1
  6
CONTINUOUS
 66
     1
 40
0.003000
 41
0.003000
  0
VERTEX
  8
PLAN_1
  6
CONTINUOUS
 10
0.882331
 20
-3.727575
  0
VERTEX
  8
PLAN_1
  6
CONTINUOUS
 10
0.882807
 20
-3.733776
  0
VERTEX
  8
PLAN_1
  6
CONTINUOUS
 10
0.884240
 20
-3.739976
  0
VERTEX
  8
PLAN_1
  6
CONTINUOUS
 10
0.885193
 20
-3.743315
  0
VERTEX
  8
PLAN_1
  6
CONTINUOUS
 10
0.886626
 20
-3.746654
  0
VERTEX
  8
PLAN_1
  6
CONTINUOUS
 10
0.888531
 20
-3.749992
  0
VERTEX
  8
PLAN_1
  6
CONTINUOUS
 10
0.890441
 20
-3.752854
  0
VERTEX
  8
PLAN_1
  6
CONTINUOUS
 10
0.892823
 20
-3.755717
  0
VERTEX
  8
PLAN_1
  6
CONTINUOUS
 10
0.896161
 20
-3.758098
  0
VERTEX
  8
PLAN_1
  6
CONTINUOUS
 10
0.899500
 20
-3.760484
  0
VERTEX
  8
PLAN_1
  6
CONTINUOUS
 10
0.903315
 20
-3.762390
  0
VERTEX
  8
PLAN_1
  6
CONTINUOUS
 10
0.907610
 20
-3.764299
  0
VERTEX
  8
PLAN_1
  6
CONTINUOUS
 10
0.912378
 20
-3.765252
  0
VERTEX
  8
PLAN_1
  6
CONTINUOUS
 10
0.918102
 20
-3.766209
  0
VERTEX
  8
PLAN_1
  6
CONTINUOUS
 10
0.923823
 20
-3.766209
  0
VERTEX
  8
PLAN_1
  6
CONTINUOUS
 10
0.930976
 20
-3.766209
  0
VERTEX
  8
PLAN_1
  6
CONTINUOUS
 10
0.937654
 20
-3.764776
  0
VERTEX
  8
PLAN_1
  6
CONTINUOUS
 10
0.940992
 20
-3.763823
  0
VERTEX
  8
PLAN_1
  6
CONTINUOUS
 10
0.944331
 20
-3.762870
  0
VERTEX
  8
PLAN_1
  6
CONTINUOUS
 10
0.947193
 20
-3.761437
  0
VERTEX
  8
PLAN_1
  6
CONTINUOUS
 10
0.950055
 20
-3.759531
  0
VERTEX
  8
PLAN_1
  6
CONTINUOUS
 10
0.952917
 20
-3.757146
  0
VERTEX
  8
PLAN_1
  6
CONTINUOUS
 10
0.955299
 20
-3.754760
  0
VERTEX
  8
PLAN_1
  6
CONTINUOUS
 10
0.957685
 20
-3.751421
  0
VERTEX
  8
PLAN_1
  6
CONTINUOUS
 10
0.959594
 20
-3.748083
  0
VERTEX
  8
PLAN_1
  6
CONTINUOUS
 10
0.961024
 20
-3.744268
  0
VERTEX
  8
PLAN_1
  6
CONTINUOUS
 10
0.961976
 20
-3.739976
  0
VERTEX
  8
PLAN_1
  6
CONTINUOUS
 10
0.962933
 20
-3.734728
  0
VERTEX
  8
PLAN_1
  6
CONTINUOUS
 10
0.962933
 20
-3.729484
  0
VERTEX
  8
PLAN_1
  6
CONTINUOUS
 10
0.962933
 20
-3.724717
  0
VERTEX
  8
PLAN_1
  6
CONTINUOUS
 10
0.962453
 20
-3.720421
  0
VERTEX
  8
PLAN_1
  6
CONTINUOUS
 10
0.961500
 20
-3.716130
  0
VERTEX
  8
PLAN_1
  6
CONTINUOUS
 10
0.960071
 20
-3.712315
  0
VERTEX
  8
PLAN_1
  6
CONTINUOUS
 10
0.958161
 20
-3.708976
  0
VERTEX
  8
PLAN_1
  6
CONTINUOUS
 10
0.956256
 20
-3.705638
  0
VERTEX
  8
PLAN_1
  6
CONTINUOUS
 10
0.953870
 20
-3.703252
  0
VERTEX
  8
PLAN_1
  6
CONTINUOUS
 10
0.951008
 20
-3.700394
  0
VERTEX
  8
PLAN_1
  6
CONTINUOUS
 10
0.948146
 20
-3.698484
  0
VERTEX
  8
PLAN_1
  6
CONTINUOUS
 10
0.945287
 20
-3.696575
  0
VERTEX
  8
PLAN_1
  6
CONTINUOUS
 10
0.941949
 20
-3.695146
  0
VERTEX
  8
PLAN_1
  6
CONTINUOUS
 10
0.938130
 20
-3.693717
  0
VERTEX
  8
PLAN_1
  6
CONTINUOUS
 10
0.934791
 20
-3.692760
  0
VERTEX
  8
PLAN_1
  6
CONTINUOUS
 10
0.930976
 20
-3.691807
  0
VERTEX
  8
PLAN_1
  6
CONTINUOUS
 10
0.926685
 20
-3.691807
  0
VERTEX
  8
PLAN_1
  6
CONTINUOUS
 10
0.922870
 20
-3.691331
  0
VERTEX
  8
PLAN_1
  6
CONTINUOUS
 10
0.917626
 20
-3.691807
  0
VERTEX
  8
PLAN_1
  6
CONTINUOUS
 10
0.912854
 20
-3.692283
  0
VERTEX
  8
PLAN_1
  6
CONTINUOUS
 10
0.908563
 20
-3.693236
  0
VERTEX
  8
PLAN_1
  6
CONTINUOUS
 10
0.904748
 20
-3.694669
  0
VERTEX
  8
PLAN_1
  6
CONTINUOUS
 10
0.900933
 20
-3.696098
  0
VERTEX
  8
PLAN_1
  6
CONTINUOUS
 10
0.897594
 20
-3.698008
  0
VERTEX
  8
PLAN_1
  6
CONTINUOUS
 10
0.894732
 20
-3.700394
  0
VERTEX
  8
PLAN_1
  6
CONTINUOUS
 10
0.892346
 20
-3.702776
  0
VERTEX
  8
PLAN_1
  6
CONTINUOUS
 10
0.889965
 20
-3.705161
  0
VERTEX
  8
PLAN_1
  6
CONTINUOUS
 10
0.888055
 20
-3.708024
  0
VERTEX
  8
PLAN_1
  6
CONTINUOUS
 10
0.886146
 20
-3.711362
  0
VERTEX
  8
PLAN_1
  6
CONTINUOUS
 10
0.884717
 20
-3.714224
  0
VERTEX
  8
PLAN_1
  6
CONTINUOUS
 10
0.883764
 20
-3.717563
  0
VERTEX
  8
PLAN_1
  6
CONTINUOUS
 10
0.882807
 20
-3.720898
  0
VERTEX
  8
PLAN_1
  6
CONTINUOUS
 10
0.882331
 20
-3.724236
  0
VERTEX
  8
PLAN_1
  6
CONTINUOUS
 10
0.882331
 20
-3.727575
  0
SEQEND
  8
0
  0
POLYLINE
  8
PLAN_1
  6
CONTINUOUS
 66
     1
 40
0.003000
 41
0.003000
  0
VERTEX
  8
PLAN_1
  6
CONTINUOUS
 10
0.957209
 20
-3.638870
  0
VERTEX
  8
PLAN_1
  6
CONTINUOUS
 10
0.956732
 20
-3.634098
  0
VERTEX
  8
PLAN_1
  6
CONTINUOUS
 10
0.955299
 20
-3.629331
  0
VERTEX
  8
PLAN_1
  6
CONTINUOUS
 10
0.954346
 20
-3.626945
  0
VERTEX
  8
PLAN_1
  6
CONTINUOUS
 10
0.952917
 20
-3.624563
  0
VERTEX
  8
PLAN_1
  6
CONTINUOUS
 10
0.951484
 20
-3.622177
  0
VERTEX
  8
PLAN_1
  6
CONTINUOUS
 10
0.949579
 20
-3.619791
  0
VERTEX
  8
PLAN_1
  6
CONTINUOUS
 10
0.947193
 20
-3.617886
  0
VERTEX
  8
PLAN_1
  6
CONTINUOUS
 10
0.944807
 20
-3.615976
  0
VERTEX
  8
PLAN_1
  6
CONTINUOUS
 10
0.941949
 20
-3.614071
  0
VERTEX
  8
PLAN_1
  6
CONTINUOUS
 10
0.938610
 20
-3.612638
  0
VERTEX
  8
PLAN_1
  6
CONTINUOUS
 10
0.934791
 20
-3.611685
  0
VERTEX
  8
PLAN_1
  6
CONTINUOUS
 10
0.930500
 20
-3.610732
  0
VERTEX
  8
PLAN_1
  6
CONTINUOUS
 10
0.925732
 20
-3.610256
  0
VERTEX
  8
PLAN_1
  6
CONTINUOUS
 10
0.920484
 20
-3.609776
  0
VERTEX
  8
PLAN_1
  6
CONTINUOUS
 10
0.916193
 20
-3.610256
  0
VERTEX
  8
PLAN_1
  6
CONTINUOUS
 10
0.911902
 20
-3.610732
  0
VERTEX
  8
PLAN_1
  6
CONTINUOUS
 10
0.908087
 20
-3.611685
  0
VERTEX
  8
PLAN_1
  6
CONTINUOUS
 10
0.904748
 20
-3.612638
  0
VERTEX
  8
PLAN_1
  6
CONTINUOUS
 10
0.901409
 20
-3.614547
  0
VERTEX
  8
PLAN_1
  6
CONTINUOUS
 10
0.899024
 20
-3.616453
  0
VERTEX
  8
PLAN_1
  6
CONTINUOUS
 10
0.896638
 20
-3.618362
  0
VERTEX
  8
PLAN_1
  6
CONTINUOUS
 10
0.894732
 20
-3.620268
  0
VERTEX
  8
PLAN_1
  6
CONTINUOUS
 10
0.892823
 20
-3.622654
  0
VERTEX
  8
PLAN_1
  6
CONTINUOUS
 10
0.891394
 20
-3.625039
  0
VERTEX
  8
PLAN_1
  6
CONTINUOUS
 10
0.890441
 20
-3.627902
  0
VERTEX
  8
PLAN_1
  6
CONTINUOUS
 10
0.889484
 20
-3.630283
  0
VERTEX
  8
PLAN_1
  6
CONTINUOUS
 10
0.888531
 20
-3.635531
  0
VERTEX
  8
PLAN_1
  6
CONTINUOUS
 10
0.888055
 20
-3.640299
  0
VERTEX
  8
PLAN_1
  6
CONTINUOUS
 10
0.888531
 20
-3.643638
  0
VERTEX
  8
PLAN_1
  6
CONTINUOUS
 10
0.889008
 20
-3.646976
  0
VERTEX
  8
PLAN_1
  6
CONTINUOUS
 10
0.889965
 20
-3.649839
  0
VERTEX
  8
PLAN_1
  6
CONTINUOUS
 10
0.890917
 20
-3.652701
  0
VERTEX
  8
PLAN_1
  6
CONTINUOUS
 10
0.892346
 20
-3.655563
  0
VERTEX
  8
PLAN_1
  6
CONTINUOUS
 10
0.894256
 20
-3.657945
  0
VERTEX
  8
PLAN_1
  6
CONTINUOUS
 10
0.896161
 20
-3.660331
  0
VERTEX
  8
PLAN_1
  6
CONTINUOUS
 10
0.898547
 20
-3.662240
  0
VERTEX
  8
PLAN_1
  6
CONTINUOUS
 10
0.900933
 20
-3.664146
  0
VERTEX
  8
PLAN_1
  6
CONTINUOUS
 10
0.903795
 20
-3.665579
  0
VERTEX
  8
PLAN_1
  6
CONTINUOUS
 10
0.906654
 20
-3.667008
  0
VERTEX
  8
PLAN_1
  6
CONTINUOUS
 10
0.909516
 20
-3.668437
  0
VERTEX
  8
PLAN_1
  6
CONTINUOUS
 10
0.912378
 20
-3.669394
  0
VERTEX
  8
PLAN_1
  6
CONTINUOUS
 10
0.915717
 20
-3.669870
  0
VERTEX
  8
PLAN_1
  6
CONTINUOUS
 10
0.919055
 20
-3.670346
  0
VERTEX
  8
PLAN_1
  6
CONTINUOUS
 10
0.922394
 20
-3.670346
  0
VERTEX
  8
PLAN_1
  6
CONTINUOUS
 10
0.926209
 20
-3.670346
  0
VERTEX
  8
PLAN_1
  6
CONTINUOUS
 10
0.930024
 20
-3.669870
  0
VERTEX
  8
PLAN_1
  6
CONTINUOUS
 10
0.933362
 20
-3.668913
  0
VERTEX
  8
PLAN_1
  6
CONTINUOUS
 10
0.936701
 20
-3.667961
  0
VERTEX
  8
PLAN_1
  6
CONTINUOUS
 10
0.939563
 20
-3.666531
  0
VERTEX
  8
PLAN_1
  6
CONTINUOUS
 10
0.942425
 20
-3.665098
  0
VERTEX
  8
PLAN_1
  6
CONTINUOUS
 10
0.945287
 20
-3.663193
  0
VERTEX
  8
PLAN_1
  6
CONTINUOUS
 10
0.947669
 20
-3.661283
  0
VERTEX
  8
PLAN_1
  6
CONTINUOUS
 10
0.949579
 20
-3.658902
  0
VERTEX
  8
PLAN_1
  6
CONTINUOUS
 10
0.951484
 20
-3.656516
  0
VERTEX
  8
PLAN_1
  6
CONTINUOUS
 10
0.953394
 20
-3.654130
  0
VERTEX
  8
PLAN_1
  6
CONTINUOUS
 10
0.954823
 20
-3.651268
  0
VERTEX
  8
PLAN_1
  6
CONTINUOUS
 10
0.955780
 20
-3.648409
  0
VERTEX
  8
PLAN_1
  6
CONTINUOUS
 10
0.956256
 20
-3.645547
  0
VERTEX
  8
PLAN_1
  6
CONTINUOUS
 10
0.956732
 20
-3.642209
  0
VERTEX
  8
PLAN_1
  6
CONTINUOUS
 10
0.957209
 20
-3.638870
  0
SEQEND
  8
0
  0
POLYLINE
  8
PLAN_1
  6
CONTINUOUS
 66
     1
 40
0.003000
 41
0.003000
  0
VERTEX
  8
PLAN_1
  6
CONTINUOUS
 10
1.099807
 20
-3.782898
  0
VERTEX
  8
PLAN_1
  6
CONTINUOUS
 10
1.073579
 20
-3.782898
  0
VERTEX
  8
PLAN_1
  6
CONTINUOUS
 10
1.073579
 20
-3.644591
  0
VERTEX
  8
PLAN_1
  6
CONTINUOUS
 10
1.028268
 20
-3.644591
  0
VERTEX
  8
PLAN_1
  6
CONTINUOUS
 10
1.028268
 20
-3.625039
  0
VERTEX
  8
PLAN_1
  6
CONTINUOUS
 10
1.039240
 20
-3.624087
  0
VERTEX
  8
PLAN_1
  6
CONTINUOUS
 10
1.048776
 20
-3.622654
  0
VERTEX
  8
PLAN_1
  6
CONTINUOUS
 10
1.052591
 20
-3.622177
  0
VERTEX
  8
PLAN_1
  6
CONTINUOUS
 10
1.056409
 20
-3.620748
  0
VERTEX
  8
PLAN_1
  6
CONTINUOUS
 10
1.060224
 20
-3.619315
  0
VERTEX
  8
PLAN_1
  6
CONTINUOUS
 10
1.063563
 20
-3.617886
  0
VERTEX
  8
PLAN_1
  6
CONTINUOUS
 10
1.066421
 20
-3.615500
  0
VERTEX
  8
PLAN_1
  6
CONTINUOUS
 10
1.068807
 20
-3.613114
  0
VERTEX
  8
PLAN_1
  6
CONTINUOUS
 10
1.071193
 20
-3.610256
  0
VERTEX
  8
PLAN_1
  6
CONTINUOUS
 10
1.073579
 20
-3.606917
  0
VERTEX
  8
PLAN_1
  6
CONTINUOUS
 10
1.075484
 20
-3.603098
  0
VERTEX
  8
PLAN_1
  6
CONTINUOUS
 10
1.077394
 20
-3.598807
  0
VERTEX
  8
PLAN_1
  6
CONTINUOUS
 10
1.079299
 20
-3.593563
  0
VERTEX
  8
PLAN_1
  6
CONTINUOUS
 10
1.080732
 20
-3.587839
  0
VERTEX
  8
PLAN_1
  6
CONTINUOUS
 10
1.099807
 20
-3.587839
  0
VERTEX
  8
PLAN_1
  6
CONTINUOUS
 10
1.099807
 20
-3.782898
  0
SEQEND
  8
0
  0
SOLID
  8
PLAN_1
 10
1.154654
 20
-3.817713
 11
1.154654
 21
-3.803882
 12
1.308697
 22
-3.817713
 13
1.308697
 23
-3.803882
  0
POLYLINE
  8
PLAN_1
  6
CONTINUOUS
 66
     1
 40
0.003000
 41
0.003000
  0
VERTEX
  8
PLAN_1
  6
CONTINUOUS
 10
1.154654
 20
-3.817713
  0
VERTEX
  8
PLAN_1
  6
CONTINUOUS
 10
1.154654
 20
-3.803882
  0
VERTEX
  8
PLAN_1
  6
CONTINUOUS
 10
1.308697
 20
-3.803882
  0
VERTEX
  8
PLAN_1
  6
CONTINUOUS
 10
1.308697
 20
-3.817713
  0
VERTEX
  8
PLAN_1
  6
CONTINUOUS
 10
1.154654
 20
-3.817713
  0
SEQEND
  8
0
  0
POLYLINE
  8
PLAN_1
  6
CONTINUOUS
 66
     1
 40
0.003000
 41
0.003000
  0
VERTEX
  8
PLAN_1
  6
CONTINUOUS
 10
1.360205
 20
-3.782898
  0
VERTEX
  8
PLAN_1
  6
CONTINUOUS
 10
1.333500
 20
-3.782898
  0
VERTEX
  8
PLAN_1
  6
CONTINUOUS
 10
1.333500
 20
-3.583547
  0
VERTEX
  8
PLAN_1
  6
CONTINUOUS
 10
1.425543
 20
-3.583547
  0
VERTEX
  8
PLAN_1
  6
CONTINUOUS
 10
1.431744
 20
-3.584024
  0
VERTEX
  8
PLAN_1
  6
CONTINUOUS
 10
1.437465
 20
-3.584500
  0
VERTEX
  8
PLAN_1
  6
CONTINUOUS
 10
1.443665
 20
-3.584976
  0
VERTEX
  8
PLAN_1
  6
CONTINUOUS
 10
1.449390
 20
-3.586409
  0
VERTEX
  8
PLAN_1
  6
CONTINUOUS
 10
1.455114
 20
-3.587839
  0
VERTEX
  8
PLAN_1
  6
CONTINUOUS
 10
1.460358
 20
-3.589748
  0
VERTEX
  8
PLAN_1
  6
CONTINUOUS
 10
1.465606
 20
-3.592130
  0
VERTEX
  8
PLAN_1
  6
CONTINUOUS
 10
1.470374
 20
-3.594516
  0
VERTEX
  8
PLAN_1
  6
CONTINUOUS
 10
1.474665
 20
-3.597854
  0
VERTEX
  8
PLAN_1
  6
CONTINUOUS
 10
1.478957
 20
-3.601669
  0
VERTEX
  8
PLAN_1
  6
CONTINUOUS
 10
1.482295
 20
-3.606437
  0
VERTEX
  8
PLAN_1
  6
CONTINUOUS
 10
1.485157
 20
-3.611209
  0
VERTEX
  8
PLAN_1
  6
CONTINUOUS
 10
1.487543
 20
-3.616929
  0
VERTEX
  8
PLAN_1
  6
CONTINUOUS
 10
1.489449
 20
-3.623130
  0
VERTEX
  8
PLAN_1
  6
CONTINUOUS
 10
1.490406
 20
-3.629807
  0
VERTEX
  8
PLAN_1
  6
CONTINUOUS
 10
1.490882
 20
-3.637437
  0
VERTEX
  8
PLAN_1
  6
CONTINUOUS
 10
1.490882
 20
-3.642685
  0
VERTEX
  8
PLAN_1
  6
CONTINUOUS
 10
1.490406
 20
-3.647453
  0
VERTEX
  8
PLAN_1
  6
CONTINUOUS
 10
1.489449
 20
-3.652224
  0
VERTEX
  8
PLAN_1
  6
CONTINUOUS
 10
1.488496
 20
-3.656039
  0
VERTEX
  8
PLAN_1
  6
CONTINUOUS
 10
1.487067
 20
-3.659854
  0
VERTEX
  8
PLAN_1
  6
CONTINUOUS
 10
1.485634
 20
-3.663193
  0
VERTEX
  8
PLAN_1
  6
CONTINUOUS
 10
1.483728
 20
-3.666531
  0
VERTEX
  8
PLAN_1
  6
CONTINUOUS
 10
1.481819
 20
-3.669394
  0
VERTEX
  8
PLAN_1
  6
CONTINUOUS
 10
1.477528
 20
-3.674638
  0
VERTEX
  8
PLAN_1
  6
CONTINUOUS
 10
1.472760
 20
-3.678453
  0
VERTEX
  8
PLAN_1
  6
CONTINUOUS
 10
1.467988
 20
-3.682268
  0
VERTEX
  8
PLAN_1
  6
CONTINUOUS
 10
1.463220
 20
-3.685130
  0
VERTEX
  8
PLAN_1
  6
CONTINUOUS
 10
1.467512
 20
-3.687039
  0
VERTEX
  8
PLAN_1
  6
CONTINUOUS
 10
1.471327
 20
-3.688945
  0
VERTEX
  8
PLAN_1
  6
CONTINUOUS
 10
1.475622
 20
-3.691807
  0
VERTEX
  8
PLAN_1
  6
CONTINUOUS
 10
1.478957
 20
-3.695146
  0
VERTEX
  8
PLAN_1
  6
CONTINUOUS
 10
1.480390
 20
-3.697055
  0
VERTEX
  8
PLAN_1
  6
CONTINUOUS
 10
1.481819
 20
-3.699913
  0
VERTEX
  8
PLAN_1
  6
CONTINUOUS
 10
1.483252
 20
-3.702299
  0
VERTEX
  8
PLAN_1
  6
CONTINUOUS
 10
1.484681
 20
-3.705638
  0
VERTEX
  8
PLAN_1
  6
CONTINUOUS
 10
1.485634
 20
-3.708976
  0
VERTEX
  8
PLAN_1
  6
CONTINUOUS
 10
1.486114
 20
-3.713268
  0
VERTEX
  8
PLAN_1
  6
CONTINUOUS
 10
1.486591
 20
-3.717563
  0
VERTEX
  8
PLAN_1
  6
CONTINUOUS
 10
1.487067
 20
-3.722331
  0
VERTEX
  8
PLAN_1
  6
CONTINUOUS
 10
1.488496
 20
-3.758575
  0
VERTEX
  8
PLAN_1
  6
CONTINUOUS
 10
1.488972
 20
-3.762390
  0
VERTEX
  8
PLAN_1
  6
CONTINUOUS
 10
1.488972
 20
-3.765728
  0
VERTEX
  8
PLAN_1
  6
CONTINUOUS
 10
1.489929
 20
-3.768591
  0
VERTEX
  8
PLAN_1
  6
CONTINUOUS
 10
1.490882
 20
-3.770976
  0
VERTEX
  8
PLAN_1
  6
CONTINUOUS
 10
1.491835
 20
-3.773362
  0
VERTEX
  8
PLAN_1
  6
CONTINUOUS
 10
1.493744
 20
-3.775268
  0
VERTEX
  8
PLAN_1
  6
CONTINUOUS
 10
1.495650
 20
-3.776701
  0
VERTEX
  8
PLAN_1
  6
CONTINUOUS
 10
1.498512
 20
-3.778606
  0
VERTEX
  8
PLAN_1
  6
CONTINUOUS
 10
1.498512
 20
-3.782898
  0
VERTEX
  8
PLAN_1
  6
CONTINUOUS
 10
1.465606
 20
-3.782898
  0
VERTEX
  8
PLAN_1
  6
CONTINUOUS
 10
1.464173
 20
-3.777654
  0
VERTEX
  8
PLAN_1
  6
CONTINUOUS
 10
1.463220
 20
-3.770976
  0
VERTEX
  8
PLAN_1
  6
CONTINUOUS
 10
1.462268
 20
-3.763823
  0
VERTEX
  8
PLAN_1
  6
CONTINUOUS
 10
1.461791
 20
-3.756193
  0
VERTEX
  8
PLAN_1
  6
CONTINUOUS
 10
1.461311
 20
-3.749039
  0
VERTEX
  8
PLAN_1
  6
CONTINUOUS
 10
1.461311
 20
-3.742362
  0
VERTEX
  8
PLAN_1
  6
CONTINUOUS
 10
1.460835
 20
-3.737114
  0
VERTEX
  8
PLAN_1
  6
CONTINUOUS
 10
1.460835
 20
-3.733299
  0
VERTEX
  8
PLAN_1
  6
CONTINUOUS
 10
1.460835
 20
-3.726622
  0
VERTEX
  8
PLAN_1
  6
CONTINUOUS
 10
1.459882
 20
-3.720421
  0
VERTEX
  8
PLAN_1
  6
CONTINUOUS
 10
1.459406
 20
-3.717563
  0
VERTEX
  8
PLAN_1
  6
CONTINUOUS
 10
1.457972
 20
-3.714701
  0
VERTEX
  8
PLAN_1
  6
CONTINUOUS
 10
1.457020
 20
-3.711839
  0
VERTEX
  8
PLAN_1
  6
CONTINUOUS
 10
1.455114
 20
-3.708976
  0
VERTEX
  8
PLAN_1
  6
CONTINUOUS
 10
1.453205
 20
-3.706591
  0
VERTEX
  8
PLAN_1
  6
CONTINUOUS
 10
1.450819
 20
-3.704685
  0
VERTEX
  8
PLAN_1
  6
CONTINUOUS
 10
1.447961
 20
-3.702299
  0
VERTEX
  8
PLAN_1
  6
CONTINUOUS
 10
1.444622
 20
-3.700870
  0
VERTEX
  8
PLAN_1
  6
CONTINUOUS
 10
1.440803
 20
-3.699437
  0
VERTEX
  8
PLAN_1
  6
CONTINUOUS
 10
1.436035
 20
-3.698484
  0
VERTEX
  8
PLAN_1
  6
CONTINUOUS
 10
1.431268
 20
-3.697531
  0
VERTEX
  8
PLAN_1
  6
CONTINUOUS
 10
1.425543
 20
-3.697531
  0
VERTEX
  8
PLAN_1
  6
CONTINUOUS
 10
1.360205
 20
-3.697531
  0
VERTEX
  8
PLAN_1
  6
CONTINUOUS
 10
1.360205
 20
-3.782898
  0
SEQEND
  8
0
  0
POLYLINE
  8
PLAN_1
  6
CONTINUOUS
 66
     1
 40
0.003000
 41
0.003000
  0
VERTEX
  8
PLAN_1
  6
CONTINUOUS
 10
1.360205
 20
-3.674638
  0
VERTEX
  8
PLAN_1
  6
CONTINUOUS
 10
1.422681
 20
-3.674638
  0
VERTEX
  8
PLAN_1
  6
CONTINUOUS
 10
1.429835
 20
-3.674161
  0
VERTEX
  8
PLAN_1
  6
CONTINUOUS
 10
1.437465
 20
-3.673209
  0
VERTEX
  8
PLAN_1
  6
CONTINUOUS
 10
1.440803
 20
-3.672252
  0
VERTEX
  8
PLAN_1
  6
CONTINUOUS
 10
1.444142
 20
-3.671299
  0
VERTEX
  8
PLAN_1
  6
CONTINUOUS
 10
1.447480
 20
-3.669870
  0
VERTEX
  8
PLAN_1
  6
CONTINUOUS
 10
1.450343
 20
-3.668437
  0
VERTEX
  8
PLAN_1
  6
CONTINUOUS
 10
1.453205
 20
-3.666531
  0
VERTEX
  8
PLAN_1
  6
CONTINUOUS
 10
1.455591
 20
-3.664146
  0
VERTEX
  8
PLAN_1
  6
CONTINUOUS
 10
1.457972
 20
-3.661283
  0
VERTEX
  8
PLAN_1
  6
CONTINUOUS
 10
1.459406
 20
-3.657945
  0
VERTEX
  8
PLAN_1
  6
CONTINUOUS
 10
1.461311
 20
-3.654130
  0
VERTEX
  8
PLAN_1
  6
CONTINUOUS
 10
1.462268
 20
-3.649839
  0
VERTEX
  8
PLAN_1
  6
CONTINUOUS
 10
1.462744
 20
-3.645547
  0
VERTEX
  8
PLAN_1
  6
CONTINUOUS
 10
1.463220
 20
-3.640299
  0
VERTEX
  8
PLAN_1
  6
CONTINUOUS
 10
1.462744
 20
-3.634579
  0
VERTEX
  8
PLAN_1
  6
CONTINUOUS
 10
1.462268
 20
-3.629807
  0
VERTEX
  8
PLAN_1
  6
CONTINUOUS
 10
1.460835
 20
-3.625516
  0
VERTEX
  8
PLAN_1
  6
CONTINUOUS
 10
1.459406
 20
-3.621701
  0
VERTEX
  8
PLAN_1
  6
CONTINUOUS
 10
1.457496
 20
-3.618839
  0
VERTEX
  8
PLAN_1
  6
CONTINUOUS
 10
1.455591
 20
-3.615976
  0
VERTEX
  8
PLAN_1
  6
CONTINUOUS
 10
1.452728
 20
-3.613594
  0
VERTEX
  8
PLAN_1
  6
CONTINUOUS
 10
1.450343
 20
-3.611685
  0
VERTEX
  8
PLAN_1
  6
CONTINUOUS
 10
1.447480
 20
-3.610256
  0
VERTEX
  8
PLAN_1
  6
CONTINUOUS
 10
1.444622
 20
-3.609299
  0
VERTEX
  8
PLAN_1
  6
CONTINUOUS
 10
1.441760
 20
-3.608346
  0
VERTEX
  8
PLAN_1
  6
CONTINUOUS
 10
1.438421
 20
-3.607870
  0
VERTEX
  8
PLAN_1
  6
CONTINUOUS
 10
1.432697
 20
-3.606917
  0
VERTEX
  8
PLAN_1
  6
CONTINUOUS
 10
1.427453
 20
-3.606917
  0
VERTEX
  8
PLAN_1
  6
CONTINUOUS
 10
1.360205
 20
-3.606917
  0
VERTEX
  8
PLAN_1
  6
CONTINUOUS
 10
1.360205
 20
-3.674638
  0
SEQEND
  8
0
  0
SOLID
  8
PLAN_1
 10
1.562421
 20
-3.782898
 11
1.533327
 21
-3.782898
 12
1.562421
 22
-3.753807
 13
1.533327
 23
-3.753807
  0
POLYLINE
  8
PLAN_1
  6
CONTINUOUS
 66
     1
 40
0.003000
 41
0.003000
  0
VERTEX
  8
PLAN_1
  6
CONTINUOUS
 10
1.562421
 20
-3.782898
  0
VERTEX
  8
PLAN_1
  6
CONTINUOUS
 10
1.533327
 20
-3.782898
  0
VERTEX
  8
PLAN_1
  6
CONTINUOUS
 10
1.533327
 20
-3.753807
  0
VERTEX
  8
PLAN_1
  6
CONTINUOUS
 10
1.562421
 20
-3.753807
  0
VERTEX
  8
PLAN_1
  6
CONTINUOUS
 10
1.562421
 20
-3.782898
  0
SEQEND
  8
0
  0
POLYLINE
  8
PLAN_1
  6
CONTINUOUS
 66
     1
 40
0.003000
 41
0.003000
  0
VERTEX
  8
PLAN_1
  6
CONTINUOUS
 10
1.757480
 20
-3.782898
  0
VERTEX
  8
PLAN_1
  6
CONTINUOUS
 10
1.610587
 20
-3.782898
  0
VERTEX
  8
PLAN_1
  6
CONTINUOUS
 10
1.610587
 20
-3.583547
  0
VERTEX
  8
PLAN_1
  6
CONTINUOUS
 10
1.755571
 20
-3.583547
  0
VERTEX
  8
PLAN_1
  6
CONTINUOUS
 10
1.755571
 20
-3.607394
  0
VERTEX
  8
PLAN_1
  6
CONTINUOUS
 10
1.637295
 20
-3.607394
  0
VERTEX
  8
PLAN_1
  6
CONTINUOUS
 10
1.637295
 20
-3.668913
  0
VERTEX
  8
PLAN_1
  6
CONTINUOUS
 10
1.746512
 20
-3.668913
  0
VERTEX
  8
PLAN_1
  6
CONTINUOUS
 10
1.746512
 20
-3.692760
  0
VERTEX
  8
PLAN_1
  6
CONTINUOUS
 10
1.637295
 20
-3.692760
  0
VERTEX
  8
PLAN_1
  6
CONTINUOUS
 10
1.637295
 20
-3.759051
  0
VERTEX
  8
PLAN_1
  6
CONTINUOUS
 10
1.757480
 20
-3.759051
  0
VERTEX
  8
PLAN_1
  6
CONTINUOUS
 10
1.757480
 20
-3.782898
  0
SEQEND
  8
0
  0
POLYLINE
  8
PLAN_1
  6
CONTINUOUS
 66
     1
 40
0.003000
 41
0.003000
  0
VERTEX
  8
PLAN_1
  6
CONTINUOUS
 10
1.822343
 20
-3.782898
  0
VERTEX
  8
PLAN_1
  6
CONTINUOUS
 10
1.795634
 20
-3.782898
  0
VERTEX
  8
PLAN_1
  6
CONTINUOUS
 10
1.795634
 20
-3.583547
  0
VERTEX
  8
PLAN_1
  6
CONTINUOUS
 10
1.885295
 20
-3.583547
  0
VERTEX
  8
PLAN_1
  6
CONTINUOUS
 10
1.891972
 20
-3.584024
  0
VERTEX
  8
PLAN_1
  6
CONTINUOUS
 10
1.898169
 20
-3.584976
  0
VERTEX
  8
PLAN_1
  6
CONTINUOUS
 10
1.904370
 20
-3.586409
  0
VERTEX
  8
PLAN_1
  6
CONTINUOUS
 10
1.910094
 20
-3.587839
  0
VERTEX
  8
PLAN_1
  6
CONTINUOUS
 10
1.915339
 20
-3.590224
  0
VERTEX
  8
PLAN_1
  6
CONTINUOUS
 10
1.920110
 20
-3.593087
  0
VERTEX
  8
PLAN_1
  6
CONTINUOUS
 10
1.924402
 20
-3.595945
  0
VERTEX
  8
PLAN_1
  6
CONTINUOUS
 10
1.928693
 20
-3.599764
  0
VERTEX
  8
PLAN_1
  6
CONTINUOUS
 10
1.932031
 20
-3.603579
  0
VERTEX
  8
PLAN_1
  6
CONTINUOUS
 10
1.935370
 20
-3.607870
  0
VERTEX
  8
PLAN_1
  6
CONTINUOUS
 10
1.938232
 20
-3.612638
  0
VERTEX
  8
PLAN_1
  6
CONTINUOUS
 10
1.940142
 20
-3.617409
  0
VERTEX
  8
PLAN_1
  6
CONTINUOUS
 10
1.942047
 20
-3.622654
  0
VERTEX
  8
PLAN_1
  6
CONTINUOUS
 10
1.943476
 20
-3.628378
  0
VERTEX
  8
PLAN_1
  6
CONTINUOUS
 10
1.943957
 20
-3.634098
  0
VERTEX
  8
PLAN_1
  6
CONTINUOUS
 10
1.944433
 20
-3.639823
  0
VERTEX
  8
PLAN_1
  6
CONTINUOUS
 10
1.943957
 20
-3.645071
  0
VERTEX
  8
PLAN_1
  6
CONTINUOUS
 10
1.943476
 20
-3.650315
  0
VERTEX
  8
PLAN_1
  6
CONTINUOUS
 10
1.942524
 20
-3.655563
  0
VERTEX
  8
PLAN_1
  6
CONTINUOUS
 10
1.941094
 20
-3.660807
  0
VERTEX
  8
PLAN_1
  6
CONTINUOUS
 10
1.939185
 20
-3.666055
  0
VERTEX
  8
PLAN_1
  6
CONTINUOUS
 10
1.937280
 20
-3.670823
  0
VERTEX
  8
PLAN_1
  6
CONTINUOUS
 10
1.934417
 20
-3.675591
  0
VERTEX
  8
PLAN_1
  6
CONTINUOUS
 10
1.931079
 20
-3.679886
  0
VERTEX
  8
PLAN_1
  6
CONTINUOUS
 10
1.927264
 20
-3.683701
  0
VERTEX
  8
PLAN_1
  6
CONTINUOUS
 10
1.922972
 20
-3.687516
  0
VERTEX
  8
PLAN_1
  6
CONTINUOUS
 10
1.918201
 20
-3.690854
  0
VERTEX
  8
PLAN_1
  6
CONTINUOUS
 10
1.912957
 20
-3.693717
  0
VERTEX
  8
PLAN_1
  6
CONTINUOUS
 10
1.906756
 20
-3.696098
  0
VERTEX
  8
PLAN_1
  6
CONTINUOUS
 10
1.900079
 20
-3.697531
  0
VERTEX
  8
PLAN_1
  6
CONTINUOUS
 10
1.892925
 20
-3.698484
  0
VERTEX
  8
PLAN_1
  6
CONTINUOUS
 10
1.885295
 20
-3.698961
  0
VERTEX
  8
PLAN_1
  6
CONTINUOUS
 10
1.822343
 20
-3.698961
  0
VERTEX
  8
PLAN_1
  6
CONTINUOUS
 10
1.822343
 20
-3.782898
  0
SEQEND
  8
0
  0
POLYLINE
  8
PLAN_1
  6
CONTINUOUS
 66
     1
 40
0.003000
 41
0.003000
  0
VERTEX
  8
PLAN_1
  6
CONTINUOUS
 10
1.822343
 20
-3.676071
  0
VERTEX
  8
PLAN_1
  6
CONTINUOUS
 10
1.876232
 20
-3.676071
  0
VERTEX
  8
PLAN_1
  6
CONTINUOUS
 10
1.880524
 20
-3.675591
  0
VERTEX
  8
PLAN_1
  6
CONTINUOUS
 10
1.884819
 20
-3.675591
  0
VERTEX
  8
PLAN_1
  6
CONTINUOUS
 10
1.888634
 20
-3.675114
  0
VERTEX
  8
PLAN_1
  6
CONTINUOUS
 10
1.892449
 20
-3.674161
  0
VERTEX
  8
PLAN_1
  6
CONTINUOUS
 10
1.896264
 20
-3.673209
  0
VERTEX
  8
PLAN_1
  6
CONTINUOUS
 10
1.899602
 20
-3.671776
  0
VERTEX
  8
PLAN_1
  6
CONTINUOUS
 10
1.902465
 20
-3.669870
  0
VERTEX
  8
PLAN_1
  6
CONTINUOUS
 10
1.905323
 20
-3.667961
  0
VERTEX
  8
PLAN_1
  6
CONTINUOUS
 10
1.907709
 20
-3.666055
  0
VERTEX
  8
PLAN_1
  6
CONTINUOUS
 10
1.910094
 20
-3.663193
  0
VERTEX
  8
PLAN_1
  6
CONTINUOUS
 10
1.912000
 20
-3.660331
  0
VERTEX
  8
PLAN_1
  6
CONTINUOUS
 10
1.913433
 20
-3.656992
  0
VERTEX
  8
PLAN_1
  6
CONTINUOUS
 10
1.914862
 20
-3.653177
  0
VERTEX
  8
PLAN_1
  6
CONTINUOUS
 10
1.915815
 20
-3.649362
  0
VERTEX
  8
PLAN_1
  6
CONTINUOUS
 10
1.916295
 20
-3.645071
  0
VERTEX
  8
PLAN_1
  6
CONTINUOUS
 10
1.916772
 20
-3.640299
  0
VERTEX
  8
PLAN_1
  6
CONTINUOUS
 10
1.916295
 20
-3.635531
  0
VERTEX
  8
PLAN_1
  6
CONTINUOUS
 10
1.915815
 20
-3.631240
  0
VERTEX
  8
PLAN_1
  6
CONTINUOUS
 10
1.914862
 20
-3.627425
  0
VERTEX
  8
PLAN_1
  6
CONTINUOUS
 10
1.913433
 20
-3.624087
  0
VERTEX
  8
PLAN_1
  6
CONTINUOUS
 10
1.912000
 20
-3.621224
  0
VERTEX
  8
PLAN_1
  6
CONTINUOUS
 10
1.910094
 20
-3.618362
  0
VERTEX
  8
PLAN_1
  6
CONTINUOUS
 10
1.907709
 20
-3.615976
  0
VERTEX
  8
PLAN_1
  6
CONTINUOUS
 10
1.905323
 20
-3.614071
  0
VERTEX
  8
PLAN_1
  6
CONTINUOUS
 10
1.902465
 20
-3.612161
  0
VERTEX
  8
PLAN_1
  6
CONTINUOUS
 10
1.899602
 20
-3.610732
  0
VERTEX
  8
PLAN_1
  6
CONTINUOUS
 10
1.896264
 20
-3.609299
  0
VERTEX
  8
PLAN_1
  6
CONTINUOUS
 10
1.892925
 20
-3.608346
  0
VERTEX
  8
PLAN_1
  6
CONTINUOUS
 10
1.885295
 20
-3.607394
  0
VERTEX
  8
PLAN_1
  6
CONTINUOUS
 10
1.877185
 20
-3.606917
  0
VERTEX
  8
PLAN_1
  6
CONTINUOUS
 10
1.822343
 20
-3.606917
  0
VERTEX
  8
PLAN_1
  6
CONTINUOUS
 10
1.822343
 20
-3.676071
  0
SEQEND
  8
0
  0
POLYLINE
  8
PLAN_1
  6
CONTINUOUS
 66
     1
 40
0.003000
 41
0.003000
  0
VERTEX
  8
PLAN_1
  6
CONTINUOUS
 10
2.098000
 20
-3.642209
  0
VERTEX
  8
PLAN_1
  6
CONTINUOUS
 10
2.097524
 20
-3.636484
  0
VERTEX
  8
PLAN_1
  6
CONTINUOUS
 10
2.096571
 20
-3.631240
  0
VERTEX
  8
PLAN_1
  6
CONTINUOUS
 10
2.095138
 20
-3.626945
  0
VERTEX
  8
PLAN_1
  6
CONTINUOUS
 10
2.093232
 20
-3.622654
  0
VERTEX
  8
PLAN_1
  6
CONTINUOUS
 10
2.090846
 20
-3.618839
  0
VERTEX
  8
PLAN_1
  6
CONTINUOUS
 10
2.087984
 20
-3.615500
  0
VERTEX
  8
PLAN_1
  6
CONTINUOUS
 10
2.084646
 20
-3.612638
  0
VERTEX
  8
PLAN_1
  6
CONTINUOUS
 10
2.081307
 20
-3.610256
  0
VERTEX
  8
PLAN_1
  6
CONTINUOUS
 10
2.077969
 20
-3.607870
  0
VERTEX
  8
PLAN_1
  6
CONTINUOUS
 10
2.074154
 20
-3.606437
  0
VERTEX
  8
PLAN_1
  6
CONTINUOUS
 10
2.069862
 20
-3.604531
  0
VERTEX
  8
PLAN_1
  6
CONTINUOUS
 10
2.065571
 20
-3.603579
  0
VERTEX
  8
PLAN_1
  6
CONTINUOUS
 10
2.061756
 20
-3.602622
  0
VERTEX
  8
PLAN_1
  6
CONTINUOUS
 10
2.057461
 20
-3.602146
  0
VERTEX
  8
PLAN_1
  6
CONTINUOUS
 10
2.053169
 20
-3.601669
  0
VERTEX
  8
PLAN_1
  6
CONTINUOUS
 10
2.048878
 20
-3.601669
  0
VERTEX
  8
PLAN_1
  6
CONTINUOUS
 10
2.042201
 20
-3.601669
  0
VERTEX
  8
PLAN_1
  6
CONTINUOUS
 10
2.034571
 20
-3.602622
  0
VERTEX
  8
PLAN_1
  6
CONTINUOUS
 10
2.030756
 20
-3.603579
  0
VERTEX
  8
PLAN_1
  6
CONTINUOUS
 10
2.026941
 20
-3.604531
  0
VERTEX
  8
PLAN_1
  6
CONTINUOUS
 10
2.023122
 20
-3.605961
  0
VERTEX
  8
PLAN_1
  6
CONTINUOUS
 10
2.019783
 20
-3.607870
  0
VERTEX
  8
PLAN_1
  6
CONTINUOUS
 10
2.016449
 20
-3.609776
  0
VERTEX
  8
PLAN_1
  6
CONTINUOUS
 10
2.013110
 20
-3.612161
  0
VERTEX
  8
PLAN_1
  6
CONTINUOUS
 10
2.010248
 20
-3.615024
  0
VERTEX
  8
PLAN_1
  6
CONTINUOUS
 10
2.007862
 20
-3.618362
  0
VERTEX
  8
PLAN_1
  6
CONTINUOUS
 10
2.005957
 20
-3.622177
  0
VERTEX
  8
PLAN_1
  6
CONTINUOUS
 10
2.004524
 20
-3.626469
  0
VERTEX
  8
PLAN_1
  6
CONTINUOUS
 10
2.003571
 20
-3.631240
  0
VERTEX
  8
PLAN_1
  6
CONTINUOUS
 10
2.003094
 20
-3.636484
  0
VERTEX
  8
PLAN_1
  6
CONTINUOUS
 10
2.003571
 20
-3.639346
  0
VERTEX
  8
PLAN_1
  6
CONTINUOUS
 10
2.003571
 20
-3.642209
  0
VERTEX
  8
PLAN_1
  6
CONTINUOUS
 10
2.004524
 20
-3.645071
  0
VERTEX
  8
PLAN_1
  6
CONTINUOUS
 10
2.005476
 20
-3.646976
  0
VERTEX
  8
PLAN_1
  6
CONTINUOUS
 10
2.006433
 20
-3.649362
  0
VERTEX
  8
PLAN_1
  6
CONTINUOUS
 10
2.007862
 20
-3.651268
  0
VERTEX
  8
PLAN_1
  6
CONTINUOUS
 10
2.009291
 20
-3.652701
  0
VERTEX
  8
PLAN_1
  6
CONTINUOUS
 10
2.010724
 20
-3.654606
  0
VERTEX
  8
PLAN_1
  6
CONTINUOUS
 10
2.014063
 20
-3.656992
  0
VERTEX
  8
PLAN_1
  6
CONTINUOUS
 10
2.018354
 20
-3.658902
  0
VERTEX
  8
PLAN_1
  6
CONTINUOUS
 10
2.022646
 20
-3.660331
  0
VERTEX
  8
PLAN_1
  6
CONTINUOUS
 10
2.026941
 20
-3.661760
  0
VERTEX
  8
PLAN_1
  6
CONTINUOUS
 10
2.083693
 20
-3.674638
  0
VERTEX
  8
PLAN_1
  6
CONTINUOUS
 10
2.088461
 20
-3.676071
  0
VERTEX
  8
PLAN_1
  6
CONTINUOUS
 10
2.093232
 20
-3.677500
  0
VERTEX
  8
PLAN_1
  6
CONTINUOUS
 10
2.097524
 20
-3.679409
  0
VERTEX
  8
PLAN_1
  6
CONTINUOUS
 10
2.101815
 20
-3.681315
  0
VERTEX
  8
PLAN_1
  6
CONTINUOUS
 10
2.105630
 20
-3.683701
  0
VERTEX
  8
PLAN_1
  6
CONTINUOUS
 10
2.109445
 20
-3.686083
  0
VERTEX
  8
PLAN_1
  6
CONTINUOUS
 10
2.112783
 20
-3.688945
  0
VERTEX
  8
PLAN_1
  6
CONTINUOUS
 10
2.116122
 20
-3.691807
  0
VERTEX
  8
PLAN_1
  6
CONTINUOUS
 10
2.118984
 20
-3.695146
  0
VERTEX
  8
PLAN_1
  6
CONTINUOUS
 10
2.121370
 20
-3.698961
  0
VERTEX
  8
PLAN_1
  6
CONTINUOUS
 10
2.123752
 20
-3.702776
  0
VERTEX
  8
PLAN_1
  6
CONTINUOUS
 10
2.125661
 20
-3.707067
  0
VERTEX
  8
PLAN_1
  6
CONTINUOUS
 10
2.127091
 20
-3.711839
  0
VERTEX
  8
PLAN_1
  6
CONTINUOUS
 10
2.128047
 20
-3.717083
  0
VERTEX
  8
PLAN_1
  6
CONTINUOUS
 10
2.129000
 20
-3.722331
  0
VERTEX
  8
PLAN_1
  6
CONTINUOUS
 10
2.129000
 20
-3.728055
  0
VERTEX
  8
PLAN_1
  6
CONTINUOUS
 10
2.129000
 20
-3.732346
  0
VERTEX
  8
PLAN_1
  6
CONTINUOUS
 10
2.128524
 20
-3.736638
  0
VERTEX
  8
PLAN_1
  6
CONTINUOUS
 10
2.128047
 20
-3.740453
  0
VERTEX
  8
PLAN_1
  6
CONTINUOUS
 10
2.127091
 20
-3.744268
  0
VERTEX
  8
PLAN_1
  6
CONTINUOUS
 10
2.126138
 20
-3.747606
  0
VERTEX
  8
PLAN_1
  6
CONTINUOUS
 10
2.124709
 20
-3.750945
  0
VERTEX
  8
PLAN_1
  6
CONTINUOUS
 10
2.123276
 20
-3.754283
  0
VERTEX
  8
PLAN_1
  6
CONTINUOUS
 10
2.121846
 20
-3.757622
  0
VERTEX
  8
PLAN_1
  6
CONTINUOUS
 10
2.117555
 20
-3.762870
  0
VERTEX
  8
PLAN_1
  6
CONTINUOUS
 10
2.113260
 20
-3.767638
  0
VERTEX
  8
PLAN_1
  6
CONTINUOUS
 10
2.108492
 20
-3.772406
  0
VERTEX
  8
PLAN_1
  6
CONTINUOUS
 10
2.102768
 20
-3.775744
  0
VERTEX
  8
PLAN_1
  6
CONTINUOUS
 10
2.097047
 20
-3.779083
  0
VERTEX
  8
PLAN_1
  6
CONTINUOUS
 10
2.090846
 20
-3.781469
  0
VERTEX
  8
PLAN_1
  6
CONTINUOUS
 10
2.084169
 20
-3.783854
  0
VERTEX
  8
PLAN_1
  6
CONTINUOUS
 10
2.077492
 20
-3.785760
  0
VERTEX
  8
PLAN_1
  6
CONTINUOUS
 10
2.070815
 20
-3.786713
  0
VERTEX
  8
PLAN_1
  6
CONTINUOUS
 10
2.064138
 20
-3.787669
  0
VERTEX
  8
PLAN_1
  6
CONTINUOUS
 10
2.057461
 20
-3.788146
  0
VERTEX
  8
PLAN_1
  6
CONTINUOUS
 10
2.050783
 20
-3.788146
  0
VERTEX
  8
PLAN_1
  6
CONTINUOUS
 10
2.044110
 20
-3.788146
  0
VERTEX
  8
PLAN_1
  6
CONTINUOUS
 10
2.038386
 20
-3.787669
  0
VERTEX
  8
PLAN_1
  6
CONTINUOUS
 10
2.032661
 20
-3.787193
  0
VERTEX
  8
PLAN_1
  6
CONTINUOUS
 10
2.027417
 20
-3.786236
  0
VERTEX
  8
PLAN_1
  6
CONTINUOUS
 10
2.017878
 20
-3.784331
  0
VERTEX
  8
PLAN_1
  6
CONTINUOUS
 10
2.010248
 20
-3.781945
  0
VERTEX
  8
PLAN_1
  6
CONTINUOUS
 10
2.004047
 20
-3.778606
  0
VERTEX
  8
PLAN_1
  6
CONTINUOUS
 10
1.998799
 20
-3.775744
  0
VERTEX
  8
PLAN_1
  6
CONTINUOUS
 10
1.994508
 20
-3.772406
  0
VERTEX
  8
PLAN_1
  6
CONTINUOUS
 10
1.990693
 20
-3.769067
  0
VERTEX
  8
PLAN_1
  6
CONTINUOUS
 10
1.987831
 20
-3.766209
  0
VERTEX
  8
PLAN_1
  6
CONTINUOUS
 10
1.984969
 20
-3.763346
  0
VERTEX
  8
PLAN_1
  6
CONTINUOUS
 10
1.982587
 20
-3.760484
  0
VERTEX
  8
PLAN_1
  6
CONTINUOUS
 10
1.980677
 20
-3.757622
  0
VERTEX
  8
PLAN_1
  6
CONTINUOUS
 10
1.976862
 20
-3.751421
  0
VERTEX
  8
PLAN_1
  6
CONTINUOUS
 10
1.974476
 20
-3.745220
  0
VERTEX
  8
PLAN_1
  6
CONTINUOUS
 10
1.972571
 20
-3.738547
  0
VERTEX
  8
PLAN_1
  6
CONTINUOUS
 10
1.971138
 20
-3.732346
  0
VERTEX
  8
PLAN_1
  6
CONTINUOUS
 10
1.970661
 20
-3.725669
  0
VERTEX
  8
PLAN_1
  6
CONTINUOUS
 10
1.970661
 20
-3.718516
  0
VERTEX
  8
PLAN_1
  6
CONTINUOUS
 10
1.995941
 20
-3.718516
  0
VERTEX
  8
PLAN_1
  6
CONTINUOUS
 10
1.995941
 20
-3.725193
  0
VERTEX
  8
PLAN_1
  6
CONTINUOUS
 10
1.996894
 20
-3.730913
  0
VERTEX
  8
PLAN_1
  6
CONTINUOUS
 10
1.998799
 20
-3.736161
  0
VERTEX
  8
PLAN_1
  6
CONTINUOUS
 10
2.000709
 20
-3.740929
  0
VERTEX
  8
PLAN_1
  6
CONTINUOUS
 10
2.003571
 20
-3.745220
  0
VERTEX
  8
PLAN_1
  6
CONTINUOUS
 10
2.006433
 20
-3.749039
  0
VERTEX
  8
PLAN_1
  6
CONTINUOUS
 10
2.009772
 20
-3.752378
  0
VERTEX
  8
PLAN_1
  6
CONTINUOUS
 10
2.013587
 20
-3.755717
  0
VERTEX
  8
PLAN_1
  6
CONTINUOUS
 10
2.017878
 20
-3.758098
  0
VERTEX
  8
PLAN_1
  6
CONTINUOUS
 10
2.022169
 20
-3.760008
  0
VERTEX
  8
PLAN_1
  6
CONTINUOUS
 10
2.026461
 20
-3.761913
  0
VERTEX
  8
PLAN_1
  6
CONTINUOUS
 10
2.031232
 20
-3.762870
  0
VERTEX
  8
PLAN_1
  6
CONTINUOUS
 10
2.036000
 20
-3.763823
  0
VERTEX
  8
PLAN_1
  6
CONTINUOUS
 10
2.041248
 20
-3.764776
  0
VERTEX
  8
PLAN_1
  6
CONTINUOUS
 10
2.046016
 20
-3.765252
  0
VERTEX
  8
PLAN_1
  6
CONTINUOUS
 10
2.050783
 20
-3.765252
  0
VERTEX
  8
PLAN_1
  6
CONTINUOUS
 10
2.058417
 20
-3.764776
  0
VERTEX
  8
PLAN_1
  6
CONTINUOUS
 10
2.067000
 20
-3.763823
  0
VERTEX
  8
PLAN_1
  6
CONTINUOUS
 10
2.071291
 20
-3.763346
  0
VERTEX
  8
PLAN_1
  6
CONTINUOUS
 10
2.075587
 20
-3.762390
  0
VERTEX
  8
PLAN_1
  6
CONTINUOUS
 10
2.079878
 20
-3.760961
  0
VERTEX
  8
PLAN_1
  6
CONTINUOUS
 10
2.084169
 20
-3.759051
  0
VERTEX
  8
PLAN_1
  6
CONTINUOUS
 10
2.087984
 20
-3.757146
  0
VERTEX
  8
PLAN_1
  6
CONTINUOUS
 10
2.091323
 20
-3.754760
  0
VERTEX
  8
PLAN_1
  6
CONTINUOUS
 10
2.094661
 20
-3.752378
  0
VERTEX
  8
PLAN_1
  6
CONTINUOUS
 10
2.097524
 20
-3.749039
  0
VERTEX
  8
PLAN_1
  6
CONTINUOUS
 10
2.099909
 20
-3.745220
  0
VERTEX
  8
PLAN_1
  6
CONTINUOUS
 10
2.101339
 20
-3.741406
  0
VERTEX
  8
PLAN_1
  6
CONTINUOUS
 10
2.102768
 20
-3.736638
  0
VERTEX
  8
PLAN_1
  6
CONTINUOUS
 10
2.102768
 20
-3.731870
  0
VERTEX
  8
PLAN_1
  6
CONTINUOUS
 10
2.102768
 20
-3.728055
  0
VERTEX
  8
PLAN_1
  6
CONTINUOUS
 10
2.102291
 20
-3.724717
  0
VERTEX
  8
PLAN_1
  6
CONTINUOUS
 10
2.101815
 20
-3.721378
  0
VERTEX
  8
PLAN_1
  6
CONTINUOUS
 10
2.100862
 20
-3.718516
  0
VERTEX
  8
PLAN_1
  6
CONTINUOUS
 10
2.099429
 20
-3.715654
  0
VERTEX
  8
PLAN_1
  6
CONTINUOUS
 10
2.098000
 20
-3.713268
  0
VERTEX
  8
PLAN_1
  6
CONTINUOUS
 10
2.096094
 20
-3.711362
  0
VERTEX
  8
PLAN_1
  6
CONTINUOUS
 10
2.094185
 20
-3.708976
  0
VERTEX
  8
PLAN_1
  6
CONTINUOUS
 10
2.091323
 20
-3.707067
  0
VERTEX
  8
PLAN_1
  6
CONTINUOUS
 10
2.088461
 20
-3.705638
  0
VERTEX
  8
PLAN_1
  6
CONTINUOUS
 10
2.084646
 20
-3.703732
  0
VERTEX
  8
PLAN_1
  6
CONTINUOUS
 10
2.080831
 20
-3.702299
  0
VERTEX
  8
PLAN_1
  6
CONTINUOUS
 10
2.071768
 20
-3.699437
  0
VERTEX
  8
PLAN_1
  6
CONTINUOUS
 10
2.060323
 20
-3.696575
  0
VERTEX
  8
PLAN_1
  6
CONTINUOUS
 10
2.019783
 20
-3.687039
  0
VERTEX
  8
PLAN_1
  6
CONTINUOUS
 10
2.014063
 20
-3.685606
  0
VERTEX
  8
PLAN_1
  6
CONTINUOUS
 10
2.007386
 20
-3.683224
  0
VERTEX
  8
PLAN_1
  6
CONTINUOUS
 10
2.004047
 20
-3.681791
  0
VERTEX
  8
PLAN_1
  6
CONTINUOUS
 10
2.000709
 20
-3.679886
  0
VERTEX
  8
PLAN_1
  6
CONTINUOUS
 10
1.996894
 20
-3.677976
  0
VERTEX
  8
PLAN_1
  6
CONTINUOUS
 10
1.993555
 20
-3.675591
  0
VERTEX
  8
PLAN_1
  6
CONTINUOUS
 10
1.990217
 20
-3.672732
  0
VERTEX
  8
PLAN_1
  6
CONTINUOUS
 10
1.987354
 20
-3.669394
  0
VERTEX
  8
PLAN_1
  6
CONTINUOUS
 10
1.984492
 20
-3.665579
  0
VERTEX
  8
PLAN_1
  6
CONTINUOUS
 10
1.982110
 20
-3.661760
  0
VERTEX
  8
PLAN_1
  6
CONTINUOUS
 10
1.980201
 20
-3.656992
  0
VERTEX
  8
PLAN_1
  6
CONTINUOUS
 10
1.978295
 20
-3.651748
  0
VERTEX
  8
PLAN_1
  6
CONTINUOUS
 10
1.977339
 20
-3.646500
  0
VERTEX
  8
PLAN_1
  6
CONTINUOUS
 10
1.977339
 20
-3.640299
  0
VERTEX
  8
PLAN_1
  6
CONTINUOUS
 10
1.977339
 20
-3.634098
  0
VERTEX
  8
PLAN_1
  6
CONTINUOUS
 10
1.978295
 20
-3.628378
  0
VERTEX
  8
PLAN_1
  6
CONTINUOUS
 10
1.979248
 20
-3.622654
  0
VERTEX
  8
PLAN_1
  6
CONTINUOUS
 10
1.981154
 20
-3.617409
  0
VERTEX
  8
PLAN_1
  6
CONTINUOUS
 10
1.983539
 20
-3.612161
  0
VERTEX
  8
PLAN_1
  6
CONTINUOUS
 10
1.985925
 20
-3.606917
  0
VERTEX
  8
PLAN_1
  6
CONTINUOUS
 10
1.989264
 20
-3.602146
  0
VERTEX
  8
PLAN_1
  6
CONTINUOUS
 10
1.993555
 20
-3.597854
  0
VERTEX
  8
PLAN_1
  6
CONTINUOUS
 10
1.997846
 20
-3.593563
  0
VERTEX
  8
PLAN_1
  6
CONTINUOUS
 10
2.002618
 20
-3.589748
  0
VERTEX
  8
PLAN_1
  6
CONTINUOUS
 10
2.008339
 20
-3.586409
  0
VERTEX
  8
PLAN_1
  6
CONTINUOUS
 10
2.014539
 20
-3.583547
  0
VERTEX
  8
PLAN_1
  6
CONTINUOUS
 10
2.021693
 20
-3.581638
  0
VERTEX
  8
PLAN_1
  6
CONTINUOUS
 10
2.028846
 20
-3.579732
  0
VERTEX
  8
PLAN_1
  6
CONTINUOUS
 10
2.036953
 20
-3.578776
  0
VERTEX
  8
PLAN_1
  6
CONTINUOUS
 10
2.045539
 20
-3.578299
  0
VERTEX
  8
PLAN_1
  6
CONTINUOUS
 10
2.052217
 20
-3.578776
  0
VERTEX
  8
PLAN_1
  6
CONTINUOUS
 10
2.057937
 20
-3.578776
  0
VERTEX
  8
PLAN_1
  6
CONTINUOUS
 10
2.063661
 20
-3.579732
  0
VERTEX
  8
PLAN_1
  6
CONTINUOUS
 10
2.068909
 20
-3.580209
  0
VERTEX
  8
PLAN_1
  6
CONTINUOUS
 10
2.074154
 20
-3.581161
  0
VERTEX
  8
PLAN_1
  6
CONTINUOUS
 10
2.078445
 20
-3.582594
  0
VERTEX
  8
PLAN_1
  6
CONTINUOUS
 10
2.083217
 20
-3.584024
  0
VERTEX
  8
PLAN_1
  6
CONTINUOUS
 10
2.087031
 20
-3.585453
  0
VERTEX
  8
PLAN_1
  6
CONTINUOUS
 10
2.090846
 20
-3.586886
  0
VERTEX
  8
PLAN_1
  6
CONTINUOUS
 10
2.094185
 20
-3.588791
  0
VERTEX
  8
PLAN_1
  6
CONTINUOUS
 10
2.097524
 20
-3.590701
  0
VERTEX
  8
PLAN_1
  6
CONTINUOUS
 10
2.100862
 20
-3.592606
  0
VERTEX
  8
PLAN_1
  6
CONTINUOUS
 10
2.106106
 20
-3.597378
  0
VERTEX
  8
PLAN_1
  6
CONTINUOUS
 10
2.110402
 20
-3.602146
  0
VERTEX
  8
PLAN_1
  6
CONTINUOUS
 10
2.113740
 20
-3.606917
  0
VERTEX
  8
PLAN_1
  6
CONTINUOUS
 10
2.116598
 20
-3.612161
  0
VERTEX
  8
PLAN_1
  6
CONTINUOUS
 10
2.118984
 20
-3.617409
  0
VERTEX
  8
PLAN_1
  6
CONTINUOUS
 10
2.120417
 20
-3.622654
  0
VERTEX
  8
PLAN_1
  6
CONTINUOUS
 10
2.121846
 20
-3.627902
  0
VERTEX
  8
PLAN_1
  6
CONTINUOUS
 10
2.122799
 20
-3.633146
  0
VERTEX
  8
PLAN_1
  6
CONTINUOUS
 10
2.123276
 20
-3.637917
  0
VERTEX
  8
PLAN_1
  6
CONTINUOUS
 10
2.123276
 20
-3.642209
  0
VERTEX
  8
PLAN_1
  6
CONTINUOUS
 10
2.098000
 20
-3.642209
  0
SEQEND
  8
0
  0
POLYLINE
  8
PLAN_1
  6
CONTINUOUS
 66
     1
 40
0.008106
 41
0.008106
  0
VERTEX
  8
PLAN_1
  6
CONTINUOUS
 10
-1.093547
 20
-0.476894
  0
VERTEX
  8
PLAN_1
  6
CONTINUOUS
 10
-1.093547
 20
0.321472
  0
VERTEX
  8
PLAN_1
  6
CONTINUOUS
 10
-0.991484
 20
0.321472
  0
VERTEX
  8
PLAN_1
  6
CONTINUOUS
 10
-0.991484
 20
-0.476894
  0
VERTEX
  8
PLAN_1
  6
CONTINUOUS
 10
-1.093547
 20
-0.476894
  0
SEQEND
  8
0
  0
POLYLINE
  8
PLAN_1
  6
CONTINUOUS
 66
     1
 40
0.008106
 41
0.008106
  0
VERTEX
  8
PLAN_1
  6
CONTINUOUS
 10
-1.862339
 20
-0.214110
  0
VERTEX
  8
PLAN_1
  6
CONTINUOUS
 10
-1.870449
 20
-0.205524
  0
VERTEX
  8
PLAN_1
  6
CONTINUOUS
 10
-1.870449
 20
0.022921
  0
VERTEX
  8
PLAN_1
  6
CONTINUOUS
 10
-1.862339
 20
0.032457
  0
VERTEX
  8
PLAN_1
  6
CONTINUOUS
 10
-1.755988
 20
0.032457
  0
VERTEX
  8
PLAN_1
  6
CONTINUOUS
 10
-1.755988
 20
-0.214110
  0
VERTEX
  8
PLAN_1
  6
CONTINUOUS
 10
-1.862339
 20
-0.214110
  0
SEQEND
  8
0
  0
POLYLINE
  8
PLAN_1
  6
CONTINUOUS
 66
     1
 40
0.008106
 41
0.008106
  0
VERTEX
  8
PLAN_1
  6
CONTINUOUS
 10
-1.334866
 20
-0.447323
  0
VERTEX
  8
PLAN_1
  6
CONTINUOUS
 10
-1.334866
 20
0.282843
  0
VERTEX
  8
PLAN_1
  6
CONTINUOUS
 10
-1.090685
 20
0.321472
  0
VERTEX
  8
PLAN_1
  6
CONTINUOUS
 10
-1.090685
 20
-0.476894
  0
VERTEX
  8
PLAN_1
  6
CONTINUOUS
 10
-1.334866
 20
-0.447323
  0
SEQEND
  8
0
  0
POLYLINE
  8
PLAN_1
  6
CONTINUOUS
 66
     1
 40
0.008106
 41
0.008106
  0
VERTEX
  8
PLAN_1
  6
CONTINUOUS
 10
-1.653449
 20
-0.306154
  0
VERTEX
  8
PLAN_1
  6
CONTINUOUS
 10
-1.653449
 20
0.127366
  0
VERTEX
  8
PLAN_1
  6
CONTINUOUS
 10
-1.755988
 20
0.127366
  0
VERTEX
  8
PLAN_1
  6
CONTINUOUS
 10
-1.755988
 20
-0.306154
  0
VERTEX
  8
PLAN_1
  6
CONTINUOUS
 10
-1.653449
 20
-0.306154
  0
SEQEND
  8
0
  0
POLYLINE
  8
PLAN_1
  6
CONTINUOUS
 66
     1
 40
0.004291
 41
0.004291
  0
VERTEX
  8
PLAN_1
  6
CONTINUOUS
 10
-1.743587
 20
0.126890
  0
VERTEX
  8
PLAN_1
  6
CONTINUOUS
 10
-1.745020
 20
0.124504
  0
VERTEX
  8
PLAN_1
  6
CONTINUOUS
 10
-1.747878
 20
0.117350
  0
VERTEX
  8
PLAN_1
  6
CONTINUOUS
 10
-1.749311
 20
0.112579
  0
VERTEX
  8
PLAN_1
  6
CONTINUOUS
 10
-1.751217
 20
0.106382
  0
VERTEX
  8
PLAN_1
  6
CONTINUOUS
 10
-1.753126
 20
0.099705
  0
VERTEX
  8
PLAN_1
  6
CONTINUOUS
 10
-1.754555
 20
0.092075
  0
VERTEX
  8
PLAN_1
  6
CONTINUOUS
 10
-1.755512
 20
0.083965
  0
VERTEX
  8
PLAN_1
  6
CONTINUOUS
 10
-1.755988
 20
0.075382
  0
VERTEX
  8
PLAN_1
  6
CONTINUOUS
 10
-1.755988
 20
0.066319
  0
VERTEX
  8
PLAN_1
  6
CONTINUOUS
 10
-1.755035
 20
0.056780
  0
VERTEX
  8
PLAN_1
  6
CONTINUOUS
 10
-1.754555
 20
0.051535
  0
VERTEX
  8
PLAN_1
  6
CONTINUOUS
 10
-1.753126
 20
0.046764
  0
VERTEX
  8
PLAN_1
  6
CONTINUOUS
 10
-1.752173
 20
0.041996
  0
VERTEX
  8
PLAN_1
  6
CONTINUOUS
 10
-1.750740
 20
0.036752
  0
VERTEX
  8
PLAN_1
  6
CONTINUOUS
 10
-1.748835
 20
0.031504
  0
VERTEX
  8
PLAN_1
  6
CONTINUOUS
 10
-1.746449
 20
0.026736
  0
VERTEX
  8
PLAN_1
  6
CONTINUOUS
 10
-1.744063
 20
0.021488
  0
VERTEX
  8
PLAN_1
  6
CONTINUOUS
 10
-1.741205
 20
0.016244
  0
VERTEX
  8
PLAN_1
  6
CONTINUOUS
 10
-1.742634
 20
0.012429
  0
VERTEX
  8
PLAN_1
  6
CONTINUOUS
 10
-1.745972
 20
0.000980
  0
VERTEX
  8
PLAN_1
  6
CONTINUOUS
 10
-1.747878
 20
-0.007602
  0
VERTEX
  8
PLAN_1
  6
CONTINUOUS
 10
-1.749787
 20
-0.017618
  0
VERTEX
  8
PLAN_1
  6
CONTINUOUS
 10
-1.751697
 20
-0.029063
  0
VERTEX
  8
PLAN_1
  6
CONTINUOUS
 10
-1.753602
 20
-0.042417
  0
VERTEX
  8
PLAN_1
  6
CONTINUOUS
 10
-1.755035
 20
-0.056724
  0
VERTEX
  8
PLAN_1
  6
CONTINUOUS
 10
-1.755988
 20
-0.072941
  0
VERTEX
  8
PLAN_1
  6
CONTINUOUS
 10
-1.755988
 20
-0.090587
  0
VERTEX
  8
PLAN_1
  6
CONTINUOUS
 10
-1.755512
 20
-0.109189
  0
VERTEX
  8
PLAN_1
  6
CONTINUOUS
 10
-1.754555
 20
-0.129217
  0
VERTEX
  8
PLAN_1
  6
CONTINUOUS
 10
-1.752173
 20
-0.150677
  0
VERTEX
  8
PLAN_1
  6
CONTINUOUS
 10
-1.750740
 20
-0.161650
  0
VERTEX
  8
PLAN_1
  6
CONTINUOUS
 10
-1.748835
 20
-0.172618
  0
VERTEX
  8
PLAN_1
  6
CONTINUOUS
 10
-1.746449
 20
-0.184063
  0
VERTEX
  8
PLAN_1
  6
CONTINUOUS
 10
-1.744063
 20
-0.195988
  0
VERTEX
  8
PLAN_1
  6
CONTINUOUS
 10
-1.745496
 20
-0.198370
  0
VERTEX
  8
PLAN_1
  6
CONTINUOUS
 10
-1.748358
 20
-0.205524
  0
VERTEX
  8
PLAN_1
  6
CONTINUOUS
 10
-1.749787
 20
-0.210295
  0
VERTEX
  8
PLAN_1
  6
CONTINUOUS
 10
-1.751697
 20
-0.216016
  0
VERTEX
  8
PLAN_1
  6
CONTINUOUS
 10
-1.753126
 20
-0.222693
  0
VERTEX
  8
PLAN_1
  6
CONTINUOUS
 10
-1.754555
 20
-0.230323
  0
VERTEX
  8
PLAN_1
  6
CONTINUOUS
 10
-1.755988
 20
-0.237957
  0
VERTEX
  8
PLAN_1
  6
CONTINUOUS
 10
-1.756465
 20
-0.246539
  0
VERTEX
  8
PLAN_1
  6
CONTINUOUS
 10
-1.756465
 20
-0.255602
  0
VERTEX
  8
PLAN_1
  6
CONTINUOUS
 10
-1.755512
 20
-0.265142
  0
VERTEX
  8
PLAN_1
  6
CONTINUOUS
 10
-1.754555
 20
-0.269909
  0
VERTEX
  8
PLAN_1
  6
CONTINUOUS
 10
-1.753602
 20
-0.274677
  0
VERTEX
  8
PLAN_1
  6
CONTINUOUS
 10
-1.752650
 20
-0.279925
  0
VERTEX
  8
PLAN_1
  6
CONTINUOUS
 10
-1.750740
 20
-0.284693
  0
VERTEX
  8
PLAN_1
  6
CONTINUOUS
 10
-1.749311
 20
-0.289941
  0
VERTEX
  8
PLAN_1
  6
CONTINUOUS
 10
-1.746925
 20
-0.295185
  0
VERTEX
  8
PLAN_1
  6
CONTINUOUS
 10
-1.744539
 20
-0.299957
  0
VERTEX
  8
PLAN_1
  6
CONTINUOUS
 10
-1.741681
 20
-0.305201
  0
SEQEND
  8
0
  0
POLYLINE
  8
PLAN_1
  6
CONTINUOUS
 66
     1
 40
0.004291
 41
0.004291
  0
VERTEX
  8
PLAN_1
  6
CONTINUOUS
 10
-1.862339
 20
0.032457
  0
VERTEX
  8
PLAN_1
  6
CONTINUOUS
 10
-1.862339
 20
-0.214110
  0
SEQEND
  8
0
  0
POLYLINE
  8
PLAN_1
  6
CONTINUOUS
 66
     1
 40
0.008106
 41
0.008106
  0
VERTEX
  8
PLAN_1
  6
CONTINUOUS
 10
-1.507512
 20
-0.517429
  0
VERTEX
  8
PLAN_1
  6
CONTINUOUS
 10
-1.440744
 20
-0.518386
  0
VERTEX
  8
PLAN_1
  6
CONTINUOUS
 10
-1.441697
 20
0.336732
  0
SEQEND
  8
0
  0
POLYLINE
  8
PLAN_1
  6
CONTINUOUS
 66
     1
 40
0.008106
 41
0.008106
  0
VERTEX
  8
PLAN_1
  6
CONTINUOUS
 10
-1.441697
 20
0.336732
  0
VERTEX
  8
PLAN_1
  6
CONTINUOUS
 10
-1.445988
 20
0.336732
  0
VERTEX
  8
PLAN_1
  6
CONTINUOUS
 10
-1.454575
 20
0.336732
  0
VERTEX
  8
PLAN_1
  6
CONTINUOUS
 10
-1.465543
 20
0.336732
  0
VERTEX
  8
PLAN_1
  6
CONTINUOUS
 10
-1.477465
 20
0.336732
  0
VERTEX
  8
PLAN_1
  6
CONTINUOUS
 10
-1.489390
 20
0.336732
  0
VERTEX
  8
PLAN_1
  6
CONTINUOUS
 10
-1.499406
 20
0.336732
  0
VERTEX
  8
PLAN_1
  6
CONTINUOUS
 10
-1.506559
 20
0.336732
  0
VERTEX
  8
PLAN_1
  6
CONTINUOUS
 10
-1.508945
 20
0.336732
  0
SEQEND
  8
0
  0
POLYLINE
  8
PLAN_1
  6
CONTINUOUS
 66
     1
 40
0.008106
 41
0.008106
  0
VERTEX
  8
PLAN_1
  6
CONTINUOUS
 10
-1.508945
 20
0.336732
  0
VERTEX
  8
PLAN_1
  6
CONTINUOUS
 10
-1.508945
 20
-0.518386
  0
SEQEND
  8
0
  0
POLYLINE
  8
PLAN_1
  6
CONTINUOUS
 66
     1
 40
0.008106
 41
0.008106
  0
VERTEX
  8
PLAN_1
  6
CONTINUOUS
 10
-1.334866
 20
-0.425862
  0
VERTEX
  8
PLAN_1
  6
CONTINUOUS
 10
-1.334866
 20
0.244209
  0
VERTEX
  8
PLAN_1
  6
CONTINUOUS
 10
-1.440744
 20
0.244209
  0
VERTEX
  8
PLAN_1
  6
CONTINUOUS
 10
-1.440744
 20
-0.425862
  0
VERTEX
  8
PLAN_1
  6
CONTINUOUS
 10
-1.334866
 20
-0.425862
  0
SEQEND
  8
0
  0
POLYLINE
  8
PLAN_1
  6
CONTINUOUS
 66
     1
 40
0.008106
 41
0.008106
  0
VERTEX
  8
PLAN_1
  6
CONTINUOUS
 10
-1.652496
 20
-0.439693
  0
VERTEX
  8
PLAN_1
  6
CONTINUOUS
 10
-1.652496
 20
0.258039
  0
VERTEX
  8
PLAN_1
  6
CONTINUOUS
 10
-1.577618
 20
0.258039
  0
VERTEX
  8
PLAN_1
  6
CONTINUOUS
 10
-1.577618
 20
-0.439693
  0
VERTEX
  8
PLAN_1
  6
CONTINUOUS
 10
-1.652496
 20
-0.439693
  0
SEQEND
  8
0
  0
POLYLINE
  8
PLAN_1
  6
CONTINUOUS
 66
     1
 40
0.008106
 41
0.008106
  0
VERTEX
  8
PLAN_1
  6
CONTINUOUS
 10
-1.517051
 20
0.366780
  0
VERTEX
  8
PLAN_1
  6
CONTINUOUS
 10
-1.520390
 20
0.372500
  0
VERTEX
  8
PLAN_1
  6
CONTINUOUS
 10
-1.524205
 20
0.378224
  0
VERTEX
  8
PLAN_1
  6
CONTINUOUS
 10
-1.528020
 20
0.383472
  0
VERTEX
  8
PLAN_1
  6
CONTINUOUS
 10
-1.532311
 20
0.389193
  0
VERTEX
  8
PLAN_1
  6
CONTINUOUS
 10
-1.537083
 20
0.394441
  0
VERTEX
  8
PLAN_1
  6
CONTINUOUS
 10
-1.541850
 20
0.399209
  0
VERTEX
  8
PLAN_1
  6
CONTINUOUS
 10
-1.547575
 20
0.403980
  0
VERTEX
  8
PLAN_1
  6
CONTINUOUS
 10
-1.553295
 20
0.408272
  0
VERTEX
  8
PLAN_1
  6
CONTINUOUS
 10
-1.559496
 20
0.412563
  0
VERTEX
  8
PLAN_1
  6
CONTINUOUS
 10
-1.566173
 20
0.415902
  0
VERTEX
  8
PLAN_1
  6
CONTINUOUS
 10
-1.573327
 20
0.419240
  0
VERTEX
  8
PLAN_1
  6
CONTINUOUS
 10
-1.580480
 20
0.422102
  0
VERTEX
  8
PLAN_1
  6
CONTINUOUS
 10
-1.588110
 20
0.424008
  0
VERTEX
  8
PLAN_1
  6
CONTINUOUS
 10
-1.596220
 20
0.425917
  0
VERTEX
  8
PLAN_1
  6
CONTINUOUS
 10
-1.604803
 20
0.426870
  0
VERTEX
  8
PLAN_1
  6
CONTINUOUS
 10
-1.613866
 20
0.427346
  0
SEQEND
  8
0
  0
POLYLINE
  8
PLAN_1
  6
CONTINUOUS
 66
     1
 40
0.008106
 41
0.008106
  0
VERTEX
  8
PLAN_1
  6
CONTINUOUS
 10
-1.613866
 20
0.427346
  0
VERTEX
  8
PLAN_1
  6
CONTINUOUS
 10
-1.947709
 20
0.427346
  0
VERTEX
  8
PLAN_1
  6
CONTINUOUS
 10
-1.947709
 20
0.364870
  0
VERTEX
  8
PLAN_1
  6
CONTINUOUS
 10
-1.741681
 20
0.364870
  0
VERTEX
  8
PLAN_1
  6
CONTINUOUS
 10
-1.636756
 20
0.364870
  0
SEQEND
  8
0
  0
POLYLINE
  8
PLAN_1
  6
CONTINUOUS
 66
     1
 40
0.008106
 41
0.008106
  0
VERTEX
  8
PLAN_1
  6
CONTINUOUS
 10
-1.636756
 20
0.364870
  0
VERTEX
  8
PLAN_1
  6
CONTINUOUS
 10
-1.630559
 20
0.364394
  0
VERTEX
  8
PLAN_1
  6
CONTINUOUS
 10
-1.625311
 20
0.363917
  0
VERTEX
  8
PLAN_1
  6
CONTINUOUS
 10
-1.620067
 20
0.362965
  0
VERTEX
  8
PLAN_1
  6
CONTINUOUS
 10
-1.615295
 20
0.362008
  0
VERTEX
  8
PLAN_1
  6
CONTINUOUS
 10
-1.610528
 20
0.360579
  0
VERTEX
  8
PLAN_1
  6
CONTINUOUS
 10
-1.606713
 20
0.358669
  0
VERTEX
  8
PLAN_1
  6
CONTINUOUS
 10
-1.602898
 20
0.356764
  0
VERTEX
  8
PLAN_1
  6
CONTINUOUS
 10
-1.599559
 20
0.354378
  0
VERTEX
  8
PLAN_1
  6
CONTINUOUS
 10
-1.596220
 20
0.351996
  0
VERTEX
  8
PLAN_1
  6
CONTINUOUS
 10
-1.593358
 20
0.349610
  0
VERTEX
  8
PLAN_1
  6
CONTINUOUS
 10
-1.590972
 20
0.346748
  0
VERTEX
  8
PLAN_1
  6
CONTINUOUS
 10
-1.588587
 20
0.343886
  0
VERTEX
  8
PLAN_1
  6
CONTINUOUS
 10
-1.584772
 20
0.337685
  0
VERTEX
  8
PLAN_1
  6
CONTINUOUS
 10
-1.581913
 20
0.331965
  0
VERTEX
  8
PLAN_1
  6
CONTINUOUS
 10
-1.579528
 20
0.325764
  0
VERTEX
  8
PLAN_1
  6
CONTINUOUS
 10
-1.578094
 20
0.319563
  0
VERTEX
  8
PLAN_1
  6
CONTINUOUS
 10
-1.577142
 20
0.314319
  0
VERTEX
  8
PLAN_1
  6
CONTINUOUS
 10
-1.576665
 20
0.309071
  0
VERTEX
  8
PLAN_1
  6
CONTINUOUS
 10
-1.576665
 20
0.301917
  0
VERTEX
  8
PLAN_1
  6
CONTINUOUS
 10
-1.576665
 20
0.299055
  0
SEQEND
  8
0
  0
POLYLINE
  8
PLAN_1
  6
CONTINUOUS
 66
     1
 40
0.008106
 41
0.008106
  0
VERTEX
  8
PLAN_1
  6
CONTINUOUS
 10
-1.576665
 20
0.299055
  0
VERTEX
  8
PLAN_1
  6
CONTINUOUS
 10
-1.576665
 20
-0.722504
  0
VERTEX
  8
PLAN_1
  6
CONTINUOUS
 10
-1.508465
 20
-0.722504
  0
VERTEX
  8
PLAN_1
  6
CONTINUOUS
 10
-1.508465
 20
0.299055
  0
SEQEND
  8
0
  0
POLYLINE
  8
PLAN_1
  6
CONTINUOUS
 66
     1
 40
0.008106
 41
0.008106
  0
VERTEX
  8
PLAN_1
  6
CONTINUOUS
 10
-1.508465
 20
0.299055
  0
VERTEX
  8
PLAN_1
  6
CONTINUOUS
 10
-1.508465
 20
0.300965
  0
VERTEX
  8
PLAN_1
  6
CONTINUOUS
 10
-1.508945
 20
0.307165
  0
VERTEX
  8
PLAN_1
  6
CONTINUOUS
 10
-1.509898
 20
0.316224
  0
VERTEX
  8
PLAN_1
  6
CONTINUOUS
 10
-1.510850
 20
0.327193
  0
VERTEX
  8
PLAN_1
  6
CONTINUOUS
 10
-1.512280
 20
0.338642
  0
VERTEX
  8
PLAN_1
  6
CONTINUOUS
 10
-1.513713
 20
0.349610
  0
VERTEX
  8
PLAN_1
  6
CONTINUOUS
 10
-1.515618
 20
0.359150
  0
VERTEX
  8
PLAN_1
  6
CONTINUOUS
 10
-1.517051
 20
0.366780
  0
SEQEND
  8
0
  0
POLYLINE
  8
PLAN_1
  6
CONTINUOUS
 66
     1
 40
0.008106
 41
0.008106
  0
VERTEX
  8
PLAN_1
  6
CONTINUOUS
 10
-1.787941
 20
0.303346
  0
VERTEX
  8
PLAN_1
  6
CONTINUOUS
 10
-1.902402
 20
0.303346
  0
VERTEX
  8
PLAN_1
  6
CONTINUOUS
 10
-1.902402
 20
0.363917
  0
VERTEX
  8
PLAN_1
  6
CONTINUOUS
 10
-1.626264
 20
0.363917
  0
VERTEX
  8
PLAN_1
  6
CONTINUOUS
 10
-1.626264
 20
0.303346
  0
VERTEX
  8
PLAN_1
  6
CONTINUOUS
 10
-1.740248
 20
0.303346
  0
SEQEND
  8
0
  0
POLYLINE
  8
PLAN_1
  6
CONTINUOUS
 66
     1
 40
0.008106
 41
0.008106
  0
VERTEX
  8
PLAN_1
  6
CONTINUOUS
 10
-1.740248
 20
0.303346
  0
VERTEX
  8
PLAN_1
  6
CONTINUOUS
 10
-1.740248
 20
0.304303
  0
VERTEX
  8
PLAN_1
  6
CONTINUOUS
 10
-1.740248
 20
0.306685
  0
VERTEX
  8
PLAN_1
  6
CONTINUOUS
 10
-1.740248
 20
0.310504
  0
VERTEX
  8
PLAN_1
  6
CONTINUOUS
 10
-1.740248
 20
0.314795
  0
VERTEX
  8
PLAN_1
  6
CONTINUOUS
 10
-1.740248
 20
0.319087
  0
VERTEX
  8
PLAN_1
  6
CONTINUOUS
 10
-1.740248
 20
0.322902
  0
VERTEX
  8
PLAN_1
  6
CONTINUOUS
 10
-1.740248
 20
0.325764
  0
VERTEX
  8
PLAN_1
  6
CONTINUOUS
 10
-1.740248
 20
0.327193
  0
VERTEX
  8
PLAN_1
  6
CONTINUOUS
 10
-1.742157
 20
0.327193
  0
VERTEX
  8
PLAN_1
  6
CONTINUOUS
 10
-1.747402
 20
0.327673
  0
VERTEX
  8
PLAN_1
  6
CONTINUOUS
 10
-1.755512
 20
0.327673
  0
VERTEX
  8
PLAN_1
  6
CONTINUOUS
 10
-1.764094
 20
0.327193
  0
VERTEX
  8
PLAN_1
  6
CONTINUOUS
 10
-1.772681
 20
0.327193
  0
VERTEX
  8
PLAN_1
  6
CONTINUOUS
 10
-1.780311
 20
0.327193
  0
VERTEX
  8
PLAN_1
  6
CONTINUOUS
 10
-1.786031
 20
0.327193
  0
VERTEX
  8
PLAN_1
  6
CONTINUOUS
 10
-1.787941
 20
0.327193
  0
SEQEND
  8
0
  0
POLYLINE
  8
PLAN_1
  6
CONTINUOUS
 66
     1
 40
0.008106
 41
0.008106
  0
VERTEX
  8
PLAN_1
  6
CONTINUOUS
 10
-1.787941
 20
0.327193
  0
VERTEX
  8
PLAN_1
  6
CONTINUOUS
 10
-1.787941
 20
0.303346
  0
SEQEND
  8
0
  0
POLYLINE
  8
PLAN_1
  6
CONTINUOUS
 66
     1
 40
0.008106
 41
0.008106
  0
VERTEX
  8
PLAN_1
  6
CONTINUOUS
 10
-1.619110
 20
1.020157
  0
VERTEX
  8
PLAN_1
  6
CONTINUOUS
 10
-1.614343
 20
1.024929
  0
VERTEX
  8
PLAN_1
  6
CONTINUOUS
 10
-1.610528
 20
1.029220
  0
VERTEX
  8
PLAN_1
  6
CONTINUOUS
 10
-1.608142
 20
1.033512
  0
VERTEX
  8
PLAN_1
  6
CONTINUOUS
 10
-1.606713
 20
1.037803
  0
VERTEX
  8
PLAN_1
  6
CONTINUOUS
 10
-1.606236
 20
1.041618
  0
VERTEX
  8
PLAN_1
  6
CONTINUOUS
 10
-1.606236
 20
1.045437
  0
VERTEX
  8
PLAN_1
  6
CONTINUOUS
 10
-1.607189
 20
1.049252
  0
VERTEX
  8
PLAN_1
  6
CONTINUOUS
 10
-1.608142
 20
1.052591
  0
VERTEX
  8
PLAN_1
  6
CONTINUOUS
 10
-1.609575
 20
1.055449
  0
VERTEX
  8
PLAN_1
  6
CONTINUOUS
 10
-1.611480
 20
1.058311
  0
VERTEX
  8
PLAN_1
  6
CONTINUOUS
 10
-1.613390
 20
1.060697
  0
VERTEX
  8
PLAN_1
  6
CONTINUOUS
 10
-1.614819
 20
1.062606
  0
VERTEX
  8
PLAN_1
  6
CONTINUOUS
 10
-1.617681
 20
1.065465
  0
VERTEX
  8
PLAN_1
  6
CONTINUOUS
 10
-1.619110
 20
1.066421
  0
SEQEND
  8
0
  0
POLYLINE
  8
PLAN_1
  6
CONTINUOUS
 66
     1
 40
0.008106
 41
0.008106
  0
VERTEX
  8
PLAN_1
  6
CONTINUOUS
 10
-1.619110
 20
1.066421
  0
VERTEX
  8
PLAN_1
  6
CONTINUOUS
 10
-1.902878
 20
1.066421
  0
SEQEND
  8
0
  0
POLYLINE
  8
PLAN_1
  6
CONTINUOUS
 66
     1
 40
0.008106
 41
0.008106
  0
VERTEX
  8
PLAN_1
  6
CONTINUOUS
 10
-1.902878
 20
1.066421
  0
VERTEX
  8
PLAN_1
  6
CONTINUOUS
 10
-1.903831
 20
1.065465
  0
VERTEX
  8
PLAN_1
  6
CONTINUOUS
 10
-1.906693
 20
1.063083
  0
VERTEX
  8
PLAN_1
  6
CONTINUOUS
 10
-1.908126
 20
1.061173
  0
VERTEX
  8
PLAN_1
  6
CONTINUOUS
 10
-1.909555
 20
1.058787
  0
VERTEX
  8
PLAN_1
  6
CONTINUOUS
 10
-1.910988
 20
1.055929
  0
VERTEX
  8
PLAN_1
  6
CONTINUOUS
 10
-1.912417
 20
1.053067
  0
VERTEX
  8
PLAN_1
  6
CONTINUOUS
 10
-1.913370
 20
1.049728
  0
VERTEX
  8
PLAN_1
  6
CONTINUOUS
 10
-1.914323
 20
1.046390
  0
VERTEX
  8
PLAN_1
  6
CONTINUOUS
 10
-1.914323
 20
1.042575
  0
VERTEX
  8
PLAN_1
  6
CONTINUOUS
 10
-1.913846
 20
1.038283
  0
VERTEX
  8
PLAN_1
  6
CONTINUOUS
 10
-1.912417
 20
1.033988
  0
VERTEX
  8
PLAN_1
  6
CONTINUOUS
 10
-1.910031
 20
1.029697
  0
VERTEX
  8
PLAN_1
  6
CONTINUOUS
 10
-1.907169
 20
1.024929
  0
VERTEX
  8
PLAN_1
  6
CONTINUOUS
 10
-1.902878
 20
1.020157
  0
SEQEND
  8
0
  0
POLYLINE
  8
PLAN_1
  6
CONTINUOUS
 66
     1
 40
0.008106
 41
0.008106
  0
VERTEX
  8
PLAN_1
  6
CONTINUOUS
 10
-1.902878
 20
1.020157
  0
VERTEX
  8
PLAN_1
  6
CONTINUOUS
 10
-1.619110
 20
1.020157
  0
SEQEND
  8
0
  0
POLYLINE
  8
PLAN_1
  6
CONTINUOUS
 66
     1
 40
0.008106
 41
0.008106
  0
VERTEX
  8
PLAN_1
  6
CONTINUOUS
 10
-1.618634
 20
0.974850
  0
VERTEX
  8
PLAN_1
  6
CONTINUOUS
 10
-1.613866
 20
0.979142
  0
VERTEX
  8
PLAN_1
  6
CONTINUOUS
 10
-1.610528
 20
0.983437
  0
VERTEX
  8
PLAN_1
  6
CONTINUOUS
 10
-1.607665
 20
0.987728
  0
VERTEX
  8
PLAN_1
  6
CONTINUOUS
 10
-1.606236
 20
0.992020
  0
VERTEX
  8
PLAN_1
  6
CONTINUOUS
 10
-1.605756
 20
0.995835
  0
VERTEX
  8
PLAN_1
  6
CONTINUOUS
 10
-1.605756
 20
0.999650
  0
VERTEX
  8
PLAN_1
  6
CONTINUOUS
 10
-1.606713
 20
1.003465
  0
VERTEX
  8
PLAN_1
  6
CONTINUOUS
 10
-1.607665
 20
1.006803
  0
VERTEX
  8
PLAN_1
  6
CONTINUOUS
 10
-1.609094
 20
1.009665
  0
VERTEX
  8
PLAN_1
  6
CONTINUOUS
 10
-1.611004
 20
1.012528
  0
VERTEX
  8
PLAN_1
  6
CONTINUOUS
 10
-1.612913
 20
1.014913
  0
VERTEX
  8
PLAN_1
  6
CONTINUOUS
 10
-1.614343
 20
1.016819
  0
VERTEX
  8
PLAN_1
  6
CONTINUOUS
 10
-1.617681
 20
1.019681
  0
VERTEX
  8
PLAN_1
  6
CONTINUOUS
 10
-1.618634
 20
1.020634
  0
SEQEND
  8
0
  0
POLYLINE
  8
PLAN_1
  6
CONTINUOUS
 66
     1
 40
0.008106
 41
0.008106
  0
VERTEX
  8
PLAN_1
  6
CONTINUOUS
 10
-1.618634
 20
1.020634
  0
VERTEX
  8
PLAN_1
  6
CONTINUOUS
 10
-1.902402
 20
1.020634
  0
SEQEND
  8
0
  0
POLYLINE
  8
PLAN_1
  6
CONTINUOUS
 66
     1
 40
0.008106
 41
0.008106
  0
VERTEX
  8
PLAN_1
  6
CONTINUOUS
 10
-1.902402
 20
1.020634
  0
VERTEX
  8
PLAN_1
  6
CONTINUOUS
 10
-1.903354
 20
1.019681
  0
VERTEX
  8
PLAN_1
  6
CONTINUOUS
 10
-1.906217
 20
1.017295
  0
VERTEX
  8
PLAN_1
  6
CONTINUOUS
 10
-1.907650
 20
1.015390
  0
VERTEX
  8
PLAN_1
  6
CONTINUOUS
 10
-1.909079
 20
1.013004
  0
VERTEX
  8
PLAN_1
  6
CONTINUOUS
 10
-1.910508
 20
1.010142
  0
VERTEX
  8
PLAN_1
  6
CONTINUOUS
 10
-1.911941
 20
1.007283
  0
VERTEX
  8
PLAN_1
  6
CONTINUOUS
 10
-1.912894
 20
1.003945
  0
VERTEX
  8
PLAN_1
  6
CONTINUOUS
 10
-1.913846
 20
1.000606
  0
VERTEX
  8
PLAN_1
  6
CONTINUOUS
 10
-1.913846
 20
0.996791
  0
VERTEX
  8
PLAN_1
  6
CONTINUOUS
 10
-1.913370
 20
0.992496
  0
VERTEX
  8
PLAN_1
  6
CONTINUOUS
 10
-1.911941
 20
0.988205
  0
VERTEX
  8
PLAN_1
  6
CONTINUOUS
 10
-1.910031
 20
0.983913
  0
VERTEX
  8
PLAN_1
  6
CONTINUOUS
 10
-1.906693
 20
0.979142
  0
VERTEX
  8
PLAN_1
  6
CONTINUOUS
 10
-1.902402
 20
0.974850
  0
SEQEND
  8
0
  0
POLYLINE
  8
PLAN_1
  6
CONTINUOUS
 66
     1
 40
0.008106
 41
0.008106
  0
VERTEX
  8
PLAN_1
  6
CONTINUOUS
 10
-1.902402
 20
0.974850
  0
VERTEX
  8
PLAN_1
  6
CONTINUOUS
 10
-1.618634
 20
0.974850
  0
SEQEND
  8
0
  0
POLYLINE
  8
PLAN_1
  6
CONTINUOUS
 66
     1
 40
0.008106
 41
0.008106
  0
VERTEX
  8
PLAN_1
  6
CONTINUOUS
 10
-1.618634
 20
0.928114
  0
VERTEX
  8
PLAN_1
  6
CONTINUOUS
 10
-1.613866
 20
0.932882
  0
VERTEX
  8
PLAN_1
  6
CONTINUOUS
 10
-1.610528
 20
0.937173
  0
VERTEX
  8
PLAN_1
  6
CONTINUOUS
 10
-1.608142
 20
0.941469
  0
VERTEX
  8
PLAN_1
  6
CONTINUOUS
 10
-1.606713
 20
0.945760
  0
VERTEX
  8
PLAN_1
  6
CONTINUOUS
 10
-1.605756
 20
0.949575
  0
VERTEX
  8
PLAN_1
  6
CONTINUOUS
 10
-1.606236
 20
0.953390
  0
VERTEX
  8
PLAN_1
  6
CONTINUOUS
 10
-1.606713
 20
0.957205
  0
VERTEX
  8
PLAN_1
  6
CONTINUOUS
 10
-1.608142
 20
0.960543
  0
VERTEX
  8
PLAN_1
  6
CONTINUOUS
 10
-1.609575
 20
0.963406
  0
VERTEX
  8
PLAN_1
  6
CONTINUOUS
 10
-1.611004
 20
0.966268
  0
VERTEX
  8
PLAN_1
  6
CONTINUOUS
 10
-1.612913
 20
0.968650
  0
VERTEX
  8
PLAN_1
  6
CONTINUOUS
 10
-1.614819
 20
0.970559
  0
VERTEX
  8
PLAN_1
  6
CONTINUOUS
 10
-1.617681
 20
0.973421
  0
VERTEX
  8
PLAN_1
  6
CONTINUOUS
 10
-1.618634
 20
0.974374
  0
SEQEND
  8
0
  0
POLYLINE
  8
PLAN_1
  6
CONTINUOUS
 66
     1
 40
0.008106
 41
0.008106
  0
VERTEX
  8
PLAN_1
  6
CONTINUOUS
 10
-1.618634
 20
0.974374
  0
VERTEX
  8
PLAN_1
  6
CONTINUOUS
 10
-1.902878
 20
0.974374
  0
SEQEND
  8
0
  0
POLYLINE
  8
PLAN_1
  6
CONTINUOUS
 66
     1
 40
0.008106
 41
0.008106
  0
VERTEX
  8
PLAN_1
  6
CONTINUOUS
 10
-1.902878
 20
0.974374
  0
VERTEX
  8
PLAN_1
  6
CONTINUOUS
 10
-1.903831
 20
0.973421
  0
VERTEX
  8
PLAN_1
  6
CONTINUOUS
 10
-1.906217
 20
0.971035
  0
VERTEX
  8
PLAN_1
  6
CONTINUOUS
 10
-1.907650
 20
0.968650
  0
VERTEX
  8
PLAN_1
  6
CONTINUOUS
 10
-1.909555
 20
0.966744
  0
VERTEX
  8
PLAN_1
  6
CONTINUOUS
 10
-1.910988
 20
0.963882
  0
VERTEX
  8
PLAN_1
  6
CONTINUOUS
 10
-1.912417
 20
0.961020
  0
VERTEX
  8
PLAN_1
  6
CONTINUOUS
 10
-1.913370
 20
0.957681
  0
VERTEX
  8
PLAN_1
  6
CONTINUOUS
 10
-1.913846
 20
0.954343
  0
VERTEX
  8
PLAN_1
  6
CONTINUOUS
 10
-1.913846
 20
0.950528
  0
VERTEX
  8
PLAN_1
  6
CONTINUOUS
 10
-1.913370
 20
0.946236
  0
VERTEX
  8
PLAN_1
  6
CONTINUOUS
 10
-1.912417
 20
0.941945
  0
VERTEX
  8
PLAN_1
  6
CONTINUOUS
 10
-1.910031
 20
0.937650
  0
VERTEX
  8
PLAN_1
  6
CONTINUOUS
 10
-1.906693
 20
0.932882
  0
VERTEX
  8
PLAN_1
  6
CONTINUOUS
 10
-1.902878
 20
0.928114
  0
SEQEND
  8
0
  0
POLYLINE
  8
PLAN_1
  6
CONTINUOUS
 66
     1
 40
0.008106
 41
0.008106
  0
VERTEX
  8
PLAN_1
  6
CONTINUOUS
 10
-1.902878
 20
0.928114
  0
VERTEX
  8
PLAN_1
  6
CONTINUOUS
 10
-1.618634
 20
0.928114
  0
SEQEND
  8
0
  0
POLYLINE
  8
PLAN_1
  6
CONTINUOUS
 66
     1
 40
0.008106
 41
0.008106
  0
VERTEX
  8
PLAN_1
  6
CONTINUOUS
 10
-1.618634
 20
0.882331
  0
VERTEX
  8
PLAN_1
  6
CONTINUOUS
 10
-1.613866
 20
0.887098
  0
VERTEX
  8
PLAN_1
  6
CONTINUOUS
 10
-1.610051
 20
0.891390
  0
VERTEX
  8
PLAN_1
  6
CONTINUOUS
 10
-1.607665
 20
0.895681
  0
VERTEX
  8
PLAN_1
  6
CONTINUOUS
 10
-1.606236
 20
0.899976
  0
VERTEX
  8
PLAN_1
  6
CONTINUOUS
 10
-1.605756
 20
0.903791
  0
VERTEX
  8
PLAN_1
  6
CONTINUOUS
 10
-1.605756
 20
0.907606
  0
VERTEX
  8
PLAN_1
  6
CONTINUOUS
 10
-1.606236
 20
0.911421
  0
VERTEX
  8
PLAN_1
  6
CONTINUOUS
 10
-1.607665
 20
0.914760
  0
VERTEX
  8
PLAN_1
  6
CONTINUOUS
 10
-1.609094
 20
0.917622
  0
VERTEX
  8
PLAN_1
  6
CONTINUOUS
 10
-1.611004
 20
0.920484
  0
VERTEX
  8
PLAN_1
  6
CONTINUOUS
 10
-1.612433
 20
0.922866
  0
VERTEX
  8
PLAN_1
  6
CONTINUOUS
 10
-1.614343
 20
0.924776
  0
VERTEX
  8
PLAN_1
  6
CONTINUOUS
 10
-1.617205
 20
0.927638
  0
VERTEX
  8
PLAN_1
  6
CONTINUOUS
 10
-1.618634
 20
0.928591
  0
SEQEND
  8
0
  0
POLYLINE
  8
PLAN_1
  6
CONTINUOUS
 66
     1
 40
0.008106
 41
0.008106
  0
VERTEX
  8
PLAN_1
  6
CONTINUOUS
 10
-1.618634
 20
0.928591
  0
VERTEX
  8
PLAN_1
  6
CONTINUOUS
 10
-1.902402
 20
0.928591
  0
SEQEND
  8
0
  0
POLYLINE
  8
PLAN_1
  6
CONTINUOUS
 66
     1
 40
0.008106
 41
0.008106
  0
VERTEX
  8
PLAN_1
  6
CONTINUOUS
 10
-1.902402
 20
0.928591
  0
VERTEX
  8
PLAN_1
  6
CONTINUOUS
 10
-1.903354
 20
0.927638
  0
VERTEX
  8
PLAN_1
  6
CONTINUOUS
 10
-1.905740
 20
0.925252
  0
VERTEX
  8
PLAN_1
  6
CONTINUOUS
 10
-1.907169
 20
0.923343
  0
VERTEX
  8
PLAN_1
  6
CONTINUOUS
 10
-1.909079
 20
0.920961
  0
VERTEX
  8
PLAN_1
  6
CONTINUOUS
 10
-1.910508
 20
0.918098
  0
VERTEX
  8
PLAN_1
  6
CONTINUOUS
 10
-1.911941
 20
0.915236
  0
VERTEX
  8
PLAN_1
  6
CONTINUOUS
 10
-1.912894
 20
0.911898
  0
VERTEX
  8
PLAN_1
  6
CONTINUOUS
 10
-1.913370
 20
0.908559
  0
VERTEX
  8
PLAN_1
  6
CONTINUOUS
 10
-1.913370
 20
0.904744
  0
VERTEX
  8
PLAN_1
  6
CONTINUOUS
 10
-1.912894
 20
0.900453
  0
VERTEX
  8
PLAN_1
  6
CONTINUOUS
 10
-1.911941
 20
0.896161
  0
VERTEX
  8
PLAN_1
  6
CONTINUOUS
 10
-1.909555
 20
0.891866
  0
VERTEX
  8
PLAN_1
  6
CONTINUOUS
 10
-1.906693
 20
0.887098
  0
VERTEX
  8
PLAN_1
  6
CONTINUOUS
 10
-1.902402
 20
0.882331
  0
SEQEND
  8
0
  0
POLYLINE
  8
PLAN_1
  6
CONTINUOUS
 66
     1
 40
0.008106
 41
0.008106
  0
VERTEX
  8
PLAN_1
  6
CONTINUOUS
 10
-1.902402
 20
0.882331
  0
VERTEX
  8
PLAN_1
  6
CONTINUOUS
 10
-1.618634
 20
0.882331
  0
SEQEND
  8
0
  0
POLYLINE
  8
PLAN_1
  6
CONTINUOUS
 66
     1
 40
0.008106
 41
0.008106
  0
VERTEX
  8
PLAN_1
  6
CONTINUOUS
 10
-1.618634
 20
0.837020
  0
VERTEX
  8
PLAN_1
  6
CONTINUOUS
 10
-1.613866
 20
0.841315
  0
VERTEX
  8
PLAN_1
  6
CONTINUOUS
 10
-1.610528
 20
0.845606
  0
VERTEX
  8
PLAN_1
  6
CONTINUOUS
 10
-1.608142
 20
0.849898
  0
VERTEX
  8
PLAN_1
  6
CONTINUOUS
 10
-1.606713
 20
0.854189
  0
VERTEX
  8
PLAN_1
  6
CONTINUOUS
 10
-1.605756
 20
0.858008
  0
VERTEX
  8
PLAN_1
  6
CONTINUOUS
 10
-1.606236
 20
0.861823
  0
VERTEX
  8
PLAN_1
  6
CONTINUOUS
 10
-1.606713
 20
0.865638
  0
VERTEX
  8
PLAN_1
  6
CONTINUOUS
 10
-1.608142
 20
0.868976
  0
VERTEX
  8
PLAN_1
  6
CONTINUOUS
 10
-1.609575
 20
0.871835
  0
VERTEX
  8
PLAN_1
  6
CONTINUOUS
 10
-1.611004
 20
0.874697
  0
VERTEX
  8
PLAN_1
  6
CONTINUOUS
 10
-1.612913
 20
0.877083
  0
VERTEX
  8
PLAN_1
  6
CONTINUOUS
 10
-1.614819
 20
0.878992
  0
VERTEX
  8
PLAN_1
  6
CONTINUOUS
 10
-1.617681
 20
0.881850
  0
VERTEX
  8
PLAN_1
  6
CONTINUOUS
 10
-1.618634
 20
0.882807
  0
SEQEND
  8
0
  0
POLYLINE
  8
PLAN_1
  6
CONTINUOUS
 66
     1
 40
0.008106
 41
0.008106
  0
VERTEX
  8
PLAN_1
  6
CONTINUOUS
 10
-1.618634
 20
0.882807
  0
VERTEX
  8
PLAN_1
  6
CONTINUOUS
 10
-1.902878
 20
0.882807
  0
SEQEND
  8
0
  0
POLYLINE
  8
PLAN_1
  6
CONTINUOUS
 66
     1
 40
0.008106
 41
0.008106
  0
VERTEX
  8
PLAN_1
  6
CONTINUOUS
 10
-1.902878
 20
0.882807
  0
VERTEX
  8
PLAN_1
  6
CONTINUOUS
 10
-1.903831
 20
0.881850
  0
VERTEX
  8
PLAN_1
  6
CONTINUOUS
 10
-1.906217
 20
0.879469
  0
VERTEX
  8
PLAN_1
  6
CONTINUOUS
 10
-1.907650
 20
0.877559
  0
VERTEX
  8
PLAN_1
  6
CONTINUOUS
 10
-1.909555
 20
0.875173
  0
VERTEX
  8
PLAN_1
  6
CONTINUOUS
 10
-1.910988
 20
0.872315
  0
VERTEX
  8
PLAN_1
  6
CONTINUOUS
 10
-1.912417
 20
0.869453
  0
VERTEX
  8
PLAN_1
  6
CONTINUOUS
 10
-1.913370
 20
0.866114
  0
VERTEX
  8
PLAN_1
  6
CONTINUOUS
 10
-1.913846
 20
0.862776
  0
VERTEX
  8
PLAN_1
  6
CONTINUOUS
 10
-1.913846
 20
0.858961
  0
VERTEX
  8
PLAN_1
  6
CONTINUOUS
 10
-1.913370
 20
0.854669
  0
VERTEX
  8
PLAN_1
  6
CONTINUOUS
 10
-1.912417
 20
0.850374
  0
VERTEX
  8
PLAN_1
  6
CONTINUOUS
 10
-1.910031
 20
0.846083
  0
VERTEX
  8
PLAN_1
  6
CONTINUOUS
 10
-1.906693
 20
0.841315
  0
VERTEX
  8
PLAN_1
  6
CONTINUOUS
 10
-1.902878
 20
0.837020
  0
SEQEND
  8
0
  0
POLYLINE
  8
PLAN_1
  6
CONTINUOUS
 66
     1
 40
0.008106
 41
0.008106
  0
VERTEX
  8
PLAN_1
  6
CONTINUOUS
 10
-1.902878
 20
0.837020
  0
VERTEX
  8
PLAN_1
  6
CONTINUOUS
 10
-1.618634
 20
0.837020
  0
SEQEND
  8
0
  0
POLYLINE
  8
PLAN_1
  6
CONTINUOUS
 66
     1
 40
0.008106
 41
0.008106
  0
VERTEX
  8
PLAN_1
  6
CONTINUOUS
 10
-1.618634
 20
0.791236
  0
VERTEX
  8
PLAN_1
  6
CONTINUOUS
 10
-1.613866
 20
0.795528
  0
VERTEX
  8
PLAN_1
  6
CONTINUOUS
 10
-1.610051
 20
0.799823
  0
VERTEX
  8
PLAN_1
  6
CONTINUOUS
 10
-1.607665
 20
0.804114
  0
VERTEX
  8
PLAN_1
  6
CONTINUOUS
 10
-1.606236
 20
0.808406
  0
VERTEX
  8
PLAN_1
  6
CONTINUOUS
 10
-1.605756
 20
0.812220
  0
VERTEX
  8
PLAN_1
  6
CONTINUOUS
 10
-1.605756
 20
0.816035
  0
VERTEX
  8
PLAN_1
  6
CONTINUOUS
 10
-1.606236
 20
0.819850
  0
VERTEX
  8
PLAN_1
  6
CONTINUOUS
 10
-1.607665
 20
0.823189
  0
VERTEX
  8
PLAN_1
  6
CONTINUOUS
 10
-1.609094
 20
0.826051
  0
VERTEX
  8
PLAN_1
  6
CONTINUOUS
 10
-1.611004
 20
0.828913
  0
VERTEX
  8
PLAN_1
  6
CONTINUOUS
 10
-1.612433
 20
0.831299
  0
VERTEX
  8
PLAN_1
  6
CONTINUOUS
 10
-1.614343
 20
0.833205
  0
VERTEX
  8
PLAN_1
  6
CONTINUOUS
 10
-1.617205
 20
0.836067
  0
VERTEX
  8
PLAN_1
  6
CONTINUOUS
 10
-1.618634
 20
0.837020
  0
SEQEND
  8
0
  0
POLYLINE
  8
PLAN_1
  6
CONTINUOUS
 66
     1
 40
0.008106
 41
0.008106
  0
VERTEX
  8
PLAN_1
  6
CONTINUOUS
 10
-1.618634
 20
0.837020
  0
VERTEX
  8
PLAN_1
  6
CONTINUOUS
 10
-1.902402
 20
0.837020
  0
SEQEND
  8
0
  0
POLYLINE
  8
PLAN_1
  6
CONTINUOUS
 66
     1
 40
0.008106
 41
0.008106
  0
VERTEX
  8
PLAN_1
  6
CONTINUOUS
 10
-1.902402
 20
0.837020
  0
VERTEX
  8
PLAN_1
  6
CONTINUOUS
 10
-1.903354
 20
0.836543
  0
VERTEX
  8
PLAN_1
  6
CONTINUOUS
 10
-1.905740
 20
0.833681
  0
VERTEX
  8
PLAN_1
  6
CONTINUOUS
 10
-1.907169
 20
0.831776
  0
VERTEX
  8
PLAN_1
  6
CONTINUOUS
 10
-1.909079
 20
0.829390
  0
VERTEX
  8
PLAN_1
  6
CONTINUOUS
 10
-1.910508
 20
0.826528
  0
VERTEX
  8
PLAN_1
  6
CONTINUOUS
 10
-1.911941
 20
0.823669
  0
VERTEX
  8
PLAN_1
  6
CONTINUOUS
 10
-1.912894
 20
0.820331
  0
VERTEX
  8
PLAN_1
  6
CONTINUOUS
 10
-1.913370
 20
0.816992
  0
VERTEX
  8
PLAN_1
  6
CONTINUOUS
 10
-1.913370
 20
0.813177
  0
VERTEX
  8
PLAN_1
  6
CONTINUOUS
 10
-1.912894
 20
0.808882
  0
VERTEX
  8
PLAN_1
  6
CONTINUOUS
 10
-1.911941
 20
0.805067
  0
VERTEX
  8
PLAN_1
  6
CONTINUOUS
 10
-1.909555
 20
0.800299
  0
VERTEX
  8
PLAN_1
  6
CONTINUOUS
 10
-1.906693
 20
0.796008
  0
VERTEX
  8
PLAN_1
  6
CONTINUOUS
 10
-1.902402
 20
0.791236
  0
SEQEND
  8
0
  0
POLYLINE
  8
PLAN_1
  6
CONTINUOUS
 66
     1
 40
0.008106
 41
0.008106
  0
VERTEX
  8
PLAN_1
  6
CONTINUOUS
 10
-1.902402
 20
0.791236
  0
VERTEX
  8
PLAN_1
  6
CONTINUOUS
 10
-1.618634
 20
0.791236
  0
SEQEND
  8
0
  0
POLYLINE
  8
PLAN_1
  6
CONTINUOUS
 66
     1
 40
0.008106
 41
0.008106
  0
VERTEX
  8
PLAN_1
  6
CONTINUOUS
 10
-1.618634
 20
0.745453
  0
VERTEX
  8
PLAN_1
  6
CONTINUOUS
 10
-1.613866
 20
0.749744
  0
VERTEX
  8
PLAN_1
  6
CONTINUOUS
 10
-1.610528
 20
0.754039
  0
VERTEX
  8
PLAN_1
  6
CONTINUOUS
 10
-1.608142
 20
0.758331
  0
VERTEX
  8
PLAN_1
  6
CONTINUOUS
 10
-1.606713
 20
0.762622
  0
VERTEX
  8
PLAN_1
  6
CONTINUOUS
 10
-1.605756
 20
0.766437
  0
VERTEX
  8
PLAN_1
  6
CONTINUOUS
 10
-1.606236
 20
0.770252
  0
VERTEX
  8
PLAN_1
  6
CONTINUOUS
 10
-1.606713
 20
0.774067
  0
VERTEX
  8
PLAN_1
  6
CONTINUOUS
 10
-1.608142
 20
0.777406
  0
VERTEX
  8
PLAN_1
  6
CONTINUOUS
 10
-1.609575
 20
0.780268
  0
VERTEX
  8
PLAN_1
  6
CONTINUOUS
 10
-1.611004
 20
0.783130
  0
VERTEX
  8
PLAN_1
  6
CONTINUOUS
 10
-1.612913
 20
0.785516
  0
VERTEX
  8
PLAN_1
  6
CONTINUOUS
 10
-1.614819
 20
0.787421
  0
VERTEX
  8
PLAN_1
  6
CONTINUOUS
 10
-1.617681
 20
0.790283
  0
VERTEX
  8
PLAN_1
  6
CONTINUOUS
 10
-1.618634
 20
0.791713
  0
SEQEND
  8
0
  0
POLYLINE
  8
PLAN_1
  6
CONTINUOUS
 66
     1
 40
0.008106
 41
0.008106
  0
VERTEX
  8
PLAN_1
  6
CONTINUOUS
 10
-1.618634
 20
0.791713
  0
VERTEX
  8
PLAN_1
  6
CONTINUOUS
 10
-1.902878
 20
0.791713
  0
SEQEND
  8
0
  0
POLYLINE
  8
PLAN_1
  6
CONTINUOUS
 66
     1
 40
0.008106
 41
0.008106
  0
VERTEX
  8
PLAN_1
  6
CONTINUOUS
 10
-1.902878
 20
0.791713
  0
VERTEX
  8
PLAN_1
  6
CONTINUOUS
 10
-1.903831
 20
0.790760
  0
VERTEX
  8
PLAN_1
  6
CONTINUOUS
 10
-1.906217
 20
0.787898
  0
VERTEX
  8
PLAN_1
  6
CONTINUOUS
 10
-1.907650
 20
0.785992
  0
VERTEX
  8
PLAN_1
  6
CONTINUOUS
 10
-1.909555
 20
0.783606
  0
VERTEX
  8
PLAN_1
  6
CONTINUOUS
 10
-1.910988
 20
0.781220
  0
VERTEX
  8
PLAN_1
  6
CONTINUOUS
 10
-1.912417
 20
0.777882
  0
VERTEX
  8
PLAN_1
  6
CONTINUOUS
 10
-1.913370
 20
0.774543
  0
VERTEX
  8
PLAN_1
  6
CONTINUOUS
 10
-1.913846
 20
0.771205
  0
VERTEX
  8
PLAN_1
  6
CONTINUOUS
 10
-1.913846
 20
0.767390
  0
VERTEX
  8
PLAN_1
  6
CONTINUOUS
 10
-1.913370
 20
0.763575
  0
VERTEX
  8
PLAN_1
  6
CONTINUOUS
 10
-1.912417
 20
0.759283
  0
VERTEX
  8
PLAN_1
  6
CONTINUOUS
 10
-1.910031
 20
0.754516
  0
VERTEX
  8
PLAN_1
  6
CONTINUOUS
 10
-1.906693
 20
0.750220
  0
VERTEX
  8
PLAN_1
  6
CONTINUOUS
 10
-1.902878
 20
0.745453
  0
SEQEND
  8
0
  0
POLYLINE
  8
PLAN_1
  6
CONTINUOUS
 66
     1
 40
0.008106
 41
0.008106
  0
VERTEX
  8
PLAN_1
  6
CONTINUOUS
 10
-1.902878
 20
0.745453
  0
VERTEX
  8
PLAN_1
  6
CONTINUOUS
 10
-1.618634
 20
0.745453
  0
SEQEND
  8
0
  0
POLYLINE
  8
PLAN_1
  6
CONTINUOUS
 66
     1
 40
0.008106
 41
0.008106
  0
VERTEX
  8
PLAN_1
  6
CONTINUOUS
 10
-1.618634
 20
0.699669
  0
VERTEX
  8
PLAN_1
  6
CONTINUOUS
 10
-1.613866
 20
0.703961
  0
VERTEX
  8
PLAN_1
  6
CONTINUOUS
 10
-1.610051
 20
0.708252
  0
VERTEX
  8
PLAN_1
  6
CONTINUOUS
 10
-1.607665
 20
0.712547
  0
VERTEX
  8
PLAN_1
  6
CONTINUOUS
 10
-1.606236
 20
0.716839
  0
VERTEX
  8
PLAN_1
  6
CONTINUOUS
 10
-1.605756
 20
0.721130
  0
VERTEX
  8
PLAN_1
  6
CONTINUOUS
 10
-1.605756
 20
0.724945
  0
VERTEX
  8
PLAN_1
  6
CONTINUOUS
 10
-1.606236
 20
0.728283
  0
VERTEX
  8
PLAN_1
  6
CONTINUOUS
 10
-1.607665
 20
0.731622
  0
VERTEX
  8
PLAN_1
  6
CONTINUOUS
 10
-1.609094
 20
0.734961
  0
VERTEX
  8
PLAN_1
  6
CONTINUOUS
 10
-1.611004
 20
0.737346
  0
VERTEX
  8
PLAN_1
  6
CONTINUOUS
 10
-1.612433
 20
0.739728
  0
VERTEX
  8
PLAN_1
  6
CONTINUOUS
 10
-1.614343
 20
0.742114
  0
VERTEX
  8
PLAN_1
  6
CONTINUOUS
 10
-1.617205
 20
0.744976
  0
VERTEX
  8
PLAN_1
  6
CONTINUOUS
 10
-1.618634
 20
0.745929
  0
SEQEND
  8
0
  0
POLYLINE
  8
PLAN_1
  6
CONTINUOUS
 66
     1
 40
0.008106
 41
0.008106
  0
VERTEX
  8
PLAN_1
  6
CONTINUOUS
 10
-1.618634
 20
0.745929
  0
VERTEX
  8
PLAN_1
  6
CONTINUOUS
 10
-1.902402
 20
0.745929
  0
SEQEND
  8
0
  0
POLYLINE
  8
PLAN_1
  6
CONTINUOUS
 66
     1
 40
0.008106
 41
0.008106
  0
VERTEX
  8
PLAN_1
  6
CONTINUOUS
 10
-1.902402
 20
0.745929
  0
VERTEX
  8
PLAN_1
  6
CONTINUOUS
 10
-1.903354
 20
0.744976
  0
VERTEX
  8
PLAN_1
  6
CONTINUOUS
 10
-1.905740
 20
0.742114
  0
VERTEX
  8
PLAN_1
  6
CONTINUOUS
 10
-1.907169
 20
0.740209
  0
VERTEX
  8
PLAN_1
  6
CONTINUOUS
 10
-1.909079
 20
0.737823
  0
VERTEX
  8
PLAN_1
  6
CONTINUOUS
 10
-1.910508
 20
0.735437
  0
VERTEX
  8
PLAN_1
  6
CONTINUOUS
 10
-1.911941
 20
0.732098
  0
VERTEX
  8
PLAN_1
  6
CONTINUOUS
 10
-1.912894
 20
0.729236
  0
VERTEX
  8
PLAN_1
  6
CONTINUOUS
 10
-1.913370
 20
0.725421
  0
VERTEX
  8
PLAN_1
  6
CONTINUOUS
 10
-1.913370
 20
0.721606
  0
VERTEX
  8
PLAN_1
  6
CONTINUOUS
 10
-1.912894
 20
0.717791
  0
VERTEX
  8
PLAN_1
  6
CONTINUOUS
 10
-1.911941
 20
0.713500
  0
VERTEX
  8
PLAN_1
  6
CONTINUOUS
 10
-1.909555
 20
0.709209
  0
VERTEX
  8
PLAN_1
  6
CONTINUOUS
 10
-1.906693
 20
0.704437
  0
VERTEX
  8
PLAN_1
  6
CONTINUOUS
 10
-1.902402
 20
0.699669
  0
SEQEND
  8
0
  0
POLYLINE
  8
PLAN_1
  6
CONTINUOUS
 66
     1
 40
0.008106
 41
0.008106
  0
VERTEX
  8
PLAN_1
  6
CONTINUOUS
 10
-1.902402
 20
0.699669
  0
VERTEX
  8
PLAN_1
  6
CONTINUOUS
 10
-1.618634
 20
0.699669
  0
SEQEND
  8
0
  0
POLYLINE
  8
PLAN_1
  6
CONTINUOUS
 66
     1
 40
0.008106
 41
0.008106
  0
VERTEX
  8
PLAN_1
  6
CONTINUOUS
 10
-1.618634
 20
0.653886
  0
VERTEX
  8
PLAN_1
  6
CONTINUOUS
 10
-1.613866
 20
0.658177
  0
VERTEX
  8
PLAN_1
  6
CONTINUOUS
 10
-1.610528
 20
0.662945
  0
VERTEX
  8
PLAN_1
  6
CONTINUOUS
 10
-1.608142
 20
0.667236
  0
VERTEX
  8
PLAN_1
  6
CONTINUOUS
 10
-1.606713
 20
0.671055
  0
VERTEX
  8
PLAN_1
  6
CONTINUOUS
 10
-1.605756
 20
0.675346
  0
VERTEX
  8
PLAN_1
  6
CONTINUOUS
 10
-1.606236
 20
0.679161
  0
VERTEX
  8
PLAN_1
  6
CONTINUOUS
 10
-1.606713
 20
0.682500
  0
VERTEX
  8
PLAN_1
  6
CONTINUOUS
 10
-1.608142
 20
0.685839
  0
VERTEX
  8
PLAN_1
  6
CONTINUOUS
 10
-1.609575
 20
0.689177
  0
VERTEX
  8
PLAN_1
  6
CONTINUOUS
 10
-1.611004
 20
0.691559
  0
VERTEX
  8
PLAN_1
  6
CONTINUOUS
 10
-1.612913
 20
0.693945
  0
VERTEX
  8
PLAN_1
  6
CONTINUOUS
 10
-1.614819
 20
0.696331
  0
VERTEX
  8
PLAN_1
  6
CONTINUOUS
 10
-1.617681
 20
0.699193
  0
VERTEX
  8
PLAN_1
  6
CONTINUOUS
 10
-1.618634
 20
0.700146
  0
SEQEND
  8
0
  0
POLYLINE
  8
PLAN_1
  6
CONTINUOUS
 66
     1
 40
0.008106
 41
0.008106
  0
VERTEX
  8
PLAN_1
  6
CONTINUOUS
 10
-1.618634
 20
0.700146
  0
VERTEX
  8
PLAN_1
  6
CONTINUOUS
 10
-1.902878
 20
0.700146
  0
SEQEND
  8
0
  0
POLYLINE
  8
PLAN_1
  6
CONTINUOUS
 66
     1
 40
0.008106
 41
0.008106
  0
VERTEX
  8
PLAN_1
  6
CONTINUOUS
 10
-1.902878
 20
0.700146
  0
VERTEX
  8
PLAN_1
  6
CONTINUOUS
 10
-1.903831
 20
0.699193
  0
VERTEX
  8
PLAN_1
  6
CONTINUOUS
 10
-1.906217
 20
0.696331
  0
VERTEX
  8
PLAN_1
  6
CONTINUOUS
 10
-1.907650
 20
0.694421
  0
VERTEX
  8
PLAN_1
  6
CONTINUOUS
 10
-1.909555
 20
0.692039
  0
VERTEX
  8
PLAN_1
  6
CONTINUOUS
 10
-1.910988
 20
0.689654
  0
VERTEX
  8
PLAN_1
  6
CONTINUOUS
 10
-1.912417
 20
0.686791
  0
VERTEX
  8
PLAN_1
  6
CONTINUOUS
 10
-1.913370
 20
0.683453
  0
VERTEX
  8
PLAN_1
  6
CONTINUOUS
 10
-1.913846
 20
0.679638
  0
VERTEX
  8
PLAN_1
  6
CONTINUOUS
 10
-1.913846
 20
0.675823
  0
VERTEX
  8
PLAN_1
  6
CONTINUOUS
 10
-1.913370
 20
0.672008
  0
VERTEX
  8
PLAN_1
  6
CONTINUOUS
 10
-1.912417
 20
0.667717
  0
VERTEX
  8
PLAN_1
  6
CONTINUOUS
 10
-1.910031
 20
0.663421
  0
VERTEX
  8
PLAN_1
  6
CONTINUOUS
 10
-1.906693
 20
0.658654
  0
VERTEX
  8
PLAN_1
  6
CONTINUOUS
 10
-1.902878
 20
0.653886
  0
SEQEND
  8
0
  0
POLYLINE
  8
PLAN_1
  6
CONTINUOUS
 66
     1
 40
0.008106
 41
0.008106
  0
VERTEX
  8
PLAN_1
  6
CONTINUOUS
 10
-1.902878
 20
0.653886
  0
VERTEX
  8
PLAN_1
  6
CONTINUOUS
 10
-1.618634
 20
0.653886
  0
SEQEND
  8
0
  0
POLYLINE
  8
PLAN_1
  6
CONTINUOUS
 66
     1
 40
0.008106
 41
0.008106
  0
VERTEX
  8
PLAN_1
  6
CONTINUOUS
 10
-1.618634
 20
0.608098
  0
VERTEX
  8
PLAN_1
  6
CONTINUOUS
 10
-1.613866
 20
0.612394
  0
VERTEX
  8
PLAN_1
  6
CONTINUOUS
 10
-1.610051
 20
0.617161
  0
VERTEX
  8
PLAN_1
  6
CONTINUOUS
 10
-1.607665
 20
0.621453
  0
VERTEX
  8
PLAN_1
  6
CONTINUOUS
 10
-1.606236
 20
0.625268
  0
VERTEX
  8
PLAN_1
  6
CONTINUOUS
 10
-1.605756
 20
0.629563
  0
VERTEX
  8
PLAN_1
  6
CONTINUOUS
 10
-1.605756
 20
0.633378
  0
VERTEX
  8
PLAN_1
  6
CONTINUOUS
 10
-1.606236
 20
0.636717
  0
VERTEX
  8
PLAN_1
  6
CONTINUOUS
 10
-1.607665
 20
0.640055
  0
VERTEX
  8
PLAN_1
  6
CONTINUOUS
 10
-1.609094
 20
0.643394
  0
VERTEX
  8
PLAN_1
  6
CONTINUOUS
 10
-1.611004
 20
0.646252
  0
VERTEX
  8
PLAN_1
  6
CONTINUOUS
 10
-1.612433
 20
0.648638
  0
VERTEX
  8
PLAN_1
  6
CONTINUOUS
 10
-1.614343
 20
0.650547
  0
VERTEX
  8
PLAN_1
  6
CONTINUOUS
 10
-1.617205
 20
0.653406
  0
VERTEX
  8
PLAN_1
  6
CONTINUOUS
 10
-1.618634
 20
0.654362
  0
SEQEND
  8
0
  0
POLYLINE
  8
PLAN_1
  6
CONTINUOUS
 66
     1
 40
0.008106
 41
0.008106
  0
VERTEX
  8
PLAN_1
  6
CONTINUOUS
 10
-1.618634
 20
0.654362
  0
VERTEX
  8
PLAN_1
  6
CONTINUOUS
 10
-1.902402
 20
0.654362
  0
SEQEND
  8
0
  0
POLYLINE
  8
PLAN_1
  6
CONTINUOUS
 66
     1
 40
0.008106
 41
0.008106
  0
VERTEX
  8
PLAN_1
  6
CONTINUOUS
 10
-1.902402
 20
0.654362
  0
VERTEX
  8
PLAN_1
  6
CONTINUOUS
 10
-1.903354
 20
0.653406
  0
VERTEX
  8
PLAN_1
  6
CONTINUOUS
 10
-1.905740
 20
0.650547
  0
VERTEX
  8
PLAN_1
  6
CONTINUOUS
 10
-1.907169
 20
0.648638
  0
VERTEX
  8
PLAN_1
  6
CONTINUOUS
 10
-1.909079
 20
0.646252
  0
VERTEX
  8
PLAN_1
  6
CONTINUOUS
 10
-1.910508
 20
0.643870
  0
VERTEX
  8
PLAN_1
  6
CONTINUOUS
 10
-1.911941
 20
0.641008
  0
VERTEX
  8
PLAN_1
  6
CONTINUOUS
 10
-1.912894
 20
0.637669
  0
VERTEX
  8
PLAN_1
  6
CONTINUOUS
 10
-1.913370
 20
0.633854
  0
VERTEX
  8
PLAN_1
  6
CONTINUOUS
 10
-1.913370
 20
0.630039
  0
VERTEX
  8
PLAN_1
  6
CONTINUOUS
 10
-1.912894
 20
0.626224
  0
VERTEX
  8
PLAN_1
  6
CONTINUOUS
 10
-1.911941
 20
0.621929
  0
VERTEX
  8
PLAN_1
  6
CONTINUOUS
 10
-1.909555
 20
0.617638
  0
VERTEX
  8
PLAN_1
  6
CONTINUOUS
 10
-1.906693
 20
0.612870
  0
VERTEX
  8
PLAN_1
  6
CONTINUOUS
 10
-1.902402
 20
0.608098
  0
SEQEND
  8
0
  0
POLYLINE
  8
PLAN_1
  6
CONTINUOUS
 66
     1
 40
0.008106
 41
0.008106
  0
VERTEX
  8
PLAN_1
  6
CONTINUOUS
 10
-1.902402
 20
0.608098
  0
VERTEX
  8
PLAN_1
  6
CONTINUOUS
 10
-1.618634
 20
0.608098
  0
SEQEND
  8
0
  0
POLYLINE
  8
PLAN_1
  6
CONTINUOUS
 66
     1
 40
0.008106
 41
0.008106
  0
VERTEX
  8
PLAN_1
  6
CONTINUOUS
 10
-1.618634
 20
0.562315
  0
VERTEX
  8
PLAN_1
  6
CONTINUOUS
 10
-1.613866
 20
0.567087
  0
VERTEX
  8
PLAN_1
  6
CONTINUOUS
 10
-1.610528
 20
0.571378
  0
VERTEX
  8
PLAN_1
  6
CONTINUOUS
 10
-1.608142
 20
0.575669
  0
VERTEX
  8
PLAN_1
  6
CONTINUOUS
 10
-1.606713
 20
0.579961
  0
VERTEX
  8
PLAN_1
  6
CONTINUOUS
 10
-1.605756
 20
0.583776
  0
VERTEX
  8
PLAN_1
  6
CONTINUOUS
 10
-1.606236
 20
0.587591
  0
VERTEX
  8
PLAN_1
  6
CONTINUOUS
 10
-1.606713
 20
0.590929
  0
VERTEX
  8
PLAN_1
  6
CONTINUOUS
 10
-1.608142
 20
0.594268
  0
VERTEX
  8
PLAN_1
  6
CONTINUOUS
 10
-1.609575
 20
0.597606
  0
VERTEX
  8
PLAN_1
  6
CONTINUOUS
 10
-1.611004
 20
0.600469
  0
VERTEX
  8
PLAN_1
  6
CONTINUOUS
 10
-1.612913
 20
0.602854
  0
VERTEX
  8
PLAN_1
  6
CONTINUOUS
 10
-1.614819
 20
0.604760
  0
VERTEX
  8
PLAN_1
  6
CONTINUOUS
 10
-1.617681
 20
0.607622
  0
VERTEX
  8
PLAN_1
  6
CONTINUOUS
 10
-1.618634
 20
0.608579
  0
SEQEND
  8
0
  0
POLYLINE
  8
PLAN_1
  6
CONTINUOUS
 66
     1
 40
0.008106
 41
0.008106
  0
VERTEX
  8
PLAN_1
  6
CONTINUOUS
 10
-1.618634
 20
0.608579
  0
VERTEX
  8
PLAN_1
  6
CONTINUOUS
 10
-1.902878
 20
0.608579
  0
SEQEND
  8
0
  0
POLYLINE
  8
PLAN_1
  6
CONTINUOUS
 66
     1
 40
0.008106
 41
0.008106
  0
VERTEX
  8
PLAN_1
  6
CONTINUOUS
 10
-1.902878
 20
0.608579
  0
VERTEX
  8
PLAN_1
  6
CONTINUOUS
 10
-1.903831
 20
0.607622
  0
VERTEX
  8
PLAN_1
  6
CONTINUOUS
 10
-1.906217
 20
0.604760
  0
VERTEX
  8
PLAN_1
  6
CONTINUOUS
 10
-1.907650
 20
0.602854
  0
VERTEX
  8
PLAN_1
  6
CONTINUOUS
 10
-1.909555
 20
0.600945
  0
VERTEX
  8
PLAN_1
  6
CONTINUOUS
 10
-1.910988
 20
0.598087
  0
VERTEX
  8
PLAN_1
  6
CONTINUOUS
 10
-1.912417
 20
0.595224
  0
VERTEX
  8
PLAN_1
  6
CONTINUOUS
 10
-1.913370
 20
0.591886
  0
VERTEX
  8
PLAN_1
  6
CONTINUOUS
 10
-1.913846
 20
0.588071
  0
VERTEX
  8
PLAN_1
  6
CONTINUOUS
 10
-1.913846
 20
0.584732
  0
VERTEX
  8
PLAN_1
  6
CONTINUOUS
 10
-1.913370
 20
0.580437
  0
VERTEX
  8
PLAN_1
  6
CONTINUOUS
 10
-1.912417
 20
0.576146
  0
VERTEX
  8
PLAN_1
  6
CONTINUOUS
 10
-1.910031
 20
0.571854
  0
VERTEX
  8
PLAN_1
  6
CONTINUOUS
 10
-1.906693
 20
0.567087
  0
VERTEX
  8
PLAN_1
  6
CONTINUOUS
 10
-1.902878
 20
0.562315
  0
SEQEND
  8
0
  0
POLYLINE
  8
PLAN_1
  6
CONTINUOUS
 66
     1
 40
0.008106
 41
0.008106
  0
VERTEX
  8
PLAN_1
  6
CONTINUOUS
 10
-1.902878
 20
0.562315
  0
VERTEX
  8
PLAN_1
  6
CONTINUOUS
 10
-1.618634
 20
0.562315
  0
SEQEND
  8
0
  0
POLYLINE
  8
PLAN_1
  6
CONTINUOUS
 66
     1
 40
0.008106
 41
0.008106
  0
VERTEX
  8
PLAN_1
  6
CONTINUOUS
 10
-1.618634
 20
0.516531
  0
VERTEX
  8
PLAN_1
  6
CONTINUOUS
 10
-1.613866
 20
0.521299
  0
VERTEX
  8
PLAN_1
  6
CONTINUOUS
 10
-1.610051
 20
0.525594
  0
VERTEX
  8
PLAN_1
  6
CONTINUOUS
 10
-1.607665
 20
0.529886
  0
VERTEX
  8
PLAN_1
  6
CONTINUOUS
 10
-1.606236
 20
0.534177
  0
VERTEX
  8
PLAN_1
  6
CONTINUOUS
 10
-1.605756
 20
0.537992
  0
VERTEX
  8
PLAN_1
  6
CONTINUOUS
 10
-1.605756
 20
0.541807
  0
VERTEX
  8
PLAN_1
  6
CONTINUOUS
 10
-1.606236
 20
0.545622
  0
VERTEX
  8
PLAN_1
  6
CONTINUOUS
 10
-1.607665
 20
0.548961
  0
VERTEX
  8
PLAN_1
  6
CONTINUOUS
 10
-1.609094
 20
0.551823
  0
VERTEX
  8
PLAN_1
  6
CONTINUOUS
 10
-1.611004
 20
0.554685
  0
VERTEX
  8
PLAN_1
  6
CONTINUOUS
 10
-1.612433
 20
0.557071
  0
VERTEX
  8
PLAN_1
  6
CONTINUOUS
 10
-1.614343
 20
0.558976
  0
VERTEX
  8
PLAN_1
  6
CONTINUOUS
 10
-1.617205
 20
0.561839
  0
VERTEX
  8
PLAN_1
  6
CONTINUOUS
 10
-1.618634
 20
0.562791
  0
SEQEND
  8
0
  0
POLYLINE
  8
PLAN_1
  6
CONTINUOUS
 66
     1
 40
0.008106
 41
0.008106
  0
VERTEX
  8
PLAN_1
  6
CONTINUOUS
 10
-1.618634
 20
0.562791
  0
VERTEX
  8
PLAN_1
  6
CONTINUOUS
 10
-1.902402
 20
0.562791
  0
SEQEND
  8
0
  0
POLYLINE
  8
PLAN_1
  6
CONTINUOUS
 66
     1
 40
0.008106
 41
0.008106
  0
VERTEX
  8
PLAN_1
  6
CONTINUOUS
 10
-1.902402
 20
0.562791
  0
VERTEX
  8
PLAN_1
  6
CONTINUOUS
 10
-1.903354
 20
0.561839
  0
VERTEX
  8
PLAN_1
  6
CONTINUOUS
 10
-1.905740
 20
0.559453
  0
VERTEX
  8
PLAN_1
  6
CONTINUOUS
 10
-1.907169
 20
0.557547
  0
VERTEX
  8
PLAN_1
  6
CONTINUOUS
 10
-1.909079
 20
0.555161
  0
VERTEX
  8
PLAN_1
  6
CONTINUOUS
 10
-1.910508
 20
0.552299
  0
VERTEX
  8
PLAN_1
  6
CONTINUOUS
 10
-1.911941
 20
0.549437
  0
VERTEX
  8
PLAN_1
  6
CONTINUOUS
 10
-1.912894
 20
0.546102
  0
VERTEX
  8
PLAN_1
  6
CONTINUOUS
 10
-1.913370
 20
0.542764
  0
VERTEX
  8
PLAN_1
  6
CONTINUOUS
 10
-1.913370
 20
0.538945
  0
VERTEX
  8
PLAN_1
  6
CONTINUOUS
 10
-1.912894
 20
0.534654
  0
VERTEX
  8
PLAN_1
  6
CONTINUOUS
 10
-1.911941
 20
0.530362
  0
VERTEX
  8
PLAN_1
  6
CONTINUOUS
 10
-1.909555
 20
0.526071
  0
VERTEX
  8
PLAN_1
  6
CONTINUOUS
 10
-1.906693
 20
0.521299
  0
VERTEX
  8
PLAN_1
  6
CONTINUOUS
 10
-1.902402
 20
0.516531
  0
SEQEND
  8
0
  0
POLYLINE
  8
PLAN_1
  6
CONTINUOUS
 66
     1
 40
0.008106
 41
0.008106
  0
VERTEX
  8
PLAN_1
  6
CONTINUOUS
 10
-1.902402
 20
0.516531
  0
VERTEX
  8
PLAN_1
  6
CONTINUOUS
 10
-1.618634
 20
0.516531
  0
SEQEND
  8
0
  0
POLYLINE
  8
PLAN_1
  6
CONTINUOUS
 66
     1
 40
0.008106
 41
0.008106
  0
VERTEX
  8
PLAN_1
  6
CONTINUOUS
 10
-1.618634
 20
0.470748
  0
VERTEX
  8
PLAN_1
  6
CONTINUOUS
 10
-1.613866
 20
0.475516
  0
VERTEX
  8
PLAN_1
  6
CONTINUOUS
 10
-1.610528
 20
0.479807
  0
VERTEX
  8
PLAN_1
  6
CONTINUOUS
 10
-1.608142
 20
0.484102
  0
VERTEX
  8
PLAN_1
  6
CONTINUOUS
 10
-1.606713
 20
0.488394
  0
VERTEX
  8
PLAN_1
  6
CONTINUOUS
 10
-1.605756
 20
0.492209
  0
VERTEX
  8
PLAN_1
  6
CONTINUOUS
 10
-1.606236
 20
0.496024
  0
VERTEX
  8
PLAN_1
  6
CONTINUOUS
 10
-1.606713
 20
0.499839
  0
VERTEX
  8
PLAN_1
  6
CONTINUOUS
 10
-1.608142
 20
0.503177
  0
VERTEX
  8
PLAN_1
  6
CONTINUOUS
 10
-1.609575
 20
0.506039
  0
VERTEX
  8
PLAN_1
  6
CONTINUOUS
 10
-1.611004
 20
0.508902
  0
VERTEX
  8
PLAN_1
  6
CONTINUOUS
 10
-1.612913
 20
0.511283
  0
VERTEX
  8
PLAN_1
  6
CONTINUOUS
 10
-1.614819
 20
0.513193
  0
VERTEX
  8
PLAN_1
  6
CONTINUOUS
 10
-1.617681
 20
0.516055
  0
VERTEX
  8
PLAN_1
  6
CONTINUOUS
 10
-1.618634
 20
0.517008
  0
SEQEND
  8
0
  0
POLYLINE
  8
PLAN_1
  6
CONTINUOUS
 66
     1
 40
0.008106
 41
0.008106
  0
VERTEX
  8
PLAN_1
  6
CONTINUOUS
 10
-1.618634
 20
0.517008
  0
VERTEX
  8
PLAN_1
  6
CONTINUOUS
 10
-1.902878
 20
0.517008
  0
SEQEND
  8
0
  0
POLYLINE
  8
PLAN_1
  6
CONTINUOUS
 66
     1
 40
0.008106
 41
0.008106
  0
VERTEX
  8
PLAN_1
  6
CONTINUOUS
 10
-1.902878
 20
0.517008
  0
VERTEX
  8
PLAN_1
  6
CONTINUOUS
 10
-1.903831
 20
0.516055
  0
VERTEX
  8
PLAN_1
  6
CONTINUOUS
 10
-1.906217
 20
0.513669
  0
VERTEX
  8
PLAN_1
  6
CONTINUOUS
 10
-1.907650
 20
0.511764
  0
VERTEX
  8
PLAN_1
  6
CONTINUOUS
 10
-1.909555
 20
0.509378
  0
VERTEX
  8
PLAN_1
  6
CONTINUOUS
 10
-1.910988
 20
0.506516
  0
VERTEX
  8
PLAN_1
  6
CONTINUOUS
 10
-1.912417
 20
0.503654
  0
VERTEX
  8
PLAN_1
  6
CONTINUOUS
 10
-1.913370
 20
0.500315
  0
VERTEX
  8
PLAN_1
  6
CONTINUOUS
 10
-1.913846
 20
0.496976
  0
VERTEX
  8
PLAN_1
  6
CONTINUOUS
 10
-1.913846
 20
0.493161
  0
VERTEX
  8
PLAN_1
  6
CONTINUOUS
 10
-1.913370
 20
0.488870
  0
VERTEX
  8
PLAN_1
  6
CONTINUOUS
 10
-1.912417
 20
0.484579
  0
VERTEX
  8
PLAN_1
  6
CONTINUOUS
 10
-1.910031
 20
0.480287
  0
VERTEX
  8
PLAN_1
  6
CONTINUOUS
 10
-1.906693
 20
0.475516
  0
VERTEX
  8
PLAN_1
  6
CONTINUOUS
 10
-1.902878
 20
0.470748
  0
SEQEND
  8
0
  0
POLYLINE
  8
PLAN_1
  6
CONTINUOUS
 66
     1
 40
0.008106
 41
0.008106
  0
VERTEX
  8
PLAN_1
  6
CONTINUOUS
 10
-1.902878
 20
0.470748
  0
VERTEX
  8
PLAN_1
  6
CONTINUOUS
 10
-1.618634
 20
0.470748
  0
SEQEND
  8
0
  0
POLYLINE
  8
PLAN_1
  6
CONTINUOUS
 66
     1
 40
0.008106
 41
0.008106
  0
VERTEX
  8
PLAN_1
  6
CONTINUOUS
 10
-1.618634
 20
0.425441
  0
VERTEX
  8
PLAN_1
  6
CONTINUOUS
 10
-1.613866
 20
0.429732
  0
VERTEX
  8
PLAN_1
  6
CONTINUOUS
 10
-1.610051
 20
0.434024
  0
VERTEX
  8
PLAN_1
  6
CONTINUOUS
 10
-1.607665
 20
0.438315
  0
VERTEX
  8
PLAN_1
  6
CONTINUOUS
 10
-1.606236
 20
0.442610
  0
VERTEX
  8
PLAN_1
  6
CONTINUOUS
 10
-1.605756
 20
0.446425
  0
VERTEX
  8
PLAN_1
  6
CONTINUOUS
 10
-1.605756
 20
0.450240
  0
VERTEX
  8
PLAN_1
  6
CONTINUOUS
 10
-1.606236
 20
0.454055
  0
VERTEX
  8
PLAN_1
  6
CONTINUOUS
 10
-1.607665
 20
0.457394
  0
VERTEX
  8
PLAN_1
  6
CONTINUOUS
 10
-1.609094
 20
0.460256
  0
VERTEX
  8
PLAN_1
  6
CONTINUOUS
 10
-1.611004
 20
0.463118
  0
VERTEX
  8
PLAN_1
  6
CONTINUOUS
 10
-1.612433
 20
0.465500
  0
VERTEX
  8
PLAN_1
  6
CONTINUOUS
 10
-1.614343
 20
0.467409
  0
VERTEX
  8
PLAN_1
  6
CONTINUOUS
 10
-1.617205
 20
0.470272
  0
VERTEX
  8
PLAN_1
  6
CONTINUOUS
 10
-1.618634
 20
0.471224
  0
SEQEND
  8
0
  0
POLYLINE
  8
PLAN_1
  6
CONTINUOUS
 66
     1
 40
0.008106
 41
0.008106
  0
VERTEX
  8
PLAN_1
  6
CONTINUOUS
 10
-1.618634
 20
0.471224
  0
VERTEX
  8
PLAN_1
  6
CONTINUOUS
 10
-1.902402
 20
0.471224
  0
SEQEND
  8
0
  0
POLYLINE
  8
PLAN_1
  6
CONTINUOUS
 66
     1
 40
0.008106
 41
0.008106
  0
VERTEX
  8
PLAN_1
  6
CONTINUOUS
 10
-1.902402
 20
0.471224
  0
VERTEX
  8
PLAN_1
  6
CONTINUOUS
 10
-1.903354
 20
0.470272
  0
VERTEX
  8
PLAN_1
  6
CONTINUOUS
 10
-1.905740
 20
0.467886
  0
VERTEX
  8
PLAN_1
  6
CONTINUOUS
 10
-1.907169
 20
0.465976
  0
VERTEX
  8
PLAN_1
  6
CONTINUOUS
 10
-1.909079
 20
0.463594
  0
VERTEX
  8
PLAN_1
  6
CONTINUOUS
 10
-1.910508
 20
0.460732
  0
VERTEX
  8
PLAN_1
  6
CONTINUOUS
 10
-1.911941
 20
0.457870
  0
VERTEX
  8
PLAN_1
  6
CONTINUOUS
 10
-1.912894
 20
0.454531
  0
VERTEX
  8
PLAN_1
  6
CONTINUOUS
 10
-1.913370
 20
0.451193
  0
VERTEX
  8
PLAN_1
  6
CONTINUOUS
 10
-1.913370
 20
0.447378
  0
VERTEX
  8
PLAN_1
  6
CONTINUOUS
 10
-1.912894
 20
0.443087
  0
VERTEX
  8
PLAN_1
  6
CONTINUOUS
 10
-1.911941
 20
0.439272
  0
VERTEX
  8
PLAN_1
  6
CONTINUOUS
 10
-1.909555
 20
0.434500
  0
VERTEX
  8
PLAN_1
  6
CONTINUOUS
 10
-1.906693
 20
0.430209
  0
VERTEX
  8
PLAN_1
  6
CONTINUOUS
 10
-1.902402
 20
0.425441
  0
SEQEND
  8
0
  0
POLYLINE
  8
PLAN_1
  6
CONTINUOUS
 66
     1
 40
0.008106
 41
0.008106
  0
VERTEX
  8
PLAN_1
  6
CONTINUOUS
 10
-1.902402
 20
0.425441
  0
VERTEX
  8
PLAN_1
  6
CONTINUOUS
 10
-1.618634
 20
0.425441
  0
SEQEND
  8
0
  0
POLYLINE
  8
PLAN_1
  6
CONTINUOUS
 66
     1
 40
0.008106
 41
0.008106
  0
VERTEX
  8
PLAN_1
  6
CONTINUOUS
 10
-1.618157
 20
1.707402
  0
VERTEX
  8
PLAN_1
  6
CONTINUOUS
 10
-1.672051
 20
3.468189
  0
SEQEND
  8
0
  0
POLYLINE
  8
PLAN_1
  6
CONTINUOUS
 66
     1
 40
0.008106
 41
0.008106
  0
VERTEX
  8
PLAN_1
  6
CONTINUOUS
 10
-1.672051
 20
3.468189
  0
VERTEX
  8
PLAN_1
  6
CONTINUOUS
 10
-1.681587
 20
3.486787
  0
VERTEX
  8
PLAN_1
  6
CONTINUOUS
 10
-1.691126
 20
3.503004
  0
VERTEX
  8
PLAN_1
  6
CONTINUOUS
 10
-1.701142
 20
3.516835
  0
VERTEX
  8
PLAN_1
  6
CONTINUOUS
 10
-1.710681
 20
3.528756
  0
VERTEX
  8
PLAN_1
  6
CONTINUOUS
 10
-1.720217
 20
3.538295
  0
VERTEX
  8
PLAN_1
  6
CONTINUOUS
 10
-1.729756
 20
3.546402
  0
VERTEX
  8
PLAN_1
  6
CONTINUOUS
 10
-1.739295
 20
3.552126
  0
VERTEX
  8
PLAN_1
  6
CONTINUOUS
 10
-1.748358
 20
3.556894
  0
VERTEX
  8
PLAN_1
  6
CONTINUOUS
 10
-1.757894
 20
3.559756
  0
VERTEX
  8
PLAN_1
  6
CONTINUOUS
 10
-1.766480
 20
3.561185
  0
VERTEX
  8
PLAN_1
  6
CONTINUOUS
 10
-1.775539
 20
3.561185
  0
VERTEX
  8
PLAN_1
  6
CONTINUOUS
 10
-1.784126
 20
3.560232
  0
VERTEX
  8
PLAN_1
  6
CONTINUOUS
 10
-1.792709
 20
3.557846
  0
VERTEX
  8
PLAN_1
  6
CONTINUOUS
 10
-1.800819
 20
3.554988
  0
VERTEX
  8
PLAN_1
  6
CONTINUOUS
 10
-1.808925
 20
3.551169
  0
VERTEX
  8
PLAN_1
  6
CONTINUOUS
 10
-1.816555
 20
3.546402
  0
VERTEX
  8
PLAN_1
  6
CONTINUOUS
 10
-1.823709
 20
3.541157
  0
VERTEX
  8
PLAN_1
  6
CONTINUOUS
 10
-1.830862
 20
3.535433
  0
VERTEX
  8
PLAN_1
  6
CONTINUOUS
 10
-1.837539
 20
3.529232
  0
VERTEX
  8
PLAN_1
  6
CONTINUOUS
 10
-1.844217
 20
3.522555
  0
VERTEX
  8
PLAN_1
  6
CONTINUOUS
 10
-1.849941
 20
3.515878
  0
VERTEX
  8
PLAN_1
  6
CONTINUOUS
 10
-1.855665
 20
3.509201
  0
VERTEX
  8
PLAN_1
  6
CONTINUOUS
 10
-1.860909
 20
3.503004
  0
VERTEX
  8
PLAN_1
  6
CONTINUOUS
 10
-1.865201
 20
3.496327
  0
VERTEX
  8
PLAN_1
  6
CONTINUOUS
 10
-1.879031
 20
3.475343
  0
VERTEX
  8
PLAN_1
  6
CONTINUOUS
 10
-1.884280
 20
3.466756
  0
SEQEND
  8
0
  0
POLYLINE
  8
PLAN_1
  6
CONTINUOUS
 66
     1
 40
0.008106
 41
0.008106
  0
VERTEX
  8
PLAN_1
  6
CONTINUOUS
 10
-1.884280
 20
3.466756
  0
VERTEX
  8
PLAN_1
  6
CONTINUOUS
 10
-1.903831
 20
1.707402
  0
SEQEND
  8
0
  0
POLYLINE
  8
PLAN_1
  6
CONTINUOUS
 66
     1
 40
0.008106
 41
0.008106
  0
VERTEX
  8
PLAN_1
  6
CONTINUOUS
 10
-1.619110
 20
1.661614
  0
VERTEX
  8
PLAN_1
  6
CONTINUOUS
 10
-1.614343
 20
1.665909
  0
VERTEX
  8
PLAN_1
  6
CONTINUOUS
 10
-1.610528
 20
1.670201
  0
VERTEX
  8
PLAN_1
  6
CONTINUOUS
 10
-1.608142
 20
1.674492
  0
VERTEX
  8
PLAN_1
  6
CONTINUOUS
 10
-1.606713
 20
1.678783
  0
VERTEX
  8
PLAN_1
  6
CONTINUOUS
 10
-1.606236
 20
1.682598
  0
VERTEX
  8
PLAN_1
  6
CONTINUOUS
 10
-1.606236
 20
1.686413
  0
VERTEX
  8
PLAN_1
  6
CONTINUOUS
 10
-1.607189
 20
1.690232
  0
VERTEX
  8
PLAN_1
  6
CONTINUOUS
 10
-1.608142
 20
1.693571
  0
VERTEX
  8
PLAN_1
  6
CONTINUOUS
 10
-1.609575
 20
1.696429
  0
VERTEX
  8
PLAN_1
  6
CONTINUOUS
 10
-1.611480
 20
1.699291
  0
VERTEX
  8
PLAN_1
  6
CONTINUOUS
 10
-1.613390
 20
1.701677
  0
VERTEX
  8
PLAN_1
  6
CONTINUOUS
 10
-1.614819
 20
1.703583
  0
VERTEX
  8
PLAN_1
  6
CONTINUOUS
 10
-1.617681
 20
1.706445
  0
VERTEX
  8
PLAN_1
  6
CONTINUOUS
 10
-1.619110
 20
1.707402
  0
SEQEND
  8
0
  0
POLYLINE
  8
PLAN_1
  6
CONTINUOUS
 66
     1
 40
0.008106
 41
0.008106
  0
VERTEX
  8
PLAN_1
  6
CONTINUOUS
 10
-1.619110
 20
1.707402
  0
VERTEX
  8
PLAN_1
  6
CONTINUOUS
 10
-1.902878
 20
1.707402
  0
SEQEND
  8
0
  0
POLYLINE
  8
PLAN_1
  6
CONTINUOUS
 66
     1
 40
0.008106
 41
0.008106
  0
VERTEX
  8
PLAN_1
  6
CONTINUOUS
 10
-1.902878
 20
1.707402
  0
VERTEX
  8
PLAN_1
  6
CONTINUOUS
 10
-1.903831
 20
1.706445
  0
VERTEX
  8
PLAN_1
  6
CONTINUOUS
 10
-1.906693
 20
1.704063
  0
VERTEX
  8
PLAN_1
  6
CONTINUOUS
 10
-1.908126
 20
1.702154
  0
VERTEX
  8
PLAN_1
  6
CONTINUOUS
 10
-1.909555
 20
1.699768
  0
VERTEX
  8
PLAN_1
  6
CONTINUOUS
 10
-1.910988
 20
1.696909
  0
VERTEX
  8
PLAN_1
  6
CONTINUOUS
 10
-1.912417
 20
1.694047
  0
VERTEX
  8
PLAN_1
  6
CONTINUOUS
 10
-1.913370
 20
1.690709
  0
VERTEX
  8
PLAN_1
  6
CONTINUOUS
 10
-1.914323
 20
1.687370
  0
VERTEX
  8
PLAN_1
  6
CONTINUOUS
 10
-1.914323
 20
1.683555
  0
VERTEX
  8
PLAN_1
  6
CONTINUOUS
 10
-1.913846
 20
1.679260
  0
VERTEX
  8
PLAN_1
  6
CONTINUOUS
 10
-1.912417
 20
1.674969
  0
VERTEX
  8
PLAN_1
  6
CONTINUOUS
 10
-1.910031
 20
1.670677
  0
VERTEX
  8
PLAN_1
  6
CONTINUOUS
 10
-1.907169
 20
1.665909
  0
VERTEX
  8
PLAN_1
  6
CONTINUOUS
 10
-1.902878
 20
1.661614
  0
SEQEND
  8
0
  0
POLYLINE
  8
PLAN_1
  6
CONTINUOUS
 66
     1
 40
0.008106
 41
0.008106
  0
VERTEX
  8
PLAN_1
  6
CONTINUOUS
 10
-1.902878
 20
1.661614
  0
VERTEX
  8
PLAN_1
  6
CONTINUOUS
 10
-1.619110
 20
1.661614
  0
SEQEND
  8
0
  0
POLYLINE
  8
PLAN_1
  6
CONTINUOUS
 66
     1
 40
0.008106
 41
0.008106
  0
VERTEX
  8
PLAN_1
  6
CONTINUOUS
 10
-1.618634
 20
1.615831
  0
VERTEX
  8
PLAN_1
  6
CONTINUOUS
 10
-1.613866
 20
1.620122
  0
VERTEX
  8
PLAN_1
  6
CONTINUOUS
 10
-1.610528
 20
1.624417
  0
VERTEX
  8
PLAN_1
  6
CONTINUOUS
 10
-1.607665
 20
1.628709
  0
VERTEX
  8
PLAN_1
  6
CONTINUOUS
 10
-1.606236
 20
1.633000
  0
VERTEX
  8
PLAN_1
  6
CONTINUOUS
 10
-1.605756
 20
1.636815
  0
VERTEX
  8
PLAN_1
  6
CONTINUOUS
 10
-1.605756
 20
1.640630
  0
VERTEX
  8
PLAN_1
  6
CONTINUOUS
 10
-1.606713
 20
1.644445
  0
VERTEX
  8
PLAN_1
  6
CONTINUOUS
 10
-1.607665
 20
1.647783
  0
VERTEX
  8
PLAN_1
  6
CONTINUOUS
 10
-1.609094
 20
1.650646
  0
VERTEX
  8
PLAN_1
  6
CONTINUOUS
 10
-1.611004
 20
1.653508
  0
VERTEX
  8
PLAN_1
  6
CONTINUOUS
 10
-1.612913
 20
1.655894
  0
VERTEX
  8
PLAN_1
  6
CONTINUOUS
 10
-1.614343
 20
1.657799
  0
VERTEX
  8
PLAN_1
  6
CONTINUOUS
 10
-1.617681
 20
1.660661
  0
VERTEX
  8
PLAN_1
  6
CONTINUOUS
 10
-1.618634
 20
1.661614
  0
SEQEND
  8
0
  0
POLYLINE
  8
PLAN_1
  6
CONTINUOUS
 66
     1
 40
0.008106
 41
0.008106
  0
VERTEX
  8
PLAN_1
  6
CONTINUOUS
 10
-1.618634
 20
1.661614
  0
VERTEX
  8
PLAN_1
  6
CONTINUOUS
 10
-1.902402
 20
1.661614
  0
SEQEND
  8
0
  0
POLYLINE
  8
PLAN_1
  6
CONTINUOUS
 66
     1
 40
0.008106
 41
0.008106
  0
VERTEX
  8
PLAN_1
  6
CONTINUOUS
 10
-1.902402
 20
1.661614
  0
VERTEX
  8
PLAN_1
  6
CONTINUOUS
 10
-1.903354
 20
1.660661
  0
VERTEX
  8
PLAN_1
  6
CONTINUOUS
 10
-1.906217
 20
1.658276
  0
VERTEX
  8
PLAN_1
  6
CONTINUOUS
 10
-1.907650
 20
1.656370
  0
VERTEX
  8
PLAN_1
  6
CONTINUOUS
 10
-1.909079
 20
1.653984
  0
VERTEX
  8
PLAN_1
  6
CONTINUOUS
 10
-1.910508
 20
1.651122
  0
VERTEX
  8
PLAN_1
  6
CONTINUOUS
 10
-1.911941
 20
1.648260
  0
VERTEX
  8
PLAN_1
  6
CONTINUOUS
 10
-1.912894
 20
1.644925
  0
VERTEX
  8
PLAN_1
  6
CONTINUOUS
 10
-1.913846
 20
1.641587
  0
VERTEX
  8
PLAN_1
  6
CONTINUOUS
 10
-1.913846
 20
1.637768
  0
VERTEX
  8
PLAN_1
  6
CONTINUOUS
 10
-1.913370
 20
1.633476
  0
VERTEX
  8
PLAN_1
  6
CONTINUOUS
 10
-1.911941
 20
1.629661
  0
VERTEX
  8
PLAN_1
  6
CONTINUOUS
 10
-1.910031
 20
1.624894
  0
VERTEX
  8
PLAN_1
  6
CONTINUOUS
 10
-1.906693
 20
1.620602
  0
VERTEX
  8
PLAN_1
  6
CONTINUOUS
 10
-1.902402
 20
1.615831
  0
SEQEND
  8
0
  0
POLYLINE
  8
PLAN_1
  6
CONTINUOUS
 66
     1
 40
0.008106
 41
0.008106
  0
VERTEX
  8
PLAN_1
  6
CONTINUOUS
 10
-1.902402
 20
1.615831
  0
VERTEX
  8
PLAN_1
  6
CONTINUOUS
 10
-1.618634
 20
1.615831
  0
SEQEND
  8
0
  0
POLYLINE
  8
PLAN_1
  6
CONTINUOUS
 66
     1
 40
0.008106
 41
0.008106
  0
VERTEX
  8
PLAN_1
  6
CONTINUOUS
 10
-1.618634
 20
1.569094
  0
VERTEX
  8
PLAN_1
  6
CONTINUOUS
 10
-1.613866
 20
1.573862
  0
VERTEX
  8
PLAN_1
  6
CONTINUOUS
 10
-1.610528
 20
1.578154
  0
VERTEX
  8
PLAN_1
  6
CONTINUOUS
 10
-1.608142
 20
1.582449
  0
VERTEX
  8
PLAN_1
  6
CONTINUOUS
 10
-1.606713
 20
1.586740
  0
VERTEX
  8
PLAN_1
  6
CONTINUOUS
 10
-1.605756
 20
1.590555
  0
VERTEX
  8
PLAN_1
  6
CONTINUOUS
 10
-1.606236
 20
1.594370
  0
VERTEX
  8
PLAN_1
  6
CONTINUOUS
 10
-1.606713
 20
1.598185
  0
VERTEX
  8
PLAN_1
  6
CONTINUOUS
 10
-1.608142
 20
1.601524
  0
VERTEX
  8
PLAN_1
  6
CONTINUOUS
 10
-1.609575
 20
1.604386
  0
VERTEX
  8
PLAN_1
  6
CONTINUOUS
 10
-1.611004
 20
1.607248
  0
VERTEX
  8
PLAN_1
  6
CONTINUOUS
 10
-1.612913
 20
1.609630
  0
VERTEX
  8
PLAN_1
  6
CONTINUOUS
 10
-1.614819
 20
1.611539
  0
VERTEX
  8
PLAN_1
  6
CONTINUOUS
 10
-1.617681
 20
1.614402
  0
VERTEX
  8
PLAN_1
  6
CONTINUOUS
 10
-1.618634
 20
1.615354
  0
SEQEND
  8
0
  0
POLYLINE
  8
PLAN_1
  6
CONTINUOUS
 66
     1
 40
0.008106
 41
0.008106
  0
VERTEX
  8
PLAN_1
  6
CONTINUOUS
 10
-1.618634
 20
1.615354
  0
VERTEX
  8
PLAN_1
  6
CONTINUOUS
 10
-1.902878
 20
1.615354
  0
SEQEND
  8
0
  0
POLYLINE
  8
PLAN_1
  6
CONTINUOUS
 66
     1
 40
0.008106
 41
0.008106
  0
VERTEX
  8
PLAN_1
  6
CONTINUOUS
 10
-1.902878
 20
1.615354
  0
VERTEX
  8
PLAN_1
  6
CONTINUOUS
 10
-1.903831
 20
1.614402
  0
VERTEX
  8
PLAN_1
  6
CONTINUOUS
 10
-1.906217
 20
1.612016
  0
VERTEX
  8
PLAN_1
  6
CONTINUOUS
 10
-1.907650
 20
1.610106
  0
VERTEX
  8
PLAN_1
  6
CONTINUOUS
 10
-1.909555
 20
1.607724
  0
VERTEX
  8
PLAN_1
  6
CONTINUOUS
 10
-1.910988
 20
1.604862
  0
VERTEX
  8
PLAN_1
  6
CONTINUOUS
 10
-1.912417
 20
1.602000
  0
VERTEX
  8
PLAN_1
  6
CONTINUOUS
 10
-1.913370
 20
1.598661
  0
VERTEX
  8
PLAN_1
  6
CONTINUOUS
 10
-1.913846
 20
1.595323
  0
VERTEX
  8
PLAN_1
  6
CONTINUOUS
 10
-1.913846
 20
1.591508
  0
VERTEX
  8
PLAN_1
  6
CONTINUOUS
 10
-1.913370
 20
1.587217
  0
VERTEX
  8
PLAN_1
  6
CONTINUOUS
 10
-1.912417
 20
1.582925
  0
VERTEX
  8
PLAN_1
  6
CONTINUOUS
 10
-1.910031
 20
1.578630
  0
VERTEX
  8
PLAN_1
  6
CONTINUOUS
 10
-1.906693
 20
1.573862
  0
VERTEX
  8
PLAN_1
  6
CONTINUOUS
 10
-1.902878
 20
1.569094
  0
SEQEND
  8
0
  0
POLYLINE
  8
PLAN_1
  6
CONTINUOUS
 66
     1
 40
0.008106
 41
0.008106
  0
VERTEX
  8
PLAN_1
  6
CONTINUOUS
 10
-1.902878
 20
1.569094
  0
VERTEX
  8
PLAN_1
  6
CONTINUOUS
 10
-1.618634
 20
1.569094
  0
SEQEND
  8
0
  0
POLYLINE
  8
PLAN_1
  6
CONTINUOUS
 66
     1
 40
0.008106
 41
0.008106
  0
VERTEX
  8
PLAN_1
  6
CONTINUOUS
 10
-1.618634
 20
1.523787
  0
VERTEX
  8
PLAN_1
  6
CONTINUOUS
 10
-1.613866
 20
1.528079
  0
VERTEX
  8
PLAN_1
  6
CONTINUOUS
 10
-1.610051
 20
1.532370
  0
VERTEX
  8
PLAN_1
  6
CONTINUOUS
 10
-1.607665
 20
1.536661
  0
VERTEX
  8
PLAN_1
  6
CONTINUOUS
 10
-1.606236
 20
1.540957
  0
VERTEX
  8
PLAN_1
  6
CONTINUOUS
 10
-1.605756
 20
1.544772
  0
VERTEX
  8
PLAN_1
  6
CONTINUOUS
 10
-1.605756
 20
1.548587
  0
VERTEX
  8
PLAN_1
  6
CONTINUOUS
 10
-1.606236
 20
1.552402
  0
VERTEX
  8
PLAN_1
  6
CONTINUOUS
 10
-1.607665
 20
1.555740
  0
VERTEX
  8
PLAN_1
  6
CONTINUOUS
 10
-1.609094
 20
1.558602
  0
VERTEX
  8
PLAN_1
  6
CONTINUOUS
 10
-1.611004
 20
1.561461
  0
VERTEX
  8
PLAN_1
  6
CONTINUOUS
 10
-1.612433
 20
1.563846
  0
VERTEX
  8
PLAN_1
  6
CONTINUOUS
 10
-1.614343
 20
1.565756
  0
VERTEX
  8
PLAN_1
  6
CONTINUOUS
 10
-1.617205
 20
1.568618
  0
VERTEX
  8
PLAN_1
  6
CONTINUOUS
 10
-1.618634
 20
1.569571
  0
SEQEND
  8
0
  0
POLYLINE
  8
PLAN_1
  6
CONTINUOUS
 66
     1
 40
0.008106
 41
0.008106
  0
VERTEX
  8
PLAN_1
  6
CONTINUOUS
 10
-1.618634
 20
1.569571
  0
VERTEX
  8
PLAN_1
  6
CONTINUOUS
 10
-1.902402
 20
1.569571
  0
SEQEND
  8
0
  0
POLYLINE
  8
PLAN_1
  6
CONTINUOUS
 66
     1
 40
0.008106
 41
0.008106
  0
VERTEX
  8
PLAN_1
  6
CONTINUOUS
 10
-1.902402
 20
1.569571
  0
VERTEX
  8
PLAN_1
  6
CONTINUOUS
 10
-1.903354
 20
1.568618
  0
VERTEX
  8
PLAN_1
  6
CONTINUOUS
 10
-1.905740
 20
1.566232
  0
VERTEX
  8
PLAN_1
  6
CONTINUOUS
 10
-1.907169
 20
1.564323
  0
VERTEX
  8
PLAN_1
  6
CONTINUOUS
 10
-1.909079
 20
1.561941
  0
VERTEX
  8
PLAN_1
  6
CONTINUOUS
 10
-1.910508
 20
1.559079
  0
VERTEX
  8
PLAN_1
  6
CONTINUOUS
 10
-1.911941
 20
1.556217
  0
VERTEX
  8
PLAN_1
  6
CONTINUOUS
 10
-1.912894
 20
1.552878
  0
VERTEX
  8
PLAN_1
  6
CONTINUOUS
 10
-1.913370
 20
1.549539
  0
VERTEX
  8
PLAN_1
  6
CONTINUOUS
 10
-1.913370
 20
1.545724
  0
VERTEX
  8
PLAN_1
  6
CONTINUOUS
 10
-1.912894
 20
1.541433
  0
VERTEX
  8
PLAN_1
  6
CONTINUOUS
 10
-1.911941
 20
1.537138
  0
VERTEX
  8
PLAN_1
  6
CONTINUOUS
 10
-1.909555
 20
1.532846
  0
VERTEX
  8
PLAN_1
  6
CONTINUOUS
 10
-1.906693
 20
1.528079
  0
VERTEX
  8
PLAN_1
  6
CONTINUOUS
 10
-1.902402
 20
1.523787
  0
SEQEND
  8
0
  0
POLYLINE
  8
PLAN_1
  6
CONTINUOUS
 66
     1
 40
0.008106
 41
0.008106
  0
VERTEX
  8
PLAN_1
  6
CONTINUOUS
 10
-1.902402
 20
1.523787
  0
VERTEX
  8
PLAN_1
  6
CONTINUOUS
 10
-1.618634
 20
1.523787
  0
SEQEND
  8
0
  0
POLYLINE
  8
PLAN_1
  6
CONTINUOUS
 66
     1
 40
0.008106
 41
0.008106
  0
VERTEX
  8
PLAN_1
  6
CONTINUOUS
 10
-1.618634
 20
1.478000
  0
VERTEX
  8
PLAN_1
  6
CONTINUOUS
 10
-1.613866
 20
1.482295
  0
VERTEX
  8
PLAN_1
  6
CONTINUOUS
 10
-1.610528
 20
1.486587
  0
VERTEX
  8
PLAN_1
  6
CONTINUOUS
 10
-1.608142
 20
1.490878
  0
VERTEX
  8
PLAN_1
  6
CONTINUOUS
 10
-1.606713
 20
1.495169
  0
VERTEX
  8
PLAN_1
  6
CONTINUOUS
 10
-1.605756
 20
1.498984
  0
VERTEX
  8
PLAN_1
  6
CONTINUOUS
 10
-1.606236
 20
1.502803
  0
VERTEX
  8
PLAN_1
  6
CONTINUOUS
 10
-1.606713
 20
1.506618
  0
VERTEX
  8
PLAN_1
  6
CONTINUOUS
 10
-1.608142
 20
1.509957
  0
VERTEX
  8
PLAN_1
  6
CONTINUOUS
 10
-1.609575
 20
1.512815
  0
VERTEX
  8
PLAN_1
  6
CONTINUOUS
 10
-1.611004
 20
1.515677
  0
VERTEX
  8
PLAN_1
  6
CONTINUOUS
 10
-1.612913
 20
1.518063
  0
VERTEX
  8
PLAN_1
  6
CONTINUOUS
 10
-1.614819
 20
1.519969
  0
VERTEX
  8
PLAN_1
  6
CONTINUOUS
 10
-1.617681
 20
1.522831
  0
VERTEX
  8
PLAN_1
  6
CONTINUOUS
 10
-1.618634
 20
1.523787
  0
SEQEND
  8
0
  0
POLYLINE
  8
PLAN_1
  6
CONTINUOUS
 66
     1
 40
0.008106
 41
0.008106
  0
VERTEX
  8
PLAN_1
  6
CONTINUOUS
 10
-1.618634
 20
1.523787
  0
VERTEX
  8
PLAN_1
  6
CONTINUOUS
 10
-1.902878
 20
1.523787
  0
SEQEND
  8
0
  0
POLYLINE
  8
PLAN_1
  6
CONTINUOUS
 66
     1
 40
0.008106
 41
0.008106
  0
VERTEX
  8
PLAN_1
  6
CONTINUOUS
 10
-1.902878
 20
1.523787
  0
VERTEX
  8
PLAN_1
  6
CONTINUOUS
 10
-1.903831
 20
1.522831
  0
VERTEX
  8
PLAN_1
  6
CONTINUOUS
 10
-1.906217
 20
1.520449
  0
VERTEX
  8
PLAN_1
  6
CONTINUOUS
 10
-1.907650
 20
1.518539
  0
VERTEX
  8
PLAN_1
  6
CONTINUOUS
 10
-1.909555
 20
1.516154
  0
VERTEX
  8
PLAN_1
  6
CONTINUOUS
 10
-1.910988
 20
1.513295
  0
VERTEX
  8
PLAN_1
  6
CONTINUOUS
 10
-1.912417
 20
1.510433
  0
VERTEX
  8
PLAN_1
  6
CONTINUOUS
 10
-1.913370
 20
1.507094
  0
VERTEX
  8
PLAN_1
  6
CONTINUOUS
 10
-1.913846
 20
1.503756
  0
VERTEX
  8
PLAN_1
  6
CONTINUOUS
 10
-1.913846
 20
1.499941
  0
VERTEX
  8
PLAN_1
  6
CONTINUOUS
 10
-1.913370
 20
1.495646
  0
VERTEX
  8
PLAN_1
  6
CONTINUOUS
 10
-1.912417
 20
1.491831
  0
VERTEX
  8
PLAN_1
  6
CONTINUOUS
 10
-1.910031
 20
1.487063
  0
VERTEX
  8
PLAN_1
  6
CONTINUOUS
 10
-1.906693
 20
1.482772
  0
VERTEX
  8
PLAN_1
  6
CONTINUOUS
 10
-1.902878
 20
1.478000
  0
SEQEND
  8
0
  0
POLYLINE
  8
PLAN_1
  6
CONTINUOUS
 66
     1
 40
0.008106
 41
0.008106
  0
VERTEX
  8
PLAN_1
  6
CONTINUOUS
 10
-1.902878
 20
1.478000
  0
VERTEX
  8
PLAN_1
  6
CONTINUOUS
 10
-1.618634
 20
1.478000
  0
SEQEND
  8
0
  0
POLYLINE
  8
PLAN_1
  6
CONTINUOUS
 66
     1
 40
0.008106
 41
0.008106
  0
VERTEX
  8
PLAN_1
  6
CONTINUOUS
 10
-1.618634
 20
1.432217
  0
VERTEX
  8
PLAN_1
  6
CONTINUOUS
 10
-1.613866
 20
1.436508
  0
VERTEX
  8
PLAN_1
  6
CONTINUOUS
 10
-1.610051
 20
1.440803
  0
VERTEX
  8
PLAN_1
  6
CONTINUOUS
 10
-1.607665
 20
1.445094
  0
VERTEX
  8
PLAN_1
  6
CONTINUOUS
 10
-1.606236
 20
1.449386
  0
VERTEX
  8
PLAN_1
  6
CONTINUOUS
 10
-1.605756
 20
1.453201
  0
VERTEX
  8
PLAN_1
  6
CONTINUOUS
 10
-1.605756
 20
1.457016
  0
VERTEX
  8
PLAN_1
  6
CONTINUOUS
 10
-1.606236
 20
1.460831
  0
VERTEX
  8
PLAN_1
  6
CONTINUOUS
 10
-1.607665
 20
1.464169
  0
VERTEX
  8
PLAN_1
  6
CONTINUOUS
 10
-1.609094
 20
1.467031
  0
VERTEX
  8
PLAN_1
  6
CONTINUOUS
 10
-1.611004
 20
1.469894
  0
VERTEX
  8
PLAN_1
  6
CONTINUOUS
 10
-1.612433
 20
1.472280
  0
VERTEX
  8
PLAN_1
  6
CONTINUOUS
 10
-1.614343
 20
1.474185
  0
VERTEX
  8
PLAN_1
  6
CONTINUOUS
 10
-1.617205
 20
1.477047
  0
VERTEX
  8
PLAN_1
  6
CONTINUOUS
 10
-1.618634
 20
1.478480
  0
SEQEND
  8
0
  0
POLYLINE
  8
PLAN_1
  6
CONTINUOUS
 66
     1
 40
0.008106
 41
0.008106
  0
VERTEX
  8
PLAN_1
  6
CONTINUOUS
 10
-1.618634
 20
1.478480
  0
VERTEX
  8
PLAN_1
  6
CONTINUOUS
 10
-1.902402
 20
1.478480
  0
SEQEND
  8
0
  0
POLYLINE
  8
PLAN_1
  6
CONTINUOUS
 66
     1
 40
0.008106
 41
0.008106
  0
VERTEX
  8
PLAN_1
  6
CONTINUOUS
 10
-1.902402
 20
1.478480
  0
VERTEX
  8
PLAN_1
  6
CONTINUOUS
 10
-1.903354
 20
1.477524
  0
VERTEX
  8
PLAN_1
  6
CONTINUOUS
 10
-1.905740
 20
1.474661
  0
VERTEX
  8
PLAN_1
  6
CONTINUOUS
 10
-1.907169
 20
1.472756
  0
VERTEX
  8
PLAN_1
  6
CONTINUOUS
 10
-1.909079
 20
1.470370
  0
VERTEX
  8
PLAN_1
  6
CONTINUOUS
 10
-1.910508
 20
1.467984
  0
VERTEX
  8
PLAN_1
  6
CONTINUOUS
 10
-1.911941
 20
1.464650
  0
VERTEX
  8
PLAN_1
  6
CONTINUOUS
 10
-1.912894
 20
1.461311
  0
VERTEX
  8
PLAN_1
  6
CONTINUOUS
 10
-1.913370
 20
1.457972
  0
VERTEX
  8
PLAN_1
  6
CONTINUOUS
 10
-1.913370
 20
1.454154
  0
VERTEX
  8
PLAN_1
  6
CONTINUOUS
 10
-1.912894
 20
1.450339
  0
VERTEX
  8
PLAN_1
  6
CONTINUOUS
 10
-1.911941
 20
1.446047
  0
VERTEX
  8
PLAN_1
  6
CONTINUOUS
 10
-1.909555
 20
1.441280
  0
VERTEX
  8
PLAN_1
  6
CONTINUOUS
 10
-1.906693
 20
1.436988
  0
VERTEX
  8
PLAN_1
  6
CONTINUOUS
 10
-1.902402
 20
1.432217
  0
SEQEND
  8
0
  0
POLYLINE
  8
PLAN_1
  6
CONTINUOUS
 66
     1
 40
0.008106
 41
0.008106
  0
VERTEX
  8
PLAN_1
  6
CONTINUOUS
 10
-1.902402
 20
1.432217
  0
VERTEX
  8
PLAN_1
  6
CONTINUOUS
 10
-1.618634
 20
1.432217
  0
SEQEND
  8
0
  0
POLYLINE
  8
PLAN_1
  6
CONTINUOUS
 66
     1
 40
0.008106
 41
0.008106
  0
VERTEX
  8
PLAN_1
  6
CONTINUOUS
 10
-1.618634
 20
1.386433
  0
VERTEX
  8
PLAN_1
  6
CONTINUOUS
 10
-1.613866
 20
1.390724
  0
VERTEX
  8
PLAN_1
  6
CONTINUOUS
 10
-1.610528
 20
1.395016
  0
VERTEX
  8
PLAN_1
  6
CONTINUOUS
 10
-1.608142
 20
1.399311
  0
VERTEX
  8
PLAN_1
  6
CONTINUOUS
 10
-1.606713
 20
1.403602
  0
VERTEX
  8
PLAN_1
  6
CONTINUOUS
 10
-1.605756
 20
1.407894
  0
VERTEX
  8
PLAN_1
  6
CONTINUOUS
 10
-1.606236
 20
1.411709
  0
VERTEX
  8
PLAN_1
  6
CONTINUOUS
 10
-1.606713
 20
1.415047
  0
VERTEX
  8
PLAN_1
  6
CONTINUOUS
 10
-1.608142
 20
1.418386
  0
VERTEX
  8
PLAN_1
  6
CONTINUOUS
 10
-1.609575
 20
1.421248
  0
VERTEX
  8
PLAN_1
  6
CONTINUOUS
 10
-1.611004
 20
1.424110
  0
VERTEX
  8
PLAN_1
  6
CONTINUOUS
 10
-1.612913
 20
1.426496
  0
VERTEX
  8
PLAN_1
  6
CONTINUOUS
 10
-1.614819
 20
1.428878
  0
VERTEX
  8
PLAN_1
  6
CONTINUOUS
 10
-1.617681
 20
1.431740
  0
VERTEX
  8
PLAN_1
  6
CONTINUOUS
 10
-1.618634
 20
1.432693
  0
SEQEND
  8
0
  0
POLYLINE
  8
PLAN_1
  6
CONTINUOUS
 66
     1
 40
0.008106
 41
0.008106
  0
VERTEX
  8
PLAN_1
  6
CONTINUOUS
 10
-1.618634
 20
1.432693
  0
VERTEX
  8
PLAN_1
  6
CONTINUOUS
 10
-1.902878
 20
1.432693
  0
SEQEND
  8
0
  0
POLYLINE
  8
PLAN_1
  6
CONTINUOUS
 66
     1
 40
0.008106
 41
0.008106
  0
VERTEX
  8
PLAN_1
  6
CONTINUOUS
 10
-1.902878
 20
1.432693
  0
VERTEX
  8
PLAN_1
  6
CONTINUOUS
 10
-1.903831
 20
1.431740
  0
VERTEX
  8
PLAN_1
  6
CONTINUOUS
 10
-1.906217
 20
1.428878
  0
VERTEX
  8
PLAN_1
  6
CONTINUOUS
 10
-1.907650
 20
1.426972
  0
VERTEX
  8
PLAN_1
  6
CONTINUOUS
 10
-1.909555
 20
1.424587
  0
VERTEX
  8
PLAN_1
  6
CONTINUOUS
 10
-1.910988
 20
1.422201
  0
VERTEX
  8
PLAN_1
  6
CONTINUOUS
 10
-1.912417
 20
1.418862
  0
VERTEX
  8
PLAN_1
  6
CONTINUOUS
 10
-1.913370
 20
1.416000
  0
VERTEX
  8
PLAN_1
  6
CONTINUOUS
 10
-1.913846
 20
1.412185
  0
VERTEX
  8
PLAN_1
  6
CONTINUOUS
 10
-1.913846
 20
1.408370
  0
VERTEX
  8
PLAN_1
  6
CONTINUOUS
 10
-1.913370
 20
1.404555
  0
VERTEX
  8
PLAN_1
  6
CONTINUOUS
 10
-1.912417
 20
1.400264
  0
VERTEX
  8
PLAN_1
  6
CONTINUOUS
 10
-1.910031
 20
1.395496
  0
VERTEX
  8
PLAN_1
  6
CONTINUOUS
 10
-1.906693
 20
1.391201
  0
VERTEX
  8
PLAN_1
  6
CONTINUOUS
 10
-1.902878
 20
1.386433
  0
SEQEND
  8
0
  0
POLYLINE
  8
PLAN_1
  6
CONTINUOUS
 66
     1
 40
0.008106
 41
0.008106
  0
VERTEX
  8
PLAN_1
  6
CONTINUOUS
 10
-1.902878
 20
1.386433
  0
VERTEX
  8
PLAN_1
  6
CONTINUOUS
 10
-1.618634
 20
1.386433
  0
SEQEND
  8
0
  0
POLYLINE
  8
PLAN_1
  6
CONTINUOUS
 66
     1
 40
0.008106
 41
0.008106
  0
VERTEX
  8
PLAN_1
  6
CONTINUOUS
 10
-1.618634
 20
1.340650
  0
VERTEX
  8
PLAN_1
  6
CONTINUOUS
 10
-1.613866
 20
1.344941
  0
VERTEX
  8
PLAN_1
  6
CONTINUOUS
 10
-1.610051
 20
1.349709
  0
VERTEX
  8
PLAN_1
  6
CONTINUOUS
 10
-1.607665
 20
1.354004
  0
VERTEX
  8
PLAN_1
  6
CONTINUOUS
 10
-1.606236
 20
1.357819
  0
VERTEX
  8
PLAN_1
  6
CONTINUOUS
 10
-1.605756
 20
1.362110
  0
VERTEX
  8
PLAN_1
  6
CONTINUOUS
 10
-1.605756
 20
1.365925
  0
VERTEX
  8
PLAN_1
  6
CONTINUOUS
 10
-1.606236
 20
1.369264
  0
VERTEX
  8
PLAN_1
  6
CONTINUOUS
 10
-1.607665
 20
1.372602
  0
VERTEX
  8
PLAN_1
  6
CONTINUOUS
 10
-1.609094
 20
1.375941
  0
VERTEX
  8
PLAN_1
  6
CONTINUOUS
 10
-1.611004
 20
1.378327
  0
VERTEX
  8
PLAN_1
  6
CONTINUOUS
 10
-1.612433
 20
1.380709
  0
VERTEX
  8
PLAN_1
  6
CONTINUOUS
 10
-1.614343
 20
1.383094
  0
VERTEX
  8
PLAN_1
  6
CONTINUOUS
 10
-1.617205
 20
1.385957
  0
VERTEX
  8
PLAN_1
  6
CONTINUOUS
 10
-1.618634
 20
1.386909
  0
SEQEND
  8
0
  0
POLYLINE
  8
PLAN_1
  6
CONTINUOUS
 66
     1
 40
0.008106
 41
0.008106
  0
VERTEX
  8
PLAN_1
  6
CONTINUOUS
 10
-1.618634
 20
1.386909
  0
VERTEX
  8
PLAN_1
  6
CONTINUOUS
 10
-1.902402
 20
1.386909
  0
SEQEND
  8
0
  0
POLYLINE
  8
PLAN_1
  6
CONTINUOUS
 66
     1
 40
0.008106
 41
0.008106
  0
VERTEX
  8
PLAN_1
  6
CONTINUOUS
 10
-1.902402
 20
1.386909
  0
VERTEX
  8
PLAN_1
  6
CONTINUOUS
 10
-1.903354
 20
1.385957
  0
VERTEX
  8
PLAN_1
  6
CONTINUOUS
 10
-1.905740
 20
1.383094
  0
VERTEX
  8
PLAN_1
  6
CONTINUOUS
 10
-1.907169
 20
1.381185
  0
VERTEX
  8
PLAN_1
  6
CONTINUOUS
 10
-1.909079
 20
1.378803
  0
VERTEX
  8
PLAN_1
  6
CONTINUOUS
 10
-1.910508
 20
1.376417
  0
VERTEX
  8
PLAN_1
  6
CONTINUOUS
 10
-1.911941
 20
1.373555
  0
VERTEX
  8
PLAN_1
  6
CONTINUOUS
 10
-1.912894
 20
1.370217
  0
VERTEX
  8
PLAN_1
  6
CONTINUOUS
 10
-1.913370
 20
1.366402
  0
VERTEX
  8
PLAN_1
  6
CONTINUOUS
 10
-1.913370
 20
1.362587
  0
VERTEX
  8
PLAN_1
  6
CONTINUOUS
 10
-1.912894
 20
1.358772
  0
VERTEX
  8
PLAN_1
  6
CONTINUOUS
 10
-1.911941
 20
1.354480
  0
VERTEX
  8
PLAN_1
  6
CONTINUOUS
 10
-1.909555
 20
1.350185
  0
VERTEX
  8
PLAN_1
  6
CONTINUOUS
 10
-1.906693
 20
1.345417
  0
VERTEX
  8
PLAN_1
  6
CONTINUOUS
 10
-1.902402
 20
1.340650
  0
SEQEND
  8
0
  0
POLYLINE
  8
PLAN_1
  6
CONTINUOUS
 66
     1
 40
0.008106
 41
0.008106
  0
VERTEX
  8
PLAN_1
  6
CONTINUOUS
 10
-1.902402
 20
1.340650
  0
VERTEX
  8
PLAN_1
  6
CONTINUOUS
 10
-1.618634
 20
1.340650
  0
SEQEND
  8
0
  0
POLYLINE
  8
PLAN_1
  6
CONTINUOUS
 66
     1
 40
0.008106
 41
0.008106
  0
VERTEX
  8
PLAN_1
  6
CONTINUOUS
 10
-1.618634
 20
1.294866
  0
VERTEX
  8
PLAN_1
  6
CONTINUOUS
 10
-1.613866
 20
1.299157
  0
VERTEX
  8
PLAN_1
  6
CONTINUOUS
 10
-1.610528
 20
1.303925
  0
VERTEX
  8
PLAN_1
  6
CONTINUOUS
 10
-1.608142
 20
1.308217
  0
VERTEX
  8
PLAN_1
  6
CONTINUOUS
 10
-1.606713
 20
1.312031
  0
VERTEX
  8
PLAN_1
  6
CONTINUOUS
 10
-1.605756
 20
1.316327
  0
VERTEX
  8
PLAN_1
  6
CONTINUOUS
 10
-1.606236
 20
1.320142
  0
VERTEX
  8
PLAN_1
  6
CONTINUOUS
 10
-1.606713
 20
1.323480
  0
VERTEX
  8
PLAN_1
  6
CONTINUOUS
 10
-1.608142
 20
1.326819
  0
VERTEX
  8
PLAN_1
  6
CONTINUOUS
 10
-1.609575
 20
1.330157
  0
VERTEX
  8
PLAN_1
  6
CONTINUOUS
 10
-1.611004
 20
1.333020
  0
VERTEX
  8
PLAN_1
  6
CONTINUOUS
 10
-1.612913
 20
1.335402
  0
VERTEX
  8
PLAN_1
  6
CONTINUOUS
 10
-1.614819
 20
1.337311
  0
VERTEX
  8
PLAN_1
  6
CONTINUOUS
 10
-1.617681
 20
1.340173
  0
VERTEX
  8
PLAN_1
  6
CONTINUOUS
 10
-1.618634
 20
1.341126
  0
SEQEND
  8
0
  0
POLYLINE
  8
PLAN_1
  6
CONTINUOUS
 66
     1
 40
0.008106
 41
0.008106
  0
VERTEX
  8
PLAN_1
  6
CONTINUOUS
 10
-1.618634
 20
1.341126
  0
VERTEX
  8
PLAN_1
  6
CONTINUOUS
 10
-1.902878
 20
1.341126
  0
SEQEND
  8
0
  0
POLYLINE
  8
PLAN_1
  6
CONTINUOUS
 66
     1
 40
0.008106
 41
0.008106
  0
VERTEX
  8
PLAN_1
  6
CONTINUOUS
 10
-1.902878
 20
1.341126
  0
VERTEX
  8
PLAN_1
  6
CONTINUOUS
 10
-1.903831
 20
1.340173
  0
VERTEX
  8
PLAN_1
  6
CONTINUOUS
 10
-1.906217
 20
1.337311
  0
VERTEX
  8
PLAN_1
  6
CONTINUOUS
 10
-1.907650
 20
1.335402
  0
VERTEX
  8
PLAN_1
  6
CONTINUOUS
 10
-1.909555
 20
1.333020
  0
VERTEX
  8
PLAN_1
  6
CONTINUOUS
 10
-1.910988
 20
1.330634
  0
VERTEX
  8
PLAN_1
  6
CONTINUOUS
 10
-1.912417
 20
1.327772
  0
VERTEX
  8
PLAN_1
  6
CONTINUOUS
 10
-1.913370
 20
1.324433
  0
VERTEX
  8
PLAN_1
  6
CONTINUOUS
 10
-1.913846
 20
1.320618
  0
VERTEX
  8
PLAN_1
  6
CONTINUOUS
 10
-1.913846
 20
1.316803
  0
VERTEX
  8
PLAN_1
  6
CONTINUOUS
 10
-1.913370
 20
1.312988
  0
VERTEX
  8
PLAN_1
  6
CONTINUOUS
 10
-1.912417
 20
1.308697
  0
VERTEX
  8
PLAN_1
  6
CONTINUOUS
 10
-1.910031
 20
1.304402
  0
VERTEX
  8
PLAN_1
  6
CONTINUOUS
 10
-1.906693
 20
1.299634
  0
VERTEX
  8
PLAN_1
  6
CONTINUOUS
 10
-1.902878
 20
1.294866
  0
SEQEND
  8
0
  0
POLYLINE
  8
PLAN_1
  6
CONTINUOUS
 66
     1
 40
0.008106
 41
0.008106
  0
VERTEX
  8
PLAN_1
  6
CONTINUOUS
 10
-1.902878
 20
1.294866
  0
VERTEX
  8
PLAN_1
  6
CONTINUOUS
 10
-1.618634
 20
1.294866
  0
SEQEND
  8
0
  0
POLYLINE
  8
PLAN_1
  6
CONTINUOUS
 66
     1
 40
0.008106
 41
0.008106
  0
VERTEX
  8
PLAN_1
  6
CONTINUOUS
 10
-1.618634
 20
1.249079
  0
VERTEX
  8
PLAN_1
  6
CONTINUOUS
 10
-1.613866
 20
1.253850
  0
VERTEX
  8
PLAN_1
  6
CONTINUOUS
 10
-1.610051
 20
1.258142
  0
VERTEX
  8
PLAN_1
  6
CONTINUOUS
 10
-1.607665
 20
1.262433
  0
VERTEX
  8
PLAN_1
  6
CONTINUOUS
 10
-1.606236
 20
1.266724
  0
VERTEX
  8
PLAN_1
  6
CONTINUOUS
 10
-1.605756
 20
1.270543
  0
VERTEX
  8
PLAN_1
  6
CONTINUOUS
 10
-1.605756
 20
1.274358
  0
VERTEX
  8
PLAN_1
  6
CONTINUOUS
 10
-1.606236
 20
1.277697
  0
VERTEX
  8
PLAN_1
  6
CONTINUOUS
 10
-1.607665
 20
1.281035
  0
VERTEX
  8
PLAN_1
  6
CONTINUOUS
 10
-1.609094
 20
1.284374
  0
VERTEX
  8
PLAN_1
  6
CONTINUOUS
 10
-1.611004
 20
1.287232
  0
VERTEX
  8
PLAN_1
  6
CONTINUOUS
 10
-1.612433
 20
1.289618
  0
VERTEX
  8
PLAN_1
  6
CONTINUOUS
 10
-1.614343
 20
1.291528
  0
VERTEX
  8
PLAN_1
  6
CONTINUOUS
 10
-1.617205
 20
1.294386
  0
VERTEX
  8
PLAN_1
  6
CONTINUOUS
 10
-1.618634
 20
1.295343
  0
SEQEND
  8
0
  0
POLYLINE
  8
PLAN_1
  6
CONTINUOUS
 66
     1
 40
0.008106
 41
0.008106
  0
VERTEX
  8
PLAN_1
  6
CONTINUOUS
 10
-1.618634
 20
1.295343
  0
VERTEX
  8
PLAN_1
  6
CONTINUOUS
 10
-1.902402
 20
1.295343
  0
SEQEND
  8
0
  0
POLYLINE
  8
PLAN_1
  6
CONTINUOUS
 66
     1
 40
0.008106
 41
0.008106
  0
VERTEX
  8
PLAN_1
  6
CONTINUOUS
 10
-1.902402
 20
1.295343
  0
VERTEX
  8
PLAN_1
  6
CONTINUOUS
 10
-1.903354
 20
1.294386
  0
VERTEX
  8
PLAN_1
  6
CONTINUOUS
 10
-1.905740
 20
1.291528
  0
VERTEX
  8
PLAN_1
  6
CONTINUOUS
 10
-1.907169
 20
1.289618
  0
VERTEX
  8
PLAN_1
  6
CONTINUOUS
 10
-1.909079
 20
1.287709
  0
VERTEX
  8
PLAN_1
  6
CONTINUOUS
 10
-1.910508
 20
1.284850
  0
VERTEX
  8
PLAN_1
  6
CONTINUOUS
 10
-1.911941
 20
1.281988
  0
VERTEX
  8
PLAN_1
  6
CONTINUOUS
 10
-1.912894
 20
1.278650
  0
VERTEX
  8
PLAN_1
  6
CONTINUOUS
 10
-1.913370
 20
1.274835
  0
VERTEX
  8
PLAN_1
  6
CONTINUOUS
 10
-1.913370
 20
1.271496
  0
VERTEX
  8
PLAN_1
  6
CONTINUOUS
 10
-1.912894
 20
1.267205
  0
VERTEX
  8
PLAN_1
  6
CONTINUOUS
 10
-1.911941
 20
1.262909
  0
VERTEX
  8
PLAN_1
  6
CONTINUOUS
 10
-1.909555
 20
1.258618
  0
VERTEX
  8
PLAN_1
  6
CONTINUOUS
 10
-1.906693
 20
1.253850
  0
VERTEX
  8
PLAN_1
  6
CONTINUOUS
 10
-1.902402
 20
1.249079
  0
SEQEND
  8
0
  0
POLYLINE
  8
PLAN_1
  6
CONTINUOUS
 66
     1
 40
0.008106
 41
0.008106
  0
VERTEX
  8
PLAN_1
  6
CONTINUOUS
 10
-1.902402
 20
1.249079
  0
VERTEX
  8
PLAN_1
  6
CONTINUOUS
 10
-1.618634
 20
1.249079
  0
SEQEND
  8
0
  0
POLYLINE
  8
PLAN_1
  6
CONTINUOUS
 66
     1
 40
0.008106
 41
0.008106
  0
VERTEX
  8
PLAN_1
  6
CONTINUOUS
 10
-1.618634
 20
1.203295
  0
VERTEX
  8
PLAN_1
  6
CONTINUOUS
 10
-1.613866
 20
1.208063
  0
VERTEX
  8
PLAN_1
  6
CONTINUOUS
 10
-1.610528
 20
1.212358
  0
VERTEX
  8
PLAN_1
  6
CONTINUOUS
 10
-1.608142
 20
1.216650
  0
VERTEX
  8
PLAN_1
  6
CONTINUOUS
 10
-1.606713
 20
1.220941
  0
VERTEX
  8
PLAN_1
  6
CONTINUOUS
 10
-1.605756
 20
1.224756
  0
VERTEX
  8
PLAN_1
  6
CONTINUOUS
 10
-1.606236
 20
1.228571
  0
VERTEX
  8
PLAN_1
  6
CONTINUOUS
 10
-1.606713
 20
1.232390
  0
VERTEX
  8
PLAN_1
  6
CONTINUOUS
 10
-1.608142
 20
1.235724
  0
VERTEX
  8
PLAN_1
  6
CONTINUOUS
 10
-1.609575
 20
1.238587
  0
VERTEX
  8
PLAN_1
  6
CONTINUOUS
 10
-1.611004
 20
1.241449
  0
VERTEX
  8
PLAN_1
  6
CONTINUOUS
 10
-1.612913
 20
1.243835
  0
VERTEX
  8
PLAN_1
  6
CONTINUOUS
 10
-1.614819
 20
1.245740
  0
VERTEX
  8
PLAN_1
  6
CONTINUOUS
 10
-1.617681
 20
1.248602
  0
VERTEX
  8
PLAN_1
  6
CONTINUOUS
 10
-1.618634
 20
1.249555
  0
SEQEND
  8
0
  0
POLYLINE
  8
PLAN_1
  6
CONTINUOUS
 66
     1
 40
0.008106
 41
0.008106
  0
VERTEX
  8
PLAN_1
  6
CONTINUOUS
 10
-1.618634
 20
1.249555
  0
VERTEX
  8
PLAN_1
  6
CONTINUOUS
 10
-1.902878
 20
1.249555
  0
SEQEND
  8
0
  0
POLYLINE
  8
PLAN_1
  6
CONTINUOUS
 66
     1
 40
0.008106
 41
0.008106
  0
VERTEX
  8
PLAN_1
  6
CONTINUOUS
 10
-1.902878
 20
1.249555
  0
VERTEX
  8
PLAN_1
  6
CONTINUOUS
 10
-1.903831
 20
1.248602
  0
VERTEX
  8
PLAN_1
  6
CONTINUOUS
 10
-1.906217
 20
1.246220
  0
VERTEX
  8
PLAN_1
  6
CONTINUOUS
 10
-1.907650
 20
1.244311
  0
VERTEX
  8
PLAN_1
  6
CONTINUOUS
 10
-1.909555
 20
1.241925
  0
VERTEX
  8
PLAN_1
  6
CONTINUOUS
 10
-1.910988
 20
1.239063
  0
VERTEX
  8
PLAN_1
  6
CONTINUOUS
 10
-1.912417
 20
1.236205
  0
VERTEX
  8
PLAN_1
  6
CONTINUOUS
 10
-1.913370
 20
1.232866
  0
VERTEX
  8
PLAN_1
  6
CONTINUOUS
 10
-1.913846
 20
1.229528
  0
VERTEX
  8
PLAN_1
  6
CONTINUOUS
 10
-1.913846
 20
1.225713
  0
VERTEX
  8
PLAN_1
  6
CONTINUOUS
 10
-1.913370
 20
1.221417
  0
VERTEX
  8
PLAN_1
  6
CONTINUOUS
 10
-1.912417
 20
1.217126
  0
VERTEX
  8
PLAN_1
  6
CONTINUOUS
 10
-1.910031
 20
1.212835
  0
VERTEX
  8
PLAN_1
  6
CONTINUOUS
 10
-1.906693
 20
1.208063
  0
VERTEX
  8
PLAN_1
  6
CONTINUOUS
 10
-1.902878
 20
1.203295
  0
SEQEND
  8
0
  0
POLYLINE
  8
PLAN_1
  6
CONTINUOUS
 66
     1
 40
0.008106
 41
0.008106
  0
VERTEX
  8
PLAN_1
  6
CONTINUOUS
 10
-1.902878
 20
1.203295
  0
VERTEX
  8
PLAN_1
  6
CONTINUOUS
 10
-1.618634
 20
1.203295
  0
SEQEND
  8
0
  0
POLYLINE
  8
PLAN_1
  6
CONTINUOUS
 66
     1
 40
0.008106
 41
0.008106
  0
VERTEX
  8
PLAN_1
  6
CONTINUOUS
 10
-1.618634
 20
1.157512
  0
VERTEX
  8
PLAN_1
  6
CONTINUOUS
 10
-1.613866
 20
1.162280
  0
VERTEX
  8
PLAN_1
  6
CONTINUOUS
 10
-1.610051
 20
1.166575
  0
VERTEX
  8
PLAN_1
  6
CONTINUOUS
 10
-1.607665
 20
1.170866
  0
VERTEX
  8
PLAN_1
  6
CONTINUOUS
 10
-1.606236
 20
1.175157
  0
VERTEX
  8
PLAN_1
  6
CONTINUOUS
 10
-1.605756
 20
1.178972
  0
VERTEX
  8
PLAN_1
  6
CONTINUOUS
 10
-1.605756
 20
1.182787
  0
VERTEX
  8
PLAN_1
  6
CONTINUOUS
 10
-1.606236
 20
1.186602
  0
VERTEX
  8
PLAN_1
  6
CONTINUOUS
 10
-1.607665
 20
1.189941
  0
VERTEX
  8
PLAN_1
  6
CONTINUOUS
 10
-1.609094
 20
1.192803
  0
VERTEX
  8
PLAN_1
  6
CONTINUOUS
 10
-1.611004
 20
1.195665
  0
VERTEX
  8
PLAN_1
  6
CONTINUOUS
 10
-1.612433
 20
1.198051
  0
VERTEX
  8
PLAN_1
  6
CONTINUOUS
 10
-1.614343
 20
1.199957
  0
VERTEX
  8
PLAN_1
  6
CONTINUOUS
 10
-1.617205
 20
1.202819
  0
VERTEX
  8
PLAN_1
  6
CONTINUOUS
 10
-1.618634
 20
1.203772
  0
SEQEND
  8
0
  0
POLYLINE
  8
PLAN_1
  6
CONTINUOUS
 66
     1
 40
0.008106
 41
0.008106
  0
VERTEX
  8
PLAN_1
  6
CONTINUOUS
 10
-1.618634
 20
1.203772
  0
VERTEX
  8
PLAN_1
  6
CONTINUOUS
 10
-1.902402
 20
1.203772
  0
SEQEND
  8
0
  0
POLYLINE
  8
PLAN_1
  6
CONTINUOUS
 66
     1
 40
0.008106
 41
0.008106
  0
VERTEX
  8
PLAN_1
  6
CONTINUOUS
 10
-1.902402
 20
1.203772
  0
VERTEX
  8
PLAN_1
  6
CONTINUOUS
 10
-1.903354
 20
1.202819
  0
VERTEX
  8
PLAN_1
  6
CONTINUOUS
 10
-1.905740
 20
1.200433
  0
VERTEX
  8
PLAN_1
  6
CONTINUOUS
 10
-1.907169
 20
1.198528
  0
VERTEX
  8
PLAN_1
  6
CONTINUOUS
 10
-1.909079
 20
1.196142
  0
VERTEX
  8
PLAN_1
  6
CONTINUOUS
 10
-1.910508
 20
1.193280
  0
VERTEX
  8
PLAN_1
  6
CONTINUOUS
 10
-1.911941
 20
1.190417
  0
VERTEX
  8
PLAN_1
  6
CONTINUOUS
 10
-1.912894
 20
1.187079
  0
VERTEX
  8
PLAN_1
  6
CONTINUOUS
 10
-1.913370
 20
1.183740
  0
VERTEX
  8
PLAN_1
  6
CONTINUOUS
 10
-1.913370
 20
1.179925
  0
VERTEX
  8
PLAN_1
  6
CONTINUOUS
 10
-1.912894
 20
1.175634
  0
VERTEX
  8
PLAN_1
  6
CONTINUOUS
 10
-1.911941
 20
1.171343
  0
VERTEX
  8
PLAN_1
  6
CONTINUOUS
 10
-1.909555
 20
1.167051
  0
VERTEX
  8
PLAN_1
  6
CONTINUOUS
 10
-1.906693
 20
1.162280
  0
VERTEX
  8
PLAN_1
  6
CONTINUOUS
 10
-1.902402
 20
1.157512
  0
SEQEND
  8
0
  0
POLYLINE
  8
PLAN_1
  6
CONTINUOUS
 66
     1
 40
0.008106
 41
0.008106
  0
VERTEX
  8
PLAN_1
  6
CONTINUOUS
 10
-1.902402
 20
1.157512
  0
VERTEX
  8
PLAN_1
  6
CONTINUOUS
 10
-1.618634
 20
1.157512
  0
SEQEND
  8
0
  0
POLYLINE
  8
PLAN_1
  6
CONTINUOUS
 66
     1
 40
0.008106
 41
0.008106
  0
VERTEX
  8
PLAN_1
  6
CONTINUOUS
 10
-1.618634
 20
1.112205
  0
VERTEX
  8
PLAN_1
  6
CONTINUOUS
 10
-1.613866
 20
1.116496
  0
VERTEX
  8
PLAN_1
  6
CONTINUOUS
 10
-1.610528
 20
1.120787
  0
VERTEX
  8
PLAN_1
  6
CONTINUOUS
 10
-1.608142
 20
1.125083
  0
VERTEX
  8
PLAN_1
  6
CONTINUOUS
 10
-1.606713
 20
1.129374
  0
VERTEX
  8
PLAN_1
  6
CONTINUOUS
 10
-1.605756
 20
1.133189
  0
VERTEX
  8
PLAN_1
  6
CONTINUOUS
 10
-1.606236
 20
1.137004
  0
VERTEX
  8
PLAN_1
  6
CONTINUOUS
 10
-1.606713
 20
1.140819
  0
VERTEX
  8
PLAN_1
  6
CONTINUOUS
 10
-1.608142
 20
1.144157
  0
VERTEX
  8
PLAN_1
  6
CONTINUOUS
 10
-1.609575
 20
1.147020
  0
VERTEX
  8
PLAN_1
  6
CONTINUOUS
 10
-1.611004
 20
1.149882
  0
VERTEX
  8
PLAN_1
  6
CONTINUOUS
 10
-1.612913
 20
1.152264
  0
VERTEX
  8
PLAN_1
  6
CONTINUOUS
 10
-1.614819
 20
1.154173
  0
VERTEX
  8
PLAN_1
  6
CONTINUOUS
 10
-1.617681
 20
1.157035
  0
VERTEX
  8
PLAN_1
  6
CONTINUOUS
 10
-1.618634
 20
1.157988
  0
SEQEND
  8
0
  0
POLYLINE
  8
PLAN_1
  6
CONTINUOUS
 66
     1
 40
0.008106
 41
0.008106
  0
VERTEX
  8
PLAN_1
  6
CONTINUOUS
 10
-1.618634
 20
1.157988
  0
VERTEX
  8
PLAN_1
  6
CONTINUOUS
 10
-1.902878
 20
1.157988
  0
SEQEND
  8
0
  0
POLYLINE
  8
PLAN_1
  6
CONTINUOUS
 66
     1
 40
0.008106
 41
0.008106
  0
VERTEX
  8
PLAN_1
  6
CONTINUOUS
 10
-1.902878
 20
1.157988
  0
VERTEX
  8
PLAN_1
  6
CONTINUOUS
 10
-1.903831
 20
1.157035
  0
VERTEX
  8
PLAN_1
  6
CONTINUOUS
 10
-1.906217
 20
1.154650
  0
VERTEX
  8
PLAN_1
  6
CONTINUOUS
 10
-1.907650
 20
1.152744
  0
VERTEX
  8
PLAN_1
  6
CONTINUOUS
 10
-1.909555
 20
1.150358
  0
VERTEX
  8
PLAN_1
  6
CONTINUOUS
 10
-1.910988
 20
1.147496
  0
VERTEX
  8
PLAN_1
  6
CONTINUOUS
 10
-1.912417
 20
1.144634
  0
VERTEX
  8
PLAN_1
  6
CONTINUOUS
 10
-1.913370
 20
1.141295
  0
VERTEX
  8
PLAN_1
  6
CONTINUOUS
 10
-1.913846
 20
1.137957
  0
VERTEX
  8
PLAN_1
  6
CONTINUOUS
 10
-1.913846
 20
1.134142
  0
VERTEX
  8
PLAN_1
  6
CONTINUOUS
 10
-1.913370
 20
1.129850
  0
VERTEX
  8
PLAN_1
  6
CONTINUOUS
 10
-1.912417
 20
1.125559
  0
VERTEX
  8
PLAN_1
  6
CONTINUOUS
 10
-1.910031
 20
1.121264
  0
VERTEX
  8
PLAN_1
  6
CONTINUOUS
 10
-1.906693
 20
1.116972
  0
VERTEX
  8
PLAN_1
  6
CONTINUOUS
 10
-1.902878
 20
1.112205
  0
SEQEND
  8
0
  0
POLYLINE
  8
PLAN_1
  6
CONTINUOUS
 66
     1
 40
0.008106
 41
0.008106
  0
VERTEX
  8
PLAN_1
  6
CONTINUOUS
 10
-1.902878
 20
1.112205
  0
VERTEX
  8
PLAN_1
  6
CONTINUOUS
 10
-1.618634
 20
1.112205
  0
SEQEND
  8
0
  0
POLYLINE
  8
PLAN_1
  6
CONTINUOUS
 66
     1
 40
0.008106
 41
0.008106
  0
VERTEX
  8
PLAN_1
  6
CONTINUOUS
 10
-1.618634
 20
1.066421
  0
VERTEX
  8
PLAN_1
  6
CONTINUOUS
 10
-1.613866
 20
1.070713
  0
VERTEX
  8
PLAN_1
  6
CONTINUOUS
 10
-1.610051
 20
1.075004
  0
VERTEX
  8
PLAN_1
  6
CONTINUOUS
 10
-1.607665
 20
1.079295
  0
VERTEX
  8
PLAN_1
  6
CONTINUOUS
 10
-1.606236
 20
1.083591
  0
VERTEX
  8
PLAN_1
  6
CONTINUOUS
 10
-1.605756
 20
1.087406
  0
VERTEX
  8
PLAN_1
  6
CONTINUOUS
 10
-1.605756
 20
1.091220
  0
VERTEX
  8
PLAN_1
  6
CONTINUOUS
 10
-1.606236
 20
1.095035
  0
VERTEX
  8
PLAN_1
  6
CONTINUOUS
 10
-1.607665
 20
1.098374
  0
VERTEX
  8
PLAN_1
  6
CONTINUOUS
 10
-1.609094
 20
1.101236
  0
VERTEX
  8
PLAN_1
  6
CONTINUOUS
 10
-1.611004
 20
1.104098
  0
VERTEX
  8
PLAN_1
  6
CONTINUOUS
 10
-1.612433
 20
1.106480
  0
VERTEX
  8
PLAN_1
  6
CONTINUOUS
 10
-1.614343
 20
1.108390
  0
VERTEX
  8
PLAN_1
  6
CONTINUOUS
 10
-1.617205
 20
1.111252
  0
VERTEX
  8
PLAN_1
  6
CONTINUOUS
 10
-1.618634
 20
1.112205
  0
SEQEND
  8
0
  0
POLYLINE
  8
PLAN_1
  6
CONTINUOUS
 66
     1
 40
0.008106
 41
0.008106
  0
VERTEX
  8
PLAN_1
  6
CONTINUOUS
 10
-1.618634
 20
1.112205
  0
VERTEX
  8
PLAN_1
  6
CONTINUOUS
 10
-1.902402
 20
1.112205
  0
SEQEND
  8
0
  0
POLYLINE
  8
PLAN_1
  6
CONTINUOUS
 66
     1
 40
0.008106
 41
0.008106
  0
VERTEX
  8
PLAN_1
  6
CONTINUOUS
 10
-1.902402
 20
1.112205
  0
VERTEX
  8
PLAN_1
  6
CONTINUOUS
 10
-1.903354
 20
1.111728
  0
VERTEX
  8
PLAN_1
  6
CONTINUOUS
 10
-1.905740
 20
1.108866
  0
VERTEX
  8
PLAN_1
  6
CONTINUOUS
 10
-1.907169
 20
1.106957
  0
VERTEX
  8
PLAN_1
  6
CONTINUOUS
 10
-1.909079
 20
1.104575
  0
VERTEX
  8
PLAN_1
  6
CONTINUOUS
 10
-1.910508
 20
1.101713
  0
VERTEX
  8
PLAN_1
  6
CONTINUOUS
 10
-1.911941
 20
1.098850
  0
VERTEX
  8
PLAN_1
  6
CONTINUOUS
 10
-1.912894
 20
1.095512
  0
VERTEX
  8
PLAN_1
  6
CONTINUOUS
 10
-1.913370
 20
1.092173
  0
VERTEX
  8
PLAN_1
  6
CONTINUOUS
 10
-1.913370
 20
1.088358
  0
VERTEX
  8
PLAN_1
  6
CONTINUOUS
 10
-1.912894
 20
1.084067
  0
VERTEX
  8
PLAN_1
  6
CONTINUOUS
 10
-1.911941
 20
1.080252
  0
VERTEX
  8
PLAN_1
  6
CONTINUOUS
 10
-1.909555
 20
1.075480
  0
VERTEX
  8
PLAN_1
  6
CONTINUOUS
 10
-1.906693
 20
1.071189
  0
VERTEX
  8
PLAN_1
  6
CONTINUOUS
 10
-1.902402
 20
1.066421
  0
SEQEND
  8
0
  0
POLYLINE
  8
PLAN_1
  6
CONTINUOUS
 66
     1
 40
0.008106
 41
0.008106
  0
VERTEX
  8
PLAN_1
  6
CONTINUOUS
 10
-1.902402
 20
1.066421
  0
VERTEX
  8
PLAN_1
  6
CONTINUOUS
 10
-1.618634
 20
1.066421
  0
SEQEND
  8
0
  0
POLYLINE
  8
PLAN_1
  6
CONTINUOUS
 66
     1
 40
0.004291
 41
0.004291
  0
VERTEX
  8
PLAN_1
  6
CONTINUOUS
 10
-1.870925
 20
-0.204571
  0
VERTEX
  8
PLAN_1
  6
CONTINUOUS
 10
-1.756465
 20
-0.204571
  0
SEQEND
  8
0
  0
POLYLINE
  8
PLAN_1
  6
CONTINUOUS
 66
     1
 40
0.004291
 41
0.004291
  0
VERTEX
  8
PLAN_1
  6
CONTINUOUS
 10
-1.871402
 20
0.022441
  0
VERTEX
  8
PLAN_1
  6
CONTINUOUS
 10
-1.756941
 20
0.022441
  0
SEQEND
  8
0
  0
POLYLINE
  8
PLAN_1
  6
CONTINUOUS
 66
     1
 40
0.004291
 41
0.004291
  0
VERTEX
  8
PLAN_1
  6
CONTINUOUS
 10
-1.738819
 20
0.016720
  0
VERTEX
  8
PLAN_1
  6
CONTINUOUS
 10
-1.656311
 20
0.016720
  0
SEQEND
  8
0
  0
POLYLINE
  8
PLAN_1
  6
CONTINUOUS
 66
     1
 40
0.004291
 41
0.004291
  0
VERTEX
  8
PLAN_1
  6
CONTINUOUS
 10
-1.738819
 20
-0.195988
  0
VERTEX
  8
PLAN_1
  6
CONTINUOUS
 10
-1.656311
 20
-0.195988
  0
SEQEND
  8
0
  0
POLYLINE
  8
PLAN_1
  6
CONTINUOUS
 66
     1
 40
0.008106
 41
0.008106
  0
VERTEX
  8
PLAN_1
  6
CONTINUOUS
 10
0.279504
 20
-0.657646
  0
VERTEX
  8
PLAN_1
  6
CONTINUOUS
 10
0.279504
 20
0.321472
  0
VERTEX
  8
PLAN_1
  6
CONTINUOUS
 10
-0.992917
 20
0.321472
  0
VERTEX
  8
PLAN_1
  6
CONTINUOUS
 10
-0.992917
 20
-0.657646
  0
VERTEX
  8
PLAN_1
  6
CONTINUOUS
 10
0.279504
 20
-0.657646
  0
SEQEND
  8
0
  0
POLYLINE
  8
PLAN_1
  6
CONTINUOUS
 66
     1
 40
0.008106
 41
0.008106
  0
VERTEX
  8
PLAN_1
  6
CONTINUOUS
 10
-0.287551
 20
-1.257134
  0
VERTEX
  8
PLAN_1
  6
CONTINUOUS
 10
-0.287551
 20
-1.146012
  0
VERTEX
  8
PLAN_1
  6
CONTINUOUS
 10
-0.421567
 20
-1.146012
  0
VERTEX
  8
PLAN_1
  6
CONTINUOUS
 10
-0.421567
 20
-1.257134
  0
VERTEX
  8
PLAN_1
  6
CONTINUOUS
 10
-0.287551
 20
-1.257134
  0
SEQEND
  8
0
  0
POLYLINE
  8
PLAN_1
  6
CONTINUOUS
 66
     1
 40
0.008106
 41
0.008106
  0
VERTEX
  8
PLAN_1
  6
CONTINUOUS
 10
0.175535
 20
-0.681969
  0
VERTEX
  8
PLAN_1
  6
CONTINUOUS
 10
0.175535
 20
-0.661937
  0
VERTEX
  8
PLAN_1
  6
CONTINUOUS
 10
-0.868917
 20
-0.661937
  0
VERTEX
  8
PLAN_1
  6
CONTINUOUS
 10
-0.868917
 20
-0.681969
  0
VERTEX
  8
PLAN_1
  6
CONTINUOUS
 10
0.175535
 20
-0.681969
  0
SEQEND
  8
0
  0
POLYLINE
  8
PLAN_1
  6
CONTINUOUS
 66
     1
 40
0.008106
 41
0.008106
  0
VERTEX
  8
PLAN_1
  6
CONTINUOUS
 10
-0.085815
 20
-1.146012
  0
VERTEX
  8
PLAN_1
  6
CONTINUOUS
 10
-0.085815
 20
-0.681969
  0
VERTEX
  8
PLAN_1
  6
CONTINUOUS
 10
-0.629504
 20
-0.681969
  0
VERTEX
  8
PLAN_1
  6
CONTINUOUS
 10
-0.629504
 20
-1.146012
  0
VERTEX
  8
PLAN_1
  6
CONTINUOUS
 10
-0.085815
 20
-1.146012
  0
SEQEND
  8
0
  0
POLYLINE
  8
PLAN_1
 62
     5
  6
CONTINUOUS
 66
     1
 40
0.003000
 41
0.003000
  0
VERTEX
  8
PLAN_1
 62
     5
  6
CONTINUOUS
 10
-1.155067
 20
-1.339642
  0
VERTEX
  8
PLAN_1
 62
     5
  6
CONTINUOUS
 10
-1.155067
 20
-1.331055
  0
SEQEND
  8
0
  0
POLYLINE
  8
PLAN_1
 62
     5
  6
CONTINUOUS
 66
     1
 40
0.003000
 41
0.003000
  0
VERTEX
  8
PLAN_1
 62
     5
  6
CONTINUOUS
 10
-1.155067
 20
-1.322949
  0
VERTEX
  8
PLAN_1
 62
     5
  6
CONTINUOUS
 10
-1.155067
 20
-1.314362
  0
SEQEND
  8
0
  0
POLYLINE
  8
PLAN_1
 62
     5
  6
CONTINUOUS
 66
     1
 40
0.003000
 41
0.003000
  0
VERTEX
  8
PLAN_1
 62
     5
  6
CONTINUOUS
 10
-1.155067
 20
-1.306256
  0
VERTEX
  8
PLAN_1
 62
     5
  6
CONTINUOUS
 10
-1.155067
 20
-1.297669
  0
SEQEND
  8
0
  0
POLYLINE
  8
PLAN_1
 62
     5
  6
CONTINUOUS
 66
     1
 40
0.003000
 41
0.003000
  0
VERTEX
  8
PLAN_1
 62
     5
  6
CONTINUOUS
 10
-1.155067
 20
-1.289563
  0
VERTEX
  8
PLAN_1
 62
     5
  6
CONTINUOUS
 10
-1.155067
 20
-1.280980
  0
SEQEND
  8
0
  0
POLYLINE
  8
PLAN_1
 62
     5
  6
CONTINUOUS
 66
     1
 40
0.003000
 41
0.003000
  0
VERTEX
  8
PLAN_1
 62
     5
  6
CONTINUOUS
 10
-1.155067
 20
-1.272870
  0
VERTEX
  8
PLAN_1
 62
     5
  6
CONTINUOUS
 10
-1.155067
 20
-1.264287
  0
SEQEND
  8
0
  0
POLYLINE
  8
PLAN_1
 62
     5
  6
CONTINUOUS
 66
     1
 40
0.003000
 41
0.003000
  0
VERTEX
  8
PLAN_1
 62
     5
  6
CONTINUOUS
 10
-1.155067
 20
-1.256177
  0
VERTEX
  8
PLAN_1
 62
     5
  6
CONTINUOUS
 10
-1.155067
 20
-1.247594
  0
SEQEND
  8
0
  0
POLYLINE
  8
PLAN_1
 62
     5
  6
CONTINUOUS
 66
     1
 40
0.003000
 41
0.003000
  0
VERTEX
  8
PLAN_1
 62
     5
  6
CONTINUOUS
 10
-1.155067
 20
-1.239488
  0
VERTEX
  8
PLAN_1
 62
     5
  6
CONTINUOUS
 10
-1.155067
 20
-1.231378
  0
SEQEND
  8
0
  0
POLYLINE
  8
PLAN_1
 62
     5
  6
CONTINUOUS
 66
     1
 40
0.003000
 41
0.003000
  0
VERTEX
  8
PLAN_1
 62
     5
  6
CONTINUOUS
 10
-1.155067
 20
-1.222795
  0
VERTEX
  8
PLAN_1
 62
     5
  6
CONTINUOUS
 10
-1.155067
 20
-1.214685
  0
SEQEND
  8
0
  0
POLYLINE
  8
PLAN_1
 62
     5
  6
CONTINUOUS
 66
     1
 40
0.003000
 41
0.003000
  0
VERTEX
  8
PLAN_1
 62
     5
  6
CONTINUOUS
 10
-1.155067
 20
-1.206102
  0
VERTEX
  8
PLAN_1
 62
     5
  6
CONTINUOUS
 10
-1.155067
 20
-1.197996
  0
SEQEND
  8
0
  0
POLYLINE
  8
PLAN_1
 62
     5
  6
CONTINUOUS
 66
     1
 40
0.003000
 41
0.003000
  0
VERTEX
  8
PLAN_1
 62
     5
  6
CONTINUOUS
 10
-1.155067
 20
-1.189409
  0
VERTEX
  8
PLAN_1
 62
     5
  6
CONTINUOUS
 10
-1.155067
 20
-1.181303
  0
SEQEND
  8
0
  0
POLYLINE
  8
PLAN_1
 62
     5
  6
CONTINUOUS
 66
     1
 40
0.003000
 41
0.003000
  0
VERTEX
  8
PLAN_1
 62
     5
  6
CONTINUOUS
 10
-1.155067
 20
-1.172717
  0
VERTEX
  8
PLAN_1
 62
     5
  6
CONTINUOUS
 10
-1.155067
 20
-1.164610
  0
SEQEND
  8
0
  0
POLYLINE
  8
PLAN_1
 62
     5
  6
CONTINUOUS
 66
     1
 40
0.003000
 41
0.003000
  0
VERTEX
  8
PLAN_1
 62
     5
  6
CONTINUOUS
 10
-1.155067
 20
-1.156028
  0
VERTEX
  8
PLAN_1
 62
     5
  6
CONTINUOUS
 10
-1.155067
 20
-1.147917
  0
SEQEND
  8
0
  0
POLYLINE
  8
PLAN_1
 62
     5
  6
CONTINUOUS
 66
     1
 40
0.003000
 41
0.003000
  0
VERTEX
  8
PLAN_1
 62
     5
  6
CONTINUOUS
 10
-1.155067
 20
-1.139335
  0
VERTEX
  8
PLAN_1
 62
     5
  6
CONTINUOUS
 10
-1.155067
 20
-1.131224
  0
SEQEND
  8
0
  0
POLYLINE
  8
PLAN_1
 62
     5
  6
CONTINUOUS
 66
     1
 40
0.003000
 41
0.003000
  0
VERTEX
  8
PLAN_1
 62
     5
  6
CONTINUOUS
 10
-1.155067
 20
-1.123118
  0
VERTEX
  8
PLAN_1
 62
     5
  6
CONTINUOUS
 10
-1.155067
 20
-1.114535
  0
SEQEND
  8
0
  0
POLYLINE
  8
PLAN_1
 62
     5
  6
CONTINUOUS
 66
     1
 40
0.003000
 41
0.003000
  0
VERTEX
  8
PLAN_1
 62
     5
  6
CONTINUOUS
 10
-1.155067
 20
-1.106425
  0
VERTEX
  8
PLAN_1
 62
     5
  6
CONTINUOUS
 10
-1.155067
 20
-1.097843
  0
SEQEND
  8
0
  0
POLYLINE
  8
PLAN_1
 62
     5
  6
CONTINUOUS
 66
     1
 40
0.003000
 41
0.003000
  0
VERTEX
  8
PLAN_1
 62
     5
  6
CONTINUOUS
 10
-1.155067
 20
-1.089732
  0
VERTEX
  8
PLAN_1
 62
     5
  6
CONTINUOUS
 10
-1.155067
 20
-1.081150
  0
SEQEND
  8
0
  0
POLYLINE
  8
PLAN_1
 62
     5
  6
CONTINUOUS
 66
     1
 40
0.003000
 41
0.003000
  0
VERTEX
  8
PLAN_1
 62
     5
  6
CONTINUOUS
 10
-1.155067
 20
-1.073043
  0
VERTEX
  8
PLAN_1
 62
     5
  6
CONTINUOUS
 10
-1.155067
 20
-1.064457
  0
SEQEND
  8
0
  0
POLYLINE
  8
PLAN_1
 62
     5
  6
CONTINUOUS
 66
     1
 40
0.003000
 41
0.003000
  0
VERTEX
  8
PLAN_1
 62
     5
  6
CONTINUOUS
 10
-1.155067
 20
-1.056350
  0
VERTEX
  8
PLAN_1
 62
     5
  6
CONTINUOUS
 10
-1.155067
 20
-1.047764
  0
SEQEND
  8
0
  0
POLYLINE
  8
PLAN_1
 62
     5
  6
CONTINUOUS
 66
     1
 40
0.003000
 41
0.003000
  0
VERTEX
  8
PLAN_1
 62
     5
  6
CONTINUOUS
 10
-1.155067
 20
-1.039657
  0
VERTEX
  8
PLAN_1
 62
     5
  6
CONTINUOUS
 10
-1.155067
 20
-1.031071
  0
SEQEND
  8
0
  0
POLYLINE
  8
PLAN_1
 62
     5
  6
CONTINUOUS
 66
     1
 40
0.003000
 41
0.003000
  0
VERTEX
  8
PLAN_1
 62
     5
  6
CONTINUOUS
 10
-1.155067
 20
-1.022965
  0
VERTEX
  8
PLAN_1
 62
     5
  6
CONTINUOUS
 10
-1.155067
 20
-1.014858
  0
SEQEND
  8
0
  0
POLYLINE
  8
PLAN_1
 62
     5
  6
CONTINUOUS
 66
     1
 40
0.003000
 41
0.003000
  0
VERTEX
  8
PLAN_1
 62
     5
  6
CONTINUOUS
 10
-1.155067
 20
-1.006272
  0
VERTEX
  8
PLAN_1
 62
     5
  6
CONTINUOUS
 10
-1.155067
 20
-0.998165
  0
SEQEND
  8
0
  0
POLYLINE
  8
PLAN_1
 62
     5
  6
CONTINUOUS
 66
     1
 40
0.003000
 41
0.003000
  0
VERTEX
  8
PLAN_1
 62
     5
  6
CONTINUOUS
 10
-1.155067
 20
-0.989583
  0
VERTEX
  8
PLAN_1
 62
     5
  6
CONTINUOUS
 10
-1.155067
 20
-0.981472
  0
SEQEND
  8
0
  0
POLYLINE
  8
PLAN_1
 62
     5
  6
CONTINUOUS
 66
     1
 40
0.003000
 41
0.003000
  0
VERTEX
  8
PLAN_1
 62
     5
  6
CONTINUOUS
 10
-1.155067
 20
-0.972890
  0
VERTEX
  8
PLAN_1
 62
     5
  6
CONTINUOUS
 10
-1.155067
 20
-0.964780
  0
SEQEND
  8
0
  0
POLYLINE
  8
PLAN_1
 62
     5
  6
CONTINUOUS
 66
     1
 40
0.003000
 41
0.003000
  0
VERTEX
  8
PLAN_1
 62
     5
  6
CONTINUOUS
 10
-1.155067
 20
-0.956197
  0
VERTEX
  8
PLAN_1
 62
     5
  6
CONTINUOUS
 10
-1.155067
 20
-0.948091
  0
SEQEND
  8
0
  0
POLYLINE
  8
PLAN_1
 62
     5
  6
CONTINUOUS
 66
     1
 40
0.003000
 41
0.003000
  0
VERTEX
  8
PLAN_1
 62
     5
  6
CONTINUOUS
 10
-1.155067
 20
-0.939504
  0
VERTEX
  8
PLAN_1
 62
     5
  6
CONTINUOUS
 10
-1.155067
 20
-0.931398
  0
SEQEND
  8
0
  0
POLYLINE
  8
PLAN_1
 62
     5
  6
CONTINUOUS
 66
     1
 40
0.003000
 41
0.003000
  0
VERTEX
  8
PLAN_1
 62
     5
  6
CONTINUOUS
 10
-1.155067
 20
-0.922811
  0
VERTEX
  8
PLAN_1
 62
     5
  6
CONTINUOUS
 10
-1.155067
 20
-0.914705
  0
SEQEND
  8
0
  0
POLYLINE
  8
PLAN_1
 62
     5
  6
CONTINUOUS
 66
     1
 40
0.003000
 41
0.003000
  0
VERTEX
  8
PLAN_1
 62
     5
  6
CONTINUOUS
 10
-1.155067
 20
-0.906598
  0
VERTEX
  8
PLAN_1
 62
     5
  6
CONTINUOUS
 10
-1.155067
 20
-0.898012
  0
SEQEND
  8
0
  0
POLYLINE
  8
PLAN_1
 62
     5
  6
CONTINUOUS
 66
     1
 40
0.003000
 41
0.003000
  0
VERTEX
  8
PLAN_1
 62
     5
  6
CONTINUOUS
 10
-1.155067
 20
-0.889906
  0
VERTEX
  8
PLAN_1
 62
     5
  6
CONTINUOUS
 10
-1.155067
 20
-0.881319
  0
SEQEND
  8
0
  0
POLYLINE
  8
PLAN_1
 62
     5
  6
CONTINUOUS
 66
     1
 40
0.003000
 41
0.003000
  0
VERTEX
  8
PLAN_1
 62
     5
  6
CONTINUOUS
 10
-1.155067
 20
-0.873213
  0
VERTEX
  8
PLAN_1
 62
     5
  6
CONTINUOUS
 10
-1.155067
 20
-0.864626
  0
SEQEND
  8
0
  0
POLYLINE
  8
PLAN_1
 62
     5
  6
CONTINUOUS
 66
     1
 40
0.003000
 41
0.003000
  0
VERTEX
  8
PLAN_1
 62
     5
  6
CONTINUOUS
 10
-1.155067
 20
-0.856520
  0
VERTEX
  8
PLAN_1
 62
     5
  6
CONTINUOUS
 10
-1.155067
 20
-0.847937
  0
SEQEND
  8
0
  0
POLYLINE
  8
PLAN_1
 62
     5
  6
CONTINUOUS
 66
     1
 40
0.003000
 41
0.003000
  0
VERTEX
  8
PLAN_1
 62
     5
  6
CONTINUOUS
 10
-1.155067
 20
-0.839827
  0
VERTEX
  8
PLAN_1
 62
     5
  6
CONTINUOUS
 10
-1.155067
 20
-0.831244
  0
SEQEND
  8
0
  0
POLYLINE
  8
PLAN_1
 62
     5
  6
CONTINUOUS
 66
     1
 40
0.003000
 41
0.003000
  0
VERTEX
  8
PLAN_1
 62
     5
  6
CONTINUOUS
 10
-1.155067
 20
-0.823134
  0
VERTEX
  8
PLAN_1
 62
     5
  6
CONTINUOUS
 10
-1.155067
 20
-0.814551
  0
SEQEND
  8
0
  0
POLYLINE
  8
PLAN_1
 62
     5
  6
CONTINUOUS
 66
     1
 40
0.003000
 41
0.003000
  0
VERTEX
  8
PLAN_1
 62
     5
  6
CONTINUOUS
 10
-1.155067
 20
-0.806445
  0
VERTEX
  8
PLAN_1
 62
     5
  6
CONTINUOUS
 10
-1.155067
 20
-0.798335
  0
SEQEND
  8
0
  0
POLYLINE
  8
PLAN_1
 62
     5
  6
CONTINUOUS
 66
     1
 40
0.003000
 41
0.003000
  0
VERTEX
  8
PLAN_1
 62
     5
  6
CONTINUOUS
 10
-1.155067
 20
-0.789752
  0
VERTEX
  8
PLAN_1
 62
     5
  6
CONTINUOUS
 10
-1.155067
 20
-0.781646
  0
SEQEND
  8
0
  0
POLYLINE
  8
PLAN_1
 62
     5
  6
CONTINUOUS
 66
     1
 40
0.003000
 41
0.003000
  0
VERTEX
  8
PLAN_1
 62
     5
  6
CONTINUOUS
 10
-1.155067
 20
-0.773059
  0
VERTEX
  8
PLAN_1
 62
     5
  6
CONTINUOUS
 10
-1.155067
 20
-0.764953
  0
SEQEND
  8
0
  0
POLYLINE
  8
PLAN_1
 62
     5
  6
CONTINUOUS
 66
     1
 40
0.003000
 41
0.003000
  0
VERTEX
  8
PLAN_1
 62
     5
  6
CONTINUOUS
 10
-1.155067
 20
-0.756366
  0
VERTEX
  8
PLAN_1
 62
     5
  6
CONTINUOUS
 10
-1.155067
 20
-0.748260
  0
SEQEND
  8
0
  0
POLYLINE
  8
PLAN_1
 62
     5
  6
CONTINUOUS
 66
     1
 40
0.003000
 41
0.003000
  0
VERTEX
  8
PLAN_1
 62
     5
  6
CONTINUOUS
 10
-1.155067
 20
-0.739673
  0
VERTEX
  8
PLAN_1
 62
     5
  6
CONTINUOUS
 10
-1.155067
 20
-0.731567
  0
SEQEND
  8
0
  0
POLYLINE
  8
PLAN_1
 62
     5
  6
CONTINUOUS
 66
     1
 40
0.003000
 41
0.003000
  0
VERTEX
  8
PLAN_1
 62
     5
  6
CONTINUOUS
 10
-1.155067
 20
-0.722984
  0
VERTEX
  8
PLAN_1
 62
     5
  6
CONTINUOUS
 10
-1.155067
 20
-0.714874
  0
SEQEND
  8
0
  0
POLYLINE
  8
PLAN_1
 62
     5
  6
CONTINUOUS
 66
     1
 40
0.003000
 41
0.003000
  0
VERTEX
  8
PLAN_1
 62
     5
  6
CONTINUOUS
 10
-1.155067
 20
-0.706291
  0
VERTEX
  8
PLAN_1
 62
     5
  6
CONTINUOUS
 10
-1.155067
 20
-0.698181
  0
SEQEND
  8
0
  0
POLYLINE
  8
PLAN_1
 62
     5
  6
CONTINUOUS
 66
     1
 40
0.003000
 41
0.003000
  0
VERTEX
  8
PLAN_1
 62
     5
  6
CONTINUOUS
 10
-1.155067
 20
-0.690075
  0
VERTEX
  8
PLAN_1
 62
     5
  6
CONTINUOUS
 10
-1.155067
 20
-0.681492
  0
SEQEND
  8
0
  0
POLYLINE
  8
PLAN_1
 62
     5
  6
CONTINUOUS
 66
     1
 40
0.003000
 41
0.003000
  0
VERTEX
  8
PLAN_1
 62
     5
  6
CONTINUOUS
 10
-1.155067
 20
-0.673382
  0
VERTEX
  8
PLAN_1
 62
     5
  6
CONTINUOUS
 10
-1.155067
 20
-0.664799
  0
SEQEND
  8
0
  0
POLYLINE
  8
PLAN_1
 62
     5
  6
CONTINUOUS
 66
     1
 40
0.003000
 41
0.003000
  0
VERTEX
  8
PLAN_1
 62
     5
  6
CONTINUOUS
 10
-1.154114
 20
-0.657646
  0
VERTEX
  8
PLAN_1
 62
     5
  6
CONTINUOUS
 10
-1.146008
 20
-0.657646
  0
SEQEND
  8
0
  0
POLYLINE
  8
PLAN_1
 62
     5
  6
CONTINUOUS
 66
     1
 40
0.003000
 41
0.003000
  0
VERTEX
  8
PLAN_1
 62
     5
  6
CONTINUOUS
 10
-1.137421
 20
-0.657646
  0
VERTEX
  8
PLAN_1
 62
     5
  6
CONTINUOUS
 10
-1.129315
 20
-0.657646
  0
SEQEND
  8
0
  0
POLYLINE
  8
PLAN_1
 62
     5
  6
CONTINUOUS
 66
     1
 40
0.003000
 41
0.003000
  0
VERTEX
  8
PLAN_1
 62
     5
  6
CONTINUOUS
 10
-1.120732
 20
-0.657646
  0
VERTEX
  8
PLAN_1
 62
     5
  6
CONTINUOUS
 10
-1.112622
 20
-0.657646
  0
SEQEND
  8
0
  0
POLYLINE
  8
PLAN_1
 62
     5
  6
CONTINUOUS
 66
     1
 40
0.003000
 41
0.003000
  0
VERTEX
  8
PLAN_1
 62
     5
  6
CONTINUOUS
 10
-1.104516
 20
-0.657646
  0
VERTEX
  8
PLAN_1
 62
     5
  6
CONTINUOUS
 10
-1.095929
 20
-0.657646
  0
SEQEND
  8
0
  0
POLYLINE
  8
PLAN_1
 62
     5
  6
CONTINUOUS
 66
     1
 40
0.003000
 41
0.003000
  0
VERTEX
  8
PLAN_1
 62
     5
  6
CONTINUOUS
 10
-1.087823
 20
-0.657646
  0
VERTEX
  8
PLAN_1
 62
     5
  6
CONTINUOUS
 10
-1.079240
 20
-0.657646
  0
SEQEND
  8
0
  0
POLYLINE
  8
PLAN_1
 62
     5
  6
CONTINUOUS
 66
     1
 40
0.003000
 41
0.003000
  0
VERTEX
  8
PLAN_1
 62
     5
  6
CONTINUOUS
 10
-1.071130
 20
-0.657646
  0
VERTEX
  8
PLAN_1
 62
     5
  6
CONTINUOUS
 10
-1.062547
 20
-0.657646
  0
SEQEND
  8
0
  0
POLYLINE
  8
PLAN_1
 62
     5
  6
CONTINUOUS
 66
     1
 40
0.003000
 41
0.003000
  0
VERTEX
  8
PLAN_1
 62
     5
  6
CONTINUOUS
 10
-1.054437
 20
-0.657646
  0
VERTEX
  8
PLAN_1
 62
     5
  6
CONTINUOUS
 10
-1.045854
 20
-0.657646
  0
SEQEND
  8
0
  0
POLYLINE
  8
PLAN_1
 62
     5
  6
CONTINUOUS
 66
     1
 40
0.003000
 41
0.003000
  0
VERTEX
  8
PLAN_1
 62
     5
  6
CONTINUOUS
 10
-1.037748
 20
-0.657646
  0
VERTEX
  8
PLAN_1
 62
     5
  6
CONTINUOUS
 10
-1.029161
 20
-0.657646
  0
SEQEND
  8
0
  0
POLYLINE
  8
PLAN_1
 62
     5
  6
CONTINUOUS
 66
     1
 40
0.003000
 41
0.003000
  0
VERTEX
  8
PLAN_1
 62
     5
  6
CONTINUOUS
 10
-1.021055
 20
-0.657646
  0
VERTEX
  8
PLAN_1
 62
     5
  6
CONTINUOUS
 10
-1.012469
 20
-0.657646
  0
SEQEND
  8
0
  0
POLYLINE
  8
PLAN_1
 62
     5
  6
CONTINUOUS
 66
     1
 40
0.003000
 41
0.003000
  0
VERTEX
  8
PLAN_1
 62
     5
  6
CONTINUOUS
 10
-1.004362
 20
-0.657646
  0
VERTEX
  8
PLAN_1
 62
     5
  6
CONTINUOUS
 10
-0.996256
 20
-0.657646
  0
SEQEND
  8
0
  0
POLYLINE
  8
PLAN_1
 62
     5
  6
CONTINUOUS
 66
     1
 40
0.003000
 41
0.003000
  0
VERTEX
  8
PLAN_1
 62
     5
  6
CONTINUOUS
 10
-0.987669
 20
-0.657646
  0
VERTEX
  8
PLAN_1
 62
     5
  6
CONTINUOUS
 10
-0.979563
 20
-0.657646
  0
SEQEND
  8
0
  0
POLYLINE
  8
PLAN_1
 62
     5
  6
CONTINUOUS
 66
     1
 40
0.003000
 41
0.003000
  0
VERTEX
  8
PLAN_1
 62
     5
  6
CONTINUOUS
 10
-0.970976
 20
-0.657646
  0
VERTEX
  8
PLAN_1
 62
     5
  6
CONTINUOUS
 10
-0.962870
 20
-0.657646
  0
SEQEND
  8
0
  0
POLYLINE
  8
PLAN_1
 62
     5
  6
CONTINUOUS
 66
     1
 40
0.003000
 41
0.003000
  0
VERTEX
  8
PLAN_1
 62
     5
  6
CONTINUOUS
 10
-0.954287
 20
-0.657646
  0
VERTEX
  8
PLAN_1
 62
     5
  6
CONTINUOUS
 10
-0.946177
 20
-0.657646
  0
SEQEND
  8
0
  0
POLYLINE
  8
PLAN_1
 62
     5
  6
CONTINUOUS
 66
     1
 40
0.003000
 41
0.003000
  0
VERTEX
  8
PLAN_1
 62
     5
  6
CONTINUOUS
 10
-0.937594
 20
-0.657646
  0
VERTEX
  8
PLAN_1
 62
     5
  6
CONTINUOUS
 10
-0.929484
 20
-0.657646
  0
SEQEND
  8
0
  0
POLYLINE
  8
PLAN_1
 62
     5
  6
CONTINUOUS
 66
     1
 40
0.003000
 41
0.003000
  0
VERTEX
  8
PLAN_1
 62
     5
  6
CONTINUOUS
 10
-0.920902
 20
-0.657646
  0
VERTEX
  8
PLAN_1
 62
     5
  6
CONTINUOUS
 10
-0.912795
 20
-0.657646
  0
SEQEND
  8
0
  0
POLYLINE
  8
PLAN_1
 62
     5
  6
CONTINUOUS
 66
     1
 40
0.003000
 41
0.003000
  0
VERTEX
  8
PLAN_1
 62
     5
  6
CONTINUOUS
 10
-0.904209
 20
-0.657646
  0
VERTEX
  8
PLAN_1
 62
     5
  6
CONTINUOUS
 10
-0.896102
 20
-0.657646
  0
SEQEND
  8
0
  0
POLYLINE
  8
PLAN_1
 62
     5
  6
CONTINUOUS
 66
     1
 40
0.003000
 41
0.003000
  0
VERTEX
  8
PLAN_1
 62
     5
  6
CONTINUOUS
 10
-0.887516
 20
-0.657646
  0
VERTEX
  8
PLAN_1
 62
     5
  6
CONTINUOUS
 10
-0.879409
 20
-0.657646
  0
SEQEND
  8
0
  0
POLYLINE
  8
PLAN_1
 62
     5
  6
CONTINUOUS
 66
     1
 40
0.003000
 41
0.003000
  0
VERTEX
  8
PLAN_1
 62
     5
  6
CONTINUOUS
 10
-0.871303
 20
-0.657646
  0
VERTEX
  8
PLAN_1
 62
     5
  6
CONTINUOUS
 10
-0.862717
 20
-0.657646
  0
SEQEND
  8
0
  0
POLYLINE
  8
PLAN_1
 62
     5
  6
CONTINUOUS
 66
     1
 40
0.003000
 41
0.003000
  0
VERTEX
  8
PLAN_1
 62
     5
  6
CONTINUOUS
 10
-0.854610
 20
-0.657646
  0
VERTEX
  8
PLAN_1
 62
     5
  6
CONTINUOUS
 10
-0.846024
 20
-0.657646
  0
SEQEND
  8
0
  0
POLYLINE
  8
PLAN_1
 62
     5
  6
CONTINUOUS
 66
     1
 40
0.003000
 41
0.003000
  0
VERTEX
  8
PLAN_1
 62
     5
  6
CONTINUOUS
 10
-0.837917
 20
-0.657646
  0
VERTEX
  8
PLAN_1
 62
     5
  6
CONTINUOUS
 10
-0.829331
 20
-0.657646
  0
SEQEND
  8
0
  0
POLYLINE
  8
PLAN_1
 62
     5
  6
CONTINUOUS
 66
     1
 40
0.003000
 41
0.003000
  0
VERTEX
  8
PLAN_1
 62
     5
  6
CONTINUOUS
 10
-0.821224
 20
-0.657646
  0
VERTEX
  8
PLAN_1
 62
     5
  6
CONTINUOUS
 10
-0.812642
 20
-0.657646
  0
SEQEND
  8
0
  0
POLYLINE
  8
PLAN_1
 62
     5
  6
CONTINUOUS
 66
     1
 40
0.003000
 41
0.003000
  0
VERTEX
  8
PLAN_1
 62
     5
  6
CONTINUOUS
 10
-0.804531
 20
-0.657646
  0
VERTEX
  8
PLAN_1
 62
     5
  6
CONTINUOUS
 10
-0.795949
 20
-0.657646
  0
SEQEND
  8
0
  0
POLYLINE
  8
PLAN_1
 62
     5
  6
CONTINUOUS
 66
     1
 40
0.003000
 41
0.003000
  0
VERTEX
  8
PLAN_1
 62
     5
  6
CONTINUOUS
 10
-0.787839
 20
-0.657646
  0
VERTEX
  8
PLAN_1
 62
     5
  6
CONTINUOUS
 10
-0.779256
 20
-0.657646
  0
SEQEND
  8
0
  0
POLYLINE
  8
PLAN_1
 62
     5
  6
CONTINUOUS
 66
     1
 40
0.003000
 41
0.003000
  0
VERTEX
  8
PLAN_1
 62
     5
  6
CONTINUOUS
 10
-0.771150
 20
-0.657646
  0
VERTEX
  8
PLAN_1
 62
     5
  6
CONTINUOUS
 10
-0.763039
 20
-0.657646
  0
SEQEND
  8
0
  0
POLYLINE
  8
PLAN_1
 62
     5
  6
CONTINUOUS
 66
     1
 40
0.003000
 41
0.003000
  0
VERTEX
  8
PLAN_1
 62
     5
  6
CONTINUOUS
 10
-0.754457
 20
-0.657646
  0
VERTEX
  8
PLAN_1
 62
     5
  6
CONTINUOUS
 10
-0.746350
 20
-0.657646
  0
SEQEND
  8
0
  0
POLYLINE
  8
PLAN_1
 62
     5
  6
CONTINUOUS
 66
     1
 40
0.003000
 41
0.003000
  0
VERTEX
  8
PLAN_1
 62
     5
  6
CONTINUOUS
 10
-0.737764
 20
-0.657646
  0
VERTEX
  8
PLAN_1
 62
     5
  6
CONTINUOUS
 10
-0.729657
 20
-0.657646
  0
SEQEND
  8
0
  0
POLYLINE
  8
PLAN_1
 62
     5
  6
CONTINUOUS
 66
     1
 40
0.003000
 41
0.003000
  0
VERTEX
  8
PLAN_1
 62
     5
  6
CONTINUOUS
 10
-0.721071
 20
-0.657646
  0
VERTEX
  8
PLAN_1
 62
     5
  6
CONTINUOUS
 10
-0.712965
 20
-0.657646
  0
SEQEND
  8
0
  0
POLYLINE
  8
PLAN_1
 62
     5
  6
CONTINUOUS
 66
     1
 40
0.003000
 41
0.003000
  0
VERTEX
  8
PLAN_1
 62
     5
  6
CONTINUOUS
 10
-0.704378
 20
-0.657646
  0
VERTEX
  8
PLAN_1
 62
     5
  6
CONTINUOUS
 10
-0.696272
 20
-0.657646
  0
SEQEND
  8
0
  0
POLYLINE
  8
PLAN_1
 62
     5
  6
CONTINUOUS
 66
     1
 40
0.003000
 41
0.003000
  0
VERTEX
  8
PLAN_1
 62
     5
  6
CONTINUOUS
 10
-0.687689
 20
-0.657646
  0
VERTEX
  8
PLAN_1
 62
     5
  6
CONTINUOUS
 10
-0.679579
 20
-0.657646
  0
SEQEND
  8
0
  0
POLYLINE
  8
PLAN_1
 62
     5
  6
CONTINUOUS
 66
     1
 40
0.003000
 41
0.003000
  0
VERTEX
  8
PLAN_1
 62
     5
  6
CONTINUOUS
 10
-0.670996
 20
-0.657646
  0
VERTEX
  8
PLAN_1
 62
     5
  6
CONTINUOUS
 10
-0.662886
 20
-0.657646
  0
SEQEND
  8
0
  0
POLYLINE
  8
PLAN_1
 62
     5
  6
CONTINUOUS
 66
     1
 40
0.003000
 41
0.003000
  0
VERTEX
  8
PLAN_1
 62
     5
  6
CONTINUOUS
 10
-0.654780
 20
-0.657646
  0
VERTEX
  8
PLAN_1
 62
     5
  6
CONTINUOUS
 10
-0.646197
 20
-0.657646
  0
SEQEND
  8
0
  0
POLYLINE
  8
PLAN_1
 62
     5
  6
CONTINUOUS
 66
     1
 40
0.003000
 41
0.003000
  0
VERTEX
  8
PLAN_1
 62
     5
  6
CONTINUOUS
 10
-0.638087
 20
-0.657646
  0
VERTEX
  8
PLAN_1
 62
     5
  6
CONTINUOUS
 10
-0.629504
 20
-0.657646
  0
SEQEND
  8
0
  0
POLYLINE
  8
PLAN_1
 62
     5
  6
CONTINUOUS
 66
     1
 40
0.003000
 41
0.003000
  0
VERTEX
  8
PLAN_1
 62
     5
  6
CONTINUOUS
 10
-0.621394
 20
-0.657646
  0
VERTEX
  8
PLAN_1
 62
     5
  6
CONTINUOUS
 10
-0.612811
 20
-0.657646
  0
SEQEND
  8
0
  0
POLYLINE
  8
PLAN_1
 62
     5
  6
CONTINUOUS
 66
     1
 40
0.003000
 41
0.003000
  0
VERTEX
  8
PLAN_1
 62
     5
  6
CONTINUOUS
 10
-0.604705
 20
-0.657646
  0
VERTEX
  8
PLAN_1
 62
     5
  6
CONTINUOUS
 10
-0.596118
 20
-0.657646
  0
SEQEND
  8
0
  0
POLYLINE
  8
PLAN_1
 62
     5
  6
CONTINUOUS
 66
     1
 40
0.003000
 41
0.003000
  0
VERTEX
  8
PLAN_1
 62
     5
  6
CONTINUOUS
 10
-0.588012
 20
-0.657646
  0
VERTEX
  8
PLAN_1
 62
     5
  6
CONTINUOUS
 10
-0.579425
 20
-0.657646
  0
SEQEND
  8
0
  0
POLYLINE
  8
PLAN_1
 62
     5
  6
CONTINUOUS
 66
     1
 40
0.003000
 41
0.003000
  0
VERTEX
  8
PLAN_1
 62
     5
  6
CONTINUOUS
 10
-0.571319
 20
-0.657646
  0
VERTEX
  8
PLAN_1
 62
     5
  6
CONTINUOUS
 10
-0.562736
 20
-0.657646
  0
SEQEND
  8
0
  0
POLYLINE
  8
PLAN_1
 62
     5
  6
CONTINUOUS
 66
     1
 40
0.003000
 41
0.003000
  0
VERTEX
  8
PLAN_1
 62
     5
  6
CONTINUOUS
 10
-0.554626
 20
-0.657646
  0
VERTEX
  8
PLAN_1
 62
     5
  6
CONTINUOUS
 10
-0.546520
 20
-0.657646
  0
SEQEND
  8
0
  0
POLYLINE
  8
PLAN_1
 62
     5
  6
CONTINUOUS
 66
     1
 40
0.003000
 41
0.003000
  0
VERTEX
  8
PLAN_1
 62
     5
  6
CONTINUOUS
 10
-0.537933
 20
-0.657646
  0
VERTEX
  8
PLAN_1
 62
     5
  6
CONTINUOUS
 10
-0.529827
 20
-0.657646
  0
SEQEND
  8
0
  0
POLYLINE
  8
PLAN_1
 62
     5
  6
CONTINUOUS
 66
     1
 40
0.003000
 41
0.003000
  0
VERTEX
  8
PLAN_1
 62
     5
  6
CONTINUOUS
 10
-0.521244
 20
-0.657646
  0
VERTEX
  8
PLAN_1
 62
     5
  6
CONTINUOUS
 10
-0.513134
 20
-0.657646
  0
SEQEND
  8
0
  0
POLYLINE
  8
PLAN_1
 62
     5
  6
CONTINUOUS
 66
     1
 40
0.003000
 41
0.003000
  0
VERTEX
  8
PLAN_1
 62
     5
  6
CONTINUOUS
 10
-0.504551
 20
-0.657646
  0
VERTEX
  8
PLAN_1
 62
     5
  6
CONTINUOUS
 10
-0.496441
 20
-0.657646
  0
SEQEND
  8
0
  0
POLYLINE
  8
PLAN_1
 62
     5
  6
CONTINUOUS
 66
     1
 40
0.003000
 41
0.003000
  0
VERTEX
  8
PLAN_1
 62
     5
  6
CONTINUOUS
 10
-0.487858
 20
-0.657646
  0
VERTEX
  8
PLAN_1
 62
     5
  6
CONTINUOUS
 10
-0.479752
 20
-0.657646
  0
SEQEND
  8
0
  0
POLYLINE
  8
PLAN_1
 62
     5
  6
CONTINUOUS
 66
     1
 40
0.003000
 41
0.003000
  0
VERTEX
  8
PLAN_1
 62
     5
  6
CONTINUOUS
 10
-0.471165
 20
-0.657646
  0
VERTEX
  8
PLAN_1
 62
     5
  6
CONTINUOUS
 10
-0.463059
 20
-0.657646
  0
SEQEND
  8
0
  0
POLYLINE
  8
PLAN_1
 62
     5
  6
CONTINUOUS
 66
     1
 40
0.003000
 41
0.003000
  0
VERTEX
  8
PLAN_1
 62
     5
  6
CONTINUOUS
 10
-0.454472
 20
-0.657646
  0
VERTEX
  8
PLAN_1
 62
     5
  6
CONTINUOUS
 10
-0.446366
 20
-0.657646
  0
SEQEND
  8
0
  0
POLYLINE
  8
PLAN_1
 62
     5
  6
CONTINUOUS
 66
     1
 40
0.003000
 41
0.003000
  0
VERTEX
  8
PLAN_1
 62
     5
  6
CONTINUOUS
 10
-0.438260
 20
-0.657646
  0
VERTEX
  8
PLAN_1
 62
     5
  6
CONTINUOUS
 10
-0.429673
 20
-0.657646
  0
SEQEND
  8
0
  0
POLYLINE
  8
PLAN_1
 62
     5
  6
CONTINUOUS
 66
     1
 40
0.003000
 41
0.003000
  0
VERTEX
  8
PLAN_1
 62
     5
  6
CONTINUOUS
 10
-0.421567
 20
-0.657646
  0
VERTEX
  8
PLAN_1
 62
     5
  6
CONTINUOUS
 10
-0.412980
 20
-0.657646
  0
SEQEND
  8
0
  0
POLYLINE
  8
PLAN_1
 62
     5
  6
CONTINUOUS
 66
     1
 40
0.003000
 41
0.003000
  0
VERTEX
  8
PLAN_1
 62
     5
  6
CONTINUOUS
 10
-0.404874
 20
-0.657646
  0
VERTEX
  8
PLAN_1
 62
     5
  6
CONTINUOUS
 10
-0.396291
 20
-0.657646
  0
SEQEND
  8
0
  0
POLYLINE
  8
PLAN_1
 62
     5
  6
CONTINUOUS
 66
     1
 40
0.003000
 41
0.003000
  0
VERTEX
  8
PLAN_1
 62
     5
  6
CONTINUOUS
 10
-0.388181
 20
-0.657646
  0
VERTEX
  8
PLAN_1
 62
     5
  6
CONTINUOUS
 10
-0.379598
 20
-0.657646
  0
SEQEND
  8
0
  0
POLYLINE
  8
PLAN_1
 62
     5
  6
CONTINUOUS
 66
     1
 40
0.003000
 41
0.003000
  0
VERTEX
  8
PLAN_1
 62
     5
  6
CONTINUOUS
 10
-0.371488
 20
-0.657646
  0
VERTEX
  8
PLAN_1
 62
     5
  6
CONTINUOUS
 10
-0.362906
 20
-0.657646
  0
SEQEND
  8
0
  0
POLYLINE
  8
PLAN_1
 62
     5
  6
CONTINUOUS
 66
     1
 40
0.003000
 41
0.003000
  0
VERTEX
  8
PLAN_1
 62
     5
  6
CONTINUOUS
 10
-0.354799
 20
-0.657646
  0
VERTEX
  8
PLAN_1
 62
     5
  6
CONTINUOUS
 10
-0.346213
 20
-0.657646
  0
SEQEND
  8
0
  0
POLYLINE
  8
PLAN_1
 62
     5
  6
CONTINUOUS
 66
     1
 40
0.003000
 41
0.003000
  0
VERTEX
  8
PLAN_1
 62
     5
  6
CONTINUOUS
 10
-0.338106
 20
-0.657646
  0
VERTEX
  8
PLAN_1
 62
     5
  6
CONTINUOUS
 10
-0.329996
 20
-0.657646
  0
SEQEND
  8
0
  0
POLYLINE
  8
PLAN_1
 62
     5
  6
CONTINUOUS
 66
     1
 40
0.003000
 41
0.003000
  0
VERTEX
  8
PLAN_1
 62
     5
  6
CONTINUOUS
 10
-0.321413
 20
-0.657646
  0
VERTEX
  8
PLAN_1
 62
     5
  6
CONTINUOUS
 10
-0.313307
 20
-0.657646
  0
SEQEND
  8
0
  0
POLYLINE
  8
PLAN_1
 62
     5
  6
CONTINUOUS
 66
     1
 40
0.003000
 41
0.003000
  0
VERTEX
  8
PLAN_1
 62
     5
  6
CONTINUOUS
 10
-0.304720
 20
-0.657646
  0
VERTEX
  8
PLAN_1
 62
     5
  6
CONTINUOUS
 10
-0.296614
 20
-0.657646
  0
SEQEND
  8
0
  0
POLYLINE
  8
PLAN_1
 62
     5
  6
CONTINUOUS
 66
     1
 40
0.003000
 41
0.003000
  0
VERTEX
  8
PLAN_1
 62
     5
  6
CONTINUOUS
 10
-0.288028
 20
-0.657646
  0
VERTEX
  8
PLAN_1
 62
     5
  6
CONTINUOUS
 10
-0.279921
 20
-0.657646
  0
SEQEND
  8
0
  0
POLYLINE
  8
PLAN_1
 62
     5
  6
CONTINUOUS
 66
     1
 40
0.003000
 41
0.003000
  0
VERTEX
  8
PLAN_1
 62
     5
  6
CONTINUOUS
 10
-0.271335
 20
-0.657646
  0
VERTEX
  8
PLAN_1
 62
     5
  6
CONTINUOUS
 10
-0.263228
 20
-0.657646
  0
SEQEND
  8
0
  0
POLYLINE
  8
PLAN_1
 62
     5
  6
CONTINUOUS
 66
     1
 40
0.003000
 41
0.003000
  0
VERTEX
  8
PLAN_1
 62
     5
  6
CONTINUOUS
 10
-0.254646
 20
-0.657646
  0
VERTEX
  8
PLAN_1
 62
     5
  6
CONTINUOUS
 10
-0.246535
 20
-0.657646
  0
SEQEND
  8
0
  0
POLYLINE
  8
PLAN_1
 62
     5
  6
CONTINUOUS
 66
     1
 40
0.003000
 41
0.003000
  0
VERTEX
  8
PLAN_1
 62
     5
  6
CONTINUOUS
 10
-0.237953
 20
-0.657646
  0
VERTEX
  8
PLAN_1
 62
     5
  6
CONTINUOUS
 10
-0.229846
 20
-0.657646
  0
SEQEND
  8
0
  0
POLYLINE
  8
PLAN_1
 62
     5
  6
CONTINUOUS
 66
     1
 40
0.003000
 41
0.003000
  0
VERTEX
  8
PLAN_1
 62
     5
  6
CONTINUOUS
 10
-0.221736
 20
-0.657646
  0
VERTEX
  8
PLAN_1
 62
     5
  6
CONTINUOUS
 10
-0.213154
 20
-0.657646
  0
SEQEND
  8
0
  0
POLYLINE
  8
PLAN_1
 62
     5
  6
CONTINUOUS
 66
     1
 40
0.003000
 41
0.003000
  0
VERTEX
  8
PLAN_1
 62
     5
  6
CONTINUOUS
 10
-0.205043
 20
-0.657646
  0
VERTEX
  8
PLAN_1
 62
     5
  6
CONTINUOUS
 10
-0.196461
 20
-0.657646
  0
SEQEND
  8
0
  0
POLYLINE
  8
PLAN_1
 62
     5
  6
CONTINUOUS
 66
     1
 40
0.003000
 41
0.003000
  0
VERTEX
  8
PLAN_1
 62
     5
  6
CONTINUOUS
 10
-0.188354
 20
-0.657646
  0
VERTEX
  8
PLAN_1
 62
     5
  6
CONTINUOUS
 10
-0.179768
 20
-0.657646
  0
SEQEND
  8
0
  0
POLYLINE
  8
PLAN_1
 62
     5
  6
CONTINUOUS
 66
     1
 40
0.003000
 41
0.003000
  0
VERTEX
  8
PLAN_1
 62
     5
  6
CONTINUOUS
 10
-0.171661
 20
-0.657646
  0
VERTEX
  8
PLAN_1
 62
     5
  6
CONTINUOUS
 10
-0.163075
 20
-0.657646
  0
SEQEND
  8
0
  0
POLYLINE
  8
PLAN_1
 62
     5
  6
CONTINUOUS
 66
     1
 40
0.003000
 41
0.003000
  0
VERTEX
  8
PLAN_1
 62
     5
  6
CONTINUOUS
 10
-0.154969
 20
-0.657646
  0
VERTEX
  8
PLAN_1
 62
     5
  6
CONTINUOUS
 10
-0.146382
 20
-0.657646
  0
SEQEND
  8
0
  0
POLYLINE
  8
PLAN_1
 62
     5
  6
CONTINUOUS
 66
     1
 40
0.003000
 41
0.003000
  0
VERTEX
  8
PLAN_1
 62
     5
  6
CONTINUOUS
 10
-0.138276
 20
-0.657646
  0
VERTEX
  8
PLAN_1
 62
     5
  6
CONTINUOUS
 10
-0.129693
 20
-0.657646
  0
SEQEND
  8
0
  0
POLYLINE
  8
PLAN_1
 62
     5
  6
CONTINUOUS
 66
     1
 40
0.003000
 41
0.003000
  0
VERTEX
  8
PLAN_1
 62
     5
  6
CONTINUOUS
 10
-0.121583
 20
-0.657646
  0
VERTEX
  8
PLAN_1
 62
     5
  6
CONTINUOUS
 10
-0.113000
 20
-0.657646
  0
SEQEND
  8
0
  0
POLYLINE
  8
PLAN_1
 62
     5
  6
CONTINUOUS
 66
     1
 40
0.003000
 41
0.003000
  0
VERTEX
  8
PLAN_1
 62
     5
  6
CONTINUOUS
 10
-0.104890
 20
-0.657646
  0
VERTEX
  8
PLAN_1
 62
     5
  6
CONTINUOUS
 10
-0.096783
 20
-0.657646
  0
SEQEND
  8
0
  0
POLYLINE
  8
PLAN_1
 62
     5
  6
CONTINUOUS
 66
     1
 40
0.003000
 41
0.003000
  0
VERTEX
  8
PLAN_1
 62
     5
  6
CONTINUOUS
 10
-0.088201
 20
-0.657646
  0
VERTEX
  8
PLAN_1
 62
     5
  6
CONTINUOUS
 10
-0.080091
 20
-0.657646
  0
SEQEND
  8
0
  0
POLYLINE
  8
PLAN_1
 62
     5
  6
CONTINUOUS
 66
     1
 40
0.003000
 41
0.003000
  0
VERTEX
  8
PLAN_1
 62
     5
  6
CONTINUOUS
 10
-0.071508
 20
-0.657646
  0
VERTEX
  8
PLAN_1
 62
     5
  6
CONTINUOUS
 10
-0.063398
 20
-0.657646
  0
SEQEND
  8
0
  0
POLYLINE
  8
PLAN_1
 62
     5
  6
CONTINUOUS
 66
     1
 40
0.003000
 41
0.003000
  0
VERTEX
  8
PLAN_1
 62
     5
  6
CONTINUOUS
 10
-0.054815
 20
-0.657646
  0
VERTEX
  8
PLAN_1
 62
     5
  6
CONTINUOUS
 10
-0.046709
 20
-0.657646
  0
SEQEND
  8
0
  0
POLYLINE
  8
PLAN_1
 62
     5
  6
CONTINUOUS
 66
     1
 40
0.003000
 41
0.003000
  0
VERTEX
  8
PLAN_1
 62
     5
  6
CONTINUOUS
 10
-0.038122
 20
-0.657646
  0
VERTEX
  8
PLAN_1
 62
     5
  6
CONTINUOUS
 10
-0.030016
 20
-0.657646
  0
SEQEND
  8
0
  0
POLYLINE
  8
PLAN_1
 62
     5
  6
CONTINUOUS
 66
     1
 40
0.003000
 41
0.003000
  0
VERTEX
  8
PLAN_1
 62
     5
  6
CONTINUOUS
 10
-0.021429
 20
-0.657646
  0
VERTEX
  8
PLAN_1
 62
     5
  6
CONTINUOUS
 10
-0.013323
 20
-0.657646
  0
SEQEND
  8
0
  0
POLYLINE
  8
PLAN_1
 62
     5
  6
CONTINUOUS
 66
     1
 40
0.003000
 41
0.003000
  0
VERTEX
  8
PLAN_1
 62
     5
  6
CONTINUOUS
 10
-0.004740
 20
-0.657646
  0
VERTEX
  8
PLAN_1
 62
     5
  6
CONTINUOUS
 10
0.003370
 20
-0.657646
  0
SEQEND
  8
0
  0
POLYLINE
  8
PLAN_1
 62
     5
  6
CONTINUOUS
 66
     1
 40
0.003000
 41
0.003000
  0
VERTEX
  8
PLAN_1
 62
     5
  6
CONTINUOUS
 10
0.011476
 20
-0.657646
  0
VERTEX
  8
PLAN_1
 62
     5
  6
CONTINUOUS
 10
0.020063
 20
-0.657646
  0
SEQEND
  8
0
  0
POLYLINE
  8
PLAN_1
 62
     5
  6
CONTINUOUS
 66
     1
 40
0.003000
 41
0.003000
  0
VERTEX
  8
PLAN_1
 62
     5
  6
CONTINUOUS
 10
0.028169
 20
-0.657646
  0
VERTEX
  8
PLAN_1
 62
     5
  6
CONTINUOUS
 10
0.036752
 20
-0.657646
  0
SEQEND
  8
0
  0
POLYLINE
  8
PLAN_1
 62
     5
  6
CONTINUOUS
 66
     1
 40
0.003000
 41
0.003000
  0
VERTEX
  8
PLAN_1
 62
     5
  6
CONTINUOUS
 10
0.044862
 20
-0.657646
  0
VERTEX
  8
PLAN_1
 62
     5
  6
CONTINUOUS
 10
0.053445
 20
-0.657646
  0
SEQEND
  8
0
  0
POLYLINE
  8
PLAN_1
 62
     5
  6
CONTINUOUS
 66
     1
 40
0.003000
 41
0.003000
  0
VERTEX
  8
PLAN_1
 62
     5
  6
CONTINUOUS
 10
0.061555
 20
-0.657646
  0
VERTEX
  8
PLAN_1
 62
     5
  6
CONTINUOUS
 10
0.070138
 20
-0.657646
  0
SEQEND
  8
0
  0
POLYLINE
  8
PLAN_1
 62
     5
  6
CONTINUOUS
 66
     1
 40
0.003000
 41
0.003000
  0
VERTEX
  8
PLAN_1
 62
     5
  6
CONTINUOUS
 10
0.078244
 20
-0.657646
  0
VERTEX
  8
PLAN_1
 62
     5
  6
CONTINUOUS
 10
0.086831
 20
-0.657646
  0
SEQEND
  8
0
  0
POLYLINE
  8
PLAN_1
 62
     5
  6
CONTINUOUS
 66
     1
 40
0.003000
 41
0.003000
  0
VERTEX
  8
PLAN_1
 62
     5
  6
CONTINUOUS
 10
0.094937
 20
-0.657646
  0
VERTEX
  8
PLAN_1
 62
     5
  6
CONTINUOUS
 10
0.103524
 20
-0.657646
  0
SEQEND
  8
0
  0
POLYLINE
  8
PLAN_1
 62
     5
  6
CONTINUOUS
 66
     1
 40
0.003000
 41
0.003000
  0
VERTEX
  8
PLAN_1
 62
     5
  6
CONTINUOUS
 10
0.111630
 20
-0.657646
  0
VERTEX
  8
PLAN_1
 62
     5
  6
CONTINUOUS
 10
0.119736
 20
-0.657646
  0
SEQEND
  8
0
  0
POLYLINE
  8
PLAN_1
 62
     5
  6
CONTINUOUS
 66
     1
 40
0.003000
 41
0.003000
  0
VERTEX
  8
PLAN_1
 62
     5
  6
CONTINUOUS
 10
0.128323
 20
-0.657646
  0
VERTEX
  8
PLAN_1
 62
     5
  6
CONTINUOUS
 10
0.136429
 20
-0.657646
  0
SEQEND
  8
0
  0
POLYLINE
  8
PLAN_1
 62
     5
  6
CONTINUOUS
 66
     1
 40
0.003000
 41
0.003000
  0
VERTEX
  8
PLAN_1
 62
     5
  6
CONTINUOUS
 10
0.145016
 20
-0.657646
  0
VERTEX
  8
PLAN_1
 62
     5
  6
CONTINUOUS
 10
0.153122
 20
-0.657646
  0
SEQEND
  8
0
  0
POLYLINE
  8
PLAN_1
 62
     5
  6
CONTINUOUS
 66
     1
 40
0.003000
 41
0.003000
  0
VERTEX
  8
PLAN_1
 62
     5
  6
CONTINUOUS
 10
0.161705
 20
-0.657646
  0
VERTEX
  8
PLAN_1
 62
     5
  6
CONTINUOUS
 10
0.169815
 20
-0.657646
  0
SEQEND
  8
0
  0
POLYLINE
  8
PLAN_1
 62
     5
  6
CONTINUOUS
 66
     1
 40
0.003000
 41
0.003000
  0
VERTEX
  8
PLAN_1
 62
     5
  6
CONTINUOUS
 10
0.178398
 20
-0.657646
  0
VERTEX
  8
PLAN_1
 62
     5
  6
CONTINUOUS
 10
0.186508
 20
-0.657646
  0
SEQEND
  8
0
  0
POLYLINE
  8
PLAN_1
 62
     5
  6
CONTINUOUS
 66
     1
 40
0.003000
 41
0.003000
  0
VERTEX
  8
PLAN_1
 62
     5
  6
CONTINUOUS
 10
0.195091
 20
-0.657646
  0
VERTEX
  8
PLAN_1
 62
     5
  6
CONTINUOUS
 10
0.203197
 20
-0.657646
  0
SEQEND
  8
0
  0
POLYLINE
  8
PLAN_1
 62
     5
  6
CONTINUOUS
 66
     1
 40
0.003000
 41
0.003000
  0
VERTEX
  8
PLAN_1
 62
     5
  6
CONTINUOUS
 10
0.211783
 20
-0.657646
  0
VERTEX
  8
PLAN_1
 62
     5
  6
CONTINUOUS
 10
0.219890
 20
-0.657646
  0
SEQEND
  8
0
  0
POLYLINE
  8
PLAN_1
 62
     5
  6
CONTINUOUS
 66
     1
 40
0.003000
 41
0.003000
  0
VERTEX
  8
PLAN_1
 62
     5
  6
CONTINUOUS
 10
0.228000
 20
-0.657646
  0
VERTEX
  8
PLAN_1
 62
     5
  6
CONTINUOUS
 10
0.236583
 20
-0.657646
  0
SEQEND
  8
0
  0
POLYLINE
  8
PLAN_1
 62
     5
  6
CONTINUOUS
 66
     1
 40
0.003000
 41
0.003000
  0
VERTEX
  8
PLAN_1
 62
     5
  6
CONTINUOUS
 10
0.244689
 20
-0.657646
  0
VERTEX
  8
PLAN_1
 62
     5
  6
CONTINUOUS
 10
0.253276
 20
-0.657646
  0
SEQEND
  8
0
  0
POLYLINE
  8
PLAN_1
 62
     5
  6
CONTINUOUS
 66
     1
 40
0.003000
 41
0.003000
  0
VERTEX
  8
PLAN_1
 62
     5
  6
CONTINUOUS
 10
0.261382
 20
-0.657646
  0
VERTEX
  8
PLAN_1
 62
     5
  6
CONTINUOUS
 10
0.269969
 20
-0.657646
  0
SEQEND
  8
0
  0
POLYLINE
  8
PLAN_1
 62
     5
  6
CONTINUOUS
 66
     1
 40
0.003000
 41
0.003000
  0
VERTEX
  8
PLAN_1
 62
     5
  6
CONTINUOUS
 10
0.278075
 20
-0.657646
  0
VERTEX
  8
PLAN_1
 62
     5
  6
CONTINUOUS
 10
0.278075
 20
-0.666228
  0
SEQEND
  8
0
  0
POLYLINE
  8
PLAN_1
 62
     5
  6
CONTINUOUS
 66
     1
 40
0.003000
 41
0.003000
  0
VERTEX
  8
PLAN_1
 62
     5
  6
CONTINUOUS
 10
0.278075
 20
-0.674339
  0
VERTEX
  8
PLAN_1
 62
     5
  6
CONTINUOUS
 10
0.278075
 20
-0.682921
  0
SEQEND
  8
0
  0
POLYLINE
  8
PLAN_1
 62
     5
  6
CONTINUOUS
 66
     1
 40
0.003000
 41
0.003000
  0
VERTEX
  8
PLAN_1
 62
     5
  6
CONTINUOUS
 10
0.278075
 20
-0.691028
  0
VERTEX
  8
PLAN_1
 62
     5
  6
CONTINUOUS
 10
0.278075
 20
-0.699614
  0
SEQEND
  8
0
  0
POLYLINE
  8
PLAN_1
 62
     5
  6
CONTINUOUS
 66
     1
 40
0.003000
 41
0.003000
  0
VERTEX
  8
PLAN_1
 62
     5
  6
CONTINUOUS
 10
0.278075
 20
-0.707720
  0
VERTEX
  8
PLAN_1
 62
     5
  6
CONTINUOUS
 10
0.278075
 20
-0.716307
  0
SEQEND
  8
0
  0
POLYLINE
  8
PLAN_1
 62
     5
  6
CONTINUOUS
 66
     1
 40
0.003000
 41
0.003000
  0
VERTEX
  8
PLAN_1
 62
     5
  6
CONTINUOUS
 10
0.278075
 20
-0.724413
  0
VERTEX
  8
PLAN_1
 62
     5
  6
CONTINUOUS
 10
0.278075
 20
-0.732996
  0
SEQEND
  8
0
  0
POLYLINE
  8
PLAN_1
 62
     5
  6
CONTINUOUS
 66
     1
 40
0.003000
 41
0.003000
  0
VERTEX
  8
PLAN_1
 62
     5
  6
CONTINUOUS
 10
0.278075
 20
-0.741106
  0
VERTEX
  8
PLAN_1
 62
     5
  6
CONTINUOUS
 10
0.278075
 20
-0.749689
  0
SEQEND
  8
0
  0
POLYLINE
  8
PLAN_1
 62
     5
  6
CONTINUOUS
 66
     1
 40
0.003000
 41
0.003000
  0
VERTEX
  8
PLAN_1
 62
     5
  6
CONTINUOUS
 10
0.278075
 20
-0.757799
  0
VERTEX
  8
PLAN_1
 62
     5
  6
CONTINUOUS
 10
0.278075
 20
-0.765906
  0
SEQEND
  8
0
  0
POLYLINE
  8
PLAN_1
 62
     5
  6
CONTINUOUS
 66
     1
 40
0.003000
 41
0.003000
  0
VERTEX
  8
PLAN_1
 62
     5
  6
CONTINUOUS
 10
0.278075
 20
-0.774488
  0
VERTEX
  8
PLAN_1
 62
     5
  6
CONTINUOUS
 10
0.278075
 20
-0.782598
  0
SEQEND
  8
0
  0
POLYLINE
  8
PLAN_1
 62
     5
  6
CONTINUOUS
 66
     1
 40
0.003000
 41
0.003000
  0
VERTEX
  8
PLAN_1
 62
     5
  6
CONTINUOUS
 10
0.278075
 20
-0.791181
  0
VERTEX
  8
PLAN_1
 62
     5
  6
CONTINUOUS
 10
0.278075
 20
-0.796429
  0
VERTEX
  8
PLAN_1
 62
     5
  6
CONTINUOUS
 10
0.280937
 20
-0.796429
  0
SEQEND
  8
0
  0
POLYLINE
  8
PLAN_1
 62
     5
  6
CONTINUOUS
 66
     1
 40
0.003000
 41
0.003000
  0
VERTEX
  8
PLAN_1
 62
     5
  6
CONTINUOUS
 10
0.289520
 20
-0.796429
  0
VERTEX
  8
PLAN_1
 62
     5
  6
CONTINUOUS
 10
0.297630
 20
-0.796429
  0
SEQEND
  8
0
  0
POLYLINE
  8
PLAN_1
 62
     5
  6
CONTINUOUS
 66
     1
 40
0.003000
 41
0.003000
  0
VERTEX
  8
PLAN_1
 62
     5
  6
CONTINUOUS
 10
0.305736
 20
-0.796429
  0
VERTEX
  8
PLAN_1
 62
     5
  6
CONTINUOUS
 10
0.314319
 20
-0.796429
  0
SEQEND
  8
0
  0
POLYLINE
  8
PLAN_1
 62
     5
  6
CONTINUOUS
 66
     1
 40
0.003000
 41
0.003000
  0
VERTEX
  8
PLAN_1
 62
     5
  6
CONTINUOUS
 10
0.316228
 20
-0.803106
  0
VERTEX
  8
PLAN_1
 62
     5
  6
CONTINUOUS
 10
0.316228
 20
-0.811213
  0
SEQEND
  8
0
  0
POLYLINE
  8
PLAN_1
 62
     5
  6
CONTINUOUS
 66
     1
 40
0.003000
 41
0.003000
  0
VERTEX
  8
PLAN_1
 62
     5
  6
CONTINUOUS
 10
0.316228
 20
-0.819319
  0
VERTEX
  8
PLAN_1
 62
     5
  6
CONTINUOUS
 10
0.316228
 20
-0.827906
  0
SEQEND
  8
0
  0
POLYLINE
  8
PLAN_1
 62
     5
  6
CONTINUOUS
 66
     1
 40
0.003000
 41
0.003000
  0
VERTEX
  8
PLAN_1
 62
     5
  6
CONTINUOUS
 10
0.316228
 20
-0.836012
  0
VERTEX
  8
PLAN_1
 62
     5
  6
CONTINUOUS
 10
0.316228
 20
-0.844598
  0
SEQEND
  8
0
  0
POLYLINE
  8
PLAN_1
 62
     5
  6
CONTINUOUS
 66
     1
 40
0.003000
 41
0.003000
  0
VERTEX
  8
PLAN_1
 62
     5
  6
CONTINUOUS
 10
0.316228
 20
-0.852705
  0
VERTEX
  8
PLAN_1
 62
     5
  6
CONTINUOUS
 10
0.316228
 20
-0.861291
  0
SEQEND
  8
0
  0
POLYLINE
  8
PLAN_1
 62
     5
  6
CONTINUOUS
 66
     1
 40
0.003000
 41
0.003000
  0
VERTEX
  8
PLAN_1
 62
     5
  6
CONTINUOUS
 10
0.316228
 20
-0.869398
  0
VERTEX
  8
PLAN_1
 62
     5
  6
CONTINUOUS
 10
0.316228
 20
-0.877980
  0
SEQEND
  8
0
  0
POLYLINE
  8
PLAN_1
 62
     5
  6
CONTINUOUS
 66
     1
 40
0.003000
 41
0.003000
  0
VERTEX
  8
PLAN_1
 62
     5
  6
CONTINUOUS
 10
0.316228
 20
-0.886091
  0
VERTEX
  8
PLAN_1
 62
     5
  6
CONTINUOUS
 10
0.316228
 20
-0.894673
  0
SEQEND
  8
0
  0
POLYLINE
  8
PLAN_1
 62
     5
  6
CONTINUOUS
 66
     1
 40
0.003000
 41
0.003000
  0
VERTEX
  8
PLAN_1
 62
     5
  6
CONTINUOUS
 10
0.316228
 20
-0.902780
  0
VERTEX
  8
PLAN_1
 62
     5
  6
CONTINUOUS
 10
0.316228
 20
-0.911366
  0
SEQEND
  8
0
  0
POLYLINE
  8
PLAN_1
 62
     5
  6
CONTINUOUS
 66
     1
 40
0.003000
 41
0.003000
  0
VERTEX
  8
PLAN_1
 62
     5
  6
CONTINUOUS
 10
0.316228
 20
-0.919472
  0
VERTEX
  8
PLAN_1
 62
     5
  6
CONTINUOUS
 10
0.316228
 20
-0.927583
  0
SEQEND
  8
0
  0
POLYLINE
  8
PLAN_1
 62
     5
  6
CONTINUOUS
 66
     1
 40
0.003000
 41
0.003000
  0
VERTEX
  8
PLAN_1
 62
     5
  6
CONTINUOUS
 10
0.316228
 20
-0.936165
  0
VERTEX
  8
PLAN_1
 62
     5
  6
CONTINUOUS
 10
0.316228
 20
-0.944272
  0
SEQEND
  8
0
  0
POLYLINE
  8
PLAN_1
 62
     5
  6
CONTINUOUS
 66
     1
 40
0.003000
 41
0.003000
  0
VERTEX
  8
PLAN_1
 62
     5
  6
CONTINUOUS
 10
0.316228
 20
-0.952858
  0
VERTEX
  8
PLAN_1
 62
     5
  6
CONTINUOUS
 10
0.316228
 20
-0.960965
  0
SEQEND
  8
0
  0
POLYLINE
  8
PLAN_1
 62
     5
  6
CONTINUOUS
 66
     1
 40
0.003000
 41
0.003000
  0
VERTEX
  8
PLAN_1
 62
     5
  6
CONTINUOUS
 10
0.316228
 20
-0.969551
  0
VERTEX
  8
PLAN_1
 62
     5
  6
CONTINUOUS
 10
0.316228
 20
-0.977657
  0
SEQEND
  8
0
  0
POLYLINE
  8
PLAN_1
 62
     5
  6
CONTINUOUS
 66
     1
 40
0.003000
 41
0.003000
  0
VERTEX
  8
PLAN_1
 62
     5
  6
CONTINUOUS
 10
0.316228
 20
-0.986244
  0
VERTEX
  8
PLAN_1
 62
     5
  6
CONTINUOUS
 10
0.316228
 20
-0.994350
  0
SEQEND
  8
0
  0
POLYLINE
  8
PLAN_1
 62
     5
  6
CONTINUOUS
 66
     1
 40
0.003000
 41
0.003000
  0
VERTEX
  8
PLAN_1
 62
     5
  6
CONTINUOUS
 10
0.316228
 20
-1.002933
  0
VERTEX
  8
PLAN_1
 62
     5
  6
CONTINUOUS
 10
0.316228
 20
-1.011043
  0
SEQEND
  8
0
  0
POLYLINE
  8
PLAN_1
 62
     5
  6
CONTINUOUS
 66
     1
 40
0.003000
 41
0.003000
  0
VERTEX
  8
PLAN_1
 62
     5
  6
CONTINUOUS
 10
0.316228
 20
-1.019626
  0
VERTEX
  8
PLAN_1
 62
     5
  6
CONTINUOUS
 10
0.316228
 20
-1.027736
  0
SEQEND
  8
0
  0
POLYLINE
  8
PLAN_1
 62
     5
  6
CONTINUOUS
 66
     1
 40
0.003000
 41
0.003000
  0
VERTEX
  8
PLAN_1
 62
     5
  6
CONTINUOUS
 10
0.316228
 20
-1.035843
  0
VERTEX
  8
PLAN_1
 62
     5
  6
CONTINUOUS
 10
0.316228
 20
-1.044425
  0
SEQEND
  8
0
  0
POLYLINE
  8
PLAN_1
 62
     5
  6
CONTINUOUS
 66
     1
 40
0.003000
 41
0.003000
  0
VERTEX
  8
PLAN_1
 62
     5
  6
CONTINUOUS
 10
0.316228
 20
-1.052535
  0
VERTEX
  8
PLAN_1
 62
     5
  6
CONTINUOUS
 10
0.316228
 20
-1.061118
  0
SEQEND
  8
0
  0
POLYLINE
  8
PLAN_1
 62
     5
  6
CONTINUOUS
 66
     1
 40
0.003000
 41
0.003000
  0
VERTEX
  8
PLAN_1
 62
     5
  6
CONTINUOUS
 10
0.316228
 20
-1.069224
  0
VERTEX
  8
PLAN_1
 62
     5
  6
CONTINUOUS
 10
0.316228
 20
-1.073996
  0
VERTEX
  8
PLAN_1
 62
     5
  6
CONTINUOUS
 10
0.312413
 20
-1.073996
  0
SEQEND
  8
0
  0
POLYLINE
  8
PLAN_1
 62
     5
  6
CONTINUOUS
 66
     1
 40
0.003000
 41
0.003000
  0
VERTEX
  8
PLAN_1
 62
     5
  6
CONTINUOUS
 10
0.303827
 20
-1.073996
  0
VERTEX
  8
PLAN_1
 62
     5
  6
CONTINUOUS
 10
0.295720
 20
-1.073996
  0
SEQEND
  8
0
  0
POLYLINE
  8
PLAN_1
 62
     5
  6
CONTINUOUS
 66
     1
 40
0.003000
 41
0.003000
  0
VERTEX
  8
PLAN_1
 62
     5
  6
CONTINUOUS
 10
0.287138
 20
-1.073996
  0
VERTEX
  8
PLAN_1
 62
     5
  6
CONTINUOUS
 10
0.279028
 20
-1.073996
  0
SEQEND
  8
0
  0
POLYLINE
  8
PLAN_1
 62
     5
  6
CONTINUOUS
 66
     1
 40
0.003000
 41
0.003000
  0
VERTEX
  8
PLAN_1
 62
     5
  6
CONTINUOUS
 10
0.278075
 20
-1.081150
  0
VERTEX
  8
PLAN_1
 62
     5
  6
CONTINUOUS
 10
0.278075
 20
-1.089732
  0
SEQEND
  8
0
  0
POLYLINE
  8
PLAN_1
 62
     5
  6
CONTINUOUS
 66
     1
 40
0.003000
 41
0.003000
  0
VERTEX
  8
PLAN_1
 62
     5
  6
CONTINUOUS
 10
0.278075
 20
-1.097843
  0
VERTEX
  8
PLAN_1
 62
     5
  6
CONTINUOUS
 10
0.278075
 20
-1.105949
  0
SEQEND
  8
0
  0
POLYLINE
  8
PLAN_1
 62
     5
  6
CONTINUOUS
 66
     1
 40
0.003000
 41
0.003000
  0
VERTEX
  8
PLAN_1
 62
     5
  6
CONTINUOUS
 10
0.278075
 20
-1.114535
  0
VERTEX
  8
PLAN_1
 62
     5
  6
CONTINUOUS
 10
0.278075
 20
-1.122642
  0
SEQEND
  8
0
  0
POLYLINE
  8
PLAN_1
 62
     5
  6
CONTINUOUS
 66
     1
 40
0.003000
 41
0.003000
  0
VERTEX
  8
PLAN_1
 62
     5
  6
CONTINUOUS
 10
0.278075
 20
-1.131224
  0
VERTEX
  8
PLAN_1
 62
     5
  6
CONTINUOUS
 10
0.278075
 20
-1.139335
  0
SEQEND
  8
0
  0
POLYLINE
  8
PLAN_1
 62
     5
  6
CONTINUOUS
 66
     1
 40
0.003000
 41
0.003000
  0
VERTEX
  8
PLAN_1
 62
     5
  6
CONTINUOUS
 10
0.278075
 20
-1.147917
  0
VERTEX
  8
PLAN_1
 62
     5
  6
CONTINUOUS
 10
0.278075
 20
-1.156028
  0
SEQEND
  8
0
  0
POLYLINE
  8
PLAN_1
 62
     5
  6
CONTINUOUS
 66
     1
 40
0.003000
 41
0.003000
  0
VERTEX
  8
PLAN_1
 62
     5
  6
CONTINUOUS
 10
0.278075
 20
-1.164610
  0
VERTEX
  8
PLAN_1
 62
     5
  6
CONTINUOUS
 10
0.278075
 20
-1.172717
  0
SEQEND
  8
0
  0
POLYLINE
  8
PLAN_1
 62
     5
  6
CONTINUOUS
 66
     1
 40
0.003000
 41
0.003000
  0
VERTEX
  8
PLAN_1
 62
     5
  6
CONTINUOUS
 10
0.278075
 20
-1.181303
  0
VERTEX
  8
PLAN_1
 62
     5
  6
CONTINUOUS
 10
0.278075
 20
-1.189409
  0
SEQEND
  8
0
  0
POLYLINE
  8
PLAN_1
 62
     5
  6
CONTINUOUS
 66
     1
 40
0.003000
 41
0.003000
  0
VERTEX
  8
PLAN_1
 62
     5
  6
CONTINUOUS
 10
0.278075
 20
-1.197996
  0
VERTEX
  8
PLAN_1
 62
     5
  6
CONTINUOUS
 10
0.278075
 20
-1.206102
  0
SEQEND
  8
0
  0
POLYLINE
  8
PLAN_1
 62
     5
  6
CONTINUOUS
 66
     1
 40
0.003000
 41
0.003000
  0
VERTEX
  8
PLAN_1
 62
     5
  6
CONTINUOUS
 10
0.278075
 20
-1.214209
  0
VERTEX
  8
PLAN_1
 62
     5
  6
CONTINUOUS
 10
0.278075
 20
-1.222795
  0
SEQEND
  8
0
  0
POLYLINE
  8
PLAN_1
 62
     5
  6
CONTINUOUS
 66
     1
 40
0.003000
 41
0.003000
  0
VERTEX
  8
PLAN_1
 62
     5
  6
CONTINUOUS
 10
0.278075
 20
-1.230902
  0
VERTEX
  8
PLAN_1
 62
     5
  6
CONTINUOUS
 10
0.278075
 20
-1.239488
  0
SEQEND
  8
0
  0
POLYLINE
  8
PLAN_1
 62
     5
  6
CONTINUOUS
 66
     1
 40
0.003000
 41
0.003000
  0
VERTEX
  8
PLAN_1
 62
     5
  6
CONTINUOUS
 10
0.278075
 20
-1.247594
  0
VERTEX
  8
PLAN_1
 62
     5
  6
CONTINUOUS
 10
0.278075
 20
-1.256177
  0
SEQEND
  8
0
  0
POLYLINE
  8
PLAN_1
 62
     5
  6
CONTINUOUS
 66
     1
 40
0.003000
 41
0.003000
  0
VERTEX
  8
PLAN_1
 62
     5
  6
CONTINUOUS
 10
0.278075
 20
-1.264287
  0
VERTEX
  8
PLAN_1
 62
     5
  6
CONTINUOUS
 10
0.278075
 20
-1.272870
  0
SEQEND
  8
0
  0
POLYLINE
  8
PLAN_1
 62
     5
  6
CONTINUOUS
 66
     1
 40
0.003000
 41
0.003000
  0
VERTEX
  8
PLAN_1
 62
     5
  6
CONTINUOUS
 10
0.278075
 20
-1.280980
  0
VERTEX
  8
PLAN_1
 62
     5
  6
CONTINUOUS
 10
0.278075
 20
-1.289563
  0
SEQEND
  8
0
  0
POLYLINE
  8
PLAN_1
 62
     5
  6
CONTINUOUS
 66
     1
 40
0.003000
 41
0.003000
  0
VERTEX
  8
PLAN_1
 62
     5
  6
CONTINUOUS
 10
0.278075
 20
-1.297669
  0
VERTEX
  8
PLAN_1
 62
     5
  6
CONTINUOUS
 10
0.278075
 20
-1.306256
  0
SEQEND
  8
0
  0
POLYLINE
  8
PLAN_1
 62
     5
  6
CONTINUOUS
 66
     1
 40
0.003000
 41
0.003000
  0
VERTEX
  8
PLAN_1
 62
     5
  6
CONTINUOUS
 10
0.278075
 20
-1.314362
  0
VERTEX
  8
PLAN_1
 62
     5
  6
CONTINUOUS
 10
0.278075
 20
-1.322472
  0
SEQEND
  8
0
  0
POLYLINE
  8
PLAN_1
 62
     5
  6
CONTINUOUS
 66
     1
 40
0.003000
 41
0.003000
  0
VERTEX
  8
PLAN_1
 62
     5
  6
CONTINUOUS
 10
0.278075
 20
-1.331055
  0
VERTEX
  8
PLAN_1
 62
     5
  6
CONTINUOUS
 10
0.278075
 20
-1.339161
  0
SEQEND
  8
0
  0
POLYLINE
  8
PLAN_1
  6
CONTINUOUS
 66
     1
 40
0.008106
 41
0.008106
  0
VERTEX
  8
PLAN_1
  6
CONTINUOUS
 10
-0.657642
 20
-0.656213
  0
VERTEX
  8
PLAN_1
  6
CONTINUOUS
 10
-0.657642
 20
-0.476894
  0
VERTEX
  8
PLAN_1
  6
CONTINUOUS
 10
-0.997209
 20
-0.476894
  0
SEQEND
  8
0
  0
POLYLINE
  8
PLAN_1
  6
CONTINUOUS
 66
     1
 40
0.008106
 41
0.008106
  0
VERTEX
  8
PLAN_1
  6
CONTINUOUS
 10
0.279984
 20
-0.476894
  0
VERTEX
  8
PLAN_1
  6
CONTINUOUS
 10
-0.040984
 20
-0.476894
  0
VERTEX
  8
PLAN_1
  6
CONTINUOUS
 10
-0.040984
 20
-0.656213
  0
SEQEND
  8
0
  0
POLYLINE
  8
PLAN_1
  6
CONTINUOUS
 66
     1
 40
0.008106
 41
0.008106
  0
VERTEX
  8
PLAN_1
  6
CONTINUOUS
 10
-0.759701
 20
-0.654307
  0
VERTEX
  8
PLAN_1
  6
CONTINUOUS
 10
-0.759701
 20
-0.476894
  0
SEQEND
  8
0
  0
POLYLINE
  8
PLAN_1
  6
CONTINUOUS
 66
     1
 40
0.008106
 41
0.008106
  0
VERTEX
  8
PLAN_1
  6
CONTINUOUS
 10
0.045339
 20
-0.654307
  0
VERTEX
  8
PLAN_1
  6
CONTINUOUS
 10
0.045339
 20
-0.476894
  0
SEQEND
  8
0
  0
POLYLINE
  8
PLAN_1
  6
CONTINUOUS
 66
     1
 40
0.008106
 41
0.008106
  0
VERTEX
  8
PLAN_1
  6
CONTINUOUS
 10
-0.991961
 20
0.122118
  0
VERTEX
  8
PLAN_1
  6
CONTINUOUS
 10
0.274736
 20
0.122118
  0
SEQEND
  8
0
  0
POLYLINE
  8
PLAN_1
  6
CONTINUOUS
 66
     1
 40
0.004291
 41
0.004291
  0
VERTEX
  8
PLAN_1
  6
CONTINUOUS
 10
0.214646
 20
-0.900398
  0
VERTEX
  8
PLAN_1
  6
CONTINUOUS
 10
0.392059
 20
-0.900398
  0
SEQEND
  8
0
  0
POLYLINE
  8
PLAN_1
 62
     2
  6
CONTINUOUS
 66
     1
 40
0.004291
 41
0.004291
  0
VERTEX
  8
PLAN_1
 62
     2
  6
CONTINUOUS
 10
-2.138000
 20
3.716185
  0
VERTEX
  8
PLAN_1
 62
     2
  6
CONTINUOUS
 10
0.264244
 20
3.716185
  0
SEQEND
  8
0
  0
SOLID
  8
PLAN_1
 62
     2
 10
0.314319
 20
3.716185
 11
0.255181
 21
3.731925
 12
0.314319
 22
3.716185
 13
0.255181
 23
3.700449
  0
POLYLINE
  8
PLAN_1
 62
     2
  6
CONTINUOUS
 66
     1
 40
0.003000
 41
0.003000
  0
VERTEX
  8
PLAN_1
 62
     2
  6
CONTINUOUS
 10
0.314319
 20
3.716185
  0
VERTEX
  8
PLAN_1
 62
     2
  6
CONTINUOUS
 10
0.255181
 20
3.731925
  0
VERTEX
  8
PLAN_1
 62
     2
  6
CONTINUOUS
 10
0.255181
 20
3.700449
  0
VERTEX
  8
PLAN_1
 62
     2
  6
CONTINUOUS
 10
0.314319
 20
3.716185
  0
SEQEND
  8
0
  0
SOLID
  8
PLAN_1
 62
     2
 10
-1.948661
 20
3.716185
 11
-2.007799
 21
3.731925
 12
-1.948661
 22
3.716185
 13
-2.007799
 23
3.700449
  0
POLYLINE
  8
PLAN_1
 62
     2
  6
CONTINUOUS
 66
     1
 40
0.003000
 41
0.003000
  0
VERTEX
  8
PLAN_1
 62
     2
  6
CONTINUOUS
 10
-1.948661
 20
3.716185
  0
VERTEX
  8
PLAN_1
 62
     2
  6
CONTINUOUS
 10
-2.007799
 20
3.731925
  0
VERTEX
  8
PLAN_1
 62
     2
  6
CONTINUOUS
 10
-2.007799
 20
3.700449
  0
VERTEX
  8
PLAN_1
 62
     2
  6
CONTINUOUS
 10
-1.948661
 20
3.716185
  0
SEQEND
  8
0
  0
SOLID
  8
PLAN_1
 62
     2
 10
-1.774587
 20
3.716185
 11
-1.715925
 21
3.731925
 12
-1.774587
 22
3.716185
 13
-1.715925
 23
3.700449
  0
POLYLINE
  8
PLAN_1
 62
     2
  6
CONTINUOUS
 66
     1
 40
0.003000
 41
0.003000
  0
VERTEX
  8
PLAN_1
 62
     2
  6
CONTINUOUS
 10
-1.774587
 20
3.716185
  0
VERTEX
  8
PLAN_1
 62
     2
  6
CONTINUOUS
 10
-1.715925
 20
3.731925
  0
VERTEX
  8
PLAN_1
 62
     2
  6
CONTINUOUS
 10
-1.715925
 20
3.700449
  0
VERTEX
  8
PLAN_1
 62
     2
  6
CONTINUOUS
 10
-1.774587
 20
3.716185
  0
SEQEND
  8
0
  0
POLYLINE
  8
PLAN_1
 62
     2
  6
CONTINUOUS
 66
     1
 40
0.003000
 41
0.003000
  0
VERTEX
  8
PLAN_1
 62
     2
  6
CONTINUOUS
 10
-0.784980
 20
3.782476
  0
VERTEX
  8
PLAN_1
 62
     2
  6
CONTINUOUS
 10
-0.784024
 20
3.783429
  0
VERTEX
  8
PLAN_1
 62
     2
  6
CONTINUOUS
 10
-0.782594
 20
3.783909
  0
VERTEX
  8
PLAN_1
 62
     2
  6
CONTINUOUS
 10
-0.781165
 20
3.784862
  0
VERTEX
  8
PLAN_1
 62
     2
  6
CONTINUOUS
 10
-0.779256
 20
3.785815
  0
VERTEX
  8
PLAN_1
 62
     2
  6
CONTINUOUS
 10
-0.777827
 20
3.786291
  0
VERTEX
  8
PLAN_1
 62
     2
  6
CONTINUOUS
 10
-0.775441
 20
3.786768
  0
VERTEX
  8
PLAN_1
 62
     2
  6
CONTINUOUS
 10
-0.773531
 20
3.786768
  0
VERTEX
  8
PLAN_1
 62
     2
  6
CONTINUOUS
 10
-0.771150
 20
3.786768
  0
VERTEX
  8
PLAN_1
 62
     2
  6
CONTINUOUS
 10
-0.766854
 20
3.786768
  0
VERTEX
  8
PLAN_1
 62
     2
  6
CONTINUOUS
 10
-0.762087
 20
3.785339
  0
VERTEX
  8
PLAN_1
 62
     2
  6
CONTINUOUS
 10
-0.758272
 20
3.783429
  0
VERTEX
  8
PLAN_1
 62
     2
  6
CONTINUOUS
 10
-0.754457
 20
3.781047
  0
VERTEX
  8
PLAN_1
 62
     2
  6
CONTINUOUS
 10
-0.753024
 20
3.779138
  0
VERTEX
  8
PLAN_1
 62
     2
  6
CONTINUOUS
 10
-0.751594
 20
3.777709
  0
VERTEX
  8
PLAN_1
 62
     2
  6
CONTINUOUS
 10
-0.750165
 20
3.775799
  0
VERTEX
  8
PLAN_1
 62
     2
  6
CONTINUOUS
 10
-0.749209
 20
3.773417
  0
VERTEX
  8
PLAN_1
 62
     2
  6
CONTINUOUS
 10
-0.748256
 20
3.771508
  0
VERTEX
  8
PLAN_1
 62
     2
  6
CONTINUOUS
 10
-0.747780
 20
3.769122
  0
VERTEX
  8
PLAN_1
 62
     2
  6
CONTINUOUS
 10
-0.747303
 20
3.766264
  0
VERTEX
  8
PLAN_1
 62
     2
  6
CONTINUOUS
 10
-0.746827
 20
3.763402
  0
VERTEX
  8
PLAN_1
 62
     2
  6
CONTINUOUS
 10
-0.747303
 20
3.760063
  0
VERTEX
  8
PLAN_1
 62
     2
  6
CONTINUOUS
 10
-0.747780
 20
3.756248
  0
VERTEX
  8
PLAN_1
 62
     2
  6
CONTINUOUS
 10
-0.749209
 20
3.751953
  0
VERTEX
  8
PLAN_1
 62
     2
  6
CONTINUOUS
 10
-0.751594
 20
3.747661
  0
VERTEX
  8
PLAN_1
 62
     2
  6
CONTINUOUS
 10
-0.753504
 20
3.745756
  0
VERTEX
  8
PLAN_1
 62
     2
  6
CONTINUOUS
 10
-0.754933
 20
3.743846
  0
VERTEX
  8
PLAN_1
 62
     2
  6
CONTINUOUS
 10
-0.757319
 20
3.742417
  0
VERTEX
  8
PLAN_1
 62
     2
  6
CONTINUOUS
 10
-0.759701
 20
3.740984
  0
VERTEX
  8
PLAN_1
 62
     2
  6
CONTINUOUS
 10
-0.762563
 20
3.739555
  0
VERTEX
  8
PLAN_1
 62
     2
  6
CONTINUOUS
 10
-0.765902
 20
3.738602
  0
VERTEX
  8
PLAN_1
 62
     2
  6
CONTINUOUS
 10
-0.769717
 20
3.738122
  0
VERTEX
  8
PLAN_1
 62
     2
  6
CONTINUOUS
 10
-0.773531
 20
3.738122
  0
VERTEX
  8
PLAN_1
 62
     2
  6
CONTINUOUS
 10
-0.777346
 20
3.738122
  0
VERTEX
  8
PLAN_1
 62
     2
  6
CONTINUOUS
 10
-0.781165
 20
3.738602
  0
VERTEX
  8
PLAN_1
 62
     2
  6
CONTINUOUS
 10
-0.784980
 20
3.740031
  0
VERTEX
  8
PLAN_1
 62
     2
  6
CONTINUOUS
 10
-0.788319
 20
3.741937
  0
VERTEX
  8
PLAN_1
 62
     2
  6
CONTINUOUS
 10
-0.789748
 20
3.742894
  0
VERTEX
  8
PLAN_1
 62
     2
  6
CONTINUOUS
 10
-0.791657
 20
3.744323
  0
VERTEX
  8
PLAN_1
 62
     2
  6
CONTINUOUS
 10
-0.792610
 20
3.746232
  0
VERTEX
  8
PLAN_1
 62
     2
  6
CONTINUOUS
 10
-0.794039
 20
3.748138
  0
VERTEX
  8
PLAN_1
 62
     2
  6
CONTINUOUS
 10
-0.794996
 20
3.750047
  0
VERTEX
  8
PLAN_1
 62
     2
  6
CONTINUOUS
 10
-0.795949
 20
3.752433
  0
VERTEX
  8
PLAN_1
 62
     2
  6
CONTINUOUS
 10
-0.796902
 20
3.755291
  0
VERTEX
  8
PLAN_1
 62
     2
  6
CONTINUOUS
 10
-0.797378
 20
3.758154
  0
VERTEX
  8
PLAN_1
 62
     2
  6
CONTINUOUS
 10
-0.787839
 20
3.758154
  0
VERTEX
  8
PLAN_1
 62
     2
  6
CONTINUOUS
 10
-0.786886
 20
3.755291
  0
VERTEX
  8
PLAN_1
 62
     2
  6
CONTINUOUS
 10
-0.785933
 20
3.752433
  0
VERTEX
  8
PLAN_1
 62
     2
  6
CONTINUOUS
 10
-0.784504
 20
3.750524
  0
VERTEX
  8
PLAN_1
 62
     2
  6
CONTINUOUS
 10
-0.782594
 20
3.748614
  0
VERTEX
  8
PLAN_1
 62
     2
  6
CONTINUOUS
 10
-0.780685
 20
3.747661
  0
VERTEX
  8
PLAN_1
 62
     2
  6
CONTINUOUS
 10
-0.777827
 20
3.746709
  0
VERTEX
  8
PLAN_1
 62
     2
  6
CONTINUOUS
 10
-0.774965
 20
3.745756
  0
VERTEX
  8
PLAN_1
 62
     2
  6
CONTINUOUS
 10
-0.772102
 20
3.745756
  0
VERTEX
  8
PLAN_1
 62
     2
  6
CONTINUOUS
 10
-0.768764
 20
3.746232
  0
VERTEX
  8
PLAN_1
 62
     2
  6
CONTINUOUS
 10
-0.765902
 20
3.747185
  0
VERTEX
  8
PLAN_1
 62
     2
  6
CONTINUOUS
 10
-0.763039
 20
3.748614
  0
VERTEX
  8
PLAN_1
 62
     2
  6
CONTINUOUS
 10
-0.761134
 20
3.750524
  0
VERTEX
  8
PLAN_1
 62
     2
  6
CONTINUOUS
 10
-0.759224
 20
3.753386
  0
VERTEX
  8
PLAN_1
 62
     2
  6
CONTINUOUS
 10
-0.757795
 20
3.756248
  0
VERTEX
  8
PLAN_1
 62
     2
  6
CONTINUOUS
 10
-0.756843
 20
3.759106
  0
VERTEX
  8
PLAN_1
 62
     2
  6
CONTINUOUS
 10
-0.756843
 20
3.762445
  0
VERTEX
  8
PLAN_1
 62
     2
  6
CONTINUOUS
 10
-0.757319
 20
3.766264
  0
VERTEX
  8
PLAN_1
 62
     2
  6
CONTINUOUS
 10
-0.758272
 20
3.769598
  0
VERTEX
  8
PLAN_1
 62
     2
  6
CONTINUOUS
 10
-0.759701
 20
3.772461
  0
VERTEX
  8
PLAN_1
 62
     2
  6
CONTINUOUS
 10
-0.761610
 20
3.774370
  0
VERTEX
  8
PLAN_1
 62
     2
  6
CONTINUOUS
 10
-0.763996
 20
3.776276
  0
VERTEX
  8
PLAN_1
 62
     2
  6
CONTINUOUS
 10
-0.766854
 20
3.777709
  0
VERTEX
  8
PLAN_1
 62
     2
  6
CONTINUOUS
 10
-0.769717
 20
3.778661
  0
VERTEX
  8
PLAN_1
 62
     2
  6
CONTINUOUS
 10
-0.773055
 20
3.778661
  0
VERTEX
  8
PLAN_1
 62
     2
  6
CONTINUOUS
 10
-0.774965
 20
3.778661
  0
VERTEX
  8
PLAN_1
 62
     2
  6
CONTINUOUS
 10
-0.776870
 20
3.778185
  0
VERTEX
  8
PLAN_1
 62
     2
  6
CONTINUOUS
 10
-0.778780
 20
3.777709
  0
VERTEX
  8
PLAN_1
 62
     2
  6
CONTINUOUS
 10
-0.780685
 20
3.776756
  0
VERTEX
  8
PLAN_1
 62
     2
  6
CONTINUOUS
 10
-0.782118
 20
3.775799
  0
VERTEX
  8
PLAN_1
 62
     2
  6
CONTINUOUS
 10
-0.783547
 20
3.774846
  0
VERTEX
  8
PLAN_1
 62
     2
  6
CONTINUOUS
 10
-0.784980
 20
3.773417
  0
VERTEX
  8
PLAN_1
 62
     2
  6
CONTINUOUS
 10
-0.786409
 20
3.771984
  0
VERTEX
  8
PLAN_1
 62
     2
  6
CONTINUOUS
 10
-0.794516
 20
3.771984
  0
VERTEX
  8
PLAN_1
 62
     2
  6
CONTINUOUS
 10
-0.788795
 20
3.811571
  0
VERTEX
  8
PLAN_1
 62
     2
  6
CONTINUOUS
 10
-0.751118
 20
3.811571
  0
VERTEX
  8
PLAN_1
 62
     2
  6
CONTINUOUS
 10
-0.751118
 20
3.802508
  0
VERTEX
  8
PLAN_1
 62
     2
  6
CONTINUOUS
 10
-0.782118
 20
3.802508
  0
VERTEX
  8
PLAN_1
 62
     2
  6
CONTINUOUS
 10
-0.784980
 20
3.782476
  0
SEQEND
  8
0
  0
POLYLINE
  8
PLAN_1
 62
     2
  6
CONTINUOUS
 66
     1
 40
0.003000
 41
0.003000
  0
VERTEX
  8
PLAN_1
 62
     2
  6
CONTINUOUS
 10
-0.719165
 20
3.781524
  0
VERTEX
  8
PLAN_1
 62
     2
  6
CONTINUOUS
 10
-0.718689
 20
3.781524
  0
VERTEX
  8
PLAN_1
 62
     2
  6
CONTINUOUS
 10
-0.718209
 20
3.781524
  0
VERTEX
  8
PLAN_1
 62
     2
  6
CONTINUOUS
 10
-0.717732
 20
3.781524
  0
VERTEX
  8
PLAN_1
 62
     2
  6
CONTINUOUS
 10
-0.716780
 20
3.781524
  0
VERTEX
  8
PLAN_1
 62
     2
  6
CONTINUOUS
 10
-0.716303
 20
3.781524
  0
VERTEX
  8
PLAN_1
 62
     2
  6
CONTINUOUS
 10
-0.715827
 20
3.781524
  0
VERTEX
  8
PLAN_1
 62
     2
  6
CONTINUOUS
 10
-0.714870
 20
3.781047
  0
VERTEX
  8
PLAN_1
 62
     2
  6
CONTINUOUS
 10
-0.714394
 20
3.781047
  0
VERTEX
  8
PLAN_1
 62
     2
  6
CONTINUOUS
 10
-0.712012
 20
3.781524
  0
VERTEX
  8
PLAN_1
 62
     2
  6
CONTINUOUS
 10
-0.709150
 20
3.782000
  0
VERTEX
  8
PLAN_1
 62
     2
  6
CONTINUOUS
 10
-0.707240
 20
3.782476
  0
VERTEX
  8
PLAN_1
 62
     2
  6
CONTINUOUS
 10
-0.704858
 20
3.783909
  0
VERTEX
  8
PLAN_1
 62
     2
  6
CONTINUOUS
 10
-0.702949
 20
3.785339
  0
VERTEX
  8
PLAN_1
 62
     2
  6
CONTINUOUS
 10
-0.701996
 20
3.787724
  0
VERTEX
  8
PLAN_1
 62
     2
  6
CONTINUOUS
 10
-0.701039
 20
3.790106
  0
VERTEX
  8
PLAN_1
 62
     2
  6
CONTINUOUS
 10
-0.700563
 20
3.793445
  0
VERTEX
  8
PLAN_1
 62
     2
  6
CONTINUOUS
 10
-0.700563
 20
3.794878
  0
VERTEX
  8
PLAN_1
 62
     2
  6
CONTINUOUS
 10
-0.701039
 20
3.796783
  0
VERTEX
  8
PLAN_1
 62
     2
  6
CONTINUOUS
 10
-0.701996
 20
3.798693
  0
VERTEX
  8
PLAN_1
 62
     2
  6
CONTINUOUS
 10
-0.703425
 20
3.800598
  0
VERTEX
  8
PLAN_1
 62
     2
  6
CONTINUOUS
 10
-0.704858
 20
3.802508
  0
VERTEX
  8
PLAN_1
 62
     2
  6
CONTINUOUS
 10
-0.707240
 20
3.803461
  0
VERTEX
  8
PLAN_1
 62
     2
  6
CONTINUOUS
 10
-0.710579
 20
3.804417
  0
VERTEX
  8
PLAN_1
 62
     2
  6
CONTINUOUS
 10
-0.713917
 20
3.804894
  0
VERTEX
  8
PLAN_1
 62
     2
  6
CONTINUOUS
 10
-0.716303
 20
3.804894
  0
VERTEX
  8
PLAN_1
 62
     2
  6
CONTINUOUS
 10
-0.718209
 20
3.804417
  0
VERTEX
  8
PLAN_1
 62
     2
  6
CONTINUOUS
 10
-0.720118
 20
3.803937
  0
VERTEX
  8
PLAN_1
 62
     2
  6
CONTINUOUS
 10
-0.721547
 20
3.802984
  0
VERTEX
  8
PLAN_1
 62
     2
  6
CONTINUOUS
 10
-0.724409
 20
3.801079
  0
VERTEX
  8
PLAN_1
 62
     2
  6
CONTINUOUS
 10
-0.725843
 20
3.798693
  0
VERTEX
  8
PLAN_1
 62
     2
  6
CONTINUOUS
 10
-0.727272
 20
3.796307
  0
VERTEX
  8
PLAN_1
 62
     2
  6
CONTINUOUS
 10
-0.727748
 20
3.793445
  0
VERTEX
  8
PLAN_1
 62
     2
  6
CONTINUOUS
 10
-0.728224
 20
3.791063
  0
VERTEX
  8
PLAN_1
 62
     2
  6
CONTINUOUS
 10
-0.728224
 20
3.789154
  0
VERTEX
  8
PLAN_1
 62
     2
  6
CONTINUOUS
 10
-0.737287
 20
3.789154
  0
VERTEX
  8
PLAN_1
 62
     2
  6
CONTINUOUS
 10
-0.737287
 20
3.792969
  0
VERTEX
  8
PLAN_1
 62
     2
  6
CONTINUOUS
 10
-0.736335
 20
3.797260
  0
VERTEX
  8
PLAN_1
 62
     2
  6
CONTINUOUS
 10
-0.734902
 20
3.801555
  0
VERTEX
  8
PLAN_1
 62
     2
  6
CONTINUOUS
 10
-0.732520
 20
3.804894
  0
VERTEX
  8
PLAN_1
 62
     2
  6
CONTINUOUS
 10
-0.731087
 20
3.806799
  0
VERTEX
  8
PLAN_1
 62
     2
  6
CONTINUOUS
 10
-0.729657
 20
3.808232
  0
VERTEX
  8
PLAN_1
 62
     2
  6
CONTINUOUS
 10
-0.727748
 20
3.809661
  0
VERTEX
  8
PLAN_1
 62
     2
  6
CONTINUOUS
 10
-0.725362
 20
3.810614
  0
VERTEX
  8
PLAN_1
 62
     2
  6
CONTINUOUS
 10
-0.722980
 20
3.811571
  0
VERTEX
  8
PLAN_1
 62
     2
  6
CONTINUOUS
 10
-0.720118
 20
3.812524
  0
VERTEX
  8
PLAN_1
 62
     2
  6
CONTINUOUS
 10
-0.717256
 20
3.813000
  0
VERTEX
  8
PLAN_1
 62
     2
  6
CONTINUOUS
 10
-0.713441
 20
3.813000
  0
VERTEX
  8
PLAN_1
 62
     2
  6
CONTINUOUS
 10
-0.708673
 20
3.812524
  0
VERTEX
  8
PLAN_1
 62
     2
  6
CONTINUOUS
 10
-0.704378
 20
3.811571
  0
VERTEX
  8
PLAN_1
 62
     2
  6
CONTINUOUS
 10
-0.700563
 20
3.809661
  0
VERTEX
  8
PLAN_1
 62
     2
  6
CONTINUOUS
 10
-0.697224
 20
3.807752
  0
VERTEX
  8
PLAN_1
 62
     2
  6
CONTINUOUS
 10
-0.694366
 20
3.804894
  0
VERTEX
  8
PLAN_1
 62
     2
  6
CONTINUOUS
 10
-0.692457
 20
3.801555
  0
VERTEX
  8
PLAN_1
 62
     2
  6
CONTINUOUS
 10
-0.691504
 20
3.797740
  0
VERTEX
  8
PLAN_1
 62
     2
  6
CONTINUOUS
 10
-0.691028
 20
3.793921
  0
VERTEX
  8
PLAN_1
 62
     2
  6
CONTINUOUS
 10
-0.691504
 20
3.790587
  0
VERTEX
  8
PLAN_1
 62
     2
  6
CONTINUOUS
 10
-0.691980
 20
3.787724
  0
VERTEX
  8
PLAN_1
 62
     2
  6
CONTINUOUS
 10
-0.692933
 20
3.785339
  0
VERTEX
  8
PLAN_1
 62
     2
  6
CONTINUOUS
 10
-0.694366
 20
3.782953
  0
VERTEX
  8
PLAN_1
 62
     2
  6
CONTINUOUS
 10
-0.695795
 20
3.781524
  0
VERTEX
  8
PLAN_1
 62
     2
  6
CONTINUOUS
 10
-0.697224
 20
3.780094
  0
VERTEX
  8
PLAN_1
 62
     2
  6
CONTINUOUS
 10
-0.699134
 20
3.779138
  0
VERTEX
  8
PLAN_1
 62
     2
  6
CONTINUOUS
 10
-0.700563
 20
3.778661
  0
VERTEX
  8
PLAN_1
 62
     2
  6
CONTINUOUS
 10
-0.697701
 20
3.777232
  0
VERTEX
  8
PLAN_1
 62
     2
  6
CONTINUOUS
 10
-0.695795
 20
3.776276
  0
VERTEX
  8
PLAN_1
 62
     2
  6
CONTINUOUS
 10
-0.693409
 20
3.774846
  0
VERTEX
  8
PLAN_1
 62
     2
  6
CONTINUOUS
 10
-0.691504
 20
3.772937
  0
VERTEX
  8
PLAN_1
 62
     2
  6
CONTINUOUS
 10
-0.690071
 20
3.770555
  0
VERTEX
  8
PLAN_1
 62
     2
  6
CONTINUOUS
 10
-0.689118
 20
3.767693
  0
VERTEX
  8
PLAN_1
 62
     2
  6
CONTINUOUS
 10
-0.688642
 20
3.764831
  0
VERTEX
  8
PLAN_1
 62
     2
  6
CONTINUOUS
 10
-0.688165
 20
3.761492
  0
VERTEX
  8
PLAN_1
 62
     2
  6
CONTINUOUS
 10
-0.688642
 20
3.756724
  0
VERTEX
  8
PLAN_1
 62
     2
  6
CONTINUOUS
 10
-0.689594
 20
3.752909
  0
VERTEX
  8
PLAN_1
 62
     2
  6
CONTINUOUS
 10
-0.691504
 20
3.748614
  0
VERTEX
  8
PLAN_1
 62
     2
  6
CONTINUOUS
 10
-0.694366
 20
3.745276
  0
VERTEX
  8
PLAN_1
 62
     2
  6
CONTINUOUS
 10
-0.696272
 20
3.743370
  0
VERTEX
  8
PLAN_1
 62
     2
  6
CONTINUOUS
 10
-0.698181
 20
3.741937
  0
VERTEX
  8
PLAN_1
 62
     2
  6
CONTINUOUS
 10
-0.700087
 20
3.740984
  0
VERTEX
  8
PLAN_1
 62
     2
  6
CONTINUOUS
 10
-0.702472
 20
3.740031
  0
VERTEX
  8
PLAN_1
 62
     2
  6
CONTINUOUS
 10
-0.705335
 20
3.739079
  0
VERTEX
  8
PLAN_1
 62
     2
  6
CONTINUOUS
 10
-0.708197
 20
3.738602
  0
VERTEX
  8
PLAN_1
 62
     2
  6
CONTINUOUS
 10
-0.711055
 20
3.738122
  0
VERTEX
  8
PLAN_1
 62
     2
  6
CONTINUOUS
 10
-0.714394
 20
3.738122
  0
VERTEX
  8
PLAN_1
 62
     2
  6
CONTINUOUS
 10
-0.716780
 20
3.738122
  0
VERTEX
  8
PLAN_1
 62
     2
  6
CONTINUOUS
 10
-0.718689
 20
3.738122
  0
VERTEX
  8
PLAN_1
 62
     2
  6
CONTINUOUS
 10
-0.720118
 20
3.738602
  0
VERTEX
  8
PLAN_1
 62
     2
  6
CONTINUOUS
 10
-0.722028
 20
3.738602
  0
VERTEX
  8
PLAN_1
 62
     2
  6
CONTINUOUS
 10
-0.723933
 20
3.739079
  0
VERTEX
  8
PLAN_1
 62
     2
  6
CONTINUOUS
 10
-0.725362
 20
3.740031
  0
VERTEX
  8
PLAN_1
 62
     2
  6
CONTINUOUS
 10
-0.726795
 20
3.740508
  0
VERTEX
  8
PLAN_1
 62
     2
  6
CONTINUOUS
 10
-0.728224
 20
3.740984
  0
VERTEX
  8
PLAN_1
 62
     2
  6
CONTINUOUS
 10
-0.731087
 20
3.742894
  0
VERTEX
  8
PLAN_1
 62
     2
  6
CONTINUOUS
 10
-0.732996
 20
3.744799
  0
VERTEX
  8
PLAN_1
 62
     2
  6
CONTINUOUS
 10
-0.734902
 20
3.747661
  0
VERTEX
  8
PLAN_1
 62
     2
  6
CONTINUOUS
 10
-0.736335
 20
3.750047
  0
VERTEX
  8
PLAN_1
 62
     2
  6
CONTINUOUS
 10
-0.737287
 20
3.752909
  0
VERTEX
  8
PLAN_1
 62
     2
  6
CONTINUOUS
 10
-0.738240
 20
3.755768
  0
VERTEX
  8
PLAN_1
 62
     2
  6
CONTINUOUS
 10
-0.738717
 20
3.759106
  0
VERTEX
  8
PLAN_1
 62
     2
  6
CONTINUOUS
 10
-0.739193
 20
3.762445
  0
VERTEX
  8
PLAN_1
 62
     2
  6
CONTINUOUS
 10
-0.729657
 20
3.762445
  0
VERTEX
  8
PLAN_1
 62
     2
  6
CONTINUOUS
 10
-0.729181
 20
3.759587
  0
VERTEX
  8
PLAN_1
 62
     2
  6
CONTINUOUS
 10
-0.729181
 20
3.756724
  0
VERTEX
  8
PLAN_1
 62
     2
  6
CONTINUOUS
 10
-0.728224
 20
3.754339
  0
VERTEX
  8
PLAN_1
 62
     2
  6
CONTINUOUS
 10
-0.726795
 20
3.751476
  0
VERTEX
  8
PLAN_1
 62
     2
  6
CONTINUOUS
 10
-0.724886
 20
3.749571
  0
VERTEX
  8
PLAN_1
 62
     2
  6
CONTINUOUS
 10
-0.722028
 20
3.747661
  0
VERTEX
  8
PLAN_1
 62
     2
  6
CONTINUOUS
 10
-0.718689
 20
3.746709
  0
VERTEX
  8
PLAN_1
 62
     2
  6
CONTINUOUS
 10
-0.713917
 20
3.746232
  0
VERTEX
  8
PLAN_1
 62
     2
  6
CONTINUOUS
 10
-0.710579
 20
3.746232
  0
VERTEX
  8
PLAN_1
 62
     2
  6
CONTINUOUS
 10
-0.707717
 20
3.747185
  0
VERTEX
  8
PLAN_1
 62
     2
  6
CONTINUOUS
 10
-0.704858
 20
3.748138
  0
VERTEX
  8
PLAN_1
 62
     2
  6
CONTINUOUS
 10
-0.702472
 20
3.750047
  0
VERTEX
  8
PLAN_1
 62
     2
  6
CONTINUOUS
 10
-0.700563
 20
3.751953
  0
VERTEX
  8
PLAN_1
 62
     2
  6
CONTINUOUS
 10
-0.699134
 20
3.754339
  0
VERTEX
  8
PLAN_1
 62
     2
  6
CONTINUOUS
 10
-0.698181
 20
3.757201
  0
VERTEX
  8
PLAN_1
 62
     2
  6
CONTINUOUS
 10
-0.698181
 20
3.760063
  0
VERTEX
  8
PLAN_1
 62
     2
  6
CONTINUOUS
 10
-0.698181
 20
3.762445
  0
VERTEX
  8
PLAN_1
 62
     2
  6
CONTINUOUS
 10
-0.698657
 20
3.764354
  0
VERTEX
  8
PLAN_1
 62
     2
  6
CONTINUOUS
 10
-0.699134
 20
3.766264
  0
VERTEX
  8
PLAN_1
 62
     2
  6
CONTINUOUS
 10
-0.700087
 20
3.767693
  0
VERTEX
  8
PLAN_1
 62
     2
  6
CONTINUOUS
 10
-0.701996
 20
3.770079
  0
VERTEX
  8
PLAN_1
 62
     2
  6
CONTINUOUS
 10
-0.704378
 20
3.771508
  0
VERTEX
  8
PLAN_1
 62
     2
  6
CONTINUOUS
 10
-0.707240
 20
3.772461
  0
VERTEX
  8
PLAN_1
 62
     2
  6
CONTINUOUS
 10
-0.709626
 20
3.773417
  0
VERTEX
  8
PLAN_1
 62
     2
  6
CONTINUOUS
 10
-0.712488
 20
3.773417
  0
VERTEX
  8
PLAN_1
 62
     2
  6
CONTINUOUS
 10
-0.715350
 20
3.773894
  0
VERTEX
  8
PLAN_1
 62
     2
  6
CONTINUOUS
 10
-0.715827
 20
3.773894
  0
VERTEX
  8
PLAN_1
 62
     2
  6
CONTINUOUS
 10
-0.716303
 20
3.773894
  0
VERTEX
  8
PLAN_1
 62
     2
  6
CONTINUOUS
 10
-0.716780
 20
3.773417
  0
VERTEX
  8
PLAN_1
 62
     2
  6
CONTINUOUS
 10
-0.717256
 20
3.773417
  0
VERTEX
  8
PLAN_1
 62
     2
  6
CONTINUOUS
 10
-0.717732
 20
3.773417
  0
VERTEX
  8
PLAN_1
 62
     2
  6
CONTINUOUS
 10
-0.718209
 20
3.773417
  0
VERTEX
  8
PLAN_1
 62
     2
  6
CONTINUOUS
 10
-0.718689
 20
3.773417
  0
VERTEX
  8
PLAN_1
 62
     2
  6
CONTINUOUS
 10
-0.719165
 20
3.773417
  0
VERTEX
  8
PLAN_1
 62
     2
  6
CONTINUOUS
 10
-0.719165
 20
3.781524
  0
SEQEND
  8
0
  0
POLYLINE
  8
PLAN_1
 62
     2
  6
CONTINUOUS
 66
     1
 40
0.003000
 41
0.003000
  0
VERTEX
  8
PLAN_1
 62
     2
  6
CONTINUOUS
 10
-2.080768
 20
3.782476
  0
VERTEX
  8
PLAN_1
 62
     2
  6
CONTINUOUS
 10
-2.079339
 20
3.783429
  0
VERTEX
  8
PLAN_1
 62
     2
  6
CONTINUOUS
 10
-2.078386
 20
3.783909
  0
VERTEX
  8
PLAN_1
 62
     2
  6
CONTINUOUS
 10
-2.076476
 20
3.784862
  0
VERTEX
  8
PLAN_1
 62
     2
  6
CONTINUOUS
 10
-2.075047
 20
3.785815
  0
VERTEX
  8
PLAN_1
 62
     2
  6
CONTINUOUS
 10
-2.073138
 20
3.786291
  0
VERTEX
  8
PLAN_1
 62
     2
  6
CONTINUOUS
 10
-2.071232
 20
3.786768
  0
VERTEX
  8
PLAN_1
 62
     2
  6
CONTINUOUS
 10
-2.068846
 20
3.786768
  0
VERTEX
  8
PLAN_1
 62
     2
  6
CONTINUOUS
 10
-2.066461
 20
3.786768
  0
VERTEX
  8
PLAN_1
 62
     2
  6
CONTINUOUS
 10
-2.062169
 20
3.786768
  0
VERTEX
  8
PLAN_1
 62
     2
  6
CONTINUOUS
 10
-2.057878
 20
3.785339
  0
VERTEX
  8
PLAN_1
 62
     2
  6
CONTINUOUS
 10
-2.054063
 20
3.783429
  0
VERTEX
  8
PLAN_1
 62
     2
  6
CONTINUOUS
 10
-2.050248
 20
3.781047
  0
VERTEX
  8
PLAN_1
 62
     2
  6
CONTINUOUS
 10
-2.048815
 20
3.779138
  0
VERTEX
  8
PLAN_1
 62
     2
  6
CONTINUOUS
 10
-2.046909
 20
3.777709
  0
VERTEX
  8
PLAN_1
 62
     2
  6
CONTINUOUS
 10
-2.045953
 20
3.775799
  0
VERTEX
  8
PLAN_1
 62
     2
  6
CONTINUOUS
 10
-2.044524
 20
3.773417
  0
VERTEX
  8
PLAN_1
 62
     2
  6
CONTINUOUS
 10
-2.044047
 20
3.771508
  0
VERTEX
  8
PLAN_1
 62
     2
  6
CONTINUOUS
 10
-2.043094
 20
3.769122
  0
VERTEX
  8
PLAN_1
 62
     2
  6
CONTINUOUS
 10
-2.042614
 20
3.766264
  0
VERTEX
  8
PLAN_1
 62
     2
  6
CONTINUOUS
 10
-2.042614
 20
3.763402
  0
VERTEX
  8
PLAN_1
 62
     2
  6
CONTINUOUS
 10
-2.042614
 20
3.760063
  0
VERTEX
  8
PLAN_1
 62
     2
  6
CONTINUOUS
 10
-2.043571
 20
3.756248
  0
VERTEX
  8
PLAN_1
 62
     2
  6
CONTINUOUS
 10
-2.045000
 20
3.751953
  0
VERTEX
  8
PLAN_1
 62
     2
  6
CONTINUOUS
 10
-2.047386
 20
3.747661
  0
VERTEX
  8
PLAN_1
 62
     2
  6
CONTINUOUS
 10
-2.048815
 20
3.745756
  0
VERTEX
  8
PLAN_1
 62
     2
  6
CONTINUOUS
 10
-2.050724
 20
3.743846
  0
VERTEX
  8
PLAN_1
 62
     2
  6
CONTINUOUS
 10
-2.053110
 20
3.742417
  0
VERTEX
  8
PLAN_1
 62
     2
  6
CONTINUOUS
 10
-2.055492
 20
3.740984
  0
VERTEX
  8
PLAN_1
 62
     2
  6
CONTINUOUS
 10
-2.058354
 20
3.739555
  0
VERTEX
  8
PLAN_1
 62
     2
  6
CONTINUOUS
 10
-2.061217
 20
3.738602
  0
VERTEX
  8
PLAN_1
 62
     2
  6
CONTINUOUS
 10
-2.065031
 20
3.738122
  0
VERTEX
  8
PLAN_1
 62
     2
  6
CONTINUOUS
 10
-2.069323
 20
3.738122
  0
VERTEX
  8
PLAN_1
 62
     2
  6
CONTINUOUS
 10
-2.072661
 20
3.738122
  0
VERTEX
  8
PLAN_1
 62
     2
  6
CONTINUOUS
 10
-2.076476
 20
3.738602
  0
VERTEX
  8
PLAN_1
 62
     2
  6
CONTINUOUS
 10
-2.080291
 20
3.740031
  0
VERTEX
  8
PLAN_1
 62
     2
  6
CONTINUOUS
 10
-2.084106
 20
3.741937
  0
VERTEX
  8
PLAN_1
 62
     2
  6
CONTINUOUS
 10
-2.085539
 20
3.742894
  0
VERTEX
  8
PLAN_1
 62
     2
  6
CONTINUOUS
 10
-2.086969
 20
3.744323
  0
VERTEX
  8
PLAN_1
 62
     2
  6
CONTINUOUS
 10
-2.088402
 20
3.746232
  0
VERTEX
  8
PLAN_1
 62
     2
  6
CONTINUOUS
 10
-2.089831
 20
3.748138
  0
VERTEX
  8
PLAN_1
 62
     2
  6
CONTINUOUS
 10
-2.090783
 20
3.750047
  0
VERTEX
  8
PLAN_1
 62
     2
  6
CONTINUOUS
 10
-2.091740
 20
3.752433
  0
VERTEX
  8
PLAN_1
 62
     2
  6
CONTINUOUS
 10
-2.092217
 20
3.755291
  0
VERTEX
  8
PLAN_1
 62
     2
  6
CONTINUOUS
 10
-2.092693
 20
3.758154
  0
VERTEX
  8
PLAN_1
 62
     2
  6
CONTINUOUS
 10
-2.083154
 20
3.758154
  0
VERTEX
  8
PLAN_1
 62
     2
  6
CONTINUOUS
 10
-2.082677
 20
3.755291
  0
VERTEX
  8
PLAN_1
 62
     2
  6
CONTINUOUS
 10
-2.081724
 20
3.752433
  0
VERTEX
  8
PLAN_1
 62
     2
  6
CONTINUOUS
 10
-2.080291
 20
3.750524
  0
VERTEX
  8
PLAN_1
 62
     2
  6
CONTINUOUS
 10
-2.078386
 20
3.748614
  0
VERTEX
  8
PLAN_1
 62
     2
  6
CONTINUOUS
 10
-2.076000
 20
3.747661
  0
VERTEX
  8
PLAN_1
 62
     2
  6
CONTINUOUS
 10
-2.073614
 20
3.746709
  0
VERTEX
  8
PLAN_1
 62
     2
  6
CONTINUOUS
 10
-2.070756
 20
3.745756
  0
VERTEX
  8
PLAN_1
 62
     2
  6
CONTINUOUS
 10
-2.067894
 20
3.745756
  0
VERTEX
  8
PLAN_1
 62
     2
  6
CONTINUOUS
 10
-2.064555
 20
3.746232
  0
VERTEX
  8
PLAN_1
 62
     2
  6
CONTINUOUS
 10
-2.061217
 20
3.747185
  0
VERTEX
  8
PLAN_1
 62
     2
  6
CONTINUOUS
 10
-2.058831
 20
3.748614
  0
VERTEX
  8
PLAN_1
 62
     2
  6
CONTINUOUS
 10
-2.056445
 20
3.750524
  0
VERTEX
  8
PLAN_1
 62
     2
  6
CONTINUOUS
 10
-2.055016
 20
3.753386
  0
VERTEX
  8
PLAN_1
 62
     2
  6
CONTINUOUS
 10
-2.053587
 20
3.756248
  0
VERTEX
  8
PLAN_1
 62
     2
  6
CONTINUOUS
 10
-2.052630
 20
3.759106
  0
VERTEX
  8
PLAN_1
 62
     2
  6
CONTINUOUS
 10
-2.052630
 20
3.762445
  0
VERTEX
  8
PLAN_1
 62
     2
  6
CONTINUOUS
 10
-2.052630
 20
3.766264
  0
VERTEX
  8
PLAN_1
 62
     2
  6
CONTINUOUS
 10
-2.053587
 20
3.769598
  0
VERTEX
  8
PLAN_1
 62
     2
  6
CONTINUOUS
 10
-2.055016
 20
3.772461
  0
VERTEX
  8
PLAN_1
 62
     2
  6
CONTINUOUS
 10
-2.056925
 20
3.774370
  0
VERTEX
  8
PLAN_1
 62
     2
  6
CONTINUOUS
 10
-2.059307
 20
3.776276
  0
VERTEX
  8
PLAN_1
 62
     2
  6
CONTINUOUS
 10
-2.062169
 20
3.777709
  0
VERTEX
  8
PLAN_1
 62
     2
  6
CONTINUOUS
 10
-2.065508
 20
3.778661
  0
VERTEX
  8
PLAN_1
 62
     2
  6
CONTINUOUS
 10
-2.068846
 20
3.778661
  0
VERTEX
  8
PLAN_1
 62
     2
  6
CONTINUOUS
 10
-2.070756
 20
3.778661
  0
VERTEX
  8
PLAN_1
 62
     2
  6
CONTINUOUS
 10
-2.072661
 20
3.778185
  0
VERTEX
  8
PLAN_1
 62
     2
  6
CONTINUOUS
 10
-2.074571
 20
3.777709
  0
VERTEX
  8
PLAN_1
 62
     2
  6
CONTINUOUS
 10
-2.076000
 20
3.776756
  0
VERTEX
  8
PLAN_1
 62
     2
  6
CONTINUOUS
 10
-2.077909
 20
3.775799
  0
VERTEX
  8
PLAN_1
 62
     2
  6
CONTINUOUS
 10
-2.079339
 20
3.774846
  0
VERTEX
  8
PLAN_1
 62
     2
  6
CONTINUOUS
 10
-2.080768
 20
3.773417
  0
VERTEX
  8
PLAN_1
 62
     2
  6
CONTINUOUS
 10
-2.082201
 20
3.771984
  0
VERTEX
  8
PLAN_1
 62
     2
  6
CONTINUOUS
 10
-2.090307
 20
3.771984
  0
VERTEX
  8
PLAN_1
 62
     2
  6
CONTINUOUS
 10
-2.084587
 20
3.811571
  0
VERTEX
  8
PLAN_1
 62
     2
  6
CONTINUOUS
 10
-2.046909
 20
3.811571
  0
VERTEX
  8
PLAN_1
 62
     2
  6
CONTINUOUS
 10
-2.046909
 20
3.802508
  0
VERTEX
  8
PLAN_1
 62
     2
  6
CONTINUOUS
 10
-2.077909
 20
3.802508
  0
VERTEX
  8
PLAN_1
 62
     2
  6
CONTINUOUS
 10
-2.080768
 20
3.782476
  0
SEQEND
  8
0
  0
POLYLINE
  8
PLAN_1
 62
     2
  6
CONTINUOUS
 66
     1
 40
0.004291
 41
0.004291
  0
VERTEX
  8
PLAN_1
 62
     2
  6
CONTINUOUS
 10
-1.281929
 20
1.733154
  0
VERTEX
  8
PLAN_1
 62
     2
  6
CONTINUOUS
 10
-1.936264
 20
1.733154
  0
SEQEND
  8
0
  0
SOLID
  8
PLAN_1
 62
     2
 10
-1.906693
 20
1.733154
 11
-1.965831
 21
1.748894
 12
-1.906693
 22
1.733154
 13
-1.965831
 23
1.717413
  0
POLYLINE
  8
PLAN_1
 62
     2
  6
CONTINUOUS
 66
     1
 40
0.003000
 41
0.003000
  0
VERTEX
  8
PLAN_1
 62
     2
  6
CONTINUOUS
 10
-1.906693
 20
1.733154
  0
VERTEX
  8
PLAN_1
 62
     2
  6
CONTINUOUS
 10
-1.965831
 20
1.748894
  0
VERTEX
  8
PLAN_1
 62
     2
  6
CONTINUOUS
 10
-1.965831
 20
1.717413
  0
VERTEX
  8
PLAN_1
 62
     2
  6
CONTINUOUS
 10
-1.906693
 20
1.733154
  0
SEQEND
  8
0
  0
SOLID
  8
PLAN_1
 62
     2
 10
-1.608142
 20
1.733154
 11
-1.549004
 21
1.748894
 12
-1.608142
 22
1.733154
 13
-1.549004
 23
1.717413
  0
POLYLINE
  8
PLAN_1
 62
     2
  6
CONTINUOUS
 66
     1
 40
0.003000
 41
0.003000
  0
VERTEX
  8
PLAN_1
 62
     2
  6
CONTINUOUS
 10
-1.608142
 20
1.733154
  0
VERTEX
  8
PLAN_1
 62
     2
  6
CONTINUOUS
 10
-1.549004
 20
1.748894
  0
VERTEX
  8
PLAN_1
 62
     2
  6
CONTINUOUS
 10
-1.549004
 20
1.717413
  0
VERTEX
  8
PLAN_1
 62
     2
  6
CONTINUOUS
 10
-1.608142
 20
1.733154
  0
SEQEND
  8
0
  0
POLYLINE
  8
PLAN_1
 62
     2
  6
CONTINUOUS
 66
     1
 40
0.003000
 41
0.003000
  0
VERTEX
  8
PLAN_1
 62
     2
  6
CONTINUOUS
 10
-1.413083
 20
1.820429
  0
VERTEX
  8
PLAN_1
 62
     2
  6
CONTINUOUS
 10
-1.411173
 20
1.817567
  0
VERTEX
  8
PLAN_1
 62
     2
  6
CONTINUOUS
 10
-1.409268
 20
1.814228
  0
VERTEX
  8
PLAN_1
 62
     2
  6
CONTINUOUS
 10
-1.407835
 20
1.810890
  0
VERTEX
  8
PLAN_1
 62
     2
  6
CONTINUOUS
 10
-1.406882
 20
1.807551
  0
VERTEX
  8
PLAN_1
 62
     2
  6
CONTINUOUS
 10
-1.405929
 20
1.803736
  0
VERTEX
  8
PLAN_1
 62
     2
  6
CONTINUOUS
 10
-1.404976
 20
1.800398
  0
VERTEX
  8
PLAN_1
 62
     2
  6
CONTINUOUS
 10
-1.404976
 20
1.797059
  0
VERTEX
  8
PLAN_1
 62
     2
  6
CONTINUOUS
 10
-1.404976
 20
1.793720
  0
VERTEX
  8
PLAN_1
 62
     2
  6
CONTINUOUS
 10
-1.404976
 20
1.787524
  0
VERTEX
  8
PLAN_1
 62
     2
  6
CONTINUOUS
 10
-1.406406
 20
1.780846
  0
VERTEX
  8
PLAN_1
 62
     2
  6
CONTINUOUS
 10
-1.407358
 20
1.777508
  0
VERTEX
  8
PLAN_1
 62
     2
  6
CONTINUOUS
 10
-1.408791
 20
1.774169
  0
VERTEX
  8
PLAN_1
 62
     2
  6
CONTINUOUS
 10
-1.410697
 20
1.771307
  0
VERTEX
  8
PLAN_1
 62
     2
  6
CONTINUOUS
 10
-1.412606
 20
1.767969
  0
VERTEX
  8
PLAN_1
 62
     2
  6
CONTINUOUS
 10
-1.414988
 20
1.765106
  0
VERTEX
  8
PLAN_1
 62
     2
  6
CONTINUOUS
 10
-1.417374
 20
1.762724
  0
VERTEX
  8
PLAN_1
 62
     2
  6
CONTINUOUS
 10
-1.420236
 20
1.760339
  0
VERTEX
  8
PLAN_1
 62
     2
  6
CONTINUOUS
 10
-1.423575
 20
1.758429
  0
VERTEX
  8
PLAN_1
 62
     2
  6
CONTINUOUS
 10
-1.427390
 20
1.757000
  0
VERTEX
  8
PLAN_1
 62
     2
  6
CONTINUOUS
 10
-1.431681
 20
1.755567
  0
VERTEX
  8
PLAN_1
 62
     2
  6
CONTINUOUS
 10
-1.435972
 20
1.754614
  0
VERTEX
  8
PLAN_1
 62
     2
  6
CONTINUOUS
 10
-1.441220
 20
1.754614
  0
VERTEX
  8
PLAN_1
 62
     2
  6
CONTINUOUS
 10
-1.445035
 20
1.754614
  0
VERTEX
  8
PLAN_1
 62
     2
  6
CONTINUOUS
 10
-1.448850
 20
1.755091
  0
VERTEX
  8
PLAN_1
 62
     2
  6
CONTINUOUS
 10
-1.452189
 20
1.756047
  0
VERTEX
  8
PLAN_1
 62
     2
  6
CONTINUOUS
 10
-1.455528
 20
1.757000
  0
VERTEX
  8
PLAN_1
 62
     2
  6
CONTINUOUS
 10
-1.458390
 20
1.758429
  0
VERTEX
  8
PLAN_1
 62
     2
  6
CONTINUOUS
 10
-1.461252
 20
1.759862
  0
VERTEX
  8
PLAN_1
 62
     2
  6
CONTINUOUS
 10
-1.463634
 20
1.761768
  0
VERTEX
  8
PLAN_1
 62
     2
  6
CONTINUOUS
 10
-1.465543
 20
1.763677
  0
VERTEX
  8
PLAN_1
 62
     2
  6
CONTINUOUS
 10
-1.474126
 20
1.754614
  0
VERTEX
  8
PLAN_1
 62
     2
  6
CONTINUOUS
 10
-1.477465
 20
1.757476
  0
VERTEX
  8
PLAN_1
 62
     2
  6
CONTINUOUS
 10
-1.468882
 20
1.767016
  0
VERTEX
  8
PLAN_1
 62
     2
  6
CONTINUOUS
 10
-1.470791
 20
1.769878
  0
VERTEX
  8
PLAN_1
 62
     2
  6
CONTINUOUS
 10
-1.472697
 20
1.773217
  0
VERTEX
  8
PLAN_1
 62
     2
  6
CONTINUOUS
 10
-1.474126
 20
1.776551
  0
VERTEX
  8
PLAN_1
 62
     2
  6
CONTINUOUS
 10
-1.475559
 20
1.780370
  0
VERTEX
  8
PLAN_1
 62
     2
  6
CONTINUOUS
 10
-1.476512
 20
1.783709
  0
VERTEX
  8
PLAN_1
 62
     2
  6
CONTINUOUS
 10
-1.476988
 20
1.787047
  0
VERTEX
  8
PLAN_1
 62
     2
  6
CONTINUOUS
 10
-1.477465
 20
1.790382
  0
VERTEX
  8
PLAN_1
 62
     2
  6
CONTINUOUS
 10
-1.477465
 20
1.793720
  0
VERTEX
  8
PLAN_1
 62
     2
  6
CONTINUOUS
 10
-1.476988
 20
1.800398
  0
VERTEX
  8
PLAN_1
 62
     2
  6
CONTINUOUS
 10
-1.475559
 20
1.806598
  0
VERTEX
  8
PLAN_1
 62
     2
  6
CONTINUOUS
 10
-1.474606
 20
1.809937
  0
VERTEX
  8
PLAN_1
 62
     2
  6
CONTINUOUS
 10
-1.473173
 20
1.813276
  0
VERTEX
  8
PLAN_1
 62
     2
  6
CONTINUOUS
 10
-1.471744
 20
1.816614
  0
VERTEX
  8
PLAN_1
 62
     2
  6
CONTINUOUS
 10
-1.469835
 20
1.819476
  0
VERTEX
  8
PLAN_1
 62
     2
  6
CONTINUOUS
 10
-1.467453
 20
1.822339
  0
VERTEX
  8
PLAN_1
 62
     2
  6
CONTINUOUS
 10
-1.465067
 20
1.825201
  0
VERTEX
  8
PLAN_1
 62
     2
  6
CONTINUOUS
 10
-1.461728
 20
1.827106
  0
VERTEX
  8
PLAN_1
 62
     2
  6
CONTINUOUS
 10
-1.458390
 20
1.829492
  0
VERTEX
  8
PLAN_1
 62
     2
  6
CONTINUOUS
 10
-1.455051
 20
1.830921
  0
VERTEX
  8
PLAN_1
 62
     2
  6
CONTINUOUS
 10
-1.450760
 20
1.832354
  0
VERTEX
  8
PLAN_1
 62
     2
  6
CONTINUOUS
 10
-1.445988
 20
1.832831
  0
VERTEX
  8
PLAN_1
 62
     2
  6
CONTINUOUS
 10
-1.441220
 20
1.833307
  0
VERTEX
  8
PLAN_1
 62
     2
  6
CONTINUOUS
 10
-1.436929
 20
1.832831
  0
VERTEX
  8
PLAN_1
 62
     2
  6
CONTINUOUS
 10
-1.433114
 20
1.832354
  0
VERTEX
  8
PLAN_1
 62
     2
  6
CONTINUOUS
 10
-1.429776
 20
1.831874
  0
VERTEX
  8
PLAN_1
 62
     2
  6
CONTINUOUS
 10
-1.426437
 20
1.830445
  0
VERTEX
  8
PLAN_1
 62
     2
  6
CONTINUOUS
 10
-1.423575
 20
1.829492
  0
VERTEX
  8
PLAN_1
 62
     2
  6
CONTINUOUS
 10
-1.420713
 20
1.827583
  0
VERTEX
  8
PLAN_1
 62
     2
  6
CONTINUOUS
 10
-1.418327
 20
1.826154
  0
VERTEX
  8
PLAN_1
 62
     2
  6
CONTINUOUS
 10
-1.416421
 20
1.823768
  0
VERTEX
  8
PLAN_1
 62
     2
  6
CONTINUOUS
 10
-1.407835
 20
1.833307
  0
VERTEX
  8
PLAN_1
 62
     2
  6
CONTINUOUS
 10
-1.404496
 20
1.829969
  0
VERTEX
  8
PLAN_1
 62
     2
  6
CONTINUOUS
 10
-1.413083
 20
1.820429
  0
SEQEND
  8
0
  0
POLYLINE
  8
PLAN_1
 62
     2
  6
CONTINUOUS
 66
     1
 40
0.003000
 41
0.003000
  0
VERTEX
  8
PLAN_1
 62
     2
  6
CONTINUOUS
 10
-1.458866
 20
1.770831
  0
VERTEX
  8
PLAN_1
 62
     2
  6
CONTINUOUS
 10
-1.457437
 20
1.769398
  0
VERTEX
  8
PLAN_1
 62
     2
  6
CONTINUOUS
 10
-1.455528
 20
1.767969
  0
VERTEX
  8
PLAN_1
 62
     2
  6
CONTINUOUS
 10
-1.453622
 20
1.766539
  0
VERTEX
  8
PLAN_1
 62
     2
  6
CONTINUOUS
 10
-1.451236
 20
1.765583
  0
VERTEX
  8
PLAN_1
 62
     2
  6
CONTINUOUS
 10
-1.448850
 20
1.764630
  0
VERTEX
  8
PLAN_1
 62
     2
  6
CONTINUOUS
 10
-1.446465
 20
1.764154
  0
VERTEX
  8
PLAN_1
 62
     2
  6
CONTINUOUS
 10
-1.444083
 20
1.763677
  0
VERTEX
  8
PLAN_1
 62
     2
  6
CONTINUOUS
 10
-1.441220
 20
1.763677
  0
VERTEX
  8
PLAN_1
 62
     2
  6
CONTINUOUS
 10
-1.438358
 20
1.763677
  0
VERTEX
  8
PLAN_1
 62
     2
  6
CONTINUOUS
 10
-1.435496
 20
1.764154
  0
VERTEX
  8
PLAN_1
 62
     2
  6
CONTINUOUS
 10
-1.432638
 20
1.764630
  0
VERTEX
  8
PLAN_1
 62
     2
  6
CONTINUOUS
 10
-1.430252
 20
1.765583
  0
VERTEX
  8
PLAN_1
 62
     2
  6
CONTINUOUS
 10
-1.427866
 20
1.767016
  0
VERTEX
  8
PLAN_1
 62
     2
  6
CONTINUOUS
 10
-1.425961
 20
1.768445
  0
VERTEX
  8
PLAN_1
 62
     2
  6
CONTINUOUS
 10
-1.424051
 20
1.770354
  0
VERTEX
  8
PLAN_1
 62
     2
  6
CONTINUOUS
 10
-1.422142
 20
1.772260
  0
VERTEX
  8
PLAN_1
 62
     2
  6
CONTINUOUS
 10
-1.420713
 20
1.774169
  0
VERTEX
  8
PLAN_1
 62
     2
  6
CONTINUOUS
 10
-1.419283
 20
1.776551
  0
VERTEX
  8
PLAN_1
 62
     2
  6
CONTINUOUS
 10
-1.417850
 20
1.778937
  0
VERTEX
  8
PLAN_1
 62
     2
  6
CONTINUOUS
 10
-1.416898
 20
1.781799
  0
VERTEX
  8
PLAN_1
 62
     2
  6
CONTINUOUS
 10
-1.415469
 20
1.787524
  0
VERTEX
  8
PLAN_1
 62
     2
  6
CONTINUOUS
 10
-1.414988
 20
1.793720
  0
VERTEX
  8
PLAN_1
 62
     2
  6
CONTINUOUS
 10
-1.415469
 20
1.796583
  0
VERTEX
  8
PLAN_1
 62
     2
  6
CONTINUOUS
 10
-1.415469
 20
1.799445
  0
VERTEX
  8
PLAN_1
 62
     2
  6
CONTINUOUS
 10
-1.415945
 20
1.801831
  0
VERTEX
  8
PLAN_1
 62
     2
  6
CONTINUOUS
 10
-1.416421
 20
1.804213
  0
VERTEX
  8
PLAN_1
 62
     2
  6
CONTINUOUS
 10
-1.417374
 20
1.806598
  0
VERTEX
  8
PLAN_1
 62
     2
  6
CONTINUOUS
 10
-1.417850
 20
1.808984
  0
VERTEX
  8
PLAN_1
 62
     2
  6
CONTINUOUS
 10
-1.419283
 20
1.810890
  0
VERTEX
  8
PLAN_1
 62
     2
  6
CONTINUOUS
 10
-1.420236
 20
1.812799
  0
VERTEX
  8
PLAN_1
 62
     2
  6
CONTINUOUS
 10
-1.458866
 20
1.770831
  0
SEQEND
  8
0
  0
POLYLINE
  8
PLAN_1
 62
     2
  6
CONTINUOUS
 66
     1
 40
0.003000
 41
0.003000
  0
VERTEX
  8
PLAN_1
 62
     2
  6
CONTINUOUS
 10
-1.423098
 20
1.816614
  0
VERTEX
  8
PLAN_1
 62
     2
  6
CONTINUOUS
 10
-1.424528
 20
1.818524
  0
VERTEX
  8
PLAN_1
 62
     2
  6
CONTINUOUS
 10
-1.426437
 20
1.819953
  0
VERTEX
  8
PLAN_1
 62
     2
  6
CONTINUOUS
 10
-1.428819
 20
1.821382
  0
VERTEX
  8
PLAN_1
 62
     2
  6
CONTINUOUS
 10
-1.430728
 20
1.822339
  0
VERTEX
  8
PLAN_1
 62
     2
  6
CONTINUOUS
 10
-1.433114
 20
1.823291
  0
VERTEX
  8
PLAN_1
 62
     2
  6
CONTINUOUS
 10
-1.435496
 20
1.823768
  0
VERTEX
  8
PLAN_1
 62
     2
  6
CONTINUOUS
 10
-1.438358
 20
1.824244
  0
VERTEX
  8
PLAN_1
 62
     2
  6
CONTINUOUS
 10
-1.441220
 20
1.824244
  0
VERTEX
  8
PLAN_1
 62
     2
  6
CONTINUOUS
 10
-1.444083
 20
1.824244
  0
VERTEX
  8
PLAN_1
 62
     2
  6
CONTINUOUS
 10
-1.446945
 20
1.823768
  0
VERTEX
  8
PLAN_1
 62
     2
  6
CONTINUOUS
 10
-1.449803
 20
1.822815
  0
VERTEX
  8
PLAN_1
 62
     2
  6
CONTINUOUS
 10
-1.452189
 20
1.821862
  0
VERTEX
  8
PLAN_1
 62
     2
  6
CONTINUOUS
 10
-1.454575
 20
1.820906
  0
VERTEX
  8
PLAN_1
 62
     2
  6
CONTINUOUS
 10
-1.456480
 20
1.819476
  0
VERTEX
  8
PLAN_1
 62
     2
  6
CONTINUOUS
 10
-1.458390
 20
1.817567
  0
VERTEX
  8
PLAN_1
 62
     2
  6
CONTINUOUS
 10
-1.460295
 20
1.815661
  0
VERTEX
  8
PLAN_1
 62
     2
  6
CONTINUOUS
 10
-1.461728
 20
1.813752
  0
VERTEX
  8
PLAN_1
 62
     2
  6
CONTINUOUS
 10
-1.463157
 20
1.811370
  0
VERTEX
  8
PLAN_1
 62
     2
  6
CONTINUOUS
 10
-1.464591
 20
1.808508
  0
VERTEX
  8
PLAN_1
 62
     2
  6
CONTINUOUS
 10
-1.465543
 20
1.806122
  0
VERTEX
  8
PLAN_1
 62
     2
  6
CONTINUOUS
 10
-1.466496
 20
1.800398
  0
VERTEX
  8
PLAN_1
 62
     2
  6
CONTINUOUS
 10
-1.466972
 20
1.793720
  0
VERTEX
  8
PLAN_1
 62
     2
  6
CONTINUOUS
 10
-1.466972
 20
1.790862
  0
VERTEX
  8
PLAN_1
 62
     2
  6
CONTINUOUS
 10
-1.466972
 20
1.788476
  0
VERTEX
  8
PLAN_1
 62
     2
  6
CONTINUOUS
 10
-1.466496
 20
1.785614
  0
VERTEX
  8
PLAN_1
 62
     2
  6
CONTINUOUS
 10
-1.466020
 20
1.783228
  0
VERTEX
  8
PLAN_1
 62
     2
  6
CONTINUOUS
 10
-1.465067
 20
1.780846
  0
VERTEX
  8
PLAN_1
 62
     2
  6
CONTINUOUS
 10
-1.464114
 20
1.778461
  0
VERTEX
  8
PLAN_1
 62
     2
  6
CONTINUOUS
 10
-1.463157
 20
1.776551
  0
VERTEX
  8
PLAN_1
 62
     2
  6
CONTINUOUS
 10
-1.461728
 20
1.774169
  0
VERTEX
  8
PLAN_1
 62
     2
  6
CONTINUOUS
 10
-1.423098
 20
1.816614
  0
SEQEND
  8
0
  0
POLYLINE
  8
PLAN_1
 62
     2
  6
CONTINUOUS
 66
     1
 40
0.003000
 41
0.003000
  0
VERTEX
  8
PLAN_1
 62
     2
  6
CONTINUOUS
 10
-1.358713
 20
1.795630
  0
VERTEX
  8
PLAN_1
 62
     2
  6
CONTINUOUS
 10
-1.355374
 20
1.793720
  0
VERTEX
  8
PLAN_1
 62
     2
  6
CONTINUOUS
 10
-1.352992
 20
1.791815
  0
VERTEX
  8
PLAN_1
 62
     2
  6
CONTINUOUS
 10
-1.350606
 20
1.789429
  0
VERTEX
  8
PLAN_1
 62
     2
  6
CONTINUOUS
 10
-1.349173
 20
1.787047
  0
VERTEX
  8
PLAN_1
 62
     2
  6
CONTINUOUS
 10
-1.348220
 20
1.784661
  0
VERTEX
  8
PLAN_1
 62
     2
  6
CONTINUOUS
 10
-1.347268
 20
1.782276
  0
VERTEX
  8
PLAN_1
 62
     2
  6
CONTINUOUS
 10
-1.346791
 20
1.779890
  0
VERTEX
  8
PLAN_1
 62
     2
  6
CONTINUOUS
 10
-1.346791
 20
1.777508
  0
VERTEX
  8
PLAN_1
 62
     2
  6
CONTINUOUS
 10
-1.347268
 20
1.773217
  0
VERTEX
  8
PLAN_1
 62
     2
  6
CONTINUOUS
 10
-1.348220
 20
1.768921
  0
VERTEX
  8
PLAN_1
 62
     2
  6
CONTINUOUS
 10
-1.350130
 20
1.765106
  0
VERTEX
  8
PLAN_1
 62
     2
  6
CONTINUOUS
 10
-1.352512
 20
1.761768
  0
VERTEX
  8
PLAN_1
 62
     2
  6
CONTINUOUS
 10
-1.354421
 20
1.760339
  0
VERTEX
  8
PLAN_1
 62
     2
  6
CONTINUOUS
 10
-1.356327
 20
1.758906
  0
VERTEX
  8
PLAN_1
 62
     2
  6
CONTINUOUS
 10
-1.358236
 20
1.757476
  0
VERTEX
  8
PLAN_1
 62
     2
  6
CONTINUOUS
 10
-1.360622
 20
1.756524
  0
VERTEX
  8
PLAN_1
 62
     2
  6
CONTINUOUS
 10
-1.363004
 20
1.755567
  0
VERTEX
  8
PLAN_1
 62
     2
  6
CONTINUOUS
 10
-1.365390
 20
1.755091
  0
VERTEX
  8
PLAN_1
 62
     2
  6
CONTINUOUS
 10
-1.368252
 20
1.754614
  0
VERTEX
  8
PLAN_1
 62
     2
  6
CONTINUOUS
 10
-1.371591
 20
1.754614
  0
VERTEX
  8
PLAN_1
 62
     2
  6
CONTINUOUS
 10
-1.373496
 20
1.754614
  0
VERTEX
  8
PLAN_1
 62
     2
  6
CONTINUOUS
 10
-1.375406
 20
1.754614
  0
VERTEX
  8
PLAN_1
 62
     2
  6
CONTINUOUS
 10
-1.377315
 20
1.755091
  0
VERTEX
  8
PLAN_1
 62
     2
  6
CONTINUOUS
 10
-1.379697
 20
1.755567
  0
VERTEX
  8
PLAN_1
 62
     2
  6
CONTINUOUS
 10
-1.382083
 20
1.756524
  0
VERTEX
  8
PLAN_1
 62
     2
  6
CONTINUOUS
 10
-1.384469
 20
1.757476
  0
VERTEX
  8
PLAN_1
 62
     2
  6
CONTINUOUS
 10
-1.386850
 20
1.758429
  0
VERTEX
  8
PLAN_1
 62
     2
  6
CONTINUOUS
 10
-1.389236
 20
1.760339
  0
VERTEX
  8
PLAN_1
 62
     2
  6
CONTINUOUS
 10
-1.391622
 20
1.762724
  0
VERTEX
  8
PLAN_1
 62
     2
  6
CONTINUOUS
 10
-1.393528
 20
1.765106
  0
VERTEX
  8
PLAN_1
 62
     2
  6
CONTINUOUS
 10
-1.394961
 20
1.767492
  0
VERTEX
  8
PLAN_1
 62
     2
  6
CONTINUOUS
 10
-1.395913
 20
1.769878
  0
VERTEX
  8
PLAN_1
 62
     2
  6
CONTINUOUS
 10
-1.396390
 20
1.772260
  0
VERTEX
  8
PLAN_1
 62
     2
  6
CONTINUOUS
 10
-1.396390
 20
1.774169
  0
VERTEX
  8
PLAN_1
 62
     2
  6
CONTINUOUS
 10
-1.396866
 20
1.776075
  0
VERTEX
  8
PLAN_1
 62
     2
  6
CONTINUOUS
 10
-1.396866
 20
1.777508
  0
VERTEX
  8
PLAN_1
 62
     2
  6
CONTINUOUS
 10
-1.396390
 20
1.780846
  0
VERTEX
  8
PLAN_1
 62
     2
  6
CONTINUOUS
 10
-1.395913
 20
1.783709
  0
VERTEX
  8
PLAN_1
 62
     2
  6
CONTINUOUS
 10
-1.394961
 20
1.786091
  0
VERTEX
  8
PLAN_1
 62
     2
  6
CONTINUOUS
 10
-1.393528
 20
1.788476
  0
VERTEX
  8
PLAN_1
 62
     2
  6
CONTINUOUS
 10
-1.391622
 20
1.790862
  0
VERTEX
  8
PLAN_1
 62
     2
  6
CONTINUOUS
 10
-1.389236
 20
1.792291
  0
VERTEX
  8
PLAN_1
 62
     2
  6
CONTINUOUS
 10
-1.386850
 20
1.794201
  0
VERTEX
  8
PLAN_1
 62
     2
  6
CONTINUOUS
 10
-1.384469
 20
1.795154
  0
VERTEX
  8
PLAN_1
 62
     2
  6
CONTINUOUS
 10
-1.386374
 20
1.796583
  0
VERTEX
  8
PLAN_1
 62
     2
  6
CONTINUOUS
 10
-1.388283
 20
1.797539
  0
VERTEX
  8
PLAN_1
 62
     2
  6
CONTINUOUS
 10
-1.390189
 20
1.798969
  0
VERTEX
  8
PLAN_1
 62
     2
  6
CONTINUOUS
 10
-1.391622
 20
1.800878
  0
VERTEX
  8
PLAN_1
 62
     2
  6
CONTINUOUS
 10
-1.392575
 20
1.802783
  0
VERTEX
  8
PLAN_1
 62
     2
  6
CONTINUOUS
 10
-1.393528
 20
1.804693
  0
VERTEX
  8
PLAN_1
 62
     2
  6
CONTINUOUS
 10
-1.394004
 20
1.807075
  0
VERTEX
  8
PLAN_1
 62
     2
  6
CONTINUOUS
 10
-1.394004
 20
1.809461
  0
VERTEX
  8
PLAN_1
 62
     2
  6
CONTINUOUS
 10
-1.394004
 20
1.812799
  0
VERTEX
  8
PLAN_1
 62
     2
  6
CONTINUOUS
 10
-1.393051
 20
1.816138
  0
VERTEX
  8
PLAN_1
 62
     2
  6
CONTINUOUS
 10
-1.391622
 20
1.819476
  0
VERTEX
  8
PLAN_1
 62
     2
  6
CONTINUOUS
 10
-1.389713
 20
1.822339
  0
VERTEX
  8
PLAN_1
 62
     2
  6
CONTINUOUS
 10
-1.388283
 20
1.823768
  0
VERTEX
  8
PLAN_1
 62
     2
  6
CONTINUOUS
 10
-1.386850
 20
1.825201
  0
VERTEX
  8
PLAN_1
 62
     2
  6
CONTINUOUS
 10
-1.384945
 20
1.826630
  0
VERTEX
  8
PLAN_1
 62
     2
  6
CONTINUOUS
 10
-1.383035
 20
1.827583
  0
VERTEX
  8
PLAN_1
 62
     2
  6
CONTINUOUS
 10
-1.380654
 20
1.828535
  0
VERTEX
  8
PLAN_1
 62
     2
  6
CONTINUOUS
 10
-1.377791
 20
1.829016
  0
VERTEX
  8
PLAN_1
 62
     2
  6
CONTINUOUS
 10
-1.374929
 20
1.829492
  0
VERTEX
  8
PLAN_1
 62
     2
  6
CONTINUOUS
 10
-1.372067
 20
1.829492
  0
VERTEX
  8
PLAN_1
 62
     2
  6
CONTINUOUS
 10
-1.369205
 20
1.829492
  0
VERTEX
  8
PLAN_1
 62
     2
  6
CONTINUOUS
 10
-1.366343
 20
1.829016
  0
VERTEX
  8
PLAN_1
 62
     2
  6
CONTINUOUS
 10
-1.363961
 20
1.828535
  0
VERTEX
  8
PLAN_1
 62
     2
  6
CONTINUOUS
 10
-1.361575
 20
1.828059
  0
VERTEX
  8
PLAN_1
 62
     2
  6
CONTINUOUS
 10
-1.357760
 20
1.826154
  0
VERTEX
  8
PLAN_1
 62
     2
  6
CONTINUOUS
 10
-1.354421
 20
1.823291
  0
VERTEX
  8
PLAN_1
 62
     2
  6
CONTINUOUS
 10
-1.352512
 20
1.820429
  0
VERTEX
  8
PLAN_1
 62
     2
  6
CONTINUOUS
 10
-1.350606
 20
1.817567
  0
VERTEX
  8
PLAN_1
 62
     2
  6
CONTINUOUS
 10
-1.349654
 20
1.814228
  0
VERTEX
  8
PLAN_1
 62
     2
  6
CONTINUOUS
 10
-1.349654
 20
1.810890
  0
VERTEX
  8
PLAN_1
 62
     2
  6
CONTINUOUS
 10
-1.349654
 20
1.807075
  0
VERTEX
  8
PLAN_1
 62
     2
  6
CONTINUOUS
 10
-1.350606
 20
1.804213
  0
VERTEX
  8
PLAN_1
 62
     2
  6
CONTINUOUS
 10
-1.351559
 20
1.801831
  0
VERTEX
  8
PLAN_1
 62
     2
  6
CONTINUOUS
 10
-1.352992
 20
1.799921
  0
VERTEX
  8
PLAN_1
 62
     2
  6
CONTINUOUS
 10
-1.354421
 20
1.798492
  0
VERTEX
  8
PLAN_1
 62
     2
  6
CONTINUOUS
 10
-1.355850
 20
1.797059
  0
VERTEX
  8
PLAN_1
 62
     2
  6
CONTINUOUS
 10
-1.357283
 20
1.796106
  0
VERTEX
  8
PLAN_1
 62
     2
  6
CONTINUOUS
 10
-1.358713
 20
1.795630
  0
SEQEND
  8
0
  0
POLYLINE
  8
PLAN_1
 62
     2
  6
CONTINUOUS
 66
     1
 40
0.003000
 41
0.003000
  0
VERTEX
  8
PLAN_1
 62
     2
  6
CONTINUOUS
 10
-1.386850
 20
1.777508
  0
VERTEX
  8
PLAN_1
 62
     2
  6
CONTINUOUS
 10
-1.386850
 20
1.775122
  0
VERTEX
  8
PLAN_1
 62
     2
  6
CONTINUOUS
 10
-1.386374
 20
1.772736
  0
VERTEX
  8
PLAN_1
 62
     2
  6
CONTINUOUS
 10
-1.385421
 20
1.770354
  0
VERTEX
  8
PLAN_1
 62
     2
  6
CONTINUOUS
 10
-1.383988
 20
1.767969
  0
VERTEX
  8
PLAN_1
 62
     2
  6
CONTINUOUS
 10
-1.381606
 20
1.766059
  0
VERTEX
  8
PLAN_1
 62
     2
  6
CONTINUOUS
 10
-1.379220
 20
1.764154
  0
VERTEX
  8
PLAN_1
 62
     2
  6
CONTINUOUS
 10
-1.375406
 20
1.763201
  0
VERTEX
  8
PLAN_1
 62
     2
  6
CONTINUOUS
 10
-1.371114
 20
1.762724
  0
VERTEX
  8
PLAN_1
 62
     2
  6
CONTINUOUS
 10
-1.368728
 20
1.762724
  0
VERTEX
  8
PLAN_1
 62
     2
  6
CONTINUOUS
 10
-1.366343
 20
1.763201
  0
VERTEX
  8
PLAN_1
 62
     2
  6
CONTINUOUS
 10
-1.363961
 20
1.764154
  0
VERTEX
  8
PLAN_1
 62
     2
  6
CONTINUOUS
 10
-1.361575
 20
1.765583
  0
VERTEX
  8
PLAN_1
 62
     2
  6
CONTINUOUS
 10
-1.359665
 20
1.767016
  0
VERTEX
  8
PLAN_1
 62
     2
  6
CONTINUOUS
 10
-1.357760
 20
1.769398
  0
VERTEX
  8
PLAN_1
 62
     2
  6
CONTINUOUS
 10
-1.356807
 20
1.772736
  0
VERTEX
  8
PLAN_1
 62
     2
  6
CONTINUOUS
 10
-1.356807
 20
1.776551
  0
VERTEX
  8
PLAN_1
 62
     2
  6
CONTINUOUS
 10
-1.356807
 20
1.779890
  0
VERTEX
  8
PLAN_1
 62
     2
  6
CONTINUOUS
 10
-1.357760
 20
1.783228
  0
VERTEX
  8
PLAN_1
 62
     2
  6
CONTINUOUS
 10
-1.359189
 20
1.785614
  0
VERTEX
  8
PLAN_1
 62
     2
  6
CONTINUOUS
 10
-1.361098
 20
1.787524
  0
VERTEX
  8
PLAN_1
 62
     2
  6
CONTINUOUS
 10
-1.363484
 20
1.788953
  0
VERTEX
  8
PLAN_1
 62
     2
  6
CONTINUOUS
 10
-1.365866
 20
1.789906
  0
VERTEX
  8
PLAN_1
 62
     2
  6
CONTINUOUS
 10
-1.368728
 20
1.790862
  0
VERTEX
  8
PLAN_1
 62
     2
  6
CONTINUOUS
 10
-1.371591
 20
1.790862
  0
VERTEX
  8
PLAN_1
 62
     2
  6
CONTINUOUS
 10
-1.375406
 20
1.790382
  0
VERTEX
  8
PLAN_1
 62
     2
  6
CONTINUOUS
 10
-1.378268
 20
1.789906
  0
VERTEX
  8
PLAN_1
 62
     2
  6
CONTINUOUS
 10
-1.381130
 20
1.788476
  0
VERTEX
  8
PLAN_1
 62
     2
  6
CONTINUOUS
 10
-1.383035
 20
1.786567
  0
VERTEX
  8
PLAN_1
 62
     2
  6
CONTINUOUS
 10
-1.384945
 20
1.784661
  0
VERTEX
  8
PLAN_1
 62
     2
  6
CONTINUOUS
 10
-1.385898
 20
1.782276
  0
VERTEX
  8
PLAN_1
 62
     2
  6
CONTINUOUS
 10
-1.386850
 20
1.779890
  0
VERTEX
  8
PLAN_1
 62
     2
  6
CONTINUOUS
 10
-1.386850
 20
1.777508
  0
SEQEND
  8
0
  0
POLYLINE
  8
PLAN_1
 62
     2
  6
CONTINUOUS
 66
     1
 40
0.003000
 41
0.003000
  0
VERTEX
  8
PLAN_1
 62
     2
  6
CONTINUOUS
 10
-1.358713
 20
1.810413
  0
VERTEX
  8
PLAN_1
 62
     2
  6
CONTINUOUS
 10
-1.359189
 20
1.812323
  0
VERTEX
  8
PLAN_1
 62
     2
  6
CONTINUOUS
 10
-1.359665
 20
1.814228
  0
VERTEX
  8
PLAN_1
 62
     2
  6
CONTINUOUS
 10
-1.360622
 20
1.816138
  0
VERTEX
  8
PLAN_1
 62
     2
  6
CONTINUOUS
 10
-1.361575
 20
1.817567
  0
VERTEX
  8
PLAN_1
 62
     2
  6
CONTINUOUS
 10
-1.363484
 20
1.819000
  0
VERTEX
  8
PLAN_1
 62
     2
  6
CONTINUOUS
 10
-1.365866
 20
1.820429
  0
VERTEX
  8
PLAN_1
 62
     2
  6
CONTINUOUS
 10
-1.368728
 20
1.821382
  0
VERTEX
  8
PLAN_1
 62
     2
  6
CONTINUOUS
 10
-1.372543
 20
1.821382
  0
VERTEX
  8
PLAN_1
 62
     2
  6
CONTINUOUS
 10
-1.375882
 20
1.821382
  0
VERTEX
  8
PLAN_1
 62
     2
  6
CONTINUOUS
 10
-1.378744
 20
1.820429
  0
VERTEX
  8
PLAN_1
 62
     2
  6
CONTINUOUS
 10
-1.380654
 20
1.819000
  0
VERTEX
  8
PLAN_1
 62
     2
  6
CONTINUOUS
 10
-1.382083
 20
1.817567
  0
VERTEX
  8
PLAN_1
 62
     2
  6
CONTINUOUS
 10
-1.383512
 20
1.815661
  0
VERTEX
  8
PLAN_1
 62
     2
  6
CONTINUOUS
 10
-1.383988
 20
1.813752
  0
VERTEX
  8
PLAN_1
 62
     2
  6
CONTINUOUS
 10
-1.384469
 20
1.811846
  0
VERTEX
  8
PLAN_1
 62
     2
  6
CONTINUOUS
 10
-1.384469
 20
1.809937
  0
VERTEX
  8
PLAN_1
 62
     2
  6
CONTINUOUS
 10
-1.384469
 20
1.807551
  0
VERTEX
  8
PLAN_1
 62
     2
  6
CONTINUOUS
 10
-1.383512
 20
1.805169
  0
VERTEX
  8
PLAN_1
 62
     2
  6
CONTINUOUS
 10
-1.382559
 20
1.803260
  0
VERTEX
  8
PLAN_1
 62
     2
  6
CONTINUOUS
 10
-1.380654
 20
1.801831
  0
VERTEX
  8
PLAN_1
 62
     2
  6
CONTINUOUS
 10
-1.378744
 20
1.800398
  0
VERTEX
  8
PLAN_1
 62
     2
  6
CONTINUOUS
 10
-1.376835
 20
1.799445
  0
VERTEX
  8
PLAN_1
 62
     2
  6
CONTINUOUS
 10
-1.374453
 20
1.798969
  0
VERTEX
  8
PLAN_1
 62
     2
  6
CONTINUOUS
 10
-1.372067
 20
1.798969
  0
VERTEX
  8
PLAN_1
 62
     2
  6
CONTINUOUS
 10
-1.369205
 20
1.798969
  0
VERTEX
  8
PLAN_1
 62
     2
  6
CONTINUOUS
 10
-1.366343
 20
1.799445
  0
VERTEX
  8
PLAN_1
 62
     2
  6
CONTINUOUS
 10
-1.364437
 20
1.800878
  0
VERTEX
  8
PLAN_1
 62
     2
  6
CONTINUOUS
 10
-1.362528
 20
1.802307
  0
VERTEX
  8
PLAN_1
 62
     2
  6
CONTINUOUS
 10
-1.361098
 20
1.803736
  0
VERTEX
  8
PLAN_1
 62
     2
  6
CONTINUOUS
 10
-1.359665
 20
1.805646
  0
VERTEX
  8
PLAN_1
 62
     2
  6
CONTINUOUS
 10
-1.359189
 20
1.808031
  0
VERTEX
  8
PLAN_1
 62
     2
  6
CONTINUOUS
 10
-1.358713
 20
1.810413
  0
SEQEND
  8
0
  0
POLYLINE
  8
PLAN_1
 62
     2
  6
CONTINUOUS
 66
     1
 40
0.004291
 41
0.004291
  0
VERTEX
  8
PLAN_1
 62
     2
  6
CONTINUOUS
 10
0.314319
 20
-0.772583
  0
VERTEX
  8
PLAN_1
 62
     2
  6
CONTINUOUS
 10
0.314319
 20
3.740031
  0
SEQEND
  8
0
  0
POLYLINE
  8
PLAN_1
 62
     2
  6
CONTINUOUS
 66
     1
 40
0.004291
 41
0.004291
  0
VERTEX
  8
PLAN_1
 62
     2
  6
CONTINUOUS
 10
-1.774587
 20
3.520173
  0
VERTEX
  8
PLAN_1
 62
     2
  6
CONTINUOUS
 10
-1.774587
 20
3.740031
  0
SEQEND
  8
0
  0
POLYLINE
  8
PLAN_1
 62
     2
  6
CONTINUOUS
 66
     1
 40
0.004291
 41
0.004291
  0
VERTEX
  8
PLAN_1
 62
     2
  6
CONTINUOUS
 10
-1.947709
 20
0.455484
  0
VERTEX
  8
PLAN_1
 62
     2
  6
CONTINUOUS
 10
-1.947709
 20
1.624894
  0
SEQEND
  8
0
  0
POLYLINE
  8
PLAN_1
 62
     2
  6
CONTINUOUS
 66
     1
 40
0.004291
 41
0.004291
  0
VERTEX
  8
PLAN_1
 62
     2
  6
CONTINUOUS
 10
-1.947709
 20
1.832831
  0
VERTEX
  8
PLAN_1
 62
     2
  6
CONTINUOUS
 10
-1.947709
 20
3.740031
  0
SEQEND
  8
0
  0
ENDSEC
  0
EOF
