  0
SECTION
  2
HEADER
  9
$ACADVER
  1
AC1006
  9
$EXTMIN
 10
-2.236248
 20
-3.936516
  9
$EXTMAX
 10
2.229000
 20
3.940000
  9
$LTSCALE
 40
0.000394
  9
$PDMODE
 70
    35
  9
$PDSIZE
 40
0.000315
  0
ENDSEC
  0
SECTION
  2
TABLES
  0
TABLE
  2
LTYPE
 70
     9
  0
LTYPE
  2
CONTINUOUS
 70
    64
  3
Solid line
 72
    65
 73
     0
 40
0.000000
  0
LTYPE
  2
DASHED
 70
    64
  3
__ __ __ __ __ __ __ __ __ __ __ __ __ __ __
 72
    65
 73
     2
 40
0.000003
 49
0.000002
 49
-0.000001
  0
LTYPE
  2
HIDDEN
 70
    64
  3
 _ _ _ _ _ _ _ _ _ _ _ _ _ _ _ _ _ _ _ _ _ _
 72
    65
 73
     2
 40
0.000001
 49
0.000001
 49
-0.000000
  0
LTYPE
  2
CENTER
 70
    64
  3
____ _ ____ _ ____ _ ____ _ ____ _ ____ _ ____
 72
    65
 73
     4
 40
0.000008
 49
0.000005
 49
-0.000001
 49
0.000001
 49
-0.000001
  0
LTYPE
  2
PHANTOM
 70
    64
  3
_____ _ _ _____ _ _ _____ _ _ _____ _ _ ____
 72
    65
 73
     6
 40
0.000010
 49
0.000005
 49
-0.000001
 49
0.000001
 49
-0.000001
 49
0.000001
 49
-0.000001
  0
LTYPE
  2
DOT
 70
    64
  3
...............................................
 72
    65
 73
     2
 40
0.000001
 49
0.000000
 49
-0.000001
  0
LTYPE
  2
DASHDOT
 70
    64
  3
__ . __ . __ . __ . __ . __ . __ . __ . __ . __
 72
    65
 73
     4
 40
0.000004
 49
0.000002
 49
-0.000001
 49
0.000000
 49
-0.000001
  0
LTYPE
  2
BORDER
 70
    64
  3
__ __ . __ __ . __ __ . __ __ . __ __ . __ __
 72
    65
 73
     6
 40
0.000007
 49
0.000002
 49
-0.000001
 49
0.000002
 49
-0.000001
 49
0.000000
 49
-0.000001
  0
LTYPE
  2
DIVIDE
 70
    64
  3
__ . . __ . . __ . . __ . . __ . . __ . . __
 72
    65
 73
     6
 40
0.000005
 49
0.000002
 49
-0.000001
 49
0.000000
 49
-0.000001
 49
0.000000
 49
-0.000001
  0
LTYPE
  2
DOTDOT
 70
    64
  3
 . .  . .  . .  . .  . .  . . 
 72
    65
 73
     5
 40
0.000002
 49
-0.000001
 49
0.000000
 49
-0.000001
 49
0.000000
 49
-0.000001
  0
ENDTAB
  0
TABLE
  2
STYLE
 70
     0
  0
ENDTAB
  0
TABLE
  2
LAYER
 70
     3
  0
LAYER
  2
FOREGROUND
 70
    64
 62
     7
  6
CONTINUOUS
  0
LAYER
  2
BACKGROUND
 70
    65
 62
    -7
  6
CONTINUOUS
  0
LAYER
  2
PLAN_1
 70
    64
 62
     7
  6
CONTINUOUS
  0
ENDTAB
  0
ENDSEC
  0
SECTION
  2
ENTITIES
  0
POLYLINE
  8
PLAN_1
  6
CONTINUOUS
 66
     1
 40
0.003000
 41
0.003000
  0
VERTEX
  8
PLAN_1
  6
CONTINUOUS
 10
0.425280
 20
-3.902055
  0
VERTEX
  8
PLAN_1
  6
CONTINUOUS
 10
0.268732
 20
-3.902055
  0
VERTEX
  8
PLAN_1
  6
CONTINUOUS
 10
0.268732
 20
-3.879409
  0
VERTEX
  8
PLAN_1
  6
CONTINUOUS
 10
0.390819
 20
-3.726311
  0
VERTEX
  8
PLAN_1
  6
CONTINUOUS
 10
0.277594
 20
-3.726311
  0
VERTEX
  8
PLAN_1
  6
CONTINUOUS
 10
0.277594
 20
-3.702681
  0
VERTEX
  8
PLAN_1
  6
CONTINUOUS
 10
0.425280
 20
-3.702681
  0
VERTEX
  8
PLAN_1
  6
CONTINUOUS
 10
0.425280
 20
-3.725819
  0
VERTEX
  8
PLAN_1
  6
CONTINUOUS
 10
0.302701
 20
-3.877933
  0
VERTEX
  8
PLAN_1
  6
CONTINUOUS
 10
0.425280
 20
-3.877933
  0
VERTEX
  8
PLAN_1
  6
CONTINUOUS
 10
0.425280
 20
-3.902055
  0
SEQEND
  8
0
  0
POLYLINE
  8
PLAN_1
  6
CONTINUOUS
 66
     1
 40
0.003000
 41
0.003000
  0
VERTEX
  8
PLAN_1
  6
CONTINUOUS
 10
0.593146
 20
-3.762248
  0
VERTEX
  8
PLAN_1
  6
CONTINUOUS
 10
0.591177
 20
-3.756343
  0
VERTEX
  8
PLAN_1
  6
CONTINUOUS
 10
0.589209
 20
-3.750433
  0
VERTEX
  8
PLAN_1
  6
CONTINUOUS
 10
0.586748
 20
-3.745512
  0
VERTEX
  8
PLAN_1
  6
CONTINUOUS
 10
0.583791
 20
-3.741079
  0
VERTEX
  8
PLAN_1
  6
CONTINUOUS
 10
0.580346
 20
-3.737634
  0
VERTEX
  8
PLAN_1
  6
CONTINUOUS
 10
0.576902
 20
-3.734189
  0
VERTEX
  8
PLAN_1
  6
CONTINUOUS
 10
0.573457
 20
-3.731236
  0
VERTEX
  8
PLAN_1
  6
CONTINUOUS
 10
0.569516
 20
-3.728772
  0
VERTEX
  8
PLAN_1
  6
CONTINUOUS
 10
0.565087
 20
-3.726803
  0
VERTEX
  8
PLAN_1
  6
CONTINUOUS
 10
0.561150
 20
-3.724835
  0
VERTEX
  8
PLAN_1
  6
CONTINUOUS
 10
0.557209
 20
-3.723850
  0
VERTEX
  8
PLAN_1
  6
CONTINUOUS
 10
0.552780
 20
-3.722866
  0
VERTEX
  8
PLAN_1
  6
CONTINUOUS
 10
0.544902
 20
-3.721390
  0
VERTEX
  8
PLAN_1
  6
CONTINUOUS
 10
0.537028
 20
-3.720898
  0
VERTEX
  8
PLAN_1
  6
CONTINUOUS
 10
0.530626
 20
-3.721390
  0
VERTEX
  8
PLAN_1
  6
CONTINUOUS
 10
0.523736
 20
-3.722374
  0
VERTEX
  8
PLAN_1
  6
CONTINUOUS
 10
0.517827
 20
-3.723850
  0
VERTEX
  8
PLAN_1
  6
CONTINUOUS
 10
0.511921
 20
-3.726311
  0
VERTEX
  8
PLAN_1
  6
CONTINUOUS
 10
0.506012
 20
-3.728772
  0
VERTEX
  8
PLAN_1
  6
CONTINUOUS
 10
0.500598
 20
-3.732220
  0
VERTEX
  8
PLAN_1
  6
CONTINUOUS
 10
0.495673
 20
-3.736157
  0
VERTEX
  8
PLAN_1
  6
CONTINUOUS
 10
0.490752
 20
-3.741079
  0
VERTEX
  8
PLAN_1
  6
CONTINUOUS
 10
0.486815
 20
-3.746496
  0
VERTEX
  8
PLAN_1
  6
CONTINUOUS
 10
0.482874
 20
-3.752402
  0
VERTEX
  8
PLAN_1
  6
CONTINUOUS
 10
0.479921
 20
-3.758803
  0
VERTEX
  8
PLAN_1
  6
CONTINUOUS
 10
0.476969
 20
-3.765693
  0
VERTEX
  8
PLAN_1
  6
CONTINUOUS
 10
0.475000
 20
-3.773571
  0
VERTEX
  8
PLAN_1
  6
CONTINUOUS
 10
0.473028
 20
-3.781941
  0
VERTEX
  8
PLAN_1
  6
CONTINUOUS
 10
0.472043
 20
-3.790799
  0
VERTEX
  8
PLAN_1
  6
CONTINUOUS
 10
0.472043
 20
-3.800154
  0
VERTEX
  8
PLAN_1
  6
CONTINUOUS
 10
0.472043
 20
-3.809016
  0
VERTEX
  8
PLAN_1
  6
CONTINUOUS
 10
0.472535
 20
-3.817382
  0
VERTEX
  8
PLAN_1
  6
CONTINUOUS
 10
0.473520
 20
-3.825260
  0
VERTEX
  8
PLAN_1
  6
CONTINUOUS
 10
0.475492
 20
-3.833138
  0
VERTEX
  8
PLAN_1
  6
CONTINUOUS
 10
0.477461
 20
-3.840520
  0
VERTEX
  8
PLAN_1
  6
CONTINUOUS
 10
0.479921
 20
-3.846921
  0
VERTEX
  8
PLAN_1
  6
CONTINUOUS
 10
0.482874
 20
-3.853319
  0
VERTEX
  8
PLAN_1
  6
CONTINUOUS
 10
0.486319
 20
-3.859228
  0
VERTEX
  8
PLAN_1
  6
CONTINUOUS
 10
0.490752
 20
-3.864642
  0
VERTEX
  8
PLAN_1
  6
CONTINUOUS
 10
0.495181
 20
-3.869567
  0
VERTEX
  8
PLAN_1
  6
CONTINUOUS
 10
0.500598
 20
-3.873504
  0
VERTEX
  8
PLAN_1
  6
CONTINUOUS
 10
0.506996
 20
-3.876949
  0
VERTEX
  8
PLAN_1
  6
CONTINUOUS
 10
0.513398
 20
-3.879409
  0
VERTEX
  8
PLAN_1
  6
CONTINUOUS
 10
0.520780
 20
-3.881382
  0
VERTEX
  8
PLAN_1
  6
CONTINUOUS
 10
0.529150
 20
-3.882858
  0
VERTEX
  8
PLAN_1
  6
CONTINUOUS
 10
0.538012
 20
-3.883350
  0
VERTEX
  8
PLAN_1
  6
CONTINUOUS
 10
0.541457
 20
-3.883350
  0
VERTEX
  8
PLAN_1
  6
CONTINUOUS
 10
0.544902
 20
-3.882858
  0
VERTEX
  8
PLAN_1
  6
CONTINUOUS
 10
0.548843
 20
-3.882366
  0
VERTEX
  8
PLAN_1
  6
CONTINUOUS
 10
0.552780
 20
-3.881382
  0
VERTEX
  8
PLAN_1
  6
CONTINUOUS
 10
0.557209
 20
-3.879902
  0
VERTEX
  8
PLAN_1
  6
CONTINUOUS
 10
0.561150
 20
-3.877933
  0
VERTEX
  8
PLAN_1
  6
CONTINUOUS
 10
0.565579
 20
-3.875965
  0
VERTEX
  8
PLAN_1
  6
CONTINUOUS
 10
0.569516
 20
-3.873504
  0
VERTEX
  8
PLAN_1
  6
CONTINUOUS
 10
0.573457
 20
-3.870059
  0
VERTEX
  8
PLAN_1
  6
CONTINUOUS
 10
0.577394
 20
-3.866118
  0
VERTEX
  8
PLAN_1
  6
CONTINUOUS
 10
0.581331
 20
-3.861689
  0
VERTEX
  8
PLAN_1
  6
CONTINUOUS
 10
0.584776
 20
-3.856768
  0
VERTEX
  8
PLAN_1
  6
CONTINUOUS
 10
0.587732
 20
-3.850858
  0
VERTEX
  8
PLAN_1
  6
CONTINUOUS
 10
0.590685
 20
-3.843969
  0
VERTEX
  8
PLAN_1
  6
CONTINUOUS
 10
0.592654
 20
-3.836583
  0
VERTEX
  8
PLAN_1
  6
CONTINUOUS
 10
0.594622
 20
-3.828705
  0
VERTEX
  8
PLAN_1
  6
CONTINUOUS
 10
0.620713
 20
-3.828705
  0
VERTEX
  8
PLAN_1
  6
CONTINUOUS
 10
0.619728
 20
-3.835598
  0
VERTEX
  8
PLAN_1
  6
CONTINUOUS
 10
0.618252
 20
-3.841996
  0
VERTEX
  8
PLAN_1
  6
CONTINUOUS
 10
0.616776
 20
-3.847906
  0
VERTEX
  8
PLAN_1
  6
CONTINUOUS
 10
0.614807
 20
-3.853319
  0
VERTEX
  8
PLAN_1
  6
CONTINUOUS
 10
0.612346
 20
-3.858736
  0
VERTEX
  8
PLAN_1
  6
CONTINUOUS
 10
0.609882
 20
-3.863657
  0
VERTEX
  8
PLAN_1
  6
CONTINUOUS
 10
0.607421
 20
-3.868091
  0
VERTEX
  8
PLAN_1
  6
CONTINUOUS
 10
0.604961
 20
-3.872520
  0
VERTEX
  8
PLAN_1
  6
CONTINUOUS
 10
0.602008
 20
-3.876457
  0
VERTEX
  8
PLAN_1
  6
CONTINUOUS
 10
0.599055
 20
-3.879902
  0
VERTEX
  8
PLAN_1
  6
CONTINUOUS
 10
0.595606
 20
-3.883350
  0
VERTEX
  8
PLAN_1
  6
CONTINUOUS
 10
0.592654
 20
-3.886303
  0
VERTEX
  8
PLAN_1
  6
CONTINUOUS
 10
0.585764
 20
-3.891717
  0
VERTEX
  8
PLAN_1
  6
CONTINUOUS
 10
0.578870
 20
-3.896150
  0
VERTEX
  8
PLAN_1
  6
CONTINUOUS
 10
0.571976
 20
-3.899594
  0
VERTEX
  8
PLAN_1
  6
CONTINUOUS
 10
0.565087
 20
-3.902055
  0
VERTEX
  8
PLAN_1
  6
CONTINUOUS
 10
0.558193
 20
-3.904024
  0
VERTEX
  8
PLAN_1
  6
CONTINUOUS
 10
0.552287
 20
-3.905504
  0
VERTEX
  8
PLAN_1
  6
CONTINUOUS
 10
0.541457
 20
-3.906980
  0
VERTEX
  8
PLAN_1
  6
CONTINUOUS
 10
0.533579
 20
-3.906980
  0
VERTEX
  8
PLAN_1
  6
CONTINUOUS
 10
0.525213
 20
-3.906980
  0
VERTEX
  8
PLAN_1
  6
CONTINUOUS
 10
0.516843
 20
-3.905504
  0
VERTEX
  8
PLAN_1
  6
CONTINUOUS
 10
0.508472
 20
-3.904024
  0
VERTEX
  8
PLAN_1
  6
CONTINUOUS
 10
0.500598
 20
-3.901071
  0
VERTEX
  8
PLAN_1
  6
CONTINUOUS
 10
0.492720
 20
-3.898118
  0
VERTEX
  8
PLAN_1
  6
CONTINUOUS
 10
0.485335
 20
-3.893689
  0
VERTEX
  8
PLAN_1
  6
CONTINUOUS
 10
0.478445
 20
-3.888764
  0
VERTEX
  8
PLAN_1
  6
CONTINUOUS
 10
0.472043
 20
-3.882858
  0
VERTEX
  8
PLAN_1
  6
CONTINUOUS
 10
0.469091
 20
-3.879409
  0
VERTEX
  8
PLAN_1
  6
CONTINUOUS
 10
0.466138
 20
-3.875965
  0
VERTEX
  8
PLAN_1
  6
CONTINUOUS
 10
0.463185
 20
-3.872520
  0
VERTEX
  8
PLAN_1
  6
CONTINUOUS
 10
0.460720
 20
-3.868091
  0
VERTEX
  8
PLAN_1
  6
CONTINUOUS
 10
0.458260
 20
-3.864150
  0
VERTEX
  8
PLAN_1
  6
CONTINUOUS
 10
0.455799
 20
-3.859720
  0
VERTEX
  8
PLAN_1
  6
CONTINUOUS
 10
0.453831
 20
-3.854795
  0
VERTEX
  8
PLAN_1
  6
CONTINUOUS
 10
0.451862
 20
-3.849874
  0
VERTEX
  8
PLAN_1
  6
CONTINUOUS
 10
0.449894
 20
-3.844953
  0
VERTEX
  8
PLAN_1
  6
CONTINUOUS
 10
0.448413
 20
-3.839535
  0
VERTEX
  8
PLAN_1
  6
CONTINUOUS
 10
0.447429
 20
-3.833630
  0
VERTEX
  8
PLAN_1
  6
CONTINUOUS
 10
0.445953
 20
-3.827720
  0
VERTEX
  8
PLAN_1
  6
CONTINUOUS
 10
0.445461
 20
-3.821323
  0
VERTEX
  8
PLAN_1
  6
CONTINUOUS
 10
0.444476
 20
-3.814921
  0
VERTEX
  8
PLAN_1
  6
CONTINUOUS
 10
0.444476
 20
-3.808031
  0
VERTEX
  8
PLAN_1
  6
CONTINUOUS
 10
0.443984
 20
-3.801138
  0
VERTEX
  8
PLAN_1
  6
CONTINUOUS
 10
0.444476
 20
-3.789815
  0
VERTEX
  8
PLAN_1
  6
CONTINUOUS
 10
0.445953
 20
-3.778984
  0
VERTEX
  8
PLAN_1
  6
CONTINUOUS
 10
0.447921
 20
-3.768650
  0
VERTEX
  8
PLAN_1
  6
CONTINUOUS
 10
0.450386
 20
-3.758803
  0
VERTEX
  8
PLAN_1
  6
CONTINUOUS
 10
0.453831
 20
-3.749941
  0
VERTEX
  8
PLAN_1
  6
CONTINUOUS
 10
0.458260
 20
-3.741079
  0
VERTEX
  8
PLAN_1
  6
CONTINUOUS
 10
0.463185
 20
-3.733205
  0
VERTEX
  8
PLAN_1
  6
CONTINUOUS
 10
0.469091
 20
-3.726311
  0
VERTEX
  8
PLAN_1
  6
CONTINUOUS
 10
0.472043
 20
-3.722866
  0
VERTEX
  8
PLAN_1
  6
CONTINUOUS
 10
0.475000
 20
-3.719913
  0
VERTEX
  8
PLAN_1
  6
CONTINUOUS
 10
0.478445
 20
-3.716465
  0
VERTEX
  8
PLAN_1
  6
CONTINUOUS
 10
0.482382
 20
-3.714004
  0
VERTEX
  8
PLAN_1
  6
CONTINUOUS
 10
0.485827
 20
-3.711543
  0
VERTEX
  8
PLAN_1
  6
CONTINUOUS
 10
0.489768
 20
-3.709083
  0
VERTEX
  8
PLAN_1
  6
CONTINUOUS
 10
0.493705
 20
-3.706622
  0
VERTEX
  8
PLAN_1
  6
CONTINUOUS
 10
0.498134
 20
-3.704650
  0
VERTEX
  8
PLAN_1
  6
CONTINUOUS
 10
0.502567
 20
-3.703173
  0
VERTEX
  8
PLAN_1
  6
CONTINUOUS
 10
0.506996
 20
-3.701697
  0
VERTEX
  8
PLAN_1
  6
CONTINUOUS
 10
0.511429
 20
-3.700220
  0
VERTEX
  8
PLAN_1
  6
CONTINUOUS
 10
0.516350
 20
-3.699236
  0
VERTEX
  8
PLAN_1
  6
CONTINUOUS
 10
0.521272
 20
-3.698252
  0
VERTEX
  8
PLAN_1
  6
CONTINUOUS
 10
0.526689
 20
-3.697760
  0
VERTEX
  8
PLAN_1
  6
CONTINUOUS
 10
0.531610
 20
-3.697268
  0
VERTEX
  8
PLAN_1
  6
CONTINUOUS
 10
0.537028
 20
-3.697268
  0
VERTEX
  8
PLAN_1
  6
CONTINUOUS
 10
0.546378
 20
-3.697760
  0
VERTEX
  8
PLAN_1
  6
CONTINUOUS
 10
0.555240
 20
-3.698744
  0
VERTEX
  8
PLAN_1
  6
CONTINUOUS
 10
0.563610
 20
-3.700220
  0
VERTEX
  8
PLAN_1
  6
CONTINUOUS
 10
0.570992
 20
-3.702681
  0
VERTEX
  8
PLAN_1
  6
CONTINUOUS
 10
0.577886
 20
-3.705634
  0
VERTEX
  8
PLAN_1
  6
CONTINUOUS
 10
0.584776
 20
-3.709083
  0
VERTEX
  8
PLAN_1
  6
CONTINUOUS
 10
0.590685
 20
-3.713020
  0
VERTEX
  8
PLAN_1
  6
CONTINUOUS
 10
0.595606
 20
-3.717449
  0
VERTEX
  8
PLAN_1
  6
CONTINUOUS
 10
0.600531
 20
-3.722374
  0
VERTEX
  8
PLAN_1
  6
CONTINUOUS
 10
0.604961
 20
-3.727295
  0
VERTEX
  8
PLAN_1
  6
CONTINUOUS
 10
0.608406
 20
-3.732713
  0
VERTEX
  8
PLAN_1
  6
CONTINUOUS
 10
0.611854
 20
-3.738126
  0
VERTEX
  8
PLAN_1
  6
CONTINUOUS
 10
0.614315
 20
-3.744035
  0
VERTEX
  8
PLAN_1
  6
CONTINUOUS
 10
0.616283
 20
-3.749941
  0
VERTEX
  8
PLAN_1
  6
CONTINUOUS
 10
0.617760
 20
-3.756343
  0
VERTEX
  8
PLAN_1
  6
CONTINUOUS
 10
0.619236
 20
-3.762248
  0
VERTEX
  8
PLAN_1
  6
CONTINUOUS
 10
0.593146
 20
-3.762248
  0
SEQEND
  8
0
  0
POLYLINE
  8
PLAN_1
  6
CONTINUOUS
 66
     1
 40
0.003000
 41
0.003000
  0
VERTEX
  8
PLAN_1
  6
CONTINUOUS
 10
0.680280
 20
-3.902055
  0
VERTEX
  8
PLAN_1
  6
CONTINUOUS
 10
0.653697
 20
-3.902055
  0
VERTEX
  8
PLAN_1
  6
CONTINUOUS
 10
0.653697
 20
-3.702681
  0
VERTEX
  8
PLAN_1
  6
CONTINUOUS
 10
0.680280
 20
-3.702681
  0
VERTEX
  8
PLAN_1
  6
CONTINUOUS
 10
0.680280
 20
-3.799169
  0
VERTEX
  8
PLAN_1
  6
CONTINUOUS
 10
0.776768
 20
-3.702681
  0
VERTEX
  8
PLAN_1
  6
CONTINUOUS
 10
0.814181
 20
-3.702681
  0
VERTEX
  8
PLAN_1
  6
CONTINUOUS
 10
0.730984
 20
-3.782925
  0
VERTEX
  8
PLAN_1
  6
CONTINUOUS
 10
0.816642
 20
-3.902055
  0
VERTEX
  8
PLAN_1
  6
CONTINUOUS
 10
0.781689
 20
-3.902055
  0
VERTEX
  8
PLAN_1
  6
CONTINUOUS
 10
0.711787
 20
-3.802122
  0
VERTEX
  8
PLAN_1
  6
CONTINUOUS
 10
0.680280
 20
-3.831661
  0
VERTEX
  8
PLAN_1
  6
CONTINUOUS
 10
0.680280
 20
-3.902055
  0
SEQEND
  8
0
  0
POLYLINE
  8
PLAN_1
  6
CONTINUOUS
 66
     1
 40
0.003000
 41
0.003000
  0
VERTEX
  8
PLAN_1
  6
CONTINUOUS
 10
0.840272
 20
-3.702681
  0
VERTEX
  8
PLAN_1
  6
CONTINUOUS
 10
0.921008
 20
-3.702681
  0
VERTEX
  8
PLAN_1
  6
CONTINUOUS
 10
0.930358
 20
-3.703173
  0
VERTEX
  8
PLAN_1
  6
CONTINUOUS
 10
0.939220
 20
-3.704157
  0
VERTEX
  8
PLAN_1
  6
CONTINUOUS
 10
0.948083
 20
-3.706622
  0
VERTEX
  8
PLAN_1
  6
CONTINUOUS
 10
0.955957
 20
-3.709575
  0
VERTEX
  8
PLAN_1
  6
CONTINUOUS
 10
0.963343
 20
-3.713512
  0
VERTEX
  8
PLAN_1
  6
CONTINUOUS
 10
0.970236
 20
-3.717941
  0
VERTEX
  8
PLAN_1
  6
CONTINUOUS
 10
0.976634
 20
-3.723358
  0
VERTEX
  8
PLAN_1
  6
CONTINUOUS
 10
0.982047
 20
-3.729264
  0
VERTEX
  8
PLAN_1
  6
CONTINUOUS
 10
0.987465
 20
-3.736157
  0
VERTEX
  8
PLAN_1
  6
CONTINUOUS
 10
0.991894
 20
-3.743543
  0
VERTEX
  8
PLAN_1
  6
CONTINUOUS
 10
0.995835
 20
-3.751417
  0
VERTEX
  8
PLAN_1
  6
CONTINUOUS
 10
0.998787
 20
-3.759787
  0
VERTEX
  8
PLAN_1
  6
CONTINUOUS
 10
1.001248
 20
-3.769142
  0
VERTEX
  8
PLAN_1
  6
CONTINUOUS
 10
1.003217
 20
-3.778984
  0
VERTEX
  8
PLAN_1
  6
CONTINUOUS
 10
1.004201
 20
-3.788831
  0
VERTEX
  8
PLAN_1
  6
CONTINUOUS
 10
1.004693
 20
-3.799169
  0
VERTEX
  8
PLAN_1
  6
CONTINUOUS
 10
1.004693
 20
-3.808031
  0
VERTEX
  8
PLAN_1
  6
CONTINUOUS
 10
1.003709
 20
-3.816398
  0
VERTEX
  8
PLAN_1
  6
CONTINUOUS
 10
1.002724
 20
-3.825260
  0
VERTEX
  8
PLAN_1
  6
CONTINUOUS
 10
1.000756
 20
-3.834122
  0
VERTEX
  8
PLAN_1
  6
CONTINUOUS
 10
0.998295
 20
-3.842984
  0
VERTEX
  8
PLAN_1
  6
CONTINUOUS
 10
0.995343
 20
-3.851350
  0
VERTEX
  8
PLAN_1
  6
CONTINUOUS
 10
0.991402
 20
-3.859720
  0
VERTEX
  8
PLAN_1
  6
CONTINUOUS
 10
0.986972
 20
-3.867598
  0
VERTEX
  8
PLAN_1
  6
CONTINUOUS
 10
0.984020
 20
-3.871043
  0
VERTEX
  8
PLAN_1
  6
CONTINUOUS
 10
0.981555
 20
-3.874488
  0
VERTEX
  8
PLAN_1
  6
CONTINUOUS
 10
0.978602
 20
-3.877933
  0
VERTEX
  8
PLAN_1
  6
CONTINUOUS
 10
0.975650
 20
-3.881382
  0
VERTEX
  8
PLAN_1
  6
CONTINUOUS
 10
0.972205
 20
-3.884335
  0
VERTEX
  8
PLAN_1
  6
CONTINUOUS
 10
0.968264
 20
-3.887287
  0
VERTEX
  8
PLAN_1
  6
CONTINUOUS
 10
0.964819
 20
-3.889748
  0
VERTEX
  8
PLAN_1
  6
CONTINUOUS
 10
0.960882
 20
-3.892209
  0
VERTEX
  8
PLAN_1
  6
CONTINUOUS
 10
0.956449
 20
-3.894181
  0
VERTEX
  8
PLAN_1
  6
CONTINUOUS
 10
0.952020
 20
-3.896150
  0
VERTEX
  8
PLAN_1
  6
CONTINUOUS
 10
0.947098
 20
-3.897626
  0
VERTEX
  8
PLAN_1
  6
CONTINUOUS
 10
0.942173
 20
-3.899102
  0
VERTEX
  8
PLAN_1
  6
CONTINUOUS
 10
0.937252
 20
-3.900579
  0
VERTEX
  8
PLAN_1
  6
CONTINUOUS
 10
0.931343
 20
-3.901071
  0
VERTEX
  8
PLAN_1
  6
CONTINUOUS
 10
0.925929
 20
-3.901563
  0
VERTEX
  8
PLAN_1
  6
CONTINUOUS
 10
0.920020
 20
-3.902055
  0
VERTEX
  8
PLAN_1
  6
CONTINUOUS
 10
0.840272
 20
-3.902055
  0
VERTEX
  8
PLAN_1
  6
CONTINUOUS
 10
0.840272
 20
-3.702681
  0
SEQEND
  8
0
  0
POLYLINE
  8
PLAN_1
  6
CONTINUOUS
 66
     1
 40
0.003000
 41
0.003000
  0
VERTEX
  8
PLAN_1
  6
CONTINUOUS
 10
0.866854
 20
-3.878917
  0
VERTEX
  8
PLAN_1
  6
CONTINUOUS
 10
0.919035
 20
-3.878917
  0
VERTEX
  8
PLAN_1
  6
CONTINUOUS
 10
0.925437
 20
-3.878425
  0
VERTEX
  8
PLAN_1
  6
CONTINUOUS
 10
0.931835
 20
-3.877441
  0
VERTEX
  8
PLAN_1
  6
CONTINUOUS
 10
0.937744
 20
-3.875965
  0
VERTEX
  8
PLAN_1
  6
CONTINUOUS
 10
0.943157
 20
-3.873504
  0
VERTEX
  8
PLAN_1
  6
CONTINUOUS
 10
0.948083
 20
-3.871043
  0
VERTEX
  8
PLAN_1
  6
CONTINUOUS
 10
0.953004
 20
-3.867598
  0
VERTEX
  8
PLAN_1
  6
CONTINUOUS
 10
0.957433
 20
-3.863165
  0
VERTEX
  8
PLAN_1
  6
CONTINUOUS
 10
0.961374
 20
-3.858736
  0
VERTEX
  8
PLAN_1
  6
CONTINUOUS
 10
0.964819
 20
-3.853319
  0
VERTEX
  8
PLAN_1
  6
CONTINUOUS
 10
0.967772
 20
-3.847906
  0
VERTEX
  8
PLAN_1
  6
CONTINUOUS
 10
0.970728
 20
-3.841504
  0
VERTEX
  8
PLAN_1
  6
CONTINUOUS
 10
0.972697
 20
-3.834614
  0
VERTEX
  8
PLAN_1
  6
CONTINUOUS
 10
0.974665
 20
-3.826736
  0
VERTEX
  8
PLAN_1
  6
CONTINUOUS
 10
0.976142
 20
-3.818862
  0
VERTEX
  8
PLAN_1
  6
CONTINUOUS
 10
0.976634
 20
-3.810000
  0
VERTEX
  8
PLAN_1
  6
CONTINUOUS
 10
0.977126
 20
-3.801138
  0
VERTEX
  8
PLAN_1
  6
CONTINUOUS
 10
0.976634
 20
-3.791783
  0
VERTEX
  8
PLAN_1
  6
CONTINUOUS
 10
0.975650
 20
-3.783417
  0
VERTEX
  8
PLAN_1
  6
CONTINUOUS
 10
0.974665
 20
-3.775539
  0
VERTEX
  8
PLAN_1
  6
CONTINUOUS
 10
0.972697
 20
-3.768154
  0
VERTEX
  8
PLAN_1
  6
CONTINUOUS
 10
0.970728
 20
-3.761264
  0
VERTEX
  8
PLAN_1
  6
CONTINUOUS
 10
0.967772
 20
-3.755354
  0
VERTEX
  8
PLAN_1
  6
CONTINUOUS
 10
0.964327
 20
-3.749449
  0
VERTEX
  8
PLAN_1
  6
CONTINUOUS
 10
0.960882
 20
-3.744528
  0
VERTEX
  8
PLAN_1
  6
CONTINUOUS
 10
0.956941
 20
-3.740094
  0
VERTEX
  8
PLAN_1
  6
CONTINUOUS
 10
0.952020
 20
-3.736157
  0
VERTEX
  8
PLAN_1
  6
CONTINUOUS
 10
0.947591
 20
-3.733205
  0
VERTEX
  8
PLAN_1
  6
CONTINUOUS
 10
0.942173
 20
-3.730248
  0
VERTEX
  8
PLAN_1
  6
CONTINUOUS
 10
0.936268
 20
-3.728280
  0
VERTEX
  8
PLAN_1
  6
CONTINUOUS
 10
0.930358
 20
-3.726803
  0
VERTEX
  8
PLAN_1
  6
CONTINUOUS
 10
0.923961
 20
-3.725819
  0
VERTEX
  8
PLAN_1
  6
CONTINUOUS
 10
0.917067
 20
-3.725327
  0
VERTEX
  8
PLAN_1
  6
CONTINUOUS
 10
0.866854
 20
-3.725327
  0
VERTEX
  8
PLAN_1
  6
CONTINUOUS
 10
0.866854
 20
-3.878917
  0
SEQEND
  8
0
  0
POLYLINE
  8
PLAN_1
  6
CONTINUOUS
 66
     1
 40
0.003000
 41
0.003000
  0
VERTEX
  8
PLAN_1
  6
CONTINUOUS
 10
1.134657
 20
-3.854303
  0
VERTEX
  8
PLAN_1
  6
CONTINUOUS
 10
1.134657
 20
-3.902055
  0
VERTEX
  8
PLAN_1
  6
CONTINUOUS
 10
1.110043
 20
-3.902055
  0
VERTEX
  8
PLAN_1
  6
CONTINUOUS
 10
1.110043
 20
-3.854303
  0
VERTEX
  8
PLAN_1
  6
CONTINUOUS
 10
1.024878
 20
-3.854303
  0
VERTEX
  8
PLAN_1
  6
CONTINUOUS
 10
1.024878
 20
-3.830677
  0
VERTEX
  8
PLAN_1
  6
CONTINUOUS
 10
1.114472
 20
-3.706622
  0
VERTEX
  8
PLAN_1
  6
CONTINUOUS
 10
1.134657
 20
-3.706622
  0
VERTEX
  8
PLAN_1
  6
CONTINUOUS
 10
1.134657
 20
-3.833138
  0
VERTEX
  8
PLAN_1
  6
CONTINUOUS
 10
1.163209
 20
-3.833138
  0
VERTEX
  8
PLAN_1
  6
CONTINUOUS
 10
1.163209
 20
-3.854303
  0
VERTEX
  8
PLAN_1
  6
CONTINUOUS
 10
1.134657
 20
-3.854303
  0
SEQEND
  8
0
  0
SOLID
  8
PLAN_1
 10
1.047524
 20
-3.833138
 11
1.110043
 21
-3.833138
 12
1.109551
 22
-3.744528
 13
1.110043
 23
-3.744528
  0
POLYLINE
  8
PLAN_1
  6
CONTINUOUS
 66
     1
 40
0.003000
 41
0.003000
  0
VERTEX
  8
PLAN_1
  6
CONTINUOUS
 10
1.047524
 20
-3.833138
  0
VERTEX
  8
PLAN_1
  6
CONTINUOUS
 10
1.110043
 20
-3.833138
  0
VERTEX
  8
PLAN_1
  6
CONTINUOUS
 10
1.110043
 20
-3.744528
  0
VERTEX
  8
PLAN_1
  6
CONTINUOUS
 10
1.109551
 20
-3.744528
  0
VERTEX
  8
PLAN_1
  6
CONTINUOUS
 10
1.047524
 20
-3.833138
  0
SEQEND
  8
0
  0
POLYLINE
  8
PLAN_1
  6
CONTINUOUS
 66
     1
 40
0.003000
 41
0.003000
  0
VERTEX
  8
PLAN_1
  6
CONTINUOUS
 10
1.184378
 20
-3.773571
  0
VERTEX
  8
PLAN_1
  6
CONTINUOUS
 10
1.184378
 20
-3.767169
  0
VERTEX
  8
PLAN_1
  6
CONTINUOUS
 10
1.185362
 20
-3.760280
  0
VERTEX
  8
PLAN_1
  6
CONTINUOUS
 10
1.186346
 20
-3.754370
  0
VERTEX
  8
PLAN_1
  6
CONTINUOUS
 10
1.188315
 20
-3.747972
  0
VERTEX
  8
PLAN_1
  6
CONTINUOUS
 10
1.190283
 20
-3.742555
  0
VERTEX
  8
PLAN_1
  6
CONTINUOUS
 10
1.193236
 20
-3.736650
  0
VERTEX
  8
PLAN_1
  6
CONTINUOUS
 10
1.196193
 20
-3.731728
  0
VERTEX
  8
PLAN_1
  6
CONTINUOUS
 10
1.200130
 20
-3.726803
  0
VERTEX
  8
PLAN_1
  6
CONTINUOUS
 10
1.204559
 20
-3.722374
  0
VERTEX
  8
PLAN_1
  6
CONTINUOUS
 10
1.208992
 20
-3.718433
  0
VERTEX
  8
PLAN_1
  6
CONTINUOUS
 10
1.213913
 20
-3.714988
  0
VERTEX
  8
PLAN_1
  6
CONTINUOUS
 10
1.219823
 20
-3.712035
  0
VERTEX
  8
PLAN_1
  6
CONTINUOUS
 10
1.225728
 20
-3.710067
  0
VERTEX
  8
PLAN_1
  6
CONTINUOUS
 10
1.232622
 20
-3.708098
  0
VERTEX
  8
PLAN_1
  6
CONTINUOUS
 10
1.239512
 20
-3.707114
  0
VERTEX
  8
PLAN_1
  6
CONTINUOUS
 10
1.246898
 20
-3.706622
  0
VERTEX
  8
PLAN_1
  6
CONTINUOUS
 10
1.252311
 20
-3.707114
  0
VERTEX
  8
PLAN_1
  6
CONTINUOUS
 10
1.257728
 20
-3.707606
  0
VERTEX
  8
PLAN_1
  6
CONTINUOUS
 10
1.263142
 20
-3.708098
  0
VERTEX
  8
PLAN_1
  6
CONTINUOUS
 10
1.267571
 20
-3.709083
  0
VERTEX
  8
PLAN_1
  6
CONTINUOUS
 10
1.272004
 20
-3.710559
  0
VERTEX
  8
PLAN_1
  6
CONTINUOUS
 10
1.276433
 20
-3.712528
  0
VERTEX
  8
PLAN_1
  6
CONTINUOUS
 10
1.280374
 20
-3.714496
  0
VERTEX
  8
PLAN_1
  6
CONTINUOUS
 10
1.283819
 20
-3.716465
  0
VERTEX
  8
PLAN_1
  6
CONTINUOUS
 10
1.287264
 20
-3.718929
  0
VERTEX
  8
PLAN_1
  6
CONTINUOUS
 10
1.290217
 20
-3.721390
  0
VERTEX
  8
PLAN_1
  6
CONTINUOUS
 10
1.293173
 20
-3.723850
  0
VERTEX
  8
PLAN_1
  6
CONTINUOUS
 10
1.295634
 20
-3.726803
  0
VERTEX
  8
PLAN_1
  6
CONTINUOUS
 10
1.300555
 20
-3.733205
  0
VERTEX
  8
PLAN_1
  6
CONTINUOUS
 10
1.304492
 20
-3.740094
  0
VERTEX
  8
PLAN_1
  6
CONTINUOUS
 10
1.307449
 20
-3.747480
  0
VERTEX
  8
PLAN_1
  6
CONTINUOUS
 10
1.309909
 20
-3.754862
  0
VERTEX
  8
PLAN_1
  6
CONTINUOUS
 10
1.311878
 20
-3.762248
  0
VERTEX
  8
PLAN_1
  6
CONTINUOUS
 10
1.313354
 20
-3.769634
  0
VERTEX
  8
PLAN_1
  6
CONTINUOUS
 10
1.314339
 20
-3.777016
  0
VERTEX
  8
PLAN_1
  6
CONTINUOUS
 10
1.314831
 20
-3.784402
  0
VERTEX
  8
PLAN_1
  6
CONTINUOUS
 10
1.315323
 20
-3.790799
  0
VERTEX
  8
PLAN_1
  6
CONTINUOUS
 10
1.315323
 20
-3.797201
  0
VERTEX
  8
PLAN_1
  6
CONTINUOUS
 10
1.314831
 20
-3.808031
  0
VERTEX
  8
PLAN_1
  6
CONTINUOUS
 10
1.313354
 20
-3.823291
  0
VERTEX
  8
PLAN_1
  6
CONTINUOUS
 10
1.312370
 20
-3.831661
  0
VERTEX
  8
PLAN_1
  6
CONTINUOUS
 10
1.310402
 20
-3.841012
  0
VERTEX
  8
PLAN_1
  6
CONTINUOUS
 10
1.307941
 20
-3.850366
  0
VERTEX
  8
PLAN_1
  6
CONTINUOUS
 10
1.304984
 20
-3.859720
  0
VERTEX
  8
PLAN_1
  6
CONTINUOUS
 10
1.303016
 20
-3.864642
  0
VERTEX
  8
PLAN_1
  6
CONTINUOUS
 10
1.301047
 20
-3.869075
  0
VERTEX
  8
PLAN_1
  6
CONTINUOUS
 10
1.298587
 20
-3.873504
  0
VERTEX
  8
PLAN_1
  6
CONTINUOUS
 10
1.296126
 20
-3.877933
  0
VERTEX
  8
PLAN_1
  6
CONTINUOUS
 10
1.293665
 20
-3.881874
  0
VERTEX
  8
PLAN_1
  6
CONTINUOUS
 10
1.290709
 20
-3.885811
  0
VERTEX
  8
PLAN_1
  6
CONTINUOUS
 10
1.287264
 20
-3.889256
  0
VERTEX
  8
PLAN_1
  6
CONTINUOUS
 10
1.283819
 20
-3.892705
  0
VERTEX
  8
PLAN_1
  6
CONTINUOUS
 10
1.279878
 20
-3.896150
  0
VERTEX
  8
PLAN_1
  6
CONTINUOUS
 10
1.275941
 20
-3.898610
  0
VERTEX
  8
PLAN_1
  6
CONTINUOUS
 10
1.271512
 20
-3.901071
  0
VERTEX
  8
PLAN_1
  6
CONTINUOUS
 10
1.266587
 20
-3.903039
  0
VERTEX
  8
PLAN_1
  6
CONTINUOUS
 10
1.261665
 20
-3.905012
  0
VERTEX
  8
PLAN_1
  6
CONTINUOUS
 10
1.256252
 20
-3.905996
  0
VERTEX
  8
PLAN_1
  6
CONTINUOUS
 10
1.250343
 20
-3.906980
  0
VERTEX
  8
PLAN_1
  6
CONTINUOUS
 10
1.244437
 20
-3.906980
  0
VERTEX
  8
PLAN_1
  6
CONTINUOUS
 10
1.236067
 20
-3.906488
  0
VERTEX
  8
PLAN_1
  6
CONTINUOUS
 10
1.228681
 20
-3.905504
  0
VERTEX
  8
PLAN_1
  6
CONTINUOUS
 10
1.221791
 20
-3.904024
  0
VERTEX
  8
PLAN_1
  6
CONTINUOUS
 10
1.215882
 20
-3.901563
  0
VERTEX
  8
PLAN_1
  6
CONTINUOUS
 10
1.210469
 20
-3.898610
  0
VERTEX
  8
PLAN_1
  6
CONTINUOUS
 10
1.206039
 20
-3.895657
  0
VERTEX
  8
PLAN_1
  6
CONTINUOUS
 10
1.201606
 20
-3.892209
  0
VERTEX
  8
PLAN_1
  6
CONTINUOUS
 10
1.198161
 20
-3.888272
  0
VERTEX
  8
PLAN_1
  6
CONTINUOUS
 10
1.195209
 20
-3.883843
  0
VERTEX
  8
PLAN_1
  6
CONTINUOUS
 10
1.192744
 20
-3.879902
  0
VERTEX
  8
PLAN_1
  6
CONTINUOUS
 10
1.190776
 20
-3.875472
  0
VERTEX
  8
PLAN_1
  6
CONTINUOUS
 10
1.188807
 20
-3.871043
  0
VERTEX
  8
PLAN_1
  6
CONTINUOUS
 10
1.187823
 20
-3.866610
  0
VERTEX
  8
PLAN_1
  6
CONTINUOUS
 10
1.186839
 20
-3.862673
  0
VERTEX
  8
PLAN_1
  6
CONTINUOUS
 10
1.186346
 20
-3.858736
  0
VERTEX
  8
PLAN_1
  6
CONTINUOUS
 10
1.186346
 20
-3.854795
  0
VERTEX
  8
PLAN_1
  6
CONTINUOUS
 10
1.210961
 20
-3.854795
  0
VERTEX
  8
PLAN_1
  6
CONTINUOUS
 10
1.210961
 20
-3.858736
  0
VERTEX
  8
PLAN_1
  6
CONTINUOUS
 10
1.211945
 20
-3.862181
  0
VERTEX
  8
PLAN_1
  6
CONTINUOUS
 10
1.212437
 20
-3.865134
  0
VERTEX
  8
PLAN_1
  6
CONTINUOUS
 10
1.213913
 20
-3.868091
  0
VERTEX
  8
PLAN_1
  6
CONTINUOUS
 10
1.214898
 20
-3.871043
  0
VERTEX
  8
PLAN_1
  6
CONTINUOUS
 10
1.216374
 20
-3.873504
  0
VERTEX
  8
PLAN_1
  6
CONTINUOUS
 10
1.218346
 20
-3.875965
  0
VERTEX
  8
PLAN_1
  6
CONTINUOUS
 10
1.220315
 20
-3.878425
  0
VERTEX
  8
PLAN_1
  6
CONTINUOUS
 10
1.222776
 20
-3.880398
  0
VERTEX
  8
PLAN_1
  6
CONTINUOUS
 10
1.224744
 20
-3.881874
  0
VERTEX
  8
PLAN_1
  6
CONTINUOUS
 10
1.227697
 20
-3.883350
  0
VERTEX
  8
PLAN_1
  6
CONTINUOUS
 10
1.230654
 20
-3.884827
  0
VERTEX
  8
PLAN_1
  6
CONTINUOUS
 10
1.233606
 20
-3.885811
  0
VERTEX
  8
PLAN_1
  6
CONTINUOUS
 10
1.236559
 20
-3.886303
  0
VERTEX
  8
PLAN_1
  6
CONTINUOUS
 10
1.240004
 20
-3.886795
  0
VERTEX
  8
PLAN_1
  6
CONTINUOUS
 10
1.243945
 20
-3.886795
  0
VERTEX
  8
PLAN_1
  6
CONTINUOUS
 10
1.248866
 20
-3.886795
  0
VERTEX
  8
PLAN_1
  6
CONTINUOUS
 10
1.253295
 20
-3.885811
  0
VERTEX
  8
PLAN_1
  6
CONTINUOUS
 10
1.257728
 20
-3.884335
  0
VERTEX
  8
PLAN_1
  6
CONTINUOUS
 10
1.261665
 20
-3.882366
  0
VERTEX
  8
PLAN_1
  6
CONTINUOUS
 10
1.265110
 20
-3.879902
  0
VERTEX
  8
PLAN_1
  6
CONTINUOUS
 10
1.268559
 20
-3.876949
  0
VERTEX
  8
PLAN_1
  6
CONTINUOUS
 10
1.272004
 20
-3.873504
  0
VERTEX
  8
PLAN_1
  6
CONTINUOUS
 10
1.274957
 20
-3.869075
  0
VERTEX
  8
PLAN_1
  6
CONTINUOUS
 10
1.277909
 20
-3.864642
  0
VERTEX
  8
PLAN_1
  6
CONTINUOUS
 10
1.280374
 20
-3.859228
  0
VERTEX
  8
PLAN_1
  6
CONTINUOUS
 10
1.282343
 20
-3.853319
  0
VERTEX
  8
PLAN_1
  6
CONTINUOUS
 10
1.284803
 20
-3.846429
  0
VERTEX
  8
PLAN_1
  6
CONTINUOUS
 10
1.286280
 20
-3.839535
  0
VERTEX
  8
PLAN_1
  6
CONTINUOUS
 10
1.288248
 20
-3.831661
  0
VERTEX
  8
PLAN_1
  6
CONTINUOUS
 10
1.289724
 20
-3.822799
  0
VERTEX
  8
PLAN_1
  6
CONTINUOUS
 10
1.290709
 20
-3.813937
  0
VERTEX
  8
PLAN_1
  6
CONTINUOUS
 10
1.290217
 20
-3.813445
  0
VERTEX
  8
PLAN_1
  6
CONTINUOUS
 10
1.288740
 20
-3.815906
  0
VERTEX
  8
PLAN_1
  6
CONTINUOUS
 10
1.286772
 20
-3.818370
  0
VERTEX
  8
PLAN_1
  6
CONTINUOUS
 10
1.284803
 20
-3.820831
  0
VERTEX
  8
PLAN_1
  6
CONTINUOUS
 10
1.282835
 20
-3.823291
  0
VERTEX
  8
PLAN_1
  6
CONTINUOUS
 10
1.277417
 20
-3.827228
  0
VERTEX
  8
PLAN_1
  6
CONTINUOUS
 10
1.272004
 20
-3.830677
  0
VERTEX
  8
PLAN_1
  6
CONTINUOUS
 10
1.265602
 20
-3.833138
  0
VERTEX
  8
PLAN_1
  6
CONTINUOUS
 10
1.259205
 20
-3.835106
  0
VERTEX
  8
PLAN_1
  6
CONTINUOUS
 10
1.252311
 20
-3.836091
  0
VERTEX
  8
PLAN_1
  6
CONTINUOUS
 10
1.245421
 20
-3.836583
  0
VERTEX
  8
PLAN_1
  6
CONTINUOUS
 10
1.239020
 20
-3.836091
  0
VERTEX
  8
PLAN_1
  6
CONTINUOUS
 10
1.232622
 20
-3.835598
  0
VERTEX
  8
PLAN_1
  6
CONTINUOUS
 10
1.226220
 20
-3.834122
  0
VERTEX
  8
PLAN_1
  6
CONTINUOUS
 10
1.220807
 20
-3.832154
  0
VERTEX
  8
PLAN_1
  6
CONTINUOUS
 10
1.215390
 20
-3.829689
  0
VERTEX
  8
PLAN_1
  6
CONTINUOUS
 10
1.210469
 20
-3.826736
  0
VERTEX
  8
PLAN_1
  6
CONTINUOUS
 10
1.205543
 20
-3.823291
  0
VERTEX
  8
PLAN_1
  6
CONTINUOUS
 10
1.201114
 20
-3.819846
  0
VERTEX
  8
PLAN_1
  6
CONTINUOUS
 10
1.197669
 20
-3.815413
  0
VERTEX
  8
PLAN_1
  6
CONTINUOUS
 10
1.194224
 20
-3.810492
  0
VERTEX
  8
PLAN_1
  6
CONTINUOUS
 10
1.191268
 20
-3.805571
  0
VERTEX
  8
PLAN_1
  6
CONTINUOUS
 10
1.188807
 20
-3.799661
  0
VERTEX
  8
PLAN_1
  6
CONTINUOUS
 10
1.186839
 20
-3.793756
  0
VERTEX
  8
PLAN_1
  6
CONTINUOUS
 10
1.185362
 20
-3.787354
  0
VERTEX
  8
PLAN_1
  6
CONTINUOUS
 10
1.184378
 20
-3.780957
  0
VERTEX
  8
PLAN_1
  6
CONTINUOUS
 10
1.184378
 20
-3.773571
  0
SEQEND
  8
0
  0
POLYLINE
  8
PLAN_1
  6
CONTINUOUS
 66
     1
 40
0.003000
 41
0.003000
  0
VERTEX
  8
PLAN_1
  6
CONTINUOUS
 10
1.286772
 20
-3.770126
  0
VERTEX
  8
PLAN_1
  6
CONTINUOUS
 10
1.286280
 20
-3.766185
  0
VERTEX
  8
PLAN_1
  6
CONTINUOUS
 10
1.286280
 20
-3.762248
  0
VERTEX
  8
PLAN_1
  6
CONTINUOUS
 10
1.285295
 20
-3.758311
  0
VERTEX
  8
PLAN_1
  6
CONTINUOUS
 10
1.284311
 20
-3.754370
  0
VERTEX
  8
PLAN_1
  6
CONTINUOUS
 10
1.283327
 20
-3.750925
  0
VERTEX
  8
PLAN_1
  6
CONTINUOUS
 10
1.281358
 20
-3.747480
  0
VERTEX
  8
PLAN_1
  6
CONTINUOUS
 10
1.279386
 20
-3.744035
  0
VERTEX
  8
PLAN_1
  6
CONTINUOUS
 10
1.277417
 20
-3.741079
  0
VERTEX
  8
PLAN_1
  6
CONTINUOUS
 10
1.274957
 20
-3.738618
  0
VERTEX
  8
PLAN_1
  6
CONTINUOUS
 10
1.272004
 20
-3.736157
  0
VERTEX
  8
PLAN_1
  6
CONTINUOUS
 10
1.268559
 20
-3.733697
  0
VERTEX
  8
PLAN_1
  6
CONTINUOUS
 10
1.265110
 20
-3.732220
  0
VERTEX
  8
PLAN_1
  6
CONTINUOUS
 10
1.261173
 20
-3.730740
  0
VERTEX
  8
PLAN_1
  6
CONTINUOUS
 10
1.256744
 20
-3.729264
  0
VERTEX
  8
PLAN_1
  6
CONTINUOUS
 10
1.252311
 20
-3.728772
  0
VERTEX
  8
PLAN_1
  6
CONTINUOUS
 10
1.247390
 20
-3.728772
  0
VERTEX
  8
PLAN_1
  6
CONTINUOUS
 10
1.242957
 20
-3.728772
  0
VERTEX
  8
PLAN_1
  6
CONTINUOUS
 10
1.239020
 20
-3.729264
  0
VERTEX
  8
PLAN_1
  6
CONTINUOUS
 10
1.235083
 20
-3.730248
  0
VERTEX
  8
PLAN_1
  6
CONTINUOUS
 10
1.231638
 20
-3.731728
  0
VERTEX
  8
PLAN_1
  6
CONTINUOUS
 10
1.228189
 20
-3.733697
  0
VERTEX
  8
PLAN_1
  6
CONTINUOUS
 10
1.225236
 20
-3.735665
  0
VERTEX
  8
PLAN_1
  6
CONTINUOUS
 10
1.222283
 20
-3.738126
  0
VERTEX
  8
PLAN_1
  6
CONTINUOUS
 10
1.219823
 20
-3.740587
  0
VERTEX
  8
PLAN_1
  6
CONTINUOUS
 10
1.217358
 20
-3.744035
  0
VERTEX
  8
PLAN_1
  6
CONTINUOUS
 10
1.215390
 20
-3.746988
  0
VERTEX
  8
PLAN_1
  6
CONTINUOUS
 10
1.213421
 20
-3.750925
  0
VERTEX
  8
PLAN_1
  6
CONTINUOUS
 10
1.211945
 20
-3.754862
  0
VERTEX
  8
PLAN_1
  6
CONTINUOUS
 10
1.210961
 20
-3.758803
  0
VERTEX
  8
PLAN_1
  6
CONTINUOUS
 10
1.209976
 20
-3.763232
  0
VERTEX
  8
PLAN_1
  6
CONTINUOUS
 10
1.209484
 20
-3.767661
  0
VERTEX
  8
PLAN_1
  6
CONTINUOUS
 10
1.209484
 20
-3.772587
  0
VERTEX
  8
PLAN_1
  6
CONTINUOUS
 10
1.209484
 20
-3.778984
  0
VERTEX
  8
PLAN_1
  6
CONTINUOUS
 10
1.210469
 20
-3.784894
  0
VERTEX
  8
PLAN_1
  6
CONTINUOUS
 10
1.211453
 20
-3.790307
  0
VERTEX
  8
PLAN_1
  6
CONTINUOUS
 10
1.213421
 20
-3.794740
  0
VERTEX
  8
PLAN_1
  6
CONTINUOUS
 10
1.215390
 20
-3.798677
  0
VERTEX
  8
PLAN_1
  6
CONTINUOUS
 10
1.217850
 20
-3.802122
  0
VERTEX
  8
PLAN_1
  6
CONTINUOUS
 10
1.220315
 20
-3.805075
  0
VERTEX
  8
PLAN_1
  6
CONTINUOUS
 10
1.223268
 20
-3.807539
  0
VERTEX
  8
PLAN_1
  6
CONTINUOUS
 10
1.226220
 20
-3.809508
  0
VERTEX
  8
PLAN_1
  6
CONTINUOUS
 10
1.229173
 20
-3.810984
  0
VERTEX
  8
PLAN_1
  6
CONTINUOUS
 10
1.232622
 20
-3.812461
  0
VERTEX
  8
PLAN_1
  6
CONTINUOUS
 10
1.236067
 20
-3.813445
  0
VERTEX
  8
PLAN_1
  6
CONTINUOUS
 10
1.242465
 20
-3.814429
  0
VERTEX
  8
PLAN_1
  6
CONTINUOUS
 10
1.249358
 20
-3.814429
  0
VERTEX
  8
PLAN_1
  6
CONTINUOUS
 10
1.254280
 20
-3.814429
  0
VERTEX
  8
PLAN_1
  6
CONTINUOUS
 10
1.260189
 20
-3.812953
  0
VERTEX
  8
PLAN_1
  6
CONTINUOUS
 10
1.263634
 20
-3.811969
  0
VERTEX
  8
PLAN_1
  6
CONTINUOUS
 10
1.266587
 20
-3.810984
  0
VERTEX
  8
PLAN_1
  6
CONTINUOUS
 10
1.269543
 20
-3.809016
  0
VERTEX
  8
PLAN_1
  6
CONTINUOUS
 10
1.272496
 20
-3.807047
  0
VERTEX
  8
PLAN_1
  6
CONTINUOUS
 10
1.275449
 20
-3.804583
  0
VERTEX
  8
PLAN_1
  6
CONTINUOUS
 10
1.277909
 20
-3.801138
  0
VERTEX
  8
PLAN_1
  6
CONTINUOUS
 10
1.280374
 20
-3.797693
  0
VERTEX
  8
PLAN_1
  6
CONTINUOUS
 10
1.282343
 20
-3.793264
  0
VERTEX
  8
PLAN_1
  6
CONTINUOUS
 10
1.284311
 20
-3.788831
  0
VERTEX
  8
PLAN_1
  6
CONTINUOUS
 10
1.285295
 20
-3.783417
  0
VERTEX
  8
PLAN_1
  6
CONTINUOUS
 10
1.286280
 20
-3.777016
  0
VERTEX
  8
PLAN_1
  6
CONTINUOUS
 10
1.286772
 20
-3.770126
  0
SEQEND
  8
0
  0
SOLID
  8
PLAN_1
 10
1.327138
 20
-3.936516
 11
1.327138
 21
-3.922732
 12
1.481224
 22
-3.936516
 13
1.481224
 23
-3.922732
  0
POLYLINE
  8
PLAN_1
  6
CONTINUOUS
 66
     1
 40
0.003000
 41
0.003000
  0
VERTEX
  8
PLAN_1
  6
CONTINUOUS
 10
1.327138
 20
-3.936516
  0
VERTEX
  8
PLAN_1
  6
CONTINUOUS
 10
1.327138
 20
-3.922732
  0
VERTEX
  8
PLAN_1
  6
CONTINUOUS
 10
1.481224
 20
-3.922732
  0
VERTEX
  8
PLAN_1
  6
CONTINUOUS
 10
1.481224
 20
-3.936516
  0
VERTEX
  8
PLAN_1
  6
CONTINUOUS
 10
1.327138
 20
-3.936516
  0
SEQEND
  8
0
  0
POLYLINE
  8
PLAN_1
  6
CONTINUOUS
 66
     1
 40
0.003000
 41
0.003000
  0
VERTEX
  8
PLAN_1
  6
CONTINUOUS
 10
1.531929
 20
-3.902055
  0
VERTEX
  8
PLAN_1
  6
CONTINUOUS
 10
1.505346
 20
-3.902055
  0
VERTEX
  8
PLAN_1
  6
CONTINUOUS
 10
1.505346
 20
-3.702681
  0
VERTEX
  8
PLAN_1
  6
CONTINUOUS
 10
1.643185
 20
-3.702681
  0
VERTEX
  8
PLAN_1
  6
CONTINUOUS
 10
1.643185
 20
-3.726311
  0
VERTEX
  8
PLAN_1
  6
CONTINUOUS
 10
1.531929
 20
-3.726311
  0
VERTEX
  8
PLAN_1
  6
CONTINUOUS
 10
1.531929
 20
-3.787354
  0
VERTEX
  8
PLAN_1
  6
CONTINUOUS
 10
1.629894
 20
-3.787354
  0
VERTEX
  8
PLAN_1
  6
CONTINUOUS
 10
1.629894
 20
-3.811476
  0
VERTEX
  8
PLAN_1
  6
CONTINUOUS
 10
1.531929
 20
-3.811476
  0
VERTEX
  8
PLAN_1
  6
CONTINUOUS
 10
1.531929
 20
-3.902055
  0
SEQEND
  8
0
  0
SOLID
  8
PLAN_1
 10
1.662382
 20
-3.902055
 11
1.633339
 21
-3.902055
 12
1.662382
 22
-3.872520
 13
1.633339
 23
-3.872520
  0
POLYLINE
  8
PLAN_1
  6
CONTINUOUS
 66
     1
 40
0.003000
 41
0.003000
  0
VERTEX
  8
PLAN_1
  6
CONTINUOUS
 10
1.662382
 20
-3.902055
  0
VERTEX
  8
PLAN_1
  6
CONTINUOUS
 10
1.633339
 20
-3.902055
  0
VERTEX
  8
PLAN_1
  6
CONTINUOUS
 10
1.633339
 20
-3.872520
  0
VERTEX
  8
PLAN_1
  6
CONTINUOUS
 10
1.662382
 20
-3.872520
  0
VERTEX
  8
PLAN_1
  6
CONTINUOUS
 10
1.662382
 20
-3.902055
  0
SEQEND
  8
0
  0
POLYLINE
  8
PLAN_1
  6
CONTINUOUS
 66
     1
 40
0.003000
 41
0.003000
  0
VERTEX
  8
PLAN_1
  6
CONTINUOUS
 10
1.857327
 20
-3.902055
  0
VERTEX
  8
PLAN_1
  6
CONTINUOUS
 10
1.710134
 20
-3.902055
  0
VERTEX
  8
PLAN_1
  6
CONTINUOUS
 10
1.710134
 20
-3.702681
  0
VERTEX
  8
PLAN_1
  6
CONTINUOUS
 10
1.855358
 20
-3.702681
  0
VERTEX
  8
PLAN_1
  6
CONTINUOUS
 10
1.855358
 20
-3.726311
  0
VERTEX
  8
PLAN_1
  6
CONTINUOUS
 10
1.737209
 20
-3.726311
  0
VERTEX
  8
PLAN_1
  6
CONTINUOUS
 10
1.737209
 20
-3.787354
  0
VERTEX
  8
PLAN_1
  6
CONTINUOUS
 10
1.846496
 20
-3.787354
  0
VERTEX
  8
PLAN_1
  6
CONTINUOUS
 10
1.846496
 20
-3.811476
  0
VERTEX
  8
PLAN_1
  6
CONTINUOUS
 10
1.737209
 20
-3.811476
  0
VERTEX
  8
PLAN_1
  6
CONTINUOUS
 10
1.737209
 20
-3.877933
  0
VERTEX
  8
PLAN_1
  6
CONTINUOUS
 10
1.857327
 20
-3.877933
  0
VERTEX
  8
PLAN_1
  6
CONTINUOUS
 10
1.857327
 20
-3.902055
  0
SEQEND
  8
0
  0
POLYLINE
  8
PLAN_1
  6
CONTINUOUS
 66
     1
 40
0.003000
 41
0.003000
  0
VERTEX
  8
PLAN_1
  6
CONTINUOUS
 10
1.922307
 20
-3.902055
  0
VERTEX
  8
PLAN_1
  6
CONTINUOUS
 10
1.895724
 20
-3.902055
  0
VERTEX
  8
PLAN_1
  6
CONTINUOUS
 10
1.895724
 20
-3.702681
  0
VERTEX
  8
PLAN_1
  6
CONTINUOUS
 10
1.985319
 20
-3.702681
  0
VERTEX
  8
PLAN_1
  6
CONTINUOUS
 10
1.991720
 20
-3.702681
  0
VERTEX
  8
PLAN_1
  6
CONTINUOUS
 10
1.998118
 20
-3.703665
  0
VERTEX
  8
PLAN_1
  6
CONTINUOUS
 10
2.004520
 20
-3.705142
  0
VERTEX
  8
PLAN_1
  6
CONTINUOUS
 10
2.009933
 20
-3.706622
  0
VERTEX
  8
PLAN_1
  6
CONTINUOUS
 10
2.015350
 20
-3.709083
  0
VERTEX
  8
PLAN_1
  6
CONTINUOUS
 10
2.020272
 20
-3.711543
  0
VERTEX
  8
PLAN_1
  6
CONTINUOUS
 10
2.024705
 20
-3.714988
  0
VERTEX
  8
PLAN_1
  6
CONTINUOUS
 10
2.028642
 20
-3.718433
  0
VERTEX
  8
PLAN_1
  6
CONTINUOUS
 10
2.032087
 20
-3.722374
  0
VERTEX
  8
PLAN_1
  6
CONTINUOUS
 10
2.035531
 20
-3.726803
  0
VERTEX
  8
PLAN_1
  6
CONTINUOUS
 10
2.037996
 20
-3.731236
  0
VERTEX
  8
PLAN_1
  6
CONTINUOUS
 10
2.040457
 20
-3.736157
  0
VERTEX
  8
PLAN_1
  6
CONTINUOUS
 10
2.041933
 20
-3.741571
  0
VERTEX
  8
PLAN_1
  6
CONTINUOUS
 10
2.043409
 20
-3.746988
  0
VERTEX
  8
PLAN_1
  6
CONTINUOUS
 10
2.043902
 20
-3.752894
  0
VERTEX
  8
PLAN_1
  6
CONTINUOUS
 10
2.044394
 20
-3.758803
  0
VERTEX
  8
PLAN_1
  6
CONTINUOUS
 10
2.043902
 20
-3.763724
  0
VERTEX
  8
PLAN_1
  6
CONTINUOUS
 10
2.043409
 20
-3.769142
  0
VERTEX
  8
PLAN_1
  6
CONTINUOUS
 10
2.042425
 20
-3.774555
  0
VERTEX
  8
PLAN_1
  6
CONTINUOUS
 10
2.040949
 20
-3.779476
  0
VERTEX
  8
PLAN_1
  6
CONTINUOUS
 10
2.039472
 20
-3.784402
  0
VERTEX
  8
PLAN_1
  6
CONTINUOUS
 10
2.037012
 20
-3.789323
  0
VERTEX
  8
PLAN_1
  6
CONTINUOUS
 10
2.034055
 20
-3.794248
  0
VERTEX
  8
PLAN_1
  6
CONTINUOUS
 10
2.031102
 20
-3.798677
  0
VERTEX
  8
PLAN_1
  6
CONTINUOUS
 10
2.027165
 20
-3.802614
  0
VERTEX
  8
PLAN_1
  6
CONTINUOUS
 10
2.022732
 20
-3.806555
  0
VERTEX
  8
PLAN_1
  6
CONTINUOUS
 10
2.018303
 20
-3.809508
  0
VERTEX
  8
PLAN_1
  6
CONTINUOUS
 10
2.012890
 20
-3.812461
  0
VERTEX
  8
PLAN_1
  6
CONTINUOUS
 10
2.006488
 20
-3.814429
  0
VERTEX
  8
PLAN_1
  6
CONTINUOUS
 10
2.000091
 20
-3.816398
  0
VERTEX
  8
PLAN_1
  6
CONTINUOUS
 10
1.993197
 20
-3.817382
  0
VERTEX
  8
PLAN_1
  6
CONTINUOUS
 10
1.985319
 20
-3.817874
  0
VERTEX
  8
PLAN_1
  6
CONTINUOUS
 10
1.922307
 20
-3.817874
  0
VERTEX
  8
PLAN_1
  6
CONTINUOUS
 10
1.922307
 20
-3.902055
  0
SEQEND
  8
0
  0
POLYLINE
  8
PLAN_1
  6
CONTINUOUS
 66
     1
 40
0.003000
 41
0.003000
  0
VERTEX
  8
PLAN_1
  6
CONTINUOUS
 10
1.922307
 20
-3.794740
  0
VERTEX
  8
PLAN_1
  6
CONTINUOUS
 10
1.975969
 20
-3.794740
  0
VERTEX
  8
PLAN_1
  6
CONTINUOUS
 10
1.980398
 20
-3.794740
  0
VERTEX
  8
PLAN_1
  6
CONTINUOUS
 10
1.984827
 20
-3.794248
  0
VERTEX
  8
PLAN_1
  6
CONTINUOUS
 10
1.988768
 20
-3.793756
  0
VERTEX
  8
PLAN_1
  6
CONTINUOUS
 10
1.992705
 20
-3.792768
  0
VERTEX
  8
PLAN_1
  6
CONTINUOUS
 10
1.996150
 20
-3.791783
  0
VERTEX
  8
PLAN_1
  6
CONTINUOUS
 10
1.999598
 20
-3.790307
  0
VERTEX
  8
PLAN_1
  6
CONTINUOUS
 10
2.002551
 20
-3.788831
  0
VERTEX
  8
PLAN_1
  6
CONTINUOUS
 10
2.005504
 20
-3.786862
  0
VERTEX
  8
PLAN_1
  6
CONTINUOUS
 10
2.007965
 20
-3.784402
  0
VERTEX
  8
PLAN_1
  6
CONTINUOUS
 10
2.009933
 20
-3.781941
  0
VERTEX
  8
PLAN_1
  6
CONTINUOUS
 10
2.011902
 20
-3.778984
  0
VERTEX
  8
PLAN_1
  6
CONTINUOUS
 10
2.013874
 20
-3.776031
  0
VERTEX
  8
PLAN_1
  6
CONTINUOUS
 10
2.014858
 20
-3.772094
  0
VERTEX
  8
PLAN_1
  6
CONTINUOUS
 10
2.015843
 20
-3.768154
  0
VERTEX
  8
PLAN_1
  6
CONTINUOUS
 10
2.016335
 20
-3.763724
  0
VERTEX
  8
PLAN_1
  6
CONTINUOUS
 10
2.016335
 20
-3.758803
  0
VERTEX
  8
PLAN_1
  6
CONTINUOUS
 10
2.016335
 20
-3.754370
  0
VERTEX
  8
PLAN_1
  6
CONTINUOUS
 10
2.015843
 20
-3.750433
  0
VERTEX
  8
PLAN_1
  6
CONTINUOUS
 10
2.014858
 20
-3.746496
  0
VERTEX
  8
PLAN_1
  6
CONTINUOUS
 10
2.013382
 20
-3.743047
  0
VERTEX
  8
PLAN_1
  6
CONTINUOUS
 10
2.011902
 20
-3.740094
  0
VERTEX
  8
PLAN_1
  6
CONTINUOUS
 10
2.009933
 20
-3.737142
  0
VERTEX
  8
PLAN_1
  6
CONTINUOUS
 10
2.007472
 20
-3.734681
  0
VERTEX
  8
PLAN_1
  6
CONTINUOUS
 10
2.005012
 20
-3.732713
  0
VERTEX
  8
PLAN_1
  6
CONTINUOUS
 10
2.002551
 20
-3.730740
  0
VERTEX
  8
PLAN_1
  6
CONTINUOUS
 10
1.999598
 20
-3.729264
  0
VERTEX
  8
PLAN_1
  6
CONTINUOUS
 10
1.996150
 20
-3.728280
  0
VERTEX
  8
PLAN_1
  6
CONTINUOUS
 10
1.992705
 20
-3.727295
  0
VERTEX
  8
PLAN_1
  6
CONTINUOUS
 10
1.985319
 20
-3.725819
  0
VERTEX
  8
PLAN_1
  6
CONTINUOUS
 10
1.976953
 20
-3.725327
  0
VERTEX
  8
PLAN_1
  6
CONTINUOUS
 10
1.922307
 20
-3.725327
  0
VERTEX
  8
PLAN_1
  6
CONTINUOUS
 10
1.922307
 20
-3.794740
  0
SEQEND
  8
0
  0
POLYLINE
  8
PLAN_1
  6
CONTINUOUS
 66
     1
 40
0.003000
 41
0.003000
  0
VERTEX
  8
PLAN_1
  6
CONTINUOUS
 10
2.197984
 20
-3.760772
  0
VERTEX
  8
PLAN_1
  6
CONTINUOUS
 10
2.197492
 20
-3.755354
  0
VERTEX
  8
PLAN_1
  6
CONTINUOUS
 10
2.196508
 20
-3.750433
  0
VERTEX
  8
PLAN_1
  6
CONTINUOUS
 10
2.195031
 20
-3.745512
  0
VERTEX
  8
PLAN_1
  6
CONTINUOUS
 10
2.193063
 20
-3.741571
  0
VERTEX
  8
PLAN_1
  6
CONTINUOUS
 10
2.190602
 20
-3.737634
  0
VERTEX
  8
PLAN_1
  6
CONTINUOUS
 10
2.187650
 20
-3.734681
  0
VERTEX
  8
PLAN_1
  6
CONTINUOUS
 10
2.184693
 20
-3.731728
  0
VERTEX
  8
PLAN_1
  6
CONTINUOUS
 10
2.181248
 20
-3.728772
  0
VERTEX
  8
PLAN_1
  6
CONTINUOUS
 10
2.177803
 20
-3.726803
  0
VERTEX
  8
PLAN_1
  6
CONTINUOUS
 10
2.173866
 20
-3.724835
  0
VERTEX
  8
PLAN_1
  6
CONTINUOUS
 10
2.169925
 20
-3.723358
  0
VERTEX
  8
PLAN_1
  6
CONTINUOUS
 10
2.165988
 20
-3.722374
  0
VERTEX
  8
PLAN_1
  6
CONTINUOUS
 10
2.161559
 20
-3.721390
  0
VERTEX
  8
PLAN_1
  6
CONTINUOUS
 10
2.157126
 20
-3.720898
  0
VERTEX
  8
PLAN_1
  6
CONTINUOUS
 10
2.153189
 20
-3.720406
  0
VERTEX
  8
PLAN_1
  6
CONTINUOUS
 10
2.148760
 20
-3.720406
  0
VERTEX
  8
PLAN_1
  6
CONTINUOUS
 10
2.141866
 20
-3.720406
  0
VERTEX
  8
PLAN_1
  6
CONTINUOUS
 10
2.134480
 20
-3.721390
  0
VERTEX
  8
PLAN_1
  6
CONTINUOUS
 10
2.130543
 20
-3.722374
  0
VERTEX
  8
PLAN_1
  6
CONTINUOUS
 10
2.127098
 20
-3.723358
  0
VERTEX
  8
PLAN_1
  6
CONTINUOUS
 10
2.123157
 20
-3.724835
  0
VERTEX
  8
PLAN_1
  6
CONTINUOUS
 10
2.119713
 20
-3.726311
  0
VERTEX
  8
PLAN_1
  6
CONTINUOUS
 10
2.116268
 20
-3.728280
  0
VERTEX
  8
PLAN_1
  6
CONTINUOUS
 10
2.113315
 20
-3.730740
  0
VERTEX
  8
PLAN_1
  6
CONTINUOUS
 10
2.110358
 20
-3.733697
  0
VERTEX
  8
PLAN_1
  6
CONTINUOUS
 10
2.107898
 20
-3.737142
  0
VERTEX
  8
PLAN_1
  6
CONTINUOUS
 10
2.105929
 20
-3.740587
  0
VERTEX
  8
PLAN_1
  6
CONTINUOUS
 10
2.104453
 20
-3.745020
  0
VERTEX
  8
PLAN_1
  6
CONTINUOUS
 10
2.103469
 20
-3.749941
  0
VERTEX
  8
PLAN_1
  6
CONTINUOUS
 10
2.103469
 20
-3.755354
  0
VERTEX
  8
PLAN_1
  6
CONTINUOUS
 10
2.103469
 20
-3.758311
  0
VERTEX
  8
PLAN_1
  6
CONTINUOUS
 10
2.103961
 20
-3.761264
  0
VERTEX
  8
PLAN_1
  6
CONTINUOUS
 10
2.104453
 20
-3.763724
  0
VERTEX
  8
PLAN_1
  6
CONTINUOUS
 10
2.105437
 20
-3.766185
  0
VERTEX
  8
PLAN_1
  6
CONTINUOUS
 10
2.106421
 20
-3.768154
  0
VERTEX
  8
PLAN_1
  6
CONTINUOUS
 10
2.107406
 20
-3.770126
  0
VERTEX
  8
PLAN_1
  6
CONTINUOUS
 10
2.108882
 20
-3.771602
  0
VERTEX
  8
PLAN_1
  6
CONTINUOUS
 10
2.110850
 20
-3.773079
  0
VERTEX
  8
PLAN_1
  6
CONTINUOUS
 10
2.114299
 20
-3.776031
  0
VERTEX
  8
PLAN_1
  6
CONTINUOUS
 10
2.118236
 20
-3.778000
  0
VERTEX
  8
PLAN_1
  6
CONTINUOUS
 10
2.122665
 20
-3.779476
  0
VERTEX
  8
PLAN_1
  6
CONTINUOUS
 10
2.127098
 20
-3.780461
  0
VERTEX
  8
PLAN_1
  6
CONTINUOUS
 10
2.183709
 20
-3.793756
  0
VERTEX
  8
PLAN_1
  6
CONTINUOUS
 10
2.188634
 20
-3.794740
  0
VERTEX
  8
PLAN_1
  6
CONTINUOUS
 10
2.193063
 20
-3.796217
  0
VERTEX
  8
PLAN_1
  6
CONTINUOUS
 10
2.197492
 20
-3.798185
  0
VERTEX
  8
PLAN_1
  6
CONTINUOUS
 10
2.201925
 20
-3.800154
  0
VERTEX
  8
PLAN_1
  6
CONTINUOUS
 10
2.205862
 20
-3.802122
  0
VERTEX
  8
PLAN_1
  6
CONTINUOUS
 10
2.209307
 20
-3.804583
  0
VERTEX
  8
PLAN_1
  6
CONTINUOUS
 10
2.212756
 20
-3.807539
  0
VERTEX
  8
PLAN_1
  6
CONTINUOUS
 10
2.216201
 20
-3.810492
  0
VERTEX
  8
PLAN_1
  6
CONTINUOUS
 10
2.219154
 20
-3.813937
  0
VERTEX
  8
PLAN_1
  6
CONTINUOUS
 10
2.221614
 20
-3.817874
  0
VERTEX
  8
PLAN_1
  6
CONTINUOUS
 10
2.223587
 20
-3.821815
  0
VERTEX
  8
PLAN_1
  6
CONTINUOUS
 10
2.225555
 20
-3.826244
  0
VERTEX
  8
PLAN_1
  6
CONTINUOUS
 10
2.227031
 20
-3.830677
  0
VERTEX
  8
PLAN_1
  6
CONTINUOUS
 10
2.228016
 20
-3.835598
  0
VERTEX
  8
PLAN_1
  6
CONTINUOUS
 10
2.229000
 20
-3.841012
  0
VERTEX
  8
PLAN_1
  6
CONTINUOUS
 10
2.229000
 20
-3.846921
  0
VERTEX
  8
PLAN_1
  6
CONTINUOUS
 10
2.229000
 20
-3.851350
  0
VERTEX
  8
PLAN_1
  6
CONTINUOUS
 10
2.228508
 20
-3.855291
  0
VERTEX
  8
PLAN_1
  6
CONTINUOUS
 10
2.228016
 20
-3.859228
  0
VERTEX
  8
PLAN_1
  6
CONTINUOUS
 10
2.227031
 20
-3.863165
  0
VERTEX
  8
PLAN_1
  6
CONTINUOUS
 10
2.226047
 20
-3.866610
  0
VERTEX
  8
PLAN_1
  6
CONTINUOUS
 10
2.224571
 20
-3.870059
  0
VERTEX
  8
PLAN_1
  6
CONTINUOUS
 10
2.223094
 20
-3.873012
  0
VERTEX
  8
PLAN_1
  6
CONTINUOUS
 10
2.221614
 20
-3.875965
  0
VERTEX
  8
PLAN_1
  6
CONTINUOUS
 10
2.217677
 20
-3.881874
  0
VERTEX
  8
PLAN_1
  6
CONTINUOUS
 10
2.213248
 20
-3.886795
  0
VERTEX
  8
PLAN_1
  6
CONTINUOUS
 10
2.208323
 20
-3.890732
  0
VERTEX
  8
PLAN_1
  6
CONTINUOUS
 10
2.202909
 20
-3.894673
  0
VERTEX
  8
PLAN_1
  6
CONTINUOUS
 10
2.197000
 20
-3.897626
  0
VERTEX
  8
PLAN_1
  6
CONTINUOUS
 10
2.190602
 20
-3.900579
  0
VERTEX
  8
PLAN_1
  6
CONTINUOUS
 10
2.184201
 20
-3.902547
  0
VERTEX
  8
PLAN_1
  6
CONTINUOUS
 10
2.177803
 20
-3.904516
  0
VERTEX
  8
PLAN_1
  6
CONTINUOUS
 10
2.170909
 20
-3.905504
  0
VERTEX
  8
PLAN_1
  6
CONTINUOUS
 10
2.164020
 20
-3.906488
  0
VERTEX
  8
PLAN_1
  6
CONTINUOUS
 10
2.157618
 20
-3.906980
  0
VERTEX
  8
PLAN_1
  6
CONTINUOUS
 10
2.151220
 20
-3.906980
  0
VERTEX
  8
PLAN_1
  6
CONTINUOUS
 10
2.144327
 20
-3.906980
  0
VERTEX
  8
PLAN_1
  6
CONTINUOUS
 10
2.138421
 20
-3.906488
  0
VERTEX
  8
PLAN_1
  6
CONTINUOUS
 10
2.132512
 20
-3.905996
  0
VERTEX
  8
PLAN_1
  6
CONTINUOUS
 10
2.127098
 20
-3.905012
  0
VERTEX
  8
PLAN_1
  6
CONTINUOUS
 10
2.118236
 20
-3.903039
  0
VERTEX
  8
PLAN_1
  6
CONTINUOUS
 10
2.110358
 20
-3.900579
  0
VERTEX
  8
PLAN_1
  6
CONTINUOUS
 10
2.103961
 20
-3.897626
  0
VERTEX
  8
PLAN_1
  6
CONTINUOUS
 10
2.098543
 20
-3.894181
  0
VERTEX
  8
PLAN_1
  6
CONTINUOUS
 10
2.094606
 20
-3.891224
  0
VERTEX
  8
PLAN_1
  6
CONTINUOUS
 10
2.090669
 20
-3.887780
  0
VERTEX
  8
PLAN_1
  6
CONTINUOUS
 10
2.085252
 20
-3.882366
  0
VERTEX
  8
PLAN_1
  6
CONTINUOUS
 10
2.080331
 20
-3.876457
  0
VERTEX
  8
PLAN_1
  6
CONTINUOUS
 10
2.076886
 20
-3.870059
  0
VERTEX
  8
PLAN_1
  6
CONTINUOUS
 10
2.074425
 20
-3.864150
  0
VERTEX
  8
PLAN_1
  6
CONTINUOUS
 10
2.072453
 20
-3.857752
  0
VERTEX
  8
PLAN_1
  6
CONTINUOUS
 10
2.071469
 20
-3.850858
  0
VERTEX
  8
PLAN_1
  6
CONTINUOUS
 10
2.070484
 20
-3.844461
  0
VERTEX
  8
PLAN_1
  6
CONTINUOUS
 10
2.070484
 20
-3.837567
  0
VERTEX
  8
PLAN_1
  6
CONTINUOUS
 10
2.095591
 20
-3.837567
  0
VERTEX
  8
PLAN_1
  6
CONTINUOUS
 10
2.096083
 20
-3.843969
  0
VERTEX
  8
PLAN_1
  6
CONTINUOUS
 10
2.097067
 20
-3.849874
  0
VERTEX
  8
PLAN_1
  6
CONTINUOUS
 10
2.098543
 20
-3.855291
  0
VERTEX
  8
PLAN_1
  6
CONTINUOUS
 10
2.101008
 20
-3.859720
  0
VERTEX
  8
PLAN_1
  6
CONTINUOUS
 10
2.103469
 20
-3.864150
  0
VERTEX
  8
PLAN_1
  6
CONTINUOUS
 10
2.106421
 20
-3.868091
  0
VERTEX
  8
PLAN_1
  6
CONTINUOUS
 10
2.109866
 20
-3.871535
  0
VERTEX
  8
PLAN_1
  6
CONTINUOUS
 10
2.113807
 20
-3.874488
  0
VERTEX
  8
PLAN_1
  6
CONTINUOUS
 10
2.117744
 20
-3.876949
  0
VERTEX
  8
PLAN_1
  6
CONTINUOUS
 10
2.122173
 20
-3.878917
  0
VERTEX
  8
PLAN_1
  6
CONTINUOUS
 10
2.126606
 20
-3.880398
  0
VERTEX
  8
PLAN_1
  6
CONTINUOUS
 10
2.131528
 20
-3.881874
  0
VERTEX
  8
PLAN_1
  6
CONTINUOUS
 10
2.135957
 20
-3.882858
  0
VERTEX
  8
PLAN_1
  6
CONTINUOUS
 10
2.140882
 20
-3.883350
  0
VERTEX
  8
PLAN_1
  6
CONTINUOUS
 10
2.145803
 20
-3.883843
  0
VERTEX
  8
PLAN_1
  6
CONTINUOUS
 10
2.150728
 20
-3.883843
  0
VERTEX
  8
PLAN_1
  6
CONTINUOUS
 10
2.158602
 20
-3.883843
  0
VERTEX
  8
PLAN_1
  6
CONTINUOUS
 10
2.166972
 20
-3.882858
  0
VERTEX
  8
PLAN_1
  6
CONTINUOUS
 10
2.171402
 20
-3.881874
  0
VERTEX
  8
PLAN_1
  6
CONTINUOUS
 10
2.175835
 20
-3.880890
  0
VERTEX
  8
PLAN_1
  6
CONTINUOUS
 10
2.179772
 20
-3.879409
  0
VERTEX
  8
PLAN_1
  6
CONTINUOUS
 10
2.184201
 20
-3.877933
  0
VERTEX
  8
PLAN_1
  6
CONTINUOUS
 10
2.188142
 20
-3.875965
  0
VERTEX
  8
PLAN_1
  6
CONTINUOUS
 10
2.191587
 20
-3.873504
  0
VERTEX
  8
PLAN_1
  6
CONTINUOUS
 10
2.194539
 20
-3.871043
  0
VERTEX
  8
PLAN_1
  6
CONTINUOUS
 10
2.197492
 20
-3.867598
  0
VERTEX
  8
PLAN_1
  6
CONTINUOUS
 10
2.199957
 20
-3.864150
  0
VERTEX
  8
PLAN_1
  6
CONTINUOUS
 10
2.201433
 20
-3.860213
  0
VERTEX
  8
PLAN_1
  6
CONTINUOUS
 10
2.202417
 20
-3.855783
  0
VERTEX
  8
PLAN_1
  6
CONTINUOUS
 10
2.202909
 20
-3.850366
  0
VERTEX
  8
PLAN_1
  6
CONTINUOUS
 10
2.202909
 20
-3.846921
  0
VERTEX
  8
PLAN_1
  6
CONTINUOUS
 10
2.202417
 20
-3.843476
  0
VERTEX
  8
PLAN_1
  6
CONTINUOUS
 10
2.201925
 20
-3.840028
  0
VERTEX
  8
PLAN_1
  6
CONTINUOUS
 10
2.200941
 20
-3.837075
  0
VERTEX
  8
PLAN_1
  6
CONTINUOUS
 10
2.199465
 20
-3.834614
  0
VERTEX
  8
PLAN_1
  6
CONTINUOUS
 10
2.197984
 20
-3.832154
  0
VERTEX
  8
PLAN_1
  6
CONTINUOUS
 10
2.196016
 20
-3.830181
  0
VERTEX
  8
PLAN_1
  6
CONTINUOUS
 10
2.194047
 20
-3.827720
  0
VERTEX
  8
PLAN_1
  6
CONTINUOUS
 10
2.191094
 20
-3.826244
  0
VERTEX
  8
PLAN_1
  6
CONTINUOUS
 10
2.188142
 20
-3.824276
  0
VERTEX
  8
PLAN_1
  6
CONTINUOUS
 10
2.184693
 20
-3.822799
  0
VERTEX
  8
PLAN_1
  6
CONTINUOUS
 10
2.180756
 20
-3.821323
  0
VERTEX
  8
PLAN_1
  6
CONTINUOUS
 10
2.171894
 20
-3.817874
  0
VERTEX
  8
PLAN_1
  6
CONTINUOUS
 10
2.160571
 20
-3.815413
  0
VERTEX
  8
PLAN_1
  6
CONTINUOUS
 10
2.119713
 20
-3.805571
  0
VERTEX
  8
PLAN_1
  6
CONTINUOUS
 10
2.114299
 20
-3.804091
  0
VERTEX
  8
PLAN_1
  6
CONTINUOUS
 10
2.107406
 20
-3.802122
  0
VERTEX
  8
PLAN_1
  6
CONTINUOUS
 10
2.103961
 20
-3.800646
  0
VERTEX
  8
PLAN_1
  6
CONTINUOUS
 10
2.100516
 20
-3.798677
  0
VERTEX
  8
PLAN_1
  6
CONTINUOUS
 10
2.097067
 20
-3.796709
  0
VERTEX
  8
PLAN_1
  6
CONTINUOUS
 10
2.093622
 20
-3.794248
  0
VERTEX
  8
PLAN_1
  6
CONTINUOUS
 10
2.090177
 20
-3.791291
  0
VERTEX
  8
PLAN_1
  6
CONTINUOUS
 10
2.087224
 20
-3.788339
  0
VERTEX
  8
PLAN_1
  6
CONTINUOUS
 10
2.084268
 20
-3.784402
  0
VERTEX
  8
PLAN_1
  6
CONTINUOUS
 10
2.081807
 20
-3.780461
  0
VERTEX
  8
PLAN_1
  6
CONTINUOUS
 10
2.079839
 20
-3.776031
  0
VERTEX
  8
PLAN_1
  6
CONTINUOUS
 10
2.078362
 20
-3.770618
  0
VERTEX
  8
PLAN_1
  6
CONTINUOUS
 10
2.077378
 20
-3.765201
  0
VERTEX
  8
PLAN_1
  6
CONTINUOUS
 10
2.077378
 20
-3.758803
  0
VERTEX
  8
PLAN_1
  6
CONTINUOUS
 10
2.077378
 20
-3.752894
  0
VERTEX
  8
PLAN_1
  6
CONTINUOUS
 10
2.078362
 20
-3.747480
  0
VERTEX
  8
PLAN_1
  6
CONTINUOUS
 10
2.079346
 20
-3.741571
  0
VERTEX
  8
PLAN_1
  6
CONTINUOUS
 10
2.081315
 20
-3.736157
  0
VERTEX
  8
PLAN_1
  6
CONTINUOUS
 10
2.083283
 20
-3.730740
  0
VERTEX
  8
PLAN_1
  6
CONTINUOUS
 10
2.086236
 20
-3.725819
  0
VERTEX
  8
PLAN_1
  6
CONTINUOUS
 10
2.089685
 20
-3.720898
  0
VERTEX
  8
PLAN_1
  6
CONTINUOUS
 10
2.093130
 20
-3.716465
  0
VERTEX
  8
PLAN_1
  6
CONTINUOUS
 10
2.097559
 20
-3.712528
  0
VERTEX
  8
PLAN_1
  6
CONTINUOUS
 10
2.102976
 20
-3.708591
  0
VERTEX
  8
PLAN_1
  6
CONTINUOUS
 10
2.108390
 20
-3.705142
  0
VERTEX
  8
PLAN_1
  6
CONTINUOUS
 10
2.114791
 20
-3.702681
  0
VERTEX
  8
PLAN_1
  6
CONTINUOUS
 10
2.121681
 20
-3.700220
  0
VERTEX
  8
PLAN_1
  6
CONTINUOUS
 10
2.129067
 20
-3.698744
  0
VERTEX
  8
PLAN_1
  6
CONTINUOUS
 10
2.136945
 20
-3.697760
  0
VERTEX
  8
PLAN_1
  6
CONTINUOUS
 10
2.145803
 20
-3.697268
  0
VERTEX
  8
PLAN_1
  6
CONTINUOUS
 10
2.152205
 20
-3.697268
  0
VERTEX
  8
PLAN_1
  6
CONTINUOUS
 10
2.158110
 20
-3.697760
  0
VERTEX
  8
PLAN_1
  6
CONTINUOUS
 10
2.163528
 20
-3.698252
  0
VERTEX
  8
PLAN_1
  6
CONTINUOUS
 10
2.168941
 20
-3.699236
  0
VERTEX
  8
PLAN_1
  6
CONTINUOUS
 10
2.173866
 20
-3.700220
  0
VERTEX
  8
PLAN_1
  6
CONTINUOUS
 10
2.178787
 20
-3.701205
  0
VERTEX
  8
PLAN_1
  6
CONTINUOUS
 10
2.183217
 20
-3.702681
  0
VERTEX
  8
PLAN_1
  6
CONTINUOUS
 10
2.187157
 20
-3.704157
  0
VERTEX
  8
PLAN_1
  6
CONTINUOUS
 10
2.194539
 20
-3.707606
  0
VERTEX
  8
PLAN_1
  6
CONTINUOUS
 10
2.200449
 20
-3.711543
  0
VERTEX
  8
PLAN_1
  6
CONTINUOUS
 10
2.205862
 20
-3.715972
  0
VERTEX
  8
PLAN_1
  6
CONTINUOUS
 10
2.210291
 20
-3.720898
  0
VERTEX
  8
PLAN_1
  6
CONTINUOUS
 10
2.213740
 20
-3.725819
  0
VERTEX
  8
PLAN_1
  6
CONTINUOUS
 10
2.216693
 20
-3.731236
  0
VERTEX
  8
PLAN_1
  6
CONTINUOUS
 10
2.219154
 20
-3.736157
  0
VERTEX
  8
PLAN_1
  6
CONTINUOUS
 10
2.220630
 20
-3.741571
  0
VERTEX
  8
PLAN_1
  6
CONTINUOUS
 10
2.221614
 20
-3.746988
  0
VERTEX
  8
PLAN_1
  6
CONTINUOUS
 10
2.222598
 20
-3.751909
  0
VERTEX
  8
PLAN_1
  6
CONTINUOUS
 10
2.223094
 20
-3.756343
  0
VERTEX
  8
PLAN_1
  6
CONTINUOUS
 10
2.223587
 20
-3.760772
  0
VERTEX
  8
PLAN_1
  6
CONTINUOUS
 10
2.197984
 20
-3.760772
  0
SEQEND
  8
0
  0
POLYLINE
  8
PLAN_1
  6
CONTINUOUS
 66
     1
 40
0.005413
 41
0.005413
  0
VERTEX
  8
PLAN_1
  6
CONTINUOUS
 10
-1.255374
 20
0.710138
  0
VERTEX
  8
PLAN_1
  6
CONTINUOUS
 10
-1.249465
 20
0.710630
  0
VERTEX
  8
PLAN_1
  6
CONTINUOUS
 10
-1.243559
 20
0.711122
  0
VERTEX
  8
PLAN_1
  6
CONTINUOUS
 10
-1.237654
 20
0.711614
  0
VERTEX
  8
PLAN_1
  6
CONTINUOUS
 10
-1.231744
 20
0.712598
  0
VERTEX
  8
PLAN_1
  6
CONTINUOUS
 10
-1.225839
 20
0.714075
  0
VERTEX
  8
PLAN_1
  6
CONTINUOUS
 10
-1.220421
 20
0.715551
  0
VERTEX
  8
PLAN_1
  6
CONTINUOUS
 10
-1.215008
 20
0.717520
  0
VERTEX
  8
PLAN_1
  6
CONTINUOUS
 10
-1.209591
 20
0.719488
  0
VERTEX
  8
PLAN_1
  6
CONTINUOUS
 10
-1.204177
 20
0.721953
  0
VERTEX
  8
PLAN_1
  6
CONTINUOUS
 10
-1.199252
 20
0.724413
  0
VERTEX
  8
PLAN_1
  6
CONTINUOUS
 10
-1.194331
 20
0.727366
  0
VERTEX
  8
PLAN_1
  6
CONTINUOUS
 10
-1.189409
 20
0.730319
  0
VERTEX
  8
PLAN_1
  6
CONTINUOUS
 10
-1.184976
 20
0.733764
  0
VERTEX
  8
PLAN_1
  6
CONTINUOUS
 10
-1.180547
 20
0.737213
  0
VERTEX
  8
PLAN_1
  6
CONTINUOUS
 10
-1.176118
 20
0.741150
  0
VERTEX
  8
PLAN_1
  6
CONTINUOUS
 10
-1.172177
 20
0.745087
  0
VERTEX
  8
PLAN_1
  6
CONTINUOUS
 10
-1.168240
 20
0.749028
  0
VERTEX
  8
PLAN_1
  6
CONTINUOUS
 10
-1.164303
 20
0.753457
  0
VERTEX
  8
PLAN_1
  6
CONTINUOUS
 10
-1.160854
 20
0.757886
  0
VERTEX
  8
PLAN_1
  6
CONTINUOUS
 10
-1.157409
 20
0.762319
  0
VERTEX
  8
PLAN_1
  6
CONTINUOUS
 10
-1.154457
 20
0.767240
  0
VERTEX
  8
PLAN_1
  6
CONTINUOUS
 10
-1.151504
 20
0.772165
  0
VERTEX
  8
PLAN_1
  6
CONTINUOUS
 10
-1.149039
 20
0.777087
  0
VERTEX
  8
PLAN_1
  6
CONTINUOUS
 10
-1.146579
 20
0.782500
  0
VERTEX
  8
PLAN_1
  6
CONTINUOUS
 10
-1.144610
 20
0.787917
  0
VERTEX
  8
PLAN_1
  6
CONTINUOUS
 10
-1.142642
 20
0.793331
  0
VERTEX
  8
PLAN_1
  6
CONTINUOUS
 10
-1.141165
 20
0.798748
  0
VERTEX
  8
PLAN_1
  6
CONTINUOUS
 10
-1.139689
 20
0.804654
  0
VERTEX
  8
PLAN_1
  6
CONTINUOUS
 10
-1.138705
 20
0.810563
  0
VERTEX
  8
PLAN_1
  6
CONTINUOUS
 10
-1.138209
 20
0.816469
  0
VERTEX
  8
PLAN_1
  6
CONTINUOUS
 10
-1.137717
 20
0.822378
  0
VERTEX
  8
PLAN_1
  6
CONTINUOUS
 10
-1.137224
 20
0.828283
  0
VERTEX
  8
PLAN_1
  6
CONTINUOUS
 10
-1.137717
 20
0.834685
  0
VERTEX
  8
PLAN_1
  6
CONTINUOUS
 10
-1.138209
 20
0.840591
  0
VERTEX
  8
PLAN_1
  6
CONTINUOUS
 10
-1.138705
 20
0.846500
  0
VERTEX
  8
PLAN_1
  6
CONTINUOUS
 10
-1.139689
 20
0.852406
  0
VERTEX
  8
PLAN_1
  6
CONTINUOUS
 10
-1.141165
 20
0.857819
  0
VERTEX
  8
PLAN_1
  6
CONTINUOUS
 10
-1.142642
 20
0.863728
  0
VERTEX
  8
PLAN_1
  6
CONTINUOUS
 10
-1.144610
 20
0.869142
  0
VERTEX
  8
PLAN_1
  6
CONTINUOUS
 10
-1.146579
 20
0.874559
  0
VERTEX
  8
PLAN_1
  6
CONTINUOUS
 10
-1.149039
 20
0.879480
  0
VERTEX
  8
PLAN_1
  6
CONTINUOUS
 10
-1.151504
 20
0.884898
  0
VERTEX
  8
PLAN_1
  6
CONTINUOUS
 10
-1.154457
 20
0.889819
  0
VERTEX
  8
PLAN_1
  6
CONTINUOUS
 10
-1.157409
 20
0.894248
  0
VERTEX
  8
PLAN_1
  6
CONTINUOUS
 10
-1.160854
 20
0.899173
  0
VERTEX
  8
PLAN_1
  6
CONTINUOUS
 10
-1.164303
 20
0.903602
  0
VERTEX
  8
PLAN_1
  6
CONTINUOUS
 10
-1.168240
 20
0.908035
  0
VERTEX
  8
PLAN_1
  6
CONTINUOUS
 10
-1.172177
 20
0.911972
  0
VERTEX
  8
PLAN_1
  6
CONTINUOUS
 10
-1.176118
 20
0.915909
  0
VERTEX
  8
PLAN_1
  6
CONTINUOUS
 10
-1.180547
 20
0.919354
  0
VERTEX
  8
PLAN_1
  6
CONTINUOUS
 10
-1.184976
 20
0.923295
  0
VERTEX
  8
PLAN_1
  6
CONTINUOUS
 10
-1.189409
 20
0.926248
  0
VERTEX
  8
PLAN_1
  6
CONTINUOUS
 10
-1.194331
 20
0.929201
  0
VERTEX
  8
PLAN_1
  6
CONTINUOUS
 10
-1.199252
 20
0.932154
  0
VERTEX
  8
PLAN_1
  6
CONTINUOUS
 10
-1.204177
 20
0.935110
  0
VERTEX
  8
PLAN_1
  6
CONTINUOUS
 10
-1.209591
 20
0.937079
  0
VERTEX
  8
PLAN_1
  6
CONTINUOUS
 10
-1.215008
 20
0.939539
  0
VERTEX
  8
PLAN_1
  6
CONTINUOUS
 10
-1.220421
 20
0.941016
  0
VERTEX
  8
PLAN_1
  6
CONTINUOUS
 10
-1.225839
 20
0.942984
  0
VERTEX
  8
PLAN_1
  6
CONTINUOUS
 10
-1.231744
 20
0.943969
  0
VERTEX
  8
PLAN_1
  6
CONTINUOUS
 10
-1.237654
 20
0.944957
  0
VERTEX
  8
PLAN_1
  6
CONTINUOUS
 10
-1.243559
 20
0.945941
  0
VERTEX
  8
PLAN_1
  6
CONTINUOUS
 10
-1.249465
 20
0.946433
  0
VERTEX
  8
PLAN_1
  6
CONTINUOUS
 10
-1.255374
 20
0.946433
  0
VERTEX
  8
PLAN_1
  6
CONTINUOUS
 10
-1.261772
 20
0.946433
  0
VERTEX
  8
PLAN_1
  6
CONTINUOUS
 10
-1.267681
 20
0.945941
  0
VERTEX
  8
PLAN_1
  6
CONTINUOUS
 10
-1.273587
 20
0.944957
  0
VERTEX
  8
PLAN_1
  6
CONTINUOUS
 10
-1.279496
 20
0.943969
  0
VERTEX
  8
PLAN_1
  6
CONTINUOUS
 10
-1.284909
 20
0.942984
  0
VERTEX
  8
PLAN_1
  6
CONTINUOUS
 10
-1.290819
 20
0.941016
  0
VERTEX
  8
PLAN_1
  6
CONTINUOUS
 10
-1.296232
 20
0.939539
  0
VERTEX
  8
PLAN_1
  6
CONTINUOUS
 10
-1.301650
 20
0.937079
  0
VERTEX
  8
PLAN_1
  6
CONTINUOUS
 10
-1.306571
 20
0.935110
  0
VERTEX
  8
PLAN_1
  6
CONTINUOUS
 10
-1.311984
 20
0.932154
  0
VERTEX
  8
PLAN_1
  6
CONTINUOUS
 10
-1.316909
 20
0.929201
  0
VERTEX
  8
PLAN_1
  6
CONTINUOUS
 10
-1.321339
 20
0.926248
  0
VERTEX
  8
PLAN_1
  6
CONTINUOUS
 10
-1.326264
 20
0.923295
  0
VERTEX
  8
PLAN_1
  6
CONTINUOUS
 10
-1.330693
 20
0.919354
  0
VERTEX
  8
PLAN_1
  6
CONTINUOUS
 10
-1.335122
 20
0.915909
  0
VERTEX
  8
PLAN_1
  6
CONTINUOUS
 10
-1.339063
 20
0.911972
  0
VERTEX
  8
PLAN_1
  6
CONTINUOUS
 10
-1.343000
 20
0.908035
  0
VERTEX
  8
PLAN_1
  6
CONTINUOUS
 10
-1.346445
 20
0.903602
  0
VERTEX
  8
PLAN_1
  6
CONTINUOUS
 10
-1.350386
 20
0.899173
  0
VERTEX
  8
PLAN_1
  6
CONTINUOUS
 10
-1.353339
 20
0.894248
  0
VERTEX
  8
PLAN_1
  6
CONTINUOUS
 10
-1.356291
 20
0.889819
  0
VERTEX
  8
PLAN_1
  6
CONTINUOUS
 10
-1.359244
 20
0.884898
  0
VERTEX
  8
PLAN_1
  6
CONTINUOUS
 10
-1.362201
 20
0.879480
  0
VERTEX
  8
PLAN_1
  6
CONTINUOUS
 10
-1.364169
 20
0.874559
  0
VERTEX
  8
PLAN_1
  6
CONTINUOUS
 10
-1.366630
 20
0.869142
  0
VERTEX
  8
PLAN_1
  6
CONTINUOUS
 10
-1.368106
 20
0.863728
  0
VERTEX
  8
PLAN_1
  6
CONTINUOUS
 10
-1.370075
 20
0.857819
  0
VERTEX
  8
PLAN_1
  6
CONTINUOUS
 10
-1.371059
 20
0.852406
  0
VERTEX
  8
PLAN_1
  6
CONTINUOUS
 10
-1.372043
 20
0.846500
  0
VERTEX
  8
PLAN_1
  6
CONTINUOUS
 10
-1.373028
 20
0.840591
  0
VERTEX
  8
PLAN_1
  6
CONTINUOUS
 10
-1.373520
 20
0.834685
  0
VERTEX
  8
PLAN_1
  6
CONTINUOUS
 10
-1.373520
 20
0.828283
  0
VERTEX
  8
PLAN_1
  6
CONTINUOUS
 10
-1.373520
 20
0.822378
  0
VERTEX
  8
PLAN_1
  6
CONTINUOUS
 10
-1.373028
 20
0.816469
  0
VERTEX
  8
PLAN_1
  6
CONTINUOUS
 10
-1.372043
 20
0.810563
  0
VERTEX
  8
PLAN_1
  6
CONTINUOUS
 10
-1.371059
 20
0.804654
  0
VERTEX
  8
PLAN_1
  6
CONTINUOUS
 10
-1.370075
 20
0.798748
  0
VERTEX
  8
PLAN_1
  6
CONTINUOUS
 10
-1.368106
 20
0.793331
  0
VERTEX
  8
PLAN_1
  6
CONTINUOUS
 10
-1.366630
 20
0.787917
  0
VERTEX
  8
PLAN_1
  6
CONTINUOUS
 10
-1.364169
 20
0.782500
  0
VERTEX
  8
PLAN_1
  6
CONTINUOUS
 10
-1.362201
 20
0.777087
  0
VERTEX
  8
PLAN_1
  6
CONTINUOUS
 10
-1.359244
 20
0.772165
  0
VERTEX
  8
PLAN_1
  6
CONTINUOUS
 10
-1.356291
 20
0.767240
  0
VERTEX
  8
PLAN_1
  6
CONTINUOUS
 10
-1.353339
 20
0.762319
  0
VERTEX
  8
PLAN_1
  6
CONTINUOUS
 10
-1.350386
 20
0.757886
  0
VERTEX
  8
PLAN_1
  6
CONTINUOUS
 10
-1.346445
 20
0.753457
  0
VERTEX
  8
PLAN_1
  6
CONTINUOUS
 10
-1.343000
 20
0.749028
  0
VERTEX
  8
PLAN_1
  6
CONTINUOUS
 10
-1.339063
 20
0.745087
  0
VERTEX
  8
PLAN_1
  6
CONTINUOUS
 10
-1.335122
 20
0.741150
  0
VERTEX
  8
PLAN_1
  6
CONTINUOUS
 10
-1.330693
 20
0.737213
  0
VERTEX
  8
PLAN_1
  6
CONTINUOUS
 10
-1.326264
 20
0.733764
  0
VERTEX
  8
PLAN_1
  6
CONTINUOUS
 10
-1.321339
 20
0.730319
  0
VERTEX
  8
PLAN_1
  6
CONTINUOUS
 10
-1.316909
 20
0.727366
  0
VERTEX
  8
PLAN_1
  6
CONTINUOUS
 10
-1.311984
 20
0.724413
  0
VERTEX
  8
PLAN_1
  6
CONTINUOUS
 10
-1.306571
 20
0.721953
  0
VERTEX
  8
PLAN_1
  6
CONTINUOUS
 10
-1.301650
 20
0.719488
  0
VERTEX
  8
PLAN_1
  6
CONTINUOUS
 10
-1.296232
 20
0.717520
  0
VERTEX
  8
PLAN_1
  6
CONTINUOUS
 10
-1.290819
 20
0.715551
  0
VERTEX
  8
PLAN_1
  6
CONTINUOUS
 10
-1.284909
 20
0.714075
  0
VERTEX
  8
PLAN_1
  6
CONTINUOUS
 10
-1.279496
 20
0.712598
  0
VERTEX
  8
PLAN_1
  6
CONTINUOUS
 10
-1.273587
 20
0.711614
  0
VERTEX
  8
PLAN_1
  6
CONTINUOUS
 10
-1.267681
 20
0.711122
  0
VERTEX
  8
PLAN_1
  6
CONTINUOUS
 10
-1.261772
 20
0.710630
  0
VERTEX
  8
PLAN_1
  6
CONTINUOUS
 10
-1.255374
 20
0.710138
  0
SEQEND
  8
0
  0
POLYLINE
  8
PLAN_1
  6
CONTINUOUS
 66
     1
 40
0.005413
 41
0.005413
  0
VERTEX
  8
PLAN_1
  6
CONTINUOUS
 10
-1.256358
 20
0.749028
  0
VERTEX
  8
PLAN_1
  6
CONTINUOUS
 10
-1.248480
 20
0.749028
  0
VERTEX
  8
PLAN_1
  6
CONTINUOUS
 10
-1.240606
 20
0.750504
  0
VERTEX
  8
PLAN_1
  6
CONTINUOUS
 10
-1.233220
 20
0.752472
  0
VERTEX
  8
PLAN_1
  6
CONTINUOUS
 10
-1.225839
 20
0.754933
  0
VERTEX
  8
PLAN_1
  6
CONTINUOUS
 10
-1.218945
 20
0.758378
  0
VERTEX
  8
PLAN_1
  6
CONTINUOUS
 10
-1.212543
 20
0.762319
  0
VERTEX
  8
PLAN_1
  6
CONTINUOUS
 10
-1.206146
 20
0.766748
  0
VERTEX
  8
PLAN_1
  6
CONTINUOUS
 10
-1.200732
 20
0.771673
  0
VERTEX
  8
PLAN_1
  6
CONTINUOUS
 10
-1.195807
 20
0.777579
  0
VERTEX
  8
PLAN_1
  6
CONTINUOUS
 10
-1.190886
 20
0.783484
  0
VERTEX
  8
PLAN_1
  6
CONTINUOUS
 10
-1.186945
 20
0.789886
  0
VERTEX
  8
PLAN_1
  6
CONTINUOUS
 10
-1.183992
 20
0.796780
  0
VERTEX
  8
PLAN_1
  6
CONTINUOUS
 10
-1.181039
 20
0.804161
  0
VERTEX
  8
PLAN_1
  6
CONTINUOUS
 10
-1.179071
 20
0.811547
  0
VERTEX
  8
PLAN_1
  6
CONTINUOUS
 10
-1.178087
 20
0.819421
  0
VERTEX
  8
PLAN_1
  6
CONTINUOUS
 10
-1.177594
 20
0.827791
  0
VERTEX
  8
PLAN_1
  6
CONTINUOUS
 10
-1.178087
 20
0.835669
  0
VERTEX
  8
PLAN_1
  6
CONTINUOUS
 10
-1.179071
 20
0.843543
  0
VERTEX
  8
PLAN_1
  6
CONTINUOUS
 10
-1.181039
 20
0.850929
  0
VERTEX
  8
PLAN_1
  6
CONTINUOUS
 10
-1.183992
 20
0.858315
  0
VERTEX
  8
PLAN_1
  6
CONTINUOUS
 10
-1.186945
 20
0.865205
  0
VERTEX
  8
PLAN_1
  6
CONTINUOUS
 10
-1.190886
 20
0.871606
  0
VERTEX
  8
PLAN_1
  6
CONTINUOUS
 10
-1.195807
 20
0.877512
  0
VERTEX
  8
PLAN_1
  6
CONTINUOUS
 10
-1.200732
 20
0.883421
  0
VERTEX
  8
PLAN_1
  6
CONTINUOUS
 10
-1.206146
 20
0.888343
  0
VERTEX
  8
PLAN_1
  6
CONTINUOUS
 10
-1.212543
 20
0.892772
  0
VERTEX
  8
PLAN_1
  6
CONTINUOUS
 10
-1.218945
 20
0.896713
  0
VERTEX
  8
PLAN_1
  6
CONTINUOUS
 10
-1.225839
 20
0.900157
  0
VERTEX
  8
PLAN_1
  6
CONTINUOUS
 10
-1.233220
 20
0.902618
  0
VERTEX
  8
PLAN_1
  6
CONTINUOUS
 10
-1.240606
 20
0.904587
  0
VERTEX
  8
PLAN_1
  6
CONTINUOUS
 10
-1.248480
 20
0.906063
  0
VERTEX
  8
PLAN_1
  6
CONTINUOUS
 10
-1.256358
 20
0.906063
  0
VERTEX
  8
PLAN_1
  6
CONTINUOUS
 10
-1.264236
 20
0.906063
  0
VERTEX
  8
PLAN_1
  6
CONTINUOUS
 10
-1.272110
 20
0.904587
  0
VERTEX
  8
PLAN_1
  6
CONTINUOUS
 10
-1.279988
 20
0.902618
  0
VERTEX
  8
PLAN_1
  6
CONTINUOUS
 10
-1.286878
 20
0.900157
  0
VERTEX
  8
PLAN_1
  6
CONTINUOUS
 10
-1.293772
 20
0.896713
  0
VERTEX
  8
PLAN_1
  6
CONTINUOUS
 10
-1.300173
 20
0.892772
  0
VERTEX
  8
PLAN_1
  6
CONTINUOUS
 10
-1.306571
 20
0.888343
  0
VERTEX
  8
PLAN_1
  6
CONTINUOUS
 10
-1.311984
 20
0.883421
  0
VERTEX
  8
PLAN_1
  6
CONTINUOUS
 10
-1.316909
 20
0.877512
  0
VERTEX
  8
PLAN_1
  6
CONTINUOUS
 10
-1.321831
 20
0.871606
  0
VERTEX
  8
PLAN_1
  6
CONTINUOUS
 10
-1.325772
 20
0.865205
  0
VERTEX
  8
PLAN_1
  6
CONTINUOUS
 10
-1.328724
 20
0.858315
  0
VERTEX
  8
PLAN_1
  6
CONTINUOUS
 10
-1.331677
 20
0.850929
  0
VERTEX
  8
PLAN_1
  6
CONTINUOUS
 10
-1.333646
 20
0.843543
  0
VERTEX
  8
PLAN_1
  6
CONTINUOUS
 10
-1.334630
 20
0.835669
  0
VERTEX
  8
PLAN_1
  6
CONTINUOUS
 10
-1.335122
 20
0.827791
  0
VERTEX
  8
PLAN_1
  6
CONTINUOUS
 10
-1.334630
 20
0.819421
  0
VERTEX
  8
PLAN_1
  6
CONTINUOUS
 10
-1.333646
 20
0.811547
  0
VERTEX
  8
PLAN_1
  6
CONTINUOUS
 10
-1.331677
 20
0.804161
  0
VERTEX
  8
PLAN_1
  6
CONTINUOUS
 10
-1.328724
 20
0.796780
  0
VERTEX
  8
PLAN_1
  6
CONTINUOUS
 10
-1.325772
 20
0.789886
  0
VERTEX
  8
PLAN_1
  6
CONTINUOUS
 10
-1.321831
 20
0.783484
  0
VERTEX
  8
PLAN_1
  6
CONTINUOUS
 10
-1.316909
 20
0.777579
  0
VERTEX
  8
PLAN_1
  6
CONTINUOUS
 10
-1.311984
 20
0.771673
  0
VERTEX
  8
PLAN_1
  6
CONTINUOUS
 10
-1.306571
 20
0.766748
  0
VERTEX
  8
PLAN_1
  6
CONTINUOUS
 10
-1.300173
 20
0.762319
  0
VERTEX
  8
PLAN_1
  6
CONTINUOUS
 10
-1.293772
 20
0.758378
  0
VERTEX
  8
PLAN_1
  6
CONTINUOUS
 10
-1.286878
 20
0.754933
  0
VERTEX
  8
PLAN_1
  6
CONTINUOUS
 10
-1.279988
 20
0.752472
  0
VERTEX
  8
PLAN_1
  6
CONTINUOUS
 10
-1.272110
 20
0.750504
  0
VERTEX
  8
PLAN_1
  6
CONTINUOUS
 10
-1.264236
 20
0.749028
  0
VERTEX
  8
PLAN_1
  6
CONTINUOUS
 10
-1.256358
 20
0.749028
  0
SEQEND
  8
0
  0
POLYLINE
  8
PLAN_1
  6
CONTINUOUS
 66
     1
 40
0.006890
 41
0.006890
  0
VERTEX
  8
PLAN_1
  6
CONTINUOUS
 10
-1.620646
 20
1.219650
  0
VERTEX
  8
PLAN_1
  6
CONTINUOUS
 10
-1.682673
 20
1.219650
  0
VERTEX
  8
PLAN_1
  6
CONTINUOUS
 10
-1.682673
 20
1.249677
  0
VERTEX
  8
PLAN_1
  6
CONTINUOUS
 10
-1.776701
 20
1.249677
  0
VERTEX
  8
PLAN_1
  6
CONTINUOUS
 10
-1.776701
 20
1.191587
  0
VERTEX
  8
PLAN_1
  6
CONTINUOUS
 10
-1.524161
 20
1.191587
  0
VERTEX
  8
PLAN_1
  6
CONTINUOUS
 10
-1.524161
 20
1.249677
  0
VERTEX
  8
PLAN_1
  6
CONTINUOUS
 10
-1.620646
 20
1.249677
  0
VERTEX
  8
PLAN_1
  6
CONTINUOUS
 10
-1.620646
 20
1.219650
  0
SEQEND
  8
0
  0
POLYLINE
  8
PLAN_1
  6
CONTINUOUS
 66
     1
 40
0.006890
 41
0.006890
  0
VERTEX
  8
PLAN_1
  6
CONTINUOUS
 10
-0.828071
 20
1.219650
  0
VERTEX
  8
PLAN_1
  6
CONTINUOUS
 10
-0.890098
 20
1.219650
  0
VERTEX
  8
PLAN_1
  6
CONTINUOUS
 10
-0.890098
 20
1.249677
  0
VERTEX
  8
PLAN_1
  6
CONTINUOUS
 10
-0.978713
 20
1.249677
  0
VERTEX
  8
PLAN_1
  6
CONTINUOUS
 10
-0.978713
 20
1.191587
  0
VERTEX
  8
PLAN_1
  6
CONTINUOUS
 10
-0.730110
 20
1.191587
  0
VERTEX
  8
PLAN_1
  6
CONTINUOUS
 10
-0.730110
 20
1.249677
  0
VERTEX
  8
PLAN_1
  6
CONTINUOUS
 10
-0.828071
 20
1.249677
  0
VERTEX
  8
PLAN_1
  6
CONTINUOUS
 10
-0.828071
 20
1.219650
  0
SEQEND
  8
0
  0
POLYLINE
  8
PLAN_1
  6
CONTINUOUS
 66
     1
 40
0.003000
 41
0.003000
  0
VERTEX
  8
PLAN_1
  6
CONTINUOUS
 10
-1.840697
 20
0.026354
  0
VERTEX
  8
PLAN_1
  6
CONTINUOUS
 10
-1.834791
 20
0.026846
  0
VERTEX
  8
PLAN_1
  6
CONTINUOUS
 10
-1.829374
 20
0.027835
  0
VERTEX
  8
PLAN_1
  6
CONTINUOUS
 10
-1.823469
 20
0.029311
  0
VERTEX
  8
PLAN_1
  6
CONTINUOUS
 10
-1.818543
 20
0.030787
  0
VERTEX
  8
PLAN_1
  6
CONTINUOUS
 10
-1.813622
 20
0.033248
  0
VERTEX
  8
PLAN_1
  6
CONTINUOUS
 10
-1.808701
 20
0.036201
  0
VERTEX
  8
PLAN_1
  6
CONTINUOUS
 10
-1.804268
 20
0.039650
  0
VERTEX
  8
PLAN_1
  6
CONTINUOUS
 10
-1.800331
 20
0.043094
  0
VERTEX
  8
PLAN_1
  6
CONTINUOUS
 10
-1.796886
 20
0.047031
  0
VERTEX
  8
PLAN_1
  6
CONTINUOUS
 10
-1.793437
 20
0.051461
  0
VERTEX
  8
PLAN_1
  6
CONTINUOUS
 10
-1.790484
 20
0.056386
  0
VERTEX
  8
PLAN_1
  6
CONTINUOUS
 10
-1.788516
 20
0.061307
  0
VERTEX
  8
PLAN_1
  6
CONTINUOUS
 10
-1.786547
 20
0.066232
  0
VERTEX
  8
PLAN_1
  6
CONTINUOUS
 10
-1.785071
 20
0.071646
  0
VERTEX
  8
PLAN_1
  6
CONTINUOUS
 10
-1.784087
 20
0.077555
  0
VERTEX
  8
PLAN_1
  6
CONTINUOUS
 10
-1.783594
 20
0.083461
  0
VERTEX
  8
PLAN_1
  6
CONTINUOUS
 10
-1.784087
 20
0.088874
  0
VERTEX
  8
PLAN_1
  6
CONTINUOUS
 10
-1.785071
 20
0.094783
  0
VERTEX
  8
PLAN_1
  6
CONTINUOUS
 10
-1.786547
 20
0.100197
  0
VERTEX
  8
PLAN_1
  6
CONTINUOUS
 10
-1.788516
 20
0.105614
  0
VERTEX
  8
PLAN_1
  6
CONTINUOUS
 10
-1.790484
 20
0.110535
  0
VERTEX
  8
PLAN_1
  6
CONTINUOUS
 10
-1.793437
 20
0.114969
  0
VERTEX
  8
PLAN_1
  6
CONTINUOUS
 10
-1.796886
 20
0.119398
  0
VERTEX
  8
PLAN_1
  6
CONTINUOUS
 10
-1.800331
 20
0.123335
  0
VERTEX
  8
PLAN_1
  6
CONTINUOUS
 10
-1.804268
 20
0.127276
  0
VERTEX
  8
PLAN_1
  6
CONTINUOUS
 10
-1.808701
 20
0.130228
  0
VERTEX
  8
PLAN_1
  6
CONTINUOUS
 10
-1.813622
 20
0.133181
  0
VERTEX
  8
PLAN_1
  6
CONTINUOUS
 10
-1.818543
 20
0.135642
  0
VERTEX
  8
PLAN_1
  6
CONTINUOUS
 10
-1.823469
 20
0.137610
  0
VERTEX
  8
PLAN_1
  6
CONTINUOUS
 10
-1.829374
 20
0.139091
  0
VERTEX
  8
PLAN_1
  6
CONTINUOUS
 10
-1.834791
 20
0.139583
  0
VERTEX
  8
PLAN_1
  6
CONTINUOUS
 10
-1.840697
 20
0.140075
  0
VERTEX
  8
PLAN_1
  6
CONTINUOUS
 10
-1.846606
 20
0.139583
  0
VERTEX
  8
PLAN_1
  6
CONTINUOUS
 10
-1.852020
 20
0.139091
  0
VERTEX
  8
PLAN_1
  6
CONTINUOUS
 10
-1.857433
 20
0.137610
  0
VERTEX
  8
PLAN_1
  6
CONTINUOUS
 10
-1.862850
 20
0.135642
  0
VERTEX
  8
PLAN_1
  6
CONTINUOUS
 10
-1.867772
 20
0.133181
  0
VERTEX
  8
PLAN_1
  6
CONTINUOUS
 10
-1.872205
 20
0.130228
  0
VERTEX
  8
PLAN_1
  6
CONTINUOUS
 10
-1.876634
 20
0.127276
  0
VERTEX
  8
PLAN_1
  6
CONTINUOUS
 10
-1.880571
 20
0.123335
  0
VERTEX
  8
PLAN_1
  6
CONTINUOUS
 10
-1.884512
 20
0.119398
  0
VERTEX
  8
PLAN_1
  6
CONTINUOUS
 10
-1.887465
 20
0.114969
  0
VERTEX
  8
PLAN_1
  6
CONTINUOUS
 10
-1.890417
 20
0.110535
  0
VERTEX
  8
PLAN_1
  6
CONTINUOUS
 10
-1.892878
 20
0.105614
  0
VERTEX
  8
PLAN_1
  6
CONTINUOUS
 10
-1.894846
 20
0.100197
  0
VERTEX
  8
PLAN_1
  6
CONTINUOUS
 10
-1.896327
 20
0.094783
  0
VERTEX
  8
PLAN_1
  6
CONTINUOUS
 10
-1.896819
 20
0.088874
  0
VERTEX
  8
PLAN_1
  6
CONTINUOUS
 10
-1.897311
 20
0.083461
  0
VERTEX
  8
PLAN_1
  6
CONTINUOUS
 10
-1.896819
 20
0.077555
  0
VERTEX
  8
PLAN_1
  6
CONTINUOUS
 10
-1.896327
 20
0.071646
  0
VERTEX
  8
PLAN_1
  6
CONTINUOUS
 10
-1.894846
 20
0.066232
  0
VERTEX
  8
PLAN_1
  6
CONTINUOUS
 10
-1.892878
 20
0.061307
  0
VERTEX
  8
PLAN_1
  6
CONTINUOUS
 10
-1.890417
 20
0.056386
  0
VERTEX
  8
PLAN_1
  6
CONTINUOUS
 10
-1.887465
 20
0.051461
  0
VERTEX
  8
PLAN_1
  6
CONTINUOUS
 10
-1.884512
 20
0.047031
  0
VERTEX
  8
PLAN_1
  6
CONTINUOUS
 10
-1.880571
 20
0.043094
  0
VERTEX
  8
PLAN_1
  6
CONTINUOUS
 10
-1.876634
 20
0.039650
  0
VERTEX
  8
PLAN_1
  6
CONTINUOUS
 10
-1.872205
 20
0.036201
  0
VERTEX
  8
PLAN_1
  6
CONTINUOUS
 10
-1.867772
 20
0.033248
  0
VERTEX
  8
PLAN_1
  6
CONTINUOUS
 10
-1.862850
 20
0.030787
  0
VERTEX
  8
PLAN_1
  6
CONTINUOUS
 10
-1.857433
 20
0.029311
  0
VERTEX
  8
PLAN_1
  6
CONTINUOUS
 10
-1.852020
 20
0.027835
  0
VERTEX
  8
PLAN_1
  6
CONTINUOUS
 10
-1.846606
 20
0.026846
  0
VERTEX
  8
PLAN_1
  6
CONTINUOUS
 10
-1.840697
 20
0.026354
  0
SEQEND
  8
0
  0
POLYLINE
  8
PLAN_1
  6
CONTINUOUS
 66
     1
 40
0.003937
 41
0.003937
  0
VERTEX
  8
PLAN_1
  6
CONTINUOUS
 10
-1.841189
 20
0.209484
  0
VERTEX
  8
PLAN_1
  6
CONTINUOUS
 10
-1.841189
 20
-0.057823
  0
SEQEND
  8
0
  0
POLYLINE
  8
PLAN_1
  6
CONTINUOUS
 66
     1
 40
0.003937
 41
0.003937
  0
VERTEX
  8
PLAN_1
  6
CONTINUOUS
 10
-1.974106
 20
0.084937
  0
VERTEX
  8
PLAN_1
  6
CONTINUOUS
 10
-1.707287
 20
0.084937
  0
SEQEND
  8
0
  0
POLYLINE
  8
PLAN_1
  6
CONTINUOUS
 66
     1
 40
0.003000
 41
0.003000
  0
VERTEX
  8
PLAN_1
  6
CONTINUOUS
 10
-0.652327
 20
0.026354
  0
VERTEX
  8
PLAN_1
  6
CONTINUOUS
 10
-0.646421
 20
0.026846
  0
VERTEX
  8
PLAN_1
  6
CONTINUOUS
 10
-0.641004
 20
0.027835
  0
VERTEX
  8
PLAN_1
  6
CONTINUOUS
 10
-0.635591
 20
0.029311
  0
VERTEX
  8
PLAN_1
  6
CONTINUOUS
 10
-0.630177
 20
0.030787
  0
VERTEX
  8
PLAN_1
  6
CONTINUOUS
 10
-0.625252
 20
0.033248
  0
VERTEX
  8
PLAN_1
  6
CONTINUOUS
 10
-0.620331
 20
0.036201
  0
VERTEX
  8
PLAN_1
  6
CONTINUOUS
 10
-0.616390
 20
0.039650
  0
VERTEX
  8
PLAN_1
  6
CONTINUOUS
 10
-0.611961
 20
0.043094
  0
VERTEX
  8
PLAN_1
  6
CONTINUOUS
 10
-0.608516
 20
0.047031
  0
VERTEX
  8
PLAN_1
  6
CONTINUOUS
 10
-0.605071
 20
0.051461
  0
VERTEX
  8
PLAN_1
  6
CONTINUOUS
 10
-0.602606
 20
0.056386
  0
VERTEX
  8
PLAN_1
  6
CONTINUOUS
 10
-0.600146
 20
0.061307
  0
VERTEX
  8
PLAN_1
  6
CONTINUOUS
 10
-0.598177
 20
0.066232
  0
VERTEX
  8
PLAN_1
  6
CONTINUOUS
 10
-0.596701
 20
0.071646
  0
VERTEX
  8
PLAN_1
  6
CONTINUOUS
 10
-0.595717
 20
0.077555
  0
VERTEX
  8
PLAN_1
  6
CONTINUOUS
 10
-0.595717
 20
0.083461
  0
VERTEX
  8
PLAN_1
  6
CONTINUOUS
 10
-0.595717
 20
0.088874
  0
VERTEX
  8
PLAN_1
  6
CONTINUOUS
 10
-0.596701
 20
0.094783
  0
VERTEX
  8
PLAN_1
  6
CONTINUOUS
 10
-0.598177
 20
0.100197
  0
VERTEX
  8
PLAN_1
  6
CONTINUOUS
 10
-0.600146
 20
0.105614
  0
VERTEX
  8
PLAN_1
  6
CONTINUOUS
 10
-0.602606
 20
0.110535
  0
VERTEX
  8
PLAN_1
  6
CONTINUOUS
 10
-0.605071
 20
0.114969
  0
VERTEX
  8
PLAN_1
  6
CONTINUOUS
 10
-0.608516
 20
0.119398
  0
VERTEX
  8
PLAN_1
  6
CONTINUOUS
 10
-0.611961
 20
0.123335
  0
VERTEX
  8
PLAN_1
  6
CONTINUOUS
 10
-0.616390
 20
0.127276
  0
VERTEX
  8
PLAN_1
  6
CONTINUOUS
 10
-0.620331
 20
0.130228
  0
VERTEX
  8
PLAN_1
  6
CONTINUOUS
 10
-0.625252
 20
0.133181
  0
VERTEX
  8
PLAN_1
  6
CONTINUOUS
 10
-0.630177
 20
0.135642
  0
VERTEX
  8
PLAN_1
  6
CONTINUOUS
 10
-0.635591
 20
0.137610
  0
VERTEX
  8
PLAN_1
  6
CONTINUOUS
 10
-0.641004
 20
0.139091
  0
VERTEX
  8
PLAN_1
  6
CONTINUOUS
 10
-0.646421
 20
0.139583
  0
VERTEX
  8
PLAN_1
  6
CONTINUOUS
 10
-0.652327
 20
0.140075
  0
VERTEX
  8
PLAN_1
  6
CONTINUOUS
 10
-0.658236
 20
0.139583
  0
VERTEX
  8
PLAN_1
  6
CONTINUOUS
 10
-0.663650
 20
0.139091
  0
VERTEX
  8
PLAN_1
  6
CONTINUOUS
 10
-0.669067
 20
0.137610
  0
VERTEX
  8
PLAN_1
  6
CONTINUOUS
 10
-0.674480
 20
0.135642
  0
VERTEX
  8
PLAN_1
  6
CONTINUOUS
 10
-0.679402
 20
0.133181
  0
VERTEX
  8
PLAN_1
  6
CONTINUOUS
 10
-0.683835
 20
0.130228
  0
VERTEX
  8
PLAN_1
  6
CONTINUOUS
 10
-0.688264
 20
0.127276
  0
VERTEX
  8
PLAN_1
  6
CONTINUOUS
 10
-0.692205
 20
0.123335
  0
VERTEX
  8
PLAN_1
  6
CONTINUOUS
 10
-0.696142
 20
0.119398
  0
VERTEX
  8
PLAN_1
  6
CONTINUOUS
 10
-0.699587
 20
0.114969
  0
VERTEX
  8
PLAN_1
  6
CONTINUOUS
 10
-0.702047
 20
0.110535
  0
VERTEX
  8
PLAN_1
  6
CONTINUOUS
 10
-0.704512
 20
0.105614
  0
VERTEX
  8
PLAN_1
  6
CONTINUOUS
 10
-0.706480
 20
0.100197
  0
VERTEX
  8
PLAN_1
  6
CONTINUOUS
 10
-0.707957
 20
0.094783
  0
VERTEX
  8
PLAN_1
  6
CONTINUOUS
 10
-0.708941
 20
0.088874
  0
VERTEX
  8
PLAN_1
  6
CONTINUOUS
 10
-0.708941
 20
0.083461
  0
VERTEX
  8
PLAN_1
  6
CONTINUOUS
 10
-0.708941
 20
0.077555
  0
VERTEX
  8
PLAN_1
  6
CONTINUOUS
 10
-0.707957
 20
0.071646
  0
VERTEX
  8
PLAN_1
  6
CONTINUOUS
 10
-0.706480
 20
0.066232
  0
VERTEX
  8
PLAN_1
  6
CONTINUOUS
 10
-0.704512
 20
0.061307
  0
VERTEX
  8
PLAN_1
  6
CONTINUOUS
 10
-0.702047
 20
0.056386
  0
VERTEX
  8
PLAN_1
  6
CONTINUOUS
 10
-0.699587
 20
0.051461
  0
VERTEX
  8
PLAN_1
  6
CONTINUOUS
 10
-0.696142
 20
0.047031
  0
VERTEX
  8
PLAN_1
  6
CONTINUOUS
 10
-0.692205
 20
0.043094
  0
VERTEX
  8
PLAN_1
  6
CONTINUOUS
 10
-0.688264
 20
0.039650
  0
VERTEX
  8
PLAN_1
  6
CONTINUOUS
 10
-0.683835
 20
0.036201
  0
VERTEX
  8
PLAN_1
  6
CONTINUOUS
 10
-0.679402
 20
0.033248
  0
VERTEX
  8
PLAN_1
  6
CONTINUOUS
 10
-0.674480
 20
0.030787
  0
VERTEX
  8
PLAN_1
  6
CONTINUOUS
 10
-0.669067
 20
0.029311
  0
VERTEX
  8
PLAN_1
  6
CONTINUOUS
 10
-0.663650
 20
0.027835
  0
VERTEX
  8
PLAN_1
  6
CONTINUOUS
 10
-0.658236
 20
0.026846
  0
VERTEX
  8
PLAN_1
  6
CONTINUOUS
 10
-0.652327
 20
0.026354
  0
SEQEND
  8
0
  0
POLYLINE
  8
PLAN_1
  6
CONTINUOUS
 66
     1
 40
0.003937
 41
0.003937
  0
VERTEX
  8
PLAN_1
  6
CONTINUOUS
 10
-0.653311
 20
0.209484
  0
VERTEX
  8
PLAN_1
  6
CONTINUOUS
 10
-0.653311
 20
-0.057823
  0
SEQEND
  8
0
  0
POLYLINE
  8
PLAN_1
  6
CONTINUOUS
 66
     1
 40
0.003937
 41
0.003937
  0
VERTEX
  8
PLAN_1
  6
CONTINUOUS
 10
-0.785736
 20
0.084937
  0
VERTEX
  8
PLAN_1
  6
CONTINUOUS
 10
-0.518921
 20
0.084937
  0
SEQEND
  8
0
  0
POLYLINE
  8
PLAN_1
  6
CONTINUOUS
 66
     1
 40
0.008366
 41
0.008366
  0
VERTEX
  8
PLAN_1
  6
CONTINUOUS
 10
-1.247988
 20
1.720791
  0
VERTEX
  8
PLAN_1
  6
CONTINUOUS
 10
-1.197283
 20
1.721776
  0
VERTEX
  8
PLAN_1
  6
CONTINUOUS
 10
-1.147071
 20
1.725713
  0
VERTEX
  8
PLAN_1
  6
CONTINUOUS
 10
-1.097843
 20
1.732114
  0
VERTEX
  8
PLAN_1
  6
CONTINUOUS
 10
-1.049598
 20
1.740484
  0
VERTEX
  8
PLAN_1
  6
CONTINUOUS
 10
-1.001846
 20
1.751807
  0
VERTEX
  8
PLAN_1
  6
CONTINUOUS
 10
-0.955083
 20
1.764606
  0
VERTEX
  8
PLAN_1
  6
CONTINUOUS
 10
-0.909299
 20
1.780358
  0
VERTEX
  8
PLAN_1
  6
CONTINUOUS
 10
-0.864992
 20
1.798079
  0
VERTEX
  8
PLAN_1
  6
CONTINUOUS
 10
-0.821181
 20
1.817772
  0
VERTEX
  8
PLAN_1
  6
CONTINUOUS
 10
-0.778846
 20
1.839433
  0
VERTEX
  8
PLAN_1
  6
CONTINUOUS
 10
-0.737492
 20
1.863063
  0
VERTEX
  8
PLAN_1
  6
CONTINUOUS
 10
-0.697618
 20
1.888661
  0
VERTEX
  8
PLAN_1
  6
CONTINUOUS
 10
-0.659220
 20
1.916228
  0
VERTEX
  8
PLAN_1
  6
CONTINUOUS
 10
-0.621807
 20
1.945272
  0
VERTEX
  8
PLAN_1
  6
CONTINUOUS
 10
-0.586362
 20
1.976287
  0
VERTEX
  8
PLAN_1
  6
CONTINUOUS
 10
-0.551902
 20
2.008776
  0
VERTEX
  8
PLAN_1
  6
CONTINUOUS
 10
-0.519413
 20
2.043236
  0
VERTEX
  8
PLAN_1
  6
CONTINUOUS
 10
-0.488398
 20
2.078681
  0
VERTEX
  8
PLAN_1
  6
CONTINUOUS
 10
-0.459354
 20
2.116094
  0
VERTEX
  8
PLAN_1
  6
CONTINUOUS
 10
-0.431787
 20
2.154492
  0
VERTEX
  8
PLAN_1
  6
CONTINUOUS
 10
-0.406185
 20
2.194366
  0
VERTEX
  8
PLAN_1
  6
CONTINUOUS
 10
-0.382559
 20
2.235720
  0
VERTEX
  8
PLAN_1
  6
CONTINUOUS
 10
-0.360898
 20
2.278055
  0
VERTEX
  8
PLAN_1
  6
CONTINUOUS
 10
-0.341205
 20
2.321374
  0
VERTEX
  8
PLAN_1
  6
CONTINUOUS
 10
-0.323484
 20
2.366173
  0
VERTEX
  8
PLAN_1
  6
CONTINUOUS
 10
-0.308224
 20
2.411957
  0
VERTEX
  8
PLAN_1
  6
CONTINUOUS
 10
-0.294929
 20
2.458724
  0
VERTEX
  8
PLAN_1
  6
CONTINUOUS
 10
-0.283610
 20
2.506472
  0
VERTEX
  8
PLAN_1
  6
CONTINUOUS
 10
-0.275240
 20
2.554717
  0
VERTEX
  8
PLAN_1
  6
CONTINUOUS
 10
-0.268839
 20
2.603945
  0
VERTEX
  8
PLAN_1
  6
CONTINUOUS
 10
-0.264902
 20
2.654157
  0
VERTEX
  8
PLAN_1
  6
CONTINUOUS
 10
-0.263917
 20
2.704862
  0
VERTEX
  8
PLAN_1
  6
CONTINUOUS
 10
-0.264902
 20
2.755075
  0
VERTEX
  8
PLAN_1
  6
CONTINUOUS
 10
-0.268839
 20
2.805291
  0
VERTEX
  8
PLAN_1
  6
CONTINUOUS
 10
-0.275240
 20
2.854516
  0
VERTEX
  8
PLAN_1
  6
CONTINUOUS
 10
-0.283610
 20
2.902760
  0
VERTEX
  8
PLAN_1
  6
CONTINUOUS
 10
-0.294929
 20
2.950512
  0
VERTEX
  8
PLAN_1
  6
CONTINUOUS
 10
-0.308224
 20
2.997280
  0
VERTEX
  8
PLAN_1
  6
CONTINUOUS
 10
-0.323484
 20
3.043063
  0
VERTEX
  8
PLAN_1
  6
CONTINUOUS
 10
-0.341205
 20
3.087858
  0
VERTEX
  8
PLAN_1
  6
CONTINUOUS
 10
-0.360898
 20
3.131181
  0
VERTEX
  8
PLAN_1
  6
CONTINUOUS
 10
-0.382559
 20
3.173516
  0
VERTEX
  8
PLAN_1
  6
CONTINUOUS
 10
-0.406185
 20
3.214870
  0
VERTEX
  8
PLAN_1
  6
CONTINUOUS
 10
-0.431787
 20
3.254744
  0
VERTEX
  8
PLAN_1
  6
CONTINUOUS
 10
-0.459354
 20
3.293634
  0
VERTEX
  8
PLAN_1
  6
CONTINUOUS
 10
-0.488398
 20
3.330555
  0
VERTEX
  8
PLAN_1
  6
CONTINUOUS
 10
-0.519413
 20
3.366492
  0
VERTEX
  8
PLAN_1
  6
CONTINUOUS
 10
-0.551902
 20
3.400457
  0
VERTEX
  8
PLAN_1
  6
CONTINUOUS
 10
-0.586362
 20
3.432949
  0
VERTEX
  8
PLAN_1
  6
CONTINUOUS
 10
-0.621807
 20
3.463965
  0
VERTEX
  8
PLAN_1
  6
CONTINUOUS
 10
-0.659220
 20
3.493008
  0
VERTEX
  8
PLAN_1
  6
CONTINUOUS
 10
-0.697618
 20
3.520575
  0
VERTEX
  8
PLAN_1
  6
CONTINUOUS
 10
-0.737492
 20
3.546173
  0
VERTEX
  8
PLAN_1
  6
CONTINUOUS
 10
-0.778846
 20
3.569803
  0
VERTEX
  8
PLAN_1
  6
CONTINUOUS
 10
-0.821181
 20
3.591465
  0
VERTEX
  8
PLAN_1
  6
CONTINUOUS
 10
-0.864992
 20
3.611154
  0
VERTEX
  8
PLAN_1
  6
CONTINUOUS
 10
-0.909299
 20
3.628878
  0
VERTEX
  8
PLAN_1
  6
CONTINUOUS
 10
-0.955083
 20
3.644630
  0
VERTEX
  8
PLAN_1
  6
CONTINUOUS
 10
-1.001846
 20
3.657921
  0
VERTEX
  8
PLAN_1
  6
CONTINUOUS
 10
-1.049598
 20
3.668752
  0
VERTEX
  8
PLAN_1
  6
CONTINUOUS
 10
-1.097843
 20
3.677122
  0
VERTEX
  8
PLAN_1
  6
CONTINUOUS
 10
-1.147071
 20
3.683520
  0
VERTEX
  8
PLAN_1
  6
CONTINUOUS
 10
-1.197283
 20
3.687461
  0
VERTEX
  8
PLAN_1
  6
CONTINUOUS
 10
-1.247988
 20
3.688445
  0
VERTEX
  8
PLAN_1
  6
CONTINUOUS
 10
-1.298693
 20
3.687461
  0
VERTEX
  8
PLAN_1
  6
CONTINUOUS
 10
-1.348413
 20
3.683520
  0
VERTEX
  8
PLAN_1
  6
CONTINUOUS
 10
-1.397642
 20
3.677122
  0
VERTEX
  8
PLAN_1
  6
CONTINUOUS
 10
-1.445886
 20
3.668752
  0
VERTEX
  8
PLAN_1
  6
CONTINUOUS
 10
-1.493638
 20
3.657921
  0
VERTEX
  8
PLAN_1
  6
CONTINUOUS
 10
-1.540406
 20
3.644630
  0
VERTEX
  8
PLAN_1
  6
CONTINUOUS
 10
-1.586189
 20
3.628878
  0
VERTEX
  8
PLAN_1
  6
CONTINUOUS
 10
-1.630984
 20
3.611154
  0
VERTEX
  8
PLAN_1
  6
CONTINUOUS
 10
-1.674307
 20
3.591465
  0
VERTEX
  8
PLAN_1
  6
CONTINUOUS
 10
-1.716642
 20
3.569803
  0
VERTEX
  8
PLAN_1
  6
CONTINUOUS
 10
-1.757992
 20
3.546173
  0
VERTEX
  8
PLAN_1
  6
CONTINUOUS
 10
-1.797870
 20
3.520575
  0
VERTEX
  8
PLAN_1
  6
CONTINUOUS
 10
-1.836760
 20
3.493008
  0
VERTEX
  8
PLAN_1
  6
CONTINUOUS
 10
-1.873681
 20
3.463965
  0
VERTEX
  8
PLAN_1
  6
CONTINUOUS
 10
-1.909618
 20
3.432949
  0
VERTEX
  8
PLAN_1
  6
CONTINUOUS
 10
-1.943583
 20
3.400457
  0
VERTEX
  8
PLAN_1
  6
CONTINUOUS
 10
-1.976075
 20
3.366492
  0
VERTEX
  8
PLAN_1
  6
CONTINUOUS
 10
-2.007091
 20
3.330555
  0
VERTEX
  8
PLAN_1
  6
CONTINUOUS
 10
-2.036134
 20
3.293634
  0
VERTEX
  8
PLAN_1
  6
CONTINUOUS
 10
-2.063701
 20
3.254744
  0
VERTEX
  8
PLAN_1
  6
CONTINUOUS
 10
-2.089299
 20
3.214870
  0
VERTEX
  8
PLAN_1
  6
CONTINUOUS
 10
-2.112929
 20
3.173516
  0
VERTEX
  8
PLAN_1
  6
CONTINUOUS
 10
-2.134591
 20
3.131181
  0
VERTEX
  8
PLAN_1
  6
CONTINUOUS
 10
-2.154280
 20
3.087858
  0
VERTEX
  8
PLAN_1
  6
CONTINUOUS
 10
-2.172004
 20
3.043063
  0
VERTEX
  8
PLAN_1
  6
CONTINUOUS
 10
-2.187756
 20
2.997280
  0
VERTEX
  8
PLAN_1
  6
CONTINUOUS
 10
-2.201047
 20
2.950512
  0
VERTEX
  8
PLAN_1
  6
CONTINUOUS
 10
-2.211878
 20
2.902760
  0
VERTEX
  8
PLAN_1
  6
CONTINUOUS
 10
-2.220740
 20
2.854516
  0
VERTEX
  8
PLAN_1
  6
CONTINUOUS
 10
-2.226646
 20
2.805291
  0
VERTEX
  8
PLAN_1
  6
CONTINUOUS
 10
-2.230587
 20
2.755075
  0
VERTEX
  8
PLAN_1
  6
CONTINUOUS
 10
-2.232063
 20
2.704862
  0
VERTEX
  8
PLAN_1
  6
CONTINUOUS
 10
-2.230587
 20
2.654157
  0
VERTEX
  8
PLAN_1
  6
CONTINUOUS
 10
-2.226646
 20
2.603945
  0
VERTEX
  8
PLAN_1
  6
CONTINUOUS
 10
-2.220740
 20
2.554717
  0
VERTEX
  8
PLAN_1
  6
CONTINUOUS
 10
-2.211878
 20
2.506472
  0
VERTEX
  8
PLAN_1
  6
CONTINUOUS
 10
-2.201047
 20
2.458724
  0
VERTEX
  8
PLAN_1
  6
CONTINUOUS
 10
-2.187756
 20
2.411957
  0
VERTEX
  8
PLAN_1
  6
CONTINUOUS
 10
-2.172004
 20
2.366173
  0
VERTEX
  8
PLAN_1
  6
CONTINUOUS
 10
-2.154280
 20
2.321374
  0
VERTEX
  8
PLAN_1
  6
CONTINUOUS
 10
-2.134591
 20
2.278055
  0
VERTEX
  8
PLAN_1
  6
CONTINUOUS
 10
-2.112929
 20
2.235720
  0
VERTEX
  8
PLAN_1
  6
CONTINUOUS
 10
-2.089299
 20
2.194366
  0
VERTEX
  8
PLAN_1
  6
CONTINUOUS
 10
-2.063701
 20
2.154492
  0
VERTEX
  8
PLAN_1
  6
CONTINUOUS
 10
-2.036134
 20
2.116094
  0
VERTEX
  8
PLAN_1
  6
CONTINUOUS
 10
-2.007091
 20
2.078681
  0
VERTEX
  8
PLAN_1
  6
CONTINUOUS
 10
-1.976075
 20
2.043236
  0
VERTEX
  8
PLAN_1
  6
CONTINUOUS
 10
-1.943583
 20
2.008776
  0
VERTEX
  8
PLAN_1
  6
CONTINUOUS
 10
-1.909618
 20
1.976287
  0
VERTEX
  8
PLAN_1
  6
CONTINUOUS
 10
-1.873681
 20
1.945272
  0
VERTEX
  8
PLAN_1
  6
CONTINUOUS
 10
-1.836760
 20
1.916228
  0
VERTEX
  8
PLAN_1
  6
CONTINUOUS
 10
-1.797870
 20
1.888661
  0
VERTEX
  8
PLAN_1
  6
CONTINUOUS
 10
-1.757992
 20
1.863063
  0
VERTEX
  8
PLAN_1
  6
CONTINUOUS
 10
-1.716642
 20
1.839433
  0
VERTEX
  8
PLAN_1
  6
CONTINUOUS
 10
-1.674307
 20
1.817772
  0
VERTEX
  8
PLAN_1
  6
CONTINUOUS
 10
-1.630984
 20
1.798079
  0
VERTEX
  8
PLAN_1
  6
CONTINUOUS
 10
-1.586189
 20
1.780358
  0
VERTEX
  8
PLAN_1
  6
CONTINUOUS
 10
-1.540406
 20
1.764606
  0
VERTEX
  8
PLAN_1
  6
CONTINUOUS
 10
-1.493638
 20
1.751807
  0
VERTEX
  8
PLAN_1
  6
CONTINUOUS
 10
-1.445886
 20
1.740484
  0
VERTEX
  8
PLAN_1
  6
CONTINUOUS
 10
-1.397642
 20
1.732114
  0
VERTEX
  8
PLAN_1
  6
CONTINUOUS
 10
-1.348413
 20
1.725713
  0
VERTEX
  8
PLAN_1
  6
CONTINUOUS
 10
-1.298693
 20
1.721776
  0
VERTEX
  8
PLAN_1
  6
CONTINUOUS
 10
-1.247988
 20
1.720791
  0
SEQEND
  8
0
  0
POLYLINE
  8
PLAN_1
  6
CONTINUOUS
 66
     1
 40
0.008366
 41
0.008366
  0
VERTEX
  8
PLAN_1
  6
CONTINUOUS
 10
-1.293280
 20
3.035677
  0
VERTEX
  8
PLAN_1
  6
CONTINUOUS
 10
-1.307063
 20
3.033217
  0
VERTEX
  8
PLAN_1
  6
CONTINUOUS
 10
-1.320354
 20
3.030756
  0
VERTEX
  8
PLAN_1
  6
CONTINUOUS
 10
-1.334138
 20
3.027307
  0
VERTEX
  8
PLAN_1
  6
CONTINUOUS
 10
-1.346937
 20
3.023370
  0
VERTEX
  8
PLAN_1
  6
CONTINUOUS
 10
-1.360228
 20
3.019433
  0
VERTEX
  8
PLAN_1
  6
CONTINUOUS
 10
-1.373028
 20
3.014508
  0
VERTEX
  8
PLAN_1
  6
CONTINUOUS
 10
-1.385335
 20
3.009094
  0
VERTEX
  8
PLAN_1
  6
CONTINUOUS
 10
-1.397642
 20
3.003185
  0
VERTEX
  8
PLAN_1
  6
CONTINUOUS
 10
-1.409457
 20
2.996787
  0
VERTEX
  8
PLAN_1
  6
CONTINUOUS
 10
-1.420780
 20
2.989894
  0
VERTEX
  8
PLAN_1
  6
CONTINUOUS
 10
-1.432102
 20
2.983004
  0
VERTEX
  8
PLAN_1
  6
CONTINUOUS
 10
-1.443425
 20
2.975126
  0
VERTEX
  8
PLAN_1
  6
CONTINUOUS
 10
-1.454256
 20
2.967252
  0
VERTEX
  8
PLAN_1
  6
CONTINUOUS
 10
-1.464594
 20
2.958882
  0
VERTEX
  8
PLAN_1
  6
CONTINUOUS
 10
-1.474441
 20
2.950020
  0
VERTEX
  8
PLAN_1
  6
CONTINUOUS
 10
-1.483791
 20
2.940665
  0
VERTEX
  8
PLAN_1
  6
CONTINUOUS
 10
-1.493146
 20
2.930823
  0
VERTEX
  8
PLAN_1
  6
CONTINUOUS
 10
-1.502008
 20
2.920976
  0
VERTEX
  8
PLAN_1
  6
CONTINUOUS
 10
-1.510374
 20
2.910638
  0
VERTEX
  8
PLAN_1
  6
CONTINUOUS
 10
-1.518744
 20
2.899807
  0
VERTEX
  8
PLAN_1
  6
CONTINUOUS
 10
-1.526130
 20
2.888976
  0
VERTEX
  8
PLAN_1
  6
CONTINUOUS
 10
-1.533512
 20
2.877654
  0
VERTEX
  8
PLAN_1
  6
CONTINUOUS
 10
-1.540406
 20
2.865839
  0
VERTEX
  8
PLAN_1
  6
CONTINUOUS
 10
-1.546311
 20
2.854024
  0
VERTEX
  8
PLAN_1
  6
CONTINUOUS
 10
-1.552220
 20
2.841717
  0
VERTEX
  8
PLAN_1
  6
CONTINUOUS
 10
-1.557634
 20
2.829409
  0
VERTEX
  8
PLAN_1
  6
CONTINUOUS
 10
-1.562559
 20
2.816610
  0
VERTEX
  8
PLAN_1
  6
CONTINUOUS
 10
-1.566988
 20
2.803319
  0
VERTEX
  8
PLAN_1
  6
CONTINUOUS
 10
-1.570433
 20
2.790520
  0
VERTEX
  8
PLAN_1
  6
CONTINUOUS
 10
-1.573882
 20
2.776736
  0
VERTEX
  8
PLAN_1
  6
CONTINUOUS
 10
-1.576835
 20
2.763445
  0
VERTEX
  8
PLAN_1
  6
CONTINUOUS
 10
-1.578803
 20
2.749661
  0
SEQEND
  8
0
  0
POLYLINE
  8
PLAN_1
  6
CONTINUOUS
 66
     1
 40
0.008366
 41
0.008366
  0
VERTEX
  8
PLAN_1
  6
CONTINUOUS
 10
-1.578803
 20
2.749661
  0
VERTEX
  8
PLAN_1
  6
CONTINUOUS
 10
-2.132130
 20
2.749661
  0
SEQEND
  8
0
  0
POLYLINE
  8
PLAN_1
  6
CONTINUOUS
 66
     1
 40
0.008366
 41
0.008366
  0
VERTEX
  8
PLAN_1
  6
CONTINUOUS
 10
-2.132130
 20
2.749661
  0
VERTEX
  8
PLAN_1
  6
CONTINUOUS
 10
-2.129173
 20
2.791996
  0
VERTEX
  8
PLAN_1
  6
CONTINUOUS
 10
-2.124252
 20
2.833350
  0
VERTEX
  8
PLAN_1
  6
CONTINUOUS
 10
-2.117358
 20
2.874701
  0
VERTEX
  8
PLAN_1
  6
CONTINUOUS
 10
-2.108500
 20
2.915067
  0
VERTEX
  8
PLAN_1
  6
CONTINUOUS
 10
-2.097669
 20
2.954453
  0
VERTEX
  8
PLAN_1
  6
CONTINUOUS
 10
-2.085362
 20
2.993343
  0
VERTEX
  8
PLAN_1
  6
CONTINUOUS
 10
-2.071087
 20
3.031740
  0
VERTEX
  8
PLAN_1
  6
CONTINUOUS
 10
-2.055331
 20
3.068661
  0
VERTEX
  8
PLAN_1
  6
CONTINUOUS
 10
-2.038102
 20
3.105091
  0
VERTEX
  8
PLAN_1
  6
CONTINUOUS
 10
-2.018902
 20
3.140535
  0
VERTEX
  8
PLAN_1
  6
CONTINUOUS
 10
-1.998228
 20
3.174992
  0
VERTEX
  8
PLAN_1
  6
CONTINUOUS
 10
-1.976075
 20
3.208469
  0
VERTEX
  8
PLAN_1
  6
CONTINUOUS
 10
-1.952937
 20
3.240961
  0
VERTEX
  8
PLAN_1
  6
CONTINUOUS
 10
-1.927831
 20
3.271972
  0
VERTEX
  8
PLAN_1
  6
CONTINUOUS
 10
-1.901740
 20
3.302004
  0
VERTEX
  8
PLAN_1
  6
CONTINUOUS
 10
-1.874173
 20
3.331047
  0
VERTEX
  8
PLAN_1
  6
CONTINUOUS
 10
-1.845126
 20
3.358122
  0
VERTEX
  8
PLAN_1
  6
CONTINUOUS
 10
-1.815098
 20
3.384705
  0
VERTEX
  8
PLAN_1
  6
CONTINUOUS
 10
-1.784087
 20
3.409319
  0
VERTEX
  8
PLAN_1
  6
CONTINUOUS
 10
-1.751594
 20
3.432949
  0
VERTEX
  8
PLAN_1
  6
CONTINUOUS
 10
-1.718118
 20
3.455102
  0
VERTEX
  8
PLAN_1
  6
CONTINUOUS
 10
-1.684154
 20
3.475780
  0
VERTEX
  8
PLAN_1
  6
CONTINUOUS
 10
-1.648709
 20
3.494484
  0
VERTEX
  8
PLAN_1
  6
CONTINUOUS
 10
-1.612280
 20
3.512209
  0
VERTEX
  8
PLAN_1
  6
CONTINUOUS
 10
-1.574866
 20
3.527961
  0
VERTEX
  8
PLAN_1
  6
CONTINUOUS
 10
-1.536961
 20
3.542236
  0
VERTEX
  8
PLAN_1
  6
CONTINUOUS
 10
-1.498071
 20
3.554543
  0
VERTEX
  8
PLAN_1
  6
CONTINUOUS
 10
-1.458193
 20
3.564882
  0
VERTEX
  8
PLAN_1
  6
CONTINUOUS
 10
-1.417827
 20
3.573740
  0
VERTEX
  8
PLAN_1
  6
CONTINUOUS
 10
-1.376969
 20
3.581126
  0
VERTEX
  8
PLAN_1
  6
CONTINUOUS
 10
-1.335122
 20
3.586047
  0
VERTEX
  8
PLAN_1
  6
CONTINUOUS
 10
-1.293280
 20
3.589004
  0
SEQEND
  8
0
  0
POLYLINE
  8
PLAN_1
  6
CONTINUOUS
 66
     1
 40
0.008366
 41
0.008366
  0
VERTEX
  8
PLAN_1
  6
CONTINUOUS
 10
-1.293280
 20
3.589004
  0
VERTEX
  8
PLAN_1
  6
CONTINUOUS
 10
-1.293280
 20
3.035677
  0
SEQEND
  8
0
  0
POLYLINE
  8
PLAN_1
  6
CONTINUOUS
 66
     1
 40
0.008366
 41
0.008366
  0
VERTEX
  8
PLAN_1
  6
CONTINUOUS
 10
-1.578803
 20
2.659575
  0
VERTEX
  8
PLAN_1
  6
CONTINUOUS
 10
-1.576343
 20
2.645791
  0
VERTEX
  8
PLAN_1
  6
CONTINUOUS
 10
-1.573882
 20
2.632008
  0
VERTEX
  8
PLAN_1
  6
CONTINUOUS
 10
-1.570433
 20
2.618713
  0
VERTEX
  8
PLAN_1
  6
CONTINUOUS
 10
-1.566496
 20
2.605421
  0
VERTEX
  8
PLAN_1
  6
CONTINUOUS
 10
-1.562559
 20
2.592130
  0
VERTEX
  8
PLAN_1
  6
CONTINUOUS
 10
-1.557634
 20
2.579823
  0
VERTEX
  8
PLAN_1
  6
CONTINUOUS
 10
-1.552220
 20
2.567024
  0
VERTEX
  8
PLAN_1
  6
CONTINUOUS
 10
-1.546311
 20
2.555209
  0
VERTEX
  8
PLAN_1
  6
CONTINUOUS
 10
-1.539913
 20
2.542902
  0
VERTEX
  8
PLAN_1
  6
CONTINUOUS
 10
-1.533512
 20
2.531579
  0
VERTEX
  8
PLAN_1
  6
CONTINUOUS
 10
-1.526130
 20
2.520260
  0
VERTEX
  8
PLAN_1
  6
CONTINUOUS
 10
-1.518252
 20
2.508937
  0
VERTEX
  8
PLAN_1
  6
CONTINUOUS
 10
-1.510374
 20
2.498598
  0
VERTEX
  8
PLAN_1
  6
CONTINUOUS
 10
-1.502008
 20
2.488260
  0
VERTEX
  8
PLAN_1
  6
CONTINUOUS
 10
-1.493146
 20
2.477921
  0
VERTEX
  8
PLAN_1
  6
CONTINUOUS
 10
-1.483791
 20
2.468567
  0
VERTEX
  8
PLAN_1
  6
CONTINUOUS
 10
-1.473949
 20
2.459217
  0
VERTEX
  8
PLAN_1
  6
CONTINUOUS
 10
-1.464102
 20
2.450354
  0
VERTEX
  8
PLAN_1
  6
CONTINUOUS
 10
-1.453764
 20
2.441984
  0
VERTEX
  8
PLAN_1
  6
CONTINUOUS
 10
-1.442933
 20
2.433618
  0
VERTEX
  8
PLAN_1
  6
CONTINUOUS
 10
-1.432102
 20
2.426232
  0
VERTEX
  8
PLAN_1
  6
CONTINUOUS
 10
-1.420780
 20
2.418846
  0
VERTEX
  8
PLAN_1
  6
CONTINUOUS
 10
-1.408965
 20
2.411957
  0
VERTEX
  8
PLAN_1
  6
CONTINUOUS
 10
-1.397150
 20
2.406047
  0
VERTEX
  8
PLAN_1
  6
CONTINUOUS
 10
-1.384843
 20
2.400142
  0
VERTEX
  8
PLAN_1
  6
CONTINUOUS
 10
-1.372535
 20
2.394724
  0
VERTEX
  8
PLAN_1
  6
CONTINUOUS
 10
-1.359736
 20
2.389803
  0
VERTEX
  8
PLAN_1
  6
CONTINUOUS
 10
-1.346937
 20
2.385374
  0
VERTEX
  8
PLAN_1
  6
CONTINUOUS
 10
-1.333646
 20
2.381925
  0
VERTEX
  8
PLAN_1
  6
CONTINUOUS
 10
-1.319862
 20
2.378480
  0
VERTEX
  8
PLAN_1
  6
CONTINUOUS
 10
-1.306571
 20
2.376020
  0
VERTEX
  8
PLAN_1
  6
CONTINUOUS
 10
-1.292787
 20
2.373559
  0
SEQEND
  8
0
  0
POLYLINE
  8
PLAN_1
  6
CONTINUOUS
 66
     1
 40
0.008366
 41
0.008366
  0
VERTEX
  8
PLAN_1
  6
CONTINUOUS
 10
-1.292787
 20
2.373559
  0
VERTEX
  8
PLAN_1
  6
CONTINUOUS
 10
-1.292787
 20
1.820232
  0
SEQEND
  8
0
  0
POLYLINE
  8
PLAN_1
  6
CONTINUOUS
 66
     1
 40
0.008366
 41
0.008366
  0
VERTEX
  8
PLAN_1
  6
CONTINUOUS
 10
-1.292787
 20
1.820232
  0
VERTEX
  8
PLAN_1
  6
CONTINUOUS
 10
-1.335122
 20
1.823185
  0
VERTEX
  8
PLAN_1
  6
CONTINUOUS
 10
-1.376969
 20
1.828110
  0
VERTEX
  8
PLAN_1
  6
CONTINUOUS
 10
-1.417827
 20
1.835492
  0
VERTEX
  8
PLAN_1
  6
CONTINUOUS
 10
-1.458193
 20
1.844354
  0
VERTEX
  8
PLAN_1
  6
CONTINUOUS
 10
-1.497575
 20
1.854693
  0
VERTEX
  8
PLAN_1
  6
CONTINUOUS
 10
-1.536469
 20
1.867000
  0
VERTEX
  8
PLAN_1
  6
CONTINUOUS
 10
-1.574866
 20
1.881276
  0
VERTEX
  8
PLAN_1
  6
CONTINUOUS
 10
-1.611787
 20
1.897028
  0
VERTEX
  8
PLAN_1
  6
CONTINUOUS
 10
-1.648217
 20
1.914752
  0
VERTEX
  8
PLAN_1
  6
CONTINUOUS
 10
-1.683657
 20
1.933457
  0
VERTEX
  8
PLAN_1
  6
CONTINUOUS
 10
-1.718118
 20
1.954134
  0
VERTEX
  8
PLAN_1
  6
CONTINUOUS
 10
-1.751594
 20
1.976287
  0
VERTEX
  8
PLAN_1
  6
CONTINUOUS
 10
-1.784087
 20
1.999917
  0
VERTEX
  8
PLAN_1
  6
CONTINUOUS
 10
-1.815098
 20
2.024531
  0
VERTEX
  8
PLAN_1
  6
CONTINUOUS
 10
-1.845126
 20
2.050622
  0
VERTEX
  8
PLAN_1
  6
CONTINUOUS
 10
-1.874173
 20
2.078189
  0
VERTEX
  8
PLAN_1
  6
CONTINUOUS
 10
-1.901740
 20
2.107232
  0
VERTEX
  8
PLAN_1
  6
CONTINUOUS
 10
-1.927831
 20
2.137264
  0
VERTEX
  8
PLAN_1
  6
CONTINUOUS
 10
-1.952445
 20
2.168276
  0
VERTEX
  8
PLAN_1
  6
CONTINUOUS
 10
-1.976075
 20
2.200768
  0
VERTEX
  8
PLAN_1
  6
CONTINUOUS
 10
-1.998228
 20
2.234240
  0
VERTEX
  8
PLAN_1
  6
CONTINUOUS
 10
-2.018902
 20
2.268701
  0
VERTEX
  8
PLAN_1
  6
CONTINUOUS
 10
-2.037610
 20
2.304146
  0
VERTEX
  8
PLAN_1
  6
CONTINUOUS
 10
-2.055331
 20
2.340083
  0
VERTEX
  8
PLAN_1
  6
CONTINUOUS
 10
-2.071087
 20
2.377496
  0
VERTEX
  8
PLAN_1
  6
CONTINUOUS
 10
-2.085362
 20
2.415402
  0
VERTEX
  8
PLAN_1
  6
CONTINUOUS
 10
-2.097669
 20
2.454291
  0
VERTEX
  8
PLAN_1
  6
CONTINUOUS
 10
-2.108500
 20
2.494165
  0
VERTEX
  8
PLAN_1
  6
CONTINUOUS
 10
-2.116866
 20
2.534535
  0
VERTEX
  8
PLAN_1
  6
CONTINUOUS
 10
-2.124252
 20
2.575394
  0
VERTEX
  8
PLAN_1
  6
CONTINUOUS
 10
-2.129173
 20
2.617236
  0
VERTEX
  8
PLAN_1
  6
CONTINUOUS
 10
-2.132130
 20
2.659575
  0
SEQEND
  8
0
  0
POLYLINE
  8
PLAN_1
  6
CONTINUOUS
 66
     1
 40
0.008366
 41
0.008366
  0
VERTEX
  8
PLAN_1
  6
CONTINUOUS
 10
-2.132130
 20
2.659575
  0
VERTEX
  8
PLAN_1
  6
CONTINUOUS
 10
-1.578803
 20
2.659575
  0
SEQEND
  8
0
  0
POLYLINE
  8
PLAN_1
  6
CONTINUOUS
 66
     1
 40
0.008366
 41
0.008366
  0
VERTEX
  8
PLAN_1
  6
CONTINUOUS
 10
-1.202701
 20
3.035677
  0
VERTEX
  8
PLAN_1
  6
CONTINUOUS
 10
-1.188917
 20
3.033217
  0
VERTEX
  8
PLAN_1
  6
CONTINUOUS
 10
-1.175130
 20
3.030756
  0
VERTEX
  8
PLAN_1
  6
CONTINUOUS
 10
-1.161839
 20
3.027307
  0
VERTEX
  8
PLAN_1
  6
CONTINUOUS
 10
-1.148547
 20
3.023370
  0
VERTEX
  8
PLAN_1
  6
CONTINUOUS
 10
-1.135748
 20
3.019433
  0
VERTEX
  8
PLAN_1
  6
CONTINUOUS
 10
-1.122949
 20
3.014508
  0
VERTEX
  8
PLAN_1
  6
CONTINUOUS
 10
-1.110150
 20
3.009094
  0
VERTEX
  8
PLAN_1
  6
CONTINUOUS
 10
-1.098335
 20
3.003185
  0
VERTEX
  8
PLAN_1
  6
CONTINUOUS
 10
-1.086028
 20
2.996787
  0
VERTEX
  8
PLAN_1
  6
CONTINUOUS
 10
-1.074705
 20
2.989894
  0
VERTEX
  8
PLAN_1
  6
CONTINUOUS
 10
-1.063382
 20
2.983004
  0
VERTEX
  8
PLAN_1
  6
CONTINUOUS
 10
-1.052063
 20
2.975126
  0
VERTEX
  8
PLAN_1
  6
CONTINUOUS
 10
-1.041724
 20
2.967252
  0
VERTEX
  8
PLAN_1
  6
CONTINUOUS
 10
-1.031386
 20
2.958882
  0
VERTEX
  8
PLAN_1
  6
CONTINUOUS
 10
-1.021047
 20
2.950020
  0
VERTEX
  8
PLAN_1
  6
CONTINUOUS
 10
-1.011693
 20
2.940665
  0
VERTEX
  8
PLAN_1
  6
CONTINUOUS
 10
-1.002343
 20
2.930823
  0
VERTEX
  8
PLAN_1
  6
CONTINUOUS
 10
-0.993480
 20
2.920976
  0
VERTEX
  8
PLAN_1
  6
CONTINUOUS
 10
-0.985110
 20
2.910638
  0
VERTEX
  8
PLAN_1
  6
CONTINUOUS
 10
-0.976740
 20
2.899807
  0
VERTEX
  8
PLAN_1
  6
CONTINUOUS
 10
-0.969358
 20
2.888976
  0
VERTEX
  8
PLAN_1
  6
CONTINUOUS
 10
-0.961972
 20
2.877654
  0
VERTEX
  8
PLAN_1
  6
CONTINUOUS
 10
-0.955575
 20
2.865839
  0
VERTEX
  8
PLAN_1
  6
CONTINUOUS
 10
-0.949173
 20
2.854024
  0
VERTEX
  8
PLAN_1
  6
CONTINUOUS
 10
-0.943268
 20
2.841717
  0
VERTEX
  8
PLAN_1
  6
CONTINUOUS
 10
-0.937850
 20
2.829409
  0
VERTEX
  8
PLAN_1
  6
CONTINUOUS
 10
-0.932929
 20
2.816610
  0
VERTEX
  8
PLAN_1
  6
CONTINUOUS
 10
-0.928992
 20
2.803319
  0
VERTEX
  8
PLAN_1
  6
CONTINUOUS
 10
-0.925051
 20
2.790520
  0
VERTEX
  8
PLAN_1
  6
CONTINUOUS
 10
-0.921606
 20
2.776736
  0
VERTEX
  8
PLAN_1
  6
CONTINUOUS
 10
-0.919146
 20
2.763445
  0
VERTEX
  8
PLAN_1
  6
CONTINUOUS
 10
-0.916685
 20
2.749661
  0
SEQEND
  8
0
  0
POLYLINE
  8
PLAN_1
  6
CONTINUOUS
 66
     1
 40
0.008366
 41
0.008366
  0
VERTEX
  8
PLAN_1
  6
CONTINUOUS
 10
-0.916685
 20
2.749661
  0
VERTEX
  8
PLAN_1
  6
CONTINUOUS
 10
-0.363358
 20
2.749661
  0
SEQEND
  8
0
  0
POLYLINE
  8
PLAN_1
  6
CONTINUOUS
 66
     1
 40
0.008366
 41
0.008366
  0
VERTEX
  8
PLAN_1
  6
CONTINUOUS
 10
-0.363358
 20
2.749661
  0
VERTEX
  8
PLAN_1
  6
CONTINUOUS
 10
-0.366311
 20
2.791996
  0
VERTEX
  8
PLAN_1
  6
CONTINUOUS
 10
-0.371728
 20
2.833350
  0
VERTEX
  8
PLAN_1
  6
CONTINUOUS
 10
-0.378618
 20
2.874701
  0
VERTEX
  8
PLAN_1
  6
CONTINUOUS
 10
-0.387480
 20
2.915067
  0
VERTEX
  8
PLAN_1
  6
CONTINUOUS
 10
-0.397819
 20
2.954453
  0
VERTEX
  8
PLAN_1
  6
CONTINUOUS
 10
-0.410618
 20
2.993343
  0
VERTEX
  8
PLAN_1
  6
CONTINUOUS
 10
-0.424402
 20
3.031740
  0
VERTEX
  8
PLAN_1
  6
CONTINUOUS
 10
-0.440154
 20
3.068661
  0
VERTEX
  8
PLAN_1
  6
CONTINUOUS
 10
-0.457878
 20
3.105091
  0
VERTEX
  8
PLAN_1
  6
CONTINUOUS
 10
-0.476583
 20
3.140535
  0
VERTEX
  8
PLAN_1
  6
CONTINUOUS
 10
-0.497260
 20
3.174992
  0
VERTEX
  8
PLAN_1
  6
CONTINUOUS
 10
-0.519413
 20
3.208469
  0
VERTEX
  8
PLAN_1
  6
CONTINUOUS
 10
-0.543043
 20
3.240961
  0
VERTEX
  8
PLAN_1
  6
CONTINUOUS
 10
-0.567654
 20
3.271972
  0
VERTEX
  8
PLAN_1
  6
CONTINUOUS
 10
-0.593748
 20
3.302004
  0
VERTEX
  8
PLAN_1
  6
CONTINUOUS
 10
-0.621315
 20
3.331047
  0
VERTEX
  8
PLAN_1
  6
CONTINUOUS
 10
-0.650358
 20
3.358122
  0
VERTEX
  8
PLAN_1
  6
CONTINUOUS
 10
-0.680390
 20
3.384705
  0
VERTEX
  8
PLAN_1
  6
CONTINUOUS
 10
-0.711402
 20
3.409319
  0
VERTEX
  8
PLAN_1
  6
CONTINUOUS
 10
-0.743894
 20
3.432949
  0
VERTEX
  8
PLAN_1
  6
CONTINUOUS
 10
-0.777366
 20
3.455102
  0
VERTEX
  8
PLAN_1
  6
CONTINUOUS
 10
-0.811827
 20
3.475780
  0
VERTEX
  8
PLAN_1
  6
CONTINUOUS
 10
-0.847272
 20
3.494484
  0
VERTEX
  8
PLAN_1
  6
CONTINUOUS
 10
-0.883209
 20
3.512209
  0
VERTEX
  8
PLAN_1
  6
CONTINUOUS
 10
-0.920622
 20
3.527961
  0
VERTEX
  8
PLAN_1
  6
CONTINUOUS
 10
-0.959020
 20
3.542236
  0
VERTEX
  8
PLAN_1
  6
CONTINUOUS
 10
-0.997909
 20
3.554543
  0
VERTEX
  8
PLAN_1
  6
CONTINUOUS
 10
-1.037291
 20
3.564882
  0
VERTEX
  8
PLAN_1
  6
CONTINUOUS
 10
-1.077661
 20
3.573740
  0
VERTEX
  8
PLAN_1
  6
CONTINUOUS
 10
-1.118520
 20
3.581126
  0
VERTEX
  8
PLAN_1
  6
CONTINUOUS
 10
-1.160362
 20
3.586047
  0
VERTEX
  8
PLAN_1
  6
CONTINUOUS
 10
-1.202701
 20
3.589004
  0
SEQEND
  8
0
  0
POLYLINE
  8
PLAN_1
  6
CONTINUOUS
 66
     1
 40
0.008366
 41
0.008366
  0
VERTEX
  8
PLAN_1
  6
CONTINUOUS
 10
-1.202701
 20
3.589004
  0
VERTEX
  8
PLAN_1
  6
CONTINUOUS
 10
-1.202701
 20
3.035677
  0
SEQEND
  8
0
  0
POLYLINE
  8
PLAN_1
  6
CONTINUOUS
 66
     1
 40
0.008366
 41
0.008366
  0
VERTEX
  8
PLAN_1
  6
CONTINUOUS
 10
-0.916685
 20
2.659575
  0
VERTEX
  8
PLAN_1
  6
CONTINUOUS
 10
-0.919146
 20
2.645791
  0
VERTEX
  8
PLAN_1
  6
CONTINUOUS
 10
-0.921606
 20
2.632008
  0
VERTEX
  8
PLAN_1
  6
CONTINUOUS
 10
-0.925051
 20
2.618713
  0
VERTEX
  8
PLAN_1
  6
CONTINUOUS
 10
-0.928992
 20
2.605421
  0
VERTEX
  8
PLAN_1
  6
CONTINUOUS
 10
-0.933421
 20
2.592130
  0
VERTEX
  8
PLAN_1
  6
CONTINUOUS
 10
-0.938343
 20
2.579823
  0
VERTEX
  8
PLAN_1
  6
CONTINUOUS
 10
-0.943268
 20
2.567024
  0
VERTEX
  8
PLAN_1
  6
CONTINUOUS
 10
-0.949173
 20
2.555209
  0
VERTEX
  8
PLAN_1
  6
CONTINUOUS
 10
-0.955575
 20
2.542902
  0
VERTEX
  8
PLAN_1
  6
CONTINUOUS
 10
-0.962465
 20
2.531579
  0
VERTEX
  8
PLAN_1
  6
CONTINUOUS
 10
-0.969358
 20
2.520260
  0
VERTEX
  8
PLAN_1
  6
CONTINUOUS
 10
-0.977236
 20
2.508937
  0
VERTEX
  8
PLAN_1
  6
CONTINUOUS
 10
-0.985110
 20
2.498598
  0
VERTEX
  8
PLAN_1
  6
CONTINUOUS
 10
-0.993972
 20
2.488260
  0
VERTEX
  8
PLAN_1
  6
CONTINUOUS
 10
-1.002835
 20
2.477921
  0
VERTEX
  8
PLAN_1
  6
CONTINUOUS
 10
-1.011693
 20
2.468567
  0
VERTEX
  8
PLAN_1
  6
CONTINUOUS
 10
-1.021539
 20
2.459217
  0
VERTEX
  8
PLAN_1
  6
CONTINUOUS
 10
-1.031386
 20
2.450354
  0
VERTEX
  8
PLAN_1
  6
CONTINUOUS
 10
-1.041724
 20
2.441984
  0
VERTEX
  8
PLAN_1
  6
CONTINUOUS
 10
-1.052555
 20
2.433618
  0
VERTEX
  8
PLAN_1
  6
CONTINUOUS
 10
-1.063874
 20
2.426232
  0
VERTEX
  8
PLAN_1
  6
CONTINUOUS
 10
-1.075197
 20
2.418846
  0
VERTEX
  8
PLAN_1
  6
CONTINUOUS
 10
-1.086520
 20
2.411957
  0
VERTEX
  8
PLAN_1
  6
CONTINUOUS
 10
-1.098335
 20
2.406047
  0
VERTEX
  8
PLAN_1
  6
CONTINUOUS
 10
-1.110642
 20
2.400142
  0
VERTEX
  8
PLAN_1
  6
CONTINUOUS
 10
-1.123441
 20
2.394724
  0
VERTEX
  8
PLAN_1
  6
CONTINUOUS
 10
-1.135748
 20
2.389803
  0
VERTEX
  8
PLAN_1
  6
CONTINUOUS
 10
-1.149039
 20
2.385374
  0
VERTEX
  8
PLAN_1
  6
CONTINUOUS
 10
-1.162331
 20
2.381925
  0
VERTEX
  8
PLAN_1
  6
CONTINUOUS
 10
-1.175626
 20
2.378480
  0
VERTEX
  8
PLAN_1
  6
CONTINUOUS
 10
-1.189409
 20
2.376020
  0
VERTEX
  8
PLAN_1
  6
CONTINUOUS
 10
-1.203193
 20
2.373559
  0
SEQEND
  8
0
  0
POLYLINE
  8
PLAN_1
  6
CONTINUOUS
 66
     1
 40
0.008366
 41
0.008366
  0
VERTEX
  8
PLAN_1
  6
CONTINUOUS
 10
-1.203193
 20
2.373559
  0
VERTEX
  8
PLAN_1
  6
CONTINUOUS
 10
-1.202701
 20
1.820232
  0
SEQEND
  8
0
  0
POLYLINE
  8
PLAN_1
  6
CONTINUOUS
 66
     1
 40
0.008366
 41
0.008366
  0
VERTEX
  8
PLAN_1
  6
CONTINUOUS
 10
-1.202701
 20
1.820232
  0
VERTEX
  8
PLAN_1
  6
CONTINUOUS
 10
-1.160362
 20
1.823185
  0
VERTEX
  8
PLAN_1
  6
CONTINUOUS
 10
-1.119012
 20
1.828110
  0
VERTEX
  8
PLAN_1
  6
CONTINUOUS
 10
-1.077661
 20
1.835492
  0
VERTEX
  8
PLAN_1
  6
CONTINUOUS
 10
-1.037291
 20
1.844354
  0
VERTEX
  8
PLAN_1
  6
CONTINUOUS
 10
-0.997909
 20
1.854693
  0
VERTEX
  8
PLAN_1
  6
CONTINUOUS
 10
-0.959020
 20
1.867000
  0
VERTEX
  8
PLAN_1
  6
CONTINUOUS
 10
-0.920622
 20
1.881276
  0
VERTEX
  8
PLAN_1
  6
CONTINUOUS
 10
-0.883701
 20
1.897028
  0
VERTEX
  8
PLAN_1
  6
CONTINUOUS
 10
-0.847272
 20
1.914752
  0
VERTEX
  8
PLAN_1
  6
CONTINUOUS
 10
-0.811827
 20
1.933457
  0
VERTEX
  8
PLAN_1
  6
CONTINUOUS
 10
-0.777366
 20
1.954134
  0
VERTEX
  8
PLAN_1
  6
CONTINUOUS
 10
-0.743894
 20
1.976287
  0
VERTEX
  8
PLAN_1
  6
CONTINUOUS
 10
-0.711894
 20
1.999917
  0
VERTEX
  8
PLAN_1
  6
CONTINUOUS
 10
-0.680390
 20
2.024531
  0
VERTEX
  8
PLAN_1
  6
CONTINUOUS
 10
-0.650358
 20
2.050622
  0
VERTEX
  8
PLAN_1
  6
CONTINUOUS
 10
-0.621807
 20
2.078189
  0
VERTEX
  8
PLAN_1
  6
CONTINUOUS
 10
-0.594240
 20
2.107232
  0
VERTEX
  8
PLAN_1
  6
CONTINUOUS
 10
-0.567654
 20
2.137264
  0
VERTEX
  8
PLAN_1
  6
CONTINUOUS
 10
-0.543043
 20
2.168276
  0
VERTEX
  8
PLAN_1
  6
CONTINUOUS
 10
-0.519413
 20
2.200768
  0
VERTEX
  8
PLAN_1
  6
CONTINUOUS
 10
-0.497260
 20
2.234240
  0
VERTEX
  8
PLAN_1
  6
CONTINUOUS
 10
-0.477075
 20
2.268701
  0
VERTEX
  8
PLAN_1
  6
CONTINUOUS
 10
-0.457878
 20
2.304146
  0
VERTEX
  8
PLAN_1
  6
CONTINUOUS
 10
-0.440154
 20
2.340083
  0
VERTEX
  8
PLAN_1
  6
CONTINUOUS
 10
-0.424402
 20
2.377496
  0
VERTEX
  8
PLAN_1
  6
CONTINUOUS
 10
-0.410618
 20
2.415402
  0
VERTEX
  8
PLAN_1
  6
CONTINUOUS
 10
-0.397819
 20
2.454291
  0
VERTEX
  8
PLAN_1
  6
CONTINUOUS
 10
-0.387480
 20
2.494165
  0
VERTEX
  8
PLAN_1
  6
CONTINUOUS
 10
-0.378618
 20
2.534535
  0
VERTEX
  8
PLAN_1
  6
CONTINUOUS
 10
-0.371728
 20
2.575394
  0
VERTEX
  8
PLAN_1
  6
CONTINUOUS
 10
-0.366311
 20
2.617236
  0
VERTEX
  8
PLAN_1
  6
CONTINUOUS
 10
-0.363358
 20
2.659575
  0
SEQEND
  8
0
  0
POLYLINE
  8
PLAN_1
  6
CONTINUOUS
 66
     1
 40
0.008366
 41
0.008366
  0
VERTEX
  8
PLAN_1
  6
CONTINUOUS
 10
-0.363358
 20
2.659575
  0
VERTEX
  8
PLAN_1
  6
CONTINUOUS
 10
-0.916685
 20
2.659575
  0
SEQEND
  8
0
  0
POLYLINE
  8
PLAN_1
  6
CONTINUOUS
 66
     1
 40
0.008366
 41
0.008366
  0
VERTEX
  8
PLAN_1
  6
CONTINUOUS
 10
-1.479362
 20
2.749661
  0
VERTEX
  8
PLAN_1
  6
CONTINUOUS
 10
-1.477394
 20
2.758524
  0
VERTEX
  8
PLAN_1
  6
CONTINUOUS
 10
-1.475425
 20
2.766890
  0
VERTEX
  8
PLAN_1
  6
CONTINUOUS
 10
-1.472469
 20
2.775260
  0
VERTEX
  8
PLAN_1
  6
CONTINUOUS
 10
-1.470008
 20
2.783630
  0
VERTEX
  8
PLAN_1
  6
CONTINUOUS
 10
-1.466563
 20
2.791996
  0
VERTEX
  8
PLAN_1
  6
CONTINUOUS
 10
-1.463118
 20
2.800366
  0
VERTEX
  8
PLAN_1
  6
CONTINUOUS
 10
-1.459669
 20
2.808244
  0
VERTEX
  8
PLAN_1
  6
CONTINUOUS
 10
-1.455732
 20
2.815626
  0
VERTEX
  8
PLAN_1
  6
CONTINUOUS
 10
-1.451303
 20
2.823504
  0
VERTEX
  8
PLAN_1
  6
CONTINUOUS
 10
-1.446870
 20
2.830890
  0
VERTEX
  8
PLAN_1
  6
CONTINUOUS
 10
-1.441949
 20
2.838272
  0
VERTEX
  8
PLAN_1
  6
CONTINUOUS
 10
-1.437028
 20
2.845165
  0
VERTEX
  8
PLAN_1
  6
CONTINUOUS
 10
-1.431610
 20
2.852055
  0
VERTEX
  8
PLAN_1
  6
CONTINUOUS
 10
-1.426197
 20
2.858457
  0
VERTEX
  8
PLAN_1
  6
CONTINUOUS
 10
-1.420287
 20
2.864854
  0
VERTEX
  8
PLAN_1
  6
CONTINUOUS
 10
-1.414382
 20
2.871256
  0
VERTEX
  8
PLAN_1
  6
CONTINUOUS
 10
-1.407980
 20
2.877161
  0
VERTEX
  8
PLAN_1
  6
CONTINUOUS
 10
-1.401583
 20
2.883071
  0
VERTEX
  8
PLAN_1
  6
CONTINUOUS
 10
-1.395181
 20
2.888484
  0
VERTEX
  8
PLAN_1
  6
CONTINUOUS
 10
-1.388291
 20
2.893902
  0
VERTEX
  8
PLAN_1
  6
CONTINUOUS
 10
-1.381398
 20
2.898823
  0
VERTEX
  8
PLAN_1
  6
CONTINUOUS
 10
-1.374016
 20
2.903744
  0
VERTEX
  8
PLAN_1
  6
CONTINUOUS
 10
-1.366630
 20
2.908177
  0
VERTEX
  8
PLAN_1
  6
CONTINUOUS
 10
-1.359244
 20
2.912606
  0
VERTEX
  8
PLAN_1
  6
CONTINUOUS
 10
-1.351370
 20
2.916543
  0
VERTEX
  8
PLAN_1
  6
CONTINUOUS
 10
-1.343492
 20
2.919992
  0
VERTEX
  8
PLAN_1
  6
CONTINUOUS
 10
-1.335122
 20
2.923437
  0
VERTEX
  8
PLAN_1
  6
CONTINUOUS
 10
-1.327248
 20
2.926882
  0
VERTEX
  8
PLAN_1
  6
CONTINUOUS
 10
-1.318878
 20
2.929346
  0
VERTEX
  8
PLAN_1
  6
CONTINUOUS
 10
-1.310016
 20
2.931807
  0
VERTEX
  8
PLAN_1
  6
CONTINUOUS
 10
-1.301650
 20
2.934268
  0
VERTEX
  8
PLAN_1
  6
CONTINUOUS
 10
-1.292787
 20
2.936236
  0
VERTEX
  8
PLAN_1
  6
CONTINUOUS
 10
-1.287374
 20
2.937220
  0
VERTEX
  8
PLAN_1
  6
CONTINUOUS
 10
-1.281465
 20
2.938205
  0
VERTEX
  8
PLAN_1
  6
CONTINUOUS
 10
-1.276051
 20
2.938697
  0
VERTEX
  8
PLAN_1
  6
CONTINUOUS
 10
-1.270634
 20
2.939189
  0
VERTEX
  8
PLAN_1
  6
CONTINUOUS
 10
-1.264728
 20
2.939681
  0
VERTEX
  8
PLAN_1
  6
CONTINUOUS
 10
-1.258819
 20
2.940173
  0
VERTEX
  8
PLAN_1
  6
CONTINUOUS
 10
-1.253406
 20
2.940173
  0
VERTEX
  8
PLAN_1
  6
CONTINUOUS
 10
-1.247496
 20
2.940665
  0
VERTEX
  8
PLAN_1
  6
CONTINUOUS
 10
-1.236665
 20
2.940173
  0
VERTEX
  8
PLAN_1
  6
CONTINUOUS
 10
-1.226331
 20
2.939189
  0
VERTEX
  8
PLAN_1
  6
CONTINUOUS
 10
-1.215500
 20
2.937713
  0
VERTEX
  8
PLAN_1
  6
CONTINUOUS
 10
-1.205161
 20
2.935744
  0
VERTEX
  8
PLAN_1
  6
CONTINUOUS
 10
-1.194331
 20
2.932791
  0
VERTEX
  8
PLAN_1
  6
CONTINUOUS
 10
-1.183992
 20
2.929839
  0
VERTEX
  8
PLAN_1
  6
CONTINUOUS
 10
-1.173161
 20
2.925898
  0
VERTEX
  8
PLAN_1
  6
CONTINUOUS
 10
-1.162823
 20
2.921961
  0
VERTEX
  8
PLAN_1
  6
CONTINUOUS
 10
-1.152980
 20
2.917039
  0
VERTEX
  8
PLAN_1
  6
CONTINUOUS
 10
-1.142642
 20
2.912114
  0
VERTEX
  8
PLAN_1
  6
CONTINUOUS
 10
-1.132795
 20
2.906209
  0
VERTEX
  8
PLAN_1
  6
CONTINUOUS
 10
-1.123441
 20
2.900299
  0
VERTEX
  8
PLAN_1
  6
CONTINUOUS
 10
-1.113598
 20
2.893409
  0
VERTEX
  8
PLAN_1
  6
CONTINUOUS
 10
-1.104736
 20
2.886516
  0
VERTEX
  8
PLAN_1
  6
CONTINUOUS
 10
-1.095874
 20
2.879130
  0
VERTEX
  8
PLAN_1
  6
CONTINUOUS
 10
-1.087012
 20
2.871256
  0
VERTEX
  8
PLAN_1
  6
CONTINUOUS
 10
-1.078646
 20
2.862886
  0
VERTEX
  8
PLAN_1
  6
CONTINUOUS
 10
-1.070768
 20
2.854516
  0
VERTEX
  8
PLAN_1
  6
CONTINUOUS
 10
-1.063382
 20
2.845657
  0
VERTEX
  8
PLAN_1
  6
CONTINUOUS
 10
-1.056492
 20
2.836303
  0
VERTEX
  8
PLAN_1
  6
CONTINUOUS
 10
-1.049598
 20
2.826949
  0
VERTEX
  8
PLAN_1
  6
CONTINUOUS
 10
-1.043201
 20
2.816610
  0
VERTEX
  8
PLAN_1
  6
CONTINUOUS
 10
-1.037783
 20
2.806768
  0
VERTEX
  8
PLAN_1
  6
CONTINUOUS
 10
-1.032370
 20
2.796429
  0
VERTEX
  8
PLAN_1
  6
CONTINUOUS
 10
-1.027449
 20
2.785598
  0
VERTEX
  8
PLAN_1
  6
CONTINUOUS
 10
-1.023508
 20
2.774276
  0
VERTEX
  8
PLAN_1
  6
CONTINUOUS
 10
-1.019571
 20
2.763445
  0
VERTEX
  8
PLAN_1
  6
CONTINUOUS
 10
-1.016618
 20
2.751630
  0
VERTEX
  8
PLAN_1
  6
CONTINUOUS
 10
-1.014650
 20
2.740307
  0
VERTEX
  8
PLAN_1
  6
CONTINUOUS
 10
-1.012677
 20
2.728492
  0
VERTEX
  8
PLAN_1
  6
CONTINUOUS
 10
-1.011693
 20
2.716185
  0
VERTEX
  8
PLAN_1
  6
CONTINUOUS
 10
-1.011201
 20
2.704370
  0
VERTEX
  8
PLAN_1
  6
CONTINUOUS
 10
-1.011693
 20
2.692063
  0
VERTEX
  8
PLAN_1
  6
CONTINUOUS
 10
-1.012677
 20
2.680248
  0
VERTEX
  8
PLAN_1
  6
CONTINUOUS
 10
-1.014154
 20
2.668433
  0
VERTEX
  8
PLAN_1
  6
CONTINUOUS
 10
-1.016126
 20
2.656622
  0
VERTEX
  8
PLAN_1
  6
CONTINUOUS
 10
-1.018587
 20
2.645299
  0
VERTEX
  8
PLAN_1
  6
CONTINUOUS
 10
-1.022031
 20
2.633976
  0
VERTEX
  8
PLAN_1
  6
CONTINUOUS
 10
-1.025476
 20
2.623146
  0
VERTEX
  8
PLAN_1
  6
CONTINUOUS
 10
-1.029909
 20
2.612315
  0
VERTEX
  8
PLAN_1
  6
CONTINUOUS
 10
-1.034339
 20
2.601976
  0
VERTEX
  8
PLAN_1
  6
CONTINUOUS
 10
-1.039756
 20
2.591638
  0
VERTEX
  8
PLAN_1
  6
CONTINUOUS
 10
-1.045661
 20
2.581791
  0
VERTEX
  8
PLAN_1
  6
CONTINUOUS
 10
-1.051571
 20
2.572441
  0
VERTEX
  8
PLAN_1
  6
CONTINUOUS
 10
-1.057969
 20
2.563087
  0
VERTEX
  8
PLAN_1
  6
CONTINUOUS
 10
-1.065354
 20
2.554224
  0
VERTEX
  8
PLAN_1
  6
CONTINUOUS
 10
-1.072736
 20
2.545366
  0
VERTEX
  8
PLAN_1
  6
CONTINUOUS
 10
-1.080614
 20
2.537488
  0
VERTEX
  8
PLAN_1
  6
CONTINUOUS
 10
-1.088488
 20
2.529610
  0
VERTEX
  8
PLAN_1
  6
CONTINUOUS
 10
-1.097350
 20
2.522228
  0
VERTEX
  8
PLAN_1
  6
CONTINUOUS
 10
-1.106213
 20
2.514843
  0
VERTEX
  8
PLAN_1
  6
CONTINUOUS
 10
-1.115567
 20
2.508445
  0
VERTEX
  8
PLAN_1
  6
CONTINUOUS
 10
-1.124917
 20
2.502535
  0
VERTEX
  8
PLAN_1
  6
CONTINUOUS
 10
-1.134764
 20
2.496630
  0
VERTEX
  8
PLAN_1
  6
CONTINUOUS
 10
-1.145102
 20
2.491213
  0
VERTEX
  8
PLAN_1
  6
CONTINUOUS
 10
-1.155441
 20
2.486783
  0
VERTEX
  8
PLAN_1
  6
CONTINUOUS
 10
-1.166272
 20
2.482350
  0
VERTEX
  8
PLAN_1
  6
CONTINUOUS
 10
-1.177102
 20
2.478906
  0
VERTEX
  8
PLAN_1
  6
CONTINUOUS
 10
-1.188425
 20
2.475461
  0
VERTEX
  8
PLAN_1
  6
CONTINUOUS
 10
-1.199744
 20
2.473000
  0
VERTEX
  8
PLAN_1
  6
CONTINUOUS
 10
-1.211559
 20
2.471031
  0
VERTEX
  8
PLAN_1
  6
CONTINUOUS
 10
-1.223374
 20
2.469551
  0
VERTEX
  8
PLAN_1
  6
CONTINUOUS
 10
-1.235189
 20
2.468567
  0
VERTEX
  8
PLAN_1
  6
CONTINUOUS
 10
-1.247496
 20
2.468075
  0
VERTEX
  8
PLAN_1
  6
CONTINUOUS
 10
-1.259803
 20
2.468567
  0
VERTEX
  8
PLAN_1
  6
CONTINUOUS
 10
-1.271618
 20
2.469551
  0
VERTEX
  8
PLAN_1
  6
CONTINUOUS
 10
-1.283433
 20
2.471031
  0
VERTEX
  8
PLAN_1
  6
CONTINUOUS
 10
-1.295248
 20
2.473000
  0
VERTEX
  8
PLAN_1
  6
CONTINUOUS
 10
-1.306571
 20
2.475461
  0
VERTEX
  8
PLAN_1
  6
CONTINUOUS
 10
-1.317894
 20
2.478906
  0
VERTEX
  8
PLAN_1
  6
CONTINUOUS
 10
-1.328724
 20
2.482350
  0
VERTEX
  8
PLAN_1
  6
CONTINUOUS
 10
-1.339555
 20
2.486783
  0
VERTEX
  8
PLAN_1
  6
CONTINUOUS
 10
-1.349894
 20
2.491213
  0
VERTEX
  8
PLAN_1
  6
CONTINUOUS
 10
-1.360228
 20
2.496630
  0
VERTEX
  8
PLAN_1
  6
CONTINUOUS
 10
-1.370075
 20
2.502535
  0
VERTEX
  8
PLAN_1
  6
CONTINUOUS
 10
-1.379429
 20
2.508445
  0
VERTEX
  8
PLAN_1
  6
CONTINUOUS
 10
-1.388783
 20
2.514843
  0
VERTEX
  8
PLAN_1
  6
CONTINUOUS
 10
-1.397642
 20
2.522228
  0
VERTEX
  8
PLAN_1
  6
CONTINUOUS
 10
-1.406012
 20
2.529610
  0
VERTEX
  8
PLAN_1
  6
CONTINUOUS
 10
-1.414382
 20
2.537488
  0
VERTEX
  8
PLAN_1
  6
CONTINUOUS
 10
-1.422256
 20
2.545366
  0
VERTEX
  8
PLAN_1
  6
CONTINUOUS
 10
-1.429642
 20
2.554224
  0
VERTEX
  8
PLAN_1
  6
CONTINUOUS
 10
-1.436535
 20
2.563087
  0
VERTEX
  8
PLAN_1
  6
CONTINUOUS
 10
-1.443425
 20
2.572441
  0
VERTEX
  8
PLAN_1
  6
CONTINUOUS
 10
-1.449335
 20
2.581791
  0
VERTEX
  8
PLAN_1
  6
CONTINUOUS
 10
-1.455240
 20
2.591638
  0
VERTEX
  8
PLAN_1
  6
CONTINUOUS
 10
-1.460161
 20
2.601976
  0
VERTEX
  8
PLAN_1
  6
CONTINUOUS
 10
-1.465087
 20
2.612315
  0
VERTEX
  8
PLAN_1
  6
CONTINUOUS
 10
-1.469516
 20
2.623146
  0
VERTEX
  8
PLAN_1
  6
CONTINUOUS
 10
-1.472961
 20
2.633976
  0
VERTEX
  8
PLAN_1
  6
CONTINUOUS
 10
-1.476409
 20
2.645299
  0
VERTEX
  8
PLAN_1
  6
CONTINUOUS
 10
-1.478870
 20
2.656622
  0
VERTEX
  8
PLAN_1
  6
CONTINUOUS
 10
-1.480839
 20
2.668433
  0
VERTEX
  8
PLAN_1
  6
CONTINUOUS
 10
-1.482315
 20
2.680248
  0
VERTEX
  8
PLAN_1
  6
CONTINUOUS
 10
-1.483299
 20
2.692063
  0
VERTEX
  8
PLAN_1
  6
CONTINUOUS
 10
-1.483791
 20
2.704370
  0
VERTEX
  8
PLAN_1
  6
CONTINUOUS
 10
-1.483791
 20
2.710280
  0
VERTEX
  8
PLAN_1
  6
CONTINUOUS
 10
-1.483299
 20
2.715693
  0
VERTEX
  8
PLAN_1
  6
CONTINUOUS
 10
-1.482807
 20
2.721602
  0
VERTEX
  8
PLAN_1
  6
CONTINUOUS
 10
-1.482315
 20
2.727016
  0
VERTEX
  8
PLAN_1
  6
CONTINUOUS
 10
-1.481823
 20
2.732925
  0
VERTEX
  8
PLAN_1
  6
CONTINUOUS
 10
-1.481331
 20
2.738339
  0
VERTEX
  8
PLAN_1
  6
CONTINUOUS
 10
-1.480346
 20
2.744248
  0
VERTEX
  8
PLAN_1
  6
CONTINUOUS
 10
-1.479362
 20
2.749661
  0
SEQEND
  8
0
  0
POLYLINE
  8
PLAN_1
  6
CONTINUOUS
 66
     1
 40
0.008366
 41
0.008366
  0
VERTEX
  8
PLAN_1
  6
CONTINUOUS
 10
-0.981665
 20
1.757220
  0
VERTEX
  8
PLAN_1
  6
CONTINUOUS
 10
-0.981665
 20
-0.203539
  0
VERTEX
  8
PLAN_1
  6
CONTINUOUS
 10
-1.148547
 20
-0.579642
  0
VERTEX
  8
PLAN_1
  6
CONTINUOUS
 10
-1.183500
 20
-0.579642
  0
SEQEND
  8
0
  0
POLYLINE
  8
PLAN_1
  6
CONTINUOUS
 66
     1
 40
0.008366
 41
0.008366
  0
VERTEX
  8
PLAN_1
  6
CONTINUOUS
 10
-1.183500
 20
-0.579642
  0
VERTEX
  8
PLAN_1
  6
CONTINUOUS
 10
-1.183500
 20
-0.573244
  0
VERTEX
  8
PLAN_1
  6
CONTINUOUS
 10
-1.184484
 20
-0.567335
  0
VERTEX
  8
PLAN_1
  6
CONTINUOUS
 10
-1.186453
 20
-0.561921
  0
VERTEX
  8
PLAN_1
  6
CONTINUOUS
 10
-1.188425
 20
-0.557492
  0
VERTEX
  8
PLAN_1
  6
CONTINUOUS
 10
-1.191378
 20
-0.553551
  0
VERTEX
  8
PLAN_1
  6
CONTINUOUS
 10
-1.194823
 20
-0.550598
  0
VERTEX
  8
PLAN_1
  6
CONTINUOUS
 10
-1.198760
 20
-0.547646
  0
VERTEX
  8
PLAN_1
  6
CONTINUOUS
 10
-1.203193
 20
-0.545677
  0
VERTEX
  8
PLAN_1
  6
CONTINUOUS
 10
-1.208114
 20
-0.543709
  0
VERTEX
  8
PLAN_1
  6
CONTINUOUS
 10
-1.213039
 20
-0.542228
  0
VERTEX
  8
PLAN_1
  6
CONTINUOUS
 10
-1.218945
 20
-0.541244
  0
VERTEX
  8
PLAN_1
  6
CONTINUOUS
 10
-1.224850
 20
-0.540752
  0
VERTEX
  8
PLAN_1
  6
CONTINUOUS
 10
-1.237654
 20
-0.539768
  0
VERTEX
  8
PLAN_1
  6
CONTINUOUS
 10
-1.251437
 20
-0.539768
  0
VERTEX
  8
PLAN_1
  6
CONTINUOUS
 10
-1.264728
 20
-0.539768
  0
VERTEX
  8
PLAN_1
  6
CONTINUOUS
 10
-1.277528
 20
-0.540752
  0
VERTEX
  8
PLAN_1
  6
CONTINUOUS
 10
-1.283433
 20
-0.541244
  0
VERTEX
  8
PLAN_1
  6
CONTINUOUS
 10
-1.289343
 20
-0.542228
  0
VERTEX
  8
PLAN_1
  6
CONTINUOUS
 10
-1.294264
 20
-0.543709
  0
VERTEX
  8
PLAN_1
  6
CONTINUOUS
 10
-1.299185
 20
-0.545677
  0
VERTEX
  8
PLAN_1
  6
CONTINUOUS
 10
-1.303618
 20
-0.547646
  0
VERTEX
  8
PLAN_1
  6
CONTINUOUS
 10
-1.307555
 20
-0.550598
  0
VERTEX
  8
PLAN_1
  6
CONTINUOUS
 10
-1.311000
 20
-0.553551
  0
VERTEX
  8
PLAN_1
  6
CONTINUOUS
 10
-1.313957
 20
-0.557492
  0
VERTEX
  8
PLAN_1
  6
CONTINUOUS
 10
-1.315925
 20
-0.561921
  0
VERTEX
  8
PLAN_1
  6
CONTINUOUS
 10
-1.317894
 20
-0.567335
  0
VERTEX
  8
PLAN_1
  6
CONTINUOUS
 10
-1.318878
 20
-0.573244
  0
VERTEX
  8
PLAN_1
  6
CONTINUOUS
 10
-1.319370
 20
-0.579642
  0
SEQEND
  8
0
  0
POLYLINE
  8
PLAN_1
  6
CONTINUOUS
 66
     1
 40
0.008366
 41
0.008366
  0
VERTEX
  8
PLAN_1
  6
CONTINUOUS
 10
-1.319370
 20
-0.579642
  0
VERTEX
  8
PLAN_1
  6
CONTINUOUS
 10
-1.353831
 20
-0.579642
  0
VERTEX
  8
PLAN_1
  6
CONTINUOUS
 10
-1.520713
 20
-0.203539
  0
VERTEX
  8
PLAN_1
  6
CONTINUOUS
 10
-1.520713
 20
1.758697
  0
SEQEND
  8
0
  0
POLYLINE
  8
PLAN_1
  6
CONTINUOUS
 66
     1
 40
0.008366
 41
0.008366
  0
VERTEX
  8
PLAN_1
  6
CONTINUOUS
 10
-1.387307
 20
1.731130
  0
VERTEX
  8
PLAN_1
  6
CONTINUOUS
 10
-1.387307
 20
-0.206000
  0
SEQEND
  8
0
  0
POLYLINE
  8
PLAN_1
  6
CONTINUOUS
 66
     1
 40
0.008366
 41
0.008366
  0
VERTEX
  8
PLAN_1
  6
CONTINUOUS
 10
-1.387307
 20
-0.206000
  0
VERTEX
  8
PLAN_1
  6
CONTINUOUS
 10
-1.387307
 20
-0.212894
  0
VERTEX
  8
PLAN_1
  6
CONTINUOUS
 10
-1.386815
 20
-0.219783
  0
VERTEX
  8
PLAN_1
  6
CONTINUOUS
 10
-1.385827
 20
-0.226677
  0
VERTEX
  8
PLAN_1
  6
CONTINUOUS
 10
-1.384843
 20
-0.233571
  0
VERTEX
  8
PLAN_1
  6
CONTINUOUS
 10
-1.383366
 20
-0.239969
  0
VERTEX
  8
PLAN_1
  6
CONTINUOUS
 10
-1.381398
 20
-0.246370
  0
VERTEX
  8
PLAN_1
  6
CONTINUOUS
 10
-1.379429
 20
-0.252768
  0
VERTEX
  8
PLAN_1
  6
CONTINUOUS
 10
-1.376969
 20
-0.259169
  0
VERTEX
  8
PLAN_1
  6
CONTINUOUS
 10
-1.374016
 20
-0.265075
  0
VERTEX
  8
PLAN_1
  6
CONTINUOUS
 10
-1.371059
 20
-0.270984
  0
VERTEX
  8
PLAN_1
  6
CONTINUOUS
 10
-1.367614
 20
-0.276890
  0
VERTEX
  8
PLAN_1
  6
CONTINUOUS
 10
-1.364169
 20
-0.282303
  0
VERTEX
  8
PLAN_1
  6
CONTINUOUS
 10
-1.360228
 20
-0.287720
  0
VERTEX
  8
PLAN_1
  6
CONTINUOUS
 10
-1.356291
 20
-0.292642
  0
VERTEX
  8
PLAN_1
  6
CONTINUOUS
 10
-1.351862
 20
-0.297567
  0
VERTEX
  8
PLAN_1
  6
CONTINUOUS
 10
-1.347429
 20
-0.302488
  0
VERTEX
  8
PLAN_1
  6
CONTINUOUS
 10
-1.343000
 20
-0.306917
  0
VERTEX
  8
PLAN_1
  6
CONTINUOUS
 10
-1.338079
 20
-0.311350
  0
VERTEX
  8
PLAN_1
  6
CONTINUOUS
 10
-1.332661
 20
-0.315287
  0
VERTEX
  8
PLAN_1
  6
CONTINUOUS
 10
-1.327248
 20
-0.319224
  0
VERTEX
  8
PLAN_1
  6
CONTINUOUS
 10
-1.321831
 20
-0.322673
  0
VERTEX
  8
PLAN_1
  6
CONTINUOUS
 10
-1.315925
 20
-0.326118
  0
VERTEX
  8
PLAN_1
  6
CONTINUOUS
 10
-1.310508
 20
-0.329071
  0
VERTEX
  8
PLAN_1
  6
CONTINUOUS
 10
-1.304110
 20
-0.331531
  0
VERTEX
  8
PLAN_1
  6
CONTINUOUS
 10
-1.298201
 20
-0.333996
  0
VERTEX
  8
PLAN_1
  6
CONTINUOUS
 10
-1.291803
 20
-0.336457
  0
VERTEX
  8
PLAN_1
  6
CONTINUOUS
 10
-1.285402
 20
-0.337933
  0
VERTEX
  8
PLAN_1
  6
CONTINUOUS
 10
-1.278512
 20
-0.339409
  0
VERTEX
  8
PLAN_1
  6
CONTINUOUS
 10
-1.272110
 20
-0.340886
  0
VERTEX
  8
PLAN_1
  6
CONTINUOUS
 10
-1.265220
 20
-0.341870
  0
VERTEX
  8
PLAN_1
  6
CONTINUOUS
 10
-1.258327
 20
-0.342362
  0
VERTEX
  8
PLAN_1
  6
CONTINUOUS
 10
-1.251437
 20
-0.342362
  0
SEQEND
  8
0
  0
POLYLINE
  8
PLAN_1
  6
CONTINUOUS
 66
     1
 40
0.008366
 41
0.008366
  0
VERTEX
  8
PLAN_1
  6
CONTINUOUS
 10
-1.251437
 20
-0.342362
  0
VERTEX
  8
PLAN_1
  6
CONTINUOUS
 10
-1.244051
 20
-0.342362
  0
VERTEX
  8
PLAN_1
  6
CONTINUOUS
 10
-1.237157
 20
-0.341870
  0
VERTEX
  8
PLAN_1
  6
CONTINUOUS
 10
-1.230268
 20
-0.340886
  0
VERTEX
  8
PLAN_1
  6
CONTINUOUS
 10
-1.223866
 20
-0.339409
  0
VERTEX
  8
PLAN_1
  6
CONTINUOUS
 10
-1.216976
 20
-0.337933
  0
VERTEX
  8
PLAN_1
  6
CONTINUOUS
 10
-1.210575
 20
-0.336457
  0
VERTEX
  8
PLAN_1
  6
CONTINUOUS
 10
-1.204177
 20
-0.333996
  0
VERTEX
  8
PLAN_1
  6
CONTINUOUS
 10
-1.198268
 20
-0.331531
  0
VERTEX
  8
PLAN_1
  6
CONTINUOUS
 10
-1.192362
 20
-0.329071
  0
VERTEX
  8
PLAN_1
  6
CONTINUOUS
 10
-1.186453
 20
-0.326118
  0
VERTEX
  8
PLAN_1
  6
CONTINUOUS
 10
-1.180547
 20
-0.322673
  0
VERTEX
  8
PLAN_1
  6
CONTINUOUS
 10
-1.175130
 20
-0.319224
  0
VERTEX
  8
PLAN_1
  6
CONTINUOUS
 10
-1.169717
 20
-0.315287
  0
VERTEX
  8
PLAN_1
  6
CONTINUOUS
 10
-1.164795
 20
-0.311350
  0
VERTEX
  8
PLAN_1
  6
CONTINUOUS
 10
-1.159378
 20
-0.306917
  0
VERTEX
  8
PLAN_1
  6
CONTINUOUS
 10
-1.154949
 20
-0.302488
  0
VERTEX
  8
PLAN_1
  6
CONTINUOUS
 10
-1.150516
 20
-0.297567
  0
VERTEX
  8
PLAN_1
  6
CONTINUOUS
 10
-1.146087
 20
-0.292642
  0
VERTEX
  8
PLAN_1
  6
CONTINUOUS
 10
-1.142150
 20
-0.287720
  0
VERTEX
  8
PLAN_1
  6
CONTINUOUS
 10
-1.138209
 20
-0.282303
  0
VERTEX
  8
PLAN_1
  6
CONTINUOUS
 10
-1.134764
 20
-0.276890
  0
VERTEX
  8
PLAN_1
  6
CONTINUOUS
 10
-1.131319
 20
-0.270984
  0
VERTEX
  8
PLAN_1
  6
CONTINUOUS
 10
-1.128366
 20
-0.265075
  0
VERTEX
  8
PLAN_1
  6
CONTINUOUS
 10
-1.125902
 20
-0.259169
  0
VERTEX
  8
PLAN_1
  6
CONTINUOUS
 10
-1.123441
 20
-0.252768
  0
VERTEX
  8
PLAN_1
  6
CONTINUOUS
 10
-1.120980
 20
-0.246370
  0
VERTEX
  8
PLAN_1
  6
CONTINUOUS
 10
-1.119504
 20
-0.239969
  0
VERTEX
  8
PLAN_1
  6
CONTINUOUS
 10
-1.117535
 20
-0.233571
  0
VERTEX
  8
PLAN_1
  6
CONTINUOUS
 10
-1.116551
 20
-0.226677
  0
VERTEX
  8
PLAN_1
  6
CONTINUOUS
 10
-1.115567
 20
-0.219783
  0
VERTEX
  8
PLAN_1
  6
CONTINUOUS
 10
-1.115075
 20
-0.212894
  0
VERTEX
  8
PLAN_1
  6
CONTINUOUS
 10
-1.115075
 20
-0.206000
  0
SEQEND
  8
0
  0
POLYLINE
  8
PLAN_1
  6
CONTINUOUS
 66
     1
 40
0.008366
 41
0.008366
  0
VERTEX
  8
PLAN_1
  6
CONTINUOUS
 10
-1.115075
 20
-0.206000
  0
VERTEX
  8
PLAN_1
  6
CONTINUOUS
 10
-1.115075
 20
1.729161
  0
SEQEND
  8
0
  0
POLYLINE
  8
PLAN_1
  6
CONTINUOUS
 66
     1
 40
0.006890
 41
0.006890
  0
VERTEX
  8
PLAN_1
  6
CONTINUOUS
 10
-0.722232
 20
1.191587
  0
VERTEX
  8
PLAN_1
  6
CONTINUOUS
 10
-0.982157
 20
1.191587
  0
SEQEND
  8
0
  0
POLYLINE
  8
PLAN_1
  6
CONTINUOUS
 66
     1
 40
0.006890
 41
0.006890
  0
VERTEX
  8
PLAN_1
  6
CONTINUOUS
 10
-1.116059
 20
1.311213
  0
VERTEX
  8
PLAN_1
  6
CONTINUOUS
 10
-1.388291
 20
1.311213
  0
SEQEND
  8
0
  0
POLYLINE
  8
PLAN_1
  6
CONTINUOUS
 66
     1
 40
0.006890
 41
0.006890
  0
VERTEX
  8
PLAN_1
  6
CONTINUOUS
 10
-1.523669
 20
1.191587
  0
VERTEX
  8
PLAN_1
  6
CONTINUOUS
 10
-1.784087
 20
1.191587
  0
SEQEND
  8
0
  0
POLYLINE
  8
PLAN_1
  6
CONTINUOUS
 66
     1
 40
0.008366
 41
0.008366
  0
VERTEX
  8
PLAN_1
  6
CONTINUOUS
 10
-1.388291
 20
0.683059
  0
VERTEX
  8
PLAN_1
  6
CONTINUOUS
 10
-1.381398
 20
0.677154
  0
VERTEX
  8
PLAN_1
  6
CONTINUOUS
 10
-1.374508
 20
0.671736
  0
VERTEX
  8
PLAN_1
  6
CONTINUOUS
 10
-1.367122
 20
0.666323
  0
VERTEX
  8
PLAN_1
  6
CONTINUOUS
 10
-1.359736
 20
0.661402
  0
VERTEX
  8
PLAN_1
  6
CONTINUOUS
 10
-1.352354
 20
0.656969
  0
VERTEX
  8
PLAN_1
  6
CONTINUOUS
 10
-1.344476
 20
0.652539
  0
VERTEX
  8
PLAN_1
  6
CONTINUOUS
 10
-1.336106
 20
0.649094
  0
VERTEX
  8
PLAN_1
  6
CONTINUOUS
 10
-1.327740
 20
0.645154
  0
VERTEX
  8
PLAN_1
  6
CONTINUOUS
 10
-1.319370
 20
0.642201
  0
VERTEX
  8
PLAN_1
  6
CONTINUOUS
 10
-1.310508
 20
0.639248
  0
VERTEX
  8
PLAN_1
  6
CONTINUOUS
 10
-1.302142
 20
0.637280
  0
VERTEX
  8
PLAN_1
  6
CONTINUOUS
 10
-1.292787
 20
0.635311
  0
VERTEX
  8
PLAN_1
  6
CONTINUOUS
 10
-1.283925
 20
0.633831
  0
VERTEX
  8
PLAN_1
  6
CONTINUOUS
 10
-1.274571
 20
0.632354
  0
VERTEX
  8
PLAN_1
  6
CONTINUOUS
 10
-1.265220
 20
0.631862
  0
VERTEX
  8
PLAN_1
  6
CONTINUOUS
 10
-1.255374
 20
0.631862
  0
VERTEX
  8
PLAN_1
  6
CONTINUOUS
 10
-1.245528
 20
0.631862
  0
VERTEX
  8
PLAN_1
  6
CONTINUOUS
 10
-1.235189
 20
0.632846
  0
VERTEX
  8
PLAN_1
  6
CONTINUOUS
 10
-1.225346
 20
0.633831
  0
VERTEX
  8
PLAN_1
  6
CONTINUOUS
 10
-1.215992
 20
0.635803
  0
VERTEX
  8
PLAN_1
  6
CONTINUOUS
 10
-1.206146
 20
0.637772
  0
VERTEX
  8
PLAN_1
  6
CONTINUOUS
 10
-1.196791
 20
0.640724
  0
VERTEX
  8
PLAN_1
  6
CONTINUOUS
 10
-1.187929
 20
0.643677
  0
VERTEX
  8
PLAN_1
  6
CONTINUOUS
 10
-1.179071
 20
0.647126
  0
VERTEX
  8
PLAN_1
  6
CONTINUOUS
 10
-1.170209
 20
0.651063
  0
VERTEX
  8
PLAN_1
  6
CONTINUOUS
 10
-1.161839
 20
0.655492
  0
VERTEX
  8
PLAN_1
  6
CONTINUOUS
 10
-1.153472
 20
0.659925
  0
VERTEX
  8
PLAN_1
  6
CONTINUOUS
 10
-1.145594
 20
0.665339
  0
VERTEX
  8
PLAN_1
  6
CONTINUOUS
 10
-1.137717
 20
0.670752
  0
VERTEX
  8
PLAN_1
  6
CONTINUOUS
 10
-1.130335
 20
0.676661
  0
VERTEX
  8
PLAN_1
  6
CONTINUOUS
 10
-1.123441
 20
0.682567
  0
VERTEX
  8
PLAN_1
  6
CONTINUOUS
 10
-1.116551
 20
0.689461
  0
SEQEND
  8
0
  0
POLYLINE
  8
PLAN_1
  6
CONTINUOUS
 66
     1
 40
0.008366
 41
0.008366
  0
VERTEX
  8
PLAN_1
  6
CONTINUOUS
 10
-1.114091
 20
0.965630
  0
VERTEX
  8
PLAN_1
  6
CONTINUOUS
 10
-1.120980
 20
0.972524
  0
VERTEX
  8
PLAN_1
  6
CONTINUOUS
 10
-1.128366
 20
0.978921
  0
VERTEX
  8
PLAN_1
  6
CONTINUOUS
 10
-1.135748
 20
0.984831
  0
VERTEX
  8
PLAN_1
  6
CONTINUOUS
 10
-1.143626
 20
0.990244
  0
VERTEX
  8
PLAN_1
  6
CONTINUOUS
 10
-1.151996
 20
0.995661
  0
VERTEX
  8
PLAN_1
  6
CONTINUOUS
 10
-1.160362
 20
1.000583
  0
VERTEX
  8
PLAN_1
  6
CONTINUOUS
 10
-1.168732
 20
1.005012
  0
VERTEX
  8
PLAN_1
  6
CONTINUOUS
 10
-1.177594
 20
1.009445
  0
VERTEX
  8
PLAN_1
  6
CONTINUOUS
 10
-1.186453
 20
1.012890
  0
VERTEX
  8
PLAN_1
  6
CONTINUOUS
 10
-1.195807
 20
1.015843
  0
VERTEX
  8
PLAN_1
  6
CONTINUOUS
 10
-1.205654
 20
1.018795
  0
VERTEX
  8
PLAN_1
  6
CONTINUOUS
 10
-1.215008
 20
1.021260
  0
VERTEX
  8
PLAN_1
  6
CONTINUOUS
 10
-1.224850
 20
1.022736
  0
VERTEX
  8
PLAN_1
  6
CONTINUOUS
 10
-1.235189
 20
1.024213
  0
VERTEX
  8
PLAN_1
  6
CONTINUOUS
 10
-1.245035
 20
1.025197
  0
VERTEX
  8
PLAN_1
  6
CONTINUOUS
 10
-1.255374
 20
1.025197
  0
VERTEX
  8
PLAN_1
  6
CONTINUOUS
 10
-1.265220
 20
1.025197
  0
VERTEX
  8
PLAN_1
  6
CONTINUOUS
 10
-1.274571
 20
1.024213
  0
VERTEX
  8
PLAN_1
  6
CONTINUOUS
 10
-1.284417
 20
1.023228
  0
VERTEX
  8
PLAN_1
  6
CONTINUOUS
 10
-1.293280
 20
1.021752
  0
VERTEX
  8
PLAN_1
  6
CONTINUOUS
 10
-1.302634
 20
1.019783
  0
VERTEX
  8
PLAN_1
  6
CONTINUOUS
 10
-1.311492
 20
1.017319
  0
VERTEX
  8
PLAN_1
  6
CONTINUOUS
 10
-1.320354
 20
1.014366
  0
VERTEX
  8
PLAN_1
  6
CONTINUOUS
 10
-1.329217
 20
1.010921
  0
VERTEX
  8
PLAN_1
  6
CONTINUOUS
 10
-1.337587
 20
1.007476
  0
VERTEX
  8
PLAN_1
  6
CONTINUOUS
 10
-1.345461
 20
1.003535
  0
VERTEX
  8
PLAN_1
  6
CONTINUOUS
 10
-1.353831
 20
0.999106
  0
VERTEX
  8
PLAN_1
  6
CONTINUOUS
 10
-1.361213
 20
0.994181
  0
VERTEX
  8
PLAN_1
  6
CONTINUOUS
 10
-1.369091
 20
0.989260
  0
VERTEX
  8
PLAN_1
  6
CONTINUOUS
 10
-1.375984
 20
0.983846
  0
VERTEX
  8
PLAN_1
  6
CONTINUOUS
 10
-1.383366
 20
0.978429
  0
VERTEX
  8
PLAN_1
  6
CONTINUOUS
 10
-1.389768
 20
0.972031
  0
SEQEND
  8
0
  0
POLYLINE
  8
PLAN_1
  6
CONTINUOUS
 66
     1
 40
0.005413
 41
0.005413
  0
VERTEX
  8
PLAN_1
  6
CONTINUOUS
 10
-1.389276
 20
0.912957
  0
VERTEX
  8
PLAN_1
  6
CONTINUOUS
 10
-1.345953
 20
0.987291
  0
VERTEX
  8
PLAN_1
  6
CONTINUOUS
 10
-1.162823
 20
0.987291
  0
VERTEX
  8
PLAN_1
  6
CONTINUOUS
 10
-1.115075
 20
0.903602
  0
SEQEND
  8
0
  0
POLYLINE
  8
PLAN_1
  6
CONTINUOUS
 66
     1
 40
0.005413
 41
0.005413
  0
VERTEX
  8
PLAN_1
  6
CONTINUOUS
 10
-1.116551
 20
0.754441
  0
VERTEX
  8
PLAN_1
  6
CONTINUOUS
 10
-1.163319
 20
0.672232
  0
VERTEX
  8
PLAN_1
  6
CONTINUOUS
 10
-1.345953
 20
0.672232
  0
VERTEX
  8
PLAN_1
  6
CONTINUOUS
 10
-1.387307
 20
0.744102
  0
SEQEND
  8
0
  0
POLYLINE
  8
PLAN_1
  6
CONTINUOUS
 66
     1
 40
0.008366
 41
0.008366
  0
VERTEX
  8
PLAN_1
  6
CONTINUOUS
 10
-1.720579
 20
0.276437
  0
VERTEX
  8
PLAN_1
  6
CONTINUOUS
 10
-1.721567
 20
0.273972
  0
VERTEX
  8
PLAN_1
  6
CONTINUOUS
 10
-1.723043
 20
0.267083
  0
VERTEX
  8
PLAN_1
  6
CONTINUOUS
 10
-1.724028
 20
0.262654
  0
VERTEX
  8
PLAN_1
  6
CONTINUOUS
 10
-1.725012
 20
0.257728
  0
VERTEX
  8
PLAN_1
  6
CONTINUOUS
 10
-1.725012
 20
0.252315
  0
VERTEX
  8
PLAN_1
  6
CONTINUOUS
 10
-1.725012
 20
0.246898
  0
VERTEX
  8
PLAN_1
  6
CONTINUOUS
 10
-1.724520
 20
0.241484
  0
VERTEX
  8
PLAN_1
  6
CONTINUOUS
 10
-1.723043
 20
0.236067
  0
VERTEX
  8
PLAN_1
  6
CONTINUOUS
 10
-1.722059
 20
0.233606
  0
VERTEX
  8
PLAN_1
  6
CONTINUOUS
 10
-1.720579
 20
0.231146
  0
VERTEX
  8
PLAN_1
  6
CONTINUOUS
 10
-1.719102
 20
0.229177
  0
VERTEX
  8
PLAN_1
  6
CONTINUOUS
 10
-1.717134
 20
0.226717
  0
VERTEX
  8
PLAN_1
  6
CONTINUOUS
 10
-1.715165
 20
0.224744
  0
VERTEX
  8
PLAN_1
  6
CONTINUOUS
 10
-1.712705
 20
0.223268
  0
VERTEX
  8
PLAN_1
  6
CONTINUOUS
 10
-1.710244
 20
0.221791
  0
VERTEX
  8
PLAN_1
  6
CONTINUOUS
 10
-1.707287
 20
0.220315
  0
VERTEX
  8
PLAN_1
  6
CONTINUOUS
 10
-1.703843
 20
0.219331
  0
VERTEX
  8
PLAN_1
  6
CONTINUOUS
 10
-1.699906
 20
0.218346
  0
VERTEX
  8
PLAN_1
  6
CONTINUOUS
 10
-1.695472
 20
0.217854
  0
VERTEX
  8
PLAN_1
  6
CONTINUOUS
 10
-1.691043
 20
0.217854
  0
VERTEX
  8
PLAN_1
  6
CONTINUOUS
 10
-1.684646
 20
0.217854
  0
VERTEX
  8
PLAN_1
  6
CONTINUOUS
 10
-1.673815
 20
0.217854
  0
VERTEX
  8
PLAN_1
  6
CONTINUOUS
 10
-1.658059
 20
0.217854
  0
VERTEX
  8
PLAN_1
  6
CONTINUOUS
 10
-1.637878
 20
0.217854
  0
VERTEX
  8
PLAN_1
  6
CONTINUOUS
 10
-1.613756
 20
0.217854
  0
VERTEX
  8
PLAN_1
  6
CONTINUOUS
 10
-1.586189
 20
0.217854
  0
VERTEX
  8
PLAN_1
  6
CONTINUOUS
 10
-1.555665
 20
0.217854
  0
VERTEX
  8
PLAN_1
  6
CONTINUOUS
 10
-1.522189
 20
0.217854
  0
SEQEND
  8
0
  0
POLYLINE
  8
PLAN_1
  6
CONTINUOUS
 66
     1
 40
0.008366
 41
0.008366
  0
VERTEX
  8
PLAN_1
  6
CONTINUOUS
 10
-0.982157
 20
0.217854
  0
VERTEX
  8
PLAN_1
  6
CONTINUOUS
 10
-0.950650
 20
0.217854
  0
VERTEX
  8
PLAN_1
  6
CONTINUOUS
 10
-0.921606
 20
0.217854
  0
VERTEX
  8
PLAN_1
  6
CONTINUOUS
 10
-0.895024
 20
0.217854
  0
VERTEX
  8
PLAN_1
  6
CONTINUOUS
 10
-0.871886
 20
0.217854
  0
VERTEX
  8
PLAN_1
  6
CONTINUOUS
 10
-0.851701
 20
0.217854
  0
VERTEX
  8
PLAN_1
  6
CONTINUOUS
 10
-0.834965
 20
0.217854
  0
VERTEX
  8
PLAN_1
  6
CONTINUOUS
 10
-0.822657
 20
0.217854
  0
VERTEX
  8
PLAN_1
  6
CONTINUOUS
 10
-0.814287
 20
0.217854
  0
VERTEX
  8
PLAN_1
  6
CONTINUOUS
 10
-0.809858
 20
0.217854
  0
VERTEX
  8
PLAN_1
  6
CONTINUOUS
 10
-0.805921
 20
0.218346
  0
VERTEX
  8
PLAN_1
  6
CONTINUOUS
 10
-0.801980
 20
0.219331
  0
VERTEX
  8
PLAN_1
  6
CONTINUOUS
 10
-0.799028
 20
0.220315
  0
VERTEX
  8
PLAN_1
  6
CONTINUOUS
 10
-0.795583
 20
0.221791
  0
VERTEX
  8
PLAN_1
  6
CONTINUOUS
 10
-0.793122
 20
0.223268
  0
VERTEX
  8
PLAN_1
  6
CONTINUOUS
 10
-0.790165
 20
0.224744
  0
VERTEX
  8
PLAN_1
  6
CONTINUOUS
 10
-0.788197
 20
0.226717
  0
VERTEX
  8
PLAN_1
  6
CONTINUOUS
 10
-0.786228
 20
0.229177
  0
VERTEX
  8
PLAN_1
  6
CONTINUOUS
 10
-0.784260
 20
0.231146
  0
VERTEX
  8
PLAN_1
  6
CONTINUOUS
 10
-0.782783
 20
0.233606
  0
VERTEX
  8
PLAN_1
  6
CONTINUOUS
 10
-0.781307
 20
0.236067
  0
VERTEX
  8
PLAN_1
  6
CONTINUOUS
 10
-0.778846
 20
0.241484
  0
VERTEX
  8
PLAN_1
  6
CONTINUOUS
 10
-0.777366
 20
0.246898
  0
VERTEX
  8
PLAN_1
  6
CONTINUOUS
 10
-0.775890
 20
0.252807
  0
VERTEX
  8
PLAN_1
  6
CONTINUOUS
 10
-0.775398
 20
0.257728
  0
VERTEX
  8
PLAN_1
  6
CONTINUOUS
 10
-0.775398
 20
0.262654
  0
VERTEX
  8
PLAN_1
  6
CONTINUOUS
 10
-0.775398
 20
0.267083
  0
VERTEX
  8
PLAN_1
  6
CONTINUOUS
 10
-0.775398
 20
0.273972
  0
VERTEX
  8
PLAN_1
  6
CONTINUOUS
 10
-0.775890
 20
0.276437
  0
SEQEND
  8
0
  0
POLYLINE
  8
PLAN_1
  6
CONTINUOUS
 66
     1
 40
0.008366
 41
0.008366
  0
VERTEX
  8
PLAN_1
  6
CONTINUOUS
 10
-1.386815
 20
0.217854
  0
VERTEX
  8
PLAN_1
  6
CONTINUOUS
 10
-1.353339
 20
0.217854
  0
VERTEX
  8
PLAN_1
  6
CONTINUOUS
 10
-1.319370
 20
0.217854
  0
VERTEX
  8
PLAN_1
  6
CONTINUOUS
 10
-1.284909
 20
0.217854
  0
VERTEX
  8
PLAN_1
  6
CONTINUOUS
 10
-1.250453
 20
0.217854
  0
VERTEX
  8
PLAN_1
  6
CONTINUOUS
 10
-1.215992
 20
0.217854
  0
VERTEX
  8
PLAN_1
  6
CONTINUOUS
 10
-1.181531
 20
0.217854
  0
VERTEX
  8
PLAN_1
  6
CONTINUOUS
 10
-1.147563
 20
0.217854
  0
VERTEX
  8
PLAN_1
  6
CONTINUOUS
 10
-1.114091
 20
0.217854
  0
SEQEND
  8
0
  0
POLYLINE
  8
PLAN_1
  6
CONTINUOUS
 66
     1
 40
0.003937
 41
0.003937
  0
VERTEX
  8
PLAN_1
  6
CONTINUOUS
 10
-2.035642
 20
-0.376823
  0
VERTEX
  8
PLAN_1
  6
CONTINUOUS
 10
-2.035642
 20
0.130228
  0
SEQEND
  8
0
  0
POLYLINE
  8
PLAN_1
  6
CONTINUOUS
 66
     1
 40
0.003937
 41
0.003937
  0
VERTEX
  8
PLAN_1
  6
CONTINUOUS
 10
-2.035642
 20
0.130228
  0
VERTEX
  8
PLAN_1
  6
CONTINUOUS
 10
-2.035150
 20
0.136134
  0
VERTEX
  8
PLAN_1
  6
CONTINUOUS
 10
-2.032197
 20
0.152874
  0
VERTEX
  8
PLAN_1
  6
CONTINUOUS
 10
-2.029732
 20
0.164197
  0
VERTEX
  8
PLAN_1
  6
CONTINUOUS
 10
-2.025795
 20
0.176504
  0
VERTEX
  8
PLAN_1
  6
CONTINUOUS
 10
-2.022843
 20
0.182902
  0
VERTEX
  8
PLAN_1
  6
CONTINUOUS
 10
-2.019890
 20
0.189795
  0
VERTEX
  8
PLAN_1
  6
CONTINUOUS
 10
-2.016441
 20
0.196193
  0
VERTEX
  8
PLAN_1
  6
CONTINUOUS
 10
-2.012504
 20
0.203087
  0
VERTEX
  8
PLAN_1
  6
CONTINUOUS
 10
-2.008075
 20
0.209976
  0
VERTEX
  8
PLAN_1
  6
CONTINUOUS
 10
-2.003150
 20
0.216870
  0
VERTEX
  8
PLAN_1
  6
CONTINUOUS
 10
-1.997736
 20
0.223760
  0
VERTEX
  8
PLAN_1
  6
CONTINUOUS
 10
-1.991827
 20
0.230161
  0
VERTEX
  8
PLAN_1
  6
CONTINUOUS
 10
-1.984937
 20
0.236559
  0
VERTEX
  8
PLAN_1
  6
CONTINUOUS
 10
-1.977551
 20
0.242469
  0
VERTEX
  8
PLAN_1
  6
CONTINUOUS
 10
-1.969677
 20
0.248374
  0
VERTEX
  8
PLAN_1
  6
CONTINUOUS
 10
-1.960815
 20
0.253791
  0
VERTEX
  8
PLAN_1
  6
CONTINUOUS
 10
-1.951461
 20
0.258713
  0
VERTEX
  8
PLAN_1
  6
CONTINUOUS
 10
-1.941122
 20
0.263146
  0
VERTEX
  8
PLAN_1
  6
CONTINUOUS
 10
-1.930291
 20
0.267083
  0
VERTEX
  8
PLAN_1
  6
CONTINUOUS
 10
-1.918476
 20
0.270035
  0
VERTEX
  8
PLAN_1
  6
CONTINUOUS
 10
-1.905677
 20
0.272988
  0
VERTEX
  8
PLAN_1
  6
CONTINUOUS
 10
-1.891894
 20
0.274957
  0
VERTEX
  8
PLAN_1
  6
CONTINUOUS
 10
-1.877618
 20
0.275945
  0
VERTEX
  8
PLAN_1
  6
CONTINUOUS
 10
-1.861866
 20
0.276437
  0
VERTEX
  8
PLAN_1
  6
CONTINUOUS
 10
-1.838728
 20
0.276437
  0
VERTEX
  8
PLAN_1
  6
CONTINUOUS
 10
-1.811161
 20
0.276437
  0
VERTEX
  8
PLAN_1
  6
CONTINUOUS
 10
-1.778669
 20
0.276437
  0
VERTEX
  8
PLAN_1
  6
CONTINUOUS
 10
-1.740764
 20
0.276437
  0
VERTEX
  8
PLAN_1
  6
CONTINUOUS
 10
-1.696953
 20
0.276437
  0
VERTEX
  8
PLAN_1
  6
CONTINUOUS
 10
-1.646244
 20
0.276437
  0
VERTEX
  8
PLAN_1
  6
CONTINUOUS
 10
-1.588157
 20
0.276437
  0
VERTEX
  8
PLAN_1
  6
CONTINUOUS
 10
-1.522189
 20
0.276437
  0
SEQEND
  8
0
  0
POLYLINE
  8
PLAN_1
  6
CONTINUOUS
 66
     1
 40
0.003937
 41
0.003937
  0
VERTEX
  8
PLAN_1
  6
CONTINUOUS
 10
-1.388291
 20
0.276437
  0
VERTEX
  8
PLAN_1
  6
CONTINUOUS
 10
-1.347921
 20
0.276437
  0
VERTEX
  8
PLAN_1
  6
CONTINUOUS
 10
-1.312480
 20
0.276437
  0
VERTEX
  8
PLAN_1
  6
CONTINUOUS
 10
-1.279988
 20
0.276437
  0
VERTEX
  8
PLAN_1
  6
CONTINUOUS
 10
-1.249957
 20
0.276437
  0
VERTEX
  8
PLAN_1
  6
CONTINUOUS
 10
-1.219929
 20
0.276437
  0
VERTEX
  8
PLAN_1
  6
CONTINUOUS
 10
-1.188425
 20
0.276437
  0
VERTEX
  8
PLAN_1
  6
CONTINUOUS
 10
-1.154457
 20
0.276437
  0
VERTEX
  8
PLAN_1
  6
CONTINUOUS
 10
-1.116059
 20
0.276437
  0
SEQEND
  8
0
  0
POLYLINE
  8
PLAN_1
  6
CONTINUOUS
 66
     1
 40
0.003937
 41
0.003937
  0
VERTEX
  8
PLAN_1
  6
CONTINUOUS
 10
-0.980681
 20
0.276437
  0
VERTEX
  8
PLAN_1
  6
CONTINUOUS
 10
-0.896008
 20
0.276437
  0
VERTEX
  8
PLAN_1
  6
CONTINUOUS
 10
-0.821673
 20
0.276437
  0
VERTEX
  8
PLAN_1
  6
CONTINUOUS
 10
-0.758661
 20
0.276437
  0
VERTEX
  8
PLAN_1
  6
CONTINUOUS
 10
-0.706480
 20
0.276437
  0
VERTEX
  8
PLAN_1
  6
CONTINUOUS
 10
-0.665126
 20
0.276437
  0
VERTEX
  8
PLAN_1
  6
CONTINUOUS
 10
-0.635591
 20
0.276437
  0
VERTEX
  8
PLAN_1
  6
CONTINUOUS
 10
-0.617870
 20
0.276437
  0
VERTEX
  8
PLAN_1
  6
CONTINUOUS
 10
-0.611961
 20
0.276437
  0
VERTEX
  8
PLAN_1
  6
CONTINUOUS
 10
-0.605071
 20
0.276437
  0
VERTEX
  8
PLAN_1
  6
CONTINUOUS
 10
-0.587839
 20
0.274957
  0
VERTEX
  8
PLAN_1
  6
CONTINUOUS
 10
-0.582425
 20
0.273972
  0
VERTEX
  8
PLAN_1
  6
CONTINUOUS
 10
-0.576516
 20
0.272496
  0
VERTEX
  8
PLAN_1
  6
CONTINUOUS
 10
-0.570118
 20
0.271020
  0
VERTEX
  8
PLAN_1
  6
CONTINUOUS
 10
-0.563224
 20
0.269051
  0
VERTEX
  8
PLAN_1
  6
CONTINUOUS
 10
-0.556827
 20
0.266591
  0
VERTEX
  8
PLAN_1
  6
CONTINUOUS
 10
-0.549441
 20
0.263638
  0
VERTEX
  8
PLAN_1
  6
CONTINUOUS
 10
-0.542547
 20
0.260189
  0
VERTEX
  8
PLAN_1
  6
CONTINUOUS
 10
-0.535165
 20
0.256252
  0
VERTEX
  8
PLAN_1
  6
CONTINUOUS
 10
-0.528272
 20
0.251823
  0
VERTEX
  8
PLAN_1
  6
CONTINUOUS
 10
-0.520890
 20
0.246406
  0
VERTEX
  8
PLAN_1
  6
CONTINUOUS
 10
-0.513996
 20
0.240500
  0
VERTEX
  8
PLAN_1
  6
CONTINUOUS
 10
-0.507106
 20
0.234098
  0
VERTEX
  8
PLAN_1
  6
CONTINUOUS
 10
-0.500705
 20
0.226717
  0
VERTEX
  8
PLAN_1
  6
CONTINUOUS
 10
-0.494307
 20
0.218346
  0
VERTEX
  8
PLAN_1
  6
CONTINUOUS
 10
-0.488398
 20
0.209484
  0
VERTEX
  8
PLAN_1
  6
CONTINUOUS
 10
-0.482984
 20
0.199638
  0
VERTEX
  8
PLAN_1
  6
CONTINUOUS
 10
-0.477567
 20
0.189303
  0
VERTEX
  8
PLAN_1
  6
CONTINUOUS
 10
-0.473138
 20
0.177488
  0
VERTEX
  8
PLAN_1
  6
CONTINUOUS
 10
-0.469201
 20
0.164689
  0
VERTEX
  8
PLAN_1
  6
CONTINUOUS
 10
-0.465752
 20
0.150902
  0
VERTEX
  8
PLAN_1
  6
CONTINUOUS
 10
-0.462799
 20
0.136134
  0
VERTEX
  8
PLAN_1
  6
CONTINUOUS
 10
-0.460831
 20
0.120382
  0
VERTEX
  8
PLAN_1
  6
CONTINUOUS
 10
-0.459354
 20
0.103154
  0
VERTEX
  8
PLAN_1
  6
CONTINUOUS
 10
-0.458862
 20
0.084937
  0
VERTEX
  8
PLAN_1
  6
CONTINUOUS
 10
-0.458862
 20
0.006665
  0
VERTEX
  8
PLAN_1
  6
CONTINUOUS
 10
-0.458862
 20
-0.074071
  0
VERTEX
  8
PLAN_1
  6
CONTINUOUS
 10
-0.458862
 20
-0.152835
  0
VERTEX
  8
PLAN_1
  6
CONTINUOUS
 10
-0.458862
 20
-0.226677
  0
VERTEX
  8
PLAN_1
  6
CONTINUOUS
 10
-0.458862
 20
-0.291165
  0
VERTEX
  8
PLAN_1
  6
CONTINUOUS
 10
-0.458862
 20
-0.341870
  0
VERTEX
  8
PLAN_1
  6
CONTINUOUS
 10
-0.458862
 20
-0.375346
  0
VERTEX
  8
PLAN_1
  6
CONTINUOUS
 10
-0.458862
 20
-0.387161
  0
SEQEND
  8
0
  0
POLYLINE
  8
PLAN_1
  6
CONTINUOUS
 66
     1
 40
0.008366
 41
0.008366
  0
VERTEX
  8
PLAN_1
  6
CONTINUOUS
 10
-0.982157
 20
1.311213
  0
VERTEX
  8
PLAN_1
  6
CONTINUOUS
 10
-0.722232
 20
1.311213
  0
VERTEX
  8
PLAN_1
  6
CONTINUOUS
 10
-0.722232
 20
0.276437
  0
VERTEX
  8
PLAN_1
  6
CONTINUOUS
 10
-0.980681
 20
0.276437
  0
SEQEND
  8
0
  0
POLYLINE
  8
PLAN_1
  6
CONTINUOUS
 66
     1
 40
0.008366
 41
0.008366
  0
VERTEX
  8
PLAN_1
  6
CONTINUOUS
 10
-1.116059
 20
0.276437
  0
VERTEX
  8
PLAN_1
  6
CONTINUOUS
 10
-1.388291
 20
0.276437
  0
SEQEND
  8
0
  0
POLYLINE
  8
PLAN_1
  6
CONTINUOUS
 66
     1
 40
0.008366
 41
0.008366
  0
VERTEX
  8
PLAN_1
  6
CONTINUOUS
 10
-1.522189
 20
0.276437
  0
VERTEX
  8
PLAN_1
  6
CONTINUOUS
 10
-1.783594
 20
0.276437
  0
VERTEX
  8
PLAN_1
  6
CONTINUOUS
 10
-1.783594
 20
1.311213
  0
VERTEX
  8
PLAN_1
  6
CONTINUOUS
 10
-1.522189
 20
1.311213
  0
SEQEND
  8
0
  0
POLYLINE
  8
PLAN_1
  6
CONTINUOUS
 66
     1
 40
0.005413
 41
0.005413
  0
VERTEX
  8
PLAN_1
  6
CONTINUOUS
 10
-1.388291
 20
-0.138067
  0
VERTEX
  8
PLAN_1
  6
CONTINUOUS
 10
-1.116551
 20
-0.186311
  0
SEQEND
  8
0
  0
POLYLINE
  8
PLAN_1
  6
CONTINUOUS
 66
     1
 40
0.005413
 41
0.005413
  0
VERTEX
  8
PLAN_1
  6
CONTINUOUS
 10
-1.118028
 20
-0.226185
  0
VERTEX
  8
PLAN_1
  6
CONTINUOUS
 10
-1.387799
 20
-0.178433
  0
SEQEND
  8
0
  0
POLYLINE
  8
PLAN_1
  6
CONTINUOUS
 66
     1
 40
0.005413
 41
0.005413
  0
VERTEX
  8
PLAN_1
  6
CONTINUOUS
 10
-1.387799
 20
-0.138559
  0
VERTEX
  8
PLAN_1
  6
CONTINUOUS
 10
-1.147563
 20
-0.096220
  0
VERTEX
  8
PLAN_1
  6
CONTINUOUS
 10
-1.373520
 20
-0.095728
  0
VERTEX
  8
PLAN_1
  6
CONTINUOUS
 10
-1.387799
 20
-0.098685
  0
SEQEND
  8
0
  0
POLYLINE
  8
PLAN_1
  6
CONTINUOUS
 66
     1
 40
0.005413
 41
0.005413
  0
VERTEX
  8
PLAN_1
  6
CONTINUOUS
 10
-1.327740
 20
-0.320705
  0
VERTEX
  8
PLAN_1
  6
CONTINUOUS
 10
-1.221406
 20
-0.339409
  0
SEQEND
  8
0
  0
POLYLINE
  8
PLAN_1
  6
CONTINUOUS
 66
     1
 40
0.005413
 41
0.005413
  0
VERTEX
  8
PLAN_1
  6
CONTINUOUS
 10
-1.056000
 20
-0.368453
  0
VERTEX
  8
PLAN_1
  6
CONTINUOUS
 10
-1.025476
 20
-0.373870
  0
VERTEX
  8
PLAN_1
  6
CONTINUOUS
 10
-1.013169
 20
-0.376331
  0
SEQEND
  8
0
  0
POLYLINE
  8
PLAN_1
  6
CONTINUOUS
 66
     1
 40
0.005413
 41
0.005413
  0
VERTEX
  8
PLAN_1
  6
CONTINUOUS
 10
-1.013169
 20
-0.376331
  0
VERTEX
  8
PLAN_1
  6
CONTINUOUS
 10
-1.009232
 20
-0.377315
  0
VERTEX
  8
PLAN_1
  6
CONTINUOUS
 10
-1.005787
 20
-0.378791
  0
VERTEX
  8
PLAN_1
  6
CONTINUOUS
 10
-1.002835
 20
-0.381252
  0
VERTEX
  8
PLAN_1
  6
CONTINUOUS
 10
-1.000370
 20
-0.384209
  0
VERTEX
  8
PLAN_1
  6
CONTINUOUS
 10
-0.998894
 20
-0.387654
  0
VERTEX
  8
PLAN_1
  6
CONTINUOUS
 10
-0.997417
 20
-0.391098
  0
VERTEX
  8
PLAN_1
  6
CONTINUOUS
 10
-0.996925
 20
-0.395039
  0
VERTEX
  8
PLAN_1
  6
CONTINUOUS
 10
-0.997417
 20
-0.398976
  0
VERTEX
  8
PLAN_1
  6
CONTINUOUS
 10
-0.998402
 20
-0.402913
  0
VERTEX
  8
PLAN_1
  6
CONTINUOUS
 10
-1.000370
 20
-0.406358
  0
VERTEX
  8
PLAN_1
  6
CONTINUOUS
 10
-1.002343
 20
-0.409315
  0
VERTEX
  8
PLAN_1
  6
CONTINUOUS
 10
-1.005295
 20
-0.411776
  0
VERTEX
  8
PLAN_1
  6
CONTINUOUS
 10
-1.008740
 20
-0.413744
  0
VERTEX
  8
PLAN_1
  6
CONTINUOUS
 10
-1.012185
 20
-0.414728
  0
VERTEX
  8
PLAN_1
  6
CONTINUOUS
 10
-1.016126
 20
-0.415220
  0
VERTEX
  8
PLAN_1
  6
CONTINUOUS
 10
-1.020063
 20
-0.414728
  0
SEQEND
  8
0
  0
POLYLINE
  8
PLAN_1
  6
CONTINUOUS
 66
     1
 40
0.005413
 41
0.005413
  0
VERTEX
  8
PLAN_1
  6
CONTINUOUS
 10
-1.461642
 20
-0.336949
  0
VERTEX
  8
PLAN_1
  6
CONTINUOUS
 10
-1.495114
 20
-0.331039
  0
VERTEX
  8
PLAN_1
  6
CONTINUOUS
 10
-1.502992
 20
-0.329563
  0
SEQEND
  8
0
  0
POLYLINE
  8
PLAN_1
  6
CONTINUOUS
 66
     1
 40
0.005413
 41
0.005413
  0
VERTEX
  8
PLAN_1
  6
CONTINUOUS
 10
-1.502992
 20
-0.329563
  0
VERTEX
  8
PLAN_1
  6
CONTINUOUS
 10
-1.506929
 20
-0.328579
  0
VERTEX
  8
PLAN_1
  6
CONTINUOUS
 10
-1.510374
 20
-0.326610
  0
VERTEX
  8
PLAN_1
  6
CONTINUOUS
 10
-1.513331
 20
-0.324150
  0
VERTEX
  8
PLAN_1
  6
CONTINUOUS
 10
-1.515791
 20
-0.321689
  0
VERTEX
  8
PLAN_1
  6
CONTINUOUS
 10
-1.517760
 20
-0.318240
  0
VERTEX
  8
PLAN_1
  6
CONTINUOUS
 10
-1.518744
 20
-0.314795
  0
VERTEX
  8
PLAN_1
  6
CONTINUOUS
 10
-1.519236
 20
-0.310858
  0
VERTEX
  8
PLAN_1
  6
CONTINUOUS
 10
-1.519236
 20
-0.306917
  0
VERTEX
  8
PLAN_1
  6
CONTINUOUS
 10
-1.518252
 20
-0.302980
  0
VERTEX
  8
PLAN_1
  6
CONTINUOUS
 10
-1.516283
 20
-0.299535
  0
VERTEX
  8
PLAN_1
  6
CONTINUOUS
 10
-1.513823
 20
-0.296583
  0
VERTEX
  8
PLAN_1
  6
CONTINUOUS
 10
-1.510870
 20
-0.294118
  0
VERTEX
  8
PLAN_1
  6
CONTINUOUS
 10
-1.507913
 20
-0.292150
  0
VERTEX
  8
PLAN_1
  6
CONTINUOUS
 10
-1.503976
 20
-0.291165
  0
VERTEX
  8
PLAN_1
  6
CONTINUOUS
 10
-1.500531
 20
-0.290673
  0
VERTEX
  8
PLAN_1
  6
CONTINUOUS
 10
-1.496098
 20
-0.290673
  0
SEQEND
  8
0
  0
POLYLINE
  8
PLAN_1
  6
CONTINUOUS
 66
     1
 40
0.005413
 41
0.005413
  0
VERTEX
  8
PLAN_1
  6
CONTINUOUS
 10
-1.496098
 20
-0.290673
  0
VERTEX
  8
PLAN_1
  6
CONTINUOUS
 10
-1.488224
 20
-0.292150
  0
VERTEX
  8
PLAN_1
  6
CONTINUOUS
 10
-1.481823
 20
-0.293134
  0
SEQEND
  8
0
  0
POLYLINE
  8
PLAN_1
  6
CONTINUOUS
 66
     1
 40
0.005413
 41
0.005413
  0
VERTEX
  8
PLAN_1
  6
CONTINUOUS
 10
-1.116059
 20
-0.223232
  0
VERTEX
  8
PLAN_1
  6
CONTINUOUS
 10
-1.373028
 20
-0.267535
  0
SEQEND
  8
0
  0
POLYLINE
  8
PLAN_1
  6
CONTINUOUS
 66
     1
 40
0.005413
 41
0.005413
  0
VERTEX
  8
PLAN_1
  6
CONTINUOUS
 10
-1.483791
 20
-0.286736
  0
VERTEX
  8
PLAN_1
  6
CONTINUOUS
 10
-1.495606
 20
-0.288705
  0
VERTEX
  8
PLAN_1
  6
CONTINUOUS
 10
-1.503484
 20
-0.290181
  0
SEQEND
  8
0
  0
POLYLINE
  8
PLAN_1
  6
CONTINUOUS
 66
     1
 40
0.005413
 41
0.005413
  0
VERTEX
  8
PLAN_1
  6
CONTINUOUS
 10
-1.503484
 20
-0.290181
  0
VERTEX
  8
PLAN_1
  6
CONTINUOUS
 10
-1.507421
 20
-0.291657
  0
VERTEX
  8
PLAN_1
  6
CONTINUOUS
 10
-1.510870
 20
-0.293134
  0
VERTEX
  8
PLAN_1
  6
CONTINUOUS
 10
-1.513823
 20
-0.295598
  0
VERTEX
  8
PLAN_1
  6
CONTINUOUS
 10
-1.516283
 20
-0.298551
  0
VERTEX
  8
PLAN_1
  6
CONTINUOUS
 10
-1.517760
 20
-0.301504
  0
VERTEX
  8
PLAN_1
  6
CONTINUOUS
 10
-1.519236
 20
-0.305441
  0
VERTEX
  8
PLAN_1
  6
CONTINUOUS
 10
-1.519728
 20
-0.309382
  0
VERTEX
  8
PLAN_1
  6
CONTINUOUS
 10
-1.519236
 20
-0.313319
  0
VERTEX
  8
PLAN_1
  6
CONTINUOUS
 10
-1.518252
 20
-0.316764
  0
VERTEX
  8
PLAN_1
  6
CONTINUOUS
 10
-1.516283
 20
-0.320209
  0
VERTEX
  8
PLAN_1
  6
CONTINUOUS
 10
-1.514315
 20
-0.323165
  0
VERTEX
  8
PLAN_1
  6
CONTINUOUS
 10
-1.511362
 20
-0.325626
  0
VERTEX
  8
PLAN_1
  6
CONTINUOUS
 10
-1.507913
 20
-0.327594
  0
VERTEX
  8
PLAN_1
  6
CONTINUOUS
 10
-1.504469
 20
-0.329071
  0
VERTEX
  8
PLAN_1
  6
CONTINUOUS
 10
-1.500531
 20
-0.329563
  0
VERTEX
  8
PLAN_1
  6
CONTINUOUS
 10
-1.496591
 20
-0.329071
  0
SEQEND
  8
0
  0
POLYLINE
  8
PLAN_1
  6
CONTINUOUS
 66
     1
 40
0.005413
 41
0.005413
  0
VERTEX
  8
PLAN_1
  6
CONTINUOUS
 10
-1.496591
 20
-0.329071
  0
VERTEX
  8
PLAN_1
  6
CONTINUOUS
 10
-1.488717
 20
-0.327594
  0
VERTEX
  8
PLAN_1
  6
CONTINUOUS
 10
-1.467547
 20
-0.324150
  0
SEQEND
  8
0
  0
POLYLINE
  8
PLAN_1
  6
CONTINUOUS
 66
     1
 40
0.005413
 41
0.005413
  0
VERTEX
  8
PLAN_1
  6
CONTINUOUS
 10
-1.347429
 20
-0.302980
  0
VERTEX
  8
PLAN_1
  6
CONTINUOUS
 10
-1.127382
 20
-0.265075
  0
SEQEND
  8
0
  0
POLYLINE
  8
PLAN_1
  6
CONTINUOUS
 66
     1
 40
0.005413
 41
0.005413
  0
VERTEX
  8
PLAN_1
  6
CONTINUOUS
 10
-1.414382
 20
-0.445744
  0
VERTEX
  8
PLAN_1
  6
CONTINUOUS
 10
-1.495606
 20
-0.460020
  0
VERTEX
  8
PLAN_1
  6
CONTINUOUS
 10
-1.503484
 20
-0.461496
  0
SEQEND
  8
0
  0
POLYLINE
  8
PLAN_1
  6
CONTINUOUS
 66
     1
 40
0.005413
 41
0.005413
  0
VERTEX
  8
PLAN_1
  6
CONTINUOUS
 10
-1.503484
 20
-0.461496
  0
VERTEX
  8
PLAN_1
  6
CONTINUOUS
 10
-1.506929
 20
-0.462480
  0
VERTEX
  8
PLAN_1
  6
CONTINUOUS
 10
-1.510374
 20
-0.464449
  0
VERTEX
  8
PLAN_1
  6
CONTINUOUS
 10
-1.513331
 20
-0.466909
  0
VERTEX
  8
PLAN_1
  6
CONTINUOUS
 10
-1.515791
 20
-0.469866
  0
VERTEX
  8
PLAN_1
  6
CONTINUOUS
 10
-1.517760
 20
-0.472819
  0
VERTEX
  8
PLAN_1
  6
CONTINUOUS
 10
-1.519236
 20
-0.476756
  0
VERTEX
  8
PLAN_1
  6
CONTINUOUS
 10
-1.519728
 20
-0.480201
  0
VERTEX
  8
PLAN_1
  6
CONTINUOUS
 10
-1.519236
 20
-0.484634
  0
VERTEX
  8
PLAN_1
  6
CONTINUOUS
 10
-1.518252
 20
-0.488079
  0
VERTEX
  8
PLAN_1
  6
CONTINUOUS
 10
-1.516283
 20
-0.491524
  0
VERTEX
  8
PLAN_1
  6
CONTINUOUS
 10
-1.513823
 20
-0.494480
  0
VERTEX
  8
PLAN_1
  6
CONTINUOUS
 10
-1.511362
 20
-0.496941
  0
VERTEX
  8
PLAN_1
  6
CONTINUOUS
 10
-1.507913
 20
-0.498909
  0
VERTEX
  8
PLAN_1
  6
CONTINUOUS
 10
-1.504469
 20
-0.500386
  0
VERTEX
  8
PLAN_1
  6
CONTINUOUS
 10
-1.500531
 20
-0.500878
  0
VERTEX
  8
PLAN_1
  6
CONTINUOUS
 10
-1.496591
 20
-0.500386
  0
SEQEND
  8
0
  0
POLYLINE
  8
PLAN_1
  6
CONTINUOUS
 66
     1
 40
0.005413
 41
0.005413
  0
VERTEX
  8
PLAN_1
  6
CONTINUOUS
 10
-1.082583
 20
-0.427035
  0
VERTEX
  8
PLAN_1
  6
CONTINUOUS
 10
-1.025476
 20
-0.417189
  0
VERTEX
  8
PLAN_1
  6
CONTINUOUS
 10
-1.013169
 20
-0.415220
  0
SEQEND
  8
0
  0
POLYLINE
  8
PLAN_1
  6
CONTINUOUS
 66
     1
 40
0.005413
 41
0.005413
  0
VERTEX
  8
PLAN_1
  6
CONTINUOUS
 10
-1.013169
 20
-0.415220
  0
VERTEX
  8
PLAN_1
  6
CONTINUOUS
 10
-1.009724
 20
-0.413744
  0
VERTEX
  8
PLAN_1
  6
CONTINUOUS
 10
-1.006280
 20
-0.412268
  0
VERTEX
  8
PLAN_1
  6
CONTINUOUS
 10
-1.003327
 20
-0.409807
  0
VERTEX
  8
PLAN_1
  6
CONTINUOUS
 10
-1.000862
 20
-0.406850
  0
VERTEX
  8
PLAN_1
  6
CONTINUOUS
 10
-0.998894
 20
-0.403406
  0
VERTEX
  8
PLAN_1
  6
CONTINUOUS
 10
-0.997417
 20
-0.399961
  0
VERTEX
  8
PLAN_1
  6
CONTINUOUS
 10
-0.996925
 20
-0.396024
  0
VERTEX
  8
PLAN_1
  6
CONTINUOUS
 10
-0.997417
 20
-0.392083
  0
VERTEX
  8
PLAN_1
  6
CONTINUOUS
 10
-0.998402
 20
-0.388146
  0
VERTEX
  8
PLAN_1
  6
CONTINUOUS
 10
-1.000370
 20
-0.384701
  0
VERTEX
  8
PLAN_1
  6
CONTINUOUS
 10
-1.002835
 20
-0.381744
  0
VERTEX
  8
PLAN_1
  6
CONTINUOUS
 10
-1.005295
 20
-0.379283
  0
VERTEX
  8
PLAN_1
  6
CONTINUOUS
 10
-1.008740
 20
-0.377807
  0
VERTEX
  8
PLAN_1
  6
CONTINUOUS
 10
-1.012185
 20
-0.376331
  0
VERTEX
  8
PLAN_1
  6
CONTINUOUS
 10
-1.016126
 20
-0.375839
  0
VERTEX
  8
PLAN_1
  6
CONTINUOUS
 10
-1.020063
 20
-0.376331
  0
SEQEND
  8
0
  0
POLYLINE
  8
PLAN_1
  6
CONTINUOUS
 66
     1
 40
0.005413
 41
0.005413
  0
VERTEX
  8
PLAN_1
  6
CONTINUOUS
 10
-1.020063
 20
-0.376331
  0
VERTEX
  8
PLAN_1
  6
CONTINUOUS
 10
-1.032370
 20
-0.378299
  0
VERTEX
  8
PLAN_1
  6
CONTINUOUS
 10
-1.062890
 20
-0.383717
  0
SEQEND
  8
0
  0
POLYLINE
  8
PLAN_1
  6
CONTINUOUS
 66
     1
 40
0.005413
 41
0.005413
  0
VERTEX
  8
PLAN_1
  6
CONTINUOUS
 10
-1.406504
 20
-0.461004
  0
VERTEX
  8
PLAN_1
  6
CONTINUOUS
 10
-1.491669
 20
-0.461496
  0
VERTEX
  8
PLAN_1
  6
CONTINUOUS
 10
-1.499547
 20
-0.461496
  0
SEQEND
  8
0
  0
POLYLINE
  8
PLAN_1
  6
CONTINUOUS
 66
     1
 40
0.005413
 41
0.005413
  0
VERTEX
  8
PLAN_1
  6
CONTINUOUS
 10
-1.499547
 20
-0.461496
  0
VERTEX
  8
PLAN_1
  6
CONTINUOUS
 10
-1.503484
 20
-0.461496
  0
VERTEX
  8
PLAN_1
  6
CONTINUOUS
 10
-1.507421
 20
-0.462972
  0
VERTEX
  8
PLAN_1
  6
CONTINUOUS
 10
-1.510870
 20
-0.464449
  0
VERTEX
  8
PLAN_1
  6
CONTINUOUS
 10
-1.513331
 20
-0.466909
  0
VERTEX
  8
PLAN_1
  6
CONTINUOUS
 10
-1.515791
 20
-0.469866
  0
VERTEX
  8
PLAN_1
  6
CONTINUOUS
 10
-1.517760
 20
-0.473311
  0
VERTEX
  8
PLAN_1
  6
CONTINUOUS
 10
-1.518744
 20
-0.476756
  0
VERTEX
  8
PLAN_1
  6
CONTINUOUS
 10
-1.519236
 20
-0.481185
  0
VERTEX
  8
PLAN_1
  6
CONTINUOUS
 10
-1.518744
 20
-0.485126
  0
VERTEX
  8
PLAN_1
  6
CONTINUOUS
 10
-1.517760
 20
-0.488571
  0
VERTEX
  8
PLAN_1
  6
CONTINUOUS
 10
-1.515791
 20
-0.492016
  0
VERTEX
  8
PLAN_1
  6
CONTINUOUS
 10
-1.513331
 20
-0.494972
  0
VERTEX
  8
PLAN_1
  6
CONTINUOUS
 10
-1.510870
 20
-0.497433
  0
VERTEX
  8
PLAN_1
  6
CONTINUOUS
 10
-1.507421
 20
-0.498909
  0
VERTEX
  8
PLAN_1
  6
CONTINUOUS
 10
-1.503484
 20
-0.500386
  0
VERTEX
  8
PLAN_1
  6
CONTINUOUS
 10
-1.499547
 20
-0.500878
  0
SEQEND
  8
0
  0
POLYLINE
  8
PLAN_1
  6
CONTINUOUS
 66
     1
 40
0.005413
 41
0.005413
  0
VERTEX
  8
PLAN_1
  6
CONTINUOUS
 10
-1.499547
 20
-0.500878
  0
VERTEX
  8
PLAN_1
  6
CONTINUOUS
 10
-1.491669
 20
-0.500878
  0
VERTEX
  8
PLAN_1
  6
CONTINUOUS
 10
-1.389276
 20
-0.500386
  0
SEQEND
  8
0
  0
POLYLINE
  8
PLAN_1
  6
CONTINUOUS
 66
     1
 40
0.005413
 41
0.005413
  0
VERTEX
  8
PLAN_1
  6
CONTINUOUS
 10
-1.113598
 20
-0.500386
  0
VERTEX
  8
PLAN_1
  6
CONTINUOUS
 10
-1.021539
 20
-0.500386
  0
VERTEX
  8
PLAN_1
  6
CONTINUOUS
 10
-1.009232
 20
-0.500386
  0
SEQEND
  8
0
  0
POLYLINE
  8
PLAN_1
  6
CONTINUOUS
 66
     1
 40
0.005413
 41
0.005413
  0
VERTEX
  8
PLAN_1
  6
CONTINUOUS
 10
-1.009232
 20
-0.500386
  0
VERTEX
  8
PLAN_1
  6
CONTINUOUS
 10
-1.005295
 20
-0.499894
  0
VERTEX
  8
PLAN_1
  6
CONTINUOUS
 10
-1.001354
 20
-0.498909
  0
VERTEX
  8
PLAN_1
  6
CONTINUOUS
 10
-0.997909
 20
-0.496941
  0
VERTEX
  8
PLAN_1
  6
CONTINUOUS
 10
-0.994957
 20
-0.494480
  0
VERTEX
  8
PLAN_1
  6
CONTINUOUS
 10
-0.992988
 20
-0.492016
  0
VERTEX
  8
PLAN_1
  6
CONTINUOUS
 10
-0.991020
 20
-0.488571
  0
VERTEX
  8
PLAN_1
  6
CONTINUOUS
 10
-0.989543
 20
-0.484634
  0
VERTEX
  8
PLAN_1
  6
CONTINUOUS
 10
-0.989543
 20
-0.480693
  0
VERTEX
  8
PLAN_1
  6
CONTINUOUS
 10
-0.989543
 20
-0.476756
  0
VERTEX
  8
PLAN_1
  6
CONTINUOUS
 10
-0.991020
 20
-0.473311
  0
VERTEX
  8
PLAN_1
  6
CONTINUOUS
 10
-0.992988
 20
-0.469866
  0
VERTEX
  8
PLAN_1
  6
CONTINUOUS
 10
-0.994957
 20
-0.466909
  0
VERTEX
  8
PLAN_1
  6
CONTINUOUS
 10
-0.997909
 20
-0.464449
  0
VERTEX
  8
PLAN_1
  6
CONTINUOUS
 10
-1.001354
 20
-0.462480
  0
VERTEX
  8
PLAN_1
  6
CONTINUOUS
 10
-1.005295
 20
-0.461496
  0
VERTEX
  8
PLAN_1
  6
CONTINUOUS
 10
-1.009232
 20
-0.461004
  0
SEQEND
  8
0
  0
POLYLINE
  8
PLAN_1
  6
CONTINUOUS
 66
     1
 40
0.005413
 41
0.005413
  0
VERTEX
  8
PLAN_1
  6
CONTINUOUS
 10
-1.009232
 20
-0.461004
  0
VERTEX
  8
PLAN_1
  6
CONTINUOUS
 10
-1.021539
 20
-0.461004
  0
VERTEX
  8
PLAN_1
  6
CONTINUOUS
 10
-1.095382
 20
-0.461004
  0
SEQEND
  8
0
  0
POLYLINE
  8
PLAN_1
  6
CONTINUOUS
 66
     1
 40
0.008366
 41
0.008366
  0
VERTEX
  8
PLAN_1
  6
CONTINUOUS
 10
-1.644768
 20
0.217854
  0
VERTEX
  8
PLAN_1
  6
CONTINUOUS
 10
-1.644768
 20
-0.097209
  0
VERTEX
  8
PLAN_1
  6
CONTINUOUS
 10
-1.602925
 20
-0.097209
  0
VERTEX
  8
PLAN_1
  6
CONTINUOUS
 10
-1.602925
 20
-0.140528
  0
VERTEX
  8
PLAN_1
  6
CONTINUOUS
 10
-1.557634
 20
-0.140528
  0
VERTEX
  8
PLAN_1
  6
CONTINUOUS
 10
-1.557634
 20
-0.097209
  0
VERTEX
  8
PLAN_1
  6
CONTINUOUS
 10
-1.521205
 20
-0.097209
  0
SEQEND
  8
0
  0
POLYLINE
  8
PLAN_1
  6
CONTINUOUS
 66
     1
 40
0.008366
 41
0.008366
  0
VERTEX
  8
PLAN_1
  6
CONTINUOUS
 10
-1.387799
 20
-0.097209
  0
VERTEX
  8
PLAN_1
  6
CONTINUOUS
 10
-1.117043
 20
-0.097209
  0
SEQEND
  8
0
  0
POLYLINE
  8
PLAN_1
  6
CONTINUOUS
 66
     1
 40
0.008366
 41
0.008366
  0
VERTEX
  8
PLAN_1
  6
CONTINUOUS
 10
-0.981665
 20
-0.097209
  0
VERTEX
  8
PLAN_1
  6
CONTINUOUS
 10
-0.962465
 20
-0.097209
  0
VERTEX
  8
PLAN_1
  6
CONTINUOUS
 10
-0.962465
 20
-0.140528
  0
VERTEX
  8
PLAN_1
  6
CONTINUOUS
 10
-0.916685
 20
-0.140528
  0
VERTEX
  8
PLAN_1
  6
CONTINUOUS
 10
-0.916685
 20
-0.097209
  0
VERTEX
  8
PLAN_1
  6
CONTINUOUS
 10
-0.857610
 20
-0.097209
  0
VERTEX
  8
PLAN_1
  6
CONTINUOUS
 10
-0.857610
 20
0.217854
  0
SEQEND
  8
0
  0
SOLID
  8
PLAN_1
 62
     2
 10
-1.247988
 20
3.688445
 11
-1.278512
 21
3.741610
 12
-1.247988
 22
3.688445
 13
-1.300665
 23
3.719457
  0
POLYLINE
  8
PLAN_1
 62
     2
  6
CONTINUOUS
 66
     1
 40
0.003000
 41
0.003000
  0
VERTEX
  8
PLAN_1
 62
     2
  6
CONTINUOUS
 10
-1.247988
 20
3.688445
  0
VERTEX
  8
PLAN_1
 62
     2
  6
CONTINUOUS
 10
-1.278512
 20
3.741610
  0
VERTEX
  8
PLAN_1
 62
     2
  6
CONTINUOUS
 10
-1.300665
 20
3.719457
  0
VERTEX
  8
PLAN_1
 62
     2
  6
CONTINUOUS
 10
-1.247988
 20
3.688445
  0
SEQEND
  8
0
  0
POLYLINE
  8
PLAN_1
 62
     2
  6
CONTINUOUS
 66
     1
 40
0.003937
 41
0.003937
  0
VERTEX
  8
PLAN_1
 62
     2
  6
CONTINUOUS
 10
-1.274079
 20
3.715028
  0
VERTEX
  8
PLAN_1
 62
     2
  6
CONTINUOUS
 10
-1.404043
 20
3.839575
  0
VERTEX
  8
PLAN_1
 62
     2
  6
CONTINUOUS
 10
-1.692028
 20
3.839575
  0
SEQEND
  8
0
  0
POLYLINE
  8
PLAN_1
 62
     2
  6
CONTINUOUS
 66
     1
 40
0.003000
 41
0.003000
  0
VERTEX
  8
PLAN_1
 62
     2
  6
CONTINUOUS
 10
-1.597016
 20
3.927201
  0
VERTEX
  8
PLAN_1
 62
     2
  6
CONTINUOUS
 10
-1.595047
 20
3.924248
  0
VERTEX
  8
PLAN_1
 62
     2
  6
CONTINUOUS
 10
-1.593079
 20
3.920799
  0
VERTEX
  8
PLAN_1
 62
     2
  6
CONTINUOUS
 10
-1.591602
 20
3.917846
  0
VERTEX
  8
PLAN_1
 62
     2
  6
CONTINUOUS
 10
-1.590618
 20
3.914402
  0
VERTEX
  8
PLAN_1
 62
     2
  6
CONTINUOUS
 10
-1.589634
 20
3.910957
  0
VERTEX
  8
PLAN_1
 62
     2
  6
CONTINUOUS
 10
-1.589142
 20
3.907508
  0
VERTEX
  8
PLAN_1
 62
     2
  6
CONTINUOUS
 10
-1.588650
 20
3.904063
  0
VERTEX
  8
PLAN_1
 62
     2
  6
CONTINUOUS
 10
-1.588650
 20
3.900618
  0
VERTEX
  8
PLAN_1
 62
     2
  6
CONTINUOUS
 10
-1.589142
 20
3.894217
  0
VERTEX
  8
PLAN_1
 62
     2
  6
CONTINUOUS
 10
-1.590618
 20
3.887819
  0
VERTEX
  8
PLAN_1
 62
     2
  6
CONTINUOUS
 10
-1.591602
 20
3.884374
  0
VERTEX
  8
PLAN_1
 62
     2
  6
CONTINUOUS
 10
-1.593079
 20
3.880925
  0
VERTEX
  8
PLAN_1
 62
     2
  6
CONTINUOUS
 10
-1.594555
 20
3.877972
  0
VERTEX
  8
PLAN_1
 62
     2
  6
CONTINUOUS
 10
-1.596524
 20
3.875020
  0
VERTEX
  8
PLAN_1
 62
     2
  6
CONTINUOUS
 10
-1.598496
 20
3.872067
  0
VERTEX
  8
PLAN_1
 62
     2
  6
CONTINUOUS
 10
-1.601449
 20
3.869602
  0
VERTEX
  8
PLAN_1
 62
     2
  6
CONTINUOUS
 10
-1.604402
 20
3.867142
  0
VERTEX
  8
PLAN_1
 62
     2
  6
CONTINUOUS
 10
-1.607846
 20
3.865173
  0
VERTEX
  8
PLAN_1
 62
     2
  6
CONTINUOUS
 10
-1.611295
 20
3.863697
  0
VERTEX
  8
PLAN_1
 62
     2
  6
CONTINUOUS
 10
-1.615724
 20
3.862220
  0
VERTEX
  8
PLAN_1
 62
     2
  6
CONTINUOUS
 10
-1.620154
 20
3.861728
  0
VERTEX
  8
PLAN_1
 62
     2
  6
CONTINUOUS
 10
-1.625079
 20
3.861236
  0
VERTEX
  8
PLAN_1
 62
     2
  6
CONTINUOUS
 10
-1.629016
 20
3.861728
  0
VERTEX
  8
PLAN_1
 62
     2
  6
CONTINUOUS
 10
-1.632953
 20
3.862220
  0
VERTEX
  8
PLAN_1
 62
     2
  6
CONTINUOUS
 10
-1.636402
 20
3.862713
  0
VERTEX
  8
PLAN_1
 62
     2
  6
CONTINUOUS
 10
-1.639354
 20
3.863697
  0
VERTEX
  8
PLAN_1
 62
     2
  6
CONTINUOUS
 10
-1.642307
 20
3.865173
  0
VERTEX
  8
PLAN_1
 62
     2
  6
CONTINUOUS
 10
-1.644768
 20
3.866650
  0
VERTEX
  8
PLAN_1
 62
     2
  6
CONTINUOUS
 10
-1.647232
 20
3.868618
  0
VERTEX
  8
PLAN_1
 62
     2
  6
CONTINUOUS
 10
-1.649693
 20
3.870587
  0
VERTEX
  8
PLAN_1
 62
     2
  6
CONTINUOUS
 10
-1.658059
 20
3.861236
  0
VERTEX
  8
PLAN_1
 62
     2
  6
CONTINUOUS
 10
-1.661508
 20
3.864189
  0
VERTEX
  8
PLAN_1
 62
     2
  6
CONTINUOUS
 10
-1.652646
 20
3.873543
  0
VERTEX
  8
PLAN_1
 62
     2
  6
CONTINUOUS
 10
-1.655106
 20
3.876496
  0
VERTEX
  8
PLAN_1
 62
     2
  6
CONTINUOUS
 10
-1.656583
 20
3.879941
  0
VERTEX
  8
PLAN_1
 62
     2
  6
CONTINUOUS
 10
-1.658551
 20
3.883386
  0
VERTEX
  8
PLAN_1
 62
     2
  6
CONTINUOUS
 10
-1.659539
 20
3.886835
  0
VERTEX
  8
PLAN_1
 62
     2
  6
CONTINUOUS
 10
-1.660524
 20
3.890280
  0
VERTEX
  8
PLAN_1
 62
     2
  6
CONTINUOUS
 10
-1.661016
 20
3.893724
  0
VERTEX
  8
PLAN_1
 62
     2
  6
CONTINUOUS
 10
-1.661508
 20
3.897173
  0
VERTEX
  8
PLAN_1
 62
     2
  6
CONTINUOUS
 10
-1.661508
 20
3.900618
  0
VERTEX
  8
PLAN_1
 62
     2
  6
CONTINUOUS
 10
-1.661016
 20
3.907016
  0
VERTEX
  8
PLAN_1
 62
     2
  6
CONTINUOUS
 10
-1.659539
 20
3.913417
  0
VERTEX
  8
PLAN_1
 62
     2
  6
CONTINUOUS
 10
-1.658551
 20
3.916862
  0
VERTEX
  8
PLAN_1
 62
     2
  6
CONTINUOUS
 10
-1.657567
 20
3.920307
  0
VERTEX
  8
PLAN_1
 62
     2
  6
CONTINUOUS
 10
-1.655598
 20
3.923264
  0
VERTEX
  8
PLAN_1
 62
     2
  6
CONTINUOUS
 10
-1.653630
 20
3.926217
  0
VERTEX
  8
PLAN_1
 62
     2
  6
CONTINUOUS
 10
-1.651661
 20
3.929169
  0
VERTEX
  8
PLAN_1
 62
     2
  6
CONTINUOUS
 10
-1.648709
 20
3.931630
  0
VERTEX
  8
PLAN_1
 62
     2
  6
CONTINUOUS
 10
-1.645752
 20
3.934094
  0
VERTEX
  8
PLAN_1
 62
     2
  6
CONTINUOUS
 10
-1.642799
 20
3.936063
  0
VERTEX
  8
PLAN_1
 62
     2
  6
CONTINUOUS
 10
-1.638862
 20
3.937539
  0
VERTEX
  8
PLAN_1
 62
     2
  6
CONTINUOUS
 10
-1.634925
 20
3.939016
  0
VERTEX
  8
PLAN_1
 62
     2
  6
CONTINUOUS
 10
-1.630000
 20
3.939508
  0
VERTEX
  8
PLAN_1
 62
     2
  6
CONTINUOUS
 10
-1.625079
 20
3.940000
  0
VERTEX
  8
PLAN_1
 62
     2
  6
CONTINUOUS
 10
-1.621138
 20
3.940000
  0
VERTEX
  8
PLAN_1
 62
     2
  6
CONTINUOUS
 10
-1.617201
 20
3.939508
  0
VERTEX
  8
PLAN_1
 62
     2
  6
CONTINUOUS
 10
-1.613756
 20
3.938524
  0
VERTEX
  8
PLAN_1
 62
     2
  6
CONTINUOUS
 10
-1.610311
 20
3.937539
  0
VERTEX
  8
PLAN_1
 62
     2
  6
CONTINUOUS
 10
-1.607354
 20
3.936063
  0
VERTEX
  8
PLAN_1
 62
     2
  6
CONTINUOUS
 10
-1.604894
 20
3.934587
  0
VERTEX
  8
PLAN_1
 62
     2
  6
CONTINUOUS
 10
-1.602433
 20
3.932614
  0
VERTEX
  8
PLAN_1
 62
     2
  6
CONTINUOUS
 10
-1.600465
 20
3.930646
  0
VERTEX
  8
PLAN_1
 62
     2
  6
CONTINUOUS
 10
-1.591602
 20
3.940000
  0
VERTEX
  8
PLAN_1
 62
     2
  6
CONTINUOUS
 10
-1.588650
 20
3.937047
  0
VERTEX
  8
PLAN_1
 62
     2
  6
CONTINUOUS
 10
-1.597016
 20
3.927201
  0
SEQEND
  8
0
  0
POLYLINE
  8
PLAN_1
 62
     2
  6
CONTINUOUS
 66
     1
 40
0.003000
 41
0.003000
  0
VERTEX
  8
PLAN_1
 62
     2
  6
CONTINUOUS
 10
-1.642799
 20
3.877480
  0
VERTEX
  8
PLAN_1
 62
     2
  6
CONTINUOUS
 10
-1.641323
 20
3.876004
  0
VERTEX
  8
PLAN_1
 62
     2
  6
CONTINUOUS
 10
-1.639354
 20
3.874528
  0
VERTEX
  8
PLAN_1
 62
     2
  6
CONTINUOUS
 10
-1.637386
 20
3.873051
  0
VERTEX
  8
PLAN_1
 62
     2
  6
CONTINUOUS
 10
-1.635417
 20
3.872067
  0
VERTEX
  8
PLAN_1
 62
     2
  6
CONTINUOUS
 10
-1.632953
 20
3.871571
  0
VERTEX
  8
PLAN_1
 62
     2
  6
CONTINUOUS
 10
-1.630492
 20
3.870587
  0
VERTEX
  8
PLAN_1
 62
     2
  6
CONTINUOUS
 10
-1.628031
 20
3.870587
  0
VERTEX
  8
PLAN_1
 62
     2
  6
CONTINUOUS
 10
-1.625079
 20
3.870094
  0
VERTEX
  8
PLAN_1
 62
     2
  6
CONTINUOUS
 10
-1.622126
 20
3.870587
  0
VERTEX
  8
PLAN_1
 62
     2
  6
CONTINUOUS
 10
-1.619169
 20
3.871079
  0
VERTEX
  8
PLAN_1
 62
     2
  6
CONTINUOUS
 10
-1.616709
 20
3.871571
  0
VERTEX
  8
PLAN_1
 62
     2
  6
CONTINUOUS
 10
-1.614248
 20
3.872559
  0
VERTEX
  8
PLAN_1
 62
     2
  6
CONTINUOUS
 10
-1.611787
 20
3.873543
  0
VERTEX
  8
PLAN_1
 62
     2
  6
CONTINUOUS
 10
-1.609819
 20
3.875020
  0
VERTEX
  8
PLAN_1
 62
     2
  6
CONTINUOUS
 10
-1.607846
 20
3.876988
  0
VERTEX
  8
PLAN_1
 62
     2
  6
CONTINUOUS
 10
-1.605878
 20
3.878957
  0
VERTEX
  8
PLAN_1
 62
     2
  6
CONTINUOUS
 10
-1.604402
 20
3.880925
  0
VERTEX
  8
PLAN_1
 62
     2
  6
CONTINUOUS
 10
-1.602925
 20
3.883386
  0
VERTEX
  8
PLAN_1
 62
     2
  6
CONTINUOUS
 10
-1.601941
 20
3.885850
  0
VERTEX
  8
PLAN_1
 62
     2
  6
CONTINUOUS
 10
-1.600957
 20
3.888311
  0
VERTEX
  8
PLAN_1
 62
     2
  6
CONTINUOUS
 10
-1.599480
 20
3.894217
  0
VERTEX
  8
PLAN_1
 62
     2
  6
CONTINUOUS
 10
-1.598988
 20
3.900618
  0
VERTEX
  8
PLAN_1
 62
     2
  6
CONTINUOUS
 10
-1.598988
 20
3.903571
  0
VERTEX
  8
PLAN_1
 62
     2
  6
CONTINUOUS
 10
-1.599480
 20
3.906031
  0
VERTEX
  8
PLAN_1
 62
     2
  6
CONTINUOUS
 10
-1.599972
 20
3.908492
  0
VERTEX
  8
PLAN_1
 62
     2
  6
CONTINUOUS
 10
-1.600465
 20
3.910957
  0
VERTEX
  8
PLAN_1
 62
     2
  6
CONTINUOUS
 10
-1.600957
 20
3.913417
  0
VERTEX
  8
PLAN_1
 62
     2
  6
CONTINUOUS
 10
-1.601941
 20
3.915878
  0
VERTEX
  8
PLAN_1
 62
     2
  6
CONTINUOUS
 10
-1.602925
 20
3.917846
  0
VERTEX
  8
PLAN_1
 62
     2
  6
CONTINUOUS
 10
-1.604402
 20
3.919815
  0
VERTEX
  8
PLAN_1
 62
     2
  6
CONTINUOUS
 10
-1.642799
 20
3.877480
  0
SEQEND
  8
0
  0
POLYLINE
  8
PLAN_1
 62
     2
  6
CONTINUOUS
 66
     1
 40
0.003000
 41
0.003000
  0
VERTEX
  8
PLAN_1
 62
     2
  6
CONTINUOUS
 10
-1.606862
 20
3.923264
  0
VERTEX
  8
PLAN_1
 62
     2
  6
CONTINUOUS
 10
-1.608831
 20
3.925232
  0
VERTEX
  8
PLAN_1
 62
     2
  6
CONTINUOUS
 10
-1.610311
 20
3.926709
  0
VERTEX
  8
PLAN_1
 62
     2
  6
CONTINUOUS
 10
-1.612772
 20
3.928185
  0
VERTEX
  8
PLAN_1
 62
     2
  6
CONTINUOUS
 10
-1.614740
 20
3.929169
  0
VERTEX
  8
PLAN_1
 62
     2
  6
CONTINUOUS
 10
-1.617201
 20
3.929661
  0
VERTEX
  8
PLAN_1
 62
     2
  6
CONTINUOUS
 10
-1.619661
 20
3.930646
  0
VERTEX
  8
PLAN_1
 62
     2
  6
CONTINUOUS
 10
-1.622126
 20
3.931138
  0
VERTEX
  8
PLAN_1
 62
     2
  6
CONTINUOUS
 10
-1.625079
 20
3.931138
  0
VERTEX
  8
PLAN_1
 62
     2
  6
CONTINUOUS
 10
-1.628031
 20
3.931138
  0
VERTEX
  8
PLAN_1
 62
     2
  6
CONTINUOUS
 10
-1.630984
 20
3.930646
  0
VERTEX
  8
PLAN_1
 62
     2
  6
CONTINUOUS
 10
-1.633445
 20
3.929661
  0
VERTEX
  8
PLAN_1
 62
     2
  6
CONTINUOUS
 10
-1.635909
 20
3.928677
  0
VERTEX
  8
PLAN_1
 62
     2
  6
CONTINUOUS
 10
-1.638370
 20
3.927693
  0
VERTEX
  8
PLAN_1
 62
     2
  6
CONTINUOUS
 10
-1.640339
 20
3.926217
  0
VERTEX
  8
PLAN_1
 62
     2
  6
CONTINUOUS
 10
-1.642307
 20
3.924248
  0
VERTEX
  8
PLAN_1
 62
     2
  6
CONTINUOUS
 10
-1.644276
 20
3.922280
  0
VERTEX
  8
PLAN_1
 62
     2
  6
CONTINUOUS
 10
-1.645752
 20
3.920307
  0
VERTEX
  8
PLAN_1
 62
     2
  6
CONTINUOUS
 10
-1.647232
 20
3.917846
  0
VERTEX
  8
PLAN_1
 62
     2
  6
CONTINUOUS
 10
-1.648217
 20
3.915386
  0
VERTEX
  8
PLAN_1
 62
     2
  6
CONTINUOUS
 10
-1.649201
 20
3.912925
  0
VERTEX
  8
PLAN_1
 62
     2
  6
CONTINUOUS
 10
-1.650677
 20
3.907016
  0
VERTEX
  8
PLAN_1
 62
     2
  6
CONTINUOUS
 10
-1.651169
 20
3.900618
  0
VERTEX
  8
PLAN_1
 62
     2
  6
CONTINUOUS
 10
-1.651169
 20
3.897665
  0
VERTEX
  8
PLAN_1
 62
     2
  6
CONTINUOUS
 10
-1.650677
 20
3.895201
  0
VERTEX
  8
PLAN_1
 62
     2
  6
CONTINUOUS
 10
-1.650185
 20
3.892740
  0
VERTEX
  8
PLAN_1
 62
     2
  6
CONTINUOUS
 10
-1.649693
 20
3.890280
  0
VERTEX
  8
PLAN_1
 62
     2
  6
CONTINUOUS
 10
-1.649201
 20
3.887819
  0
VERTEX
  8
PLAN_1
 62
     2
  6
CONTINUOUS
 10
-1.648217
 20
3.885358
  0
VERTEX
  8
PLAN_1
 62
     2
  6
CONTINUOUS
 10
-1.647232
 20
3.883386
  0
VERTEX
  8
PLAN_1
 62
     2
  6
CONTINUOUS
 10
-1.645752
 20
3.880925
  0
VERTEX
  8
PLAN_1
 62
     2
  6
CONTINUOUS
 10
-1.606862
 20
3.923264
  0
SEQEND
  8
0
  0
POLYLINE
  8
PLAN_1
 62
     2
  6
CONTINUOUS
 66
     1
 40
0.003000
 41
0.003000
  0
VERTEX
  8
PLAN_1
 62
     2
  6
CONTINUOUS
 10
-1.569449
 20
3.906031
  0
VERTEX
  8
PLAN_1
 62
     2
  6
CONTINUOUS
 10
-1.567972
 20
3.906524
  0
VERTEX
  8
PLAN_1
 62
     2
  6
CONTINUOUS
 10
-1.566496
 20
3.907508
  0
VERTEX
  8
PLAN_1
 62
     2
  6
CONTINUOUS
 10
-1.565020
 20
3.908492
  0
VERTEX
  8
PLAN_1
 62
     2
  6
CONTINUOUS
 10
-1.563543
 20
3.908984
  0
VERTEX
  8
PLAN_1
 62
     2
  6
CONTINUOUS
 10
-1.561575
 20
3.909480
  0
VERTEX
  8
PLAN_1
 62
     2
  6
CONTINUOUS
 10
-1.559602
 20
3.909972
  0
VERTEX
  8
PLAN_1
 62
     2
  6
CONTINUOUS
 10
-1.557634
 20
3.910465
  0
VERTEX
  8
PLAN_1
 62
     2
  6
CONTINUOUS
 10
-1.555173
 20
3.910465
  0
VERTEX
  8
PLAN_1
 62
     2
  6
CONTINUOUS
 10
-1.550744
 20
3.909972
  0
VERTEX
  8
PLAN_1
 62
     2
  6
CONTINUOUS
 10
-1.546311
 20
3.908984
  0
VERTEX
  8
PLAN_1
 62
     2
  6
CONTINUOUS
 10
-1.542374
 20
3.907016
  0
VERTEX
  8
PLAN_1
 62
     2
  6
CONTINUOUS
 10
-1.538437
 20
3.904555
  0
VERTEX
  8
PLAN_1
 62
     2
  6
CONTINUOUS
 10
-1.535484
 20
3.901110
  0
VERTEX
  8
PLAN_1
 62
     2
  6
CONTINUOUS
 10
-1.533020
 20
3.897173
  0
VERTEX
  8
PLAN_1
 62
     2
  6
CONTINUOUS
 10
-1.532528
 20
3.894709
  0
VERTEX
  8
PLAN_1
 62
     2
  6
CONTINUOUS
 10
-1.531543
 20
3.892248
  0
VERTEX
  8
PLAN_1
 62
     2
  6
CONTINUOUS
 10
-1.531051
 20
3.889787
  0
VERTEX
  8
PLAN_1
 62
     2
  6
CONTINUOUS
 10
-1.531051
 20
3.886835
  0
VERTEX
  8
PLAN_1
 62
     2
  6
CONTINUOUS
 10
-1.531543
 20
3.883386
  0
VERTEX
  8
PLAN_1
 62
     2
  6
CONTINUOUS
 10
-1.532035
 20
3.879449
  0
VERTEX
  8
PLAN_1
 62
     2
  6
CONTINUOUS
 10
-1.533512
 20
3.875512
  0
VERTEX
  8
PLAN_1
 62
     2
  6
CONTINUOUS
 10
-1.535976
 20
3.871079
  0
VERTEX
  8
PLAN_1
 62
     2
  6
CONTINUOUS
 10
-1.537453
 20
3.869110
  0
VERTEX
  8
PLAN_1
 62
     2
  6
CONTINUOUS
 10
-1.539421
 20
3.867142
  0
VERTEX
  8
PLAN_1
 62
     2
  6
CONTINUOUS
 10
-1.541390
 20
3.865665
  0
VERTEX
  8
PLAN_1
 62
     2
  6
CONTINUOUS
 10
-1.543850
 20
3.864189
  0
VERTEX
  8
PLAN_1
 62
     2
  6
CONTINUOUS
 10
-1.546803
 20
3.863205
  0
VERTEX
  8
PLAN_1
 62
     2
  6
CONTINUOUS
 10
-1.549760
 20
3.862220
  0
VERTEX
  8
PLAN_1
 62
     2
  6
CONTINUOUS
 10
-1.553697
 20
3.861728
  0
VERTEX
  8
PLAN_1
 62
     2
  6
CONTINUOUS
 10
-1.557634
 20
3.861236
  0
VERTEX
  8
PLAN_1
 62
     2
  6
CONTINUOUS
 10
-1.561083
 20
3.861728
  0
VERTEX
  8
PLAN_1
 62
     2
  6
CONTINUOUS
 10
-1.565020
 20
3.862220
  0
VERTEX
  8
PLAN_1
 62
     2
  6
CONTINUOUS
 10
-1.568957
 20
3.863205
  0
VERTEX
  8
PLAN_1
 62
     2
  6
CONTINUOUS
 10
-1.572402
 20
3.865173
  0
VERTEX
  8
PLAN_1
 62
     2
  6
CONTINUOUS
 10
-1.573882
 20
3.866650
  0
VERTEX
  8
PLAN_1
 62
     2
  6
CONTINUOUS
 10
-1.575358
 20
3.868126
  0
VERTEX
  8
PLAN_1
 62
     2
  6
CONTINUOUS
 10
-1.576835
 20
3.869602
  0
VERTEX
  8
PLAN_1
 62
     2
  6
CONTINUOUS
 10
-1.578311
 20
3.871571
  0
VERTEX
  8
PLAN_1
 62
     2
  6
CONTINUOUS
 10
-1.579295
 20
3.873543
  0
VERTEX
  8
PLAN_1
 62
     2
  6
CONTINUOUS
 10
-1.580280
 20
3.876004
  0
VERTEX
  8
PLAN_1
 62
     2
  6
CONTINUOUS
 10
-1.580772
 20
3.878465
  0
VERTEX
  8
PLAN_1
 62
     2
  6
CONTINUOUS
 10
-1.581264
 20
3.881417
  0
VERTEX
  8
PLAN_1
 62
     2
  6
CONTINUOUS
 10
-1.571909
 20
3.881417
  0
VERTEX
  8
PLAN_1
 62
     2
  6
CONTINUOUS
 10
-1.571417
 20
3.878465
  0
VERTEX
  8
PLAN_1
 62
     2
  6
CONTINUOUS
 10
-1.569941
 20
3.876004
  0
VERTEX
  8
PLAN_1
 62
     2
  6
CONTINUOUS
 10
-1.568465
 20
3.874035
  0
VERTEX
  8
PLAN_1
 62
     2
  6
CONTINUOUS
 10
-1.566988
 20
3.872067
  0
VERTEX
  8
PLAN_1
 62
     2
  6
CONTINUOUS
 10
-1.564528
 20
3.871079
  0
VERTEX
  8
PLAN_1
 62
     2
  6
CONTINUOUS
 10
-1.562067
 20
3.870094
  0
VERTEX
  8
PLAN_1
 62
     2
  6
CONTINUOUS
 10
-1.559110
 20
3.869602
  0
VERTEX
  8
PLAN_1
 62
     2
  6
CONTINUOUS
 10
-1.556157
 20
3.869110
  0
VERTEX
  8
PLAN_1
 62
     2
  6
CONTINUOUS
 10
-1.552713
 20
3.869602
  0
VERTEX
  8
PLAN_1
 62
     2
  6
CONTINUOUS
 10
-1.549760
 20
3.870587
  0
VERTEX
  8
PLAN_1
 62
     2
  6
CONTINUOUS
 10
-1.547295
 20
3.872067
  0
VERTEX
  8
PLAN_1
 62
     2
  6
CONTINUOUS
 10
-1.544835
 20
3.874035
  0
VERTEX
  8
PLAN_1
 62
     2
  6
CONTINUOUS
 10
-1.543358
 20
3.876496
  0
VERTEX
  8
PLAN_1
 62
     2
  6
CONTINUOUS
 10
-1.541882
 20
3.879449
  0
VERTEX
  8
PLAN_1
 62
     2
  6
CONTINUOUS
 10
-1.541390
 20
3.882894
  0
VERTEX
  8
PLAN_1
 62
     2
  6
CONTINUOUS
 10
-1.540898
 20
3.885850
  0
VERTEX
  8
PLAN_1
 62
     2
  6
CONTINUOUS
 10
-1.541390
 20
3.889787
  0
VERTEX
  8
PLAN_1
 62
     2
  6
CONTINUOUS
 10
-1.542374
 20
3.892740
  0
VERTEX
  8
PLAN_1
 62
     2
  6
CONTINUOUS
 10
-1.543850
 20
3.895693
  0
VERTEX
  8
PLAN_1
 62
     2
  6
CONTINUOUS
 10
-1.545819
 20
3.898157
  0
VERTEX
  8
PLAN_1
 62
     2
  6
CONTINUOUS
 10
-1.547791
 20
3.899634
  0
VERTEX
  8
PLAN_1
 62
     2
  6
CONTINUOUS
 10
-1.550744
 20
3.901110
  0
VERTEX
  8
PLAN_1
 62
     2
  6
CONTINUOUS
 10
-1.553697
 20
3.902094
  0
VERTEX
  8
PLAN_1
 62
     2
  6
CONTINUOUS
 10
-1.557142
 20
3.902094
  0
VERTEX
  8
PLAN_1
 62
     2
  6
CONTINUOUS
 10
-1.559110
 20
3.902094
  0
VERTEX
  8
PLAN_1
 62
     2
  6
CONTINUOUS
 10
-1.561083
 20
3.901602
  0
VERTEX
  8
PLAN_1
 62
     2
  6
CONTINUOUS
 10
-1.563051
 20
3.901110
  0
VERTEX
  8
PLAN_1
 62
     2
  6
CONTINUOUS
 10
-1.564528
 20
3.900618
  0
VERTEX
  8
PLAN_1
 62
     2
  6
CONTINUOUS
 10
-1.566496
 20
3.899634
  0
VERTEX
  8
PLAN_1
 62
     2
  6
CONTINUOUS
 10
-1.567972
 20
3.898157
  0
VERTEX
  8
PLAN_1
 62
     2
  6
CONTINUOUS
 10
-1.569449
 20
3.896681
  0
VERTEX
  8
PLAN_1
 62
     2
  6
CONTINUOUS
 10
-1.570433
 20
3.895201
  0
VERTEX
  8
PLAN_1
 62
     2
  6
CONTINUOUS
 10
-1.578311
 20
3.895693
  0
VERTEX
  8
PLAN_1
 62
     2
  6
CONTINUOUS
 10
-1.572898
 20
3.935079
  0
VERTEX
  8
PLAN_1
 62
     2
  6
CONTINUOUS
 10
-1.534988
 20
3.935079
  0
VERTEX
  8
PLAN_1
 62
     2
  6
CONTINUOUS
 10
-1.534988
 20
3.925724
  0
VERTEX
  8
PLAN_1
 62
     2
  6
CONTINUOUS
 10
-1.566004
 20
3.925724
  0
VERTEX
  8
PLAN_1
 62
     2
  6
CONTINUOUS
 10
-1.569449
 20
3.906031
  0
SEQEND
  8
0
  0
POLYLINE
  8
PLAN_1
 62
     2
  6
CONTINUOUS
 66
     1
 40
0.003000
 41
0.003000
  0
VERTEX
  8
PLAN_1
 62
     2
  6
CONTINUOUS
 10
-1.497575
 20
3.861236
  0
VERTEX
  8
PLAN_1
 62
     2
  6
CONTINUOUS
 10
-1.501516
 20
3.861728
  0
VERTEX
  8
PLAN_1
 62
     2
  6
CONTINUOUS
 10
-1.504961
 20
3.862220
  0
VERTEX
  8
PLAN_1
 62
     2
  6
CONTINUOUS
 10
-1.507913
 20
3.863697
  0
VERTEX
  8
PLAN_1
 62
     2
  6
CONTINUOUS
 10
-1.510374
 20
3.865173
  0
VERTEX
  8
PLAN_1
 62
     2
  6
CONTINUOUS
 10
-1.512839
 20
3.867142
  0
VERTEX
  8
PLAN_1
 62
     2
  6
CONTINUOUS
 10
-1.514807
 20
3.869110
  0
VERTEX
  8
PLAN_1
 62
     2
  6
CONTINUOUS
 10
-1.516776
 20
3.871571
  0
VERTEX
  8
PLAN_1
 62
     2
  6
CONTINUOUS
 10
-1.518252
 20
3.874528
  0
VERTEX
  8
PLAN_1
 62
     2
  6
CONTINUOUS
 10
-1.520220
 20
3.880433
  0
VERTEX
  8
PLAN_1
 62
     2
  6
CONTINUOUS
 10
-1.521697
 20
3.886835
  0
VERTEX
  8
PLAN_1
 62
     2
  6
CONTINUOUS
 10
-1.522681
 20
3.892740
  0
VERTEX
  8
PLAN_1
 62
     2
  6
CONTINUOUS
 10
-1.522681
 20
3.899142
  0
VERTEX
  8
PLAN_1
 62
     2
  6
CONTINUOUS
 10
-1.522681
 20
3.905047
  0
VERTEX
  8
PLAN_1
 62
     2
  6
CONTINUOUS
 10
-1.521697
 20
3.910957
  0
VERTEX
  8
PLAN_1
 62
     2
  6
CONTINUOUS
 10
-1.520220
 20
3.917354
  0
VERTEX
  8
PLAN_1
 62
     2
  6
CONTINUOUS
 10
-1.518252
 20
3.923264
  0
VERTEX
  8
PLAN_1
 62
     2
  6
CONTINUOUS
 10
-1.516776
 20
3.926217
  0
VERTEX
  8
PLAN_1
 62
     2
  6
CONTINUOUS
 10
-1.514807
 20
3.928677
  0
VERTEX
  8
PLAN_1
 62
     2
  6
CONTINUOUS
 10
-1.512839
 20
3.930646
  0
VERTEX
  8
PLAN_1
 62
     2
  6
CONTINUOUS
 10
-1.510374
 20
3.932614
  0
VERTEX
  8
PLAN_1
 62
     2
  6
CONTINUOUS
 10
-1.507913
 20
3.934094
  0
VERTEX
  8
PLAN_1
 62
     2
  6
CONTINUOUS
 10
-1.504961
 20
3.935571
  0
VERTEX
  8
PLAN_1
 62
     2
  6
CONTINUOUS
 10
-1.501516
 20
3.936063
  0
VERTEX
  8
PLAN_1
 62
     2
  6
CONTINUOUS
 10
-1.497575
 20
3.936555
  0
VERTEX
  8
PLAN_1
 62
     2
  6
CONTINUOUS
 10
-1.494130
 20
3.936063
  0
VERTEX
  8
PLAN_1
 62
     2
  6
CONTINUOUS
 10
-1.490685
 20
3.935571
  0
VERTEX
  8
PLAN_1
 62
     2
  6
CONTINUOUS
 10
-1.487732
 20
3.934094
  0
VERTEX
  8
PLAN_1
 62
     2
  6
CONTINUOUS
 10
-1.484776
 20
3.932614
  0
VERTEX
  8
PLAN_1
 62
     2
  6
CONTINUOUS
 10
-1.482807
 20
3.930646
  0
VERTEX
  8
PLAN_1
 62
     2
  6
CONTINUOUS
 10
-1.480839
 20
3.928677
  0
VERTEX
  8
PLAN_1
 62
     2
  6
CONTINUOUS
 10
-1.478870
 20
3.926217
  0
VERTEX
  8
PLAN_1
 62
     2
  6
CONTINUOUS
 10
-1.477394
 20
3.923264
  0
VERTEX
  8
PLAN_1
 62
     2
  6
CONTINUOUS
 10
-1.474933
 20
3.917354
  0
VERTEX
  8
PLAN_1
 62
     2
  6
CONTINUOUS
 10
-1.473457
 20
3.910957
  0
VERTEX
  8
PLAN_1
 62
     2
  6
CONTINUOUS
 10
-1.472961
 20
3.905047
  0
VERTEX
  8
PLAN_1
 62
     2
  6
CONTINUOUS
 10
-1.472469
 20
3.899142
  0
VERTEX
  8
PLAN_1
 62
     2
  6
CONTINUOUS
 10
-1.472961
 20
3.892740
  0
VERTEX
  8
PLAN_1
 62
     2
  6
CONTINUOUS
 10
-1.473457
 20
3.886835
  0
VERTEX
  8
PLAN_1
 62
     2
  6
CONTINUOUS
 10
-1.474933
 20
3.880433
  0
VERTEX
  8
PLAN_1
 62
     2
  6
CONTINUOUS
 10
-1.477394
 20
3.874528
  0
VERTEX
  8
PLAN_1
 62
     2
  6
CONTINUOUS
 10
-1.478870
 20
3.871571
  0
VERTEX
  8
PLAN_1
 62
     2
  6
CONTINUOUS
 10
-1.480839
 20
3.869110
  0
VERTEX
  8
PLAN_1
 62
     2
  6
CONTINUOUS
 10
-1.482807
 20
3.867142
  0
VERTEX
  8
PLAN_1
 62
     2
  6
CONTINUOUS
 10
-1.484776
 20
3.865173
  0
VERTEX
  8
PLAN_1
 62
     2
  6
CONTINUOUS
 10
-1.487732
 20
3.863697
  0
VERTEX
  8
PLAN_1
 62
     2
  6
CONTINUOUS
 10
-1.490685
 20
3.862220
  0
VERTEX
  8
PLAN_1
 62
     2
  6
CONTINUOUS
 10
-1.494130
 20
3.861728
  0
VERTEX
  8
PLAN_1
 62
     2
  6
CONTINUOUS
 10
-1.497575
 20
3.861236
  0
SEQEND
  8
0
  0
POLYLINE
  8
PLAN_1
 62
     2
  6
CONTINUOUS
 66
     1
 40
0.003000
 41
0.003000
  0
VERTEX
  8
PLAN_1
 62
     2
  6
CONTINUOUS
 10
-1.497575
 20
3.928185
  0
VERTEX
  8
PLAN_1
 62
     2
  6
CONTINUOUS
 10
-1.499547
 20
3.928185
  0
VERTEX
  8
PLAN_1
 62
     2
  6
CONTINUOUS
 10
-1.501516
 20
3.927693
  0
VERTEX
  8
PLAN_1
 62
     2
  6
CONTINUOUS
 10
-1.502992
 20
3.927201
  0
VERTEX
  8
PLAN_1
 62
     2
  6
CONTINUOUS
 10
-1.504469
 20
3.926217
  0
VERTEX
  8
PLAN_1
 62
     2
  6
CONTINUOUS
 10
-1.507421
 20
3.923756
  0
VERTEX
  8
PLAN_1
 62
     2
  6
CONTINUOUS
 10
-1.509390
 20
3.920307
  0
VERTEX
  8
PLAN_1
 62
     2
  6
CONTINUOUS
 10
-1.510870
 20
3.916370
  0
VERTEX
  8
PLAN_1
 62
     2
  6
CONTINUOUS
 10
-1.512346
 20
3.911449
  0
VERTEX
  8
PLAN_1
 62
     2
  6
CONTINUOUS
 10
-1.512839
 20
3.905539
  0
VERTEX
  8
PLAN_1
 62
     2
  6
CONTINUOUS
 10
-1.512839
 20
3.899142
  0
VERTEX
  8
PLAN_1
 62
     2
  6
CONTINUOUS
 10
-1.512839
 20
3.892248
  0
VERTEX
  8
PLAN_1
 62
     2
  6
CONTINUOUS
 10
-1.512346
 20
3.886835
  0
VERTEX
  8
PLAN_1
 62
     2
  6
CONTINUOUS
 10
-1.510870
 20
3.881417
  0
VERTEX
  8
PLAN_1
 62
     2
  6
CONTINUOUS
 10
-1.509390
 20
3.877480
  0
VERTEX
  8
PLAN_1
 62
     2
  6
CONTINUOUS
 10
-1.507421
 20
3.874035
  0
VERTEX
  8
PLAN_1
 62
     2
  6
CONTINUOUS
 10
-1.504469
 20
3.871571
  0
VERTEX
  8
PLAN_1
 62
     2
  6
CONTINUOUS
 10
-1.502992
 20
3.870587
  0
VERTEX
  8
PLAN_1
 62
     2
  6
CONTINUOUS
 10
-1.501516
 20
3.870094
  0
VERTEX
  8
PLAN_1
 62
     2
  6
CONTINUOUS
 10
-1.499547
 20
3.869602
  0
VERTEX
  8
PLAN_1
 62
     2
  6
CONTINUOUS
 10
-1.497575
 20
3.869602
  0
VERTEX
  8
PLAN_1
 62
     2
  6
CONTINUOUS
 10
-1.496098
 20
3.869602
  0
VERTEX
  8
PLAN_1
 62
     2
  6
CONTINUOUS
 10
-1.494130
 20
3.870094
  0
VERTEX
  8
PLAN_1
 62
     2
  6
CONTINUOUS
 10
-1.492654
 20
3.870587
  0
VERTEX
  8
PLAN_1
 62
     2
  6
CONTINUOUS
 10
-1.491177
 20
3.871571
  0
VERTEX
  8
PLAN_1
 62
     2
  6
CONTINUOUS
 10
-1.488224
 20
3.874035
  0
VERTEX
  8
PLAN_1
 62
     2
  6
CONTINUOUS
 10
-1.486256
 20
3.877480
  0
VERTEX
  8
PLAN_1
 62
     2
  6
CONTINUOUS
 10
-1.484776
 20
3.881417
  0
VERTEX
  8
PLAN_1
 62
     2
  6
CONTINUOUS
 10
-1.483299
 20
3.886835
  0
VERTEX
  8
PLAN_1
 62
     2
  6
CONTINUOUS
 10
-1.482807
 20
3.892248
  0
VERTEX
  8
PLAN_1
 62
     2
  6
CONTINUOUS
 10
-1.482315
 20
3.899142
  0
VERTEX
  8
PLAN_1
 62
     2
  6
CONTINUOUS
 10
-1.482807
 20
3.905539
  0
VERTEX
  8
PLAN_1
 62
     2
  6
CONTINUOUS
 10
-1.483299
 20
3.911449
  0
VERTEX
  8
PLAN_1
 62
     2
  6
CONTINUOUS
 10
-1.484776
 20
3.916370
  0
VERTEX
  8
PLAN_1
 62
     2
  6
CONTINUOUS
 10
-1.486256
 20
3.920307
  0
VERTEX
  8
PLAN_1
 62
     2
  6
CONTINUOUS
 10
-1.488224
 20
3.923756
  0
VERTEX
  8
PLAN_1
 62
     2
  6
CONTINUOUS
 10
-1.491177
 20
3.926217
  0
VERTEX
  8
PLAN_1
 62
     2
  6
CONTINUOUS
 10
-1.492654
 20
3.927201
  0
VERTEX
  8
PLAN_1
 62
     2
  6
CONTINUOUS
 10
-1.494130
 20
3.927693
  0
VERTEX
  8
PLAN_1
 62
     2
  6
CONTINUOUS
 10
-1.496098
 20
3.928185
  0
VERTEX
  8
PLAN_1
 62
     2
  6
CONTINUOUS
 10
-1.497575
 20
3.928185
  0
SEQEND
  8
0
  0
POLYLINE
  8
PLAN_1
 62
     2
  6
CONTINUOUS
 66
     1
 40
0.003937
 41
0.003937
  0
VERTEX
  8
PLAN_1
 62
     2
  6
CONTINUOUS
 10
0.050650
 20
0.116937
  0
VERTEX
  8
PLAN_1
 62
     2
  6
CONTINUOUS
 10
0.050650
 20
3.660874
  0
SEQEND
  8
0
  0
SOLID
  8
PLAN_1
 62
     2
 10
0.050650
 20
3.690413
 11
0.034898
 21
3.631339
 12
0.050650
 22
3.690413
 13
0.066406
 23
3.631339
  0
POLYLINE
  8
PLAN_1
 62
     2
  6
CONTINUOUS
 66
     1
 40
0.003000
 41
0.003000
  0
VERTEX
  8
PLAN_1
 62
     2
  6
CONTINUOUS
 10
0.050650
 20
3.690413
  0
VERTEX
  8
PLAN_1
 62
     2
  6
CONTINUOUS
 10
0.034898
 20
3.631339
  0
VERTEX
  8
PLAN_1
 62
     2
  6
CONTINUOUS
 10
0.066406
 20
3.631339
  0
VERTEX
  8
PLAN_1
 62
     2
  6
CONTINUOUS
 10
0.050650
 20
3.690413
  0
SEQEND
  8
0
  0
SOLID
  8
PLAN_1
 62
     2
 10
0.050650
 20
0.087398
 11
0.034898
 21
0.146472
 12
0.050650
 22
0.087398
 13
0.066406
 23
0.146472
  0
POLYLINE
  8
PLAN_1
 62
     2
  6
CONTINUOUS
 66
     1
 40
0.003000
 41
0.003000
  0
VERTEX
  8
PLAN_1
 62
     2
  6
CONTINUOUS
 10
0.050650
 20
0.087398
  0
VERTEX
  8
PLAN_1
 62
     2
  6
CONTINUOUS
 10
0.034898
 20
0.146472
  0
VERTEX
  8
PLAN_1
 62
     2
  6
CONTINUOUS
 10
0.066406
 20
0.146472
  0
VERTEX
  8
PLAN_1
 62
     2
  6
CONTINUOUS
 10
0.050650
 20
0.087398
  0
SEQEND
  8
0
  0
POLYLINE
  8
PLAN_1
 62
     2
  6
CONTINUOUS
 66
     1
 40
0.003000
 41
0.003000
  0
VERTEX
  8
PLAN_1
 62
     2
  6
CONTINUOUS
 10
-0.026638
 20
1.700606
  0
VERTEX
  8
PLAN_1
 62
     2
  6
CONTINUOUS
 10
-0.029098
 20
1.700114
  0
VERTEX
  8
PLAN_1
 62
     2
  6
CONTINUOUS
 10
-0.031067
 20
1.699622
  0
VERTEX
  8
PLAN_1
 62
     2
  6
CONTINUOUS
 10
-0.033035
 20
1.698146
  0
VERTEX
  8
PLAN_1
 62
     2
  6
CONTINUOUS
 10
-0.035008
 20
1.697161
  0
VERTEX
  8
PLAN_1
 62
     2
  6
CONTINUOUS
 10
-0.035992
 20
1.695193
  0
VERTEX
  8
PLAN_1
 62
     2
  6
CONTINUOUS
 10
-0.036976
 20
1.693224
  0
VERTEX
  8
PLAN_1
 62
     2
  6
CONTINUOUS
 10
-0.037961
 20
1.690764
  0
VERTEX
  8
PLAN_1
 62
     2
  6
CONTINUOUS
 10
-0.037961
 20
1.688299
  0
VERTEX
  8
PLAN_1
 62
     2
  6
CONTINUOUS
 10
-0.037961
 20
1.685346
  0
VERTEX
  8
PLAN_1
 62
     2
  6
CONTINUOUS
 10
-0.036976
 20
1.683378
  0
VERTEX
  8
PLAN_1
 62
     2
  6
CONTINUOUS
 10
-0.035992
 20
1.681409
  0
VERTEX
  8
PLAN_1
 62
     2
  6
CONTINUOUS
 10
-0.035008
 20
1.679441
  0
VERTEX
  8
PLAN_1
 62
     2
  6
CONTINUOUS
 10
-0.033528
 20
1.677965
  0
VERTEX
  8
PLAN_1
 62
     2
  6
CONTINUOUS
 10
-0.031559
 20
1.676484
  0
VERTEX
  8
PLAN_1
 62
     2
  6
CONTINUOUS
 10
-0.029591
 20
1.675008
  0
VERTEX
  8
PLAN_1
 62
     2
  6
CONTINUOUS
 10
-0.027622
 20
1.674024
  0
VERTEX
  8
PLAN_1
 62
     2
  6
CONTINUOUS
 10
-0.023193
 20
1.672547
  0
VERTEX
  8
PLAN_1
 62
     2
  6
CONTINUOUS
 10
-0.018268
 20
1.671563
  0
VERTEX
  8
PLAN_1
 62
     2
  6
CONTINUOUS
 10
-0.014331
 20
1.671071
  0
VERTEX
  8
PLAN_1
 62
     2
  6
CONTINUOUS
 10
-0.010886
 20
1.670579
  0
VERTEX
  8
PLAN_1
 62
     2
  6
CONTINUOUS
 10
-0.010886
 20
1.671071
  0
VERTEX
  8
PLAN_1
 62
     2
  6
CONTINUOUS
 10
-0.012362
 20
1.672055
  0
VERTEX
  8
PLAN_1
 62
     2
  6
CONTINUOUS
 10
-0.013839
 20
1.673039
  0
VERTEX
  8
PLAN_1
 62
     2
  6
CONTINUOUS
 10
-0.015315
 20
1.675008
  0
VERTEX
  8
PLAN_1
 62
     2
  6
CONTINUOUS
 10
-0.016791
 20
1.676980
  0
VERTEX
  8
PLAN_1
 62
     2
  6
CONTINUOUS
 10
-0.017776
 20
1.678949
  0
VERTEX
  8
PLAN_1
 62
     2
  6
CONTINUOUS
 10
-0.018760
 20
1.681902
  0
VERTEX
  8
PLAN_1
 62
     2
  6
CONTINUOUS
 10
-0.019744
 20
1.684854
  0
VERTEX
  8
PLAN_1
 62
     2
  6
CONTINUOUS
 10
-0.019744
 20
1.688299
  0
VERTEX
  8
PLAN_1
 62
     2
  6
CONTINUOUS
 10
-0.019252
 20
1.691748
  0
VERTEX
  8
PLAN_1
 62
     2
  6
CONTINUOUS
 10
-0.018760
 20
1.695685
  0
VERTEX
  8
PLAN_1
 62
     2
  6
CONTINUOUS
 10
-0.016791
 20
1.699622
  0
VERTEX
  8
PLAN_1
 62
     2
  6
CONTINUOUS
 10
-0.014823
 20
1.703071
  0
VERTEX
  8
PLAN_1
 62
     2
  6
CONTINUOUS
 10
-0.013346
 20
1.705039
  0
VERTEX
  8
PLAN_1
 62
     2
  6
CONTINUOUS
 10
-0.011378
 20
1.706516
  0
VERTEX
  8
PLAN_1
 62
     2
  6
CONTINUOUS
 10
-0.009902
 20
1.707500
  0
VERTEX
  8
PLAN_1
 62
     2
  6
CONTINUOUS
 10
-0.007437
 20
1.708976
  0
VERTEX
  8
PLAN_1
 62
     2
  6
CONTINUOUS
 10
-0.004976
 20
1.709961
  0
VERTEX
  8
PLAN_1
 62
     2
  6
CONTINUOUS
 10
-0.002516
 20
1.710453
  0
VERTEX
  8
PLAN_1
 62
     2
  6
CONTINUOUS
 10
0.000437
 20
1.710945
  0
VERTEX
  8
PLAN_1
 62
     2
  6
CONTINUOUS
 10
0.003394
 20
1.711437
  0
VERTEX
  8
PLAN_1
 62
     2
  6
CONTINUOUS
 10
0.006346
 20
1.710945
  0
VERTEX
  8
PLAN_1
 62
     2
  6
CONTINUOUS
 10
0.008807
 20
1.710945
  0
VERTEX
  8
PLAN_1
 62
     2
  6
CONTINUOUS
 10
0.011268
 20
1.710453
  0
VERTEX
  8
PLAN_1
 62
     2
  6
CONTINUOUS
 10
0.013236
 20
1.709469
  0
VERTEX
  8
PLAN_1
 62
     2
  6
CONTINUOUS
 10
0.015701
 20
1.708484
  0
VERTEX
  8
PLAN_1
 62
     2
  6
CONTINUOUS
 10
0.017669
 20
1.707500
  0
VERTEX
  8
PLAN_1
 62
     2
  6
CONTINUOUS
 10
0.019638
 20
1.706024
  0
VERTEX
  8
PLAN_1
 62
     2
  6
CONTINUOUS
 10
0.021606
 20
1.704055
  0
VERTEX
  8
PLAN_1
 62
     2
  6
CONTINUOUS
 10
0.023083
 20
1.702579
  0
VERTEX
  8
PLAN_1
 62
     2
  6
CONTINUOUS
 10
0.024559
 20
1.701098
  0
VERTEX
  8
PLAN_1
 62
     2
  6
CONTINUOUS
 10
0.026035
 20
1.699622
  0
VERTEX
  8
PLAN_1
 62
     2
  6
CONTINUOUS
 10
0.027020
 20
1.697654
  0
VERTEX
  8
PLAN_1
 62
     2
  6
CONTINUOUS
 10
0.027516
 20
1.695193
  0
VERTEX
  8
PLAN_1
 62
     2
  6
CONTINUOUS
 10
0.028500
 20
1.692240
  0
VERTEX
  8
PLAN_1
 62
     2
  6
CONTINUOUS
 10
0.028500
 20
1.689287
  0
VERTEX
  8
PLAN_1
 62
     2
  6
CONTINUOUS
 10
0.028992
 20
1.685839
  0
VERTEX
  8
PLAN_1
 62
     2
  6
CONTINUOUS
 10
0.028500
 20
1.683378
  0
VERTEX
  8
PLAN_1
 62
     2
  6
CONTINUOUS
 10
0.028500
 20
1.681409
  0
VERTEX
  8
PLAN_1
 62
     2
  6
CONTINUOUS
 10
0.027516
 20
1.678949
  0
VERTEX
  8
PLAN_1
 62
     2
  6
CONTINUOUS
 10
0.026528
 20
1.675992
  0
VERTEX
  8
PLAN_1
 62
     2
  6
CONTINUOUS
 10
0.025051
 20
1.673531
  0
VERTEX
  8
PLAN_1
 62
     2
  6
CONTINUOUS
 10
0.023083
 20
1.671071
  0
VERTEX
  8
PLAN_1
 62
     2
  6
CONTINUOUS
 10
0.021114
 20
1.669102
  0
VERTEX
  8
PLAN_1
 62
     2
  6
CONTINUOUS
 10
0.018161
 20
1.667134
  0
VERTEX
  8
PLAN_1
 62
     2
  6
CONTINUOUS
 10
0.015701
 20
1.665657
  0
VERTEX
  8
PLAN_1
 62
     2
  6
CONTINUOUS
 10
0.012744
 20
1.664181
  0
VERTEX
  8
PLAN_1
 62
     2
  6
CONTINUOUS
 10
0.009791
 20
1.663193
  0
VERTEX
  8
PLAN_1
 62
     2
  6
CONTINUOUS
 10
0.006346
 20
1.662701
  0
VERTEX
  8
PLAN_1
 62
     2
  6
CONTINUOUS
 10
0.003394
 20
1.661717
  0
VERTEX
  8
PLAN_1
 62
     2
  6
CONTINUOUS
 10
-0.000055
 20
1.661717
  0
VERTEX
  8
PLAN_1
 62
     2
  6
CONTINUOUS
 10
-0.003500
 20
1.661224
  0
VERTEX
  8
PLAN_1
 62
     2
  6
CONTINUOUS
 10
-0.006945
 20
1.661224
  0
VERTEX
  8
PLAN_1
 62
     2
  6
CONTINUOUS
 10
-0.013346
 20
1.661717
  0
VERTEX
  8
PLAN_1
 62
     2
  6
CONTINUOUS
 10
-0.020236
 20
1.662701
  0
VERTEX
  8
PLAN_1
 62
     2
  6
CONTINUOUS
 10
-0.026638
 20
1.664181
  0
VERTEX
  8
PLAN_1
 62
     2
  6
CONTINUOUS
 10
-0.032543
 20
1.666642
  0
VERTEX
  8
PLAN_1
 62
     2
  6
CONTINUOUS
 10
-0.035500
 20
1.668118
  0
VERTEX
  8
PLAN_1
 62
     2
  6
CONTINUOUS
 10
-0.037961
 20
1.670087
  0
VERTEX
  8
PLAN_1
 62
     2
  6
CONTINUOUS
 10
-0.040421
 20
1.672547
  0
VERTEX
  8
PLAN_1
 62
     2
  6
CONTINUOUS
 10
-0.042390
 20
1.675008
  0
VERTEX
  8
PLAN_1
 62
     2
  6
CONTINUOUS
 10
-0.043866
 20
1.677965
  0
VERTEX
  8
PLAN_1
 62
     2
  6
CONTINUOUS
 10
-0.045343
 20
1.680917
  0
VERTEX
  8
PLAN_1
 62
     2
  6
CONTINUOUS
 10
-0.045835
 20
1.684362
  0
VERTEX
  8
PLAN_1
 62
     2
  6
CONTINUOUS
 10
-0.046327
 20
1.688299
  0
VERTEX
  8
PLAN_1
 62
     2
  6
CONTINUOUS
 10
-0.045835
 20
1.691748
  0
VERTEX
  8
PLAN_1
 62
     2
  6
CONTINUOUS
 10
-0.045343
 20
1.695193
  0
VERTEX
  8
PLAN_1
 62
     2
  6
CONTINUOUS
 10
-0.043866
 20
1.698638
  0
VERTEX
  8
PLAN_1
 62
     2
  6
CONTINUOUS
 10
-0.041898
 20
1.701594
  0
VERTEX
  8
PLAN_1
 62
     2
  6
CONTINUOUS
 10
-0.039437
 20
1.704547
  0
VERTEX
  8
PLAN_1
 62
     2
  6
CONTINUOUS
 10
-0.035992
 20
1.707008
  0
VERTEX
  8
PLAN_1
 62
     2
  6
CONTINUOUS
 10
-0.034020
 20
1.707992
  0
VERTEX
  8
PLAN_1
 62
     2
  6
CONTINUOUS
 10
-0.032051
 20
1.708976
  0
VERTEX
  8
PLAN_1
 62
     2
  6
CONTINUOUS
 10
-0.029591
 20
1.709469
  0
VERTEX
  8
PLAN_1
 62
     2
  6
CONTINUOUS
 10
-0.026638
 20
1.709469
  0
VERTEX
  8
PLAN_1
 62
     2
  6
CONTINUOUS
 10
-0.026638
 20
1.700606
  0
SEQEND
  8
0
  0
POLYLINE
  8
PLAN_1
 62
     2
  6
CONTINUOUS
 66
     1
 40
0.003000
 41
0.003000
  0
VERTEX
  8
PLAN_1
 62
     2
  6
CONTINUOUS
 10
0.020622
 20
1.687315
  0
VERTEX
  8
PLAN_1
 62
     2
  6
CONTINUOUS
 10
0.020130
 20
1.690764
  0
VERTEX
  8
PLAN_1
 62
     2
  6
CONTINUOUS
 10
0.019638
 20
1.693224
  0
VERTEX
  8
PLAN_1
 62
     2
  6
CONTINUOUS
 10
0.018161
 20
1.695685
  0
VERTEX
  8
PLAN_1
 62
     2
  6
CONTINUOUS
 10
0.016193
 20
1.697654
  0
VERTEX
  8
PLAN_1
 62
     2
  6
CONTINUOUS
 10
0.013728
 20
1.699622
  0
VERTEX
  8
PLAN_1
 62
     2
  6
CONTINUOUS
 10
0.010776
 20
1.700606
  0
VERTEX
  8
PLAN_1
 62
     2
  6
CONTINUOUS
 10
0.007331
 20
1.701594
  0
VERTEX
  8
PLAN_1
 62
     2
  6
CONTINUOUS
 10
0.003886
 20
1.701594
  0
VERTEX
  8
PLAN_1
 62
     2
  6
CONTINUOUS
 10
0.001421
 20
1.701594
  0
VERTEX
  8
PLAN_1
 62
     2
  6
CONTINUOUS
 10
-0.001039
 20
1.701098
  0
VERTEX
  8
PLAN_1
 62
     2
  6
CONTINUOUS
 10
-0.003992
 20
1.700114
  0
VERTEX
  8
PLAN_1
 62
     2
  6
CONTINUOUS
 10
-0.006453
 20
1.698638
  0
VERTEX
  8
PLAN_1
 62
     2
  6
CONTINUOUS
 10
-0.008421
 20
1.696669
  0
VERTEX
  8
PLAN_1
 62
     2
  6
CONTINUOUS
 10
-0.009902
 20
1.694209
  0
VERTEX
  8
PLAN_1
 62
     2
  6
CONTINUOUS
 10
-0.010886
 20
1.690764
  0
VERTEX
  8
PLAN_1
 62
     2
  6
CONTINUOUS
 10
-0.011378
 20
1.686823
  0
VERTEX
  8
PLAN_1
 62
     2
  6
CONTINUOUS
 10
-0.011378
 20
1.683378
  0
VERTEX
  8
PLAN_1
 62
     2
  6
CONTINUOUS
 10
-0.010394
 20
1.680425
  0
VERTEX
  8
PLAN_1
 62
     2
  6
CONTINUOUS
 10
-0.008913
 20
1.677965
  0
VERTEX
  8
PLAN_1
 62
     2
  6
CONTINUOUS
 10
-0.006945
 20
1.675500
  0
VERTEX
  8
PLAN_1
 62
     2
  6
CONTINUOUS
 10
-0.004484
 20
1.674024
  0
VERTEX
  8
PLAN_1
 62
     2
  6
CONTINUOUS
 10
-0.001531
 20
1.673039
  0
VERTEX
  8
PLAN_1
 62
     2
  6
CONTINUOUS
 10
0.001421
 20
1.672055
  0
VERTEX
  8
PLAN_1
 62
     2
  6
CONTINUOUS
 10
0.004378
 20
1.672055
  0
VERTEX
  8
PLAN_1
 62
     2
  6
CONTINUOUS
 10
0.007331
 20
1.672055
  0
VERTEX
  8
PLAN_1
 62
     2
  6
CONTINUOUS
 10
0.010283
 20
1.673039
  0
VERTEX
  8
PLAN_1
 62
     2
  6
CONTINUOUS
 10
0.012744
 20
1.674024
  0
VERTEX
  8
PLAN_1
 62
     2
  6
CONTINUOUS
 10
0.015209
 20
1.675500
  0
VERTEX
  8
PLAN_1
 62
     2
  6
CONTINUOUS
 10
0.017669
 20
1.677965
  0
VERTEX
  8
PLAN_1
 62
     2
  6
CONTINUOUS
 10
0.019146
 20
1.680425
  0
VERTEX
  8
PLAN_1
 62
     2
  6
CONTINUOUS
 10
0.020130
 20
1.683870
  0
VERTEX
  8
PLAN_1
 62
     2
  6
CONTINUOUS
 10
0.020622
 20
1.687315
  0
SEQEND
  8
0
  0
POLYLINE
  8
PLAN_1
 62
     2
  6
CONTINUOUS
 66
     1
 40
0.003000
 41
0.003000
  0
VERTEX
  8
PLAN_1
 62
     2
  6
CONTINUOUS
 10
-0.044850
 20
1.719315
  0
VERTEX
  8
PLAN_1
 62
     2
  6
CONTINUOUS
 10
-0.044850
 20
1.769528
  0
VERTEX
  8
PLAN_1
 62
     2
  6
CONTINUOUS
 10
-0.036484
 20
1.769528
  0
VERTEX
  8
PLAN_1
 62
     2
  6
CONTINUOUS
 10
-0.033035
 20
1.766575
  0
VERTEX
  8
PLAN_1
 62
     2
  6
CONTINUOUS
 10
-0.028114
 20
1.762634
  0
VERTEX
  8
PLAN_1
 62
     2
  6
CONTINUOUS
 10
-0.021713
 20
1.758205
  0
VERTEX
  8
PLAN_1
 62
     2
  6
CONTINUOUS
 10
-0.014331
 20
1.753776
  0
VERTEX
  8
PLAN_1
 62
     2
  6
CONTINUOUS
 10
-0.005469
 20
1.749343
  0
VERTEX
  8
PLAN_1
 62
     2
  6
CONTINUOUS
 10
0.004378
 20
1.745406
  0
VERTEX
  8
PLAN_1
 62
     2
  6
CONTINUOUS
 10
0.009299
 20
1.743929
  0
VERTEX
  8
PLAN_1
 62
     2
  6
CONTINUOUS
 10
0.015209
 20
1.741961
  0
VERTEX
  8
PLAN_1
 62
     2
  6
CONTINUOUS
 10
0.020622
 20
1.740976
  0
VERTEX
  8
PLAN_1
 62
     2
  6
CONTINUOUS
 10
0.027020
 20
1.739500
  0
VERTEX
  8
PLAN_1
 62
     2
  6
CONTINUOUS
 10
0.027020
 20
1.729654
  0
VERTEX
  8
PLAN_1
 62
     2
  6
CONTINUOUS
 10
0.019146
 20
1.731130
  0
VERTEX
  8
PLAN_1
 62
     2
  6
CONTINUOUS
 10
0.010776
 20
1.733098
  0
VERTEX
  8
PLAN_1
 62
     2
  6
CONTINUOUS
 10
0.002406
 20
1.736543
  0
VERTEX
  8
PLAN_1
 62
     2
  6
CONTINUOUS
 10
-0.005961
 20
1.739992
  0
VERTEX
  8
PLAN_1
 62
     2
  6
CONTINUOUS
 10
-0.013839
 20
1.744421
  0
VERTEX
  8
PLAN_1
 62
     2
  6
CONTINUOUS
 10
-0.021713
 20
1.749343
  0
VERTEX
  8
PLAN_1
 62
     2
  6
CONTINUOUS
 10
-0.029098
 20
1.754268
  0
VERTEX
  8
PLAN_1
 62
     2
  6
CONTINUOUS
 10
-0.035992
 20
1.759189
  0
VERTEX
  8
PLAN_1
 62
     2
  6
CONTINUOUS
 10
-0.035992
 20
1.719315
  0
VERTEX
  8
PLAN_1
 62
     2
  6
CONTINUOUS
 10
-0.044850
 20
1.719315
  0
SEQEND
  8
0
  0
SOLID
  8
PLAN_1
 62
     2
 10
0.027020
 20
1.793157
 11
0.027020
 21
1.782327
 12
0.015701
 22
1.793157
 13
0.015701
 23
1.782327
  0
POLYLINE
  8
PLAN_1
 62
     2
  6
CONTINUOUS
 66
     1
 40
0.003000
 41
0.003000
  0
VERTEX
  8
PLAN_1
 62
     2
  6
CONTINUOUS
 10
0.027020
 20
1.793157
  0
VERTEX
  8
PLAN_1
 62
     2
  6
CONTINUOUS
 10
0.027020
 20
1.782327
  0
VERTEX
  8
PLAN_1
 62
     2
  6
CONTINUOUS
 10
0.015701
 20
1.782327
  0
VERTEX
  8
PLAN_1
 62
     2
  6
CONTINUOUS
 10
0.015701
 20
1.793157
  0
VERTEX
  8
PLAN_1
 62
     2
  6
CONTINUOUS
 10
0.027020
 20
1.793157
  0
SEQEND
  8
0
  0
SOLID
  8
PLAN_1
 62
     2
 10
0.027020
 20
1.822201
 11
0.027020
 21
1.811370
 12
0.015701
 22
1.822201
 13
0.015701
 23
1.811370
  0
POLYLINE
  8
PLAN_1
 62
     2
  6
CONTINUOUS
 66
     1
 40
0.003000
 41
0.003000
  0
VERTEX
  8
PLAN_1
 62
     2
  6
CONTINUOUS
 10
0.027020
 20
1.822201
  0
VERTEX
  8
PLAN_1
 62
     2
  6
CONTINUOUS
 10
0.027020
 20
1.811370
  0
VERTEX
  8
PLAN_1
 62
     2
  6
CONTINUOUS
 10
0.015701
 20
1.811370
  0
VERTEX
  8
PLAN_1
 62
     2
  6
CONTINUOUS
 10
0.015701
 20
1.822201
  0
VERTEX
  8
PLAN_1
 62
     2
  6
CONTINUOUS
 10
0.027020
 20
1.822201
  0
SEQEND
  8
0
  0
SOLID
  8
PLAN_1
 62
     2
 10
0.015701
 20
1.850756
 11
0.015701
 21
1.839925
 12
0.027020
 22
1.850756
 13
0.027020
 23
1.839925
  0
POLYLINE
  8
PLAN_1
 62
     2
  6
CONTINUOUS
 66
     1
 40
0.003000
 41
0.003000
  0
VERTEX
  8
PLAN_1
 62
     2
  6
CONTINUOUS
 10
0.015701
 20
1.850756
  0
VERTEX
  8
PLAN_1
 62
     2
  6
CONTINUOUS
 10
0.015701
 20
1.839925
  0
VERTEX
  8
PLAN_1
 62
     2
  6
CONTINUOUS
 10
0.027020
 20
1.839925
  0
VERTEX
  8
PLAN_1
 62
     2
  6
CONTINUOUS
 10
0.027020
 20
1.850756
  0
VERTEX
  8
PLAN_1
 62
     2
  6
CONTINUOUS
 10
0.015701
 20
1.850756
  0
SEQEND
  8
0
  0
POLYLINE
  8
PLAN_1
 62
     2
  6
CONTINUOUS
 66
     1
 40
0.003000
 41
0.003000
  0
VERTEX
  8
PLAN_1
 62
     2
  6
CONTINUOUS
 10
0.027020
 20
1.897520
  0
VERTEX
  8
PLAN_1
 62
     2
  6
CONTINUOUS
 10
0.027020
 20
1.887677
  0
VERTEX
  8
PLAN_1
 62
     2
  6
CONTINUOUS
 10
-0.025161
 20
1.887677
  0
VERTEX
  8
PLAN_1
 62
     2
  6
CONTINUOUS
 10
-0.025161
 20
1.870445
  0
VERTEX
  8
PLAN_1
 62
     2
  6
CONTINUOUS
 10
-0.032543
 20
1.870445
  0
VERTEX
  8
PLAN_1
 62
     2
  6
CONTINUOUS
 10
-0.032543
 20
1.874382
  0
VERTEX
  8
PLAN_1
 62
     2
  6
CONTINUOUS
 10
-0.033035
 20
1.878323
  0
VERTEX
  8
PLAN_1
 62
     2
  6
CONTINUOUS
 10
-0.034020
 20
1.881276
  0
VERTEX
  8
PLAN_1
 62
     2
  6
CONTINUOUS
 10
-0.035008
 20
1.883736
  0
VERTEX
  8
PLAN_1
 62
     2
  6
CONTINUOUS
 10
-0.036976
 20
1.885705
  0
VERTEX
  8
PLAN_1
 62
     2
  6
CONTINUOUS
 10
-0.038945
 20
1.887677
  0
VERTEX
  8
PLAN_1
 62
     2
  6
CONTINUOUS
 10
-0.042390
 20
1.889154
  0
VERTEX
  8
PLAN_1
 62
     2
  6
CONTINUOUS
 10
-0.046327
 20
1.890138
  0
VERTEX
  8
PLAN_1
 62
     2
  6
CONTINUOUS
 10
-0.046327
 20
1.897520
  0
VERTEX
  8
PLAN_1
 62
     2
  6
CONTINUOUS
 10
0.027020
 20
1.897520
  0
SEQEND
  8
0
  0
POLYLINE
  8
PLAN_1
 62
     2
  6
CONTINUOUS
 66
     1
 40
0.003000
 41
0.003000
  0
VERTEX
  8
PLAN_1
 62
     2
  6
CONTINUOUS
 10
-0.020236
 20
1.922626
  0
VERTEX
  8
PLAN_1
 62
     2
  6
CONTINUOUS
 10
-0.024177
 20
1.922626
  0
VERTEX
  8
PLAN_1
 62
     2
  6
CONTINUOUS
 10
-0.028114
 20
1.923118
  0
VERTEX
  8
PLAN_1
 62
     2
  6
CONTINUOUS
 10
-0.031559
 20
1.924102
  0
VERTEX
  8
PLAN_1
 62
     2
  6
CONTINUOUS
 10
-0.034020
 20
1.925091
  0
VERTEX
  8
PLAN_1
 62
     2
  6
CONTINUOUS
 10
-0.036484
 20
1.926567
  0
VERTEX
  8
PLAN_1
 62
     2
  6
CONTINUOUS
 10
-0.038945
 20
1.928535
  0
VERTEX
  8
PLAN_1
 62
     2
  6
CONTINUOUS
 10
-0.040421
 20
1.930012
  0
VERTEX
  8
PLAN_1
 62
     2
  6
CONTINUOUS
 10
-0.041898
 20
1.931980
  0
VERTEX
  8
PLAN_1
 62
     2
  6
CONTINUOUS
 10
-0.044358
 20
1.936409
  0
VERTEX
  8
PLAN_1
 62
     2
  6
CONTINUOUS
 10
-0.045343
 20
1.940350
  0
VERTEX
  8
PLAN_1
 62
     2
  6
CONTINUOUS
 10
-0.046327
 20
1.944287
  0
VERTEX
  8
PLAN_1
 62
     2
  6
CONTINUOUS
 10
-0.046327
 20
1.947732
  0
VERTEX
  8
PLAN_1
 62
     2
  6
CONTINUOUS
 10
-0.045835
 20
1.952165
  0
VERTEX
  8
PLAN_1
 62
     2
  6
CONTINUOUS
 10
-0.044850
 20
1.956594
  0
VERTEX
  8
PLAN_1
 62
     2
  6
CONTINUOUS
 10
-0.042882
 20
1.960531
  0
VERTEX
  8
PLAN_1
 62
     2
  6
CONTINUOUS
 10
-0.040421
 20
1.963980
  0
VERTEX
  8
PLAN_1
 62
     2
  6
CONTINUOUS
 10
-0.037469
 20
1.966933
  0
VERTEX
  8
PLAN_1
 62
     2
  6
CONTINUOUS
 10
-0.033528
 20
1.968902
  0
VERTEX
  8
PLAN_1
 62
     2
  6
CONTINUOUS
 10
-0.029098
 20
1.969886
  0
VERTEX
  8
PLAN_1
 62
     2
  6
CONTINUOUS
 10
-0.024177
 20
1.970378
  0
VERTEX
  8
PLAN_1
 62
     2
  6
CONTINUOUS
 10
-0.019744
 20
1.970378
  0
VERTEX
  8
PLAN_1
 62
     2
  6
CONTINUOUS
 10
-0.015807
 20
1.968902
  0
VERTEX
  8
PLAN_1
 62
     2
  6
CONTINUOUS
 10
-0.012362
 20
1.967425
  0
VERTEX
  8
PLAN_1
 62
     2
  6
CONTINUOUS
 10
-0.009406
 20
1.964965
  0
VERTEX
  8
PLAN_1
 62
     2
  6
CONTINUOUS
 10
-0.006945
 20
1.962012
  0
VERTEX
  8
PLAN_1
 62
     2
  6
CONTINUOUS
 10
-0.004484
 20
1.958563
  0
VERTEX
  8
PLAN_1
 62
     2
  6
CONTINUOUS
 10
-0.002024
 20
1.955118
  0
VERTEX
  8
PLAN_1
 62
     2
  6
CONTINUOUS
 10
-0.000055
 20
1.951181
  0
VERTEX
  8
PLAN_1
 62
     2
  6
CONTINUOUS
 10
0.004378
 20
1.943303
  0
VERTEX
  8
PLAN_1
 62
     2
  6
CONTINUOUS
 10
0.006346
 20
1.939858
  0
VERTEX
  8
PLAN_1
 62
     2
  6
CONTINUOUS
 10
0.008315
 20
1.937398
  0
VERTEX
  8
PLAN_1
 62
     2
  6
CONTINUOUS
 10
0.010283
 20
1.934933
  0
VERTEX
  8
PLAN_1
 62
     2
  6
CONTINUOUS
 10
0.012252
 20
1.933457
  0
VERTEX
  8
PLAN_1
 62
     2
  6
CONTINUOUS
 10
0.014220
 20
1.932472
  0
VERTEX
  8
PLAN_1
 62
     2
  6
CONTINUOUS
 10
0.015701
 20
1.931488
  0
VERTEX
  8
PLAN_1
 62
     2
  6
CONTINUOUS
 10
0.017177
 20
1.930996
  0
VERTEX
  8
PLAN_1
 62
     2
  6
CONTINUOUS
 10
0.018161
 20
1.930996
  0
VERTEX
  8
PLAN_1
 62
     2
  6
CONTINUOUS
 10
0.018161
 20
1.970378
  0
VERTEX
  8
PLAN_1
 62
     2
  6
CONTINUOUS
 10
0.027020
 20
1.970378
  0
VERTEX
  8
PLAN_1
 62
     2
  6
CONTINUOUS
 10
0.027020
 20
1.920657
  0
VERTEX
  8
PLAN_1
 62
     2
  6
CONTINUOUS
 10
0.021606
 20
1.921150
  0
VERTEX
  8
PLAN_1
 62
     2
  6
CONTINUOUS
 10
0.016685
 20
1.922134
  0
VERTEX
  8
PLAN_1
 62
     2
  6
CONTINUOUS
 10
0.012744
 20
1.923610
  0
VERTEX
  8
PLAN_1
 62
     2
  6
CONTINUOUS
 10
0.008807
 20
1.925583
  0
VERTEX
  8
PLAN_1
 62
     2
  6
CONTINUOUS
 10
0.005362
 20
1.928043
  0
VERTEX
  8
PLAN_1
 62
     2
  6
CONTINUOUS
 10
0.002406
 20
1.930996
  0
VERTEX
  8
PLAN_1
 62
     2
  6
CONTINUOUS
 10
-0.000055
 20
1.933949
  0
VERTEX
  8
PLAN_1
 62
     2
  6
CONTINUOUS
 10
-0.002024
 20
1.937890
  0
VERTEX
  8
PLAN_1
 62
     2
  6
CONTINUOUS
 10
-0.007929
 20
1.947240
  0
VERTEX
  8
PLAN_1
 62
     2
  6
CONTINUOUS
 10
-0.009406
 20
1.950197
  0
VERTEX
  8
PLAN_1
 62
     2
  6
CONTINUOUS
 10
-0.010886
 20
1.952657
  0
VERTEX
  8
PLAN_1
 62
     2
  6
CONTINUOUS
 10
-0.012854
 20
1.955118
  0
VERTEX
  8
PLAN_1
 62
     2
  6
CONTINUOUS
 10
-0.014331
 20
1.957087
  0
VERTEX
  8
PLAN_1
 62
     2
  6
CONTINUOUS
 10
-0.016299
 20
1.958563
  0
VERTEX
  8
PLAN_1
 62
     2
  6
CONTINUOUS
 10
-0.018760
 20
1.960039
  0
VERTEX
  8
PLAN_1
 62
     2
  6
CONTINUOUS
 10
-0.021713
 20
1.960531
  0
VERTEX
  8
PLAN_1
 62
     2
  6
CONTINUOUS
 10
-0.024669
 20
1.961024
  0
VERTEX
  8
PLAN_1
 62
     2
  6
CONTINUOUS
 10
-0.027130
 20
1.960531
  0
VERTEX
  8
PLAN_1
 62
     2
  6
CONTINUOUS
 10
-0.029591
 20
1.960039
  0
VERTEX
  8
PLAN_1
 62
     2
  6
CONTINUOUS
 10
-0.031559
 20
1.959055
  0
VERTEX
  8
PLAN_1
 62
     2
  6
CONTINUOUS
 10
-0.033528
 20
1.957579
  0
VERTEX
  8
PLAN_1
 62
     2
  6
CONTINUOUS
 10
-0.035500
 20
1.955610
  0
VERTEX
  8
PLAN_1
 62
     2
  6
CONTINUOUS
 10
-0.036976
 20
1.953150
  0
VERTEX
  8
PLAN_1
 62
     2
  6
CONTINUOUS
 10
-0.037961
 20
1.950197
  0
VERTEX
  8
PLAN_1
 62
     2
  6
CONTINUOUS
 10
-0.037961
 20
1.946256
  0
VERTEX
  8
PLAN_1
 62
     2
  6
CONTINUOUS
 10
-0.037961
 20
1.943795
  0
VERTEX
  8
PLAN_1
 62
     2
  6
CONTINUOUS
 10
-0.037469
 20
1.941827
  0
VERTEX
  8
PLAN_1
 62
     2
  6
CONTINUOUS
 10
-0.036976
 20
1.939858
  0
VERTEX
  8
PLAN_1
 62
     2
  6
CONTINUOUS
 10
-0.035992
 20
1.938382
  0
VERTEX
  8
PLAN_1
 62
     2
  6
CONTINUOUS
 10
-0.033528
 20
1.935917
  0
VERTEX
  8
PLAN_1
 62
     2
  6
CONTINUOUS
 10
-0.031067
 20
1.933949
  0
VERTEX
  8
PLAN_1
 62
     2
  6
CONTINUOUS
 10
-0.028114
 20
1.932965
  0
VERTEX
  8
PLAN_1
 62
     2
  6
CONTINUOUS
 10
-0.025161
 20
1.931980
  0
VERTEX
  8
PLAN_1
 62
     2
  6
CONTINUOUS
 10
-0.022209
 20
1.931488
  0
VERTEX
  8
PLAN_1
 62
     2
  6
CONTINUOUS
 10
-0.020236
 20
1.931488
  0
VERTEX
  8
PLAN_1
 62
     2
  6
CONTINUOUS
 10
-0.020236
 20
1.922626
  0
SEQEND
  8
0
  0
POLYLINE
  8
PLAN_1
 62
     2
  6
CONTINUOUS
 66
     1
 40
0.003000
 41
0.003000
  0
VERTEX
  8
PLAN_1
 62
     2
  6
CONTINUOUS
 10
0.027020
 20
2.013209
  0
VERTEX
  8
PLAN_1
 62
     2
  6
CONTINUOUS
 10
0.027020
 20
2.003362
  0
VERTEX
  8
PLAN_1
 62
     2
  6
CONTINUOUS
 10
-0.025161
 20
2.003362
  0
VERTEX
  8
PLAN_1
 62
     2
  6
CONTINUOUS
 10
-0.025161
 20
1.986130
  0
VERTEX
  8
PLAN_1
 62
     2
  6
CONTINUOUS
 10
-0.032543
 20
1.986130
  0
VERTEX
  8
PLAN_1
 62
     2
  6
CONTINUOUS
 10
-0.032543
 20
1.990563
  0
VERTEX
  8
PLAN_1
 62
     2
  6
CONTINUOUS
 10
-0.033035
 20
1.994008
  0
VERTEX
  8
PLAN_1
 62
     2
  6
CONTINUOUS
 10
-0.034020
 20
1.996961
  0
VERTEX
  8
PLAN_1
 62
     2
  6
CONTINUOUS
 10
-0.035008
 20
1.999425
  0
VERTEX
  8
PLAN_1
 62
     2
  6
CONTINUOUS
 10
-0.036976
 20
2.001394
  0
VERTEX
  8
PLAN_1
 62
     2
  6
CONTINUOUS
 10
-0.038945
 20
2.003362
  0
VERTEX
  8
PLAN_1
 62
     2
  6
CONTINUOUS
 10
-0.042390
 20
2.004839
  0
VERTEX
  8
PLAN_1
 62
     2
  6
CONTINUOUS
 10
-0.046327
 20
2.005823
  0
VERTEX
  8
PLAN_1
 62
     2
  6
CONTINUOUS
 10
-0.046327
 20
2.013209
  0
VERTEX
  8
PLAN_1
 62
     2
  6
CONTINUOUS
 10
0.027020
 20
2.013209
  0
SEQEND
  8
0
  0
POLYLINE
  8
PLAN_1
 62
     2
  6
CONTINUOUS
 66
     1
 40
0.003000
 41
0.003000
  0
VERTEX
  8
PLAN_1
 62
     2
  6
CONTINUOUS
 10
0.015701
 20
2.042744
  0
VERTEX
  8
PLAN_1
 62
     2
  6
CONTINUOUS
 10
0.015701
 20
2.053575
  0
VERTEX
  8
PLAN_1
 62
     2
  6
CONTINUOUS
 10
0.026035
 20
2.053575
  0
VERTEX
  8
PLAN_1
 62
     2
  6
CONTINUOUS
 10
0.030961
 20
2.053083
  0
VERTEX
  8
PLAN_1
 62
     2
  6
CONTINUOUS
 10
0.034406
 20
2.052098
  0
VERTEX
  8
PLAN_1
 62
     2
  6
CONTINUOUS
 10
0.037358
 20
2.050622
  0
VERTEX
  8
PLAN_1
 62
     2
  6
CONTINUOUS
 10
0.039327
 20
2.048654
  0
VERTEX
  8
PLAN_1
 62
     2
  6
CONTINUOUS
 10
0.040807
 20
2.047173
  0
VERTEX
  8
PLAN_1
 62
     2
  6
CONTINUOUS
 10
0.041299
 20
2.045205
  0
VERTEX
  8
PLAN_1
 62
     2
  6
CONTINUOUS
 10
0.041791
 20
2.043728
  0
VERTEX
  8
PLAN_1
 62
     2
  6
CONTINUOUS
 10
0.042283
 20
2.042744
  0
VERTEX
  8
PLAN_1
 62
     2
  6
CONTINUOUS
 10
0.037358
 20
2.042744
  0
VERTEX
  8
PLAN_1
 62
     2
  6
CONTINUOUS
 10
0.036866
 20
2.044220
  0
VERTEX
  8
PLAN_1
 62
     2
  6
CONTINUOUS
 10
0.036374
 20
2.045205
  0
VERTEX
  8
PLAN_1
 62
     2
  6
CONTINUOUS
 10
0.035390
 20
2.046189
  0
VERTEX
  8
PLAN_1
 62
     2
  6
CONTINUOUS
 10
0.033913
 20
2.047173
  0
VERTEX
  8
PLAN_1
 62
     2
  6
CONTINUOUS
 10
0.032437
 20
2.047665
  0
VERTEX
  8
PLAN_1
 62
     2
  6
CONTINUOUS
 10
0.030469
 20
2.048157
  0
VERTEX
  8
PLAN_1
 62
     2
  6
CONTINUOUS
 10
0.028500
 20
2.048157
  0
VERTEX
  8
PLAN_1
 62
     2
  6
CONTINUOUS
 10
0.027020
 20
2.048157
  0
VERTEX
  8
PLAN_1
 62
     2
  6
CONTINUOUS
 10
0.027020
 20
2.042744
  0
VERTEX
  8
PLAN_1
 62
     2
  6
CONTINUOUS
 10
0.015701
 20
2.042744
  0
SEQEND
  8
0
  0
POLYLINE
  8
PLAN_1
 62
     2
  6
CONTINUOUS
 66
     1
 40
0.003000
 41
0.003000
  0
VERTEX
  8
PLAN_1
 62
     2
  6
CONTINUOUS
 10
-0.015807
 20
2.077697
  0
VERTEX
  8
PLAN_1
 62
     2
  6
CONTINUOUS
 10
-0.016791
 20
2.079173
  0
VERTEX
  8
PLAN_1
 62
     2
  6
CONTINUOUS
 10
-0.017283
 20
2.080650
  0
VERTEX
  8
PLAN_1
 62
     2
  6
CONTINUOUS
 10
-0.018268
 20
2.082126
  0
VERTEX
  8
PLAN_1
 62
     2
  6
CONTINUOUS
 10
-0.018760
 20
2.083602
  0
VERTEX
  8
PLAN_1
 62
     2
  6
CONTINUOUS
 10
-0.019252
 20
2.085571
  0
VERTEX
  8
PLAN_1
 62
     2
  6
CONTINUOUS
 10
-0.019744
 20
2.087543
  0
VERTEX
  8
PLAN_1
 62
     2
  6
CONTINUOUS
 10
-0.020236
 20
2.089512
  0
VERTEX
  8
PLAN_1
 62
     2
  6
CONTINUOUS
 10
-0.020236
 20
2.091972
  0
VERTEX
  8
PLAN_1
 62
     2
  6
CONTINUOUS
 10
-0.019744
 20
2.096402
  0
VERTEX
  8
PLAN_1
 62
     2
  6
CONTINUOUS
 10
-0.018760
 20
2.100835
  0
VERTEX
  8
PLAN_1
 62
     2
  6
CONTINUOUS
 10
-0.016791
 20
2.104772
  0
VERTEX
  8
PLAN_1
 62
     2
  6
CONTINUOUS
 10
-0.014331
 20
2.108709
  0
VERTEX
  8
PLAN_1
 62
     2
  6
CONTINUOUS
 10
-0.010886
 20
2.111665
  0
VERTEX
  8
PLAN_1
 62
     2
  6
CONTINUOUS
 10
-0.006945
 20
2.114126
  0
VERTEX
  8
PLAN_1
 62
     2
  6
CONTINUOUS
 10
-0.004484
 20
2.114618
  0
VERTEX
  8
PLAN_1
 62
     2
  6
CONTINUOUS
 10
-0.002024
 20
2.115602
  0
VERTEX
  8
PLAN_1
 62
     2
  6
CONTINUOUS
 10
0.000437
 20
2.116094
  0
VERTEX
  8
PLAN_1
 62
     2
  6
CONTINUOUS
 10
0.002902
 20
2.116094
  0
VERTEX
  8
PLAN_1
 62
     2
  6
CONTINUOUS
 10
0.006346
 20
2.115602
  0
VERTEX
  8
PLAN_1
 62
     2
  6
CONTINUOUS
 10
0.010776
 20
2.115110
  0
VERTEX
  8
PLAN_1
 62
     2
  6
CONTINUOUS
 10
0.014713
 20
2.113634
  0
VERTEX
  8
PLAN_1
 62
     2
  6
CONTINUOUS
 10
0.019146
 20
2.111173
  0
VERTEX
  8
PLAN_1
 62
     2
  6
CONTINUOUS
 10
0.021114
 20
2.109693
  0
VERTEX
  8
PLAN_1
 62
     2
  6
CONTINUOUS
 10
0.023083
 20
2.107724
  0
VERTEX
  8
PLAN_1
 62
     2
  6
CONTINUOUS
 10
0.024559
 20
2.105756
  0
VERTEX
  8
PLAN_1
 62
     2
  6
CONTINUOUS
 10
0.026035
 20
2.103295
  0
VERTEX
  8
PLAN_1
 62
     2
  6
CONTINUOUS
 10
0.027020
 20
2.100343
  0
VERTEX
  8
PLAN_1
 62
     2
  6
CONTINUOUS
 10
0.028008
 20
2.097386
  0
VERTEX
  8
PLAN_1
 62
     2
  6
CONTINUOUS
 10
0.028500
 20
2.093449
  0
VERTEX
  8
PLAN_1
 62
     2
  6
CONTINUOUS
 10
0.028992
 20
2.089512
  0
VERTEX
  8
PLAN_1
 62
     2
  6
CONTINUOUS
 10
0.028500
 20
2.086067
  0
VERTEX
  8
PLAN_1
 62
     2
  6
CONTINUOUS
 10
0.028008
 20
2.082126
  0
VERTEX
  8
PLAN_1
 62
     2
  6
CONTINUOUS
 10
0.026528
 20
2.078189
  0
VERTEX
  8
PLAN_1
 62
     2
  6
CONTINUOUS
 10
0.025051
 20
2.074744
  0
VERTEX
  8
PLAN_1
 62
     2
  6
CONTINUOUS
 10
0.022098
 20
2.071787
  0
VERTEX
  8
PLAN_1
 62
     2
  6
CONTINUOUS
 10
0.018654
 20
2.068835
  0
VERTEX
  8
PLAN_1
 62
     2
  6
CONTINUOUS
 10
0.016685
 20
2.067850
  0
VERTEX
  8
PLAN_1
 62
     2
  6
CONTINUOUS
 10
0.014220
 20
2.066866
  0
VERTEX
  8
PLAN_1
 62
     2
  6
CONTINUOUS
 10
0.011760
 20
2.066374
  0
VERTEX
  8
PLAN_1
 62
     2
  6
CONTINUOUS
 10
0.008807
 20
2.065882
  0
VERTEX
  8
PLAN_1
 62
     2
  6
CONTINUOUS
 10
0.008807
 20
2.075236
  0
VERTEX
  8
PLAN_1
 62
     2
  6
CONTINUOUS
 10
0.011760
 20
2.075728
  0
VERTEX
  8
PLAN_1
 62
     2
  6
CONTINUOUS
 10
0.014220
 20
2.077205
  0
VERTEX
  8
PLAN_1
 62
     2
  6
CONTINUOUS
 10
0.016193
 20
2.078681
  0
VERTEX
  8
PLAN_1
 62
     2
  6
CONTINUOUS
 10
0.018161
 20
2.080157
  0
VERTEX
  8
PLAN_1
 62
     2
  6
CONTINUOUS
 10
0.019146
 20
2.082618
  0
VERTEX
  8
PLAN_1
 62
     2
  6
CONTINUOUS
 10
0.020130
 20
2.085079
  0
VERTEX
  8
PLAN_1
 62
     2
  6
CONTINUOUS
 10
0.020622
 20
2.088035
  0
VERTEX
  8
PLAN_1
 62
     2
  6
CONTINUOUS
 10
0.021114
 20
2.090988
  0
VERTEX
  8
PLAN_1
 62
     2
  6
CONTINUOUS
 10
0.020622
 20
2.094433
  0
VERTEX
  8
PLAN_1
 62
     2
  6
CONTINUOUS
 10
0.019638
 20
2.097386
  0
VERTEX
  8
PLAN_1
 62
     2
  6
CONTINUOUS
 10
0.018161
 20
2.099850
  0
VERTEX
  8
PLAN_1
 62
     2
  6
CONTINUOUS
 10
0.016193
 20
2.102311
  0
VERTEX
  8
PLAN_1
 62
     2
  6
CONTINUOUS
 10
0.013728
 20
2.103787
  0
VERTEX
  8
PLAN_1
 62
     2
  6
CONTINUOUS
 10
0.010776
 20
2.105264
  0
VERTEX
  8
PLAN_1
 62
     2
  6
CONTINUOUS
 10
0.007331
 20
2.105756
  0
VERTEX
  8
PLAN_1
 62
     2
  6
CONTINUOUS
 10
0.004378
 20
2.106248
  0
VERTEX
  8
PLAN_1
 62
     2
  6
CONTINUOUS
 10
0.000437
 20
2.105756
  0
VERTEX
  8
PLAN_1
 62
     2
  6
CONTINUOUS
 10
-0.003008
 20
2.104772
  0
VERTEX
  8
PLAN_1
 62
     2
  6
CONTINUOUS
 10
-0.005469
 20
2.103295
  0
VERTEX
  8
PLAN_1
 62
     2
  6
CONTINUOUS
 10
-0.007929
 20
2.101327
  0
VERTEX
  8
PLAN_1
 62
     2
  6
CONTINUOUS
 10
-0.009902
 20
2.099358
  0
VERTEX
  8
PLAN_1
 62
     2
  6
CONTINUOUS
 10
-0.010886
 20
2.096402
  0
VERTEX
  8
PLAN_1
 62
     2
  6
CONTINUOUS
 10
-0.011870
 20
2.093449
  0
VERTEX
  8
PLAN_1
 62
     2
  6
CONTINUOUS
 10
-0.011870
 20
2.090004
  0
VERTEX
  8
PLAN_1
 62
     2
  6
CONTINUOUS
 10
-0.011870
 20
2.088035
  0
VERTEX
  8
PLAN_1
 62
     2
  6
CONTINUOUS
 10
-0.011378
 20
2.086067
  0
VERTEX
  8
PLAN_1
 62
     2
  6
CONTINUOUS
 10
-0.010886
 20
2.084094
  0
VERTEX
  8
PLAN_1
 62
     2
  6
CONTINUOUS
 10
-0.010394
 20
2.082618
  0
VERTEX
  8
PLAN_1
 62
     2
  6
CONTINUOUS
 10
-0.009406
 20
2.080650
  0
VERTEX
  8
PLAN_1
 62
     2
  6
CONTINUOUS
 10
-0.007929
 20
2.079173
  0
VERTEX
  8
PLAN_1
 62
     2
  6
CONTINUOUS
 10
-0.006453
 20
2.077697
  0
VERTEX
  8
PLAN_1
 62
     2
  6
CONTINUOUS
 10
-0.004976
 20
2.076713
  0
VERTEX
  8
PLAN_1
 62
     2
  6
CONTINUOUS
 10
-0.005469
 20
2.068835
  0
VERTEX
  8
PLAN_1
 62
     2
  6
CONTINUOUS
 10
-0.044850
 20
2.074252
  0
VERTEX
  8
PLAN_1
 62
     2
  6
CONTINUOUS
 10
-0.044850
 20
2.112157
  0
VERTEX
  8
PLAN_1
 62
     2
  6
CONTINUOUS
 10
-0.035992
 20
2.112157
  0
VERTEX
  8
PLAN_1
 62
     2
  6
CONTINUOUS
 10
-0.035992
 20
2.081142
  0
VERTEX
  8
PLAN_1
 62
     2
  6
CONTINUOUS
 10
-0.015807
 20
2.077697
  0
SEQEND
  8
0
  0
POLYLINE
  8
PLAN_1
 62
     2
  6
CONTINUOUS
 66
     1
 40
0.003937
 41
0.003937
  0
VERTEX
  8
PLAN_1
 62
     2
  6
CONTINUOUS
 10
-0.106878
 20
0.857327
  0
VERTEX
  8
PLAN_1
 62
     2
  6
CONTINUOUS
 10
-0.106878
 20
3.661370
  0
SEQEND
  8
0
  0
SOLID
  8
PLAN_1
 62
     2
 10
-0.106878
 20
3.690906
 11
-0.122634
 21
3.631831
 12
-0.106878
 22
3.690906
 13
-0.091126
 23
3.631831
  0
POLYLINE
  8
PLAN_1
 62
     2
  6
CONTINUOUS
 66
     1
 40
0.003000
 41
0.003000
  0
VERTEX
  8
PLAN_1
 62
     2
  6
CONTINUOUS
 10
-0.106878
 20
3.690906
  0
VERTEX
  8
PLAN_1
 62
     2
  6
CONTINUOUS
 10
-0.122634
 20
3.631831
  0
VERTEX
  8
PLAN_1
 62
     2
  6
CONTINUOUS
 10
-0.091126
 20
3.631831
  0
VERTEX
  8
PLAN_1
 62
     2
  6
CONTINUOUS
 10
-0.106878
 20
3.690906
  0
SEQEND
  8
0
  0
SOLID
  8
PLAN_1
 62
     2
 10
-0.106878
 20
0.827791
 11
-0.122634
 21
0.886866
 12
-0.106878
 22
0.827791
 13
-0.091126
 23
0.886866
  0
POLYLINE
  8
PLAN_1
 62
     2
  6
CONTINUOUS
 66
     1
 40
0.003000
 41
0.003000
  0
VERTEX
  8
PLAN_1
 62
     2
  6
CONTINUOUS
 10
-0.106878
 20
0.827791
  0
VERTEX
  8
PLAN_1
 62
     2
  6
CONTINUOUS
 10
-0.122634
 20
0.886866
  0
VERTEX
  8
PLAN_1
 62
     2
  6
CONTINUOUS
 10
-0.091126
 20
0.886866
  0
VERTEX
  8
PLAN_1
 62
     2
  6
CONTINUOUS
 10
-0.106878
 20
0.827791
  0
SEQEND
  8
0
  0
POLYLINE
  8
PLAN_1
 62
     2
  6
CONTINUOUS
 66
     1
 40
0.003000
 41
0.003000
  0
VERTEX
  8
PLAN_1
 62
     2
  6
CONTINUOUS
 10
-0.148232
 20
2.095909
  0
VERTEX
  8
PLAN_1
 62
     2
  6
CONTINUOUS
 10
-0.130508
 20
2.095909
  0
VERTEX
  8
PLAN_1
 62
     2
  6
CONTINUOUS
 10
-0.130508
 20
2.086559
  0
VERTEX
  8
PLAN_1
 62
     2
  6
CONTINUOUS
 10
-0.148232
 20
2.086559
  0
VERTEX
  8
PLAN_1
 62
     2
  6
CONTINUOUS
 10
-0.148232
 20
2.054559
  0
VERTEX
  8
PLAN_1
 62
     2
  6
CONTINUOUS
 10
-0.157091
 20
2.054559
  0
VERTEX
  8
PLAN_1
 62
     2
  6
CONTINUOUS
 10
-0.203858
 20
2.088035
  0
VERTEX
  8
PLAN_1
 62
     2
  6
CONTINUOUS
 10
-0.203858
 20
2.095909
  0
VERTEX
  8
PLAN_1
 62
     2
  6
CONTINUOUS
 10
-0.156106
 20
2.095909
  0
VERTEX
  8
PLAN_1
 62
     2
  6
CONTINUOUS
 10
-0.156106
 20
2.106248
  0
VERTEX
  8
PLAN_1
 62
     2
  6
CONTINUOUS
 10
-0.148232
 20
2.106248
  0
VERTEX
  8
PLAN_1
 62
     2
  6
CONTINUOUS
 10
-0.148232
 20
2.095909
  0
SEQEND
  8
0
  0
SOLID
  8
PLAN_1
 62
     2
 10
-0.156106
 20
2.062929
 11
-0.156106
 21
2.086559
 12
-0.156106
 22
2.062929
 13
-0.189583
 23
2.086559
  0
POLYLINE
  8
PLAN_1
 62
     2
  6
CONTINUOUS
 66
     1
 40
0.003000
 41
0.003000
  0
VERTEX
  8
PLAN_1
 62
     2
  6
CONTINUOUS
 10
-0.156106
 20
2.062929
  0
VERTEX
  8
PLAN_1
 62
     2
  6
CONTINUOUS
 10
-0.156106
 20
2.086559
  0
VERTEX
  8
PLAN_1
 62
     2
  6
CONTINUOUS
 10
-0.189583
 20
2.086559
  0
VERTEX
  8
PLAN_1
 62
     2
  6
CONTINUOUS
 10
-0.156106
 20
2.062929
  0
SEQEND
  8
0
  0
POLYLINE
  8
PLAN_1
 62
     2
  6
CONTINUOUS
 66
     1
 40
0.003000
 41
0.003000
  0
VERTEX
  8
PLAN_1
 62
     2
  6
CONTINUOUS
 10
-0.173339
 20
2.125449
  0
VERTEX
  8
PLAN_1
 62
     2
  6
CONTINUOUS
 10
-0.173831
 20
2.126433
  0
VERTEX
  8
PLAN_1
 62
     2
  6
CONTINUOUS
 10
-0.174815
 20
2.127909
  0
VERTEX
  8
PLAN_1
 62
     2
  6
CONTINUOUS
 10
-0.175799
 20
2.129386
  0
VERTEX
  8
PLAN_1
 62
     2
  6
CONTINUOUS
 10
-0.176291
 20
2.130862
  0
VERTEX
  8
PLAN_1
 62
     2
  6
CONTINUOUS
 10
-0.176783
 20
2.132831
  0
VERTEX
  8
PLAN_1
 62
     2
  6
CONTINUOUS
 10
-0.177276
 20
2.134799
  0
VERTEX
  8
PLAN_1
 62
     2
  6
CONTINUOUS
 10
-0.177768
 20
2.137264
  0
VERTEX
  8
PLAN_1
 62
     2
  6
CONTINUOUS
 10
-0.177768
 20
2.139232
  0
VERTEX
  8
PLAN_1
 62
     2
  6
CONTINUOUS
 10
-0.177276
 20
2.143661
  0
VERTEX
  8
PLAN_1
 62
     2
  6
CONTINUOUS
 10
-0.176291
 20
2.148094
  0
VERTEX
  8
PLAN_1
 62
     2
  6
CONTINUOUS
 10
-0.174323
 20
2.152031
  0
VERTEX
  8
PLAN_1
 62
     2
  6
CONTINUOUS
 10
-0.171862
 20
2.155969
  0
VERTEX
  8
PLAN_1
 62
     2
  6
CONTINUOUS
 10
-0.168413
 20
2.158921
  0
VERTEX
  8
PLAN_1
 62
     2
  6
CONTINUOUS
 10
-0.164476
 20
2.161386
  0
VERTEX
  8
PLAN_1
 62
     2
  6
CONTINUOUS
 10
-0.162016
 20
2.162370
  0
VERTEX
  8
PLAN_1
 62
     2
  6
CONTINUOUS
 10
-0.159555
 20
2.162862
  0
VERTEX
  8
PLAN_1
 62
     2
  6
CONTINUOUS
 10
-0.157091
 20
2.163354
  0
VERTEX
  8
PLAN_1
 62
     2
  6
CONTINUOUS
 10
-0.154138
 20
2.163354
  0
VERTEX
  8
PLAN_1
 62
     2
  6
CONTINUOUS
 10
-0.150693
 20
2.163354
  0
VERTEX
  8
PLAN_1
 62
     2
  6
CONTINUOUS
 10
-0.146756
 20
2.162370
  0
VERTEX
  8
PLAN_1
 62
     2
  6
CONTINUOUS
 10
-0.142815
 20
2.160894
  0
VERTEX
  8
PLAN_1
 62
     2
  6
CONTINUOUS
 10
-0.138386
 20
2.158921
  0
VERTEX
  8
PLAN_1
 62
     2
  6
CONTINUOUS
 10
-0.136417
 20
2.156953
  0
VERTEX
  8
PLAN_1
 62
     2
  6
CONTINUOUS
 10
-0.134449
 20
2.155476
  0
VERTEX
  8
PLAN_1
 62
     2
  6
CONTINUOUS
 10
-0.132969
 20
2.153016
  0
VERTEX
  8
PLAN_1
 62
     2
  6
CONTINUOUS
 10
-0.131492
 20
2.150555
  0
VERTEX
  8
PLAN_1
 62
     2
  6
CONTINUOUS
 10
-0.130508
 20
2.148094
  0
VERTEX
  8
PLAN_1
 62
     2
  6
CONTINUOUS
 10
-0.129524
 20
2.144646
  0
VERTEX
  8
PLAN_1
 62
     2
  6
CONTINUOUS
 10
-0.129031
 20
2.141201
  0
VERTEX
  8
PLAN_1
 62
     2
  6
CONTINUOUS
 10
-0.128539
 20
2.136772
  0
VERTEX
  8
PLAN_1
 62
     2
  6
CONTINUOUS
 10
-0.129031
 20
2.133323
  0
VERTEX
  8
PLAN_1
 62
     2
  6
CONTINUOUS
 10
-0.129524
 20
2.129386
  0
VERTEX
  8
PLAN_1
 62
     2
  6
CONTINUOUS
 10
-0.130508
 20
2.125449
  0
VERTEX
  8
PLAN_1
 62
     2
  6
CONTINUOUS
 10
-0.132476
 20
2.122000
  0
VERTEX
  8
PLAN_1
 62
     2
  6
CONTINUOUS
 10
-0.135433
 20
2.119047
  0
VERTEX
  8
PLAN_1
 62
     2
  6
CONTINUOUS
 10
-0.138878
 20
2.116587
  0
VERTEX
  8
PLAN_1
 62
     2
  6
CONTINUOUS
 10
-0.140846
 20
2.115110
  0
VERTEX
  8
PLAN_1
 62
     2
  6
CONTINUOUS
 10
-0.143307
 20
2.114618
  0
VERTEX
  8
PLAN_1
 62
     2
  6
CONTINUOUS
 10
-0.145768
 20
2.113634
  0
VERTEX
  8
PLAN_1
 62
     2
  6
CONTINUOUS
 10
-0.148724
 20
2.113142
  0
VERTEX
  8
PLAN_1
 62
     2
  6
CONTINUOUS
 10
-0.148724
 20
2.122984
  0
VERTEX
  8
PLAN_1
 62
     2
  6
CONTINUOUS
 10
-0.145768
 20
2.123480
  0
VERTEX
  8
PLAN_1
 62
     2
  6
CONTINUOUS
 10
-0.143307
 20
2.124465
  0
VERTEX
  8
PLAN_1
 62
     2
  6
CONTINUOUS
 10
-0.141339
 20
2.125941
  0
VERTEX
  8
PLAN_1
 62
     2
  6
CONTINUOUS
 10
-0.139370
 20
2.127909
  0
VERTEX
  8
PLAN_1
 62
     2
  6
CONTINUOUS
 10
-0.138386
 20
2.129878
  0
VERTEX
  8
PLAN_1
 62
     2
  6
CONTINUOUS
 10
-0.137402
 20
2.132339
  0
VERTEX
  8
PLAN_1
 62
     2
  6
CONTINUOUS
 10
-0.136909
 20
2.135291
  0
VERTEX
  8
PLAN_1
 62
     2
  6
CONTINUOUS
 10
-0.136417
 20
2.138248
  0
VERTEX
  8
PLAN_1
 62
     2
  6
CONTINUOUS
 10
-0.136909
 20
2.141693
  0
VERTEX
  8
PLAN_1
 62
     2
  6
CONTINUOUS
 10
-0.137894
 20
2.144646
  0
VERTEX
  8
PLAN_1
 62
     2
  6
CONTINUOUS
 10
-0.139370
 20
2.147106
  0
VERTEX
  8
PLAN_1
 62
     2
  6
CONTINUOUS
 10
-0.141339
 20
2.149571
  0
VERTEX
  8
PLAN_1
 62
     2
  6
CONTINUOUS
 10
-0.143799
 20
2.151047
  0
VERTEX
  8
PLAN_1
 62
     2
  6
CONTINUOUS
 10
-0.146756
 20
2.152524
  0
VERTEX
  8
PLAN_1
 62
     2
  6
CONTINUOUS
 10
-0.149709
 20
2.153508
  0
VERTEX
  8
PLAN_1
 62
     2
  6
CONTINUOUS
 10
-0.153154
 20
2.153508
  0
VERTEX
  8
PLAN_1
 62
     2
  6
CONTINUOUS
 10
-0.157091
 20
2.153508
  0
VERTEX
  8
PLAN_1
 62
     2
  6
CONTINUOUS
 10
-0.160047
 20
2.152524
  0
VERTEX
  8
PLAN_1
 62
     2
  6
CONTINUOUS
 10
-0.163000
 20
2.151047
  0
VERTEX
  8
PLAN_1
 62
     2
  6
CONTINUOUS
 10
-0.165461
 20
2.149079
  0
VERTEX
  8
PLAN_1
 62
     2
  6
CONTINUOUS
 10
-0.166937
 20
2.146614
  0
VERTEX
  8
PLAN_1
 62
     2
  6
CONTINUOUS
 10
-0.168413
 20
2.143661
  0
VERTEX
  8
PLAN_1
 62
     2
  6
CONTINUOUS
 10
-0.169398
 20
2.140709
  0
VERTEX
  8
PLAN_1
 62
     2
  6
CONTINUOUS
 10
-0.169398
 20
2.137264
  0
VERTEX
  8
PLAN_1
 62
     2
  6
CONTINUOUS
 10
-0.169398
 20
2.135291
  0
VERTEX
  8
PLAN_1
 62
     2
  6
CONTINUOUS
 10
-0.168906
 20
2.133323
  0
VERTEX
  8
PLAN_1
 62
     2
  6
CONTINUOUS
 10
-0.168413
 20
2.131846
  0
VERTEX
  8
PLAN_1
 62
     2
  6
CONTINUOUS
 10
-0.167921
 20
2.129878
  0
VERTEX
  8
PLAN_1
 62
     2
  6
CONTINUOUS
 10
-0.166445
 20
2.128402
  0
VERTEX
  8
PLAN_1
 62
     2
  6
CONTINUOUS
 10
-0.165461
 20
2.126925
  0
VERTEX
  8
PLAN_1
 62
     2
  6
CONTINUOUS
 10
-0.163984
 20
2.125449
  0
VERTEX
  8
PLAN_1
 62
     2
  6
CONTINUOUS
 10
-0.162508
 20
2.123972
  0
VERTEX
  8
PLAN_1
 62
     2
  6
CONTINUOUS
 10
-0.163000
 20
2.116094
  0
VERTEX
  8
PLAN_1
 62
     2
  6
CONTINUOUS
 10
-0.202382
 20
2.121508
  0
VERTEX
  8
PLAN_1
 62
     2
  6
CONTINUOUS
 10
-0.202382
 20
2.159413
  0
VERTEX
  8
PLAN_1
 62
     2
  6
CONTINUOUS
 10
-0.193028
 20
2.159413
  0
VERTEX
  8
PLAN_1
 62
     2
  6
CONTINUOUS
 10
-0.193028
 20
2.128402
  0
VERTEX
  8
PLAN_1
 62
     2
  6
CONTINUOUS
 10
-0.173339
 20
2.125449
  0
SEQEND
  8
0
  0
SOLID
  8
PLAN_1
 62
     2
 10
-0.141831
 20
2.187969
 11
-0.141831
 21
2.177138
 12
-0.130508
 22
2.187969
 13
-0.130508
 23
2.177138
  0
POLYLINE
  8
PLAN_1
 62
     2
  6
CONTINUOUS
 66
     1
 40
0.003000
 41
0.003000
  0
VERTEX
  8
PLAN_1
 62
     2
  6
CONTINUOUS
 10
-0.141831
 20
2.187969
  0
VERTEX
  8
PLAN_1
 62
     2
  6
CONTINUOUS
 10
-0.141831
 20
2.177138
  0
VERTEX
  8
PLAN_1
 62
     2
  6
CONTINUOUS
 10
-0.130508
 20
2.177138
  0
VERTEX
  8
PLAN_1
 62
     2
  6
CONTINUOUS
 10
-0.130508
 20
2.187969
  0
VERTEX
  8
PLAN_1
 62
     2
  6
CONTINUOUS
 10
-0.141831
 20
2.187969
  0
SEQEND
  8
0
  0
SOLID
  8
PLAN_1
 62
     2
 10
-0.130508
 20
2.216520
 11
-0.130508
 21
2.205689
 12
-0.141831
 22
2.216520
 13
-0.141831
 23
2.205689
  0
POLYLINE
  8
PLAN_1
 62
     2
  6
CONTINUOUS
 66
     1
 40
0.003000
 41
0.003000
  0
VERTEX
  8
PLAN_1
 62
     2
  6
CONTINUOUS
 10
-0.130508
 20
2.216520
  0
VERTEX
  8
PLAN_1
 62
     2
  6
CONTINUOUS
 10
-0.130508
 20
2.205689
  0
VERTEX
  8
PLAN_1
 62
     2
  6
CONTINUOUS
 10
-0.141831
 20
2.205689
  0
VERTEX
  8
PLAN_1
 62
     2
  6
CONTINUOUS
 10
-0.141831
 20
2.216520
  0
VERTEX
  8
PLAN_1
 62
     2
  6
CONTINUOUS
 10
-0.130508
 20
2.216520
  0
SEQEND
  8
0
  0
SOLID
  8
PLAN_1
 62
     2
 10
-0.130508
 20
2.245563
 11
-0.130508
 21
2.234736
 12
-0.141831
 22
2.245563
 13
-0.141831
 23
2.234736
  0
POLYLINE
  8
PLAN_1
 62
     2
  6
CONTINUOUS
 66
     1
 40
0.003000
 41
0.003000
  0
VERTEX
  8
PLAN_1
 62
     2
  6
CONTINUOUS
 10
-0.130508
 20
2.245563
  0
VERTEX
  8
PLAN_1
 62
     2
  6
CONTINUOUS
 10
-0.130508
 20
2.234736
  0
VERTEX
  8
PLAN_1
 62
     2
  6
CONTINUOUS
 10
-0.141831
 20
2.234736
  0
VERTEX
  8
PLAN_1
 62
     2
  6
CONTINUOUS
 10
-0.141831
 20
2.245563
  0
VERTEX
  8
PLAN_1
 62
     2
  6
CONTINUOUS
 10
-0.130508
 20
2.245563
  0
SEQEND
  8
0
  0
POLYLINE
  8
PLAN_1
 62
     2
  6
CONTINUOUS
 66
     1
 40
0.003000
 41
0.003000
  0
VERTEX
  8
PLAN_1
 62
     2
  6
CONTINUOUS
 10
-0.178752
 20
2.258854
  0
VERTEX
  8
PLAN_1
 62
     2
  6
CONTINUOUS
 10
-0.183677
 20
2.259346
  0
VERTEX
  8
PLAN_1
 62
     2
  6
CONTINUOUS
 10
-0.188106
 20
2.260335
  0
VERTEX
  8
PLAN_1
 62
     2
  6
CONTINUOUS
 10
-0.192535
 20
2.262303
  0
VERTEX
  8
PLAN_1
 62
     2
  6
CONTINUOUS
 10
-0.195984
 20
2.265256
  0
VERTEX
  8
PLAN_1
 62
     2
  6
CONTINUOUS
 10
-0.197953
 20
2.266732
  0
VERTEX
  8
PLAN_1
 62
     2
  6
CONTINUOUS
 10
-0.199429
 20
2.268209
  0
VERTEX
  8
PLAN_1
 62
     2
  6
CONTINUOUS
 10
-0.200413
 20
2.270177
  0
VERTEX
  8
PLAN_1
 62
     2
  6
CONTINUOUS
 10
-0.201890
 20
2.272150
  0
VERTEX
  8
PLAN_1
 62
     2
  6
CONTINUOUS
 10
-0.202382
 20
2.274610
  0
VERTEX
  8
PLAN_1
 62
     2
  6
CONTINUOUS
 10
-0.203366
 20
2.277071
  0
VERTEX
  8
PLAN_1
 62
     2
  6
CONTINUOUS
 10
-0.203366
 20
2.279531
  0
VERTEX
  8
PLAN_1
 62
     2
  6
CONTINUOUS
 10
-0.203858
 20
2.282484
  0
VERTEX
  8
PLAN_1
 62
     2
  6
CONTINUOUS
 10
-0.203366
 20
2.286425
  0
VERTEX
  8
PLAN_1
 62
     2
  6
CONTINUOUS
 10
-0.202874
 20
2.290362
  0
VERTEX
  8
PLAN_1
 62
     2
  6
CONTINUOUS
 10
-0.201398
 20
2.293315
  0
VERTEX
  8
PLAN_1
 62
     2
  6
CONTINUOUS
 10
-0.199921
 20
2.296268
  0
VERTEX
  8
PLAN_1
 62
     2
  6
CONTINUOUS
 10
-0.198445
 20
2.298732
  0
VERTEX
  8
PLAN_1
 62
     2
  6
CONTINUOUS
 10
-0.195984
 20
2.300701
  0
VERTEX
  8
PLAN_1
 62
     2
  6
CONTINUOUS
 10
-0.193520
 20
2.302669
  0
VERTEX
  8
PLAN_1
 62
     2
  6
CONTINUOUS
 10
-0.191059
 20
2.304146
  0
VERTEX
  8
PLAN_1
 62
     2
  6
CONTINUOUS
 10
-0.185646
 20
2.306114
  0
VERTEX
  8
PLAN_1
 62
     2
  6
CONTINUOUS
 10
-0.180228
 20
2.307591
  0
VERTEX
  8
PLAN_1
 62
     2
  6
CONTINUOUS
 10
-0.174815
 20
2.308083
  0
VERTEX
  8
PLAN_1
 62
     2
  6
CONTINUOUS
 10
-0.169890
 20
2.308083
  0
VERTEX
  8
PLAN_1
 62
     2
  6
CONTINUOUS
 10
-0.165953
 20
2.308083
  0
VERTEX
  8
PLAN_1
 62
     2
  6
CONTINUOUS
 10
-0.160047
 20
2.307591
  0
VERTEX
  8
PLAN_1
 62
     2
  6
CONTINUOUS
 10
-0.153154
 20
2.306606
  0
VERTEX
  8
PLAN_1
 62
     2
  6
CONTINUOUS
 10
-0.146264
 20
2.304146
  0
VERTEX
  8
PLAN_1
 62
     2
  6
CONTINUOUS
 10
-0.142815
 20
2.302669
  0
VERTEX
  8
PLAN_1
 62
     2
  6
CONTINUOUS
 10
-0.139370
 20
2.301193
  0
VERTEX
  8
PLAN_1
 62
     2
  6
CONTINUOUS
 10
-0.136417
 20
2.298732
  0
VERTEX
  8
PLAN_1
 62
     2
  6
CONTINUOUS
 10
-0.133957
 20
2.296268
  0
VERTEX
  8
PLAN_1
 62
     2
  6
CONTINUOUS
 10
-0.131492
 20
2.293315
  0
VERTEX
  8
PLAN_1
 62
     2
  6
CONTINUOUS
 10
-0.130016
 20
2.289870
  0
VERTEX
  8
PLAN_1
 62
     2
  6
CONTINUOUS
 10
-0.129031
 20
2.285933
  0
VERTEX
  8
PLAN_1
 62
     2
  6
CONTINUOUS
 10
-0.128539
 20
2.281500
  0
VERTEX
  8
PLAN_1
 62
     2
  6
CONTINUOUS
 10
-0.128539
 20
2.278547
  0
VERTEX
  8
PLAN_1
 62
     2
  6
CONTINUOUS
 10
-0.129031
 20
2.275594
  0
VERTEX
  8
PLAN_1
 62
     2
  6
CONTINUOUS
 10
-0.130016
 20
2.273134
  0
VERTEX
  8
PLAN_1
 62
     2
  6
CONTINUOUS
 10
-0.130508
 20
2.271161
  0
VERTEX
  8
PLAN_1
 62
     2
  6
CONTINUOUS
 10
-0.132969
 20
2.267224
  0
VERTEX
  8
PLAN_1
 62
     2
  6
CONTINUOUS
 10
-0.135925
 20
2.264272
  0
VERTEX
  8
PLAN_1
 62
     2
  6
CONTINUOUS
 10
-0.138878
 20
2.262303
  0
VERTEX
  8
PLAN_1
 62
     2
  6
CONTINUOUS
 10
-0.142323
 20
2.260827
  0
VERTEX
  8
PLAN_1
 62
     2
  6
CONTINUOUS
 10
-0.145276
 20
2.260335
  0
VERTEX
  8
PLAN_1
 62
     2
  6
CONTINUOUS
 10
-0.148232
 20
2.259843
  0
VERTEX
  8
PLAN_1
 62
     2
  6
CONTINUOUS
 10
-0.148232
 20
2.269193
  0
VERTEX
  8
PLAN_1
 62
     2
  6
CONTINUOUS
 10
-0.145768
 20
2.269193
  0
VERTEX
  8
PLAN_1
 62
     2
  6
CONTINUOUS
 10
-0.143307
 20
2.270177
  0
VERTEX
  8
PLAN_1
 62
     2
  6
CONTINUOUS
 10
-0.141339
 20
2.271161
  0
VERTEX
  8
PLAN_1
 62
     2
  6
CONTINUOUS
 10
-0.139370
 20
2.272642
  0
VERTEX
  8
PLAN_1
 62
     2
  6
CONTINUOUS
 10
-0.137894
 20
2.274118
  0
VERTEX
  8
PLAN_1
 62
     2
  6
CONTINUOUS
 10
-0.136909
 20
2.276579
  0
VERTEX
  8
PLAN_1
 62
     2
  6
CONTINUOUS
 10
-0.136417
 20
2.278547
  0
VERTEX
  8
PLAN_1
 62
     2
  6
CONTINUOUS
 10
-0.136417
 20
2.281500
  0
VERTEX
  8
PLAN_1
 62
     2
  6
CONTINUOUS
 10
-0.136417
 20
2.284949
  0
VERTEX
  8
PLAN_1
 62
     2
  6
CONTINUOUS
 10
-0.137894
 20
2.287902
  0
VERTEX
  8
PLAN_1
 62
     2
  6
CONTINUOUS
 10
-0.139862
 20
2.290854
  0
VERTEX
  8
PLAN_1
 62
     2
  6
CONTINUOUS
 10
-0.142815
 20
2.293315
  0
VERTEX
  8
PLAN_1
 62
     2
  6
CONTINUOUS
 10
-0.146756
 20
2.294791
  0
VERTEX
  8
PLAN_1
 62
     2
  6
CONTINUOUS
 10
-0.151185
 20
2.296764
  0
VERTEX
  8
PLAN_1
 62
     2
  6
CONTINUOUS
 10
-0.157091
 20
2.297748
  0
VERTEX
  8
PLAN_1
 62
     2
  6
CONTINUOUS
 10
-0.163492
 20
2.299224
  0
VERTEX
  8
PLAN_1
 62
     2
  6
CONTINUOUS
 10
-0.163984
 20
2.298732
  0
VERTEX
  8
PLAN_1
 62
     2
  6
CONTINUOUS
 10
-0.162016
 20
2.297748
  0
VERTEX
  8
PLAN_1
 62
     2
  6
CONTINUOUS
 10
-0.160047
 20
2.295776
  0
VERTEX
  8
PLAN_1
 62
     2
  6
CONTINUOUS
 10
-0.158571
 20
2.294299
  0
VERTEX
  8
PLAN_1
 62
     2
  6
CONTINUOUS
 10
-0.157091
 20
2.291839
  0
VERTEX
  8
PLAN_1
 62
     2
  6
CONTINUOUS
 10
-0.156106
 20
2.289378
  0
VERTEX
  8
PLAN_1
 62
     2
  6
CONTINUOUS
 10
-0.155614
 20
2.286917
  0
VERTEX
  8
PLAN_1
 62
     2
  6
CONTINUOUS
 10
-0.155122
 20
2.284457
  0
VERTEX
  8
PLAN_1
 62
     2
  6
CONTINUOUS
 10
-0.155122
 20
2.281992
  0
VERTEX
  8
PLAN_1
 62
     2
  6
CONTINUOUS
 10
-0.155614
 20
2.277071
  0
VERTEX
  8
PLAN_1
 62
     2
  6
CONTINUOUS
 10
-0.156598
 20
2.272642
  0
VERTEX
  8
PLAN_1
 62
     2
  6
CONTINUOUS
 10
-0.158571
 20
2.268701
  0
VERTEX
  8
PLAN_1
 62
     2
  6
CONTINUOUS
 10
-0.161524
 20
2.265256
  0
VERTEX
  8
PLAN_1
 62
     2
  6
CONTINUOUS
 10
-0.164969
 20
2.262795
  0
VERTEX
  8
PLAN_1
 62
     2
  6
CONTINUOUS
 10
-0.168906
 20
2.260827
  0
VERTEX
  8
PLAN_1
 62
     2
  6
CONTINUOUS
 10
-0.173339
 20
2.259346
  0
VERTEX
  8
PLAN_1
 62
     2
  6
CONTINUOUS
 10
-0.178752
 20
2.258854
  0
SEQEND
  8
0
  0
POLYLINE
  8
PLAN_1
 62
     2
  6
CONTINUOUS
 66
     1
 40
0.003000
 41
0.003000
  0
VERTEX
  8
PLAN_1
 62
     2
  6
CONTINUOUS
 10
-0.179736
 20
2.297256
  0
VERTEX
  8
PLAN_1
 62
     2
  6
CONTINUOUS
 10
-0.183181
 20
2.297256
  0
VERTEX
  8
PLAN_1
 62
     2
  6
CONTINUOUS
 10
-0.185646
 20
2.296764
  0
VERTEX
  8
PLAN_1
 62
     2
  6
CONTINUOUS
 10
-0.188598
 20
2.295283
  0
VERTEX
  8
PLAN_1
 62
     2
  6
CONTINUOUS
 10
-0.190567
 20
2.293807
  0
VERTEX
  8
PLAN_1
 62
     2
  6
CONTINUOUS
 10
-0.192535
 20
2.291839
  0
VERTEX
  8
PLAN_1
 62
     2
  6
CONTINUOUS
 10
-0.194012
 20
2.289378
  0
VERTEX
  8
PLAN_1
 62
     2
  6
CONTINUOUS
 10
-0.194996
 20
2.286425
  0
VERTEX
  8
PLAN_1
 62
     2
  6
CONTINUOUS
 10
-0.195488
 20
2.282484
  0
VERTEX
  8
PLAN_1
 62
     2
  6
CONTINUOUS
 10
-0.194996
 20
2.279531
  0
VERTEX
  8
PLAN_1
 62
     2
  6
CONTINUOUS
 10
-0.194504
 20
2.277071
  0
VERTEX
  8
PLAN_1
 62
     2
  6
CONTINUOUS
 10
-0.193028
 20
2.274610
  0
VERTEX
  8
PLAN_1
 62
     2
  6
CONTINUOUS
 10
-0.191059
 20
2.272150
  0
VERTEX
  8
PLAN_1
 62
     2
  6
CONTINUOUS
 10
-0.188598
 20
2.270669
  0
VERTEX
  8
PLAN_1
 62
     2
  6
CONTINUOUS
 10
-0.185646
 20
2.269685
  0
VERTEX
  8
PLAN_1
 62
     2
  6
CONTINUOUS
 10
-0.182689
 20
2.268701
  0
VERTEX
  8
PLAN_1
 62
     2
  6
CONTINUOUS
 10
-0.179244
 20
2.268701
  0
VERTEX
  8
PLAN_1
 62
     2
  6
CONTINUOUS
 10
-0.174323
 20
2.268701
  0
VERTEX
  8
PLAN_1
 62
     2
  6
CONTINUOUS
 10
-0.170874
 20
2.270177
  0
VERTEX
  8
PLAN_1
 62
     2
  6
CONTINUOUS
 10
-0.167921
 20
2.271654
  0
VERTEX
  8
PLAN_1
 62
     2
  6
CONTINUOUS
 10
-0.165953
 20
2.273626
  0
VERTEX
  8
PLAN_1
 62
     2
  6
CONTINUOUS
 10
-0.164476
 20
2.276087
  0
VERTEX
  8
PLAN_1
 62
     2
  6
CONTINUOUS
 10
-0.163984
 20
2.278547
  0
VERTEX
  8
PLAN_1
 62
     2
  6
CONTINUOUS
 10
-0.163492
 20
2.281008
  0
VERTEX
  8
PLAN_1
 62
     2
  6
CONTINUOUS
 10
-0.163000
 20
2.283469
  0
VERTEX
  8
PLAN_1
 62
     2
  6
CONTINUOUS
 10
-0.163492
 20
2.285441
  0
VERTEX
  8
PLAN_1
 62
     2
  6
CONTINUOUS
 10
-0.163984
 20
2.287409
  0
VERTEX
  8
PLAN_1
 62
     2
  6
CONTINUOUS
 10
-0.164476
 20
2.289870
  0
VERTEX
  8
PLAN_1
 62
     2
  6
CONTINUOUS
 10
-0.165953
 20
2.292331
  0
VERTEX
  8
PLAN_1
 62
     2
  6
CONTINUOUS
 10
-0.168413
 20
2.294299
  0
VERTEX
  8
PLAN_1
 62
     2
  6
CONTINUOUS
 10
-0.171370
 20
2.295776
  0
VERTEX
  8
PLAN_1
 62
     2
  6
CONTINUOUS
 10
-0.174815
 20
2.297256
  0
VERTEX
  8
PLAN_1
 62
     2
  6
CONTINUOUS
 10
-0.179736
 20
2.297256
  0
SEQEND
  8
0
  0
POLYLINE
  8
PLAN_1
 62
     2
  6
CONTINUOUS
 66
     1
 40
0.003000
 41
0.003000
  0
VERTEX
  8
PLAN_1
 62
     2
  6
CONTINUOUS
 10
-0.178752
 20
2.316945
  0
VERTEX
  8
PLAN_1
 62
     2
  6
CONTINUOUS
 10
-0.183677
 20
2.317437
  0
VERTEX
  8
PLAN_1
 62
     2
  6
CONTINUOUS
 10
-0.188106
 20
2.318421
  0
VERTEX
  8
PLAN_1
 62
     2
  6
CONTINUOUS
 10
-0.192535
 20
2.320390
  0
VERTEX
  8
PLAN_1
 62
     2
  6
CONTINUOUS
 10
-0.195984
 20
2.322854
  0
VERTEX
  8
PLAN_1
 62
     2
  6
CONTINUOUS
 10
-0.197953
 20
2.324331
  0
VERTEX
  8
PLAN_1
 62
     2
  6
CONTINUOUS
 10
-0.199429
 20
2.326299
  0
VERTEX
  8
PLAN_1
 62
     2
  6
CONTINUOUS
 10
-0.200413
 20
2.328268
  0
VERTEX
  8
PLAN_1
 62
     2
  6
CONTINUOUS
 10
-0.201890
 20
2.330236
  0
VERTEX
  8
PLAN_1
 62
     2
  6
CONTINUOUS
 10
-0.202382
 20
2.332697
  0
VERTEX
  8
PLAN_1
 62
     2
  6
CONTINUOUS
 10
-0.203366
 20
2.335161
  0
VERTEX
  8
PLAN_1
 62
     2
  6
CONTINUOUS
 10
-0.203366
 20
2.337622
  0
VERTEX
  8
PLAN_1
 62
     2
  6
CONTINUOUS
 10
-0.203858
 20
2.340575
  0
VERTEX
  8
PLAN_1
 62
     2
  6
CONTINUOUS
 10
-0.203366
 20
2.344512
  0
VERTEX
  8
PLAN_1
 62
     2
  6
CONTINUOUS
 10
-0.202874
 20
2.348453
  0
VERTEX
  8
PLAN_1
 62
     2
  6
CONTINUOUS
 10
-0.201398
 20
2.351406
  0
VERTEX
  8
PLAN_1
 62
     2
  6
CONTINUOUS
 10
-0.199921
 20
2.354358
  0
VERTEX
  8
PLAN_1
 62
     2
  6
CONTINUOUS
 10
-0.198445
 20
2.356819
  0
VERTEX
  8
PLAN_1
 62
     2
  6
CONTINUOUS
 10
-0.195984
 20
2.358791
  0
VERTEX
  8
PLAN_1
 62
     2
  6
CONTINUOUS
 10
-0.193520
 20
2.360760
  0
VERTEX
  8
PLAN_1
 62
     2
  6
CONTINUOUS
 10
-0.191059
 20
2.361744
  0
VERTEX
  8
PLAN_1
 62
     2
  6
CONTINUOUS
 10
-0.185646
 20
2.364205
  0
VERTEX
  8
PLAN_1
 62
     2
  6
CONTINUOUS
 10
-0.180228
 20
2.365189
  0
VERTEX
  8
PLAN_1
 62
     2
  6
CONTINUOUS
 10
-0.174815
 20
2.365681
  0
VERTEX
  8
PLAN_1
 62
     2
  6
CONTINUOUS
 10
-0.169890
 20
2.366173
  0
VERTEX
  8
PLAN_1
 62
     2
  6
CONTINUOUS
 10
-0.165953
 20
2.365681
  0
VERTEX
  8
PLAN_1
 62
     2
  6
CONTINUOUS
 10
-0.160047
 20
2.365189
  0
VERTEX
  8
PLAN_1
 62
     2
  6
CONTINUOUS
 10
-0.153154
 20
2.364205
  0
VERTEX
  8
PLAN_1
 62
     2
  6
CONTINUOUS
 10
-0.146264
 20
2.362236
  0
VERTEX
  8
PLAN_1
 62
     2
  6
CONTINUOUS
 10
-0.142815
 20
2.360760
  0
VERTEX
  8
PLAN_1
 62
     2
  6
CONTINUOUS
 10
-0.139370
 20
2.358791
  0
VERTEX
  8
PLAN_1
 62
     2
  6
CONTINUOUS
 10
-0.136417
 20
2.356819
  0
VERTEX
  8
PLAN_1
 62
     2
  6
CONTINUOUS
 10
-0.133957
 20
2.354358
  0
VERTEX
  8
PLAN_1
 62
     2
  6
CONTINUOUS
 10
-0.131492
 20
2.351406
  0
VERTEX
  8
PLAN_1
 62
     2
  6
CONTINUOUS
 10
-0.130016
 20
2.347961
  0
VERTEX
  8
PLAN_1
 62
     2
  6
CONTINUOUS
 10
-0.129031
 20
2.344020
  0
VERTEX
  8
PLAN_1
 62
     2
  6
CONTINUOUS
 10
-0.128539
 20
2.339591
  0
VERTEX
  8
PLAN_1
 62
     2
  6
CONTINUOUS
 10
-0.128539
 20
2.336638
  0
VERTEX
  8
PLAN_1
 62
     2
  6
CONTINUOUS
 10
-0.129031
 20
2.333681
  0
VERTEX
  8
PLAN_1
 62
     2
  6
CONTINUOUS
 10
-0.130016
 20
2.331220
  0
VERTEX
  8
PLAN_1
 62
     2
  6
CONTINUOUS
 10
-0.130508
 20
2.328760
  0
VERTEX
  8
PLAN_1
 62
     2
  6
CONTINUOUS
 10
-0.132969
 20
2.325315
  0
VERTEX
  8
PLAN_1
 62
     2
  6
CONTINUOUS
 10
-0.135925
 20
2.322362
  0
VERTEX
  8
PLAN_1
 62
     2
  6
CONTINUOUS
 10
-0.138878
 20
2.319898
  0
VERTEX
  8
PLAN_1
 62
     2
  6
CONTINUOUS
 10
-0.142323
 20
2.318913
  0
VERTEX
  8
PLAN_1
 62
     2
  6
CONTINUOUS
 10
-0.145276
 20
2.317929
  0
VERTEX
  8
PLAN_1
 62
     2
  6
CONTINUOUS
 10
-0.148232
 20
2.317929
  0
VERTEX
  8
PLAN_1
 62
     2
  6
CONTINUOUS
 10
-0.148232
 20
2.326791
  0
VERTEX
  8
PLAN_1
 62
     2
  6
CONTINUOUS
 10
-0.145768
 20
2.327283
  0
VERTEX
  8
PLAN_1
 62
     2
  6
CONTINUOUS
 10
-0.143307
 20
2.327776
  0
VERTEX
  8
PLAN_1
 62
     2
  6
CONTINUOUS
 10
-0.141339
 20
2.329252
  0
VERTEX
  8
PLAN_1
 62
     2
  6
CONTINUOUS
 10
-0.139370
 20
2.330728
  0
VERTEX
  8
PLAN_1
 62
     2
  6
CONTINUOUS
 10
-0.137894
 20
2.332205
  0
VERTEX
  8
PLAN_1
 62
     2
  6
CONTINUOUS
 10
-0.136909
 20
2.334177
  0
VERTEX
  8
PLAN_1
 62
     2
  6
CONTINUOUS
 10
-0.136417
 20
2.336638
  0
VERTEX
  8
PLAN_1
 62
     2
  6
CONTINUOUS
 10
-0.136417
 20
2.339098
  0
VERTEX
  8
PLAN_1
 62
     2
  6
CONTINUOUS
 10
-0.136417
 20
2.343035
  0
VERTEX
  8
PLAN_1
 62
     2
  6
CONTINUOUS
 10
-0.137894
 20
2.345988
  0
VERTEX
  8
PLAN_1
 62
     2
  6
CONTINUOUS
 10
-0.139862
 20
2.348453
  0
VERTEX
  8
PLAN_1
 62
     2
  6
CONTINUOUS
 10
-0.142815
 20
2.350913
  0
VERTEX
  8
PLAN_1
 62
     2
  6
CONTINUOUS
 10
-0.146756
 20
2.352882
  0
VERTEX
  8
PLAN_1
 62
     2
  6
CONTINUOUS
 10
-0.151185
 20
2.354358
  0
VERTEX
  8
PLAN_1
 62
     2
  6
CONTINUOUS
 10
-0.157091
 20
2.355835
  0
VERTEX
  8
PLAN_1
 62
     2
  6
CONTINUOUS
 10
-0.163492
 20
2.356819
  0
VERTEX
  8
PLAN_1
 62
     2
  6
CONTINUOUS
 10
-0.163984
 20
2.356819
  0
VERTEX
  8
PLAN_1
 62
     2
  6
CONTINUOUS
 10
-0.162016
 20
2.355343
  0
VERTEX
  8
PLAN_1
 62
     2
  6
CONTINUOUS
 10
-0.160047
 20
2.353866
  0
VERTEX
  8
PLAN_1
 62
     2
  6
CONTINUOUS
 10
-0.158571
 20
2.351898
  0
VERTEX
  8
PLAN_1
 62
     2
  6
CONTINUOUS
 10
-0.157091
 20
2.349929
  0
VERTEX
  8
PLAN_1
 62
     2
  6
CONTINUOUS
 10
-0.156106
 20
2.347469
  0
VERTEX
  8
PLAN_1
 62
     2
  6
CONTINUOUS
 10
-0.155614
 20
2.345004
  0
VERTEX
  8
PLAN_1
 62
     2
  6
CONTINUOUS
 10
-0.155122
 20
2.342543
  0
VERTEX
  8
PLAN_1
 62
     2
  6
CONTINUOUS
 10
-0.155122
 20
2.340083
  0
VERTEX
  8
PLAN_1
 62
     2
  6
CONTINUOUS
 10
-0.155614
 20
2.335161
  0
VERTEX
  8
PLAN_1
 62
     2
  6
CONTINUOUS
 10
-0.156598
 20
2.330728
  0
VERTEX
  8
PLAN_1
 62
     2
  6
CONTINUOUS
 10
-0.158571
 20
2.326791
  0
VERTEX
  8
PLAN_1
 62
     2
  6
CONTINUOUS
 10
-0.161524
 20
2.323346
  0
VERTEX
  8
PLAN_1
 62
     2
  6
CONTINUOUS
 10
-0.164969
 20
2.320390
  0
VERTEX
  8
PLAN_1
 62
     2
  6
CONTINUOUS
 10
-0.168906
 20
2.318421
  0
VERTEX
  8
PLAN_1
 62
     2
  6
CONTINUOUS
 10
-0.173339
 20
2.317437
  0
VERTEX
  8
PLAN_1
 62
     2
  6
CONTINUOUS
 10
-0.178752
 20
2.316945
  0
SEQEND
  8
0
  0
POLYLINE
  8
PLAN_1
 62
     2
  6
CONTINUOUS
 66
     1
 40
0.003000
 41
0.003000
  0
VERTEX
  8
PLAN_1
 62
     2
  6
CONTINUOUS
 10
-0.179736
 20
2.355343
  0
VERTEX
  8
PLAN_1
 62
     2
  6
CONTINUOUS
 10
-0.183181
 20
2.355343
  0
VERTEX
  8
PLAN_1
 62
     2
  6
CONTINUOUS
 10
-0.185646
 20
2.354358
  0
VERTEX
  8
PLAN_1
 62
     2
  6
CONTINUOUS
 10
-0.188598
 20
2.353374
  0
VERTEX
  8
PLAN_1
 62
     2
  6
CONTINUOUS
 10
-0.190567
 20
2.351898
  0
VERTEX
  8
PLAN_1
 62
     2
  6
CONTINUOUS
 10
-0.192535
 20
2.349929
  0
VERTEX
  8
PLAN_1
 62
     2
  6
CONTINUOUS
 10
-0.194012
 20
2.347469
  0
VERTEX
  8
PLAN_1
 62
     2
  6
CONTINUOUS
 10
-0.194996
 20
2.344020
  0
VERTEX
  8
PLAN_1
 62
     2
  6
CONTINUOUS
 10
-0.195488
 20
2.340575
  0
VERTEX
  8
PLAN_1
 62
     2
  6
CONTINUOUS
 10
-0.194996
 20
2.337622
  0
VERTEX
  8
PLAN_1
 62
     2
  6
CONTINUOUS
 10
-0.194504
 20
2.334669
  0
VERTEX
  8
PLAN_1
 62
     2
  6
CONTINUOUS
 10
-0.193028
 20
2.332205
  0
VERTEX
  8
PLAN_1
 62
     2
  6
CONTINUOUS
 10
-0.191059
 20
2.330236
  0
VERTEX
  8
PLAN_1
 62
     2
  6
CONTINUOUS
 10
-0.188598
 20
2.328760
  0
VERTEX
  8
PLAN_1
 62
     2
  6
CONTINUOUS
 10
-0.185646
 20
2.327283
  0
VERTEX
  8
PLAN_1
 62
     2
  6
CONTINUOUS
 10
-0.182689
 20
2.326791
  0
VERTEX
  8
PLAN_1
 62
     2
  6
CONTINUOUS
 10
-0.179244
 20
2.326299
  0
VERTEX
  8
PLAN_1
 62
     2
  6
CONTINUOUS
 10
-0.174323
 20
2.326791
  0
VERTEX
  8
PLAN_1
 62
     2
  6
CONTINUOUS
 10
-0.170874
 20
2.327776
  0
VERTEX
  8
PLAN_1
 62
     2
  6
CONTINUOUS
 10
-0.167921
 20
2.329252
  0
VERTEX
  8
PLAN_1
 62
     2
  6
CONTINUOUS
 10
-0.165953
 20
2.331713
  0
VERTEX
  8
PLAN_1
 62
     2
  6
CONTINUOUS
 10
-0.164476
 20
2.333681
  0
VERTEX
  8
PLAN_1
 62
     2
  6
CONTINUOUS
 10
-0.163984
 20
2.336146
  0
VERTEX
  8
PLAN_1
 62
     2
  6
CONTINUOUS
 10
-0.163492
 20
2.339098
  0
VERTEX
  8
PLAN_1
 62
     2
  6
CONTINUOUS
 10
-0.163000
 20
2.341067
  0
VERTEX
  8
PLAN_1
 62
     2
  6
CONTINUOUS
 10
-0.163492
 20
2.343035
  0
VERTEX
  8
PLAN_1
 62
     2
  6
CONTINUOUS
 10
-0.163984
 20
2.345496
  0
VERTEX
  8
PLAN_1
 62
     2
  6
CONTINUOUS
 10
-0.164476
 20
2.347961
  0
VERTEX
  8
PLAN_1
 62
     2
  6
CONTINUOUS
 10
-0.165953
 20
2.349929
  0
VERTEX
  8
PLAN_1
 62
     2
  6
CONTINUOUS
 10
-0.168413
 20
2.351898
  0
VERTEX
  8
PLAN_1
 62
     2
  6
CONTINUOUS
 10
-0.171370
 20
2.353866
  0
VERTEX
  8
PLAN_1
 62
     2
  6
CONTINUOUS
 10
-0.174815
 20
2.354850
  0
VERTEX
  8
PLAN_1
 62
     2
  6
CONTINUOUS
 10
-0.179736
 20
2.355343
  0
SEQEND
  8
0
  0
POLYLINE
  8
PLAN_1
 62
     2
  6
CONTINUOUS
 66
     1
 40
0.003000
 41
0.003000
  0
VERTEX
  8
PLAN_1
 62
     2
  6
CONTINUOUS
 10
-0.141831
 20
2.379465
  0
VERTEX
  8
PLAN_1
 62
     2
  6
CONTINUOUS
 10
-0.141831
 20
2.390295
  0
VERTEX
  8
PLAN_1
 62
     2
  6
CONTINUOUS
 10
-0.131492
 20
2.390295
  0
VERTEX
  8
PLAN_1
 62
     2
  6
CONTINUOUS
 10
-0.126571
 20
2.389803
  0
VERTEX
  8
PLAN_1
 62
     2
  6
CONTINUOUS
 10
-0.123126
 20
2.388819
  0
VERTEX
  8
PLAN_1
 62
     2
  6
CONTINUOUS
 10
-0.120169
 20
2.387343
  0
VERTEX
  8
PLAN_1
 62
     2
  6
CONTINUOUS
 10
-0.118201
 20
2.385866
  0
VERTEX
  8
PLAN_1
 62
     2
  6
CONTINUOUS
 10
-0.116724
 20
2.383898
  0
VERTEX
  8
PLAN_1
 62
     2
  6
CONTINUOUS
 10
-0.115740
 20
2.381925
  0
VERTEX
  8
PLAN_1
 62
     2
  6
CONTINUOUS
 10
-0.115248
 20
2.380449
  0
VERTEX
  8
PLAN_1
 62
     2
  6
CONTINUOUS
 10
-0.115248
 20
2.379465
  0
VERTEX
  8
PLAN_1
 62
     2
  6
CONTINUOUS
 10
-0.120169
 20
2.379465
  0
VERTEX
  8
PLAN_1
 62
     2
  6
CONTINUOUS
 10
-0.120661
 20
2.380941
  0
VERTEX
  8
PLAN_1
 62
     2
  6
CONTINUOUS
 10
-0.121154
 20
2.382417
  0
VERTEX
  8
PLAN_1
 62
     2
  6
CONTINUOUS
 10
-0.122142
 20
2.383402
  0
VERTEX
  8
PLAN_1
 62
     2
  6
CONTINUOUS
 10
-0.123618
 20
2.383898
  0
VERTEX
  8
PLAN_1
 62
     2
  6
CONTINUOUS
 10
-0.125094
 20
2.384390
  0
VERTEX
  8
PLAN_1
 62
     2
  6
CONTINUOUS
 10
-0.127063
 20
2.384882
  0
VERTEX
  8
PLAN_1
 62
     2
  6
CONTINUOUS
 10
-0.128539
 20
2.384882
  0
VERTEX
  8
PLAN_1
 62
     2
  6
CONTINUOUS
 10
-0.130508
 20
2.384882
  0
VERTEX
  8
PLAN_1
 62
     2
  6
CONTINUOUS
 10
-0.130508
 20
2.379465
  0
VERTEX
  8
PLAN_1
 62
     2
  6
CONTINUOUS
 10
-0.141831
 20
2.379465
  0
SEQEND
  8
0
  0
POLYLINE
  8
PLAN_1
 62
     2
  6
CONTINUOUS
 66
     1
 40
0.003000
 41
0.003000
  0
VERTEX
  8
PLAN_1
 62
     2
  6
CONTINUOUS
 10
-0.173339
 20
2.414909
  0
VERTEX
  8
PLAN_1
 62
     2
  6
CONTINUOUS
 10
-0.173831
 20
2.415894
  0
VERTEX
  8
PLAN_1
 62
     2
  6
CONTINUOUS
 10
-0.174815
 20
2.417370
  0
VERTEX
  8
PLAN_1
 62
     2
  6
CONTINUOUS
 10
-0.175799
 20
2.418846
  0
VERTEX
  8
PLAN_1
 62
     2
  6
CONTINUOUS
 10
-0.176291
 20
2.420323
  0
VERTEX
  8
PLAN_1
 62
     2
  6
CONTINUOUS
 10
-0.176783
 20
2.422295
  0
VERTEX
  8
PLAN_1
 62
     2
  6
CONTINUOUS
 10
-0.177276
 20
2.424264
  0
VERTEX
  8
PLAN_1
 62
     2
  6
CONTINUOUS
 10
-0.177768
 20
2.426232
  0
VERTEX
  8
PLAN_1
 62
     2
  6
CONTINUOUS
 10
-0.177768
 20
2.428693
  0
VERTEX
  8
PLAN_1
 62
     2
  6
CONTINUOUS
 10
-0.177276
 20
2.433126
  0
VERTEX
  8
PLAN_1
 62
     2
  6
CONTINUOUS
 10
-0.176291
 20
2.437555
  0
VERTEX
  8
PLAN_1
 62
     2
  6
CONTINUOUS
 10
-0.174323
 20
2.441492
  0
VERTEX
  8
PLAN_1
 62
     2
  6
CONTINUOUS
 10
-0.171862
 20
2.445429
  0
VERTEX
  8
PLAN_1
 62
     2
  6
CONTINUOUS
 10
-0.168413
 20
2.448386
  0
VERTEX
  8
PLAN_1
 62
     2
  6
CONTINUOUS
 10
-0.164476
 20
2.450846
  0
VERTEX
  8
PLAN_1
 62
     2
  6
CONTINUOUS
 10
-0.162016
 20
2.451831
  0
VERTEX
  8
PLAN_1
 62
     2
  6
CONTINUOUS
 10
-0.159555
 20
2.452323
  0
VERTEX
  8
PLAN_1
 62
     2
  6
CONTINUOUS
 10
-0.157091
 20
2.452815
  0
VERTEX
  8
PLAN_1
 62
     2
  6
CONTINUOUS
 10
-0.154138
 20
2.452815
  0
VERTEX
  8
PLAN_1
 62
     2
  6
CONTINUOUS
 10
-0.150693
 20
2.452815
  0
VERTEX
  8
PLAN_1
 62
     2
  6
CONTINUOUS
 10
-0.146756
 20
2.451831
  0
VERTEX
  8
PLAN_1
 62
     2
  6
CONTINUOUS
 10
-0.142815
 20
2.450354
  0
VERTEX
  8
PLAN_1
 62
     2
  6
CONTINUOUS
 10
-0.138386
 20
2.448386
  0
VERTEX
  8
PLAN_1
 62
     2
  6
CONTINUOUS
 10
-0.136417
 20
2.446417
  0
VERTEX
  8
PLAN_1
 62
     2
  6
CONTINUOUS
 10
-0.134449
 20
2.444937
  0
VERTEX
  8
PLAN_1
 62
     2
  6
CONTINUOUS
 10
-0.132969
 20
2.442476
  0
VERTEX
  8
PLAN_1
 62
     2
  6
CONTINUOUS
 10
-0.131492
 20
2.440016
  0
VERTEX
  8
PLAN_1
 62
     2
  6
CONTINUOUS
 10
-0.130508
 20
2.437063
  0
VERTEX
  8
PLAN_1
 62
     2
  6
CONTINUOUS
 10
-0.129524
 20
2.434110
  0
VERTEX
  8
PLAN_1
 62
     2
  6
CONTINUOUS
 10
-0.129031
 20
2.430169
  0
VERTEX
  8
PLAN_1
 62
     2
  6
CONTINUOUS
 10
-0.128539
 20
2.426232
  0
VERTEX
  8
PLAN_1
 62
     2
  6
CONTINUOUS
 10
-0.129031
 20
2.422787
  0
VERTEX
  8
PLAN_1
 62
     2
  6
CONTINUOUS
 10
-0.129524
 20
2.418846
  0
VERTEX
  8
PLAN_1
 62
     2
  6
CONTINUOUS
 10
-0.130508
 20
2.414909
  0
VERTEX
  8
PLAN_1
 62
     2
  6
CONTINUOUS
 10
-0.132476
 20
2.411465
  0
VERTEX
  8
PLAN_1
 62
     2
  6
CONTINUOUS
 10
-0.135433
 20
2.408512
  0
VERTEX
  8
PLAN_1
 62
     2
  6
CONTINUOUS
 10
-0.138878
 20
2.405555
  0
VERTEX
  8
PLAN_1
 62
     2
  6
CONTINUOUS
 10
-0.140846
 20
2.404571
  0
VERTEX
  8
PLAN_1
 62
     2
  6
CONTINUOUS
 10
-0.143307
 20
2.404079
  0
VERTEX
  8
PLAN_1
 62
     2
  6
CONTINUOUS
 10
-0.145768
 20
2.403094
  0
VERTEX
  8
PLAN_1
 62
     2
  6
CONTINUOUS
 10
-0.148724
 20
2.402602
  0
VERTEX
  8
PLAN_1
 62
     2
  6
CONTINUOUS
 10
-0.148724
 20
2.411957
  0
VERTEX
  8
PLAN_1
 62
     2
  6
CONTINUOUS
 10
-0.145768
 20
2.412941
  0
VERTEX
  8
PLAN_1
 62
     2
  6
CONTINUOUS
 10
-0.143307
 20
2.413925
  0
VERTEX
  8
PLAN_1
 62
     2
  6
CONTINUOUS
 10
-0.141339
 20
2.415402
  0
VERTEX
  8
PLAN_1
 62
     2
  6
CONTINUOUS
 10
-0.139370
 20
2.417370
  0
VERTEX
  8
PLAN_1
 62
     2
  6
CONTINUOUS
 10
-0.138386
 20
2.419339
  0
VERTEX
  8
PLAN_1
 62
     2
  6
CONTINUOUS
 10
-0.137402
 20
2.421803
  0
VERTEX
  8
PLAN_1
 62
     2
  6
CONTINUOUS
 10
-0.136909
 20
2.424756
  0
VERTEX
  8
PLAN_1
 62
     2
  6
CONTINUOUS
 10
-0.136417
 20
2.427709
  0
VERTEX
  8
PLAN_1
 62
     2
  6
CONTINUOUS
 10
-0.136909
 20
2.431154
  0
VERTEX
  8
PLAN_1
 62
     2
  6
CONTINUOUS
 10
-0.137894
 20
2.434110
  0
VERTEX
  8
PLAN_1
 62
     2
  6
CONTINUOUS
 10
-0.139370
 20
2.436571
  0
VERTEX
  8
PLAN_1
 62
     2
  6
CONTINUOUS
 10
-0.141339
 20
2.439031
  0
VERTEX
  8
PLAN_1
 62
     2
  6
CONTINUOUS
 10
-0.143799
 20
2.440508
  0
VERTEX
  8
PLAN_1
 62
     2
  6
CONTINUOUS
 10
-0.146756
 20
2.441984
  0
VERTEX
  8
PLAN_1
 62
     2
  6
CONTINUOUS
 10
-0.149709
 20
2.442969
  0
VERTEX
  8
PLAN_1
 62
     2
  6
CONTINUOUS
 10
-0.153154
 20
2.442969
  0
VERTEX
  8
PLAN_1
 62
     2
  6
CONTINUOUS
 10
-0.157091
 20
2.442969
  0
VERTEX
  8
PLAN_1
 62
     2
  6
CONTINUOUS
 10
-0.160047
 20
2.441984
  0
VERTEX
  8
PLAN_1
 62
     2
  6
CONTINUOUS
 10
-0.163000
 20
2.440508
  0
VERTEX
  8
PLAN_1
 62
     2
  6
CONTINUOUS
 10
-0.165461
 20
2.438539
  0
VERTEX
  8
PLAN_1
 62
     2
  6
CONTINUOUS
 10
-0.166937
 20
2.436079
  0
VERTEX
  8
PLAN_1
 62
     2
  6
CONTINUOUS
 10
-0.168413
 20
2.433126
  0
VERTEX
  8
PLAN_1
 62
     2
  6
CONTINUOUS
 10
-0.169398
 20
2.430169
  0
VERTEX
  8
PLAN_1
 62
     2
  6
CONTINUOUS
 10
-0.169398
 20
2.426724
  0
VERTEX
  8
PLAN_1
 62
     2
  6
CONTINUOUS
 10
-0.169398
 20
2.424756
  0
VERTEX
  8
PLAN_1
 62
     2
  6
CONTINUOUS
 10
-0.168906
 20
2.422787
  0
VERTEX
  8
PLAN_1
 62
     2
  6
CONTINUOUS
 10
-0.168413
 20
2.421311
  0
VERTEX
  8
PLAN_1
 62
     2
  6
CONTINUOUS
 10
-0.167921
 20
2.419339
  0
VERTEX
  8
PLAN_1
 62
     2
  6
CONTINUOUS
 10
-0.166445
 20
2.417862
  0
VERTEX
  8
PLAN_1
 62
     2
  6
CONTINUOUS
 10
-0.165461
 20
2.415894
  0
VERTEX
  8
PLAN_1
 62
     2
  6
CONTINUOUS
 10
-0.163984
 20
2.414909
  0
VERTEX
  8
PLAN_1
 62
     2
  6
CONTINUOUS
 10
-0.162508
 20
2.413433
  0
VERTEX
  8
PLAN_1
 62
     2
  6
CONTINUOUS
 10
-0.163000
 20
2.405555
  0
VERTEX
  8
PLAN_1
 62
     2
  6
CONTINUOUS
 10
-0.202382
 20
2.410972
  0
VERTEX
  8
PLAN_1
 62
     2
  6
CONTINUOUS
 10
-0.202382
 20
2.448878
  0
VERTEX
  8
PLAN_1
 62
     2
  6
CONTINUOUS
 10
-0.193028
 20
2.448878
  0
VERTEX
  8
PLAN_1
 62
     2
  6
CONTINUOUS
 10
-0.193028
 20
2.417862
  0
VERTEX
  8
PLAN_1
 62
     2
  6
CONTINUOUS
 10
-0.173339
 20
2.414909
  0
SEQEND
  8
0
  0
POLYLINE
  8
PLAN_1
 62
     2
  6
CONTINUOUS
 66
     1
 40
0.003937
 41
0.003937
  0
VERTEX
  8
PLAN_1
 62
     2
  6
CONTINUOUS
 10
-1.035323
 20
0.826315
  0
VERTEX
  8
PLAN_1
 62
     2
  6
CONTINUOUS
 10
-0.083248
 20
0.826315
  0
SEQEND
  8
0
  0
POLYLINE
  8
PLAN_1
 62
     2
  6
CONTINUOUS
 66
     1
 40
0.003937
 41
0.003937
  0
VERTEX
  8
PLAN_1
 62
     2
  6
CONTINUOUS
 10
-0.994957
 20
3.690413
  0
VERTEX
  8
PLAN_1
 62
     2
  6
CONTINUOUS
 10
0.074280
 20
3.690413
  0
SEQEND
  8
0
  0
POLYLINE
  8
PLAN_1
 62
     2
  6
CONTINUOUS
 66
     1
 40
0.003937
 41
0.003937
  0
VERTEX
  8
PLAN_1
 62
     2
  6
CONTINUOUS
 10
-0.435232
 20
0.087398
  0
VERTEX
  8
PLAN_1
 62
     2
  6
CONTINUOUS
 10
0.074280
 20
0.087398
  0
SEQEND
  8
0
  0
ENDSEC
  0
EOF
