  0
SECTION
  2
HEADER
  9
$ACADVER
  1
AC1006
  9
$EXTMIN
 10
-2.560000
 20
-4.351606
  9
$EXTMAX
 10
2.555000
 20
4.352000
  9
$LTSCALE
 40
0.000394
  9
$PDMODE
 70
    35
  9
$PDSIZE
 40
0.000315
  0
ENDSEC
  0
SECTION
  2
TABLES
  0
TABLE
  2
LTYPE
 70
     9
  0
LTYPE
  2
CONTINUOUS
 70
    64
  3
Solid line
 72
    65
 73
     0
 40
0.000000
  0
LTYPE
  2
DASHED
 70
    64
  3
__ __ __ __ __ __ __ __ __ __ __ __ __ __ __
 72
    65
 73
     2
 40
0.000003
 49
0.000002
 49
-0.000001
  0
LTYPE
  2
HIDDEN
 70
    64
  3
 _ _ _ _ _ _ _ _ _ _ _ _ _ _ _ _ _ _ _ _ _ _
 72
    65
 73
     2
 40
0.000001
 49
0.000001
 49
-0.000000
  0
LTYPE
  2
CENTER
 70
    64
  3
____ _ ____ _ ____ _ ____ _ ____ _ ____ _ ____
 72
    65
 73
     4
 40
0.000008
 49
0.000005
 49
-0.000001
 49
0.000001
 49
-0.000001
  0
LTYPE
  2
PHANTOM
 70
    64
  3
_____ _ _ _____ _ _ _____ _ _ _____ _ _ ____
 72
    65
 73
     6
 40
0.000010
 49
0.000005
 49
-0.000001
 49
0.000001
 49
-0.000001
 49
0.000001
 49
-0.000001
  0
LTYPE
  2
DOT
 70
    64
  3
...............................................
 72
    65
 73
     2
 40
0.000001
 49
0.000000
 49
-0.000001
  0
LTYPE
  2
DASHDOT
 70
    64
  3
__ . __ . __ . __ . __ . __ . __ . __ . __ . __
 72
    65
 73
     4
 40
0.000004
 49
0.000002
 49
-0.000001
 49
0.000000
 49
-0.000001
  0
LTYPE
  2
BORDER
 70
    64
  3
__ __ . __ __ . __ __ . __ __ . __ __ . __ __
 72
    65
 73
     6
 40
0.000007
 49
0.000002
 49
-0.000001
 49
0.000002
 49
-0.000001
 49
0.000000
 49
-0.000001
  0
LTYPE
  2
DIVIDE
 70
    64
  3
__ . . __ . . __ . . __ . . __ . . __ . . __
 72
    65
 73
     6
 40
0.000005
 49
0.000002
 49
-0.000001
 49
0.000000
 49
-0.000001
 49
0.000000
 49
-0.000001
  0
LTYPE
  2
DOTDOT
 70
    64
  3
 . .  . .  . .  . .  . .  . . 
 72
    65
 73
     5
 40
0.000002
 49
-0.000001
 49
0.000000
 49
-0.000001
 49
0.000000
 49
-0.000001
  0
ENDTAB
  0
TABLE
  2
STYLE
 70
     0
  0
ENDTAB
  0
TABLE
  2
LAYER
 70
     3
  0
LAYER
  2
FOREGROUND
 70
    64
 62
     7
  6
CONTINUOUS
  0
LAYER
  2
BACKGROUND
 70
    65
 62
    -7
  6
CONTINUOUS
  0
LAYER
  2
PLAN_1
 70
    64
 62
     7
  6
CONTINUOUS
  0
ENDTAB
  0
ENDSEC
  0
SECTION
  2
ENTITIES
  0
POLYLINE
  8
PLAN_1
  6
CONTINUOUS
 66
     1
 40
0.003000
 41
0.003000
  0
VERTEX
  8
PLAN_1
  6
CONTINUOUS
 10
0.486807
 20
-4.346165
  0
VERTEX
  8
PLAN_1
  6
CONTINUOUS
 10
0.453622
 20
-4.346165
  0
VERTEX
  8
PLAN_1
  6
CONTINUOUS
 10
0.399772
 20
-4.264571
  0
VERTEX
  8
PLAN_1
  6
CONTINUOUS
 10
0.344283
 20
-4.346165
  0
VERTEX
  8
PLAN_1
  6
CONTINUOUS
 10
0.312189
 20
-4.346165
  0
VERTEX
  8
PLAN_1
  6
CONTINUOUS
 10
0.383449
 20
-4.244441
  0
VERTEX
  8
PLAN_1
  6
CONTINUOUS
 10
0.316543
 20
-4.147071
  0
VERTEX
  8
PLAN_1
  6
CONTINUOUS
 10
0.350268
 20
-4.147071
  0
VERTEX
  8
PLAN_1
  6
CONTINUOUS
 10
0.400858
 20
-4.223228
  0
VERTEX
  8
PLAN_1
  6
CONTINUOUS
 10
0.451449
 20
-4.147071
  0
VERTEX
  8
PLAN_1
  6
CONTINUOUS
 10
0.483543
 20
-4.147071
  0
VERTEX
  8
PLAN_1
  6
CONTINUOUS
 10
0.416634
 20
-4.244441
  0
VERTEX
  8
PLAN_1
  6
CONTINUOUS
 10
0.486807
 20
-4.346165
  0
SEQEND
  8
0
  0
POLYLINE
  8
PLAN_1
  6
CONTINUOUS
 66
     1
 40
0.003000
 41
0.003000
  0
VERTEX
  8
PLAN_1
  6
CONTINUOUS
 10
0.653264
 20
-4.206909
  0
VERTEX
  8
PLAN_1
  6
CONTINUOUS
 10
0.651630
 20
-4.200925
  0
VERTEX
  8
PLAN_1
  6
CONTINUOUS
 10
0.649453
 20
-4.194941
  0
VERTEX
  8
PLAN_1
  6
CONTINUOUS
 10
0.646736
 20
-4.190043
  0
VERTEX
  8
PLAN_1
  6
CONTINUOUS
 10
0.644016
 20
-4.185693
  0
VERTEX
  8
PLAN_1
  6
CONTINUOUS
 10
0.640752
 20
-4.181886
  0
VERTEX
  8
PLAN_1
  6
CONTINUOUS
 10
0.636945
 20
-4.178622
  0
VERTEX
  8
PLAN_1
  6
CONTINUOUS
 10
0.633134
 20
-4.175902
  0
VERTEX
  8
PLAN_1
  6
CONTINUOUS
 10
0.629327
 20
-4.173181
  0
VERTEX
  8
PLAN_1
  6
CONTINUOUS
 10
0.625520
 20
-4.171004
  0
VERTEX
  8
PLAN_1
  6
CONTINUOUS
 10
0.621169
 20
-4.169374
  0
VERTEX
  8
PLAN_1
  6
CONTINUOUS
 10
0.617358
 20
-4.168287
  0
VERTEX
  8
PLAN_1
  6
CONTINUOUS
 10
0.613008
 20
-4.167197
  0
VERTEX
  8
PLAN_1
  6
CONTINUOUS
 10
0.604850
 20
-4.166110
  0
VERTEX
  8
PLAN_1
  6
CONTINUOUS
 10
0.597232
 20
-4.165567
  0
VERTEX
  8
PLAN_1
  6
CONTINUOUS
 10
0.590705
 20
-4.166110
  0
VERTEX
  8
PLAN_1
  6
CONTINUOUS
 10
0.584177
 20
-4.166654
  0
VERTEX
  8
PLAN_1
  6
CONTINUOUS
 10
0.577650
 20
-4.168287
  0
VERTEX
  8
PLAN_1
  6
CONTINUOUS
 10
0.571665
 20
-4.170461
  0
VERTEX
  8
PLAN_1
  6
CONTINUOUS
 10
0.566224
 20
-4.173181
  0
VERTEX
  8
PLAN_1
  6
CONTINUOUS
 10
0.560787
 20
-4.176988
  0
VERTEX
  8
PLAN_1
  6
CONTINUOUS
 10
0.555890
 20
-4.180795
  0
VERTEX
  8
PLAN_1
  6
CONTINUOUS
 10
0.550996
 20
-4.185693
  0
VERTEX
  8
PLAN_1
  6
CONTINUOUS
 10
0.546642
 20
-4.190587
  0
VERTEX
  8
PLAN_1
  6
CONTINUOUS
 10
0.543378
 20
-4.196571
  0
VERTEX
  8
PLAN_1
  6
CONTINUOUS
 10
0.540114
 20
-4.203098
  0
VERTEX
  8
PLAN_1
  6
CONTINUOUS
 10
0.536850
 20
-4.210173
  0
VERTEX
  8
PLAN_1
  6
CONTINUOUS
 10
0.534677
 20
-4.217787
  0
VERTEX
  8
PLAN_1
  6
CONTINUOUS
 10
0.533587
 20
-4.226492
  0
VERTEX
  8
PLAN_1
  6
CONTINUOUS
 10
0.532500
 20
-4.235193
  0
VERTEX
  8
PLAN_1
  6
CONTINUOUS
 10
0.531957
 20
-4.244984
  0
VERTEX
  8
PLAN_1
  6
CONTINUOUS
 10
0.531957
 20
-4.253146
  0
VERTEX
  8
PLAN_1
  6
CONTINUOUS
 10
0.533043
 20
-4.261850
  0
VERTEX
  8
PLAN_1
  6
CONTINUOUS
 10
0.534130
 20
-4.270008
  0
VERTEX
  8
PLAN_1
  6
CONTINUOUS
 10
0.535220
 20
-4.277626
  0
VERTEX
  8
PLAN_1
  6
CONTINUOUS
 10
0.537394
 20
-4.284697
  0
VERTEX
  8
PLAN_1
  6
CONTINUOUS
 10
0.540114
 20
-4.291768
  0
VERTEX
  8
PLAN_1
  6
CONTINUOUS
 10
0.542835
 20
-4.297752
  0
VERTEX
  8
PLAN_1
  6
CONTINUOUS
 10
0.546642
 20
-4.303736
  0
VERTEX
  8
PLAN_1
  6
CONTINUOUS
 10
0.550453
 20
-4.309173
  0
VERTEX
  8
PLAN_1
  6
CONTINUOUS
 10
0.555346
 20
-4.314071
  0
VERTEX
  8
PLAN_1
  6
CONTINUOUS
 10
0.560787
 20
-4.317878
  0
VERTEX
  8
PLAN_1
  6
CONTINUOUS
 10
0.566772
 20
-4.321142
  0
VERTEX
  8
PLAN_1
  6
CONTINUOUS
 10
0.573843
 20
-4.323862
  0
VERTEX
  8
PLAN_1
  6
CONTINUOUS
 10
0.580913
 20
-4.326039
  0
VERTEX
  8
PLAN_1
  6
CONTINUOUS
 10
0.589075
 20
-4.327126
  0
VERTEX
  8
PLAN_1
  6
CONTINUOUS
 10
0.598319
 20
-4.327669
  0
VERTEX
  8
PLAN_1
  6
CONTINUOUS
 10
0.605394
 20
-4.327126
  0
VERTEX
  8
PLAN_1
  6
CONTINUOUS
 10
0.613008
 20
-4.325496
  0
VERTEX
  8
PLAN_1
  6
CONTINUOUS
 10
0.617358
 20
-4.324406
  0
VERTEX
  8
PLAN_1
  6
CONTINUOUS
 10
0.621169
 20
-4.322776
  0
VERTEX
  8
PLAN_1
  6
CONTINUOUS
 10
0.625520
 20
-4.320598
  0
VERTEX
  8
PLAN_1
  6
CONTINUOUS
 10
0.629870
 20
-4.317878
  0
VERTEX
  8
PLAN_1
  6
CONTINUOUS
 10
0.633681
 20
-4.314614
  0
VERTEX
  8
PLAN_1
  6
CONTINUOUS
 10
0.637488
 20
-4.310807
  0
VERTEX
  8
PLAN_1
  6
CONTINUOUS
 10
0.641295
 20
-4.306457
  0
VERTEX
  8
PLAN_1
  6
CONTINUOUS
 10
0.644559
 20
-4.301016
  0
VERTEX
  8
PLAN_1
  6
CONTINUOUS
 10
0.647823
 20
-4.295575
  0
VERTEX
  8
PLAN_1
  6
CONTINUOUS
 10
0.650543
 20
-4.288504
  0
VERTEX
  8
PLAN_1
  6
CONTINUOUS
 10
0.653264
 20
-4.281433
  0
VERTEX
  8
PLAN_1
  6
CONTINUOUS
 10
0.654894
 20
-4.273272
  0
VERTEX
  8
PLAN_1
  6
CONTINUOUS
 10
0.681004
 20
-4.273272
  0
VERTEX
  8
PLAN_1
  6
CONTINUOUS
 10
0.679917
 20
-4.279799
  0
VERTEX
  8
PLAN_1
  6
CONTINUOUS
 10
0.678283
 20
-4.286327
  0
VERTEX
  8
PLAN_1
  6
CONTINUOUS
 10
0.676654
 20
-4.292311
  0
VERTEX
  8
PLAN_1
  6
CONTINUOUS
 10
0.674476
 20
-4.298295
  0
VERTEX
  8
PLAN_1
  6
CONTINUOUS
 10
0.672303
 20
-4.303193
  0
VERTEX
  8
PLAN_1
  6
CONTINUOUS
 10
0.670126
 20
-4.308087
  0
VERTEX
  8
PLAN_1
  6
CONTINUOUS
 10
0.667406
 20
-4.312984
  0
VERTEX
  8
PLAN_1
  6
CONTINUOUS
 10
0.664685
 20
-4.317335
  0
VERTEX
  8
PLAN_1
  6
CONTINUOUS
 10
0.661965
 20
-4.321142
  0
VERTEX
  8
PLAN_1
  6
CONTINUOUS
 10
0.658701
 20
-4.324406
  0
VERTEX
  8
PLAN_1
  6
CONTINUOUS
 10
0.655980
 20
-4.327669
  0
VERTEX
  8
PLAN_1
  6
CONTINUOUS
 10
0.652717
 20
-4.330933
  0
VERTEX
  8
PLAN_1
  6
CONTINUOUS
 10
0.645646
 20
-4.336374
  0
VERTEX
  8
PLAN_1
  6
CONTINUOUS
 10
0.639118
 20
-4.340724
  0
VERTEX
  8
PLAN_1
  6
CONTINUOUS
 10
0.632047
 20
-4.343988
  0
VERTEX
  8
PLAN_1
  6
CONTINUOUS
 10
0.624976
 20
-4.346709
  0
VERTEX
  8
PLAN_1
  6
CONTINUOUS
 10
0.618449
 20
-4.348343
  0
VERTEX
  8
PLAN_1
  6
CONTINUOUS
 10
0.612465
 20
-4.349972
  0
VERTEX
  8
PLAN_1
  6
CONTINUOUS
 10
0.601583
 20
-4.351063
  0
VERTEX
  8
PLAN_1
  6
CONTINUOUS
 10
0.593969
 20
-4.351606
  0
VERTEX
  8
PLAN_1
  6
CONTINUOUS
 10
0.585264
 20
-4.351063
  0
VERTEX
  8
PLAN_1
  6
CONTINUOUS
 10
0.577106
 20
-4.349972
  0
VERTEX
  8
PLAN_1
  6
CONTINUOUS
 10
0.568945
 20
-4.348343
  0
VERTEX
  8
PLAN_1
  6
CONTINUOUS
 10
0.560787
 20
-4.345622
  0
VERTEX
  8
PLAN_1
  6
CONTINUOUS
 10
0.553169
 20
-4.342358
  0
VERTEX
  8
PLAN_1
  6
CONTINUOUS
 10
0.545555
 20
-4.338004
  0
VERTEX
  8
PLAN_1
  6
CONTINUOUS
 10
0.538484
 20
-4.333110
  0
VERTEX
  8
PLAN_1
  6
CONTINUOUS
 10
0.531957
 20
-4.327126
  0
VERTEX
  8
PLAN_1
  6
CONTINUOUS
 10
0.525972
 20
-4.320598
  0
VERTEX
  8
PLAN_1
  6
CONTINUOUS
 10
0.520531
 20
-4.312984
  0
VERTEX
  8
PLAN_1
  6
CONTINUOUS
 10
0.516181
 20
-4.304280
  0
VERTEX
  8
PLAN_1
  6
CONTINUOUS
 10
0.511827
 20
-4.294488
  0
VERTEX
  8
PLAN_1
  6
CONTINUOUS
 10
0.508563
 20
-4.283610
  0
VERTEX
  8
PLAN_1
  6
CONTINUOUS
 10
0.506390
 20
-4.272185
  0
VERTEX
  8
PLAN_1
  6
CONTINUOUS
 10
0.504756
 20
-4.259130
  0
VERTEX
  8
PLAN_1
  6
CONTINUOUS
 10
0.504213
 20
-4.245531
  0
VERTEX
  8
PLAN_1
  6
CONTINUOUS
 10
0.504756
 20
-4.234106
  0
VERTEX
  8
PLAN_1
  6
CONTINUOUS
 10
0.505846
 20
-4.223228
  0
VERTEX
  8
PLAN_1
  6
CONTINUOUS
 10
0.508020
 20
-4.213437
  0
VERTEX
  8
PLAN_1
  6
CONTINUOUS
 10
0.510740
 20
-4.203646
  0
VERTEX
  8
PLAN_1
  6
CONTINUOUS
 10
0.514004
 20
-4.194398
  0
VERTEX
  8
PLAN_1
  6
CONTINUOUS
 10
0.518358
 20
-4.185693
  0
VERTEX
  8
PLAN_1
  6
CONTINUOUS
 10
0.523252
 20
-4.178079
  0
VERTEX
  8
PLAN_1
  6
CONTINUOUS
 10
0.529236
 20
-4.170461
  0
VERTEX
  8
PLAN_1
  6
CONTINUOUS
 10
0.535220
 20
-4.163933
  0
VERTEX
  8
PLAN_1
  6
CONTINUOUS
 10
0.542291
 20
-4.158492
  0
VERTEX
  8
PLAN_1
  6
CONTINUOUS
 10
0.549906
 20
-4.153598
  0
VERTEX
  8
PLAN_1
  6
CONTINUOUS
 10
0.558067
 20
-4.149248
  0
VERTEX
  8
PLAN_1
  6
CONTINUOUS
 10
0.567315
 20
-4.145984
  0
VERTEX
  8
PLAN_1
  6
CONTINUOUS
 10
0.576563
 20
-4.143807
  0
VERTEX
  8
PLAN_1
  6
CONTINUOUS
 10
0.586354
 20
-4.142173
  0
VERTEX
  8
PLAN_1
  6
CONTINUOUS
 10
0.597232
 20
-4.141630
  0
VERTEX
  8
PLAN_1
  6
CONTINUOUS
 10
0.606480
 20
-4.142173
  0
VERTEX
  8
PLAN_1
  6
CONTINUOUS
 10
0.615185
 20
-4.143264
  0
VERTEX
  8
PLAN_1
  6
CONTINUOUS
 10
0.623343
 20
-4.144894
  0
VERTEX
  8
PLAN_1
  6
CONTINUOUS
 10
0.630961
 20
-4.147071
  0
VERTEX
  8
PLAN_1
  6
CONTINUOUS
 10
0.638031
 20
-4.150335
  0
VERTEX
  8
PLAN_1
  6
CONTINUOUS
 10
0.644559
 20
-4.153598
  0
VERTEX
  8
PLAN_1
  6
CONTINUOUS
 10
0.650543
 20
-4.157406
  0
VERTEX
  8
PLAN_1
  6
CONTINUOUS
 10
0.655980
 20
-4.161756
  0
VERTEX
  8
PLAN_1
  6
CONTINUOUS
 10
0.660878
 20
-4.166654
  0
VERTEX
  8
PLAN_1
  6
CONTINUOUS
 10
0.665228
 20
-4.171551
  0
VERTEX
  8
PLAN_1
  6
CONTINUOUS
 10
0.668492
 20
-4.176988
  0
VERTEX
  8
PLAN_1
  6
CONTINUOUS
 10
0.671756
 20
-4.182972
  0
VERTEX
  8
PLAN_1
  6
CONTINUOUS
 10
0.674476
 20
-4.188413
  0
VERTEX
  8
PLAN_1
  6
CONTINUOUS
 10
0.676654
 20
-4.194398
  0
VERTEX
  8
PLAN_1
  6
CONTINUOUS
 10
0.678283
 20
-4.200925
  0
VERTEX
  8
PLAN_1
  6
CONTINUOUS
 10
0.679374
 20
-4.206909
  0
VERTEX
  8
PLAN_1
  6
CONTINUOUS
 10
0.653264
 20
-4.206909
  0
SEQEND
  8
0
  0
POLYLINE
  8
PLAN_1
  6
CONTINUOUS
 66
     1
 40
0.003000
 41
0.003000
  0
VERTEX
  8
PLAN_1
  6
CONTINUOUS
 10
0.740299
 20
-4.346165
  0
VERTEX
  8
PLAN_1
  6
CONTINUOUS
 10
0.713642
 20
-4.346165
  0
VERTEX
  8
PLAN_1
  6
CONTINUOUS
 10
0.713642
 20
-4.147071
  0
VERTEX
  8
PLAN_1
  6
CONTINUOUS
 10
0.740299
 20
-4.147071
  0
VERTEX
  8
PLAN_1
  6
CONTINUOUS
 10
0.740299
 20
-4.243354
  0
VERTEX
  8
PLAN_1
  6
CONTINUOUS
 10
0.837126
 20
-4.147071
  0
VERTEX
  8
PLAN_1
  6
CONTINUOUS
 10
0.874118
 20
-4.147071
  0
VERTEX
  8
PLAN_1
  6
CONTINUOUS
 10
0.791433
 20
-4.227579
  0
VERTEX
  8
PLAN_1
  6
CONTINUOUS
 10
0.876835
 20
-4.346165
  0
VERTEX
  8
PLAN_1
  6
CONTINUOUS
 10
0.841476
 20
-4.346165
  0
VERTEX
  8
PLAN_1
  6
CONTINUOUS
 10
0.771850
 20
-4.246618
  0
VERTEX
  8
PLAN_1
  6
CONTINUOUS
 10
0.740299
 20
-4.276535
  0
VERTEX
  8
PLAN_1
  6
CONTINUOUS
 10
0.740299
 20
-4.346165
  0
SEQEND
  8
0
  0
POLYLINE
  8
PLAN_1
  6
CONTINUOUS
 66
     1
 40
0.003000
 41
0.003000
  0
VERTEX
  8
PLAN_1
  6
CONTINUOUS
 10
0.907843
 20
-4.281976
  0
VERTEX
  8
PLAN_1
  6
CONTINUOUS
 10
0.907843
 20
-4.296118
  0
VERTEX
  8
PLAN_1
  6
CONTINUOUS
 10
0.907843
 20
-4.300472
  0
VERTEX
  8
PLAN_1
  6
CONTINUOUS
 10
0.908386
 20
-4.304280
  0
VERTEX
  8
PLAN_1
  6
CONTINUOUS
 10
0.908929
 20
-4.308087
  0
VERTEX
  8
PLAN_1
  6
CONTINUOUS
 10
0.910020
 20
-4.311350
  0
VERTEX
  8
PLAN_1
  6
CONTINUOUS
 10
0.911106
 20
-4.314071
  0
VERTEX
  8
PLAN_1
  6
CONTINUOUS
 10
0.912193
 20
-4.316791
  0
VERTEX
  8
PLAN_1
  6
CONTINUOUS
 10
0.913827
 20
-4.318969
  0
VERTEX
  8
PLAN_1
  6
CONTINUOUS
 10
0.916004
 20
-4.321142
  0
VERTEX
  8
PLAN_1
  6
CONTINUOUS
 10
0.917634
 20
-4.323319
  0
VERTEX
  8
PLAN_1
  6
CONTINUOUS
 10
0.919811
 20
-4.324406
  0
VERTEX
  8
PLAN_1
  6
CONTINUOUS
 10
0.922531
 20
-4.326039
  0
VERTEX
  8
PLAN_1
  6
CONTINUOUS
 10
0.925248
 20
-4.326583
  0
VERTEX
  8
PLAN_1
  6
CONTINUOUS
 10
0.931232
 20
-4.328213
  0
VERTEX
  8
PLAN_1
  6
CONTINUOUS
 10
0.937760
 20
-4.328760
  0
VERTEX
  8
PLAN_1
  6
CONTINUOUS
 10
0.942114
 20
-4.328213
  0
VERTEX
  8
PLAN_1
  6
CONTINUOUS
 10
0.946465
 20
-4.327669
  0
VERTEX
  8
PLAN_1
  6
CONTINUOUS
 10
0.949728
 20
-4.327126
  0
VERTEX
  8
PLAN_1
  6
CONTINUOUS
 10
0.952992
 20
-4.326039
  0
VERTEX
  8
PLAN_1
  6
CONTINUOUS
 10
0.956256
 20
-4.324406
  0
VERTEX
  8
PLAN_1
  6
CONTINUOUS
 10
0.958976
 20
-4.322776
  0
VERTEX
  8
PLAN_1
  6
CONTINUOUS
 10
0.961154
 20
-4.320598
  0
VERTEX
  8
PLAN_1
  6
CONTINUOUS
 10
0.963327
 20
-4.318421
  0
VERTEX
  8
PLAN_1
  6
CONTINUOUS
 10
0.964961
 20
-4.316248
  0
VERTEX
  8
PLAN_1
  6
CONTINUOUS
 10
0.966047
 20
-4.313528
  0
VERTEX
  8
PLAN_1
  6
CONTINUOUS
 10
0.967138
 20
-4.310807
  0
VERTEX
  8
PLAN_1
  6
CONTINUOUS
 10
0.968224
 20
-4.307543
  0
VERTEX
  8
PLAN_1
  6
CONTINUOUS
 10
0.969311
 20
-4.301016
  0
VERTEX
  8
PLAN_1
  6
CONTINUOUS
 10
0.969854
 20
-4.293945
  0
VERTEX
  8
PLAN_1
  6
CONTINUOUS
 10
0.969854
 20
-4.147071
  0
VERTEX
  8
PLAN_1
  6
CONTINUOUS
 10
0.996512
 20
-4.147071
  0
VERTEX
  8
PLAN_1
  6
CONTINUOUS
 10
0.996512
 20
-4.292311
  0
VERTEX
  8
PLAN_1
  6
CONTINUOUS
 10
0.995969
 20
-4.301016
  0
VERTEX
  8
PLAN_1
  6
CONTINUOUS
 10
0.995421
 20
-4.308630
  0
VERTEX
  8
PLAN_1
  6
CONTINUOUS
 10
0.993791
 20
-4.315157
  0
VERTEX
  8
PLAN_1
  6
CONTINUOUS
 10
0.991614
 20
-4.321142
  0
VERTEX
  8
PLAN_1
  6
CONTINUOUS
 10
0.988894
 20
-4.327126
  0
VERTEX
  8
PLAN_1
  6
CONTINUOUS
 10
0.985630
 20
-4.331476
  0
VERTEX
  8
PLAN_1
  6
CONTINUOUS
 10
0.981823
 20
-4.335831
  0
VERTEX
  8
PLAN_1
  6
CONTINUOUS
 10
0.978016
 20
-4.339638
  0
VERTEX
  8
PLAN_1
  6
CONTINUOUS
 10
0.973665
 20
-4.342358
  0
VERTEX
  8
PLAN_1
  6
CONTINUOUS
 10
0.969311
 20
-4.345079
  0
VERTEX
  8
PLAN_1
  6
CONTINUOUS
 10
0.964417
 20
-4.347252
  0
VERTEX
  8
PLAN_1
  6
CONTINUOUS
 10
0.959520
 20
-4.348886
  0
VERTEX
  8
PLAN_1
  6
CONTINUOUS
 10
0.954626
 20
-4.349972
  0
VERTEX
  8
PLAN_1
  6
CONTINUOUS
 10
0.949185
 20
-4.351063
  0
VERTEX
  8
PLAN_1
  6
CONTINUOUS
 10
0.944287
 20
-4.351606
  0
VERTEX
  8
PLAN_1
  6
CONTINUOUS
 10
0.938850
 20
-4.351606
  0
VERTEX
  8
PLAN_1
  6
CONTINUOUS
 10
0.930689
 20
-4.351063
  0
VERTEX
  8
PLAN_1
  6
CONTINUOUS
 10
0.923618
 20
-4.349972
  0
VERTEX
  8
PLAN_1
  6
CONTINUOUS
 10
0.916547
 20
-4.348886
  0
VERTEX
  8
PLAN_1
  6
CONTINUOUS
 10
0.910563
 20
-4.346709
  0
VERTEX
  8
PLAN_1
  6
CONTINUOUS
 10
0.905665
 20
-4.343988
  0
VERTEX
  8
PLAN_1
  6
CONTINUOUS
 10
0.900772
 20
-4.340724
  0
VERTEX
  8
PLAN_1
  6
CONTINUOUS
 10
0.896965
 20
-4.337461
  0
VERTEX
  8
PLAN_1
  6
CONTINUOUS
 10
0.893154
 20
-4.333654
  0
VERTEX
  8
PLAN_1
  6
CONTINUOUS
 10
0.890437
 20
-4.329846
  0
VERTEX
  8
PLAN_1
  6
CONTINUOUS
 10
0.888260
 20
-4.326039
  0
VERTEX
  8
PLAN_1
  6
CONTINUOUS
 10
0.886083
 20
-4.321685
  0
VERTEX
  8
PLAN_1
  6
CONTINUOUS
 10
0.884996
 20
-4.317335
  0
VERTEX
  8
PLAN_1
  6
CONTINUOUS
 10
0.883909
 20
-4.313528
  0
VERTEX
  8
PLAN_1
  6
CONTINUOUS
 10
0.882819
 20
-4.309173
  0
VERTEX
  8
PLAN_1
  6
CONTINUOUS
 10
0.882819
 20
-4.305366
  0
VERTEX
  8
PLAN_1
  6
CONTINUOUS
 10
0.882276
 20
-4.302102
  0
VERTEX
  8
PLAN_1
  6
CONTINUOUS
 10
0.882276
 20
-4.281976
  0
VERTEX
  8
PLAN_1
  6
CONTINUOUS
 10
0.907843
 20
-4.281976
  0
SEQEND
  8
0
  0
POLYLINE
  8
PLAN_1
  6
CONTINUOUS
 66
     1
 40
0.003000
 41
0.003000
  0
VERTEX
  8
PLAN_1
  6
CONTINUOUS
 10
1.200500
 20
-4.192220
  0
VERTEX
  8
PLAN_1
  6
CONTINUOUS
 10
1.218996
 20
-4.192220
  0
VERTEX
  8
PLAN_1
  6
CONTINUOUS
 10
1.215189
 20
-4.206909
  0
VERTEX
  8
PLAN_1
  6
CONTINUOUS
 10
1.210839
 20
-4.221594
  0
VERTEX
  8
PLAN_1
  6
CONTINUOUS
 10
1.206484
 20
-4.235740
  0
VERTEX
  8
PLAN_1
  6
CONTINUOUS
 10
1.202677
 20
-4.248795
  0
VERTEX
  8
PLAN_1
  6
CONTINUOUS
 10
1.199413
 20
-4.260760
  0
VERTEX
  8
PLAN_1
  6
CONTINUOUS
 10
1.196693
 20
-4.270551
  0
VERTEX
  8
PLAN_1
  6
CONTINUOUS
 10
1.195063
 20
-4.278169
  0
VERTEX
  8
PLAN_1
  6
CONTINUOUS
 10
1.194516
 20
-4.282520
  0
VERTEX
  8
PLAN_1
  6
CONTINUOUS
 10
1.194516
 20
-4.284154
  0
VERTEX
  8
PLAN_1
  6
CONTINUOUS
 10
1.194516
 20
-4.285783
  0
VERTEX
  8
PLAN_1
  6
CONTINUOUS
 10
1.195063
 20
-4.287417
  0
VERTEX
  8
PLAN_1
  6
CONTINUOUS
 10
1.195606
 20
-4.288504
  0
VERTEX
  8
PLAN_1
  6
CONTINUOUS
 10
1.196150
 20
-4.289591
  0
VERTEX
  8
PLAN_1
  6
CONTINUOUS
 10
1.197236
 20
-4.290138
  0
VERTEX
  8
PLAN_1
  6
CONTINUOUS
 10
1.198327
 20
-4.290681
  0
VERTEX
  8
PLAN_1
  6
CONTINUOUS
 10
1.199957
 20
-4.290681
  0
VERTEX
  8
PLAN_1
  6
CONTINUOUS
 10
1.203764
 20
-4.290138
  0
VERTEX
  8
PLAN_1
  6
CONTINUOUS
 10
1.207028
 20
-4.289047
  0
VERTEX
  8
PLAN_1
  6
CONTINUOUS
 10
1.210839
 20
-4.287417
  0
VERTEX
  8
PLAN_1
  6
CONTINUOUS
 10
1.214102
 20
-4.285240
  0
VERTEX
  8
PLAN_1
  6
CONTINUOUS
 10
1.217366
 20
-4.282520
  0
VERTEX
  8
PLAN_1
  6
CONTINUOUS
 10
1.220630
 20
-4.279256
  0
VERTEX
  8
PLAN_1
  6
CONTINUOUS
 10
1.223894
 20
-4.275992
  0
VERTEX
  8
PLAN_1
  6
CONTINUOUS
 10
1.227157
 20
-4.271642
  0
VERTEX
  8
PLAN_1
  6
CONTINUOUS
 10
1.229331
 20
-4.267287
  0
VERTEX
  8
PLAN_1
  6
CONTINUOUS
 10
1.232051
 20
-4.262394
  0
VERTEX
  8
PLAN_1
  6
CONTINUOUS
 10
1.234228
 20
-4.257496
  0
VERTEX
  8
PLAN_1
  6
CONTINUOUS
 10
1.235858
 20
-4.252602
  0
VERTEX
  8
PLAN_1
  6
CONTINUOUS
 10
1.237492
 20
-4.247161
  0
VERTEX
  8
PLAN_1
  6
CONTINUOUS
 10
1.238579
 20
-4.241720
  0
VERTEX
  8
PLAN_1
  6
CONTINUOUS
 10
1.239122
 20
-4.236283
  0
VERTEX
  8
PLAN_1
  6
CONTINUOUS
 10
1.239669
 20
-4.230843
  0
VERTEX
  8
PLAN_1
  6
CONTINUOUS
 10
1.239122
 20
-4.222685
  0
VERTEX
  8
PLAN_1
  6
CONTINUOUS
 10
1.238035
 20
-4.214524
  0
VERTEX
  8
PLAN_1
  6
CONTINUOUS
 10
1.235858
 20
-4.207453
  0
VERTEX
  8
PLAN_1
  6
CONTINUOUS
 10
1.233142
 20
-4.200925
  0
VERTEX
  8
PLAN_1
  6
CONTINUOUS
 10
1.229878
 20
-4.194398
  0
VERTEX
  8
PLAN_1
  6
CONTINUOUS
 10
1.226067
 20
-4.188413
  0
VERTEX
  8
PLAN_1
  6
CONTINUOUS
 10
1.221717
 20
-4.182972
  0
VERTEX
  8
PLAN_1
  6
CONTINUOUS
 10
1.216276
 20
-4.178079
  0
VERTEX
  8
PLAN_1
  6
CONTINUOUS
 10
1.210839
 20
-4.173724
  0
VERTEX
  8
PLAN_1
  6
CONTINUOUS
 10
1.204854
 20
-4.169917
  0
VERTEX
  8
PLAN_1
  6
CONTINUOUS
 10
1.198870
 20
-4.166654
  0
VERTEX
  8
PLAN_1
  6
CONTINUOUS
 10
1.191799
 20
-4.163933
  0
VERTEX
  8
PLAN_1
  6
CONTINUOUS
 10
1.184724
 20
-4.161756
  0
VERTEX
  8
PLAN_1
  6
CONTINUOUS
 10
1.177654
 20
-4.160126
  0
VERTEX
  8
PLAN_1
  6
CONTINUOUS
 10
1.170039
 20
-4.159039
  0
VERTEX
  8
PLAN_1
  6
CONTINUOUS
 10
1.161878
 20
-4.159039
  0
VERTEX
  8
PLAN_1
  6
CONTINUOUS
 10
1.153177
 20
-4.159583
  0
VERTEX
  8
PLAN_1
  6
CONTINUOUS
 10
1.144472
 20
-4.160669
  0
VERTEX
  8
PLAN_1
  6
CONTINUOUS
 10
1.135768
 20
-4.162846
  0
VERTEX
  8
PLAN_1
  6
CONTINUOUS
 10
1.128154
 20
-4.166110
  0
VERTEX
  8
PLAN_1
  6
CONTINUOUS
 10
1.120535
 20
-4.169917
  0
VERTEX
  8
PLAN_1
  6
CONTINUOUS
 10
1.113465
 20
-4.174268
  0
VERTEX
  8
PLAN_1
  6
CONTINUOUS
 10
1.107480
 20
-4.179165
  0
VERTEX
  8
PLAN_1
  6
CONTINUOUS
 10
1.101496
 20
-4.185150
  0
VERTEX
  8
PLAN_1
  6
CONTINUOUS
 10
1.096059
 20
-4.191134
  0
VERTEX
  8
PLAN_1
  6
CONTINUOUS
 10
1.091161
 20
-4.198205
  0
VERTEX
  8
PLAN_1
  6
CONTINUOUS
 10
1.087354
 20
-4.205276
  0
VERTEX
  8
PLAN_1
  6
CONTINUOUS
 10
1.084091
 20
-4.213437
  0
VERTEX
  8
PLAN_1
  6
CONTINUOUS
 10
1.081370
 20
-4.221594
  0
VERTEX
  8
PLAN_1
  6
CONTINUOUS
 10
1.079197
 20
-4.229756
  0
VERTEX
  8
PLAN_1
  6
CONTINUOUS
 10
1.078106
 20
-4.238457
  0
VERTEX
  8
PLAN_1
  6
CONTINUOUS
 10
1.077563
 20
-4.247705
  0
VERTEX
  8
PLAN_1
  6
CONTINUOUS
 10
1.078106
 20
-4.256953
  0
VERTEX
  8
PLAN_1
  6
CONTINUOUS
 10
1.079197
 20
-4.265657
  0
VERTEX
  8
PLAN_1
  6
CONTINUOUS
 10
1.081370
 20
-4.273815
  0
VERTEX
  8
PLAN_1
  6
CONTINUOUS
 10
1.084091
 20
-4.281976
  0
VERTEX
  8
PLAN_1
  6
CONTINUOUS
 10
1.087898
 20
-4.289591
  0
VERTEX
  8
PLAN_1
  6
CONTINUOUS
 10
1.092252
 20
-4.296665
  0
VERTEX
  8
PLAN_1
  6
CONTINUOUS
 10
1.097146
 20
-4.303193
  0
VERTEX
  8
PLAN_1
  6
CONTINUOUS
 10
1.102587
 20
-4.309720
  0
VERTEX
  8
PLAN_1
  6
CONTINUOUS
 10
1.108571
 20
-4.315157
  0
VERTEX
  8
PLAN_1
  6
CONTINUOUS
 10
1.115098
 20
-4.320055
  0
VERTEX
  8
PLAN_1
  6
CONTINUOUS
 10
1.122713
 20
-4.324406
  0
VERTEX
  8
PLAN_1
  6
CONTINUOUS
 10
1.129783
 20
-4.327669
  0
VERTEX
  8
PLAN_1
  6
CONTINUOUS
 10
1.137945
 20
-4.330390
  0
VERTEX
  8
PLAN_1
  6
CONTINUOUS
 10
1.146102
 20
-4.332567
  0
VERTEX
  8
PLAN_1
  6
CONTINUOUS
 10
1.154807
 20
-4.334197
  0
VERTEX
  8
PLAN_1
  6
CONTINUOUS
 10
1.164055
 20
-4.334197
  0
VERTEX
  8
PLAN_1
  6
CONTINUOUS
 10
1.168953
 20
-4.334197
  0
VERTEX
  8
PLAN_1
  6
CONTINUOUS
 10
1.173846
 20
-4.333654
  0
VERTEX
  8
PLAN_1
  6
CONTINUOUS
 10
1.178744
 20
-4.333110
  0
VERTEX
  8
PLAN_1
  6
CONTINUOUS
 10
1.183094
 20
-4.332024
  0
VERTEX
  8
PLAN_1
  6
CONTINUOUS
 10
1.192343
 20
-4.329303
  0
VERTEX
  8
PLAN_1
  6
CONTINUOUS
 10
1.201591
 20
-4.326039
  0
VERTEX
  8
PLAN_1
  6
CONTINUOUS
 10
1.209748
 20
-4.321142
  0
VERTEX
  8
PLAN_1
  6
CONTINUOUS
 10
1.217909
 20
-4.315705
  0
VERTEX
  8
PLAN_1
  6
CONTINUOUS
 10
1.221717
 20
-4.312984
  0
VERTEX
  8
PLAN_1
  6
CONTINUOUS
 10
1.224980
 20
-4.309720
  0
VERTEX
  8
PLAN_1
  6
CONTINUOUS
 10
1.228244
 20
-4.306457
  0
VERTEX
  8
PLAN_1
  6
CONTINUOUS
 10
1.231508
 20
-4.302646
  0
VERTEX
  8
PLAN_1
  6
CONTINUOUS
 10
1.250004
 20
-4.302646
  0
VERTEX
  8
PLAN_1
  6
CONTINUOUS
 10
1.246740
 20
-4.308087
  0
VERTEX
  8
PLAN_1
  6
CONTINUOUS
 10
1.242386
 20
-4.313528
  0
VERTEX
  8
PLAN_1
  6
CONTINUOUS
 10
1.238579
 20
-4.318421
  0
VERTEX
  8
PLAN_1
  6
CONTINUOUS
 10
1.233685
 20
-4.323319
  0
VERTEX
  8
PLAN_1
  6
CONTINUOUS
 10
1.229331
 20
-4.327669
  0
VERTEX
  8
PLAN_1
  6
CONTINUOUS
 10
1.223894
 20
-4.331476
  0
VERTEX
  8
PLAN_1
  6
CONTINUOUS
 10
1.218996
 20
-4.335287
  0
VERTEX
  8
PLAN_1
  6
CONTINUOUS
 10
1.213555
 20
-4.338551
  0
VERTEX
  8
PLAN_1
  6
CONTINUOUS
 10
1.207575
 20
-4.341272
  0
VERTEX
  8
PLAN_1
  6
CONTINUOUS
 10
1.201591
 20
-4.343988
  0
VERTEX
  8
PLAN_1
  6
CONTINUOUS
 10
1.195606
 20
-4.346165
  0
VERTEX
  8
PLAN_1
  6
CONTINUOUS
 10
1.189622
 20
-4.348343
  0
VERTEX
  8
PLAN_1
  6
CONTINUOUS
 10
1.183094
 20
-4.349429
  0
VERTEX
  8
PLAN_1
  6
CONTINUOUS
 10
1.176567
 20
-4.350516
  0
VERTEX
  8
PLAN_1
  6
CONTINUOUS
 10
1.170039
 20
-4.351606
  0
VERTEX
  8
PLAN_1
  6
CONTINUOUS
 10
1.163512
 20
-4.351606
  0
VERTEX
  8
PLAN_1
  6
CONTINUOUS
 10
1.152630
 20
-4.351063
  0
VERTEX
  8
PLAN_1
  6
CONTINUOUS
 10
1.141752
 20
-4.349429
  0
VERTEX
  8
PLAN_1
  6
CONTINUOUS
 10
1.131417
 20
-4.346709
  0
VERTEX
  8
PLAN_1
  6
CONTINUOUS
 10
1.121626
 20
-4.343445
  0
VERTEX
  8
PLAN_1
  6
CONTINUOUS
 10
1.112378
 20
-4.339094
  0
VERTEX
  8
PLAN_1
  6
CONTINUOUS
 10
1.103673
 20
-4.333654
  0
VERTEX
  8
PLAN_1
  6
CONTINUOUS
 10
1.095516
 20
-4.327669
  0
VERTEX
  8
PLAN_1
  6
CONTINUOUS
 10
1.088441
 20
-4.321142
  0
VERTEX
  8
PLAN_1
  6
CONTINUOUS
 10
1.081370
 20
-4.313528
  0
VERTEX
  8
PLAN_1
  6
CONTINUOUS
 10
1.075386
 20
-4.305366
  0
VERTEX
  8
PLAN_1
  6
CONTINUOUS
 10
1.069949
 20
-4.296665
  0
VERTEX
  8
PLAN_1
  6
CONTINUOUS
 10
1.065594
 20
-4.287417
  0
VERTEX
  8
PLAN_1
  6
CONTINUOUS
 10
1.062331
 20
-4.277626
  0
VERTEX
  8
PLAN_1
  6
CONTINUOUS
 10
1.059610
 20
-4.267835
  0
VERTEX
  8
PLAN_1
  6
CONTINUOUS
 10
1.057980
 20
-4.256953
  0
VERTEX
  8
PLAN_1
  6
CONTINUOUS
 10
1.057437
 20
-4.246075
  0
VERTEX
  8
PLAN_1
  6
CONTINUOUS
 10
1.057980
 20
-4.235193
  0
VERTEX
  8
PLAN_1
  6
CONTINUOUS
 10
1.059610
 20
-4.224858
  0
VERTEX
  8
PLAN_1
  6
CONTINUOUS
 10
1.062331
 20
-4.215067
  0
VERTEX
  8
PLAN_1
  6
CONTINUOUS
 10
1.065594
 20
-4.205276
  0
VERTEX
  8
PLAN_1
  6
CONTINUOUS
 10
1.069949
 20
-4.196028
  0
VERTEX
  8
PLAN_1
  6
CONTINUOUS
 10
1.075386
 20
-4.187870
  0
VERTEX
  8
PLAN_1
  6
CONTINUOUS
 10
1.081370
 20
-4.179709
  0
VERTEX
  8
PLAN_1
  6
CONTINUOUS
 10
1.088441
 20
-4.172094
  0
VERTEX
  8
PLAN_1
  6
CONTINUOUS
 10
1.095516
 20
-4.165567
  0
VERTEX
  8
PLAN_1
  6
CONTINUOUS
 10
1.103673
 20
-4.159583
  0
VERTEX
  8
PLAN_1
  6
CONTINUOUS
 10
1.112378
 20
-4.154142
  0
VERTEX
  8
PLAN_1
  6
CONTINUOUS
 10
1.121626
 20
-4.149791
  0
VERTEX
  8
PLAN_1
  6
CONTINUOUS
 10
1.131417
 20
-4.146528
  0
VERTEX
  8
PLAN_1
  6
CONTINUOUS
 10
1.141209
 20
-4.143807
  0
VERTEX
  8
PLAN_1
  6
CONTINUOUS
 10
1.151543
 20
-4.142173
  0
VERTEX
  8
PLAN_1
  6
CONTINUOUS
 10
1.161878
 20
-4.141630
  0
VERTEX
  8
PLAN_1
  6
CONTINUOUS
 10
1.171669
 20
-4.142173
  0
VERTEX
  8
PLAN_1
  6
CONTINUOUS
 10
1.180917
 20
-4.143264
  0
VERTEX
  8
PLAN_1
  6
CONTINUOUS
 10
1.190165
 20
-4.145437
  0
VERTEX
  8
PLAN_1
  6
CONTINUOUS
 10
1.198870
 20
-4.148157
  0
VERTEX
  8
PLAN_1
  6
CONTINUOUS
 10
1.207028
 20
-4.151421
  0
VERTEX
  8
PLAN_1
  6
CONTINUOUS
 10
1.214646
 20
-4.155776
  0
VERTEX
  8
PLAN_1
  6
CONTINUOUS
 10
1.222260
 20
-4.160669
  0
VERTEX
  8
PLAN_1
  6
CONTINUOUS
 10
1.229331
 20
-4.166110
  0
VERTEX
  8
PLAN_1
  6
CONTINUOUS
 10
1.235315
 20
-4.172094
  0
VERTEX
  8
PLAN_1
  6
CONTINUOUS
 10
1.240756
 20
-4.178622
  0
VERTEX
  8
PLAN_1
  6
CONTINUOUS
 10
1.245650
 20
-4.185693
  0
VERTEX
  8
PLAN_1
  6
CONTINUOUS
 10
1.250004
 20
-4.193307
  0
VERTEX
  8
PLAN_1
  6
CONTINUOUS
 10
1.253268
 20
-4.201469
  0
VERTEX
  8
PLAN_1
  6
CONTINUOUS
 10
1.255445
 20
-4.210173
  0
VERTEX
  8
PLAN_1
  6
CONTINUOUS
 10
1.257075
 20
-4.218874
  0
VERTEX
  8
PLAN_1
  6
CONTINUOUS
 10
1.257618
 20
-4.228122
  0
VERTEX
  8
PLAN_1
  6
CONTINUOUS
 10
1.257075
 20
-4.237370
  0
VERTEX
  8
PLAN_1
  6
CONTINUOUS
 10
1.255988
 20
-4.246075
  0
VERTEX
  8
PLAN_1
  6
CONTINUOUS
 10
1.253811
 20
-4.254232
  0
VERTEX
  8
PLAN_1
  6
CONTINUOUS
 10
1.250547
 20
-4.261850
  0
VERTEX
  8
PLAN_1
  6
CONTINUOUS
 10
1.247283
 20
-4.269465
  0
VERTEX
  8
PLAN_1
  6
CONTINUOUS
 10
1.242933
 20
-4.275992
  0
VERTEX
  8
PLAN_1
  6
CONTINUOUS
 10
1.238579
 20
-4.281976
  0
VERTEX
  8
PLAN_1
  6
CONTINUOUS
 10
1.233685
 20
-4.287417
  0
VERTEX
  8
PLAN_1
  6
CONTINUOUS
 10
1.228244
 20
-4.292311
  0
VERTEX
  8
PLAN_1
  6
CONTINUOUS
 10
1.222803
 20
-4.296665
  0
VERTEX
  8
PLAN_1
  6
CONTINUOUS
 10
1.217366
 20
-4.299929
  0
VERTEX
  8
PLAN_1
  6
CONTINUOUS
 10
1.211925
 20
-4.303193
  0
VERTEX
  8
PLAN_1
  6
CONTINUOUS
 10
1.206484
 20
-4.305366
  0
VERTEX
  8
PLAN_1
  6
CONTINUOUS
 10
1.201047
 20
-4.307000
  0
VERTEX
  8
PLAN_1
  6
CONTINUOUS
 10
1.196150
 20
-4.308087
  0
VERTEX
  8
PLAN_1
  6
CONTINUOUS
 10
1.191252
 20
-4.308630
  0
VERTEX
  8
PLAN_1
  6
CONTINUOUS
 10
1.187988
 20
-4.308087
  0
VERTEX
  8
PLAN_1
  6
CONTINUOUS
 10
1.184724
 20
-4.307543
  0
VERTEX
  8
PLAN_1
  6
CONTINUOUS
 10
1.181461
 20
-4.306457
  0
VERTEX
  8
PLAN_1
  6
CONTINUOUS
 10
1.179287
 20
-4.304280
  0
VERTEX
  8
PLAN_1
  6
CONTINUOUS
 10
1.177110
 20
-4.302102
  0
VERTEX
  8
PLAN_1
  6
CONTINUOUS
 10
1.174933
 20
-4.298839
  0
VERTEX
  8
PLAN_1
  6
CONTINUOUS
 10
1.173846
 20
-4.295031
  0
VERTEX
  8
PLAN_1
  6
CONTINUOUS
 10
1.173303
 20
-4.291224
  0
VERTEX
  8
PLAN_1
  6
CONTINUOUS
 10
1.172760
 20
-4.291224
  0
VERTEX
  8
PLAN_1
  6
CONTINUOUS
 10
1.169496
 20
-4.294488
  0
VERTEX
  8
PLAN_1
  6
CONTINUOUS
 10
1.166232
 20
-4.297752
  0
VERTEX
  8
PLAN_1
  6
CONTINUOUS
 10
1.162421
 20
-4.300472
  0
VERTEX
  8
PLAN_1
  6
CONTINUOUS
 10
1.158071
 20
-4.303193
  0
VERTEX
  8
PLAN_1
  6
CONTINUOUS
 10
1.153720
 20
-4.305366
  0
VERTEX
  8
PLAN_1
  6
CONTINUOUS
 10
1.149366
 20
-4.307000
  0
VERTEX
  8
PLAN_1
  6
CONTINUOUS
 10
1.144472
 20
-4.308087
  0
VERTEX
  8
PLAN_1
  6
CONTINUOUS
 10
1.139575
 20
-4.308630
  0
VERTEX
  8
PLAN_1
  6
CONTINUOUS
 10
1.135224
 20
-4.308087
  0
VERTEX
  8
PLAN_1
  6
CONTINUOUS
 10
1.130874
 20
-4.307543
  0
VERTEX
  8
PLAN_1
  6
CONTINUOUS
 10
1.127063
 20
-4.306457
  0
VERTEX
  8
PLAN_1
  6
CONTINUOUS
 10
1.123256
 20
-4.304823
  0
VERTEX
  8
PLAN_1
  6
CONTINUOUS
 10
1.119449
 20
-4.303193
  0
VERTEX
  8
PLAN_1
  6
CONTINUOUS
 10
1.116185
 20
-4.301016
  0
VERTEX
  8
PLAN_1
  6
CONTINUOUS
 10
1.112921
 20
-4.298295
  0
VERTEX
  8
PLAN_1
  6
CONTINUOUS
 10
1.110201
 20
-4.295575
  0
VERTEX
  8
PLAN_1
  6
CONTINUOUS
 10
1.107480
 20
-4.292311
  0
VERTEX
  8
PLAN_1
  6
CONTINUOUS
 10
1.105307
 20
-4.289047
  0
VERTEX
  8
PLAN_1
  6
CONTINUOUS
 10
1.103673
 20
-4.285240
  0
VERTEX
  8
PLAN_1
  6
CONTINUOUS
 10
1.102043
 20
-4.281433
  0
VERTEX
  8
PLAN_1
  6
CONTINUOUS
 10
1.100409
 20
-4.277079
  0
VERTEX
  8
PLAN_1
  6
CONTINUOUS
 10
1.099323
 20
-4.273272
  0
VERTEX
  8
PLAN_1
  6
CONTINUOUS
 10
1.098780
 20
-4.268921
  0
VERTEX
  8
PLAN_1
  6
CONTINUOUS
 10
1.098780
 20
-4.264024
  0
VERTEX
  8
PLAN_1
  6
CONTINUOUS
 10
1.099323
 20
-4.256953
  0
VERTEX
  8
PLAN_1
  6
CONTINUOUS
 10
1.099866
 20
-4.249882
  0
VERTEX
  8
PLAN_1
  6
CONTINUOUS
 10
1.101496
 20
-4.243354
  0
VERTEX
  8
PLAN_1
  6
CONTINUOUS
 10
1.103130
 20
-4.236283
  0
VERTEX
  8
PLAN_1
  6
CONTINUOUS
 10
1.105850
 20
-4.229756
  0
VERTEX
  8
PLAN_1
  6
CONTINUOUS
 10
1.109114
 20
-4.223228
  0
VERTEX
  8
PLAN_1
  6
CONTINUOUS
 10
1.112378
 20
-4.217244
  0
VERTEX
  8
PLAN_1
  6
CONTINUOUS
 10
1.116185
 20
-4.211803
  0
VERTEX
  8
PLAN_1
  6
CONTINUOUS
 10
1.121083
 20
-4.206362
  0
VERTEX
  8
PLAN_1
  6
CONTINUOUS
 10
1.125433
 20
-4.202012
  0
VERTEX
  8
PLAN_1
  6
CONTINUOUS
 10
1.130874
 20
-4.197661
  0
VERTEX
  8
PLAN_1
  6
CONTINUOUS
 10
1.136858
 20
-4.194398
  0
VERTEX
  8
PLAN_1
  6
CONTINUOUS
 10
1.142839
 20
-4.191677
  0
VERTEX
  8
PLAN_1
  6
CONTINUOUS
 10
1.148823
 20
-4.189500
  0
VERTEX
  8
PLAN_1
  6
CONTINUOUS
 10
1.155894
 20
-4.187870
  0
VERTEX
  8
PLAN_1
  6
CONTINUOUS
 10
1.162969
 20
-4.187323
  0
VERTEX
  8
PLAN_1
  6
CONTINUOUS
 10
1.167862
 20
-4.187870
  0
VERTEX
  8
PLAN_1
  6
CONTINUOUS
 10
1.172760
 20
-4.188957
  0
VERTEX
  8
PLAN_1
  6
CONTINUOUS
 10
1.177110
 20
-4.190043
  0
VERTEX
  8
PLAN_1
  6
CONTINUOUS
 10
1.180917
 20
-4.192764
  0
VERTEX
  8
PLAN_1
  6
CONTINUOUS
 10
1.185272
 20
-4.195484
  0
VERTEX
  8
PLAN_1
  6
CONTINUOUS
 10
1.188535
 20
-4.199291
  0
VERTEX
  8
PLAN_1
  6
CONTINUOUS
 10
1.191799
 20
-4.203646
  0
VERTEX
  8
PLAN_1
  6
CONTINUOUS
 10
1.195063
 20
-4.209083
  0
VERTEX
  8
PLAN_1
  6
CONTINUOUS
 10
1.200500
 20
-4.192220
  0
SEQEND
  8
0
  0
POLYLINE
  8
PLAN_1
  6
CONTINUOUS
 66
     1
 40
0.003000
 41
0.003000
  0
VERTEX
  8
PLAN_1
  6
CONTINUOUS
 10
1.163512
 20
-4.207453
  0
VERTEX
  8
PLAN_1
  6
CONTINUOUS
 10
1.159157
 20
-4.207996
  0
VERTEX
  8
PLAN_1
  6
CONTINUOUS
 10
1.154807
 20
-4.209083
  0
VERTEX
  8
PLAN_1
  6
CONTINUOUS
 10
1.150457
 20
-4.210717
  0
VERTEX
  8
PLAN_1
  6
CONTINUOUS
 10
1.146650
 20
-4.212890
  0
VERTEX
  8
PLAN_1
  6
CONTINUOUS
 10
1.142839
 20
-4.215610
  0
VERTEX
  8
PLAN_1
  6
CONTINUOUS
 10
1.139575
 20
-4.218331
  0
VERTEX
  8
PLAN_1
  6
CONTINUOUS
 10
1.136311
 20
-4.222138
  0
VERTEX
  8
PLAN_1
  6
CONTINUOUS
 10
1.133047
 20
-4.225949
  0
VERTEX
  8
PLAN_1
  6
CONTINUOUS
 10
1.130874
 20
-4.230299
  0
VERTEX
  8
PLAN_1
  6
CONTINUOUS
 10
1.128154
 20
-4.234650
  0
VERTEX
  8
PLAN_1
  6
CONTINUOUS
 10
1.126520
 20
-4.239004
  0
VERTEX
  8
PLAN_1
  6
CONTINUOUS
 10
1.124890
 20
-4.243354
  0
VERTEX
  8
PLAN_1
  6
CONTINUOUS
 10
1.123256
 20
-4.248248
  0
VERTEX
  8
PLAN_1
  6
CONTINUOUS
 10
1.122169
 20
-4.252602
  0
VERTEX
  8
PLAN_1
  6
CONTINUOUS
 10
1.121626
 20
-4.257496
  0
VERTEX
  8
PLAN_1
  6
CONTINUOUS
 10
1.121626
 20
-4.261850
  0
VERTEX
  8
PLAN_1
  6
CONTINUOUS
 10
1.122169
 20
-4.267287
  0
VERTEX
  8
PLAN_1
  6
CONTINUOUS
 10
1.123256
 20
-4.272728
  0
VERTEX
  8
PLAN_1
  6
CONTINUOUS
 10
1.125433
 20
-4.277079
  0
VERTEX
  8
PLAN_1
  6
CONTINUOUS
 10
1.128154
 20
-4.280890
  0
VERTEX
  8
PLAN_1
  6
CONTINUOUS
 10
1.131417
 20
-4.284154
  0
VERTEX
  8
PLAN_1
  6
CONTINUOUS
 10
1.135224
 20
-4.286874
  0
VERTEX
  8
PLAN_1
  6
CONTINUOUS
 10
1.140122
 20
-4.287961
  0
VERTEX
  8
PLAN_1
  6
CONTINUOUS
 10
1.145016
 20
-4.288504
  0
VERTEX
  8
PLAN_1
  6
CONTINUOUS
 10
1.149366
 20
-4.287961
  0
VERTEX
  8
PLAN_1
  6
CONTINUOUS
 10
1.153177
 20
-4.286874
  0
VERTEX
  8
PLAN_1
  6
CONTINUOUS
 10
1.157528
 20
-4.285240
  0
VERTEX
  8
PLAN_1
  6
CONTINUOUS
 10
1.161335
 20
-4.283063
  0
VERTEX
  8
PLAN_1
  6
CONTINUOUS
 10
1.165142
 20
-4.280343
  0
VERTEX
  8
PLAN_1
  6
CONTINUOUS
 10
1.168406
 20
-4.277079
  0
VERTEX
  8
PLAN_1
  6
CONTINUOUS
 10
1.171669
 20
-4.273272
  0
VERTEX
  8
PLAN_1
  6
CONTINUOUS
 10
1.174390
 20
-4.268921
  0
VERTEX
  8
PLAN_1
  6
CONTINUOUS
 10
1.177110
 20
-4.265114
  0
VERTEX
  8
PLAN_1
  6
CONTINUOUS
 10
1.179287
 20
-4.260217
  0
VERTEX
  8
PLAN_1
  6
CONTINUOUS
 10
1.181461
 20
-4.255866
  0
VERTEX
  8
PLAN_1
  6
CONTINUOUS
 10
1.183094
 20
-4.250969
  0
VERTEX
  8
PLAN_1
  6
CONTINUOUS
 10
1.184181
 20
-4.246618
  0
VERTEX
  8
PLAN_1
  6
CONTINUOUS
 10
1.185272
 20
-4.241720
  0
VERTEX
  8
PLAN_1
  6
CONTINUOUS
 10
1.185815
 20
-4.237370
  0
VERTEX
  8
PLAN_1
  6
CONTINUOUS
 10
1.186358
 20
-4.233020
  0
VERTEX
  8
PLAN_1
  6
CONTINUOUS
 10
1.185815
 20
-4.228122
  0
VERTEX
  8
PLAN_1
  6
CONTINUOUS
 10
1.184181
 20
-4.223228
  0
VERTEX
  8
PLAN_1
  6
CONTINUOUS
 10
1.182008
 20
-4.218874
  0
VERTEX
  8
PLAN_1
  6
CONTINUOUS
 10
1.179287
 20
-4.215067
  0
VERTEX
  8
PLAN_1
  6
CONTINUOUS
 10
1.176024
 20
-4.211803
  0
VERTEX
  8
PLAN_1
  6
CONTINUOUS
 10
1.172217
 20
-4.209626
  0
VERTEX
  8
PLAN_1
  6
CONTINUOUS
 10
1.167862
 20
-4.207996
  0
VERTEX
  8
PLAN_1
  6
CONTINUOUS
 10
1.163512
 20
-4.207453
  0
SEQEND
  8
0
  0
POLYLINE
  8
PLAN_1
  6
CONTINUOUS
 66
     1
 40
0.003000
 41
0.003000
  0
VERTEX
  8
PLAN_1
  6
CONTINUOUS
 10
1.482280
 20
-4.192220
  0
VERTEX
  8
PLAN_1
  6
CONTINUOUS
 10
1.501319
 20
-4.192220
  0
VERTEX
  8
PLAN_1
  6
CONTINUOUS
 10
1.496969
 20
-4.206909
  0
VERTEX
  8
PLAN_1
  6
CONTINUOUS
 10
1.492618
 20
-4.221594
  0
VERTEX
  8
PLAN_1
  6
CONTINUOUS
 10
1.488807
 20
-4.235740
  0
VERTEX
  8
PLAN_1
  6
CONTINUOUS
 10
1.484457
 20
-4.248795
  0
VERTEX
  8
PLAN_1
  6
CONTINUOUS
 10
1.481193
 20
-4.260760
  0
VERTEX
  8
PLAN_1
  6
CONTINUOUS
 10
1.478472
 20
-4.270551
  0
VERTEX
  8
PLAN_1
  6
CONTINUOUS
 10
1.476843
 20
-4.278169
  0
VERTEX
  8
PLAN_1
  6
CONTINUOUS
 10
1.476295
 20
-4.282520
  0
VERTEX
  8
PLAN_1
  6
CONTINUOUS
 10
1.476295
 20
-4.284154
  0
VERTEX
  8
PLAN_1
  6
CONTINUOUS
 10
1.476295
 20
-4.285783
  0
VERTEX
  8
PLAN_1
  6
CONTINUOUS
 10
1.476843
 20
-4.287417
  0
VERTEX
  8
PLAN_1
  6
CONTINUOUS
 10
1.477386
 20
-4.288504
  0
VERTEX
  8
PLAN_1
  6
CONTINUOUS
 10
1.477929
 20
-4.289591
  0
VERTEX
  8
PLAN_1
  6
CONTINUOUS
 10
1.479016
 20
-4.290138
  0
VERTEX
  8
PLAN_1
  6
CONTINUOUS
 10
1.480650
 20
-4.290681
  0
VERTEX
  8
PLAN_1
  6
CONTINUOUS
 10
1.481736
 20
-4.290681
  0
VERTEX
  8
PLAN_1
  6
CONTINUOUS
 10
1.485543
 20
-4.290138
  0
VERTEX
  8
PLAN_1
  6
CONTINUOUS
 10
1.489350
 20
-4.289047
  0
VERTEX
  8
PLAN_1
  6
CONTINUOUS
 10
1.492618
 20
-4.287417
  0
VERTEX
  8
PLAN_1
  6
CONTINUOUS
 10
1.495882
 20
-4.285240
  0
VERTEX
  8
PLAN_1
  6
CONTINUOUS
 10
1.499689
 20
-4.282520
  0
VERTEX
  8
PLAN_1
  6
CONTINUOUS
 10
1.502953
 20
-4.279256
  0
VERTEX
  8
PLAN_1
  6
CONTINUOUS
 10
1.505673
 20
-4.275992
  0
VERTEX
  8
PLAN_1
  6
CONTINUOUS
 10
1.508937
 20
-4.271642
  0
VERTEX
  8
PLAN_1
  6
CONTINUOUS
 10
1.511654
 20
-4.267287
  0
VERTEX
  8
PLAN_1
  6
CONTINUOUS
 10
1.513831
 20
-4.262394
  0
VERTEX
  8
PLAN_1
  6
CONTINUOUS
 10
1.516008
 20
-4.257496
  0
VERTEX
  8
PLAN_1
  6
CONTINUOUS
 10
1.517638
 20
-4.252602
  0
VERTEX
  8
PLAN_1
  6
CONTINUOUS
 10
1.519272
 20
-4.247161
  0
VERTEX
  8
PLAN_1
  6
CONTINUOUS
 10
1.520358
 20
-4.241720
  0
VERTEX
  8
PLAN_1
  6
CONTINUOUS
 10
1.520902
 20
-4.236283
  0
VERTEX
  8
PLAN_1
  6
CONTINUOUS
 10
1.521449
 20
-4.230843
  0
VERTEX
  8
PLAN_1
  6
CONTINUOUS
 10
1.520902
 20
-4.222685
  0
VERTEX
  8
PLAN_1
  6
CONTINUOUS
 10
1.519815
 20
-4.214524
  0
VERTEX
  8
PLAN_1
  6
CONTINUOUS
 10
1.517638
 20
-4.207453
  0
VERTEX
  8
PLAN_1
  6
CONTINUOUS
 10
1.514917
 20
-4.200925
  0
VERTEX
  8
PLAN_1
  6
CONTINUOUS
 10
1.511654
 20
-4.194398
  0
VERTEX
  8
PLAN_1
  6
CONTINUOUS
 10
1.507846
 20
-4.188413
  0
VERTEX
  8
PLAN_1
  6
CONTINUOUS
 10
1.503496
 20
-4.182972
  0
VERTEX
  8
PLAN_1
  6
CONTINUOUS
 10
1.498598
 20
-4.178079
  0
VERTEX
  8
PLAN_1
  6
CONTINUOUS
 10
1.492618
 20
-4.173724
  0
VERTEX
  8
PLAN_1
  6
CONTINUOUS
 10
1.486634
 20
-4.169917
  0
VERTEX
  8
PLAN_1
  6
CONTINUOUS
 10
1.480650
 20
-4.166654
  0
VERTEX
  8
PLAN_1
  6
CONTINUOUS
 10
1.473579
 20
-4.163933
  0
VERTEX
  8
PLAN_1
  6
CONTINUOUS
 10
1.466504
 20
-4.161756
  0
VERTEX
  8
PLAN_1
  6
CONTINUOUS
 10
1.459433
 20
-4.160126
  0
VERTEX
  8
PLAN_1
  6
CONTINUOUS
 10
1.451819
 20
-4.159039
  0
VERTEX
  8
PLAN_1
  6
CONTINUOUS
 10
1.444201
 20
-4.159039
  0
VERTEX
  8
PLAN_1
  6
CONTINUOUS
 10
1.434957
 20
-4.159583
  0
VERTEX
  8
PLAN_1
  6
CONTINUOUS
 10
1.426252
 20
-4.160669
  0
VERTEX
  8
PLAN_1
  6
CONTINUOUS
 10
1.417547
 20
-4.162846
  0
VERTEX
  8
PLAN_1
  6
CONTINUOUS
 10
1.409933
 20
-4.166110
  0
VERTEX
  8
PLAN_1
  6
CONTINUOUS
 10
1.402315
 20
-4.169917
  0
VERTEX
  8
PLAN_1
  6
CONTINUOUS
 10
1.395787
 20
-4.174268
  0
VERTEX
  8
PLAN_1
  6
CONTINUOUS
 10
1.389260
 20
-4.179165
  0
VERTEX
  8
PLAN_1
  6
CONTINUOUS
 10
1.383276
 20
-4.185150
  0
VERTEX
  8
PLAN_1
  6
CONTINUOUS
 10
1.377839
 20
-4.191134
  0
VERTEX
  8
PLAN_1
  6
CONTINUOUS
 10
1.373484
 20
-4.198205
  0
VERTEX
  8
PLAN_1
  6
CONTINUOUS
 10
1.369134
 20
-4.205276
  0
VERTEX
  8
PLAN_1
  6
CONTINUOUS
 10
1.365870
 20
-4.213437
  0
VERTEX
  8
PLAN_1
  6
CONTINUOUS
 10
1.363150
 20
-4.221594
  0
VERTEX
  8
PLAN_1
  6
CONTINUOUS
 10
1.360972
 20
-4.229756
  0
VERTEX
  8
PLAN_1
  6
CONTINUOUS
 10
1.359886
 20
-4.238457
  0
VERTEX
  8
PLAN_1
  6
CONTINUOUS
 10
1.359343
 20
-4.247705
  0
VERTEX
  8
PLAN_1
  6
CONTINUOUS
 10
1.359886
 20
-4.256953
  0
VERTEX
  8
PLAN_1
  6
CONTINUOUS
 10
1.361520
 20
-4.265657
  0
VERTEX
  8
PLAN_1
  6
CONTINUOUS
 10
1.363150
 20
-4.273815
  0
VERTEX
  8
PLAN_1
  6
CONTINUOUS
 10
1.366413
 20
-4.281976
  0
VERTEX
  8
PLAN_1
  6
CONTINUOUS
 10
1.369677
 20
-4.289591
  0
VERTEX
  8
PLAN_1
  6
CONTINUOUS
 10
1.374031
 20
-4.296665
  0
VERTEX
  8
PLAN_1
  6
CONTINUOUS
 10
1.378925
 20
-4.303193
  0
VERTEX
  8
PLAN_1
  6
CONTINUOUS
 10
1.384366
 20
-4.309720
  0
VERTEX
  8
PLAN_1
  6
CONTINUOUS
 10
1.390350
 20
-4.315157
  0
VERTEX
  8
PLAN_1
  6
CONTINUOUS
 10
1.397421
 20
-4.320055
  0
VERTEX
  8
PLAN_1
  6
CONTINUOUS
 10
1.404492
 20
-4.324406
  0
VERTEX
  8
PLAN_1
  6
CONTINUOUS
 10
1.412106
 20
-4.327669
  0
VERTEX
  8
PLAN_1
  6
CONTINUOUS
 10
1.419724
 20
-4.330390
  0
VERTEX
  8
PLAN_1
  6
CONTINUOUS
 10
1.428425
 20
-4.332567
  0
VERTEX
  8
PLAN_1
  6
CONTINUOUS
 10
1.437130
 20
-4.334197
  0
VERTEX
  8
PLAN_1
  6
CONTINUOUS
 10
1.445835
 20
-4.334197
  0
VERTEX
  8
PLAN_1
  6
CONTINUOUS
 10
1.450728
 20
-4.334197
  0
VERTEX
  8
PLAN_1
  6
CONTINUOUS
 10
1.455626
 20
-4.333654
  0
VERTEX
  8
PLAN_1
  6
CONTINUOUS
 10
1.460520
 20
-4.333110
  0
VERTEX
  8
PLAN_1
  6
CONTINUOUS
 10
1.464874
 20
-4.332024
  0
VERTEX
  8
PLAN_1
  6
CONTINUOUS
 10
1.474665
 20
-4.329303
  0
VERTEX
  8
PLAN_1
  6
CONTINUOUS
 10
1.483370
 20
-4.326039
  0
VERTEX
  8
PLAN_1
  6
CONTINUOUS
 10
1.492071
 20
-4.321142
  0
VERTEX
  8
PLAN_1
  6
CONTINUOUS
 10
1.499689
 20
-4.315705
  0
VERTEX
  8
PLAN_1
  6
CONTINUOUS
 10
1.503496
 20
-4.312984
  0
VERTEX
  8
PLAN_1
  6
CONTINUOUS
 10
1.506760
 20
-4.309720
  0
VERTEX
  8
PLAN_1
  6
CONTINUOUS
 10
1.510024
 20
-4.306457
  0
VERTEX
  8
PLAN_1
  6
CONTINUOUS
 10
1.513287
 20
-4.302646
  0
VERTEX
  8
PLAN_1
  6
CONTINUOUS
 10
1.531783
 20
-4.302646
  0
VERTEX
  8
PLAN_1
  6
CONTINUOUS
 10
1.528520
 20
-4.308087
  0
VERTEX
  8
PLAN_1
  6
CONTINUOUS
 10
1.524713
 20
-4.313528
  0
VERTEX
  8
PLAN_1
  6
CONTINUOUS
 10
1.520358
 20
-4.318421
  0
VERTEX
  8
PLAN_1
  6
CONTINUOUS
 10
1.516008
 20
-4.323319
  0
VERTEX
  8
PLAN_1
  6
CONTINUOUS
 10
1.511110
 20
-4.327669
  0
VERTEX
  8
PLAN_1
  6
CONTINUOUS
 10
1.506217
 20
-4.331476
  0
VERTEX
  8
PLAN_1
  6
CONTINUOUS
 10
1.500776
 20
-4.335287
  0
VERTEX
  8
PLAN_1
  6
CONTINUOUS
 10
1.495335
 20
-4.338551
  0
VERTEX
  8
PLAN_1
  6
CONTINUOUS
 10
1.489350
 20
-4.341272
  0
VERTEX
  8
PLAN_1
  6
CONTINUOUS
 10
1.483370
 20
-4.343988
  0
VERTEX
  8
PLAN_1
  6
CONTINUOUS
 10
1.477386
 20
-4.346165
  0
VERTEX
  8
PLAN_1
  6
CONTINUOUS
 10
1.471402
 20
-4.348343
  0
VERTEX
  8
PLAN_1
  6
CONTINUOUS
 10
1.464874
 20
-4.349429
  0
VERTEX
  8
PLAN_1
  6
CONTINUOUS
 10
1.458346
 20
-4.350516
  0
VERTEX
  8
PLAN_1
  6
CONTINUOUS
 10
1.451819
 20
-4.351606
  0
VERTEX
  8
PLAN_1
  6
CONTINUOUS
 10
1.445291
 20
-4.351606
  0
VERTEX
  8
PLAN_1
  6
CONTINUOUS
 10
1.434409
 20
-4.351063
  0
VERTEX
  8
PLAN_1
  6
CONTINUOUS
 10
1.423531
 20
-4.349429
  0
VERTEX
  8
PLAN_1
  6
CONTINUOUS
 10
1.413740
 20
-4.346709
  0
VERTEX
  8
PLAN_1
  6
CONTINUOUS
 10
1.403949
 20
-4.343445
  0
VERTEX
  8
PLAN_1
  6
CONTINUOUS
 10
1.394157
 20
-4.339094
  0
VERTEX
  8
PLAN_1
  6
CONTINUOUS
 10
1.385453
 20
-4.333654
  0
VERTEX
  8
PLAN_1
  6
CONTINUOUS
 10
1.377295
 20
-4.327669
  0
VERTEX
  8
PLAN_1
  6
CONTINUOUS
 10
1.370220
 20
-4.321142
  0
VERTEX
  8
PLAN_1
  6
CONTINUOUS
 10
1.363150
 20
-4.313528
  0
VERTEX
  8
PLAN_1
  6
CONTINUOUS
 10
1.357165
 20
-4.305366
  0
VERTEX
  8
PLAN_1
  6
CONTINUOUS
 10
1.351728
 20
-4.296665
  0
VERTEX
  8
PLAN_1
  6
CONTINUOUS
 10
1.347374
 20
-4.287417
  0
VERTEX
  8
PLAN_1
  6
CONTINUOUS
 10
1.344110
 20
-4.277626
  0
VERTEX
  8
PLAN_1
  6
CONTINUOUS
 10
1.341390
 20
-4.267835
  0
VERTEX
  8
PLAN_1
  6
CONTINUOUS
 10
1.339760
 20
-4.256953
  0
VERTEX
  8
PLAN_1
  6
CONTINUOUS
 10
1.339217
 20
-4.246075
  0
VERTEX
  8
PLAN_1
  6
CONTINUOUS
 10
1.339760
 20
-4.235193
  0
VERTEX
  8
PLAN_1
  6
CONTINUOUS
 10
1.341390
 20
-4.224858
  0
VERTEX
  8
PLAN_1
  6
CONTINUOUS
 10
1.344110
 20
-4.215067
  0
VERTEX
  8
PLAN_1
  6
CONTINUOUS
 10
1.347374
 20
-4.205276
  0
VERTEX
  8
PLAN_1
  6
CONTINUOUS
 10
1.352272
 20
-4.196028
  0
VERTEX
  8
PLAN_1
  6
CONTINUOUS
 10
1.357165
 20
-4.187870
  0
VERTEX
  8
PLAN_1
  6
CONTINUOUS
 10
1.363150
 20
-4.179709
  0
VERTEX
  8
PLAN_1
  6
CONTINUOUS
 10
1.370220
 20
-4.172094
  0
VERTEX
  8
PLAN_1
  6
CONTINUOUS
 10
1.377839
 20
-4.165567
  0
VERTEX
  8
PLAN_1
  6
CONTINUOUS
 10
1.385453
 20
-4.159583
  0
VERTEX
  8
PLAN_1
  6
CONTINUOUS
 10
1.394157
 20
-4.154142
  0
VERTEX
  8
PLAN_1
  6
CONTINUOUS
 10
1.403406
 20
-4.149791
  0
VERTEX
  8
PLAN_1
  6
CONTINUOUS
 10
1.413197
 20
-4.146528
  0
VERTEX
  8
PLAN_1
  6
CONTINUOUS
 10
1.422988
 20
-4.143807
  0
VERTEX
  8
PLAN_1
  6
CONTINUOUS
 10
1.433323
 20
-4.142173
  0
VERTEX
  8
PLAN_1
  6
CONTINUOUS
 10
1.444201
 20
-4.141630
  0
VERTEX
  8
PLAN_1
  6
CONTINUOUS
 10
1.453449
 20
-4.142173
  0
VERTEX
  8
PLAN_1
  6
CONTINUOUS
 10
1.462697
 20
-4.143264
  0
VERTEX
  8
PLAN_1
  6
CONTINUOUS
 10
1.471945
 20
-4.145437
  0
VERTEX
  8
PLAN_1
  6
CONTINUOUS
 10
1.480650
 20
-4.148157
  0
VERTEX
  8
PLAN_1
  6
CONTINUOUS
 10
1.488807
 20
-4.151421
  0
VERTEX
  8
PLAN_1
  6
CONTINUOUS
 10
1.496969
 20
-4.155776
  0
VERTEX
  8
PLAN_1
  6
CONTINUOUS
 10
1.504039
 20
-4.160669
  0
VERTEX
  8
PLAN_1
  6
CONTINUOUS
 10
1.511110
 20
-4.166110
  0
VERTEX
  8
PLAN_1
  6
CONTINUOUS
 10
1.517094
 20
-4.172094
  0
VERTEX
  8
PLAN_1
  6
CONTINUOUS
 10
1.522535
 20
-4.178622
  0
VERTEX
  8
PLAN_1
  6
CONTINUOUS
 10
1.527429
 20
-4.185693
  0
VERTEX
  8
PLAN_1
  6
CONTINUOUS
 10
1.531783
 20
-4.193307
  0
VERTEX
  8
PLAN_1
  6
CONTINUOUS
 10
1.535047
 20
-4.201469
  0
VERTEX
  8
PLAN_1
  6
CONTINUOUS
 10
1.537220
 20
-4.210173
  0
VERTEX
  8
PLAN_1
  6
CONTINUOUS
 10
1.538854
 20
-4.218874
  0
VERTEX
  8
PLAN_1
  6
CONTINUOUS
 10
1.539398
 20
-4.228122
  0
VERTEX
  8
PLAN_1
  6
CONTINUOUS
 10
1.538854
 20
-4.237370
  0
VERTEX
  8
PLAN_1
  6
CONTINUOUS
 10
1.537768
 20
-4.246075
  0
VERTEX
  8
PLAN_1
  6
CONTINUOUS
 10
1.535591
 20
-4.254232
  0
VERTEX
  8
PLAN_1
  6
CONTINUOUS
 10
1.532327
 20
-4.261850
  0
VERTEX
  8
PLAN_1
  6
CONTINUOUS
 10
1.529063
 20
-4.269465
  0
VERTEX
  8
PLAN_1
  6
CONTINUOUS
 10
1.524713
 20
-4.275992
  0
VERTEX
  8
PLAN_1
  6
CONTINUOUS
 10
1.520358
 20
-4.281976
  0
VERTEX
  8
PLAN_1
  6
CONTINUOUS
 10
1.515465
 20
-4.287417
  0
VERTEX
  8
PLAN_1
  6
CONTINUOUS
 10
1.510567
 20
-4.292311
  0
VERTEX
  8
PLAN_1
  6
CONTINUOUS
 10
1.505126
 20
-4.296665
  0
VERTEX
  8
PLAN_1
  6
CONTINUOUS
 10
1.499689
 20
-4.299929
  0
VERTEX
  8
PLAN_1
  6
CONTINUOUS
 10
1.493705
 20
-4.303193
  0
VERTEX
  8
PLAN_1
  6
CONTINUOUS
 10
1.488264
 20
-4.305366
  0
VERTEX
  8
PLAN_1
  6
CONTINUOUS
 10
1.482823
 20
-4.307000
  0
VERTEX
  8
PLAN_1
  6
CONTINUOUS
 10
1.477929
 20
-4.308087
  0
VERTEX
  8
PLAN_1
  6
CONTINUOUS
 10
1.473031
 20
-4.308630
  0
VERTEX
  8
PLAN_1
  6
CONTINUOUS
 10
1.469768
 20
-4.308087
  0
VERTEX
  8
PLAN_1
  6
CONTINUOUS
 10
1.466504
 20
-4.307543
  0
VERTEX
  8
PLAN_1
  6
CONTINUOUS
 10
1.463240
 20
-4.306457
  0
VERTEX
  8
PLAN_1
  6
CONTINUOUS
 10
1.461067
 20
-4.304280
  0
VERTEX
  8
PLAN_1
  6
CONTINUOUS
 10
1.458890
 20
-4.302102
  0
VERTEX
  8
PLAN_1
  6
CONTINUOUS
 10
1.457256
 20
-4.298839
  0
VERTEX
  8
PLAN_1
  6
CONTINUOUS
 10
1.455626
 20
-4.295031
  0
VERTEX
  8
PLAN_1
  6
CONTINUOUS
 10
1.455083
 20
-4.291224
  0
VERTEX
  8
PLAN_1
  6
CONTINUOUS
 10
1.454539
 20
-4.291224
  0
VERTEX
  8
PLAN_1
  6
CONTINUOUS
 10
1.451819
 20
-4.294488
  0
VERTEX
  8
PLAN_1
  6
CONTINUOUS
 10
1.448012
 20
-4.297752
  0
VERTEX
  8
PLAN_1
  6
CONTINUOUS
 10
1.444201
 20
-4.300472
  0
VERTEX
  8
PLAN_1
  6
CONTINUOUS
 10
1.439850
 20
-4.303193
  0
VERTEX
  8
PLAN_1
  6
CONTINUOUS
 10
1.435500
 20
-4.305366
  0
VERTEX
  8
PLAN_1
  6
CONTINUOUS
 10
1.431146
 20
-4.307000
  0
VERTEX
  8
PLAN_1
  6
CONTINUOUS
 10
1.426252
 20
-4.308087
  0
VERTEX
  8
PLAN_1
  6
CONTINUOUS
 10
1.421354
 20
-4.308630
  0
VERTEX
  8
PLAN_1
  6
CONTINUOUS
 10
1.417004
 20
-4.308087
  0
VERTEX
  8
PLAN_1
  6
CONTINUOUS
 10
1.412654
 20
-4.307543
  0
VERTEX
  8
PLAN_1
  6
CONTINUOUS
 10
1.408843
 20
-4.306457
  0
VERTEX
  8
PLAN_1
  6
CONTINUOUS
 10
1.405035
 20
-4.304823
  0
VERTEX
  8
PLAN_1
  6
CONTINUOUS
 10
1.401228
 20
-4.303193
  0
VERTEX
  8
PLAN_1
  6
CONTINUOUS
 10
1.397965
 20
-4.301016
  0
VERTEX
  8
PLAN_1
  6
CONTINUOUS
 10
1.394701
 20
-4.298295
  0
VERTEX
  8
PLAN_1
  6
CONTINUOUS
 10
1.391980
 20
-4.295575
  0
VERTEX
  8
PLAN_1
  6
CONTINUOUS
 10
1.389803
 20
-4.292311
  0
VERTEX
  8
PLAN_1
  6
CONTINUOUS
 10
1.387087
 20
-4.289047
  0
VERTEX
  8
PLAN_1
  6
CONTINUOUS
 10
1.385453
 20
-4.285240
  0
VERTEX
  8
PLAN_1
  6
CONTINUOUS
 10
1.383823
 20
-4.281433
  0
VERTEX
  8
PLAN_1
  6
CONTINUOUS
 10
1.382189
 20
-4.277079
  0
VERTEX
  8
PLAN_1
  6
CONTINUOUS
 10
1.381646
 20
-4.273272
  0
VERTEX
  8
PLAN_1
  6
CONTINUOUS
 10
1.381102
 20
-4.268921
  0
VERTEX
  8
PLAN_1
  6
CONTINUOUS
 10
1.380559
 20
-4.264024
  0
VERTEX
  8
PLAN_1
  6
CONTINUOUS
 10
1.381102
 20
-4.256953
  0
VERTEX
  8
PLAN_1
  6
CONTINUOUS
 10
1.381646
 20
-4.249882
  0
VERTEX
  8
PLAN_1
  6
CONTINUOUS
 10
1.383276
 20
-4.243354
  0
VERTEX
  8
PLAN_1
  6
CONTINUOUS
 10
1.385453
 20
-4.236283
  0
VERTEX
  8
PLAN_1
  6
CONTINUOUS
 10
1.387630
 20
-4.229756
  0
VERTEX
  8
PLAN_1
  6
CONTINUOUS
 10
1.390894
 20
-4.223228
  0
VERTEX
  8
PLAN_1
  6
CONTINUOUS
 10
1.394157
 20
-4.217244
  0
VERTEX
  8
PLAN_1
  6
CONTINUOUS
 10
1.398508
 20
-4.211803
  0
VERTEX
  8
PLAN_1
  6
CONTINUOUS
 10
1.402862
 20
-4.206362
  0
VERTEX
  8
PLAN_1
  6
CONTINUOUS
 10
1.407756
 20
-4.202012
  0
VERTEX
  8
PLAN_1
  6
CONTINUOUS
 10
1.412654
 20
-4.197661
  0
VERTEX
  8
PLAN_1
  6
CONTINUOUS
 10
1.418634
 20
-4.194398
  0
VERTEX
  8
PLAN_1
  6
CONTINUOUS
 10
1.424618
 20
-4.191677
  0
VERTEX
  8
PLAN_1
  6
CONTINUOUS
 10
1.431146
 20
-4.189500
  0
VERTEX
  8
PLAN_1
  6
CONTINUOUS
 10
1.437673
 20
-4.187870
  0
VERTEX
  8
PLAN_1
  6
CONTINUOUS
 10
1.444748
 20
-4.187323
  0
VERTEX
  8
PLAN_1
  6
CONTINUOUS
 10
1.449642
 20
-4.187870
  0
VERTEX
  8
PLAN_1
  6
CONTINUOUS
 10
1.454539
 20
-4.188957
  0
VERTEX
  8
PLAN_1
  6
CONTINUOUS
 10
1.458890
 20
-4.190043
  0
VERTEX
  8
PLAN_1
  6
CONTINUOUS
 10
1.463240
 20
-4.192764
  0
VERTEX
  8
PLAN_1
  6
CONTINUOUS
 10
1.467051
 20
-4.195484
  0
VERTEX
  8
PLAN_1
  6
CONTINUOUS
 10
1.470315
 20
-4.199291
  0
VERTEX
  8
PLAN_1
  6
CONTINUOUS
 10
1.473579
 20
-4.203646
  0
VERTEX
  8
PLAN_1
  6
CONTINUOUS
 10
1.476843
 20
-4.209083
  0
VERTEX
  8
PLAN_1
  6
CONTINUOUS
 10
1.482280
 20
-4.192220
  0
SEQEND
  8
0
  0
POLYLINE
  8
PLAN_1
  6
CONTINUOUS
 66
     1
 40
0.003000
 41
0.003000
  0
VERTEX
  8
PLAN_1
  6
CONTINUOUS
 10
1.445291
 20
-4.207453
  0
VERTEX
  8
PLAN_1
  6
CONTINUOUS
 10
1.440937
 20
-4.207996
  0
VERTEX
  8
PLAN_1
  6
CONTINUOUS
 10
1.436587
 20
-4.209083
  0
VERTEX
  8
PLAN_1
  6
CONTINUOUS
 10
1.432236
 20
-4.210717
  0
VERTEX
  8
PLAN_1
  6
CONTINUOUS
 10
1.428425
 20
-4.212890
  0
VERTEX
  8
PLAN_1
  6
CONTINUOUS
 10
1.424618
 20
-4.215610
  0
VERTEX
  8
PLAN_1
  6
CONTINUOUS
 10
1.421354
 20
-4.218331
  0
VERTEX
  8
PLAN_1
  6
CONTINUOUS
 10
1.418091
 20
-4.222138
  0
VERTEX
  8
PLAN_1
  6
CONTINUOUS
 10
1.415370
 20
-4.225949
  0
VERTEX
  8
PLAN_1
  6
CONTINUOUS
 10
1.412654
 20
-4.230299
  0
VERTEX
  8
PLAN_1
  6
CONTINUOUS
 10
1.409933
 20
-4.234650
  0
VERTEX
  8
PLAN_1
  6
CONTINUOUS
 10
1.408299
 20
-4.239004
  0
VERTEX
  8
PLAN_1
  6
CONTINUOUS
 10
1.406669
 20
-4.243354
  0
VERTEX
  8
PLAN_1
  6
CONTINUOUS
 10
1.405035
 20
-4.248248
  0
VERTEX
  8
PLAN_1
  6
CONTINUOUS
 10
1.403949
 20
-4.252602
  0
VERTEX
  8
PLAN_1
  6
CONTINUOUS
 10
1.403406
 20
-4.257496
  0
VERTEX
  8
PLAN_1
  6
CONTINUOUS
 10
1.403406
 20
-4.261850
  0
VERTEX
  8
PLAN_1
  6
CONTINUOUS
 10
1.403949
 20
-4.267287
  0
VERTEX
  8
PLAN_1
  6
CONTINUOUS
 10
1.405035
 20
-4.272728
  0
VERTEX
  8
PLAN_1
  6
CONTINUOUS
 10
1.407213
 20
-4.277079
  0
VERTEX
  8
PLAN_1
  6
CONTINUOUS
 10
1.409933
 20
-4.280890
  0
VERTEX
  8
PLAN_1
  6
CONTINUOUS
 10
1.413197
 20
-4.284154
  0
VERTEX
  8
PLAN_1
  6
CONTINUOUS
 10
1.417004
 20
-4.286874
  0
VERTEX
  8
PLAN_1
  6
CONTINUOUS
 10
1.421898
 20
-4.287961
  0
VERTEX
  8
PLAN_1
  6
CONTINUOUS
 10
1.426795
 20
-4.288504
  0
VERTEX
  8
PLAN_1
  6
CONTINUOUS
 10
1.431146
 20
-4.287961
  0
VERTEX
  8
PLAN_1
  6
CONTINUOUS
 10
1.435500
 20
-4.286874
  0
VERTEX
  8
PLAN_1
  6
CONTINUOUS
 10
1.439307
 20
-4.285240
  0
VERTEX
  8
PLAN_1
  6
CONTINUOUS
 10
1.443114
 20
-4.283063
  0
VERTEX
  8
PLAN_1
  6
CONTINUOUS
 10
1.446921
 20
-4.280343
  0
VERTEX
  8
PLAN_1
  6
CONTINUOUS
 10
1.450185
 20
-4.277079
  0
VERTEX
  8
PLAN_1
  6
CONTINUOUS
 10
1.453449
 20
-4.273272
  0
VERTEX
  8
PLAN_1
  6
CONTINUOUS
 10
1.456169
 20
-4.268921
  0
VERTEX
  8
PLAN_1
  6
CONTINUOUS
 10
1.458890
 20
-4.265114
  0
VERTEX
  8
PLAN_1
  6
CONTINUOUS
 10
1.461067
 20
-4.260217
  0
VERTEX
  8
PLAN_1
  6
CONTINUOUS
 10
1.463240
 20
-4.255866
  0
VERTEX
  8
PLAN_1
  6
CONTINUOUS
 10
1.464874
 20
-4.250969
  0
VERTEX
  8
PLAN_1
  6
CONTINUOUS
 10
1.466504
 20
-4.246618
  0
VERTEX
  8
PLAN_1
  6
CONTINUOUS
 10
1.467051
 20
-4.241720
  0
VERTEX
  8
PLAN_1
  6
CONTINUOUS
 10
1.468138
 20
-4.237370
  0
VERTEX
  8
PLAN_1
  6
CONTINUOUS
 10
1.468138
 20
-4.233020
  0
VERTEX
  8
PLAN_1
  6
CONTINUOUS
 10
1.467594
 20
-4.228122
  0
VERTEX
  8
PLAN_1
  6
CONTINUOUS
 10
1.466504
 20
-4.223228
  0
VERTEX
  8
PLAN_1
  6
CONTINUOUS
 10
1.464331
 20
-4.218874
  0
VERTEX
  8
PLAN_1
  6
CONTINUOUS
 10
1.461067
 20
-4.215067
  0
VERTEX
  8
PLAN_1
  6
CONTINUOUS
 10
1.457803
 20
-4.211803
  0
VERTEX
  8
PLAN_1
  6
CONTINUOUS
 10
1.453992
 20
-4.209626
  0
VERTEX
  8
PLAN_1
  6
CONTINUOUS
 10
1.449642
 20
-4.207996
  0
VERTEX
  8
PLAN_1
  6
CONTINUOUS
 10
1.445291
 20
-4.207453
  0
SEQEND
  8
0
  0
POLYLINE
  8
PLAN_1
  6
CONTINUOUS
 66
     1
 40
0.003000
 41
0.003000
  0
VERTEX
  8
PLAN_1
  6
CONTINUOUS
 10
1.592165
 20
-4.218331
  0
VERTEX
  8
PLAN_1
  6
CONTINUOUS
 10
1.592165
 20
-4.211260
  0
VERTEX
  8
PLAN_1
  6
CONTINUOUS
 10
1.593252
 20
-4.205276
  0
VERTEX
  8
PLAN_1
  6
CONTINUOUS
 10
1.594339
 20
-4.198748
  0
VERTEX
  8
PLAN_1
  6
CONTINUOUS
 10
1.595972
 20
-4.192764
  0
VERTEX
  8
PLAN_1
  6
CONTINUOUS
 10
1.598146
 20
-4.186780
  0
VERTEX
  8
PLAN_1
  6
CONTINUOUS
 10
1.600866
 20
-4.181343
  0
VERTEX
  8
PLAN_1
  6
CONTINUOUS
 10
1.604130
 20
-4.175902
  0
VERTEX
  8
PLAN_1
  6
CONTINUOUS
 10
1.607937
 20
-4.171551
  0
VERTEX
  8
PLAN_1
  6
CONTINUOUS
 10
1.612291
 20
-4.167197
  0
VERTEX
  8
PLAN_1
  6
CONTINUOUS
 10
1.616642
 20
-4.162846
  0
VERTEX
  8
PLAN_1
  6
CONTINUOUS
 10
1.622083
 20
-4.159583
  0
VERTEX
  8
PLAN_1
  6
CONTINUOUS
 10
1.627524
 20
-4.156862
  0
VERTEX
  8
PLAN_1
  6
CONTINUOUS
 10
1.633504
 20
-4.154142
  0
VERTEX
  8
PLAN_1
  6
CONTINUOUS
 10
1.640035
 20
-4.152512
  0
VERTEX
  8
PLAN_1
  6
CONTINUOUS
 10
1.647106
 20
-4.151421
  0
VERTEX
  8
PLAN_1
  6
CONTINUOUS
 10
1.654720
 20
-4.151421
  0
VERTEX
  8
PLAN_1
  6
CONTINUOUS
 10
1.660161
 20
-4.151421
  0
VERTEX
  8
PLAN_1
  6
CONTINUOUS
 10
1.665598
 20
-4.151965
  0
VERTEX
  8
PLAN_1
  6
CONTINUOUS
 10
1.671039
 20
-4.152512
  0
VERTEX
  8
PLAN_1
  6
CONTINUOUS
 10
1.675394
 20
-4.153598
  0
VERTEX
  8
PLAN_1
  6
CONTINUOUS
 10
1.679744
 20
-4.155228
  0
VERTEX
  8
PLAN_1
  6
CONTINUOUS
 10
1.684094
 20
-4.156862
  0
VERTEX
  8
PLAN_1
  6
CONTINUOUS
 10
1.687902
 20
-4.158492
  0
VERTEX
  8
PLAN_1
  6
CONTINUOUS
 10
1.691713
 20
-4.160669
  0
VERTEX
  8
PLAN_1
  6
CONTINUOUS
 10
1.694976
 20
-4.163390
  0
VERTEX
  8
PLAN_1
  6
CONTINUOUS
 10
1.698240
 20
-4.165567
  0
VERTEX
  8
PLAN_1
  6
CONTINUOUS
 10
1.700961
 20
-4.168831
  0
VERTEX
  8
PLAN_1
  6
CONTINUOUS
 10
1.703677
 20
-4.171551
  0
VERTEX
  8
PLAN_1
  6
CONTINUOUS
 10
1.708575
 20
-4.177531
  0
VERTEX
  8
PLAN_1
  6
CONTINUOUS
 10
1.712382
 20
-4.184606
  0
VERTEX
  8
PLAN_1
  6
CONTINUOUS
 10
1.715102
 20
-4.191677
  0
VERTEX
  8
PLAN_1
  6
CONTINUOUS
 10
1.717823
 20
-4.199291
  0
VERTEX
  8
PLAN_1
  6
CONTINUOUS
 10
1.719453
 20
-4.206909
  0
VERTEX
  8
PLAN_1
  6
CONTINUOUS
 10
1.721087
 20
-4.213980
  0
VERTEX
  8
PLAN_1
  6
CONTINUOUS
 10
1.722717
 20
-4.228665
  0
VERTEX
  8
PLAN_1
  6
CONTINUOUS
 10
1.723260
 20
-4.241720
  0
VERTEX
  8
PLAN_1
  6
CONTINUOUS
 10
1.722717
 20
-4.252602
  0
VERTEX
  8
PLAN_1
  6
CONTINUOUS
 10
1.721630
 20
-4.267835
  0
VERTEX
  8
PLAN_1
  6
CONTINUOUS
 10
1.719996
 20
-4.276535
  0
VERTEX
  8
PLAN_1
  6
CONTINUOUS
 10
1.718366
 20
-4.285783
  0
VERTEX
  8
PLAN_1
  6
CONTINUOUS
 10
1.716189
 20
-4.295031
  0
VERTEX
  8
PLAN_1
  6
CONTINUOUS
 10
1.712925
 20
-4.304280
  0
VERTEX
  8
PLAN_1
  6
CONTINUOUS
 10
1.709118
 20
-4.313528
  0
VERTEX
  8
PLAN_1
  6
CONTINUOUS
 10
1.704224
 20
-4.322232
  0
VERTEX
  8
PLAN_1
  6
CONTINUOUS
 10
1.701504
 20
-4.326583
  0
VERTEX
  8
PLAN_1
  6
CONTINUOUS
 10
1.698240
 20
-4.330390
  0
VERTEX
  8
PLAN_1
  6
CONTINUOUS
 10
1.694976
 20
-4.334197
  0
VERTEX
  8
PLAN_1
  6
CONTINUOUS
 10
1.691713
 20
-4.337461
  0
VERTEX
  8
PLAN_1
  6
CONTINUOUS
 10
1.687902
 20
-4.340724
  0
VERTEX
  8
PLAN_1
  6
CONTINUOUS
 10
1.683551
 20
-4.343445
  0
VERTEX
  8
PLAN_1
  6
CONTINUOUS
 10
1.679201
 20
-4.345622
  0
VERTEX
  8
PLAN_1
  6
CONTINUOUS
 10
1.674846
 20
-4.347799
  0
VERTEX
  8
PLAN_1
  6
CONTINUOUS
 10
1.669409
 20
-4.349429
  0
VERTEX
  8
PLAN_1
  6
CONTINUOUS
 10
1.663969
 20
-4.350516
  0
VERTEX
  8
PLAN_1
  6
CONTINUOUS
 10
1.658528
 20
-4.351606
  0
VERTEX
  8
PLAN_1
  6
CONTINUOUS
 10
1.652000
 20
-4.351606
  0
VERTEX
  8
PLAN_1
  6
CONTINUOUS
 10
1.643843
 20
-4.351063
  0
VERTEX
  8
PLAN_1
  6
CONTINUOUS
 10
1.636768
 20
-4.349972
  0
VERTEX
  8
PLAN_1
  6
CONTINUOUS
 10
1.629697
 20
-4.348343
  0
VERTEX
  8
PLAN_1
  6
CONTINUOUS
 10
1.623713
 20
-4.346165
  0
VERTEX
  8
PLAN_1
  6
CONTINUOUS
 10
1.618276
 20
-4.343445
  0
VERTEX
  8
PLAN_1
  6
CONTINUOUS
 10
1.613921
 20
-4.340181
  0
VERTEX
  8
PLAN_1
  6
CONTINUOUS
 10
1.609571
 20
-4.336374
  0
VERTEX
  8
PLAN_1
  6
CONTINUOUS
 10
1.606307
 20
-4.332567
  0
VERTEX
  8
PLAN_1
  6
CONTINUOUS
 10
1.603043
 20
-4.328760
  0
VERTEX
  8
PLAN_1
  6
CONTINUOUS
 10
1.600323
 20
-4.324406
  0
VERTEX
  8
PLAN_1
  6
CONTINUOUS
 10
1.598693
 20
-4.320055
  0
VERTEX
  8
PLAN_1
  6
CONTINUOUS
 10
1.597059
 20
-4.315705
  0
VERTEX
  8
PLAN_1
  6
CONTINUOUS
 10
1.595429
 20
-4.311350
  0
VERTEX
  8
PLAN_1
  6
CONTINUOUS
 10
1.594882
 20
-4.307000
  0
VERTEX
  8
PLAN_1
  6
CONTINUOUS
 10
1.594339
 20
-4.303193
  0
VERTEX
  8
PLAN_1
  6
CONTINUOUS
 10
1.594339
 20
-4.299382
  0
VERTEX
  8
PLAN_1
  6
CONTINUOUS
 10
1.618819
 20
-4.299382
  0
VERTEX
  8
PLAN_1
  6
CONTINUOUS
 10
1.618819
 20
-4.303193
  0
VERTEX
  8
PLAN_1
  6
CONTINUOUS
 10
1.619906
 20
-4.306457
  0
VERTEX
  8
PLAN_1
  6
CONTINUOUS
 10
1.620449
 20
-4.309720
  0
VERTEX
  8
PLAN_1
  6
CONTINUOUS
 10
1.621539
 20
-4.312984
  0
VERTEX
  8
PLAN_1
  6
CONTINUOUS
 10
1.623169
 20
-4.315705
  0
VERTEX
  8
PLAN_1
  6
CONTINUOUS
 10
1.624260
 20
-4.318421
  0
VERTEX
  8
PLAN_1
  6
CONTINUOUS
 10
1.626433
 20
-4.320598
  0
VERTEX
  8
PLAN_1
  6
CONTINUOUS
 10
1.628067
 20
-4.322776
  0
VERTEX
  8
PLAN_1
  6
CONTINUOUS
 10
1.630240
 20
-4.324949
  0
VERTEX
  8
PLAN_1
  6
CONTINUOUS
 10
1.632961
 20
-4.326583
  0
VERTEX
  8
PLAN_1
  6
CONTINUOUS
 10
1.635681
 20
-4.327669
  0
VERTEX
  8
PLAN_1
  6
CONTINUOUS
 10
1.638402
 20
-4.329303
  0
VERTEX
  8
PLAN_1
  6
CONTINUOUS
 10
1.641122
 20
-4.329846
  0
VERTEX
  8
PLAN_1
  6
CONTINUOUS
 10
1.644386
 20
-4.330933
  0
VERTEX
  8
PLAN_1
  6
CONTINUOUS
 10
1.648193
 20
-4.330933
  0
VERTEX
  8
PLAN_1
  6
CONTINUOUS
 10
1.651457
 20
-4.331476
  0
VERTEX
  8
PLAN_1
  6
CONTINUOUS
 10
1.656354
 20
-4.330933
  0
VERTEX
  8
PLAN_1
  6
CONTINUOUS
 10
1.661248
 20
-4.330390
  0
VERTEX
  8
PLAN_1
  6
CONTINUOUS
 10
1.665598
 20
-4.328760
  0
VERTEX
  8
PLAN_1
  6
CONTINUOUS
 10
1.669409
 20
-4.327126
  0
VERTEX
  8
PLAN_1
  6
CONTINUOUS
 10
1.673217
 20
-4.324406
  0
VERTEX
  8
PLAN_1
  6
CONTINUOUS
 10
1.676480
 20
-4.321685
  0
VERTEX
  8
PLAN_1
  6
CONTINUOUS
 10
1.679744
 20
-4.317878
  0
VERTEX
  8
PLAN_1
  6
CONTINUOUS
 10
1.683008
 20
-4.313528
  0
VERTEX
  8
PLAN_1
  6
CONTINUOUS
 10
1.685728
 20
-4.309173
  0
VERTEX
  8
PLAN_1
  6
CONTINUOUS
 10
1.687902
 20
-4.303736
  0
VERTEX
  8
PLAN_1
  6
CONTINUOUS
 10
1.690622
 20
-4.297752
  0
VERTEX
  8
PLAN_1
  6
CONTINUOUS
 10
1.692256
 20
-4.291224
  0
VERTEX
  8
PLAN_1
  6
CONTINUOUS
 10
1.694429
 20
-4.283610
  0
VERTEX
  8
PLAN_1
  6
CONTINUOUS
 10
1.696063
 20
-4.275992
  0
VERTEX
  8
PLAN_1
  6
CONTINUOUS
 10
1.697150
 20
-4.267287
  0
VERTEX
  8
PLAN_1
  6
CONTINUOUS
 10
1.698783
 20
-4.258587
  0
VERTEX
  8
PLAN_1
  6
CONTINUOUS
 10
1.698240
 20
-4.258043
  0
VERTEX
  8
PLAN_1
  6
CONTINUOUS
 10
1.696606
 20
-4.260760
  0
VERTEX
  8
PLAN_1
  6
CONTINUOUS
 10
1.694976
 20
-4.262937
  0
VERTEX
  8
PLAN_1
  6
CONTINUOUS
 10
1.692799
 20
-4.265657
  0
VERTEX
  8
PLAN_1
  6
CONTINUOUS
 10
1.690622
 20
-4.267835
  0
VERTEX
  8
PLAN_1
  6
CONTINUOUS
 10
1.685728
 20
-4.271642
  0
VERTEX
  8
PLAN_1
  6
CONTINUOUS
 10
1.679744
 20
-4.274906
  0
VERTEX
  8
PLAN_1
  6
CONTINUOUS
 10
1.673760
 20
-4.277626
  0
VERTEX
  8
PLAN_1
  6
CONTINUOUS
 10
1.666689
 20
-4.279799
  0
VERTEX
  8
PLAN_1
  6
CONTINUOUS
 10
1.660161
 20
-4.280890
  0
VERTEX
  8
PLAN_1
  6
CONTINUOUS
 10
1.653634
 20
-4.280890
  0
VERTEX
  8
PLAN_1
  6
CONTINUOUS
 10
1.646563
 20
-4.280890
  0
VERTEX
  8
PLAN_1
  6
CONTINUOUS
 10
1.640579
 20
-4.279799
  0
VERTEX
  8
PLAN_1
  6
CONTINUOUS
 10
1.634051
 20
-4.278713
  0
VERTEX
  8
PLAN_1
  6
CONTINUOUS
 10
1.628610
 20
-4.276535
  0
VERTEX
  8
PLAN_1
  6
CONTINUOUS
 10
1.623169
 20
-4.274362
  0
VERTEX
  8
PLAN_1
  6
CONTINUOUS
 10
1.618276
 20
-4.271642
  0
VERTEX
  8
PLAN_1
  6
CONTINUOUS
 10
1.613378
 20
-4.267835
  0
VERTEX
  8
PLAN_1
  6
CONTINUOUS
 10
1.609028
 20
-4.264024
  0
VERTEX
  8
PLAN_1
  6
CONTINUOUS
 10
1.605220
 20
-4.259673
  0
VERTEX
  8
PLAN_1
  6
CONTINUOUS
 10
1.601957
 20
-4.255323
  0
VERTEX
  8
PLAN_1
  6
CONTINUOUS
 10
1.599236
 20
-4.249882
  0
VERTEX
  8
PLAN_1
  6
CONTINUOUS
 10
1.596516
 20
-4.244441
  0
VERTEX
  8
PLAN_1
  6
CONTINUOUS
 10
1.594339
 20
-4.238457
  0
VERTEX
  8
PLAN_1
  6
CONTINUOUS
 10
1.593252
 20
-4.231929
  0
VERTEX
  8
PLAN_1
  6
CONTINUOUS
 10
1.592165
 20
-4.225402
  0
VERTEX
  8
PLAN_1
  6
CONTINUOUS
 10
1.592165
 20
-4.218331
  0
SEQEND
  8
0
  0
POLYLINE
  8
PLAN_1
  6
CONTINUOUS
 66
     1
 40
0.003000
 41
0.003000
  0
VERTEX
  8
PLAN_1
  6
CONTINUOUS
 10
1.694429
 20
-4.214524
  0
VERTEX
  8
PLAN_1
  6
CONTINUOUS
 10
1.694429
 20
-4.210717
  0
VERTEX
  8
PLAN_1
  6
CONTINUOUS
 10
1.693886
 20
-4.206362
  0
VERTEX
  8
PLAN_1
  6
CONTINUOUS
 10
1.693343
 20
-4.202555
  0
VERTEX
  8
PLAN_1
  6
CONTINUOUS
 10
1.692256
 20
-4.198748
  0
VERTEX
  8
PLAN_1
  6
CONTINUOUS
 10
1.691165
 20
-4.195484
  0
VERTEX
  8
PLAN_1
  6
CONTINUOUS
 10
1.689535
 20
-4.191677
  0
VERTEX
  8
PLAN_1
  6
CONTINUOUS
 10
1.687358
 20
-4.188413
  0
VERTEX
  8
PLAN_1
  6
CONTINUOUS
 10
1.685185
 20
-4.185693
  0
VERTEX
  8
PLAN_1
  6
CONTINUOUS
 10
1.682465
 20
-4.182972
  0
VERTEX
  8
PLAN_1
  6
CONTINUOUS
 10
1.679744
 20
-4.180252
  0
VERTEX
  8
PLAN_1
  6
CONTINUOUS
 10
1.676480
 20
-4.178079
  0
VERTEX
  8
PLAN_1
  6
CONTINUOUS
 10
1.673217
 20
-4.176445
  0
VERTEX
  8
PLAN_1
  6
CONTINUOUS
 10
1.668866
 20
-4.174815
  0
VERTEX
  8
PLAN_1
  6
CONTINUOUS
 10
1.664512
 20
-4.174268
  0
VERTEX
  8
PLAN_1
  6
CONTINUOUS
 10
1.660161
 20
-4.173181
  0
VERTEX
  8
PLAN_1
  6
CONTINUOUS
 10
1.655264
 20
-4.173181
  0
VERTEX
  8
PLAN_1
  6
CONTINUOUS
 10
1.650913
 20
-4.173181
  0
VERTEX
  8
PLAN_1
  6
CONTINUOUS
 10
1.647106
 20
-4.173724
  0
VERTEX
  8
PLAN_1
  6
CONTINUOUS
 10
1.643299
 20
-4.174815
  0
VERTEX
  8
PLAN_1
  6
CONTINUOUS
 10
1.639488
 20
-4.176445
  0
VERTEX
  8
PLAN_1
  6
CONTINUOUS
 10
1.636224
 20
-4.178079
  0
VERTEX
  8
PLAN_1
  6
CONTINUOUS
 10
1.632961
 20
-4.180252
  0
VERTEX
  8
PLAN_1
  6
CONTINUOUS
 10
1.630240
 20
-4.182429
  0
VERTEX
  8
PLAN_1
  6
CONTINUOUS
 10
1.627524
 20
-4.185150
  0
VERTEX
  8
PLAN_1
  6
CONTINUOUS
 10
1.625346
 20
-4.188413
  0
VERTEX
  8
PLAN_1
  6
CONTINUOUS
 10
1.623169
 20
-4.191677
  0
VERTEX
  8
PLAN_1
  6
CONTINUOUS
 10
1.621539
 20
-4.195484
  0
VERTEX
  8
PLAN_1
  6
CONTINUOUS
 10
1.619906
 20
-4.199291
  0
VERTEX
  8
PLAN_1
  6
CONTINUOUS
 10
1.618819
 20
-4.203098
  0
VERTEX
  8
PLAN_1
  6
CONTINUOUS
 10
1.617732
 20
-4.207453
  0
VERTEX
  8
PLAN_1
  6
CONTINUOUS
 10
1.617732
 20
-4.212346
  0
VERTEX
  8
PLAN_1
  6
CONTINUOUS
 10
1.617185
 20
-4.217244
  0
VERTEX
  8
PLAN_1
  6
CONTINUOUS
 10
1.617732
 20
-4.223772
  0
VERTEX
  8
PLAN_1
  6
CONTINUOUS
 10
1.618276
 20
-4.229756
  0
VERTEX
  8
PLAN_1
  6
CONTINUOUS
 10
1.619362
 20
-4.234650
  0
VERTEX
  8
PLAN_1
  6
CONTINUOUS
 10
1.620996
 20
-4.239547
  0
VERTEX
  8
PLAN_1
  6
CONTINUOUS
 10
1.623169
 20
-4.243354
  0
VERTEX
  8
PLAN_1
  6
CONTINUOUS
 10
1.625346
 20
-4.246618
  0
VERTEX
  8
PLAN_1
  6
CONTINUOUS
 10
1.628067
 20
-4.249882
  0
VERTEX
  8
PLAN_1
  6
CONTINUOUS
 10
1.630787
 20
-4.252059
  0
VERTEX
  8
PLAN_1
  6
CONTINUOUS
 10
1.634051
 20
-4.254232
  0
VERTEX
  8
PLAN_1
  6
CONTINUOUS
 10
1.637315
 20
-4.255866
  0
VERTEX
  8
PLAN_1
  6
CONTINUOUS
 10
1.640579
 20
-4.256953
  0
VERTEX
  8
PLAN_1
  6
CONTINUOUS
 10
1.643843
 20
-4.258043
  0
VERTEX
  8
PLAN_1
  6
CONTINUOUS
 10
1.650370
 20
-4.259130
  0
VERTEX
  8
PLAN_1
  6
CONTINUOUS
 10
1.656898
 20
-4.259130
  0
VERTEX
  8
PLAN_1
  6
CONTINUOUS
 10
1.662335
 20
-4.258587
  0
VERTEX
  8
PLAN_1
  6
CONTINUOUS
 10
1.668319
 20
-4.257496
  0
VERTEX
  8
PLAN_1
  6
CONTINUOUS
 10
1.671583
 20
-4.256409
  0
VERTEX
  8
PLAN_1
  6
CONTINUOUS
 10
1.674303
 20
-4.255323
  0
VERTEX
  8
PLAN_1
  6
CONTINUOUS
 10
1.677567
 20
-4.253689
  0
VERTEX
  8
PLAN_1
  6
CONTINUOUS
 10
1.680287
 20
-4.251512
  0
VERTEX
  8
PLAN_1
  6
CONTINUOUS
 10
1.683551
 20
-4.248795
  0
VERTEX
  8
PLAN_1
  6
CONTINUOUS
 10
1.685728
 20
-4.245531
  0
VERTEX
  8
PLAN_1
  6
CONTINUOUS
 10
1.688449
 20
-4.242268
  0
VERTEX
  8
PLAN_1
  6
CONTINUOUS
 10
1.690622
 20
-4.237913
  0
VERTEX
  8
PLAN_1
  6
CONTINUOUS
 10
1.692256
 20
-4.233020
  0
VERTEX
  8
PLAN_1
  6
CONTINUOUS
 10
1.693343
 20
-4.227579
  0
VERTEX
  8
PLAN_1
  6
CONTINUOUS
 10
1.694429
 20
-4.221594
  0
VERTEX
  8
PLAN_1
  6
CONTINUOUS
 10
1.694429
 20
-4.214524
  0
SEQEND
  8
0
  0
POLYLINE
  8
PLAN_1
  6
CONTINUOUS
 66
     1
 40
0.003000
 41
0.003000
  0
VERTEX
  8
PLAN_1
  6
CONTINUOUS
 10
1.786362
 20
-4.346165
  0
VERTEX
  8
PLAN_1
  6
CONTINUOUS
 10
1.759165
 20
-4.346165
  0
VERTEX
  8
PLAN_1
  6
CONTINUOUS
 10
1.759165
 20
-4.147071
  0
VERTEX
  8
PLAN_1
  6
CONTINUOUS
 10
1.851094
 20
-4.147071
  0
VERTEX
  8
PLAN_1
  6
CONTINUOUS
 10
1.857622
 20
-4.147071
  0
VERTEX
  8
PLAN_1
  6
CONTINUOUS
 10
1.863606
 20
-4.147614
  0
VERTEX
  8
PLAN_1
  6
CONTINUOUS
 10
1.869591
 20
-4.148157
  0
VERTEX
  8
PLAN_1
  6
CONTINUOUS
 10
1.875575
 20
-4.149248
  0
VERTEX
  8
PLAN_1
  6
CONTINUOUS
 10
1.881016
 20
-4.150878
  0
VERTEX
  8
PLAN_1
  6
CONTINUOUS
 10
1.886453
 20
-4.153055
  0
VERTEX
  8
PLAN_1
  6
CONTINUOUS
 10
1.891350
 20
-4.155228
  0
VERTEX
  8
PLAN_1
  6
CONTINUOUS
 10
1.896244
 20
-4.157949
  0
VERTEX
  8
PLAN_1
  6
CONTINUOUS
 10
1.900598
 20
-4.161213
  0
VERTEX
  8
PLAN_1
  6
CONTINUOUS
 10
1.904949
 20
-4.165024
  0
VERTEX
  8
PLAN_1
  6
CONTINUOUS
 10
1.908213
 20
-4.169374
  0
VERTEX
  8
PLAN_1
  6
CONTINUOUS
 10
1.911476
 20
-4.174268
  0
VERTEX
  8
PLAN_1
  6
CONTINUOUS
 10
1.913654
 20
-4.180252
  0
VERTEX
  8
PLAN_1
  6
CONTINUOUS
 10
1.915283
 20
-4.186236
  0
VERTEX
  8
PLAN_1
  6
CONTINUOUS
 10
1.916374
 20
-4.193307
  0
VERTEX
  8
PLAN_1
  6
CONTINUOUS
 10
1.916917
 20
-4.200382
  0
VERTEX
  8
PLAN_1
  6
CONTINUOUS
 10
1.916917
 20
-4.205819
  0
VERTEX
  8
PLAN_1
  6
CONTINUOUS
 10
1.916374
 20
-4.210717
  0
VERTEX
  8
PLAN_1
  6
CONTINUOUS
 10
1.915283
 20
-4.215067
  0
VERTEX
  8
PLAN_1
  6
CONTINUOUS
 10
1.914197
 20
-4.219417
  0
VERTEX
  8
PLAN_1
  6
CONTINUOUS
 10
1.913110
 20
-4.223228
  0
VERTEX
  8
PLAN_1
  6
CONTINUOUS
 10
1.911476
 20
-4.226492
  0
VERTEX
  8
PLAN_1
  6
CONTINUOUS
 10
1.909846
 20
-4.229756
  0
VERTEX
  8
PLAN_1
  6
CONTINUOUS
 10
1.907669
 20
-4.232476
  0
VERTEX
  8
PLAN_1
  6
CONTINUOUS
 10
1.903319
 20
-4.237913
  0
VERTEX
  8
PLAN_1
  6
CONTINUOUS
 10
1.898965
 20
-4.241720
  0
VERTEX
  8
PLAN_1
  6
CONTINUOUS
 10
1.894071
 20
-4.245531
  0
VERTEX
  8
PLAN_1
  6
CONTINUOUS
 10
1.889173
 20
-4.248248
  0
VERTEX
  8
PLAN_1
  6
CONTINUOUS
 10
1.893528
 20
-4.250425
  0
VERTEX
  8
PLAN_1
  6
CONTINUOUS
 10
1.897335
 20
-4.252059
  0
VERTEX
  8
PLAN_1
  6
CONTINUOUS
 10
1.901142
 20
-4.254780
  0
VERTEX
  8
PLAN_1
  6
CONTINUOUS
 10
1.904949
 20
-4.258587
  0
VERTEX
  8
PLAN_1
  6
CONTINUOUS
 10
1.906583
 20
-4.260760
  0
VERTEX
  8
PLAN_1
  6
CONTINUOUS
 10
1.907669
 20
-4.262937
  0
VERTEX
  8
PLAN_1
  6
CONTINUOUS
 10
1.909303
 20
-4.265657
  0
VERTEX
  8
PLAN_1
  6
CONTINUOUS
 10
1.910390
 20
-4.268921
  0
VERTEX
  8
PLAN_1
  6
CONTINUOUS
 10
1.911476
 20
-4.272728
  0
VERTEX
  8
PLAN_1
  6
CONTINUOUS
 10
1.912020
 20
-4.276535
  0
VERTEX
  8
PLAN_1
  6
CONTINUOUS
 10
1.912567
 20
-4.280890
  0
VERTEX
  8
PLAN_1
  6
CONTINUOUS
 10
1.913110
 20
-4.285783
  0
VERTEX
  8
PLAN_1
  6
CONTINUOUS
 10
1.914740
 20
-4.321685
  0
VERTEX
  8
PLAN_1
  6
CONTINUOUS
 10
1.914740
 20
-4.325496
  0
VERTEX
  8
PLAN_1
  6
CONTINUOUS
 10
1.915283
 20
-4.329303
  0
VERTEX
  8
PLAN_1
  6
CONTINUOUS
 10
1.915831
 20
-4.332024
  0
VERTEX
  8
PLAN_1
  6
CONTINUOUS
 10
1.916374
 20
-4.334197
  0
VERTEX
  8
PLAN_1
  6
CONTINUOUS
 10
1.918004
 20
-4.336374
  0
VERTEX
  8
PLAN_1
  6
CONTINUOUS
 10
1.919638
 20
-4.338551
  0
VERTEX
  8
PLAN_1
  6
CONTINUOUS
 10
1.921811
 20
-4.340181
  0
VERTEX
  8
PLAN_1
  6
CONTINUOUS
 10
1.924531
 20
-4.341815
  0
VERTEX
  8
PLAN_1
  6
CONTINUOUS
 10
1.924531
 20
-4.346165
  0
VERTEX
  8
PLAN_1
  6
CONTINUOUS
 10
1.891350
 20
-4.346165
  0
VERTEX
  8
PLAN_1
  6
CONTINUOUS
 10
1.890264
 20
-4.340724
  0
VERTEX
  8
PLAN_1
  6
CONTINUOUS
 10
1.889173
 20
-4.334197
  0
VERTEX
  8
PLAN_1
  6
CONTINUOUS
 10
1.888630
 20
-4.327126
  0
VERTEX
  8
PLAN_1
  6
CONTINUOUS
 10
1.887543
 20
-4.319512
  0
VERTEX
  8
PLAN_1
  6
CONTINUOUS
 10
1.887543
 20
-4.312441
  0
VERTEX
  8
PLAN_1
  6
CONTINUOUS
 10
1.887000
 20
-4.305366
  0
VERTEX
  8
PLAN_1
  6
CONTINUOUS
 10
1.887000
 20
-4.299929
  0
VERTEX
  8
PLAN_1
  6
CONTINUOUS
 10
1.887000
 20
-4.296118
  0
VERTEX
  8
PLAN_1
  6
CONTINUOUS
 10
1.886453
 20
-4.290138
  0
VERTEX
  8
PLAN_1
  6
CONTINUOUS
 10
1.885909
 20
-4.284154
  0
VERTEX
  8
PLAN_1
  6
CONTINUOUS
 10
1.885366
 20
-4.280890
  0
VERTEX
  8
PLAN_1
  6
CONTINUOUS
 10
1.884280
 20
-4.278169
  0
VERTEX
  8
PLAN_1
  6
CONTINUOUS
 10
1.882646
 20
-4.274906
  0
VERTEX
  8
PLAN_1
  6
CONTINUOUS
 10
1.881016
 20
-4.272728
  0
VERTEX
  8
PLAN_1
  6
CONTINUOUS
 10
1.879382
 20
-4.270008
  0
VERTEX
  8
PLAN_1
  6
CONTINUOUS
 10
1.876661
 20
-4.267835
  0
VERTEX
  8
PLAN_1
  6
CONTINUOUS
 10
1.873941
 20
-4.265657
  0
VERTEX
  8
PLAN_1
  6
CONTINUOUS
 10
1.870677
 20
-4.264024
  0
VERTEX
  8
PLAN_1
  6
CONTINUOUS
 10
1.866327
 20
-4.262937
  0
VERTEX
  8
PLAN_1
  6
CONTINUOUS
 10
1.861976
 20
-4.261850
  0
VERTEX
  8
PLAN_1
  6
CONTINUOUS
 10
1.857079
 20
-4.261307
  0
VERTEX
  8
PLAN_1
  6
CONTINUOUS
 10
1.851094
 20
-4.260760
  0
VERTEX
  8
PLAN_1
  6
CONTINUOUS
 10
1.786362
 20
-4.260760
  0
VERTEX
  8
PLAN_1
  6
CONTINUOUS
 10
1.786362
 20
-4.346165
  0
SEQEND
  8
0
  0
POLYLINE
  8
PLAN_1
  6
CONTINUOUS
 66
     1
 40
0.003000
 41
0.003000
  0
VERTEX
  8
PLAN_1
  6
CONTINUOUS
 10
1.786362
 20
-4.237913
  0
VERTEX
  8
PLAN_1
  6
CONTINUOUS
 10
1.848378
 20
-4.237913
  0
VERTEX
  8
PLAN_1
  6
CONTINUOUS
 10
1.855992
 20
-4.237370
  0
VERTEX
  8
PLAN_1
  6
CONTINUOUS
 10
1.863063
 20
-4.236827
  0
VERTEX
  8
PLAN_1
  6
CONTINUOUS
 10
1.866870
 20
-4.235740
  0
VERTEX
  8
PLAN_1
  6
CONTINUOUS
 10
1.870134
 20
-4.234650
  0
VERTEX
  8
PLAN_1
  6
CONTINUOUS
 10
1.873398
 20
-4.233563
  0
VERTEX
  8
PLAN_1
  6
CONTINUOUS
 10
1.876118
 20
-4.231386
  0
VERTEX
  8
PLAN_1
  6
CONTINUOUS
 10
1.878839
 20
-4.229756
  0
VERTEX
  8
PLAN_1
  6
CONTINUOUS
 10
1.881559
 20
-4.227035
  0
VERTEX
  8
PLAN_1
  6
CONTINUOUS
 10
1.883736
 20
-4.224315
  0
VERTEX
  8
PLAN_1
  6
CONTINUOUS
 10
1.885366
 20
-4.221051
  0
VERTEX
  8
PLAN_1
  6
CONTINUOUS
 10
1.887000
 20
-4.217244
  0
VERTEX
  8
PLAN_1
  6
CONTINUOUS
 10
1.888087
 20
-4.213437
  0
VERTEX
  8
PLAN_1
  6
CONTINUOUS
 10
1.888630
 20
-4.208539
  0
VERTEX
  8
PLAN_1
  6
CONTINUOUS
 10
1.889173
 20
-4.203646
  0
VERTEX
  8
PLAN_1
  6
CONTINUOUS
 10
1.888630
 20
-4.197661
  0
VERTEX
  8
PLAN_1
  6
CONTINUOUS
 10
1.888087
 20
-4.193307
  0
VERTEX
  8
PLAN_1
  6
CONTINUOUS
 10
1.887000
 20
-4.188957
  0
VERTEX
  8
PLAN_1
  6
CONTINUOUS
 10
1.885366
 20
-4.185150
  0
VERTEX
  8
PLAN_1
  6
CONTINUOUS
 10
1.883736
 20
-4.181886
  0
VERTEX
  8
PLAN_1
  6
CONTINUOUS
 10
1.881016
 20
-4.179165
  0
VERTEX
  8
PLAN_1
  6
CONTINUOUS
 10
1.878839
 20
-4.176988
  0
VERTEX
  8
PLAN_1
  6
CONTINUOUS
 10
1.876118
 20
-4.175358
  0
VERTEX
  8
PLAN_1
  6
CONTINUOUS
 10
1.873398
 20
-4.173724
  0
VERTEX
  8
PLAN_1
  6
CONTINUOUS
 10
1.870677
 20
-4.172638
  0
VERTEX
  8
PLAN_1
  6
CONTINUOUS
 10
1.867413
 20
-4.171551
  0
VERTEX
  8
PLAN_1
  6
CONTINUOUS
 10
1.864697
 20
-4.171004
  0
VERTEX
  8
PLAN_1
  6
CONTINUOUS
 10
1.858713
 20
-4.170461
  0
VERTEX
  8
PLAN_1
  6
CONTINUOUS
 10
1.853272
 20
-4.169917
  0
VERTEX
  8
PLAN_1
  6
CONTINUOUS
 10
1.786362
 20
-4.169917
  0
VERTEX
  8
PLAN_1
  6
CONTINUOUS
 10
1.786362
 20
-4.237913
  0
SEQEND
  8
0
  0
SOLID
  8
PLAN_1
 10
1.988177
 20
-4.346165
 11
1.959346
 21
-4.346165
 12
1.988177
 22
-4.316791
 13
1.959346
 23
-4.316791
  0
POLYLINE
  8
PLAN_1
  6
CONTINUOUS
 66
     1
 40
0.003000
 41
0.003000
  0
VERTEX
  8
PLAN_1
  6
CONTINUOUS
 10
1.988177
 20
-4.346165
  0
VERTEX
  8
PLAN_1
  6
CONTINUOUS
 10
1.959346
 20
-4.346165
  0
VERTEX
  8
PLAN_1
  6
CONTINUOUS
 10
1.959346
 20
-4.316791
  0
VERTEX
  8
PLAN_1
  6
CONTINUOUS
 10
1.988177
 20
-4.316791
  0
VERTEX
  8
PLAN_1
  6
CONTINUOUS
 10
1.988177
 20
-4.346165
  0
SEQEND
  8
0
  0
POLYLINE
  8
PLAN_1
  6
CONTINUOUS
 66
     1
 40
0.003000
 41
0.003000
  0
VERTEX
  8
PLAN_1
  6
CONTINUOUS
 10
2.183465
 20
-4.346165
  0
VERTEX
  8
PLAN_1
  6
CONTINUOUS
 10
2.036047
 20
-4.346165
  0
VERTEX
  8
PLAN_1
  6
CONTINUOUS
 10
2.036047
 20
-4.147071
  0
VERTEX
  8
PLAN_1
  6
CONTINUOUS
 10
2.181287
 20
-4.147071
  0
VERTEX
  8
PLAN_1
  6
CONTINUOUS
 10
2.181287
 20
-4.171004
  0
VERTEX
  8
PLAN_1
  6
CONTINUOUS
 10
2.063248
 20
-4.171004
  0
VERTEX
  8
PLAN_1
  6
CONTINUOUS
 10
2.063248
 20
-4.231929
  0
VERTEX
  8
PLAN_1
  6
CONTINUOUS
 10
2.172043
 20
-4.231929
  0
VERTEX
  8
PLAN_1
  6
CONTINUOUS
 10
2.172043
 20
-4.255866
  0
VERTEX
  8
PLAN_1
  6
CONTINUOUS
 10
2.063248
 20
-4.255866
  0
VERTEX
  8
PLAN_1
  6
CONTINUOUS
 10
2.063248
 20
-4.322232
  0
VERTEX
  8
PLAN_1
  6
CONTINUOUS
 10
2.183465
 20
-4.322232
  0
VERTEX
  8
PLAN_1
  6
CONTINUOUS
 10
2.183465
 20
-4.346165
  0
SEQEND
  8
0
  0
POLYLINE
  8
PLAN_1
  6
CONTINUOUS
 66
     1
 40
0.003000
 41
0.003000
  0
VERTEX
  8
PLAN_1
  6
CONTINUOUS
 10
2.248197
 20
-4.346165
  0
VERTEX
  8
PLAN_1
  6
CONTINUOUS
 10
2.221543
 20
-4.346165
  0
VERTEX
  8
PLAN_1
  6
CONTINUOUS
 10
2.221543
 20
-4.147071
  0
VERTEX
  8
PLAN_1
  6
CONTINUOUS
 10
2.311299
 20
-4.147071
  0
VERTEX
  8
PLAN_1
  6
CONTINUOUS
 10
2.317827
 20
-4.147071
  0
VERTEX
  8
PLAN_1
  6
CONTINUOUS
 10
2.324354
 20
-4.148157
  0
VERTEX
  8
PLAN_1
  6
CONTINUOUS
 10
2.330339
 20
-4.149248
  0
VERTEX
  8
PLAN_1
  6
CONTINUOUS
 10
2.335780
 20
-4.151421
  0
VERTEX
  8
PLAN_1
  6
CONTINUOUS
 10
2.341217
 20
-4.153598
  0
VERTEX
  8
PLAN_1
  6
CONTINUOUS
 10
2.346114
 20
-4.156319
  0
VERTEX
  8
PLAN_1
  6
CONTINUOUS
 10
2.350465
 20
-4.159583
  0
VERTEX
  8
PLAN_1
  6
CONTINUOUS
 10
2.354819
 20
-4.162846
  0
VERTEX
  8
PLAN_1
  6
CONTINUOUS
 10
2.358083
 20
-4.167197
  0
VERTEX
  8
PLAN_1
  6
CONTINUOUS
 10
2.361346
 20
-4.171004
  0
VERTEX
  8
PLAN_1
  6
CONTINUOUS
 10
2.364063
 20
-4.175902
  0
VERTEX
  8
PLAN_1
  6
CONTINUOUS
 10
2.366240
 20
-4.180795
  0
VERTEX
  8
PLAN_1
  6
CONTINUOUS
 10
2.367874
 20
-4.186236
  0
VERTEX
  8
PLAN_1
  6
CONTINUOUS
 10
2.369504
 20
-4.191677
  0
VERTEX
  8
PLAN_1
  6
CONTINUOUS
 10
2.370047
 20
-4.197118
  0
VERTEX
  8
PLAN_1
  6
CONTINUOUS
 10
2.370047
 20
-4.203098
  0
VERTEX
  8
PLAN_1
  6
CONTINUOUS
 10
2.370047
 20
-4.208539
  0
VERTEX
  8
PLAN_1
  6
CONTINUOUS
 10
2.369504
 20
-4.213437
  0
VERTEX
  8
PLAN_1
  6
CONTINUOUS
 10
2.368417
 20
-4.218874
  0
VERTEX
  8
PLAN_1
  6
CONTINUOUS
 10
2.367327
 20
-4.224315
  0
VERTEX
  8
PLAN_1
  6
CONTINUOUS
 10
2.365154
 20
-4.229213
  0
VERTEX
  8
PLAN_1
  6
CONTINUOUS
 10
2.362976
 20
-4.234106
  0
VERTEX
  8
PLAN_1
  6
CONTINUOUS
 10
2.360256
 20
-4.238457
  0
VERTEX
  8
PLAN_1
  6
CONTINUOUS
 10
2.356992
 20
-4.242811
  0
VERTEX
  8
PLAN_1
  6
CONTINUOUS
 10
2.353185
 20
-4.247161
  0
VERTEX
  8
PLAN_1
  6
CONTINUOUS
 10
2.348835
 20
-4.250969
  0
VERTEX
  8
PLAN_1
  6
CONTINUOUS
 10
2.343937
 20
-4.254232
  0
VERTEX
  8
PLAN_1
  6
CONTINUOUS
 10
2.338496
 20
-4.256953
  0
VERTEX
  8
PLAN_1
  6
CONTINUOUS
 10
2.332516
 20
-4.259130
  0
VERTEX
  8
PLAN_1
  6
CONTINUOUS
 10
2.325988
 20
-4.260760
  0
VERTEX
  8
PLAN_1
  6
CONTINUOUS
 10
2.318913
 20
-4.261850
  0
VERTEX
  8
PLAN_1
  6
CONTINUOUS
 10
2.311299
 20
-4.262394
  0
VERTEX
  8
PLAN_1
  6
CONTINUOUS
 10
2.248197
 20
-4.262394
  0
VERTEX
  8
PLAN_1
  6
CONTINUOUS
 10
2.248197
 20
-4.346165
  0
SEQEND
  8
0
  0
POLYLINE
  8
PLAN_1
  6
CONTINUOUS
 66
     1
 40
0.003000
 41
0.003000
  0
VERTEX
  8
PLAN_1
  6
CONTINUOUS
 10
2.248197
 20
-4.239004
  0
VERTEX
  8
PLAN_1
  6
CONTINUOUS
 10
2.302051
 20
-4.239004
  0
VERTEX
  8
PLAN_1
  6
CONTINUOUS
 10
2.310756
 20
-4.239004
  0
VERTEX
  8
PLAN_1
  6
CONTINUOUS
 10
2.318370
 20
-4.237370
  0
VERTEX
  8
PLAN_1
  6
CONTINUOUS
 10
2.322177
 20
-4.236283
  0
VERTEX
  8
PLAN_1
  6
CONTINUOUS
 10
2.325441
 20
-4.235193
  0
VERTEX
  8
PLAN_1
  6
CONTINUOUS
 10
2.328705
 20
-4.233563
  0
VERTEX
  8
PLAN_1
  6
CONTINUOUS
 10
2.331425
 20
-4.231386
  0
VERTEX
  8
PLAN_1
  6
CONTINUOUS
 10
2.333602
 20
-4.229213
  0
VERTEX
  8
PLAN_1
  6
CONTINUOUS
 10
2.336323
 20
-4.226492
  0
VERTEX
  8
PLAN_1
  6
CONTINUOUS
 10
2.337953
 20
-4.223772
  0
VERTEX
  8
PLAN_1
  6
CONTINUOUS
 10
2.339587
 20
-4.220508
  0
VERTEX
  8
PLAN_1
  6
CONTINUOUS
 10
2.340673
 20
-4.216701
  0
VERTEX
  8
PLAN_1
  6
CONTINUOUS
 10
2.341760
 20
-4.212890
  0
VERTEX
  8
PLAN_1
  6
CONTINUOUS
 10
2.342307
 20
-4.207996
  0
VERTEX
  8
PLAN_1
  6
CONTINUOUS
 10
2.342307
 20
-4.203646
  0
VERTEX
  8
PLAN_1
  6
CONTINUOUS
 10
2.342307
 20
-4.198748
  0
VERTEX
  8
PLAN_1
  6
CONTINUOUS
 10
2.341760
 20
-4.194941
  0
VERTEX
  8
PLAN_1
  6
CONTINUOUS
 10
2.340673
 20
-4.191134
  0
VERTEX
  8
PLAN_1
  6
CONTINUOUS
 10
2.339587
 20
-4.187323
  0
VERTEX
  8
PLAN_1
  6
CONTINUOUS
 10
2.337953
 20
-4.184606
  0
VERTEX
  8
PLAN_1
  6
CONTINUOUS
 10
2.335780
 20
-4.181886
  0
VERTEX
  8
PLAN_1
  6
CONTINUOUS
 10
2.333602
 20
-4.179165
  0
VERTEX
  8
PLAN_1
  6
CONTINUOUS
 10
2.331425
 20
-4.176988
  0
VERTEX
  8
PLAN_1
  6
CONTINUOUS
 10
2.328161
 20
-4.175358
  0
VERTEX
  8
PLAN_1
  6
CONTINUOUS
 10
2.325441
 20
-4.173724
  0
VERTEX
  8
PLAN_1
  6
CONTINUOUS
 10
2.322177
 20
-4.172638
  0
VERTEX
  8
PLAN_1
  6
CONTINUOUS
 10
2.318913
 20
-4.171551
  0
VERTEX
  8
PLAN_1
  6
CONTINUOUS
 10
2.311299
 20
-4.170461
  0
VERTEX
  8
PLAN_1
  6
CONTINUOUS
 10
2.303138
 20
-4.169917
  0
VERTEX
  8
PLAN_1
  6
CONTINUOUS
 10
2.248197
 20
-4.169917
  0
VERTEX
  8
PLAN_1
  6
CONTINUOUS
 10
2.248197
 20
-4.239004
  0
SEQEND
  8
0
  0
POLYLINE
  8
PLAN_1
  6
CONTINUOUS
 66
     1
 40
0.003000
 41
0.003000
  0
VERTEX
  8
PLAN_1
  6
CONTINUOUS
 10
2.523992
 20
-4.205276
  0
VERTEX
  8
PLAN_1
  6
CONTINUOUS
 10
2.523449
 20
-4.199835
  0
VERTEX
  8
PLAN_1
  6
CONTINUOUS
 10
2.522362
 20
-4.194941
  0
VERTEX
  8
PLAN_1
  6
CONTINUOUS
 10
2.521272
 20
-4.190043
  0
VERTEX
  8
PLAN_1
  6
CONTINUOUS
 10
2.519098
 20
-4.186236
  0
VERTEX
  8
PLAN_1
  6
CONTINUOUS
 10
2.516378
 20
-4.182429
  0
VERTEX
  8
PLAN_1
  6
CONTINUOUS
 10
2.513657
 20
-4.179165
  0
VERTEX
  8
PLAN_1
  6
CONTINUOUS
 10
2.510937
 20
-4.175902
  0
VERTEX
  8
PLAN_1
  6
CONTINUOUS
 10
2.507130
 20
-4.173724
  0
VERTEX
  8
PLAN_1
  6
CONTINUOUS
 10
2.503866
 20
-4.171551
  0
VERTEX
  8
PLAN_1
  6
CONTINUOUS
 10
2.500059
 20
-4.169374
  0
VERTEX
  8
PLAN_1
  6
CONTINUOUS
 10
2.495705
 20
-4.167740
  0
VERTEX
  8
PLAN_1
  6
CONTINUOUS
 10
2.491898
 20
-4.166654
  0
VERTEX
  8
PLAN_1
  6
CONTINUOUS
 10
2.483197
 20
-4.165024
  0
VERTEX
  8
PLAN_1
  6
CONTINUOUS
 10
2.475035
 20
-4.165024
  0
VERTEX
  8
PLAN_1
  6
CONTINUOUS
 10
2.467965
 20
-4.165024
  0
VERTEX
  8
PLAN_1
  6
CONTINUOUS
 10
2.460346
 20
-4.166110
  0
VERTEX
  8
PLAN_1
  6
CONTINUOUS
 10
2.456539
 20
-4.166654
  0
VERTEX
  8
PLAN_1
  6
CONTINUOUS
 10
2.452732
 20
-4.167740
  0
VERTEX
  8
PLAN_1
  6
CONTINUOUS
 10
2.449469
 20
-4.169374
  0
VERTEX
  8
PLAN_1
  6
CONTINUOUS
 10
2.445661
 20
-4.171004
  0
VERTEX
  8
PLAN_1
  6
CONTINUOUS
 10
2.442398
 20
-4.173181
  0
VERTEX
  8
PLAN_1
  6
CONTINUOUS
 10
2.439134
 20
-4.175358
  0
VERTEX
  8
PLAN_1
  6
CONTINUOUS
 10
2.436413
 20
-4.178079
  0
VERTEX
  8
PLAN_1
  6
CONTINUOUS
 10
2.434236
 20
-4.181343
  0
VERTEX
  8
PLAN_1
  6
CONTINUOUS
 10
2.432063
 20
-4.185150
  0
VERTEX
  8
PLAN_1
  6
CONTINUOUS
 10
2.430429
 20
-4.189500
  0
VERTEX
  8
PLAN_1
  6
CONTINUOUS
 10
2.429343
 20
-4.194398
  0
VERTEX
  8
PLAN_1
  6
CONTINUOUS
 10
2.429343
 20
-4.199835
  0
VERTEX
  8
PLAN_1
  6
CONTINUOUS
 10
2.429343
 20
-4.202555
  0
VERTEX
  8
PLAN_1
  6
CONTINUOUS
 10
2.429886
 20
-4.205819
  0
VERTEX
  8
PLAN_1
  6
CONTINUOUS
 10
2.430429
 20
-4.207996
  0
VERTEX
  8
PLAN_1
  6
CONTINUOUS
 10
2.431516
 20
-4.210717
  0
VERTEX
  8
PLAN_1
  6
CONTINUOUS
 10
2.433693
 20
-4.214524
  0
VERTEX
  8
PLAN_1
  6
CONTINUOUS
 10
2.436413
 20
-4.217787
  0
VERTEX
  8
PLAN_1
  6
CONTINUOUS
 10
2.440220
 20
-4.220508
  0
VERTEX
  8
PLAN_1
  6
CONTINUOUS
 10
2.444028
 20
-4.222138
  0
VERTEX
  8
PLAN_1
  6
CONTINUOUS
 10
2.448382
 20
-4.223772
  0
VERTEX
  8
PLAN_1
  6
CONTINUOUS
 10
2.452732
 20
-4.224858
  0
VERTEX
  8
PLAN_1
  6
CONTINUOUS
 10
2.509850
 20
-4.237913
  0
VERTEX
  8
PLAN_1
  6
CONTINUOUS
 10
2.514744
 20
-4.239547
  0
VERTEX
  8
PLAN_1
  6
CONTINUOUS
 10
2.519098
 20
-4.240634
  0
VERTEX
  8
PLAN_1
  6
CONTINUOUS
 10
2.523449
 20
-4.242811
  0
VERTEX
  8
PLAN_1
  6
CONTINUOUS
 10
2.527803
 20
-4.244441
  0
VERTEX
  8
PLAN_1
  6
CONTINUOUS
 10
2.531610
 20
-4.246618
  0
VERTEX
  8
PLAN_1
  6
CONTINUOUS
 10
2.535417
 20
-4.249339
  0
VERTEX
  8
PLAN_1
  6
CONTINUOUS
 10
2.538681
 20
-4.252059
  0
VERTEX
  8
PLAN_1
  6
CONTINUOUS
 10
2.541945
 20
-4.255323
  0
VERTEX
  8
PLAN_1
  6
CONTINUOUS
 10
2.544665
 20
-4.258587
  0
VERTEX
  8
PLAN_1
  6
CONTINUOUS
 10
2.547386
 20
-4.262394
  0
VERTEX
  8
PLAN_1
  6
CONTINUOUS
 10
2.549559
 20
-4.266201
  0
VERTEX
  8
PLAN_1
  6
CONTINUOUS
 10
2.551736
 20
-4.270551
  0
VERTEX
  8
PLAN_1
  6
CONTINUOUS
 10
2.552823
 20
-4.275449
  0
VERTEX
  8
PLAN_1
  6
CONTINUOUS
 10
2.553913
 20
-4.280343
  0
VERTEX
  8
PLAN_1
  6
CONTINUOUS
 10
2.555000
 20
-4.285783
  0
VERTEX
  8
PLAN_1
  6
CONTINUOUS
 10
2.555000
 20
-4.291224
  0
VERTEX
  8
PLAN_1
  6
CONTINUOUS
 10
2.554457
 20
-4.299929
  0
VERTEX
  8
PLAN_1
  6
CONTINUOUS
 10
2.552823
 20
-4.307543
  0
VERTEX
  8
PLAN_1
  6
CONTINUOUS
 10
2.550650
 20
-4.314614
  0
VERTEX
  8
PLAN_1
  6
CONTINUOUS
 10
2.547386
 20
-4.320598
  0
VERTEX
  8
PLAN_1
  6
CONTINUOUS
 10
2.543575
 20
-4.326039
  0
VERTEX
  8
PLAN_1
  6
CONTINUOUS
 10
2.539224
 20
-4.330933
  0
VERTEX
  8
PLAN_1
  6
CONTINUOUS
 10
2.534331
 20
-4.335287
  0
VERTEX
  8
PLAN_1
  6
CONTINUOUS
 10
2.528890
 20
-4.339094
  0
VERTEX
  8
PLAN_1
  6
CONTINUOUS
 10
2.522906
 20
-4.342358
  0
VERTEX
  8
PLAN_1
  6
CONTINUOUS
 10
2.516921
 20
-4.345079
  0
VERTEX
  8
PLAN_1
  6
CONTINUOUS
 10
2.510394
 20
-4.347252
  0
VERTEX
  8
PLAN_1
  6
CONTINUOUS
 10
2.503323
 20
-4.348886
  0
VERTEX
  8
PLAN_1
  6
CONTINUOUS
 10
2.496795
 20
-4.349972
  0
VERTEX
  8
PLAN_1
  6
CONTINUOUS
 10
2.490268
 20
-4.351063
  0
VERTEX
  8
PLAN_1
  6
CONTINUOUS
 10
2.483740
 20
-4.351606
  0
VERTEX
  8
PLAN_1
  6
CONTINUOUS
 10
2.477213
 20
-4.351606
  0
VERTEX
  8
PLAN_1
  6
CONTINUOUS
 10
2.464157
 20
-4.351063
  0
VERTEX
  8
PLAN_1
  6
CONTINUOUS
 10
2.453276
 20
-4.349972
  0
VERTEX
  8
PLAN_1
  6
CONTINUOUS
 10
2.444028
 20
-4.347799
  0
VERTEX
  8
PLAN_1
  6
CONTINUOUS
 10
2.436413
 20
-4.345079
  0
VERTEX
  8
PLAN_1
  6
CONTINUOUS
 10
2.429886
 20
-4.341815
  0
VERTEX
  8
PLAN_1
  6
CONTINUOUS
 10
2.424988
 20
-4.339094
  0
VERTEX
  8
PLAN_1
  6
CONTINUOUS
 10
2.420638
 20
-4.335831
  0
VERTEX
  8
PLAN_1
  6
CONTINUOUS
 10
2.416831
 20
-4.332567
  0
VERTEX
  8
PLAN_1
  6
CONTINUOUS
 10
2.410846
 20
-4.326583
  0
VERTEX
  8
PLAN_1
  6
CONTINUOUS
 10
2.406496
 20
-4.320598
  0
VERTEX
  8
PLAN_1
  6
CONTINUOUS
 10
2.402685
 20
-4.314614
  0
VERTEX
  8
PLAN_1
  6
CONTINUOUS
 10
2.400512
 20
-4.308630
  0
VERTEX
  8
PLAN_1
  6
CONTINUOUS
 10
2.398335
 20
-4.302102
  0
VERTEX
  8
PLAN_1
  6
CONTINUOUS
 10
2.397248
 20
-4.295575
  0
VERTEX
  8
PLAN_1
  6
CONTINUOUS
 10
2.396705
 20
-4.289047
  0
VERTEX
  8
PLAN_1
  6
CONTINUOUS
 10
2.396705
 20
-4.281976
  0
VERTEX
  8
PLAN_1
  6
CONTINUOUS
 10
2.421724
 20
-4.281976
  0
VERTEX
  8
PLAN_1
  6
CONTINUOUS
 10
2.422272
 20
-4.288504
  0
VERTEX
  8
PLAN_1
  6
CONTINUOUS
 10
2.422815
 20
-4.294488
  0
VERTEX
  8
PLAN_1
  6
CONTINUOUS
 10
2.424445
 20
-4.299382
  0
VERTEX
  8
PLAN_1
  6
CONTINUOUS
 10
2.426622
 20
-4.304280
  0
VERTEX
  8
PLAN_1
  6
CONTINUOUS
 10
2.429343
 20
-4.308630
  0
VERTEX
  8
PLAN_1
  6
CONTINUOUS
 10
2.432606
 20
-4.312441
  0
VERTEX
  8
PLAN_1
  6
CONTINUOUS
 10
2.435870
 20
-4.315705
  0
VERTEX
  8
PLAN_1
  6
CONTINUOUS
 10
2.439677
 20
-4.318969
  0
VERTEX
  8
PLAN_1
  6
CONTINUOUS
 10
2.443484
 20
-4.321142
  0
VERTEX
  8
PLAN_1
  6
CONTINUOUS
 10
2.447839
 20
-4.323319
  0
VERTEX
  8
PLAN_1
  6
CONTINUOUS
 10
2.452732
 20
-4.324949
  0
VERTEX
  8
PLAN_1
  6
CONTINUOUS
 10
2.457083
 20
-4.326583
  0
VERTEX
  8
PLAN_1
  6
CONTINUOUS
 10
2.461980
 20
-4.327126
  0
VERTEX
  8
PLAN_1
  6
CONTINUOUS
 10
2.466878
 20
-4.328213
  0
VERTEX
  8
PLAN_1
  6
CONTINUOUS
 10
2.471772
 20
-4.328213
  0
VERTEX
  8
PLAN_1
  6
CONTINUOUS
 10
2.476669
 20
-4.328760
  0
VERTEX
  8
PLAN_1
  6
CONTINUOUS
 10
2.484283
 20
-4.328213
  0
VERTEX
  8
PLAN_1
  6
CONTINUOUS
 10
2.492988
 20
-4.327126
  0
VERTEX
  8
PLAN_1
  6
CONTINUOUS
 10
2.497339
 20
-4.326583
  0
VERTEX
  8
PLAN_1
  6
CONTINUOUS
 10
2.501689
 20
-4.325496
  0
VERTEX
  8
PLAN_1
  6
CONTINUOUS
 10
2.506043
 20
-4.324406
  0
VERTEX
  8
PLAN_1
  6
CONTINUOUS
 10
2.509850
 20
-4.322232
  0
VERTEX
  8
PLAN_1
  6
CONTINUOUS
 10
2.514201
 20
-4.320598
  0
VERTEX
  8
PLAN_1
  6
CONTINUOUS
 10
2.517465
 20
-4.318421
  0
VERTEX
  8
PLAN_1
  6
CONTINUOUS
 10
2.520728
 20
-4.315705
  0
VERTEX
  8
PLAN_1
  6
CONTINUOUS
 10
2.523449
 20
-4.312441
  0
VERTEX
  8
PLAN_1
  6
CONTINUOUS
 10
2.525626
 20
-4.308630
  0
VERTEX
  8
PLAN_1
  6
CONTINUOUS
 10
2.527256
 20
-4.304823
  0
VERTEX
  8
PLAN_1
  6
CONTINUOUS
 10
2.528346
 20
-4.299929
  0
VERTEX
  8
PLAN_1
  6
CONTINUOUS
 10
2.528890
 20
-4.295031
  0
VERTEX
  8
PLAN_1
  6
CONTINUOUS
 10
2.528890
 20
-4.291224
  0
VERTEX
  8
PLAN_1
  6
CONTINUOUS
 10
2.528346
 20
-4.287961
  0
VERTEX
  8
PLAN_1
  6
CONTINUOUS
 10
2.527803
 20
-4.284697
  0
VERTEX
  8
PLAN_1
  6
CONTINUOUS
 10
2.526713
 20
-4.281976
  0
VERTEX
  8
PLAN_1
  6
CONTINUOUS
 10
2.525626
 20
-4.279256
  0
VERTEX
  8
PLAN_1
  6
CONTINUOUS
 10
2.523992
 20
-4.276535
  0
VERTEX
  8
PLAN_1
  6
CONTINUOUS
 10
2.522362
 20
-4.274362
  0
VERTEX
  8
PLAN_1
  6
CONTINUOUS
 10
2.520185
 20
-4.272728
  0
VERTEX
  8
PLAN_1
  6
CONTINUOUS
 10
2.517465
 20
-4.270551
  0
VERTEX
  8
PLAN_1
  6
CONTINUOUS
 10
2.514201
 20
-4.268921
  0
VERTEX
  8
PLAN_1
  6
CONTINUOUS
 10
2.510937
 20
-4.267287
  0
VERTEX
  8
PLAN_1
  6
CONTINUOUS
 10
2.507130
 20
-4.265657
  0
VERTEX
  8
PLAN_1
  6
CONTINUOUS
 10
2.497882
 20
-4.262394
  0
VERTEX
  8
PLAN_1
  6
CONTINUOUS
 10
2.486461
 20
-4.259673
  0
VERTEX
  8
PLAN_1
  6
CONTINUOUS
 10
2.445661
 20
-4.250425
  0
VERTEX
  8
PLAN_1
  6
CONTINUOUS
 10
2.440220
 20
-4.248795
  0
VERTEX
  8
PLAN_1
  6
CONTINUOUS
 10
2.433693
 20
-4.246618
  0
VERTEX
  8
PLAN_1
  6
CONTINUOUS
 10
2.429886
 20
-4.244984
  0
VERTEX
  8
PLAN_1
  6
CONTINUOUS
 10
2.426622
 20
-4.243354
  0
VERTEX
  8
PLAN_1
  6
CONTINUOUS
 10
2.422815
 20
-4.241177
  0
VERTEX
  8
PLAN_1
  6
CONTINUOUS
 10
2.419551
 20
-4.238457
  0
VERTEX
  8
PLAN_1
  6
CONTINUOUS
 10
2.416287
 20
-4.235740
  0
VERTEX
  8
PLAN_1
  6
CONTINUOUS
 10
2.413024
 20
-4.232476
  0
VERTEX
  8
PLAN_1
  6
CONTINUOUS
 10
2.410303
 20
-4.229213
  0
VERTEX
  8
PLAN_1
  6
CONTINUOUS
 10
2.408126
 20
-4.224858
  0
VERTEX
  8
PLAN_1
  6
CONTINUOUS
 10
2.405949
 20
-4.220508
  0
VERTEX
  8
PLAN_1
  6
CONTINUOUS
 10
2.404319
 20
-4.215067
  0
VERTEX
  8
PLAN_1
  6
CONTINUOUS
 10
2.403232
 20
-4.209626
  0
VERTEX
  8
PLAN_1
  6
CONTINUOUS
 10
2.403232
 20
-4.203646
  0
VERTEX
  8
PLAN_1
  6
CONTINUOUS
 10
2.403232
 20
-4.197661
  0
VERTEX
  8
PLAN_1
  6
CONTINUOUS
 10
2.404319
 20
-4.191677
  0
VERTEX
  8
PLAN_1
  6
CONTINUOUS
 10
2.405406
 20
-4.186236
  0
VERTEX
  8
PLAN_1
  6
CONTINUOUS
 10
2.407039
 20
-4.180795
  0
VERTEX
  8
PLAN_1
  6
CONTINUOUS
 10
2.409217
 20
-4.175358
  0
VERTEX
  8
PLAN_1
  6
CONTINUOUS
 10
2.411933
 20
-4.170461
  0
VERTEX
  8
PLAN_1
  6
CONTINUOUS
 10
2.415197
 20
-4.165567
  0
VERTEX
  8
PLAN_1
  6
CONTINUOUS
 10
2.419551
 20
-4.160669
  0
VERTEX
  8
PLAN_1
  6
CONTINUOUS
 10
2.423902
 20
-4.156862
  0
VERTEX
  8
PLAN_1
  6
CONTINUOUS
 10
2.428799
 20
-4.153055
  0
VERTEX
  8
PLAN_1
  6
CONTINUOUS
 10
2.434236
 20
-4.149791
  0
VERTEX
  8
PLAN_1
  6
CONTINUOUS
 10
2.440764
 20
-4.147071
  0
VERTEX
  8
PLAN_1
  6
CONTINUOUS
 10
2.447291
 20
-4.144894
  0
VERTEX
  8
PLAN_1
  6
CONTINUOUS
 10
2.454909
 20
-4.143264
  0
VERTEX
  8
PLAN_1
  6
CONTINUOUS
 10
2.463067
 20
-4.142173
  0
VERTEX
  8
PLAN_1
  6
CONTINUOUS
 10
2.471772
 20
-4.141630
  0
VERTEX
  8
PLAN_1
  6
CONTINUOUS
 10
2.484283
 20
-4.142173
  0
VERTEX
  8
PLAN_1
  6
CONTINUOUS
 10
2.495161
 20
-4.143807
  0
VERTEX
  8
PLAN_1
  6
CONTINUOUS
 10
2.504409
 20
-4.145984
  0
VERTEX
  8
PLAN_1
  6
CONTINUOUS
 10
2.513114
 20
-4.148701
  0
VERTEX
  8
PLAN_1
  6
CONTINUOUS
 10
2.520185
 20
-4.151965
  0
VERTEX
  8
PLAN_1
  6
CONTINUOUS
 10
2.526713
 20
-4.156319
  0
VERTEX
  8
PLAN_1
  6
CONTINUOUS
 10
2.532154
 20
-4.160669
  0
VERTEX
  8
PLAN_1
  6
CONTINUOUS
 10
2.536504
 20
-4.165567
  0
VERTEX
  8
PLAN_1
  6
CONTINUOUS
 10
2.539768
 20
-4.170461
  0
VERTEX
  8
PLAN_1
  6
CONTINUOUS
 10
2.542488
 20
-4.175358
  0
VERTEX
  8
PLAN_1
  6
CONTINUOUS
 10
2.545209
 20
-4.180795
  0
VERTEX
  8
PLAN_1
  6
CONTINUOUS
 10
2.546839
 20
-4.186236
  0
VERTEX
  8
PLAN_1
  6
CONTINUOUS
 10
2.548472
 20
-4.196028
  0
VERTEX
  8
PLAN_1
  6
CONTINUOUS
 10
2.549559
 20
-4.205276
  0
VERTEX
  8
PLAN_1
  6
CONTINUOUS
 10
2.523992
 20
-4.205276
  0
SEQEND
  8
0
  0
POLYLINE
  8
PLAN_1
  6
CONTINUOUS
 66
     1
 40
0.008157
 41
0.008157
  0
VERTEX
  8
PLAN_1
  6
CONTINUOUS
 10
-2.202606
 20
3.063866
  0
VERTEX
  8
PLAN_1
  6
CONTINUOUS
 10
-2.202606
 20
3.957075
  0
VERTEX
  8
PLAN_1
  6
CONTINUOUS
 10
-2.400614
 20
3.957075
  0
VERTEX
  8
PLAN_1
  6
CONTINUOUS
 10
-2.400614
 20
3.063866
  0
VERTEX
  8
PLAN_1
  6
CONTINUOUS
 10
-2.202606
 20
3.063866
  0
SEQEND
  8
0
  0
POLYLINE
  8
PLAN_1
  6
CONTINUOUS
 66
     1
 40
0.008157
 41
0.008157
  0
VERTEX
  8
PLAN_1
  6
CONTINUOUS
 10
-2.202606
 20
3.298862
  0
VERTEX
  8
PLAN_1
  6
CONTINUOUS
 10
-2.202606
 20
3.717181
  0
VERTEX
  8
PLAN_1
  6
CONTINUOUS
 10
-2.124276
 20
3.717181
  0
VERTEX
  8
PLAN_1
  6
CONTINUOUS
 10
-2.124276
 20
3.298862
  0
VERTEX
  8
PLAN_1
  6
CONTINUOUS
 10
-2.202606
 20
3.298862
  0
SEQEND
  8
0
  0
POLYLINE
  8
PLAN_1
  6
CONTINUOUS
 66
     1
 40
0.008157
 41
0.008157
  0
VERTEX
  8
PLAN_1
  6
CONTINUOUS
 10
-2.400614
 20
3.259154
  0
VERTEX
  8
PLAN_1
  6
CONTINUOUS
 10
-2.400614
 20
3.754717
  0
VERTEX
  8
PLAN_1
  6
CONTINUOUS
 10
-2.518114
 20
3.754717
  0
VERTEX
  8
PLAN_1
  6
CONTINUOUS
 10
-2.518114
 20
3.259154
  0
VERTEX
  8
PLAN_1
  6
CONTINUOUS
 10
-2.400614
 20
3.259154
  0
SEQEND
  8
0
  0
POLYLINE
  8
PLAN_1
  6
CONTINUOUS
 66
     1
 40
0.007071
 41
0.007071
  0
VERTEX
  8
PLAN_1
  6
CONTINUOUS
 10
-2.517571
 20
3.627969
  0
VERTEX
  8
PLAN_1
  6
CONTINUOUS
 10
-2.403878
 20
3.627969
  0
SEQEND
  8
0
  0
POLYLINE
  8
PLAN_1
  6
CONTINUOUS
 66
     1
 40
0.007071
 41
0.007071
  0
VERTEX
  8
PLAN_1
  6
CONTINUOUS
 10
-2.517571
 20
3.385354
  0
VERTEX
  8
PLAN_1
  6
CONTINUOUS
 10
-2.403878
 20
3.385354
  0
SEQEND
  8
0
  0
POLYLINE
  8
PLAN_1
  6
CONTINUOUS
 66
     1
 40
0.007071
 41
0.007071
  0
VERTEX
  8
PLAN_1
  6
CONTINUOUS
 10
-2.503972
 20
3.754169
  0
VERTEX
  8
PLAN_1
  6
CONTINUOUS
 10
-2.505602
 20
3.751453
  0
VERTEX
  8
PLAN_1
  6
CONTINUOUS
 10
-2.508866
 20
3.743291
  0
VERTEX
  8
PLAN_1
  6
CONTINUOUS
 10
-2.510500
 20
3.737307
  0
VERTEX
  8
PLAN_1
  6
CONTINUOUS
 10
-2.512673
 20
3.730780
  0
VERTEX
  8
PLAN_1
  6
CONTINUOUS
 10
-2.514850
 20
3.723165
  0
VERTEX
  8
PLAN_1
  6
CONTINUOUS
 10
-2.516480
 20
3.714461
  0
VERTEX
  8
PLAN_1
  6
CONTINUOUS
 10
-2.517571
 20
3.705213
  0
VERTEX
  8
PLAN_1
  6
CONTINUOUS
 10
-2.518114
 20
3.694878
  0
VERTEX
  8
PLAN_1
  6
CONTINUOUS
 10
-2.518114
 20
3.684543
  0
VERTEX
  8
PLAN_1
  6
CONTINUOUS
 10
-2.517028
 20
3.673661
  0
VERTEX
  8
PLAN_1
  6
CONTINUOUS
 10
-2.515937
 20
3.668224
  0
VERTEX
  8
PLAN_1
  6
CONTINUOUS
 10
-2.514850
 20
3.662783
  0
VERTEX
  8
PLAN_1
  6
CONTINUOUS
 10
-2.513764
 20
3.656799
  0
VERTEX
  8
PLAN_1
  6
CONTINUOUS
 10
-2.511587
 20
3.650815
  0
VERTEX
  8
PLAN_1
  6
CONTINUOUS
 10
-2.509953
 20
3.645378
  0
VERTEX
  8
PLAN_1
  6
CONTINUOUS
 10
-2.507236
 20
3.639394
  0
VERTEX
  8
PLAN_1
  6
CONTINUOUS
 10
-2.504516
 20
3.633409
  0
VERTEX
  8
PLAN_1
  6
CONTINUOUS
 10
-2.501252
 20
3.627425
  0
VERTEX
  8
PLAN_1
  6
CONTINUOUS
 10
-2.502882
 20
3.623075
  0
VERTEX
  8
PLAN_1
  6
CONTINUOUS
 10
-2.506689
 20
3.610016
  0
VERTEX
  8
PLAN_1
  6
CONTINUOUS
 10
-2.508866
 20
3.600772
  0
VERTEX
  8
PLAN_1
  6
CONTINUOUS
 10
-2.511043
 20
3.589346
  0
VERTEX
  8
PLAN_1
  6
CONTINUOUS
 10
-2.513217
 20
3.575748
  0
VERTEX
  8
PLAN_1
  6
CONTINUOUS
 10
-2.514850
 20
3.560516
  0
VERTEX
  8
PLAN_1
  6
CONTINUOUS
 10
-2.516480
 20
3.544197
  0
VERTEX
  8
PLAN_1
  6
CONTINUOUS
 10
-2.517571
 20
3.525701
  0
VERTEX
  8
PLAN_1
  6
CONTINUOUS
 10
-2.518114
 20
3.505575
  0
VERTEX
  8
PLAN_1
  6
CONTINUOUS
 10
-2.517571
 20
3.484358
  0
VERTEX
  8
PLAN_1
  6
CONTINUOUS
 10
-2.516480
 20
3.461512
  0
VERTEX
  8
PLAN_1
  6
CONTINUOUS
 10
-2.513764
 20
3.437035
  0
VERTEX
  8
PLAN_1
  6
CONTINUOUS
 10
-2.512130
 20
3.424524
  0
VERTEX
  8
PLAN_1
  6
CONTINUOUS
 10
-2.509953
 20
3.411469
  0
VERTEX
  8
PLAN_1
  6
CONTINUOUS
 10
-2.507236
 20
3.398409
  0
VERTEX
  8
PLAN_1
  6
CONTINUOUS
 10
-2.504516
 20
3.384811
  0
VERTEX
  8
PLAN_1
  6
CONTINUOUS
 10
-2.505602
 20
3.382091
  0
VERTEX
  8
PLAN_1
  6
CONTINUOUS
 10
-2.508866
 20
3.374476
  0
VERTEX
  8
PLAN_1
  6
CONTINUOUS
 10
-2.511043
 20
3.368492
  0
VERTEX
  8
PLAN_1
  6
CONTINUOUS
 10
-2.513217
 20
3.361965
  0
VERTEX
  8
PLAN_1
  6
CONTINUOUS
 10
-2.514850
 20
3.354350
  0
VERTEX
  8
PLAN_1
  6
CONTINUOUS
 10
-2.516480
 20
3.346189
  0
VERTEX
  8
PLAN_1
  6
CONTINUOUS
 10
-2.518114
 20
3.336941
  0
VERTEX
  8
PLAN_1
  6
CONTINUOUS
 10
-2.518657
 20
3.327150
  0
VERTEX
  8
PLAN_1
  6
CONTINUOUS
 10
-2.518657
 20
3.316815
  0
VERTEX
  8
PLAN_1
  6
CONTINUOUS
 10
-2.517571
 20
3.305937
  0
VERTEX
  8
PLAN_1
  6
CONTINUOUS
 10
-2.516480
 20
3.300496
  0
VERTEX
  8
PLAN_1
  6
CONTINUOUS
 10
-2.515394
 20
3.295055
  0
VERTEX
  8
PLAN_1
  6
CONTINUOUS
 10
-2.513764
 20
3.289071
  0
VERTEX
  8
PLAN_1
  6
CONTINUOUS
 10
-2.512130
 20
3.283634
  0
VERTEX
  8
PLAN_1
  6
CONTINUOUS
 10
-2.509953
 20
3.277650
  0
VERTEX
  8
PLAN_1
  6
CONTINUOUS
 10
-2.507780
 20
3.272209
  0
VERTEX
  8
PLAN_1
  6
CONTINUOUS
 10
-2.505059
 20
3.266224
  0
VERTEX
  8
PLAN_1
  6
CONTINUOUS
 10
-2.501795
 20
3.260240
  0
SEQEND
  8
0
  0
POLYLINE
  8
PLAN_1
 62
     5
  6
CONTINUOUS
 66
     1
 40
0.003000
 41
0.003000
  0
VERTEX
  8
PLAN_1
 62
     5
  6
CONTINUOUS
 10
-1.535150
 20
3.248276
  0
VERTEX
  8
PLAN_1
 62
     5
  6
CONTINUOUS
 10
-1.526992
 20
3.248276
  0
SEQEND
  8
0
  0
POLYLINE
  8
PLAN_1
 62
     5
  6
CONTINUOUS
 66
     1
 40
0.003000
 41
0.003000
  0
VERTEX
  8
PLAN_1
 62
     5
  6
CONTINUOUS
 10
-1.518287
 20
3.248276
  0
VERTEX
  8
PLAN_1
 62
     5
  6
CONTINUOUS
 10
-1.510126
 20
3.248276
  0
SEQEND
  8
0
  0
POLYLINE
  8
PLAN_1
 62
     5
  6
CONTINUOUS
 66
     1
 40
0.003000
 41
0.003000
  0
VERTEX
  8
PLAN_1
 62
     5
  6
CONTINUOUS
 10
-1.501969
 20
3.248276
  0
VERTEX
  8
PLAN_1
 62
     5
  6
CONTINUOUS
 10
-1.493264
 20
3.248276
  0
SEQEND
  8
0
  0
POLYLINE
  8
PLAN_1
 62
     5
  6
CONTINUOUS
 66
     1
 40
0.003000
 41
0.003000
  0
VERTEX
  8
PLAN_1
 62
     5
  6
CONTINUOUS
 10
-1.485106
 20
3.248276
  0
VERTEX
  8
PLAN_1
 62
     5
  6
CONTINUOUS
 10
-1.476945
 20
3.248276
  0
SEQEND
  8
0
  0
POLYLINE
  8
PLAN_1
 62
     5
  6
CONTINUOUS
 66
     1
 40
0.003000
 41
0.003000
  0
VERTEX
  8
PLAN_1
 62
     5
  6
CONTINUOUS
 10
-1.468787
 20
3.248276
  0
VERTEX
  8
PLAN_1
 62
     5
  6
CONTINUOUS
 10
-1.460083
 20
3.248276
  0
SEQEND
  8
0
  0
POLYLINE
  8
PLAN_1
 62
     5
  6
CONTINUOUS
 66
     1
 40
0.003000
 41
0.003000
  0
VERTEX
  8
PLAN_1
 62
     5
  6
CONTINUOUS
 10
-1.451921
 20
3.248276
  0
VERTEX
  8
PLAN_1
 62
     5
  6
CONTINUOUS
 10
-1.443764
 20
3.248276
  0
SEQEND
  8
0
  0
POLYLINE
  8
PLAN_1
 62
     5
  6
CONTINUOUS
 66
     1
 40
0.003000
 41
0.003000
  0
VERTEX
  8
PLAN_1
 62
     5
  6
CONTINUOUS
 10
-1.435059
 20
3.248276
  0
VERTEX
  8
PLAN_1
 62
     5
  6
CONTINUOUS
 10
-1.426898
 20
3.248276
  0
SEQEND
  8
0
  0
POLYLINE
  8
PLAN_1
 62
     5
  6
CONTINUOUS
 66
     1
 40
0.003000
 41
0.003000
  0
VERTEX
  8
PLAN_1
 62
     5
  6
CONTINUOUS
 10
-1.418740
 20
3.248276
  0
VERTEX
  8
PLAN_1
 62
     5
  6
CONTINUOUS
 10
-1.417654
 20
3.248276
  0
VERTEX
  8
PLAN_1
 62
     5
  6
CONTINUOUS
 10
-1.417654
 20
3.255890
  0
SEQEND
  8
0
  0
POLYLINE
  8
PLAN_1
 62
     5
  6
CONTINUOUS
 66
     1
 40
0.003000
 41
0.003000
  0
VERTEX
  8
PLAN_1
 62
     5
  6
CONTINUOUS
 10
-1.417654
 20
3.264594
  0
VERTEX
  8
PLAN_1
 62
     5
  6
CONTINUOUS
 10
-1.417654
 20
3.272752
  0
SEQEND
  8
0
  0
POLYLINE
  8
PLAN_1
 62
     5
  6
CONTINUOUS
 66
     1
 40
0.003000
 41
0.003000
  0
VERTEX
  8
PLAN_1
 62
     5
  6
CONTINUOUS
 10
-1.417654
 20
3.280913
  0
VERTEX
  8
PLAN_1
 62
     5
  6
CONTINUOUS
 10
-1.417654
 20
3.289618
  0
SEQEND
  8
0
  0
POLYLINE
  8
PLAN_1
 62
     5
  6
CONTINUOUS
 66
     1
 40
0.003000
 41
0.003000
  0
VERTEX
  8
PLAN_1
 62
     5
  6
CONTINUOUS
 10
-1.417654
 20
3.297776
  0
VERTEX
  8
PLAN_1
 62
     5
  6
CONTINUOUS
 10
-1.417654
 20
3.305937
  0
SEQEND
  8
0
  0
POLYLINE
  8
PLAN_1
 62
     5
  6
CONTINUOUS
 66
     1
 40
0.003000
 41
0.003000
  0
VERTEX
  8
PLAN_1
 62
     5
  6
CONTINUOUS
 10
-1.417654
 20
3.314094
  0
VERTEX
  8
PLAN_1
 62
     5
  6
CONTINUOUS
 10
-1.417654
 20
3.322799
  0
SEQEND
  8
0
  0
POLYLINE
  8
PLAN_1
 62
     5
  6
CONTINUOUS
 66
     1
 40
0.003000
 41
0.003000
  0
VERTEX
  8
PLAN_1
 62
     5
  6
CONTINUOUS
 10
-1.417654
 20
3.330957
  0
VERTEX
  8
PLAN_1
 62
     5
  6
CONTINUOUS
 10
-1.417654
 20
3.339118
  0
SEQEND
  8
0
  0
POLYLINE
  8
PLAN_1
 62
     5
  6
CONTINUOUS
 66
     1
 40
0.003000
 41
0.003000
  0
VERTEX
  8
PLAN_1
 62
     5
  6
CONTINUOUS
 10
-1.417654
 20
3.347823
  0
VERTEX
  8
PLAN_1
 62
     5
  6
CONTINUOUS
 10
-1.417654
 20
3.355980
  0
SEQEND
  8
0
  0
POLYLINE
  8
PLAN_1
 62
     5
  6
CONTINUOUS
 66
     1
 40
0.003000
 41
0.003000
  0
VERTEX
  8
PLAN_1
 62
     5
  6
CONTINUOUS
 10
-1.417654
 20
3.364142
  0
VERTEX
  8
PLAN_1
 62
     5
  6
CONTINUOUS
 10
-1.417654
 20
3.372843
  0
SEQEND
  8
0
  0
POLYLINE
  8
PLAN_1
 62
     5
  6
CONTINUOUS
 66
     1
 40
0.003000
 41
0.003000
  0
VERTEX
  8
PLAN_1
 62
     5
  6
CONTINUOUS
 10
-1.417654
 20
3.381004
  0
VERTEX
  8
PLAN_1
 62
     5
  6
CONTINUOUS
 10
-1.417654
 20
3.389165
  0
SEQEND
  8
0
  0
POLYLINE
  8
PLAN_1
 62
     5
  6
CONTINUOUS
 66
     1
 40
0.003000
 41
0.003000
  0
VERTEX
  8
PLAN_1
 62
     5
  6
CONTINUOUS
 10
-1.417654
 20
3.397866
  0
VERTEX
  8
PLAN_1
 62
     5
  6
CONTINUOUS
 10
-1.417654
 20
3.406028
  0
SEQEND
  8
0
  0
POLYLINE
  8
PLAN_1
 62
     5
  6
CONTINUOUS
 66
     1
 40
0.003000
 41
0.003000
  0
VERTEX
  8
PLAN_1
 62
     5
  6
CONTINUOUS
 10
-1.417654
 20
3.414185
  0
VERTEX
  8
PLAN_1
 62
     5
  6
CONTINUOUS
 10
-1.417654
 20
3.422346
  0
SEQEND
  8
0
  0
POLYLINE
  8
PLAN_1
 62
     5
  6
CONTINUOUS
 66
     1
 40
0.003000
 41
0.003000
  0
VERTEX
  8
PLAN_1
 62
     5
  6
CONTINUOUS
 10
-1.417654
 20
3.431051
  0
VERTEX
  8
PLAN_1
 62
     5
  6
CONTINUOUS
 10
-1.417654
 20
3.439209
  0
SEQEND
  8
0
  0
POLYLINE
  8
PLAN_1
 62
     5
  6
CONTINUOUS
 66
     1
 40
0.003000
 41
0.003000
  0
VERTEX
  8
PLAN_1
 62
     5
  6
CONTINUOUS
 10
-1.417654
 20
3.447370
  0
VERTEX
  8
PLAN_1
 62
     5
  6
CONTINUOUS
 10
-1.417654
 20
3.456071
  0
SEQEND
  8
0
  0
POLYLINE
  8
PLAN_1
 62
     5
  6
CONTINUOUS
 66
     1
 40
0.003000
 41
0.003000
  0
VERTEX
  8
PLAN_1
 62
     5
  6
CONTINUOUS
 10
-1.417654
 20
3.464232
  0
VERTEX
  8
PLAN_1
 62
     5
  6
CONTINUOUS
 10
-1.417654
 20
3.472394
  0
SEQEND
  8
0
  0
POLYLINE
  8
PLAN_1
 62
     5
  6
CONTINUOUS
 66
     1
 40
0.003000
 41
0.003000
  0
VERTEX
  8
PLAN_1
 62
     5
  6
CONTINUOUS
 10
-1.417654
 20
3.481094
  0
VERTEX
  8
PLAN_1
 62
     5
  6
CONTINUOUS
 10
-1.417654
 20
3.489256
  0
SEQEND
  8
0
  0
POLYLINE
  8
PLAN_1
 62
     5
  6
CONTINUOUS
 66
     1
 40
0.003000
 41
0.003000
  0
VERTEX
  8
PLAN_1
 62
     5
  6
CONTINUOUS
 10
-1.417654
 20
3.497413
  0
VERTEX
  8
PLAN_1
 62
     5
  6
CONTINUOUS
 10
-1.417654
 20
3.506118
  0
SEQEND
  8
0
  0
POLYLINE
  8
PLAN_1
 62
     5
  6
CONTINUOUS
 66
     1
 40
0.003000
 41
0.003000
  0
VERTEX
  8
PLAN_1
 62
     5
  6
CONTINUOUS
 10
-1.417654
 20
3.514280
  0
VERTEX
  8
PLAN_1
 62
     5
  6
CONTINUOUS
 10
-1.417654
 20
3.522437
  0
SEQEND
  8
0
  0
POLYLINE
  8
PLAN_1
 62
     5
  6
CONTINUOUS
 66
     1
 40
0.003000
 41
0.003000
  0
VERTEX
  8
PLAN_1
 62
     5
  6
CONTINUOUS
 10
-1.417654
 20
3.531142
  0
VERTEX
  8
PLAN_1
 62
     5
  6
CONTINUOUS
 10
-1.417654
 20
3.539299
  0
SEQEND
  8
0
  0
POLYLINE
  8
PLAN_1
 62
     5
  6
CONTINUOUS
 66
     1
 40
0.003000
 41
0.003000
  0
VERTEX
  8
PLAN_1
 62
     5
  6
CONTINUOUS
 10
-1.417654
 20
3.547461
  0
VERTEX
  8
PLAN_1
 62
     5
  6
CONTINUOUS
 10
-1.417654
 20
3.555622
  0
SEQEND
  8
0
  0
POLYLINE
  8
PLAN_1
 62
     5
  6
CONTINUOUS
 66
     1
 40
0.003000
 41
0.003000
  0
VERTEX
  8
PLAN_1
 62
     5
  6
CONTINUOUS
 10
-1.417654
 20
3.564323
  0
VERTEX
  8
PLAN_1
 62
     5
  6
CONTINUOUS
 10
-1.417654
 20
3.572484
  0
SEQEND
  8
0
  0
POLYLINE
  8
PLAN_1
 62
     5
  6
CONTINUOUS
 66
     1
 40
0.003000
 41
0.003000
  0
VERTEX
  8
PLAN_1
 62
     5
  6
CONTINUOUS
 10
-1.417654
 20
3.580642
  0
VERTEX
  8
PLAN_1
 62
     5
  6
CONTINUOUS
 10
-1.417654
 20
3.589346
  0
SEQEND
  8
0
  0
POLYLINE
  8
PLAN_1
 62
     5
  6
CONTINUOUS
 66
     1
 40
0.003000
 41
0.003000
  0
VERTEX
  8
PLAN_1
 62
     5
  6
CONTINUOUS
 10
-1.417654
 20
3.597508
  0
VERTEX
  8
PLAN_1
 62
     5
  6
CONTINUOUS
 10
-1.417654
 20
3.605665
  0
SEQEND
  8
0
  0
POLYLINE
  8
PLAN_1
 62
     5
  6
CONTINUOUS
 66
     1
 40
0.003000
 41
0.003000
  0
VERTEX
  8
PLAN_1
 62
     5
  6
CONTINUOUS
 10
-1.417654
 20
3.614370
  0
VERTEX
  8
PLAN_1
 62
     5
  6
CONTINUOUS
 10
-1.417654
 20
3.622528
  0
SEQEND
  8
0
  0
POLYLINE
  8
PLAN_1
 62
     5
  6
CONTINUOUS
 66
     1
 40
0.003000
 41
0.003000
  0
VERTEX
  8
PLAN_1
 62
     5
  6
CONTINUOUS
 10
-1.417654
 20
3.630689
  0
VERTEX
  8
PLAN_1
 62
     5
  6
CONTINUOUS
 10
-1.417654
 20
3.639394
  0
SEQEND
  8
0
  0
POLYLINE
  8
PLAN_1
 62
     5
  6
CONTINUOUS
 66
     1
 40
0.003000
 41
0.003000
  0
VERTEX
  8
PLAN_1
 62
     5
  6
CONTINUOUS
 10
-1.417654
 20
3.647551
  0
VERTEX
  8
PLAN_1
 62
     5
  6
CONTINUOUS
 10
-1.417654
 20
3.655713
  0
SEQEND
  8
0
  0
POLYLINE
  8
PLAN_1
 62
     5
  6
CONTINUOUS
 66
     1
 40
0.003000
 41
0.003000
  0
VERTEX
  8
PLAN_1
 62
     5
  6
CONTINUOUS
 10
-1.417654
 20
3.664413
  0
VERTEX
  8
PLAN_1
 62
     5
  6
CONTINUOUS
 10
-1.417654
 20
3.672575
  0
SEQEND
  8
0
  0
POLYLINE
  8
PLAN_1
 62
     5
  6
CONTINUOUS
 66
     1
 40
0.003000
 41
0.003000
  0
VERTEX
  8
PLAN_1
 62
     5
  6
CONTINUOUS
 10
-1.417654
 20
3.680736
  0
VERTEX
  8
PLAN_1
 62
     5
  6
CONTINUOUS
 10
-1.417654
 20
3.688894
  0
SEQEND
  8
0
  0
POLYLINE
  8
PLAN_1
 62
     5
  6
CONTINUOUS
 66
     1
 40
0.003000
 41
0.003000
  0
VERTEX
  8
PLAN_1
 62
     5
  6
CONTINUOUS
 10
-1.417654
 20
3.697598
  0
VERTEX
  8
PLAN_1
 62
     5
  6
CONTINUOUS
 10
-1.417654
 20
3.705756
  0
SEQEND
  8
0
  0
POLYLINE
  8
PLAN_1
 62
     5
  6
CONTINUOUS
 66
     1
 40
0.003000
 41
0.003000
  0
VERTEX
  8
PLAN_1
 62
     5
  6
CONTINUOUS
 10
-1.417654
 20
3.713917
  0
VERTEX
  8
PLAN_1
 62
     5
  6
CONTINUOUS
 10
-1.417654
 20
3.722622
  0
SEQEND
  8
0
  0
POLYLINE
  8
PLAN_1
 62
     5
  6
CONTINUOUS
 66
     1
 40
0.003000
 41
0.003000
  0
VERTEX
  8
PLAN_1
 62
     5
  6
CONTINUOUS
 10
-1.417654
 20
3.730780
  0
VERTEX
  8
PLAN_1
 62
     5
  6
CONTINUOUS
 10
-1.417654
 20
3.738941
  0
SEQEND
  8
0
  0
POLYLINE
  8
PLAN_1
 62
     5
  6
CONTINUOUS
 66
     1
 40
0.003000
 41
0.003000
  0
VERTEX
  8
PLAN_1
 62
     5
  6
CONTINUOUS
 10
-1.421461
 20
3.743835
  0
VERTEX
  8
PLAN_1
 62
     5
  6
CONTINUOUS
 10
-1.429618
 20
3.743835
  0
SEQEND
  8
0
  0
POLYLINE
  8
PLAN_1
 62
     5
  6
CONTINUOUS
 66
     1
 40
0.003000
 41
0.003000
  0
VERTEX
  8
PLAN_1
 62
     5
  6
CONTINUOUS
 10
-1.437780
 20
3.743835
  0
VERTEX
  8
PLAN_1
 62
     5
  6
CONTINUOUS
 10
-1.446484
 20
3.743835
  0
SEQEND
  8
0
  0
POLYLINE
  8
PLAN_1
 62
     5
  6
CONTINUOUS
 66
     1
 40
0.003000
 41
0.003000
  0
VERTEX
  8
PLAN_1
 62
     5
  6
CONTINUOUS
 10
-1.454642
 20
3.743835
  0
VERTEX
  8
PLAN_1
 62
     5
  6
CONTINUOUS
 10
-1.462803
 20
3.743835
  0
SEQEND
  8
0
  0
POLYLINE
  8
PLAN_1
 62
     5
  6
CONTINUOUS
 66
     1
 40
0.003000
 41
0.003000
  0
VERTEX
  8
PLAN_1
 62
     5
  6
CONTINUOUS
 10
-1.471504
 20
3.743835
  0
VERTEX
  8
PLAN_1
 62
     5
  6
CONTINUOUS
 10
-1.479665
 20
3.743835
  0
SEQEND
  8
0
  0
POLYLINE
  8
PLAN_1
 62
     5
  6
CONTINUOUS
 66
     1
 40
0.003000
 41
0.003000
  0
VERTEX
  8
PLAN_1
 62
     5
  6
CONTINUOUS
 10
-1.487823
 20
3.743835
  0
VERTEX
  8
PLAN_1
 62
     5
  6
CONTINUOUS
 10
-1.496528
 20
3.743835
  0
SEQEND
  8
0
  0
POLYLINE
  8
PLAN_1
 62
     5
  6
CONTINUOUS
 66
     1
 40
0.003000
 41
0.003000
  0
VERTEX
  8
PLAN_1
 62
     5
  6
CONTINUOUS
 10
-1.504689
 20
3.743835
  0
VERTEX
  8
PLAN_1
 62
     5
  6
CONTINUOUS
 10
-1.512846
 20
3.743835
  0
SEQEND
  8
0
  0
POLYLINE
  8
PLAN_1
 62
     5
  6
CONTINUOUS
 66
     1
 40
0.003000
 41
0.003000
  0
VERTEX
  8
PLAN_1
 62
     5
  6
CONTINUOUS
 10
-1.521008
 20
3.743835
  0
VERTEX
  8
PLAN_1
 62
     5
  6
CONTINUOUS
 10
-1.529713
 20
3.743835
  0
SEQEND
  8
0
  0
POLYLINE
  8
PLAN_1
 62
     5
  6
CONTINUOUS
 66
     1
 40
0.003000
 41
0.003000
  0
VERTEX
  8
PLAN_1
 62
     5
  6
CONTINUOUS
 10
-1.535150
 20
3.741114
  0
VERTEX
  8
PLAN_1
 62
     5
  6
CONTINUOUS
 10
-1.535150
 20
3.732957
  0
SEQEND
  8
0
  0
POLYLINE
  8
PLAN_1
 62
     5
  6
CONTINUOUS
 66
     1
 40
0.003000
 41
0.003000
  0
VERTEX
  8
PLAN_1
 62
     5
  6
CONTINUOUS
 10
-1.535150
 20
3.724795
  0
VERTEX
  8
PLAN_1
 62
     5
  6
CONTINUOUS
 10
-1.535693
 20
3.716094
  0
SEQEND
  8
0
  0
POLYLINE
  8
PLAN_1
 62
     5
  6
CONTINUOUS
 66
     1
 40
0.003000
 41
0.003000
  0
VERTEX
  8
PLAN_1
 62
     5
  6
CONTINUOUS
 10
-1.535693
 20
3.707933
  0
VERTEX
  8
PLAN_1
 62
     5
  6
CONTINUOUS
 10
-1.535693
 20
3.705756
  0
VERTEX
  8
PLAN_1
 62
     5
  6
CONTINUOUS
 10
-1.541677
 20
3.705756
  0
SEQEND
  8
0
  0
POLYLINE
  8
PLAN_1
 62
     5
  6
CONTINUOUS
 66
     1
 40
0.003000
 41
0.003000
  0
VERTEX
  8
PLAN_1
 62
     5
  6
CONTINUOUS
 10
-1.550382
 20
3.705756
  0
VERTEX
  8
PLAN_1
 62
     5
  6
CONTINUOUS
 10
-1.558543
 20
3.705213
  0
SEQEND
  8
0
  0
POLYLINE
  8
PLAN_1
 62
     5
  6
CONTINUOUS
 66
     1
 40
0.003000
 41
0.003000
  0
VERTEX
  8
PLAN_1
 62
     5
  6
CONTINUOUS
 10
-1.566701
 20
3.705213
  0
VERTEX
  8
PLAN_1
 62
     5
  6
CONTINUOUS
 10
-1.569965
 20
3.705213
  0
VERTEX
  8
PLAN_1
 62
     5
  6
CONTINUOUS
 10
-1.569965
 20
3.710654
  0
SEQEND
  8
0
  0
POLYLINE
  8
PLAN_1
 62
     5
  6
CONTINUOUS
 66
     1
 40
0.003000
 41
0.003000
  0
VERTEX
  8
PLAN_1
 62
     5
  6
CONTINUOUS
 10
-1.569965
 20
3.718811
  0
VERTEX
  8
PLAN_1
 62
     5
  6
CONTINUOUS
 10
-1.569965
 20
3.727516
  0
SEQEND
  8
0
  0
POLYLINE
  8
PLAN_1
 62
     5
  6
CONTINUOUS
 66
     1
 40
0.003000
 41
0.003000
  0
VERTEX
  8
PLAN_1
 62
     5
  6
CONTINUOUS
 10
-1.569965
 20
3.735677
  0
VERTEX
  8
PLAN_1
 62
     5
  6
CONTINUOUS
 10
-1.569965
 20
3.743835
  0
SEQEND
  8
0
  0
POLYLINE
  8
PLAN_1
 62
     5
  6
CONTINUOUS
 66
     1
 40
0.003000
 41
0.003000
  0
VERTEX
  8
PLAN_1
 62
     5
  6
CONTINUOUS
 10
-1.569965
 20
3.751996
  0
VERTEX
  8
PLAN_1
 62
     5
  6
CONTINUOUS
 10
-1.569965
 20
3.760701
  0
SEQEND
  8
0
  0
POLYLINE
  8
PLAN_1
 62
     5
  6
CONTINUOUS
 66
     1
 40
0.003000
 41
0.003000
  0
VERTEX
  8
PLAN_1
 62
     5
  6
CONTINUOUS
 10
-1.569965
 20
3.768858
  0
VERTEX
  8
PLAN_1
 62
     5
  6
CONTINUOUS
 10
-1.569965
 20
3.777020
  0
SEQEND
  8
0
  0
POLYLINE
  8
PLAN_1
 62
     5
  6
CONTINUOUS
 66
     1
 40
0.003000
 41
0.003000
  0
VERTEX
  8
PLAN_1
 62
     5
  6
CONTINUOUS
 10
-1.569965
 20
3.785720
  0
VERTEX
  8
PLAN_1
 62
     5
  6
CONTINUOUS
 10
-1.569965
 20
3.793882
  0
SEQEND
  8
0
  0
POLYLINE
  8
PLAN_1
 62
     5
  6
CONTINUOUS
 66
     1
 40
0.003000
 41
0.003000
  0
VERTEX
  8
PLAN_1
 62
     5
  6
CONTINUOUS
 10
-1.569965
 20
3.802039
  0
VERTEX
  8
PLAN_1
 62
     5
  6
CONTINUOUS
 10
-1.569965
 20
3.810744
  0
SEQEND
  8
0
  0
POLYLINE
  8
PLAN_1
 62
     5
  6
CONTINUOUS
 66
     1
 40
0.003000
 41
0.003000
  0
VERTEX
  8
PLAN_1
 62
     5
  6
CONTINUOUS
 10
-1.569965
 20
3.818906
  0
VERTEX
  8
PLAN_1
 62
     5
  6
CONTINUOUS
 10
-1.569965
 20
3.827063
  0
SEQEND
  8
0
  0
POLYLINE
  8
PLAN_1
 62
     5
  6
CONTINUOUS
 66
     1
 40
0.003000
 41
0.003000
  0
VERTEX
  8
PLAN_1
 62
     5
  6
CONTINUOUS
 10
-1.569965
 20
3.835768
  0
VERTEX
  8
PLAN_1
 62
     5
  6
CONTINUOUS
 10
-1.569965
 20
3.843925
  0
SEQEND
  8
0
  0
POLYLINE
  8
PLAN_1
 62
     5
  6
CONTINUOUS
 66
     1
 40
0.003000
 41
0.003000
  0
VERTEX
  8
PLAN_1
 62
     5
  6
CONTINUOUS
 10
-1.569965
 20
3.852087
  0
VERTEX
  8
PLAN_1
 62
     5
  6
CONTINUOUS
 10
-1.569965
 20
3.860791
  0
SEQEND
  8
0
  0
POLYLINE
  8
PLAN_1
 62
     5
  6
CONTINUOUS
 66
     1
 40
0.003000
 41
0.003000
  0
VERTEX
  8
PLAN_1
 62
     5
  6
CONTINUOUS
 10
-1.569965
 20
3.868949
  0
VERTEX
  8
PLAN_1
 62
     5
  6
CONTINUOUS
 10
-1.569965
 20
3.877110
  0
SEQEND
  8
0
  0
POLYLINE
  8
PLAN_1
 62
     5
  6
CONTINUOUS
 66
     1
 40
0.003000
 41
0.003000
  0
VERTEX
  8
PLAN_1
 62
     5
  6
CONTINUOUS
 10
-1.569965
 20
3.885268
  0
VERTEX
  8
PLAN_1
 62
     5
  6
CONTINUOUS
 10
-1.569965
 20
3.893972
  0
SEQEND
  8
0
  0
POLYLINE
  8
PLAN_1
 62
     5
  6
CONTINUOUS
 66
     1
 40
0.003000
 41
0.003000
  0
VERTEX
  8
PLAN_1
 62
     5
  6
CONTINUOUS
 10
-1.569965
 20
3.902134
  0
VERTEX
  8
PLAN_1
 62
     5
  6
CONTINUOUS
 10
-1.569965
 20
3.910291
  0
SEQEND
  8
0
  0
POLYLINE
  8
PLAN_1
 62
     5
  6
CONTINUOUS
 66
     1
 40
0.003000
 41
0.003000
  0
VERTEX
  8
PLAN_1
 62
     5
  6
CONTINUOUS
 10
-1.569965
 20
3.918996
  0
VERTEX
  8
PLAN_1
 62
     5
  6
CONTINUOUS
 10
-1.569965
 20
3.927154
  0
SEQEND
  8
0
  0
POLYLINE
  8
PLAN_1
 62
     5
  6
CONTINUOUS
 66
     1
 40
0.003000
 41
0.003000
  0
VERTEX
  8
PLAN_1
 62
     5
  6
CONTINUOUS
 10
-1.569965
 20
3.935315
  0
VERTEX
  8
PLAN_1
 62
     5
  6
CONTINUOUS
 10
-1.569965
 20
3.944020
  0
SEQEND
  8
0
  0
POLYLINE
  8
PLAN_1
 62
     5
  6
CONTINUOUS
 66
     1
 40
0.003000
 41
0.003000
  0
VERTEX
  8
PLAN_1
 62
     5
  6
CONTINUOUS
 10
-1.577579
 20
3.944020
  0
VERTEX
  8
PLAN_1
 62
     5
  6
CONTINUOUS
 10
-1.586283
 20
3.944020
  0
SEQEND
  8
0
  0
POLYLINE
  8
PLAN_1
 62
     5
  6
CONTINUOUS
 66
     1
 40
0.003000
 41
0.003000
  0
VERTEX
  8
PLAN_1
 62
     5
  6
CONTINUOUS
 10
-1.594445
 20
3.944020
  0
VERTEX
  8
PLAN_1
 62
     5
  6
CONTINUOUS
 10
-1.602602
 20
3.944020
  0
SEQEND
  8
0
  0
POLYLINE
  8
PLAN_1
 62
     5
  6
CONTINUOUS
 66
     1
 40
0.003000
 41
0.003000
  0
VERTEX
  8
PLAN_1
 62
     5
  6
CONTINUOUS
 10
-1.611307
 20
3.944020
  0
VERTEX
  8
PLAN_1
 62
     5
  6
CONTINUOUS
 10
-1.619469
 20
3.944020
  0
SEQEND
  8
0
  0
POLYLINE
  8
PLAN_1
 62
     5
  6
CONTINUOUS
 66
     1
 40
0.003000
 41
0.003000
  0
VERTEX
  8
PLAN_1
 62
     5
  6
CONTINUOUS
 10
-1.627626
 20
3.944020
  0
VERTEX
  8
PLAN_1
 62
     5
  6
CONTINUOUS
 10
-1.635787
 20
3.944020
  0
SEQEND
  8
0
  0
POLYLINE
  8
PLAN_1
 62
     5
  6
CONTINUOUS
 66
     1
 40
0.003000
 41
0.003000
  0
VERTEX
  8
PLAN_1
 62
     5
  6
CONTINUOUS
 10
-1.644488
 20
3.944020
  0
VERTEX
  8
PLAN_1
 62
     5
  6
CONTINUOUS
 10
-1.652650
 20
3.944020
  0
SEQEND
  8
0
  0
POLYLINE
  8
PLAN_1
 62
     5
  6
CONTINUOUS
 66
     1
 40
0.003000
 41
0.003000
  0
VERTEX
  8
PLAN_1
 62
     5
  6
CONTINUOUS
 10
-1.660807
 20
3.944020
  0
VERTEX
  8
PLAN_1
 62
     5
  6
CONTINUOUS
 10
-1.669512
 20
3.944020
  0
SEQEND
  8
0
  0
POLYLINE
  8
PLAN_1
 62
     5
  6
CONTINUOUS
 66
     1
 40
0.003000
 41
0.003000
  0
VERTEX
  8
PLAN_1
 62
     5
  6
CONTINUOUS
 10
-1.677673
 20
3.944020
  0
VERTEX
  8
PLAN_1
 62
     5
  6
CONTINUOUS
 10
-1.685831
 20
3.944020
  0
SEQEND
  8
0
  0
POLYLINE
  8
PLAN_1
 62
     5
  6
CONTINUOUS
 66
     1
 40
0.003000
 41
0.003000
  0
VERTEX
  8
PLAN_1
 62
     5
  6
CONTINUOUS
 10
-1.694535
 20
3.944020
  0
VERTEX
  8
PLAN_1
 62
     5
  6
CONTINUOUS
 10
-1.702697
 20
3.944020
  0
SEQEND
  8
0
  0
POLYLINE
  8
PLAN_1
 62
     5
  6
CONTINUOUS
 66
     1
 40
0.003000
 41
0.003000
  0
VERTEX
  8
PLAN_1
 62
     5
  6
CONTINUOUS
 10
-1.710854
 20
3.944020
  0
VERTEX
  8
PLAN_1
 62
     5
  6
CONTINUOUS
 10
-1.719559
 20
3.944020
  0
SEQEND
  8
0
  0
POLYLINE
  8
PLAN_1
 62
     5
  6
CONTINUOUS
 66
     1
 40
0.003000
 41
0.003000
  0
VERTEX
  8
PLAN_1
 62
     5
  6
CONTINUOUS
 10
-1.727717
 20
3.944020
  0
VERTEX
  8
PLAN_1
 62
     5
  6
CONTINUOUS
 10
-1.735878
 20
3.944020
  0
SEQEND
  8
0
  0
POLYLINE
  8
PLAN_1
 62
     5
  6
CONTINUOUS
 66
     1
 40
0.003000
 41
0.003000
  0
VERTEX
  8
PLAN_1
 62
     5
  6
CONTINUOUS
 10
-1.744583
 20
3.944020
  0
VERTEX
  8
PLAN_1
 62
     5
  6
CONTINUOUS
 10
-1.752740
 20
3.944020
  0
SEQEND
  8
0
  0
POLYLINE
  8
PLAN_1
 62
     5
  6
CONTINUOUS
 66
     1
 40
0.003000
 41
0.003000
  0
VERTEX
  8
PLAN_1
 62
     5
  6
CONTINUOUS
 10
-1.760902
 20
3.944020
  0
VERTEX
  8
PLAN_1
 62
     5
  6
CONTINUOUS
 10
-1.769059
 20
3.944020
  0
SEQEND
  8
0
  0
POLYLINE
  8
PLAN_1
 62
     5
  6
CONTINUOUS
 66
     1
 40
0.003000
 41
0.003000
  0
VERTEX
  8
PLAN_1
 62
     5
  6
CONTINUOUS
 10
-1.769602
 20
3.935858
  0
VERTEX
  8
PLAN_1
 62
     5
  6
CONTINUOUS
 10
-1.769602
 20
3.927701
  0
SEQEND
  8
0
  0
POLYLINE
  8
PLAN_1
 62
     5
  6
CONTINUOUS
 66
     1
 40
0.003000
 41
0.003000
  0
VERTEX
  8
PLAN_1
 62
     5
  6
CONTINUOUS
 10
-1.769602
 20
3.918996
  0
VERTEX
  8
PLAN_1
 62
     5
  6
CONTINUOUS
 10
-1.769602
 20
3.910835
  0
SEQEND
  8
0
  0
POLYLINE
  8
PLAN_1
 62
     5
  6
CONTINUOUS
 66
     1
 40
0.003000
 41
0.003000
  0
VERTEX
  8
PLAN_1
 62
     5
  6
CONTINUOUS
 10
-1.769602
 20
3.902677
  0
VERTEX
  8
PLAN_1
 62
     5
  6
CONTINUOUS
 10
-1.769602
 20
3.893972
  0
SEQEND
  8
0
  0
POLYLINE
  8
PLAN_1
 62
     5
  6
CONTINUOUS
 66
     1
 40
0.003000
 41
0.003000
  0
VERTEX
  8
PLAN_1
 62
     5
  6
CONTINUOUS
 10
-1.769602
 20
3.885815
  0
VERTEX
  8
PLAN_1
 62
     5
  6
CONTINUOUS
 10
-1.769602
 20
3.877654
  0
SEQEND
  8
0
  0
POLYLINE
  8
PLAN_1
 62
     5
  6
CONTINUOUS
 66
     1
 40
0.003000
 41
0.003000
  0
VERTEX
  8
PLAN_1
 62
     5
  6
CONTINUOUS
 10
-1.769602
 20
3.869492
  0
VERTEX
  8
PLAN_1
 62
     5
  6
CONTINUOUS
 10
-1.769602
 20
3.860791
  0
SEQEND
  8
0
  0
POLYLINE
  8
PLAN_1
 62
     5
  6
CONTINUOUS
 66
     1
 40
0.003000
 41
0.003000
  0
VERTEX
  8
PLAN_1
 62
     5
  6
CONTINUOUS
 10
-1.769602
 20
3.852630
  0
VERTEX
  8
PLAN_1
 62
     5
  6
CONTINUOUS
 10
-1.769602
 20
3.844472
  0
SEQEND
  8
0
  0
POLYLINE
  8
PLAN_1
 62
     5
  6
CONTINUOUS
 66
     1
 40
0.003000
 41
0.003000
  0
VERTEX
  8
PLAN_1
 62
     5
  6
CONTINUOUS
 10
-1.769602
 20
3.835768
  0
VERTEX
  8
PLAN_1
 62
     5
  6
CONTINUOUS
 10
-1.769602
 20
3.827606
  0
SEQEND
  8
0
  0
POLYLINE
  8
PLAN_1
 62
     5
  6
CONTINUOUS
 66
     1
 40
0.003000
 41
0.003000
  0
VERTEX
  8
PLAN_1
 62
     5
  6
CONTINUOUS
 10
-1.769602
 20
3.819449
  0
VERTEX
  8
PLAN_1
 62
     5
  6
CONTINUOUS
 10
-1.769602
 20
3.810744
  0
SEQEND
  8
0
  0
POLYLINE
  8
PLAN_1
 62
     5
  6
CONTINUOUS
 66
     1
 40
0.003000
 41
0.003000
  0
VERTEX
  8
PLAN_1
 62
     5
  6
CONTINUOUS
 10
-1.769602
 20
3.802587
  0
VERTEX
  8
PLAN_1
 62
     5
  6
CONTINUOUS
 10
-1.769602
 20
3.794425
  0
SEQEND
  8
0
  0
POLYLINE
  8
PLAN_1
 62
     5
  6
CONTINUOUS
 66
     1
 40
0.003000
 41
0.003000
  0
VERTEX
  8
PLAN_1
 62
     5
  6
CONTINUOUS
 10
-1.769602
 20
3.785720
  0
VERTEX
  8
PLAN_1
 62
     5
  6
CONTINUOUS
 10
-1.769602
 20
3.777563
  0
SEQEND
  8
0
  0
POLYLINE
  8
PLAN_1
 62
     5
  6
CONTINUOUS
 66
     1
 40
0.003000
 41
0.003000
  0
VERTEX
  8
PLAN_1
 62
     5
  6
CONTINUOUS
 10
-1.769602
 20
3.769402
  0
VERTEX
  8
PLAN_1
 62
     5
  6
CONTINUOUS
 10
-1.769602
 20
3.760701
  0
SEQEND
  8
0
  0
POLYLINE
  8
PLAN_1
 62
     5
  6
CONTINUOUS
 66
     1
 40
0.003000
 41
0.003000
  0
VERTEX
  8
PLAN_1
 62
     5
  6
CONTINUOUS
 10
-1.769602
 20
3.752539
  0
VERTEX
  8
PLAN_1
 62
     5
  6
CONTINUOUS
 10
-1.769602
 20
3.744378
  0
SEQEND
  8
0
  0
POLYLINE
  8
PLAN_1
 62
     5
  6
CONTINUOUS
 66
     1
 40
0.003000
 41
0.003000
  0
VERTEX
  8
PLAN_1
 62
     5
  6
CONTINUOUS
 10
-1.769602
 20
3.736220
  0
VERTEX
  8
PLAN_1
 62
     5
  6
CONTINUOUS
 10
-1.769602
 20
3.727516
  0
SEQEND
  8
0
  0
POLYLINE
  8
PLAN_1
 62
     5
  6
CONTINUOUS
 66
     1
 40
0.003000
 41
0.003000
  0
VERTEX
  8
PLAN_1
 62
     5
  6
CONTINUOUS
 10
-1.769602
 20
3.719358
  0
VERTEX
  8
PLAN_1
 62
     5
  6
CONTINUOUS
 10
-1.769602
 20
3.711197
  0
SEQEND
  8
0
  0
POLYLINE
  8
PLAN_1
 62
     5
  6
CONTINUOUS
 66
     1
 40
0.003000
 41
0.003000
  0
VERTEX
  8
PLAN_1
 62
     5
  6
CONTINUOUS
 10
-1.769602
 20
3.702492
  0
VERTEX
  8
PLAN_1
 62
     5
  6
CONTINUOUS
 10
-1.769602
 20
3.694335
  0
SEQEND
  8
0
  0
POLYLINE
  8
PLAN_1
 62
     5
  6
CONTINUOUS
 66
     1
 40
0.003000
 41
0.003000
  0
VERTEX
  8
PLAN_1
 62
     5
  6
CONTINUOUS
 10
-1.769602
 20
3.686173
  0
VERTEX
  8
PLAN_1
 62
     5
  6
CONTINUOUS
 10
-1.769602
 20
3.677472
  0
SEQEND
  8
0
  0
POLYLINE
  8
PLAN_1
 62
     5
  6
CONTINUOUS
 66
     1
 40
0.003000
 41
0.003000
  0
VERTEX
  8
PLAN_1
 62
     5
  6
CONTINUOUS
 10
-1.769602
 20
3.669311
  0
VERTEX
  8
PLAN_1
 62
     5
  6
CONTINUOUS
 10
-1.769602
 20
3.661150
  0
SEQEND
  8
0
  0
POLYLINE
  8
PLAN_1
 62
     5
  6
CONTINUOUS
 66
     1
 40
0.003000
 41
0.003000
  0
VERTEX
  8
PLAN_1
 62
     5
  6
CONTINUOUS
 10
-1.769602
 20
3.652449
  0
VERTEX
  8
PLAN_1
 62
     5
  6
CONTINUOUS
 10
-1.769602
 20
3.644287
  0
SEQEND
  8
0
  0
POLYLINE
  8
PLAN_1
 62
     5
  6
CONTINUOUS
 66
     1
 40
0.003000
 41
0.003000
  0
VERTEX
  8
PLAN_1
 62
     5
  6
CONTINUOUS
 10
-1.769602
 20
3.636130
  0
VERTEX
  8
PLAN_1
 62
     5
  6
CONTINUOUS
 10
-1.769602
 20
3.627425
  0
SEQEND
  8
0
  0
POLYLINE
  8
PLAN_1
 62
     5
  6
CONTINUOUS
 66
     1
 40
0.003000
 41
0.003000
  0
VERTEX
  8
PLAN_1
 62
     5
  6
CONTINUOUS
 10
-1.769602
 20
3.619264
  0
VERTEX
  8
PLAN_1
 62
     5
  6
CONTINUOUS
 10
-1.769602
 20
3.611106
  0
SEQEND
  8
0
  0
POLYLINE
  8
PLAN_1
 62
     5
  6
CONTINUOUS
 66
     1
 40
0.003000
 41
0.003000
  0
VERTEX
  8
PLAN_1
 62
     5
  6
CONTINUOUS
 10
-1.769602
 20
3.602945
  0
VERTEX
  8
PLAN_1
 62
     5
  6
CONTINUOUS
 10
-1.769602
 20
3.594244
  0
SEQEND
  8
0
  0
POLYLINE
  8
PLAN_1
 62
     5
  6
CONTINUOUS
 66
     1
 40
0.003000
 41
0.003000
  0
VERTEX
  8
PLAN_1
 62
     5
  6
CONTINUOUS
 10
-1.769602
 20
3.586083
  0
VERTEX
  8
PLAN_1
 62
     5
  6
CONTINUOUS
 10
-1.769602
 20
3.577921
  0
SEQEND
  8
0
  0
POLYLINE
  8
PLAN_1
 62
     5
  6
CONTINUOUS
 66
     1
 40
0.003000
 41
0.003000
  0
VERTEX
  8
PLAN_1
 62
     5
  6
CONTINUOUS
 10
-1.769602
 20
3.569220
  0
VERTEX
  8
PLAN_1
 62
     5
  6
CONTINUOUS
 10
-1.769602
 20
3.561059
  0
SEQEND
  8
0
  0
POLYLINE
  8
PLAN_1
 62
     5
  6
CONTINUOUS
 66
     1
 40
0.003000
 41
0.003000
  0
VERTEX
  8
PLAN_1
 62
     5
  6
CONTINUOUS
 10
-1.769602
 20
3.552902
  0
VERTEX
  8
PLAN_1
 62
     5
  6
CONTINUOUS
 10
-1.769602
 20
3.544197
  0
SEQEND
  8
0
  0
POLYLINE
  8
PLAN_1
 62
     5
  6
CONTINUOUS
 66
     1
 40
0.003000
 41
0.003000
  0
VERTEX
  8
PLAN_1
 62
     5
  6
CONTINUOUS
 10
-1.769602
 20
3.536035
  0
VERTEX
  8
PLAN_1
 62
     5
  6
CONTINUOUS
 10
-1.769602
 20
3.527878
  0
SEQEND
  8
0
  0
POLYLINE
  8
PLAN_1
 62
     5
  6
CONTINUOUS
 66
     1
 40
0.003000
 41
0.003000
  0
VERTEX
  8
PLAN_1
 62
     5
  6
CONTINUOUS
 10
-1.769602
 20
3.519173
  0
VERTEX
  8
PLAN_1
 62
     5
  6
CONTINUOUS
 10
-1.769602
 20
3.511016
  0
SEQEND
  8
0
  0
POLYLINE
  8
PLAN_1
 62
     5
  6
CONTINUOUS
 66
     1
 40
0.003000
 41
0.003000
  0
VERTEX
  8
PLAN_1
 62
     5
  6
CONTINUOUS
 10
-1.769602
 20
3.502854
  0
VERTEX
  8
PLAN_1
 62
     5
  6
CONTINUOUS
 10
-1.769602
 20
3.494697
  0
SEQEND
  8
0
  0
POLYLINE
  8
PLAN_1
 62
     5
  6
CONTINUOUS
 66
     1
 40
0.003000
 41
0.003000
  0
VERTEX
  8
PLAN_1
 62
     5
  6
CONTINUOUS
 10
-1.769602
 20
3.485992
  0
VERTEX
  8
PLAN_1
 62
     5
  6
CONTINUOUS
 10
-1.769602
 20
3.477831
  0
SEQEND
  8
0
  0
POLYLINE
  8
PLAN_1
 62
     5
  6
CONTINUOUS
 66
     1
 40
0.003000
 41
0.003000
  0
VERTEX
  8
PLAN_1
 62
     5
  6
CONTINUOUS
 10
-1.769602
 20
3.469673
  0
VERTEX
  8
PLAN_1
 62
     5
  6
CONTINUOUS
 10
-1.769602
 20
3.460969
  0
SEQEND
  8
0
  0
POLYLINE
  8
PLAN_1
 62
     5
  6
CONTINUOUS
 66
     1
 40
0.003000
 41
0.003000
  0
VERTEX
  8
PLAN_1
 62
     5
  6
CONTINUOUS
 10
-1.769602
 20
3.452807
  0
VERTEX
  8
PLAN_1
 62
     5
  6
CONTINUOUS
 10
-1.769602
 20
3.444650
  0
SEQEND
  8
0
  0
POLYLINE
  8
PLAN_1
 62
     5
  6
CONTINUOUS
 66
     1
 40
0.003000
 41
0.003000
  0
VERTEX
  8
PLAN_1
 62
     5
  6
CONTINUOUS
 10
-1.769602
 20
3.435945
  0
VERTEX
  8
PLAN_1
 62
     5
  6
CONTINUOUS
 10
-1.769602
 20
3.427787
  0
SEQEND
  8
0
  0
POLYLINE
  8
PLAN_1
 62
     5
  6
CONTINUOUS
 66
     1
 40
0.003000
 41
0.003000
  0
VERTEX
  8
PLAN_1
 62
     5
  6
CONTINUOUS
 10
-1.769602
 20
3.419626
  0
VERTEX
  8
PLAN_1
 62
     5
  6
CONTINUOUS
 10
-1.769602
 20
3.410921
  0
SEQEND
  8
0
  0
POLYLINE
  8
PLAN_1
 62
     5
  6
CONTINUOUS
 66
     1
 40
0.003000
 41
0.003000
  0
VERTEX
  8
PLAN_1
 62
     5
  6
CONTINUOUS
 10
-1.769602
 20
3.402764
  0
VERTEX
  8
PLAN_1
 62
     5
  6
CONTINUOUS
 10
-1.769602
 20
3.394602
  0
SEQEND
  8
0
  0
POLYLINE
  8
PLAN_1
 62
     5
  6
CONTINUOUS
 66
     1
 40
0.003000
 41
0.003000
  0
VERTEX
  8
PLAN_1
 62
     5
  6
CONTINUOUS
 10
-1.769602
 20
3.385902
  0
VERTEX
  8
PLAN_1
 62
     5
  6
CONTINUOUS
 10
-1.769602
 20
3.377740
  0
SEQEND
  8
0
  0
POLYLINE
  8
PLAN_1
 62
     5
  6
CONTINUOUS
 66
     1
 40
0.003000
 41
0.003000
  0
VERTEX
  8
PLAN_1
 62
     5
  6
CONTINUOUS
 10
-1.769602
 20
3.369579
  0
VERTEX
  8
PLAN_1
 62
     5
  6
CONTINUOUS
 10
-1.769602
 20
3.361421
  0
SEQEND
  8
0
  0
POLYLINE
  8
PLAN_1
 62
     5
  6
CONTINUOUS
 66
     1
 40
0.003000
 41
0.003000
  0
VERTEX
  8
PLAN_1
 62
     5
  6
CONTINUOUS
 10
-1.769602
 20
3.352717
  0
VERTEX
  8
PLAN_1
 62
     5
  6
CONTINUOUS
 10
-1.769602
 20
3.344559
  0
SEQEND
  8
0
  0
POLYLINE
  8
PLAN_1
 62
     5
  6
CONTINUOUS
 66
     1
 40
0.003000
 41
0.003000
  0
VERTEX
  8
PLAN_1
 62
     5
  6
CONTINUOUS
 10
-1.769602
 20
3.336398
  0
VERTEX
  8
PLAN_1
 62
     5
  6
CONTINUOUS
 10
-1.769602
 20
3.327693
  0
SEQEND
  8
0
  0
POLYLINE
  8
PLAN_1
 62
     5
  6
CONTINUOUS
 66
     1
 40
0.003000
 41
0.003000
  0
VERTEX
  8
PLAN_1
 62
     5
  6
CONTINUOUS
 10
-1.769602
 20
3.319535
  0
VERTEX
  8
PLAN_1
 62
     5
  6
CONTINUOUS
 10
-1.769602
 20
3.311374
  0
SEQEND
  8
0
  0
POLYLINE
  8
PLAN_1
 62
     5
  6
CONTINUOUS
 66
     1
 40
0.003000
 41
0.003000
  0
VERTEX
  8
PLAN_1
 62
     5
  6
CONTINUOUS
 10
-1.769602
 20
3.302673
  0
VERTEX
  8
PLAN_1
 62
     5
  6
CONTINUOUS
 10
-1.769602
 20
3.294512
  0
SEQEND
  8
0
  0
POLYLINE
  8
PLAN_1
 62
     5
  6
CONTINUOUS
 66
     1
 40
0.003000
 41
0.003000
  0
VERTEX
  8
PLAN_1
 62
     5
  6
CONTINUOUS
 10
-1.769602
 20
3.286350
  0
VERTEX
  8
PLAN_1
 62
     5
  6
CONTINUOUS
 10
-1.769602
 20
3.277650
  0
SEQEND
  8
0
  0
POLYLINE
  8
PLAN_1
 62
     5
  6
CONTINUOUS
 66
     1
 40
0.003000
 41
0.003000
  0
VERTEX
  8
PLAN_1
 62
     5
  6
CONTINUOUS
 10
-1.769602
 20
3.269488
  0
VERTEX
  8
PLAN_1
 62
     5
  6
CONTINUOUS
 10
-1.769602
 20
3.261331
  0
SEQEND
  8
0
  0
POLYLINE
  8
PLAN_1
 62
     5
  6
CONTINUOUS
 66
     1
 40
0.003000
 41
0.003000
  0
VERTEX
  8
PLAN_1
 62
     5
  6
CONTINUOUS
 10
-1.769602
 20
3.252626
  0
VERTEX
  8
PLAN_1
 62
     5
  6
CONTINUOUS
 10
-1.769602
 20
3.244465
  0
SEQEND
  8
0
  0
POLYLINE
  8
PLAN_1
 62
     5
  6
CONTINUOUS
 66
     1
 40
0.003000
 41
0.003000
  0
VERTEX
  8
PLAN_1
 62
     5
  6
CONTINUOUS
 10
-1.769602
 20
3.236307
  0
VERTEX
  8
PLAN_1
 62
     5
  6
CONTINUOUS
 10
-1.769602
 20
3.228146
  0
SEQEND
  8
0
  0
POLYLINE
  8
PLAN_1
 62
     5
  6
CONTINUOUS
 66
     1
 40
0.003000
 41
0.003000
  0
VERTEX
  8
PLAN_1
 62
     5
  6
CONTINUOUS
 10
-1.769602
 20
3.219445
  0
VERTEX
  8
PLAN_1
 62
     5
  6
CONTINUOUS
 10
-1.769602
 20
3.211283
  0
SEQEND
  8
0
  0
POLYLINE
  8
PLAN_1
 62
     5
  6
CONTINUOUS
 66
     1
 40
0.003000
 41
0.003000
  0
VERTEX
  8
PLAN_1
 62
     5
  6
CONTINUOUS
 10
-1.769602
 20
3.203126
  0
VERTEX
  8
PLAN_1
 62
     5
  6
CONTINUOUS
 10
-1.769602
 20
3.194421
  0
SEQEND
  8
0
  0
POLYLINE
  8
PLAN_1
 62
     5
  6
CONTINUOUS
 66
     1
 40
0.003000
 41
0.003000
  0
VERTEX
  8
PLAN_1
 62
     5
  6
CONTINUOUS
 10
-1.769602
 20
3.186260
  0
VERTEX
  8
PLAN_1
 62
     5
  6
CONTINUOUS
 10
-1.769602
 20
3.178102
  0
SEQEND
  8
0
  0
POLYLINE
  8
PLAN_1
 62
     5
  6
CONTINUOUS
 66
     1
 40
0.003000
 41
0.003000
  0
VERTEX
  8
PLAN_1
 62
     5
  6
CONTINUOUS
 10
-1.769602
 20
3.169398
  0
VERTEX
  8
PLAN_1
 62
     5
  6
CONTINUOUS
 10
-1.769602
 20
3.161236
  0
SEQEND
  8
0
  0
POLYLINE
  8
PLAN_1
 62
     5
  6
CONTINUOUS
 66
     1
 40
0.003000
 41
0.003000
  0
VERTEX
  8
PLAN_1
 62
     5
  6
CONTINUOUS
 10
-1.769602
 20
3.153079
  0
VERTEX
  8
PLAN_1
 62
     5
  6
CONTINUOUS
 10
-1.769602
 20
3.144374
  0
SEQEND
  8
0
  0
POLYLINE
  8
PLAN_1
 62
     5
  6
CONTINUOUS
 66
     1
 40
0.003000
 41
0.003000
  0
VERTEX
  8
PLAN_1
 62
     5
  6
CONTINUOUS
 10
-1.769602
 20
3.136217
  0
VERTEX
  8
PLAN_1
 62
     5
  6
CONTINUOUS
 10
-1.769602
 20
3.128055
  0
SEQEND
  8
0
  0
POLYLINE
  8
PLAN_1
 62
     5
  6
CONTINUOUS
 66
     1
 40
0.003000
 41
0.003000
  0
VERTEX
  8
PLAN_1
 62
     5
  6
CONTINUOUS
 10
-1.769602
 20
3.119350
  0
VERTEX
  8
PLAN_1
 62
     5
  6
CONTINUOUS
 10
-1.769602
 20
3.111193
  0
SEQEND
  8
0
  0
POLYLINE
  8
PLAN_1
 62
     5
  6
CONTINUOUS
 66
     1
 40
0.003000
 41
0.003000
  0
VERTEX
  8
PLAN_1
 62
     5
  6
CONTINUOUS
 10
-1.769602
 20
3.103031
  0
VERTEX
  8
PLAN_1
 62
     5
  6
CONTINUOUS
 10
-1.769602
 20
3.094874
  0
SEQEND
  8
0
  0
POLYLINE
  8
PLAN_1
 62
     5
  6
CONTINUOUS
 66
     1
 40
0.003000
 41
0.003000
  0
VERTEX
  8
PLAN_1
 62
     5
  6
CONTINUOUS
 10
-1.769602
 20
3.086169
  0
VERTEX
  8
PLAN_1
 62
     5
  6
CONTINUOUS
 10
-1.769602
 20
3.078008
  0
SEQEND
  8
0
  0
POLYLINE
  8
PLAN_1
 62
     5
  6
CONTINUOUS
 66
     1
 40
0.003000
 41
0.003000
  0
VERTEX
  8
PLAN_1
 62
     5
  6
CONTINUOUS
 10
-1.769602
 20
3.069850
  0
VERTEX
  8
PLAN_1
 62
     5
  6
CONTINUOUS
 10
-1.769602
 20
3.061146
  0
SEQEND
  8
0
  0
POLYLINE
  8
PLAN_1
 62
     5
  6
CONTINUOUS
 66
     1
 40
0.003000
 41
0.003000
  0
VERTEX
  8
PLAN_1
 62
     5
  6
CONTINUOUS
 10
-1.769602
 20
3.052988
  0
VERTEX
  8
PLAN_1
 62
     5
  6
CONTINUOUS
 10
-1.769602
 20
3.051354
  0
VERTEX
  8
PLAN_1
 62
     5
  6
CONTINUOUS
 10
-1.762531
 20
3.051354
  0
SEQEND
  8
0
  0
POLYLINE
  8
PLAN_1
 62
     5
  6
CONTINUOUS
 66
     1
 40
0.003000
 41
0.003000
  0
VERTEX
  8
PLAN_1
 62
     5
  6
CONTINUOUS
 10
-1.754374
 20
3.051354
  0
VERTEX
  8
PLAN_1
 62
     5
  6
CONTINUOUS
 10
-1.746213
 20
3.051354
  0
SEQEND
  8
0
  0
POLYLINE
  8
PLAN_1
 62
     5
  6
CONTINUOUS
 66
     1
 40
0.003000
 41
0.003000
  0
VERTEX
  8
PLAN_1
 62
     5
  6
CONTINUOUS
 10
-1.738055
 20
3.051354
  0
VERTEX
  8
PLAN_1
 62
     5
  6
CONTINUOUS
 10
-1.729350
 20
3.051354
  0
SEQEND
  8
0
  0
POLYLINE
  8
PLAN_1
 62
     5
  6
CONTINUOUS
 66
     1
 40
0.003000
 41
0.003000
  0
VERTEX
  8
PLAN_1
 62
     5
  6
CONTINUOUS
 10
-1.721189
 20
3.051354
  0
VERTEX
  8
PLAN_1
 62
     5
  6
CONTINUOUS
 10
-1.713031
 20
3.051354
  0
SEQEND
  8
0
  0
POLYLINE
  8
PLAN_1
 62
     5
  6
CONTINUOUS
 66
     1
 40
0.003000
 41
0.003000
  0
VERTEX
  8
PLAN_1
 62
     5
  6
CONTINUOUS
 10
-1.704327
 20
3.051354
  0
VERTEX
  8
PLAN_1
 62
     5
  6
CONTINUOUS
 10
-1.696165
 20
3.051354
  0
SEQEND
  8
0
  0
POLYLINE
  8
PLAN_1
 62
     5
  6
CONTINUOUS
 66
     1
 40
0.003000
 41
0.003000
  0
VERTEX
  8
PLAN_1
 62
     5
  6
CONTINUOUS
 10
-1.688008
 20
3.051354
  0
VERTEX
  8
PLAN_1
 62
     5
  6
CONTINUOUS
 10
-1.679303
 20
3.051354
  0
SEQEND
  8
0
  0
POLYLINE
  8
PLAN_1
 62
     5
  6
CONTINUOUS
 66
     1
 40
0.003000
 41
0.003000
  0
VERTEX
  8
PLAN_1
 62
     5
  6
CONTINUOUS
 10
-1.671146
 20
3.051354
  0
VERTEX
  8
PLAN_1
 62
     5
  6
CONTINUOUS
 10
-1.662984
 20
3.051354
  0
SEQEND
  8
0
  0
POLYLINE
  8
PLAN_1
 62
     5
  6
CONTINUOUS
 66
     1
 40
0.003000
 41
0.003000
  0
VERTEX
  8
PLAN_1
 62
     5
  6
CONTINUOUS
 10
-1.654280
 20
3.051354
  0
VERTEX
  8
PLAN_1
 62
     5
  6
CONTINUOUS
 10
-1.646122
 20
3.051354
  0
SEQEND
  8
0
  0
POLYLINE
  8
PLAN_1
 62
     5
  6
CONTINUOUS
 66
     1
 40
0.003000
 41
0.003000
  0
VERTEX
  8
PLAN_1
 62
     5
  6
CONTINUOUS
 10
-1.637961
 20
3.051354
  0
VERTEX
  8
PLAN_1
 62
     5
  6
CONTINUOUS
 10
-1.629260
 20
3.051354
  0
SEQEND
  8
0
  0
POLYLINE
  8
PLAN_1
 62
     5
  6
CONTINUOUS
 66
     1
 40
0.003000
 41
0.003000
  0
VERTEX
  8
PLAN_1
 62
     5
  6
CONTINUOUS
 10
-1.621098
 20
3.051354
  0
VERTEX
  8
PLAN_1
 62
     5
  6
CONTINUOUS
 10
-1.612937
 20
3.051354
  0
SEQEND
  8
0
  0
POLYLINE
  8
PLAN_1
 62
     5
  6
CONTINUOUS
 66
     1
 40
0.003000
 41
0.003000
  0
VERTEX
  8
PLAN_1
 62
     5
  6
CONTINUOUS
 10
-1.604780
 20
3.051354
  0
VERTEX
  8
PLAN_1
 62
     5
  6
CONTINUOUS
 10
-1.596075
 20
3.051354
  0
SEQEND
  8
0
  0
POLYLINE
  8
PLAN_1
 62
     5
  6
CONTINUOUS
 66
     1
 40
0.003000
 41
0.003000
  0
VERTEX
  8
PLAN_1
 62
     5
  6
CONTINUOUS
 10
-1.587917
 20
3.051354
  0
VERTEX
  8
PLAN_1
 62
     5
  6
CONTINUOUS
 10
-1.579756
 20
3.051354
  0
SEQEND
  8
0
  0
POLYLINE
  8
PLAN_1
 62
     5
  6
CONTINUOUS
 66
     1
 40
0.003000
 41
0.003000
  0
VERTEX
  8
PLAN_1
 62
     5
  6
CONTINUOUS
 10
-1.571051
 20
3.051354
  0
VERTEX
  8
PLAN_1
 62
     5
  6
CONTINUOUS
 10
-1.569965
 20
3.051354
  0
VERTEX
  8
PLAN_1
 62
     5
  6
CONTINUOUS
 10
-1.569965
 20
3.057882
  0
SEQEND
  8
0
  0
POLYLINE
  8
PLAN_1
 62
     5
  6
CONTINUOUS
 66
     1
 40
0.003000
 41
0.003000
  0
VERTEX
  8
PLAN_1
 62
     5
  6
CONTINUOUS
 10
-1.569965
 20
3.066587
  0
VERTEX
  8
PLAN_1
 62
     5
  6
CONTINUOUS
 10
-1.569965
 20
3.074744
  0
SEQEND
  8
0
  0
POLYLINE
  8
PLAN_1
 62
     5
  6
CONTINUOUS
 66
     1
 40
0.003000
 41
0.003000
  0
VERTEX
  8
PLAN_1
 62
     5
  6
CONTINUOUS
 10
-1.569965
 20
3.082906
  0
VERTEX
  8
PLAN_1
 62
     5
  6
CONTINUOUS
 10
-1.569965
 20
3.091610
  0
SEQEND
  8
0
  0
POLYLINE
  8
PLAN_1
 62
     5
  6
CONTINUOUS
 66
     1
 40
0.003000
 41
0.003000
  0
VERTEX
  8
PLAN_1
 62
     5
  6
CONTINUOUS
 10
-1.569965
 20
3.099768
  0
VERTEX
  8
PLAN_1
 62
     5
  6
CONTINUOUS
 10
-1.569965
 20
3.107929
  0
SEQEND
  8
0
  0
POLYLINE
  8
PLAN_1
 62
     5
  6
CONTINUOUS
 66
     1
 40
0.003000
 41
0.003000
  0
VERTEX
  8
PLAN_1
 62
     5
  6
CONTINUOUS
 10
-1.569965
 20
3.116634
  0
VERTEX
  8
PLAN_1
 62
     5
  6
CONTINUOUS
 10
-1.569965
 20
3.124791
  0
SEQEND
  8
0
  0
POLYLINE
  8
PLAN_1
 62
     5
  6
CONTINUOUS
 66
     1
 40
0.003000
 41
0.003000
  0
VERTEX
  8
PLAN_1
 62
     5
  6
CONTINUOUS
 10
-1.569965
 20
3.132953
  0
VERTEX
  8
PLAN_1
 62
     5
  6
CONTINUOUS
 10
-1.569965
 20
3.141110
  0
SEQEND
  8
0
  0
POLYLINE
  8
PLAN_1
 62
     5
  6
CONTINUOUS
 66
     1
 40
0.003000
 41
0.003000
  0
VERTEX
  8
PLAN_1
 62
     5
  6
CONTINUOUS
 10
-1.569965
 20
3.149815
  0
VERTEX
  8
PLAN_1
 62
     5
  6
CONTINUOUS
 10
-1.569965
 20
3.157972
  0
SEQEND
  8
0
  0
POLYLINE
  8
PLAN_1
 62
     5
  6
CONTINUOUS
 66
     1
 40
0.003000
 41
0.003000
  0
VERTEX
  8
PLAN_1
 62
     5
  6
CONTINUOUS
 10
-1.569965
 20
3.166134
  0
VERTEX
  8
PLAN_1
 62
     5
  6
CONTINUOUS
 10
-1.569965
 20
3.174839
  0
SEQEND
  8
0
  0
POLYLINE
  8
PLAN_1
 62
     5
  6
CONTINUOUS
 66
     1
 40
0.003000
 41
0.003000
  0
VERTEX
  8
PLAN_1
 62
     5
  6
CONTINUOUS
 10
-1.569965
 20
3.182996
  0
VERTEX
  8
PLAN_1
 62
     5
  6
CONTINUOUS
 10
-1.569965
 20
3.191157
  0
SEQEND
  8
0
  0
POLYLINE
  8
PLAN_1
 62
     5
  6
CONTINUOUS
 66
     1
 40
0.003000
 41
0.003000
  0
VERTEX
  8
PLAN_1
 62
     5
  6
CONTINUOUS
 10
-1.569965
 20
3.199862
  0
VERTEX
  8
PLAN_1
 62
     5
  6
CONTINUOUS
 10
-1.569421
 20
3.208020
  0
SEQEND
  8
0
  0
POLYLINE
  8
PLAN_1
 62
     5
  6
CONTINUOUS
 66
     1
 40
0.003000
 41
0.003000
  0
VERTEX
  8
PLAN_1
 62
     5
  6
CONTINUOUS
 10
-1.569421
 20
3.216181
  0
VERTEX
  8
PLAN_1
 62
     5
  6
CONTINUOUS
 10
-1.569421
 20
3.224882
  0
SEQEND
  8
0
  0
POLYLINE
  8
PLAN_1
 62
     5
  6
CONTINUOUS
 66
     1
 40
0.003000
 41
0.003000
  0
VERTEX
  8
PLAN_1
 62
     5
  6
CONTINUOUS
 10
-1.569421
 20
3.233043
  0
VERTEX
  8
PLAN_1
 62
     5
  6
CONTINUOUS
 10
-1.569421
 20
3.241201
  0
SEQEND
  8
0
  0
POLYLINE
  8
PLAN_1
 62
     5
  6
CONTINUOUS
 66
     1
 40
0.003000
 41
0.003000
  0
VERTEX
  8
PLAN_1
 62
     5
  6
CONTINUOUS
 10
-1.569421
 20
3.249906
  0
VERTEX
  8
PLAN_1
 62
     5
  6
CONTINUOUS
 10
-1.569421
 20
3.258067
  0
SEQEND
  8
0
  0
POLYLINE
  8
PLAN_1
 62
     5
  6
CONTINUOUS
 66
     1
 40
0.003000
 41
0.003000
  0
VERTEX
  8
PLAN_1
 62
     5
  6
CONTINUOUS
 10
-1.569421
 20
3.266224
  0
VERTEX
  8
PLAN_1
 62
     5
  6
CONTINUOUS
 10
-1.569421
 20
3.274386
  0
SEQEND
  8
0
  0
POLYLINE
  8
PLAN_1
 62
     5
  6
CONTINUOUS
 66
     1
 40
0.003000
 41
0.003000
  0
VERTEX
  8
PLAN_1
 62
     5
  6
CONTINUOUS
 10
-1.569421
 20
3.283087
  0
VERTEX
  8
PLAN_1
 62
     5
  6
CONTINUOUS
 10
-1.569421
 20
3.287441
  0
VERTEX
  8
PLAN_1
 62
     5
  6
CONTINUOUS
 10
-1.566157
 20
3.287441
  0
SEQEND
  8
0
  0
POLYLINE
  8
PLAN_1
 62
     5
  6
CONTINUOUS
 66
     1
 40
0.003000
 41
0.003000
  0
VERTEX
  8
PLAN_1
 62
     5
  6
CONTINUOUS
 10
-1.557453
 20
3.287441
  0
VERTEX
  8
PLAN_1
 62
     5
  6
CONTINUOUS
 10
-1.549295
 20
3.287441
  0
SEQEND
  8
0
  0
POLYLINE
  8
PLAN_1
 62
     5
  6
CONTINUOUS
 66
     1
 40
0.003000
 41
0.003000
  0
VERTEX
  8
PLAN_1
 62
     5
  6
CONTINUOUS
 10
-1.541134
 20
3.287441
  0
VERTEX
  8
PLAN_1
 62
     5
  6
CONTINUOUS
 10
-1.535693
 20
3.287441
  0
VERTEX
  8
PLAN_1
 62
     5
  6
CONTINUOUS
 10
-1.535693
 20
3.284720
  0
SEQEND
  8
0
  0
POLYLINE
  8
PLAN_1
 62
     5
  6
CONTINUOUS
 66
     1
 40
0.003000
 41
0.003000
  0
VERTEX
  8
PLAN_1
 62
     5
  6
CONTINUOUS
 10
-1.535693
 20
3.276559
  0
VERTEX
  8
PLAN_1
 62
     5
  6
CONTINUOUS
 10
-1.535150
 20
3.267858
  0
SEQEND
  8
0
  0
POLYLINE
  8
PLAN_1
 62
     5
  6
CONTINUOUS
 66
     1
 40
0.003000
 41
0.003000
  0
VERTEX
  8
PLAN_1
 62
     5
  6
CONTINUOUS
 10
-1.535150
 20
3.259697
  0
VERTEX
  8
PLAN_1
 62
     5
  6
CONTINUOUS
 10
-1.535150
 20
3.251539
  0
SEQEND
  8
0
  0
POLYLINE
  8
PLAN_1
  6
CONTINUOUS
 66
     1
 40
0.008157
 41
0.008157
  0
VERTEX
  8
PLAN_1
  6
CONTINUOUS
 10
-1.767429
 20
3.340205
  0
VERTEX
  8
PLAN_1
  6
CONTINUOUS
 10
-1.767429
 20
3.686717
  0
VERTEX
  8
PLAN_1
  6
CONTINUOUS
 10
-1.849567
 20
3.686717
  0
VERTEX
  8
PLAN_1
  6
CONTINUOUS
 10
-1.849567
 20
3.340205
  0
VERTEX
  8
PLAN_1
  6
CONTINUOUS
 10
-1.767429
 20
3.340205
  0
SEQEND
  8
0
  0
POLYLINE
  8
PLAN_1
  6
CONTINUOUS
 66
     1
 40
0.008157
 41
0.008157
  0
VERTEX
  8
PLAN_1
  6
CONTINUOUS
 10
-1.849567
 20
3.596417
  0
VERTEX
  8
PLAN_1
  6
CONTINUOUS
 10
-1.767429
 20
3.596417
  0
SEQEND
  8
0
  0
POLYLINE
  8
PLAN_1
  6
CONTINUOUS
 66
     1
 40
0.008157
 41
0.008157
  0
VERTEX
  8
PLAN_1
  6
CONTINUOUS
 10
-1.849567
 20
3.431051
  0
VERTEX
  8
PLAN_1
  6
CONTINUOUS
 10
-1.767429
 20
3.431051
  0
SEQEND
  8
0
  0
POLYLINE
  8
PLAN_1
  6
CONTINUOUS
 66
     1
 40
0.008157
 41
0.008157
  0
VERTEX
  8
PLAN_1
  6
CONTINUOUS
 10
-1.777764
 20
3.341295
  0
VERTEX
  8
PLAN_1
  6
CONTINUOUS
 10
-1.776677
 20
3.342925
  0
VERTEX
  8
PLAN_1
  6
CONTINUOUS
 10
-1.774500
 20
3.348909
  0
VERTEX
  8
PLAN_1
  6
CONTINUOUS
 10
-1.771780
 20
3.357614
  0
VERTEX
  8
PLAN_1
  6
CONTINUOUS
 10
-1.769059
 20
3.369035
  0
VERTEX
  8
PLAN_1
  6
CONTINUOUS
 10
-1.768516
 20
3.376106
  0
VERTEX
  8
PLAN_1
  6
CONTINUOUS
 10
-1.767972
 20
3.382638
  0
VERTEX
  8
PLAN_1
  6
CONTINUOUS
 10
-1.767972
 20
3.390252
  0
VERTEX
  8
PLAN_1
  6
CONTINUOUS
 10
-1.768516
 20
3.397866
  0
VERTEX
  8
PLAN_1
  6
CONTINUOUS
 10
-1.769602
 20
3.406028
  0
VERTEX
  8
PLAN_1
  6
CONTINUOUS
 10
-1.771236
 20
3.414185
  0
VERTEX
  8
PLAN_1
  6
CONTINUOUS
 10
-1.773957
 20
3.422346
  0
VERTEX
  8
PLAN_1
  6
CONTINUOUS
 10
-1.777764
 20
3.430504
  0
SEQEND
  8
0
  0
POLYLINE
  8
PLAN_1
 62
     5
  6
CONTINUOUS
 66
     1
 40
0.003000
 41
0.003000
  0
VERTEX
  8
PLAN_1
 62
     5
  6
CONTINUOUS
 10
-1.776677
 20
3.596961
  0
VERTEX
  8
PLAN_1
 62
     5
  6
CONTINUOUS
 10
-1.775587
 20
3.599138
  0
VERTEX
  8
PLAN_1
 62
     5
  6
CONTINUOUS
 10
-1.773413
 20
3.604579
  0
SEQEND
  8
0
  0
POLYLINE
  8
PLAN_1
 62
     5
  6
CONTINUOUS
 66
     1
 40
0.003000
 41
0.003000
  0
VERTEX
  8
PLAN_1
 62
     5
  6
CONTINUOUS
 10
-1.771236
 20
3.612736
  0
VERTEX
  8
PLAN_1
 62
     5
  6
CONTINUOUS
 10
-1.770693
 20
3.613283
  0
VERTEX
  8
PLAN_1
 62
     5
  6
CONTINUOUS
 10
-1.769602
 20
3.620898
  0
SEQEND
  8
0
  0
POLYLINE
  8
PLAN_1
 62
     5
  6
CONTINUOUS
 66
     1
 40
0.003000
 41
0.003000
  0
VERTEX
  8
PLAN_1
 62
     5
  6
CONTINUOUS
 10
-1.767972
 20
3.629055
  0
VERTEX
  8
PLAN_1
 62
     5
  6
CONTINUOUS
 10
-1.767429
 20
3.631776
  0
VERTEX
  8
PLAN_1
 62
     5
  6
CONTINUOUS
 10
-1.766886
 20
3.637217
  0
SEQEND
  8
0
  0
POLYLINE
  8
PLAN_1
 62
     5
  6
CONTINUOUS
 66
     1
 40
0.003000
 41
0.003000
  0
VERTEX
  8
PLAN_1
 62
     5
  6
CONTINUOUS
 10
-1.766886
 20
3.645378
  0
VERTEX
  8
PLAN_1
 62
     5
  6
CONTINUOUS
 10
-1.766886
 20
3.645921
  0
VERTEX
  8
PLAN_1
 62
     5
  6
CONTINUOUS
 10
-1.767429
 20
3.653535
  0
VERTEX
  8
PLAN_1
 62
     5
  6
CONTINUOUS
 10
-1.767429
 20
3.654079
  0
SEQEND
  8
0
  0
POLYLINE
  8
PLAN_1
 62
     5
  6
CONTINUOUS
 66
     1
 40
0.003000
 41
0.003000
  0
VERTEX
  8
PLAN_1
 62
     5
  6
CONTINUOUS
 10
-1.768516
 20
3.662240
  0
VERTEX
  8
PLAN_1
 62
     5
  6
CONTINUOUS
 10
-1.770150
 20
3.669854
  0
VERTEX
  8
PLAN_1
 62
     5
  6
CONTINUOUS
 10
-1.770693
 20
3.670398
  0
SEQEND
  8
0
  0
POLYLINE
  8
PLAN_1
 62
     5
  6
CONTINUOUS
 66
     1
 40
0.003000
 41
0.003000
  0
VERTEX
  8
PLAN_1
 62
     5
  6
CONTINUOUS
 10
-1.772866
 20
3.678016
  0
VERTEX
  8
PLAN_1
 62
     5
  6
CONTINUOUS
 10
-1.776130
 20
3.685630
  0
SEQEND
  8
0
  0
POLYLINE
  8
PLAN_1
 62
     5
  6
CONTINUOUS
 66
     1
 40
0.003000
 41
0.003000
  0
VERTEX
  8
PLAN_1
 62
     5
  6
CONTINUOUS
 10
-1.776677
 20
3.430504
  0
VERTEX
  8
PLAN_1
 62
     5
  6
CONTINUOUS
 10
-1.776130
 20
3.434315
  0
VERTEX
  8
PLAN_1
 62
     5
  6
CONTINUOUS
 10
-1.775043
 20
3.438665
  0
SEQEND
  8
0
  0
POLYLINE
  8
PLAN_1
 62
     5
  6
CONTINUOUS
 66
     1
 40
0.003000
 41
0.003000
  0
VERTEX
  8
PLAN_1
 62
     5
  6
CONTINUOUS
 10
-1.773413
 20
3.446827
  0
VERTEX
  8
PLAN_1
 62
     5
  6
CONTINUOUS
 10
-1.772323
 20
3.455528
  0
SEQEND
  8
0
  0
POLYLINE
  8
PLAN_1
 62
     5
  6
CONTINUOUS
 66
     1
 40
0.003000
 41
0.003000
  0
VERTEX
  8
PLAN_1
 62
     5
  6
CONTINUOUS
 10
-1.770693
 20
3.463689
  0
VERTEX
  8
PLAN_1
 62
     5
  6
CONTINUOUS
 10
-1.770150
 20
3.471846
  0
SEQEND
  8
0
  0
POLYLINE
  8
PLAN_1
 62
     5
  6
CONTINUOUS
 66
     1
 40
0.003000
 41
0.003000
  0
VERTEX
  8
PLAN_1
 62
     5
  6
CONTINUOUS
 10
-1.769059
 20
3.480008
  0
VERTEX
  8
PLAN_1
 62
     5
  6
CONTINUOUS
 10
-1.769059
 20
3.481094
  0
VERTEX
  8
PLAN_1
 62
     5
  6
CONTINUOUS
 10
-1.768516
 20
3.488165
  0
SEQEND
  8
0
  0
POLYLINE
  8
PLAN_1
 62
     5
  6
CONTINUOUS
 66
     1
 40
0.003000
 41
0.003000
  0
VERTEX
  8
PLAN_1
 62
     5
  6
CONTINUOUS
 10
-1.767972
 20
3.496870
  0
VERTEX
  8
PLAN_1
 62
     5
  6
CONTINUOUS
 10
-1.767429
 20
3.505031
  0
SEQEND
  8
0
  0
POLYLINE
  8
PLAN_1
 62
     5
  6
CONTINUOUS
 66
     1
 40
0.003000
 41
0.003000
  0
VERTEX
  8
PLAN_1
 62
     5
  6
CONTINUOUS
 10
-1.767429
 20
3.513189
  0
VERTEX
  8
PLAN_1
 62
     5
  6
CONTINUOUS
 10
-1.767429
 20
3.519717
  0
VERTEX
  8
PLAN_1
 62
     5
  6
CONTINUOUS
 10
-1.767429
 20
3.521894
  0
SEQEND
  8
0
  0
POLYLINE
  8
PLAN_1
 62
     5
  6
CONTINUOUS
 66
     1
 40
0.003000
 41
0.003000
  0
VERTEX
  8
PLAN_1
 62
     5
  6
CONTINUOUS
 10
-1.767972
 20
3.530055
  0
VERTEX
  8
PLAN_1
 62
     5
  6
CONTINUOUS
 10
-1.767972
 20
3.534406
  0
VERTEX
  8
PLAN_1
 62
     5
  6
CONTINUOUS
 10
-1.768516
 20
3.538213
  0
SEQEND
  8
0
  0
POLYLINE
  8
PLAN_1
 62
     5
  6
CONTINUOUS
 66
     1
 40
0.003000
 41
0.003000
  0
VERTEX
  8
PLAN_1
 62
     5
  6
CONTINUOUS
 10
-1.769059
 20
3.546374
  0
VERTEX
  8
PLAN_1
 62
     5
  6
CONTINUOUS
 10
-1.769059
 20
3.549638
  0
VERTEX
  8
PLAN_1
 62
     5
  6
CONTINUOUS
 10
-1.769602
 20
3.555075
  0
SEQEND
  8
0
  0
POLYLINE
  8
PLAN_1
 62
     5
  6
CONTINUOUS
 66
     1
 40
0.003000
 41
0.003000
  0
VERTEX
  8
PLAN_1
 62
     5
  6
CONTINUOUS
 10
-1.770693
 20
3.563236
  0
VERTEX
  8
PLAN_1
 62
     5
  6
CONTINUOUS
 10
-1.771236
 20
3.564866
  0
VERTEX
  8
PLAN_1
 62
     5
  6
CONTINUOUS
 10
-1.772323
 20
3.571394
  0
SEQEND
  8
0
  0
POLYLINE
  8
PLAN_1
 62
     5
  6
CONTINUOUS
 66
     1
 40
0.003000
 41
0.003000
  0
VERTEX
  8
PLAN_1
 62
     5
  6
CONTINUOUS
 10
-1.773413
 20
3.579555
  0
VERTEX
  8
PLAN_1
 62
     5
  6
CONTINUOUS
 10
-1.773957
 20
3.581185
  0
VERTEX
  8
PLAN_1
 62
     5
  6
CONTINUOUS
 10
-1.775043
 20
3.587717
  0
SEQEND
  8
0
  0
POLYLINE
  8
PLAN_1
 62
     5
  6
CONTINUOUS
 66
     1
 40
0.003000
 41
0.003000
  0
VERTEX
  8
PLAN_1
 62
     5
  6
CONTINUOUS
 10
-1.777220
 20
3.595874
  0
VERTEX
  8
PLAN_1
 62
     5
  6
CONTINUOUS
 10
-1.777220
 20
3.598051
  0
SEQEND
  8
0
  0
POLYLINE
  8
PLAN_1
 62
     5
  6
CONTINUOUS
 66
     1
 40
0.003000
 41
0.003000
  0
VERTEX
  8
PLAN_1
 62
     5
  6
CONTINUOUS
 10
-1.777220
 20
3.595874
  0
VERTEX
  8
PLAN_1
 62
     5
  6
CONTINUOUS
 10
-1.777220
 20
3.598051
  0
SEQEND
  8
0
  0
POLYLINE
  8
PLAN_1
  6
CONTINUOUS
 66
     1
 40
0.008157
 41
0.008157
  0
VERTEX
  8
PLAN_1
  6
CONTINUOUS
 10
-2.206417
 20
2.098311
  0
VERTEX
  8
PLAN_1
  6
CONTINUOUS
 10
-2.206417
 20
2.544370
  0
VERTEX
  8
PLAN_1
  6
CONTINUOUS
 10
-2.311949
 20
2.544370
  0
VERTEX
  8
PLAN_1
  6
CONTINUOUS
 10
-2.311949
 20
2.098311
  0
VERTEX
  8
PLAN_1
  6
CONTINUOUS
 10
-2.206417
 20
2.098311
  0
SEQEND
  8
0
  0
POLYLINE
  8
PLAN_1
  6
CONTINUOUS
 66
     1
 40
0.008157
 41
0.008157
  0
VERTEX
  8
PLAN_1
  6
CONTINUOUS
 10
-2.310858
 20
2.430134
  0
VERTEX
  8
PLAN_1
  6
CONTINUOUS
 10
-2.209138
 20
2.430134
  0
SEQEND
  8
0
  0
POLYLINE
  8
PLAN_1
  6
CONTINUOUS
 66
     1
 40
0.008157
 41
0.008157
  0
VERTEX
  8
PLAN_1
  6
CONTINUOUS
 10
-2.310858
 20
2.212000
  0
VERTEX
  8
PLAN_1
  6
CONTINUOUS
 10
-2.209138
 20
2.212000
  0
SEQEND
  8
0
  0
POLYLINE
  8
PLAN_1
  6
CONTINUOUS
 66
     1
 40
0.008157
 41
0.008157
  0
VERTEX
  8
PLAN_1
  6
CONTINUOUS
 10
-2.298894
 20
2.543827
  0
VERTEX
  8
PLAN_1
  6
CONTINUOUS
 10
-2.300524
 20
2.541650
  0
VERTEX
  8
PLAN_1
  6
CONTINUOUS
 10
-2.303244
 20
2.534035
  0
VERTEX
  8
PLAN_1
  6
CONTINUOUS
 10
-2.304874
 20
2.528594
  0
VERTEX
  8
PLAN_1
  6
CONTINUOUS
 10
-2.307051
 20
2.522610
  0
VERTEX
  8
PLAN_1
  6
CONTINUOUS
 10
-2.308685
 20
2.515539
  0
VERTEX
  8
PLAN_1
  6
CONTINUOUS
 10
-2.309772
 20
2.507925
  0
VERTEX
  8
PLAN_1
  6
CONTINUOUS
 10
-2.311402
 20
2.499764
  0
VERTEX
  8
PLAN_1
  6
CONTINUOUS
 10
-2.311949
 20
2.490516
  0
VERTEX
  8
PLAN_1
  6
CONTINUOUS
 10
-2.311402
 20
2.481268
  0
VERTEX
  8
PLAN_1
  6
CONTINUOUS
 10
-2.310858
 20
2.471476
  0
VERTEX
  8
PLAN_1
  6
CONTINUOUS
 10
-2.309228
 20
2.461685
  0
VERTEX
  8
PLAN_1
  6
CONTINUOUS
 10
-2.305965
 20
2.451350
  0
VERTEX
  8
PLAN_1
  6
CONTINUOUS
 10
-2.304331
 20
2.445909
  0
VERTEX
  8
PLAN_1
  6
CONTINUOUS
 10
-2.302157
 20
2.440472
  0
VERTEX
  8
PLAN_1
  6
CONTINUOUS
 10
-2.299437
 20
2.435575
  0
VERTEX
  8
PLAN_1
  6
CONTINUOUS
 10
-2.296717
 20
2.430134
  0
VERTEX
  8
PLAN_1
  6
CONTINUOUS
 10
-2.297803
 20
2.425783
  0
VERTEX
  8
PLAN_1
  6
CONTINUOUS
 10
-2.301067
 20
2.414358
  0
VERTEX
  8
PLAN_1
  6
CONTINUOUS
 10
-2.303244
 20
2.405657
  0
VERTEX
  8
PLAN_1
  6
CONTINUOUS
 10
-2.305421
 20
2.395319
  0
VERTEX
  8
PLAN_1
  6
CONTINUOUS
 10
-2.307051
 20
2.383354
  0
VERTEX
  8
PLAN_1
  6
CONTINUOUS
 10
-2.309228
 20
2.369752
  0
VERTEX
  8
PLAN_1
  6
CONTINUOUS
 10
-2.310315
 20
2.354524
  0
VERTEX
  8
PLAN_1
  6
CONTINUOUS
 10
-2.311402
 20
2.338205
  0
VERTEX
  8
PLAN_1
  6
CONTINUOUS
 10
-2.311949
 20
2.320252
  0
VERTEX
  8
PLAN_1
  6
CONTINUOUS
 10
-2.311402
 20
2.300669
  0
VERTEX
  8
PLAN_1
  6
CONTINUOUS
 10
-2.310315
 20
2.280543
  0
VERTEX
  8
PLAN_1
  6
CONTINUOUS
 10
-2.307594
 20
2.258783
  0
VERTEX
  8
PLAN_1
  6
CONTINUOUS
 10
-2.305965
 20
2.247358
  0
VERTEX
  8
PLAN_1
  6
CONTINUOUS
 10
-2.304331
 20
2.235937
  0
VERTEX
  8
PLAN_1
  6
CONTINUOUS
 10
-2.302157
 20
2.223969
  0
VERTEX
  8
PLAN_1
  6
CONTINUOUS
 10
-2.299437
 20
2.212000
  0
VERTEX
  8
PLAN_1
  6
CONTINUOUS
 10
-2.300524
 20
2.209280
  0
VERTEX
  8
PLAN_1
  6
CONTINUOUS
 10
-2.303787
 20
2.202209
  0
VERTEX
  8
PLAN_1
  6
CONTINUOUS
 10
-2.305421
 20
2.196772
  0
VERTEX
  8
PLAN_1
  6
CONTINUOUS
 10
-2.307051
 20
2.190787
  0
VERTEX
  8
PLAN_1
  6
CONTINUOUS
 10
-2.309228
 20
2.184260
  0
VERTEX
  8
PLAN_1
  6
CONTINUOUS
 10
-2.310315
 20
2.176642
  0
VERTEX
  8
PLAN_1
  6
CONTINUOUS
 10
-2.311402
 20
2.168484
  0
VERTEX
  8
PLAN_1
  6
CONTINUOUS
 10
-2.311949
 20
2.159780
  0
VERTEX
  8
PLAN_1
  6
CONTINUOUS
 10
-2.311949
 20
2.150531
  0
VERTEX
  8
PLAN_1
  6
CONTINUOUS
 10
-2.311402
 20
2.140740
  0
VERTEX
  8
PLAN_1
  6
CONTINUOUS
 10
-2.309228
 20
2.130406
  0
VERTEX
  8
PLAN_1
  6
CONTINUOUS
 10
-2.306508
 20
2.120614
  0
VERTEX
  8
PLAN_1
  6
CONTINUOUS
 10
-2.304874
 20
2.115173
  0
VERTEX
  8
PLAN_1
  6
CONTINUOUS
 10
-2.302701
 20
2.109732
  0
VERTEX
  8
PLAN_1
  6
CONTINUOUS
 10
-2.299980
 20
2.104839
  0
VERTEX
  8
PLAN_1
  6
CONTINUOUS
 10
-2.297260
 20
2.099398
  0
SEQEND
  8
0
  0
POLYLINE
  8
PLAN_1
  6
CONTINUOUS
 66
     1
 40
0.007071
 41
0.007071
  0
VERTEX
  8
PLAN_1
  6
CONTINUOUS
 10
-1.406228
 20
2.743465
  0
VERTEX
  8
PLAN_1
  6
CONTINUOUS
 10
-1.406228
 20
1.912815
  0
SEQEND
  8
0
  0
POLYLINE
  8
PLAN_1
  6
CONTINUOUS
 66
     1
 40
0.007071
 41
0.007071
  0
VERTEX
  8
PLAN_1
  6
CONTINUOUS
 10
-1.511760
 20
2.742921
  0
VERTEX
  8
PLAN_1
  6
CONTINUOUS
 10
-1.511760
 20
1.920429
  0
SEQEND
  8
0
  0
POLYLINE
  8
PLAN_1
  6
CONTINUOUS
 66
     1
 40
0.007071
 41
0.007071
  0
VERTEX
  8
PLAN_1
  6
CONTINUOUS
 10
-1.768516
 20
1.944909
  0
VERTEX
  8
PLAN_1
  6
CONTINUOUS
 10
-1.768516
 20
2.702122
  0
SEQEND
  8
0
  0
POLYLINE
  8
PLAN_1
  6
CONTINUOUS
 66
     1
 40
0.007071
 41
0.007071
  0
VERTEX
  8
PLAN_1
  6
CONTINUOUS
 10
-2.360906
 20
2.446453
  0
VERTEX
  8
PLAN_1
  6
CONTINUOUS
 10
-2.360906
 20
2.193504
  0
SEQEND
  8
0
  0
POLYLINE
  8
PLAN_1
  6
CONTINUOUS
 66
     1
 40
0.008157
 41
0.008157
  0
VERTEX
  8
PLAN_1
  6
CONTINUOUS
 10
-2.360906
 20
2.193504
  0
VERTEX
  8
PLAN_1
  6
CONTINUOUS
 10
-2.369610
 20
2.202209
  0
VERTEX
  8
PLAN_1
  6
CONTINUOUS
 10
-2.369610
 20
2.436661
  0
VERTEX
  8
PLAN_1
  6
CONTINUOUS
 10
-2.360906
 20
2.445366
  0
VERTEX
  8
PLAN_1
  6
CONTINUOUS
 10
-2.311949
 20
2.446453
  0
VERTEX
  8
PLAN_1
  6
CONTINUOUS
 10
-2.311949
 20
2.193504
  0
VERTEX
  8
PLAN_1
  6
CONTINUOUS
 10
-2.360906
 20
2.193504
  0
SEQEND
  8
0
  0
POLYLINE
  8
PLAN_1
  6
CONTINUOUS
 66
     1
 40
0.008157
 41
0.008157
  0
VERTEX
  8
PLAN_1
  6
CONTINUOUS
 10
-1.868063
 20
3.261874
  0
VERTEX
  8
PLAN_1
  6
CONTINUOUS
 10
-1.847937
 20
3.261874
  0
VERTEX
  8
PLAN_1
  6
CONTINUOUS
 10
-1.847937
 20
3.740571
  0
VERTEX
  8
PLAN_1
  6
CONTINUOUS
 10
-2.126996
 20
3.740571
  0
VERTEX
  8
PLAN_1
  6
CONTINUOUS
 10
-2.126996
 20
3.261874
  0
VERTEX
  8
PLAN_1
  6
CONTINUOUS
 10
-2.106870
 20
3.261874
  0
SEQEND
  8
0
  0
POLYLINE
  8
PLAN_1
  6
CONTINUOUS
 66
     1
 40
0.008157
 41
0.008157
  0
VERTEX
  8
PLAN_1
  6
CONTINUOUS
 10
-2.106870
 20
2.702122
  0
VERTEX
  8
PLAN_1
  6
CONTINUOUS
 10
-2.206961
 20
2.702122
  0
VERTEX
  8
PLAN_1
  6
CONTINUOUS
 10
-2.206961
 20
1.944909
  0
VERTEX
  8
PLAN_1
  6
CONTINUOUS
 10
-1.768516
 20
1.944909
  0
VERTEX
  8
PLAN_1
  6
CONTINUOUS
 10
-1.512846
 20
1.912272
  0
VERTEX
  8
PLAN_1
  6
CONTINUOUS
 10
-1.407315
 20
1.912272
  0
VERTEX
  8
PLAN_1
  6
CONTINUOUS
 10
-1.406228
 20
1.765941
  0
VERTEX
  8
PLAN_1
  6
CONTINUOUS
 10
-0.089807
 20
1.765941
  0
VERTEX
  8
PLAN_1
  6
CONTINUOUS
 10
-0.089807
 20
2.743465
  0
VERTEX
  8
PLAN_1
  6
CONTINUOUS
 10
-1.511760
 20
2.742921
  0
VERTEX
  8
PLAN_1
  6
CONTINUOUS
 10
-1.768516
 20
2.702122
  0
VERTEX
  8
PLAN_1
  6
CONTINUOUS
 10
-1.868063
 20
2.702122
  0
SEQEND
  8
0
  0
POLYLINE
  8
PLAN_1
  6
CONTINUOUS
 66
     1
 40
0.008157
 41
0.008157
  0
VERTEX
  8
PLAN_1
  6
CONTINUOUS
 10
-2.106870
 20
2.702122
  0
VERTEX
  8
PLAN_1
  6
CONTINUOUS
 10
-2.106870
 20
2.550354
  0
SEQEND
  8
0
  0
POLYLINE
  8
PLAN_1
  6
CONTINUOUS
 66
     1
 40
0.008157
 41
0.008157
  0
VERTEX
  8
PLAN_1
  6
CONTINUOUS
 10
-2.106870
 20
3.379374
  0
VERTEX
  8
PLAN_1
  6
CONTINUOUS
 10
-2.106870
 20
3.261874
  0
SEQEND
  8
0
  0
POLYLINE
  8
PLAN_1
  6
CONTINUOUS
 66
     1
 40
0.008157
 41
0.008157
  0
VERTEX
  8
PLAN_1
  6
CONTINUOUS
 10
-2.106870
 20
2.702122
  0
VERTEX
  8
PLAN_1
  6
CONTINUOUS
 10
-2.106870
 20
3.261874
  0
SEQEND
  8
0
  0
POLYLINE
  8
PLAN_1
  6
CONTINUOUS
 66
     1
 40
0.008157
 41
0.008157
  0
VERTEX
  8
PLAN_1
  6
CONTINUOUS
 10
-1.868063
 20
3.261874
  0
VERTEX
  8
PLAN_1
  6
CONTINUOUS
 10
-1.868063
 20
3.379374
  0
SEQEND
  8
0
  0
POLYLINE
  8
PLAN_1
  6
CONTINUOUS
 66
     1
 40
0.008157
 41
0.008157
  0
VERTEX
  8
PLAN_1
  6
CONTINUOUS
 10
-1.868063
 20
2.702122
  0
VERTEX
  8
PLAN_1
  6
CONTINUOUS
 10
-1.868063
 20
3.261874
  0
SEQEND
  8
0
  0
POLYLINE
  8
PLAN_1
  6
CONTINUOUS
 66
     1
 40
0.008157
 41
0.008157
  0
VERTEX
  8
PLAN_1
  6
CONTINUOUS
 10
-1.868063
 20
2.550354
  0
VERTEX
  8
PLAN_1
  6
CONTINUOUS
 10
-1.868063
 20
2.702122
  0
SEQEND
  8
0
  0
POLYLINE
  8
PLAN_1
  6
CONTINUOUS
 66
     1
 40
0.008157
 41
0.008157
  0
VERTEX
  8
PLAN_1
  6
CONTINUOUS
 10
-0.089807
 20
-1.285760
  0
VERTEX
  8
PLAN_1
  6
CONTINUOUS
 10
-0.089807
 20
1.767575
  0
VERTEX
  8
PLAN_1
  6
CONTINUOUS
 10
-1.691272
 20
1.767575
  0
VERTEX
  8
PLAN_1
  6
CONTINUOUS
 10
-1.691272
 20
-1.285760
  0
VERTEX
  8
PLAN_1
  6
CONTINUOUS
 10
-0.089807
 20
-1.285760
  0
SEQEND
  8
0
  0
POLYLINE
  8
PLAN_1
  6
CONTINUOUS
 66
     1
 40
0.008157
 41
0.008157
  0
VERTEX
  8
PLAN_1
  6
CONTINUOUS
 10
-1.066244
 20
1.767575
  0
VERTEX
  8
PLAN_1
  6
CONTINUOUS
 10
-1.066244
 20
1.965035
  0
VERTEX
  8
PLAN_1
  6
CONTINUOUS
 10
-1.376311
 20
1.965035
  0
VERTEX
  8
PLAN_1
  6
CONTINUOUS
 10
-1.376311
 20
1.767575
  0
VERTEX
  8
PLAN_1
  6
CONTINUOUS
 10
-1.066244
 20
1.767575
  0
SEQEND
  8
0
  0
POLYLINE
  8
PLAN_1
  6
CONTINUOUS
 66
     1
 40
0.008157
 41
0.008157
  0
VERTEX
  8
PLAN_1
  6
CONTINUOUS
 10
-0.089807
 20
1.767575
  0
VERTEX
  8
PLAN_1
  6
CONTINUOUS
 10
-0.089807
 20
1.965035
  0
VERTEX
  8
PLAN_1
  6
CONTINUOUS
 10
-0.405315
 20
1.965035
  0
VERTEX
  8
PLAN_1
  6
CONTINUOUS
 10
-0.405315
 20
1.767575
  0
VERTEX
  8
PLAN_1
  6
CONTINUOUS
 10
-0.089807
 20
1.767575
  0
SEQEND
  8
0
  0
POLYLINE
  8
PLAN_1
  6
CONTINUOUS
 66
     1
 40
0.008157
 41
0.008157
  0
VERTEX
  8
PLAN_1
  6
CONTINUOUS
 10
-0.069138
 20
1.437382
  0
VERTEX
  8
PLAN_1
  6
CONTINUOUS
 10
-0.069138
 20
1.734933
  0
VERTEX
  8
PLAN_1
  6
CONTINUOUS
 10
-0.089807
 20
1.734933
  0
VERTEX
  8
PLAN_1
  6
CONTINUOUS
 10
-0.089807
 20
1.437382
  0
VERTEX
  8
PLAN_1
  6
CONTINUOUS
 10
-0.069138
 20
1.437382
  0
SEQEND
  8
0
  0
POLYLINE
  8
PLAN_1
  6
CONTINUOUS
 66
     1
 40
0.008157
 41
0.008157
  0
VERTEX
  8
PLAN_1
  6
CONTINUOUS
 10
-0.069138
 20
-1.257472
  0
VERTEX
  8
PLAN_1
  6
CONTINUOUS
 10
-0.069138
 20
-0.959917
  0
VERTEX
  8
PLAN_1
  6
CONTINUOUS
 10
-0.089807
 20
-0.959917
  0
VERTEX
  8
PLAN_1
  6
CONTINUOUS
 10
-0.089807
 20
-1.257472
  0
VERTEX
  8
PLAN_1
  6
CONTINUOUS
 10
-0.069138
 20
-1.257472
  0
SEQEND
  8
0
  0
POLYLINE
  8
PLAN_1
  6
CONTINUOUS
 66
     1
 40
0.008157
 41
0.008157
  0
VERTEX
  8
PLAN_1
  6
CONTINUOUS
 10
-1.616748
 20
1.767575
  0
VERTEX
  8
PLAN_1
  6
CONTINUOUS
 10
-1.616748
 20
-1.285760
  0
SEQEND
  8
0
  0
POLYLINE
  8
PLAN_1
  6
CONTINUOUS
 66
     1
 40
0.008157
 41
0.008157
  0
VERTEX
  8
PLAN_1
  6
CONTINUOUS
 10
-1.534606
 20
1.767575
  0
VERTEX
  8
PLAN_1
  6
CONTINUOUS
 10
-1.534606
 20
-1.285760
  0
SEQEND
  8
0
  0
POLYLINE
  8
PLAN_1
  6
CONTINUOUS
 66
     1
 40
0.008157
 41
0.008157
  0
VERTEX
  8
PLAN_1
  6
CONTINUOUS
 10
-1.534606
 20
1.191504
  0
VERTEX
  8
PLAN_1
  6
CONTINUOUS
 10
-1.376311
 20
1.191504
  0
VERTEX
  8
PLAN_1
  6
CONTINUOUS
 10
-1.376311
 20
1.767575
  0
SEQEND
  8
0
  0
POLYLINE
  8
PLAN_1
  6
CONTINUOUS
 66
     1
 40
0.008157
 41
0.008157
  0
VERTEX
  8
PLAN_1
  6
CONTINUOUS
 10
-1.531343
 20
-0.743961
  0
VERTEX
  8
PLAN_1
  6
CONTINUOUS
 10
-1.374677
 20
-0.743961
  0
VERTEX
  8
PLAN_1
  6
CONTINUOUS
 10
-1.374677
 20
-1.287394
  0
SEQEND
  8
0
  0
POLYLINE
  8
PLAN_1
  6
CONTINUOUS
 66
     1
 40
0.008157
 41
0.008157
  0
VERTEX
  8
PLAN_1
  6
CONTINUOUS
 10
-1.691272
 20
-1.200354
  0
VERTEX
  8
PLAN_1
  6
CONTINUOUS
 10
-1.691272
 20
-0.947409
  0
VERTEX
  8
PLAN_1
  6
CONTINUOUS
 10
-1.788098
 20
-0.947409
  0
VERTEX
  8
PLAN_1
  6
CONTINUOUS
 10
-1.788098
 20
-1.200354
  0
VERTEX
  8
PLAN_1
  6
CONTINUOUS
 10
-1.691272
 20
-1.200354
  0
SEQEND
  8
0
  0
POLYLINE
  8
PLAN_1
  6
CONTINUOUS
 66
     1
 40
0.008157
 41
0.008157
  0
VERTEX
  8
PLAN_1
  6
CONTINUOUS
 10
-1.735878
 20
-1.178055
  0
VERTEX
  8
PLAN_1
  6
CONTINUOUS
 10
-1.735878
 20
-1.155752
  0
VERTEX
  8
PLAN_1
  6
CONTINUOUS
 10
-1.788098
 20
-1.155752
  0
VERTEX
  8
PLAN_1
  6
CONTINUOUS
 10
-1.788098
 20
-1.178055
  0
VERTEX
  8
PLAN_1
  6
CONTINUOUS
 10
-1.735878
 20
-1.178055
  0
SEQEND
  8
0
  0
POLYLINE
  8
PLAN_1
  6
CONTINUOUS
 66
     1
 40
0.008157
 41
0.008157
  0
VERTEX
  8
PLAN_1
  6
CONTINUOUS
 10
-1.691272
 20
1.684890
  0
VERTEX
  8
PLAN_1
  6
CONTINUOUS
 10
-1.691272
 20
1.431941
  0
VERTEX
  8
PLAN_1
  6
CONTINUOUS
 10
-1.788098
 20
1.431941
  0
VERTEX
  8
PLAN_1
  6
CONTINUOUS
 10
-1.788098
 20
1.684890
  0
VERTEX
  8
PLAN_1
  6
CONTINUOUS
 10
-1.691272
 20
1.684890
  0
SEQEND
  8
0
  0
POLYLINE
  8
PLAN_1
  6
CONTINUOUS
 66
     1
 40
0.008157
 41
0.008157
  0
VERTEX
  8
PLAN_1
  6
CONTINUOUS
 10
-1.735878
 20
1.662587
  0
VERTEX
  8
PLAN_1
  6
CONTINUOUS
 10
-1.735878
 20
1.640283
  0
VERTEX
  8
PLAN_1
  6
CONTINUOUS
 10
-1.788098
 20
1.640283
  0
VERTEX
  8
PLAN_1
  6
CONTINUOUS
 10
-1.788098
 20
1.662587
  0
VERTEX
  8
PLAN_1
  6
CONTINUOUS
 10
-1.735878
 20
1.662587
  0
SEQEND
  8
0
  0
POLYLINE
  8
PLAN_1
 62
     2
  6
CONTINUOUS
 66
     1
 40
0.004350
 41
0.004350
  0
VERTEX
  8
PLAN_1
 62
     2
  6
CONTINUOUS
 10
-0.069138
 20
-1.309697
  0
VERTEX
  8
PLAN_1
 62
     2
  6
CONTINUOUS
 10
-0.069138
 20
-1.737803
  0
SEQEND
  8
0
  0
POLYLINE
  8
PLAN_1
 62
     2
  6
CONTINUOUS
 66
     1
 40
0.004350
 41
0.004350
  0
VERTEX
  8
PLAN_1
 62
     2
  6
CONTINUOUS
 10
-1.374677
 20
-1.309697
  0
VERTEX
  8
PLAN_1
 62
     2
  6
CONTINUOUS
 10
-1.374677
 20
-1.580051
  0
SEQEND
  8
0
  0
POLYLINE
  8
PLAN_1
 62
     2
  6
CONTINUOUS
 66
     1
 40
0.004350
 41
0.004350
  0
VERTEX
  8
PLAN_1
 62
     2
  6
CONTINUOUS
 10
-1.345303
 20
-1.556661
  0
VERTEX
  8
PLAN_1
 62
     2
  6
CONTINUOUS
 10
-0.099055
 20
-1.556661
  0
SEQEND
  8
0
  0
SOLID
  8
PLAN_1
 62
     2
 10
-0.069138
 20
-1.556661
 11
-0.128429
 21
-1.540886
 12
-0.069138
 22
-1.556661
 13
-0.128429
 23
-1.572437
  0
POLYLINE
  8
PLAN_1
 62
     2
  6
CONTINUOUS
 66
     1
 40
0.003000
 41
0.003000
  0
VERTEX
  8
PLAN_1
 62
     2
  6
CONTINUOUS
 10
-0.069138
 20
-1.556661
  0
VERTEX
  8
PLAN_1
 62
     2
  6
CONTINUOUS
 10
-0.128429
 20
-1.540886
  0
VERTEX
  8
PLAN_1
 62
     2
  6
CONTINUOUS
 10
-0.128429
 20
-1.572437
  0
VERTEX
  8
PLAN_1
 62
     2
  6
CONTINUOUS
 10
-0.069138
 20
-1.556661
  0
SEQEND
  8
0
  0
SOLID
  8
PLAN_1
 62
     2
 10
-1.374677
 20
-1.556661
 11
-1.315929
 21
-1.540886
 12
-1.374677
 22
-1.556661
 13
-1.315929
 23
-1.572437
  0
POLYLINE
  8
PLAN_1
 62
     2
  6
CONTINUOUS
 66
     1
 40
0.003000
 41
0.003000
  0
VERTEX
  8
PLAN_1
 62
     2
  6
CONTINUOUS
 10
-1.374677
 20
-1.556661
  0
VERTEX
  8
PLAN_1
 62
     2
  6
CONTINUOUS
 10
-1.315929
 20
-1.540886
  0
VERTEX
  8
PLAN_1
 62
     2
  6
CONTINUOUS
 10
-1.315929
 20
-1.572437
  0
VERTEX
  8
PLAN_1
 62
     2
  6
CONTINUOUS
 10
-1.374677
 20
-1.556661
  0
SEQEND
  8
0
  0
POLYLINE
  8
PLAN_1
 62
     2
  6
CONTINUOUS
 66
     1
 40
0.003000
 41
0.003000
  0
VERTEX
  8
PLAN_1
 62
     2
  6
CONTINUOUS
 10
-0.817646
 20
-1.491382
  0
VERTEX
  8
PLAN_1
 62
     2
  6
CONTINUOUS
 10
-0.817102
 20
-1.491382
  0
VERTEX
  8
PLAN_1
 62
     2
  6
CONTINUOUS
 10
-0.816559
 20
-1.491382
  0
VERTEX
  8
PLAN_1
 62
     2
  6
CONTINUOUS
 10
-0.816016
 20
-1.491382
  0
VERTEX
  8
PLAN_1
 62
     2
  6
CONTINUOUS
 10
-0.814925
 20
-1.491382
  0
VERTEX
  8
PLAN_1
 62
     2
  6
CONTINUOUS
 10
-0.814382
 20
-1.491382
  0
VERTEX
  8
PLAN_1
 62
     2
  6
CONTINUOUS
 10
-0.813839
 20
-1.491382
  0
VERTEX
  8
PLAN_1
 62
     2
  6
CONTINUOUS
 10
-0.813295
 20
-1.491382
  0
VERTEX
  8
PLAN_1
 62
     2
  6
CONTINUOUS
 10
-0.812752
 20
-1.491382
  0
VERTEX
  8
PLAN_1
 62
     2
  6
CONTINUOUS
 10
-0.810031
 20
-1.491382
  0
VERTEX
  8
PLAN_1
 62
     2
  6
CONTINUOUS
 10
-0.807854
 20
-1.490839
  0
VERTEX
  8
PLAN_1
 62
     2
  6
CONTINUOUS
 10
-0.805134
 20
-1.490295
  0
VERTEX
  8
PLAN_1
 62
     2
  6
CONTINUOUS
 10
-0.802961
 20
-1.489209
  0
VERTEX
  8
PLAN_1
 62
     2
  6
CONTINUOUS
 10
-0.801327
 20
-1.487575
  0
VERTEX
  8
PLAN_1
 62
     2
  6
CONTINUOUS
 10
-0.800240
 20
-1.485398
  0
VERTEX
  8
PLAN_1
 62
     2
  6
CONTINUOUS
 10
-0.799154
 20
-1.482681
  0
VERTEX
  8
PLAN_1
 62
     2
  6
CONTINUOUS
 10
-0.798606
 20
-1.479417
  0
VERTEX
  8
PLAN_1
 62
     2
  6
CONTINUOUS
 10
-0.799154
 20
-1.477783
  0
VERTEX
  8
PLAN_1
 62
     2
  6
CONTINUOUS
 10
-0.799154
 20
-1.476154
  0
VERTEX
  8
PLAN_1
 62
     2
  6
CONTINUOUS
 10
-0.800240
 20
-1.473976
  0
VERTEX
  8
PLAN_1
 62
     2
  6
CONTINUOUS
 10
-0.801327
 20
-1.472343
  0
VERTEX
  8
PLAN_1
 62
     2
  6
CONTINUOUS
 10
-0.803504
 20
-1.470713
  0
VERTEX
  8
PLAN_1
 62
     2
  6
CONTINUOUS
 10
-0.805681
 20
-1.469079
  0
VERTEX
  8
PLAN_1
 62
     2
  6
CONTINUOUS
 10
-0.808398
 20
-1.468535
  0
VERTEX
  8
PLAN_1
 62
     2
  6
CONTINUOUS
 10
-0.812209
 20
-1.467992
  0
VERTEX
  8
PLAN_1
 62
     2
  6
CONTINUOUS
 10
-0.816559
 20
-1.468535
  0
VERTEX
  8
PLAN_1
 62
     2
  6
CONTINUOUS
 10
-0.819823
 20
-1.469622
  0
VERTEX
  8
PLAN_1
 62
     2
  6
CONTINUOUS
 10
-0.822543
 20
-1.471799
  0
VERTEX
  8
PLAN_1
 62
     2
  6
CONTINUOUS
 10
-0.824173
 20
-1.473976
  0
VERTEX
  8
PLAN_1
 62
     2
  6
CONTINUOUS
 10
-0.825264
 20
-1.476697
  0
VERTEX
  8
PLAN_1
 62
     2
  6
CONTINUOUS
 10
-0.825807
 20
-1.479417
  0
VERTEX
  8
PLAN_1
 62
     2
  6
CONTINUOUS
 10
-0.826350
 20
-1.481591
  0
VERTEX
  8
PLAN_1
 62
     2
  6
CONTINUOUS
 10
-0.826350
 20
-1.483768
  0
VERTEX
  8
PLAN_1
 62
     2
  6
CONTINUOUS
 10
-0.835598
 20
-1.483768
  0
VERTEX
  8
PLAN_1
 62
     2
  6
CONTINUOUS
 10
-0.835598
 20
-1.479417
  0
VERTEX
  8
PLAN_1
 62
     2
  6
CONTINUOUS
 10
-0.834512
 20
-1.475606
  0
VERTEX
  8
PLAN_1
 62
     2
  6
CONTINUOUS
 10
-0.833421
 20
-1.471256
  0
VERTEX
  8
PLAN_1
 62
     2
  6
CONTINUOUS
 10
-0.830701
 20
-1.467992
  0
VERTEX
  8
PLAN_1
 62
     2
  6
CONTINUOUS
 10
-0.829614
 20
-1.466358
  0
VERTEX
  8
PLAN_1
 62
     2
  6
CONTINUOUS
 10
-0.827984
 20
-1.464728
  0
VERTEX
  8
PLAN_1
 62
     2
  6
CONTINUOUS
 10
-0.825807
 20
-1.463094
  0
VERTEX
  8
PLAN_1
 62
     2
  6
CONTINUOUS
 10
-0.823630
 20
-1.462008
  0
VERTEX
  8
PLAN_1
 62
     2
  6
CONTINUOUS
 10
-0.821457
 20
-1.460921
  0
VERTEX
  8
PLAN_1
 62
     2
  6
CONTINUOUS
 10
-0.818736
 20
-1.460378
  0
VERTEX
  8
PLAN_1
 62
     2
  6
CONTINUOUS
 10
-0.815472
 20
-1.459831
  0
VERTEX
  8
PLAN_1
 62
     2
  6
CONTINUOUS
 10
-0.811661
 20
-1.459831
  0
VERTEX
  8
PLAN_1
 62
     2
  6
CONTINUOUS
 10
-0.806768
 20
-1.460378
  0
VERTEX
  8
PLAN_1
 62
     2
  6
CONTINUOUS
 10
-0.802417
 20
-1.461465
  0
VERTEX
  8
PLAN_1
 62
     2
  6
CONTINUOUS
 10
-0.798606
 20
-1.463094
  0
VERTEX
  8
PLAN_1
 62
     2
  6
CONTINUOUS
 10
-0.795343
 20
-1.465272
  0
VERTEX
  8
PLAN_1
 62
     2
  6
CONTINUOUS
 10
-0.792626
 20
-1.467992
  0
VERTEX
  8
PLAN_1
 62
     2
  6
CONTINUOUS
 10
-0.790992
 20
-1.471256
  0
VERTEX
  8
PLAN_1
 62
     2
  6
CONTINUOUS
 10
-0.789906
 20
-1.475063
  0
VERTEX
  8
PLAN_1
 62
     2
  6
CONTINUOUS
 10
-0.789362
 20
-1.478870
  0
VERTEX
  8
PLAN_1
 62
     2
  6
CONTINUOUS
 10
-0.789362
 20
-1.482134
  0
VERTEX
  8
PLAN_1
 62
     2
  6
CONTINUOUS
 10
-0.790449
 20
-1.485398
  0
VERTEX
  8
PLAN_1
 62
     2
  6
CONTINUOUS
 10
-0.791535
 20
-1.487575
  0
VERTEX
  8
PLAN_1
 62
     2
  6
CONTINUOUS
 10
-0.792626
 20
-1.489752
  0
VERTEX
  8
PLAN_1
 62
     2
  6
CONTINUOUS
 10
-0.794256
 20
-1.491382
  0
VERTEX
  8
PLAN_1
 62
     2
  6
CONTINUOUS
 10
-0.795343
 20
-1.492472
  0
VERTEX
  8
PLAN_1
 62
     2
  6
CONTINUOUS
 10
-0.796976
 20
-1.493559
  0
VERTEX
  8
PLAN_1
 62
     2
  6
CONTINUOUS
 10
-0.798606
 20
-1.494102
  0
VERTEX
  8
PLAN_1
 62
     2
  6
CONTINUOUS
 10
-0.798606
 20
-1.494646
  0
VERTEX
  8
PLAN_1
 62
     2
  6
CONTINUOUS
 10
-0.796433
 20
-1.495189
  0
VERTEX
  8
PLAN_1
 62
     2
  6
CONTINUOUS
 10
-0.793713
 20
-1.496823
  0
VERTEX
  8
PLAN_1
 62
     2
  6
CONTINUOUS
 10
-0.791535
 20
-1.498453
  0
VERTEX
  8
PLAN_1
 62
     2
  6
CONTINUOUS
 10
-0.789906
 20
-1.500087
  0
VERTEX
  8
PLAN_1
 62
     2
  6
CONTINUOUS
 10
-0.788272
 20
-1.502264
  0
VERTEX
  8
PLAN_1
 62
     2
  6
CONTINUOUS
 10
-0.787185
 20
-1.504984
  0
VERTEX
  8
PLAN_1
 62
     2
  6
CONTINUOUS
 10
-0.786642
 20
-1.508248
  0
VERTEX
  8
PLAN_1
 62
     2
  6
CONTINUOUS
 10
-0.786642
 20
-1.511512
  0
VERTEX
  8
PLAN_1
 62
     2
  6
CONTINUOUS
 10
-0.787185
 20
-1.515862
  0
VERTEX
  8
PLAN_1
 62
     2
  6
CONTINUOUS
 10
-0.788272
 20
-1.520213
  0
VERTEX
  8
PLAN_1
 62
     2
  6
CONTINUOUS
 10
-0.789906
 20
-1.524020
  0
VERTEX
  8
PLAN_1
 62
     2
  6
CONTINUOUS
 10
-0.792626
 20
-1.527831
  0
VERTEX
  8
PLAN_1
 62
     2
  6
CONTINUOUS
 10
-0.796433
 20
-1.530547
  0
VERTEX
  8
PLAN_1
 62
     2
  6
CONTINUOUS
 10
-0.800783
 20
-1.532724
  0
VERTEX
  8
PLAN_1
 62
     2
  6
CONTINUOUS
 10
-0.803504
 20
-1.533815
  0
VERTEX
  8
PLAN_1
 62
     2
  6
CONTINUOUS
 10
-0.806224
 20
-1.534358
  0
VERTEX
  8
PLAN_1
 62
     2
  6
CONTINUOUS
 10
-0.809488
 20
-1.534902
  0
VERTEX
  8
PLAN_1
 62
     2
  6
CONTINUOUS
 10
-0.812752
 20
-1.534902
  0
VERTEX
  8
PLAN_1
 62
     2
  6
CONTINUOUS
 10
-0.814925
 20
-1.534902
  0
VERTEX
  8
PLAN_1
 62
     2
  6
CONTINUOUS
 10
-0.816559
 20
-1.534902
  0
VERTEX
  8
PLAN_1
 62
     2
  6
CONTINUOUS
 10
-0.818736
 20
-1.534358
  0
VERTEX
  8
PLAN_1
 62
     2
  6
CONTINUOUS
 10
-0.820366
 20
-1.533815
  0
VERTEX
  8
PLAN_1
 62
     2
  6
CONTINUOUS
 10
-0.822000
 20
-1.533815
  0
VERTEX
  8
PLAN_1
 62
     2
  6
CONTINUOUS
 10
-0.823630
 20
-1.533268
  0
VERTEX
  8
PLAN_1
 62
     2
  6
CONTINUOUS
 10
-0.825264
 20
-1.532181
  0
VERTEX
  8
PLAN_1
 62
     2
  6
CONTINUOUS
 10
-0.826350
 20
-1.531638
  0
VERTEX
  8
PLAN_1
 62
     2
  6
CONTINUOUS
 10
-0.829071
 20
-1.530004
  0
VERTEX
  8
PLAN_1
 62
     2
  6
CONTINUOUS
 10
-0.831248
 20
-1.527831
  0
VERTEX
  8
PLAN_1
 62
     2
  6
CONTINUOUS
 10
-0.833421
 20
-1.525654
  0
VERTEX
  8
PLAN_1
 62
     2
  6
CONTINUOUS
 10
-0.834512
 20
-1.522933
  0
VERTEX
  8
PLAN_1
 62
     2
  6
CONTINUOUS
 10
-0.835598
 20
-1.519669
  0
VERTEX
  8
PLAN_1
 62
     2
  6
CONTINUOUS
 10
-0.836685
 20
-1.516949
  0
VERTEX
  8
PLAN_1
 62
     2
  6
CONTINUOUS
 10
-0.837228
 20
-1.513685
  0
VERTEX
  8
PLAN_1
 62
     2
  6
CONTINUOUS
 10
-0.837228
 20
-1.510421
  0
VERTEX
  8
PLAN_1
 62
     2
  6
CONTINUOUS
 10
-0.827984
 20
-1.510421
  0
VERTEX
  8
PLAN_1
 62
     2
  6
CONTINUOUS
 10
-0.827437
 20
-1.513142
  0
VERTEX
  8
PLAN_1
 62
     2
  6
CONTINUOUS
 10
-0.827437
 20
-1.515862
  0
VERTEX
  8
PLAN_1
 62
     2
  6
CONTINUOUS
 10
-0.826350
 20
-1.518583
  0
VERTEX
  8
PLAN_1
 62
     2
  6
CONTINUOUS
 10
-0.825264
 20
-1.521303
  0
VERTEX
  8
PLAN_1
 62
     2
  6
CONTINUOUS
 10
-0.823087
 20
-1.523476
  0
VERTEX
  8
PLAN_1
 62
     2
  6
CONTINUOUS
 10
-0.820366
 20
-1.525110
  0
VERTEX
  8
PLAN_1
 62
     2
  6
CONTINUOUS
 10
-0.816559
 20
-1.526197
  0
VERTEX
  8
PLAN_1
 62
     2
  6
CONTINUOUS
 10
-0.812209
 20
-1.526740
  0
VERTEX
  8
PLAN_1
 62
     2
  6
CONTINUOUS
 10
-0.808945
 20
-1.526740
  0
VERTEX
  8
PLAN_1
 62
     2
  6
CONTINUOUS
 10
-0.805681
 20
-1.525654
  0
VERTEX
  8
PLAN_1
 62
     2
  6
CONTINUOUS
 10
-0.802961
 20
-1.524567
  0
VERTEX
  8
PLAN_1
 62
     2
  6
CONTINUOUS
 10
-0.800783
 20
-1.522933
  0
VERTEX
  8
PLAN_1
 62
     2
  6
CONTINUOUS
 10
-0.799154
 20
-1.520756
  0
VERTEX
  8
PLAN_1
 62
     2
  6
CONTINUOUS
 10
-0.797520
 20
-1.518583
  0
VERTEX
  8
PLAN_1
 62
     2
  6
CONTINUOUS
 10
-0.796433
 20
-1.515862
  0
VERTEX
  8
PLAN_1
 62
     2
  6
CONTINUOUS
 10
-0.796433
 20
-1.512598
  0
VERTEX
  8
PLAN_1
 62
     2
  6
CONTINUOUS
 10
-0.796976
 20
-1.508248
  0
VERTEX
  8
PLAN_1
 62
     2
  6
CONTINUOUS
 10
-0.798063
 20
-1.505528
  0
VERTEX
  8
PLAN_1
 62
     2
  6
CONTINUOUS
 10
-0.800240
 20
-1.502807
  0
VERTEX
  8
PLAN_1
 62
     2
  6
CONTINUOUS
 10
-0.802417
 20
-1.501173
  0
VERTEX
  8
PLAN_1
 62
     2
  6
CONTINUOUS
 10
-0.805134
 20
-1.500087
  0
VERTEX
  8
PLAN_1
 62
     2
  6
CONTINUOUS
 10
-0.807854
 20
-1.499543
  0
VERTEX
  8
PLAN_1
 62
     2
  6
CONTINUOUS
 10
-0.811118
 20
-1.499000
  0
VERTEX
  8
PLAN_1
 62
     2
  6
CONTINUOUS
 10
-0.813295
 20
-1.499000
  0
VERTEX
  8
PLAN_1
 62
     2
  6
CONTINUOUS
 10
-0.813839
 20
-1.499000
  0
VERTEX
  8
PLAN_1
 62
     2
  6
CONTINUOUS
 10
-0.814382
 20
-1.499000
  0
VERTEX
  8
PLAN_1
 62
     2
  6
CONTINUOUS
 10
-0.814925
 20
-1.499000
  0
VERTEX
  8
PLAN_1
 62
     2
  6
CONTINUOUS
 10
-0.815472
 20
-1.499000
  0
VERTEX
  8
PLAN_1
 62
     2
  6
CONTINUOUS
 10
-0.816016
 20
-1.499000
  0
VERTEX
  8
PLAN_1
 62
     2
  6
CONTINUOUS
 10
-0.816559
 20
-1.499000
  0
VERTEX
  8
PLAN_1
 62
     2
  6
CONTINUOUS
 10
-0.817102
 20
-1.499543
  0
VERTEX
  8
PLAN_1
 62
     2
  6
CONTINUOUS
 10
-0.817646
 20
-1.499543
  0
VERTEX
  8
PLAN_1
 62
     2
  6
CONTINUOUS
 10
-0.817646
 20
-1.491382
  0
SEQEND
  8
0
  0
POLYLINE
  8
PLAN_1
 62
     2
  6
CONTINUOUS
 66
     1
 40
0.003000
 41
0.003000
  0
VERTEX
  8
PLAN_1
 62
     2
  6
CONTINUOUS
 10
-0.759441
 20
-1.491382
  0
VERTEX
  8
PLAN_1
 62
     2
  6
CONTINUOUS
 10
-0.758898
 20
-1.491382
  0
VERTEX
  8
PLAN_1
 62
     2
  6
CONTINUOUS
 10
-0.758354
 20
-1.491382
  0
VERTEX
  8
PLAN_1
 62
     2
  6
CONTINUOUS
 10
-0.757811
 20
-1.491382
  0
VERTEX
  8
PLAN_1
 62
     2
  6
CONTINUOUS
 10
-0.757268
 20
-1.491382
  0
VERTEX
  8
PLAN_1
 62
     2
  6
CONTINUOUS
 10
-0.756720
 20
-1.491382
  0
VERTEX
  8
PLAN_1
 62
     2
  6
CONTINUOUS
 10
-0.756177
 20
-1.491382
  0
VERTEX
  8
PLAN_1
 62
     2
  6
CONTINUOUS
 10
-0.755634
 20
-1.491382
  0
VERTEX
  8
PLAN_1
 62
     2
  6
CONTINUOUS
 10
-0.755091
 20
-1.491382
  0
VERTEX
  8
PLAN_1
 62
     2
  6
CONTINUOUS
 10
-0.752370
 20
-1.491382
  0
VERTEX
  8
PLAN_1
 62
     2
  6
CONTINUOUS
 10
-0.749650
 20
-1.490839
  0
VERTEX
  8
PLAN_1
 62
     2
  6
CONTINUOUS
 10
-0.747472
 20
-1.490295
  0
VERTEX
  8
PLAN_1
 62
     2
  6
CONTINUOUS
 10
-0.745299
 20
-1.489209
  0
VERTEX
  8
PLAN_1
 62
     2
  6
CONTINUOUS
 10
-0.743665
 20
-1.487575
  0
VERTEX
  8
PLAN_1
 62
     2
  6
CONTINUOUS
 10
-0.742035
 20
-1.485398
  0
VERTEX
  8
PLAN_1
 62
     2
  6
CONTINUOUS
 10
-0.741492
 20
-1.482681
  0
VERTEX
  8
PLAN_1
 62
     2
  6
CONTINUOUS
 10
-0.740945
 20
-1.479417
  0
VERTEX
  8
PLAN_1
 62
     2
  6
CONTINUOUS
 10
-0.740945
 20
-1.477783
  0
VERTEX
  8
PLAN_1
 62
     2
  6
CONTINUOUS
 10
-0.741492
 20
-1.476154
  0
VERTEX
  8
PLAN_1
 62
     2
  6
CONTINUOUS
 10
-0.742579
 20
-1.473976
  0
VERTEX
  8
PLAN_1
 62
     2
  6
CONTINUOUS
 10
-0.743665
 20
-1.472343
  0
VERTEX
  8
PLAN_1
 62
     2
  6
CONTINUOUS
 10
-0.745299
 20
-1.470713
  0
VERTEX
  8
PLAN_1
 62
     2
  6
CONTINUOUS
 10
-0.747472
 20
-1.469079
  0
VERTEX
  8
PLAN_1
 62
     2
  6
CONTINUOUS
 10
-0.750736
 20
-1.468535
  0
VERTEX
  8
PLAN_1
 62
     2
  6
CONTINUOUS
 10
-0.754547
 20
-1.467992
  0
VERTEX
  8
PLAN_1
 62
     2
  6
CONTINUOUS
 10
-0.758898
 20
-1.468535
  0
VERTEX
  8
PLAN_1
 62
     2
  6
CONTINUOUS
 10
-0.762161
 20
-1.469622
  0
VERTEX
  8
PLAN_1
 62
     2
  6
CONTINUOUS
 10
-0.764339
 20
-1.471799
  0
VERTEX
  8
PLAN_1
 62
     2
  6
CONTINUOUS
 10
-0.766512
 20
-1.473976
  0
VERTEX
  8
PLAN_1
 62
     2
  6
CONTINUOUS
 10
-0.767602
 20
-1.476697
  0
VERTEX
  8
PLAN_1
 62
     2
  6
CONTINUOUS
 10
-0.768146
 20
-1.479417
  0
VERTEX
  8
PLAN_1
 62
     2
  6
CONTINUOUS
 10
-0.768689
 20
-1.481591
  0
VERTEX
  8
PLAN_1
 62
     2
  6
CONTINUOUS
 10
-0.768689
 20
-1.483768
  0
VERTEX
  8
PLAN_1
 62
     2
  6
CONTINUOUS
 10
-0.777394
 20
-1.483768
  0
VERTEX
  8
PLAN_1
 62
     2
  6
CONTINUOUS
 10
-0.777394
 20
-1.479417
  0
VERTEX
  8
PLAN_1
 62
     2
  6
CONTINUOUS
 10
-0.776850
 20
-1.475606
  0
VERTEX
  8
PLAN_1
 62
     2
  6
CONTINUOUS
 10
-0.775217
 20
-1.471256
  0
VERTEX
  8
PLAN_1
 62
     2
  6
CONTINUOUS
 10
-0.773039
 20
-1.467992
  0
VERTEX
  8
PLAN_1
 62
     2
  6
CONTINUOUS
 10
-0.771409
 20
-1.466358
  0
VERTEX
  8
PLAN_1
 62
     2
  6
CONTINUOUS
 10
-0.769776
 20
-1.464728
  0
VERTEX
  8
PLAN_1
 62
     2
  6
CONTINUOUS
 10
-0.768146
 20
-1.463094
  0
VERTEX
  8
PLAN_1
 62
     2
  6
CONTINUOUS
 10
-0.765969
 20
-1.462008
  0
VERTEX
  8
PLAN_1
 62
     2
  6
CONTINUOUS
 10
-0.763248
 20
-1.460921
  0
VERTEX
  8
PLAN_1
 62
     2
  6
CONTINUOUS
 10
-0.760531
 20
-1.460378
  0
VERTEX
  8
PLAN_1
 62
     2
  6
CONTINUOUS
 10
-0.757268
 20
-1.459831
  0
VERTEX
  8
PLAN_1
 62
     2
  6
CONTINUOUS
 10
-0.754000
 20
-1.459831
  0
VERTEX
  8
PLAN_1
 62
     2
  6
CONTINUOUS
 10
-0.749106
 20
-1.460378
  0
VERTEX
  8
PLAN_1
 62
     2
  6
CONTINUOUS
 10
-0.744756
 20
-1.461465
  0
VERTEX
  8
PLAN_1
 62
     2
  6
CONTINUOUS
 10
-0.740945
 20
-1.463094
  0
VERTEX
  8
PLAN_1
 62
     2
  6
CONTINUOUS
 10
-0.737681
 20
-1.465272
  0
VERTEX
  8
PLAN_1
 62
     2
  6
CONTINUOUS
 10
-0.734965
 20
-1.467992
  0
VERTEX
  8
PLAN_1
 62
     2
  6
CONTINUOUS
 10
-0.732787
 20
-1.471256
  0
VERTEX
  8
PLAN_1
 62
     2
  6
CONTINUOUS
 10
-0.731701
 20
-1.475063
  0
VERTEX
  8
PLAN_1
 62
     2
  6
CONTINUOUS
 10
-0.731701
 20
-1.478870
  0
VERTEX
  8
PLAN_1
 62
     2
  6
CONTINUOUS
 10
-0.731701
 20
-1.482134
  0
VERTEX
  8
PLAN_1
 62
     2
  6
CONTINUOUS
 10
-0.732244
 20
-1.485398
  0
VERTEX
  8
PLAN_1
 62
     2
  6
CONTINUOUS
 10
-0.733331
 20
-1.487575
  0
VERTEX
  8
PLAN_1
 62
     2
  6
CONTINUOUS
 10
-0.734417
 20
-1.489752
  0
VERTEX
  8
PLAN_1
 62
     2
  6
CONTINUOUS
 10
-0.736051
 20
-1.491382
  0
VERTEX
  8
PLAN_1
 62
     2
  6
CONTINUOUS
 10
-0.737681
 20
-1.492472
  0
VERTEX
  8
PLAN_1
 62
     2
  6
CONTINUOUS
 10
-0.739315
 20
-1.493559
  0
VERTEX
  8
PLAN_1
 62
     2
  6
CONTINUOUS
 10
-0.740945
 20
-1.494102
  0
VERTEX
  8
PLAN_1
 62
     2
  6
CONTINUOUS
 10
-0.740945
 20
-1.494646
  0
VERTEX
  8
PLAN_1
 62
     2
  6
CONTINUOUS
 10
-0.738228
 20
-1.495189
  0
VERTEX
  8
PLAN_1
 62
     2
  6
CONTINUOUS
 10
-0.736051
 20
-1.496823
  0
VERTEX
  8
PLAN_1
 62
     2
  6
CONTINUOUS
 10
-0.733874
 20
-1.498453
  0
VERTEX
  8
PLAN_1
 62
     2
  6
CONTINUOUS
 10
-0.732244
 20
-1.500087
  0
VERTEX
  8
PLAN_1
 62
     2
  6
CONTINUOUS
 10
-0.730610
 20
-1.502264
  0
VERTEX
  8
PLAN_1
 62
     2
  6
CONTINUOUS
 10
-0.729524
 20
-1.504984
  0
VERTEX
  8
PLAN_1
 62
     2
  6
CONTINUOUS
 10
-0.728980
 20
-1.508248
  0
VERTEX
  8
PLAN_1
 62
     2
  6
CONTINUOUS
 10
-0.728437
 20
-1.511512
  0
VERTEX
  8
PLAN_1
 62
     2
  6
CONTINUOUS
 10
-0.728980
 20
-1.515862
  0
VERTEX
  8
PLAN_1
 62
     2
  6
CONTINUOUS
 10
-0.730067
 20
-1.520213
  0
VERTEX
  8
PLAN_1
 62
     2
  6
CONTINUOUS
 10
-0.732244
 20
-1.524020
  0
VERTEX
  8
PLAN_1
 62
     2
  6
CONTINUOUS
 10
-0.734965
 20
-1.527831
  0
VERTEX
  8
PLAN_1
 62
     2
  6
CONTINUOUS
 10
-0.738228
 20
-1.530547
  0
VERTEX
  8
PLAN_1
 62
     2
  6
CONTINUOUS
 10
-0.743122
 20
-1.532724
  0
VERTEX
  8
PLAN_1
 62
     2
  6
CONTINUOUS
 10
-0.745843
 20
-1.533815
  0
VERTEX
  8
PLAN_1
 62
     2
  6
CONTINUOUS
 10
-0.748563
 20
-1.534358
  0
VERTEX
  8
PLAN_1
 62
     2
  6
CONTINUOUS
 10
-0.751827
 20
-1.534902
  0
VERTEX
  8
PLAN_1
 62
     2
  6
CONTINUOUS
 10
-0.755091
 20
-1.534902
  0
VERTEX
  8
PLAN_1
 62
     2
  6
CONTINUOUS
 10
-0.756720
 20
-1.534902
  0
VERTEX
  8
PLAN_1
 62
     2
  6
CONTINUOUS
 10
-0.758898
 20
-1.534902
  0
VERTEX
  8
PLAN_1
 62
     2
  6
CONTINUOUS
 10
-0.760531
 20
-1.534358
  0
VERTEX
  8
PLAN_1
 62
     2
  6
CONTINUOUS
 10
-0.762705
 20
-1.533815
  0
VERTEX
  8
PLAN_1
 62
     2
  6
CONTINUOUS
 10
-0.764339
 20
-1.533815
  0
VERTEX
  8
PLAN_1
 62
     2
  6
CONTINUOUS
 10
-0.765425
 20
-1.533268
  0
VERTEX
  8
PLAN_1
 62
     2
  6
CONTINUOUS
 10
-0.767059
 20
-1.532181
  0
VERTEX
  8
PLAN_1
 62
     2
  6
CONTINUOUS
 10
-0.768689
 20
-1.531638
  0
VERTEX
  8
PLAN_1
 62
     2
  6
CONTINUOUS
 10
-0.771409
 20
-1.530004
  0
VERTEX
  8
PLAN_1
 62
     2
  6
CONTINUOUS
 10
-0.773587
 20
-1.527831
  0
VERTEX
  8
PLAN_1
 62
     2
  6
CONTINUOUS
 10
-0.775217
 20
-1.525654
  0
VERTEX
  8
PLAN_1
 62
     2
  6
CONTINUOUS
 10
-0.776850
 20
-1.522933
  0
VERTEX
  8
PLAN_1
 62
     2
  6
CONTINUOUS
 10
-0.777937
 20
-1.519669
  0
VERTEX
  8
PLAN_1
 62
     2
  6
CONTINUOUS
 10
-0.778480
 20
-1.516949
  0
VERTEX
  8
PLAN_1
 62
     2
  6
CONTINUOUS
 10
-0.779024
 20
-1.513685
  0
VERTEX
  8
PLAN_1
 62
     2
  6
CONTINUOUS
 10
-0.779567
 20
-1.510421
  0
VERTEX
  8
PLAN_1
 62
     2
  6
CONTINUOUS
 10
-0.769776
 20
-1.510421
  0
VERTEX
  8
PLAN_1
 62
     2
  6
CONTINUOUS
 10
-0.769776
 20
-1.513142
  0
VERTEX
  8
PLAN_1
 62
     2
  6
CONTINUOUS
 10
-0.769232
 20
-1.515862
  0
VERTEX
  8
PLAN_1
 62
     2
  6
CONTINUOUS
 10
-0.768689
 20
-1.518583
  0
VERTEX
  8
PLAN_1
 62
     2
  6
CONTINUOUS
 10
-0.767059
 20
-1.521303
  0
VERTEX
  8
PLAN_1
 62
     2
  6
CONTINUOUS
 10
-0.765425
 20
-1.523476
  0
VERTEX
  8
PLAN_1
 62
     2
  6
CONTINUOUS
 10
-0.762705
 20
-1.525110
  0
VERTEX
  8
PLAN_1
 62
     2
  6
CONTINUOUS
 10
-0.758898
 20
-1.526197
  0
VERTEX
  8
PLAN_1
 62
     2
  6
CONTINUOUS
 10
-0.754547
 20
-1.526740
  0
VERTEX
  8
PLAN_1
 62
     2
  6
CONTINUOUS
 10
-0.750736
 20
-1.526740
  0
VERTEX
  8
PLAN_1
 62
     2
  6
CONTINUOUS
 10
-0.748020
 20
-1.525654
  0
VERTEX
  8
PLAN_1
 62
     2
  6
CONTINUOUS
 10
-0.745299
 20
-1.524567
  0
VERTEX
  8
PLAN_1
 62
     2
  6
CONTINUOUS
 10
-0.743122
 20
-1.522933
  0
VERTEX
  8
PLAN_1
 62
     2
  6
CONTINUOUS
 10
-0.740945
 20
-1.520756
  0
VERTEX
  8
PLAN_1
 62
     2
  6
CONTINUOUS
 10
-0.739858
 20
-1.518583
  0
VERTEX
  8
PLAN_1
 62
     2
  6
CONTINUOUS
 10
-0.738772
 20
-1.515862
  0
VERTEX
  8
PLAN_1
 62
     2
  6
CONTINUOUS
 10
-0.738228
 20
-1.512598
  0
VERTEX
  8
PLAN_1
 62
     2
  6
CONTINUOUS
 10
-0.738772
 20
-1.508248
  0
VERTEX
  8
PLAN_1
 62
     2
  6
CONTINUOUS
 10
-0.740402
 20
-1.505528
  0
VERTEX
  8
PLAN_1
 62
     2
  6
CONTINUOUS
 10
-0.742035
 20
-1.502807
  0
VERTEX
  8
PLAN_1
 62
     2
  6
CONTINUOUS
 10
-0.744756
 20
-1.501173
  0
VERTEX
  8
PLAN_1
 62
     2
  6
CONTINUOUS
 10
-0.747472
 20
-1.500087
  0
VERTEX
  8
PLAN_1
 62
     2
  6
CONTINUOUS
 10
-0.750193
 20
-1.499543
  0
VERTEX
  8
PLAN_1
 62
     2
  6
CONTINUOUS
 10
-0.752913
 20
-1.499000
  0
VERTEX
  8
PLAN_1
 62
     2
  6
CONTINUOUS
 10
-0.755634
 20
-1.499000
  0
VERTEX
  8
PLAN_1
 62
     2
  6
CONTINUOUS
 10
-0.756177
 20
-1.499000
  0
VERTEX
  8
PLAN_1
 62
     2
  6
CONTINUOUS
 10
-0.756720
 20
-1.499000
  0
VERTEX
  8
PLAN_1
 62
     2
  6
CONTINUOUS
 10
-0.757268
 20
-1.499000
  0
VERTEX
  8
PLAN_1
 62
     2
  6
CONTINUOUS
 10
-0.757811
 20
-1.499000
  0
VERTEX
  8
PLAN_1
 62
     2
  6
CONTINUOUS
 10
-0.758354
 20
-1.499000
  0
VERTEX
  8
PLAN_1
 62
     2
  6
CONTINUOUS
 10
-0.758898
 20
-1.499000
  0
VERTEX
  8
PLAN_1
 62
     2
  6
CONTINUOUS
 10
-0.758898
 20
-1.499543
  0
VERTEX
  8
PLAN_1
 62
     2
  6
CONTINUOUS
 10
-0.759441
 20
-1.499543
  0
VERTEX
  8
PLAN_1
 62
     2
  6
CONTINUOUS
 10
-0.759441
 20
-1.491382
  0
SEQEND
  8
0
  0
POLYLINE
  8
PLAN_1
 62
     2
  6
CONTINUOUS
 66
     1
 40
0.003000
 41
0.003000
  0
VERTEX
  8
PLAN_1
 62
     2
  6
CONTINUOUS
 10
-0.714835
 20
-1.521846
  0
VERTEX
  8
PLAN_1
 62
     2
  6
CONTINUOUS
 10
-0.703957
 20
-1.521846
  0
VERTEX
  8
PLAN_1
 62
     2
  6
CONTINUOUS
 10
-0.703957
 20
-1.532181
  0
VERTEX
  8
PLAN_1
 62
     2
  6
CONTINUOUS
 10
-0.704500
 20
-1.537079
  0
VERTEX
  8
PLAN_1
 62
     2
  6
CONTINUOUS
 10
-0.705043
 20
-1.540343
  0
VERTEX
  8
PLAN_1
 62
     2
  6
CONTINUOUS
 10
-0.706677
 20
-1.543606
  0
VERTEX
  8
PLAN_1
 62
     2
  6
CONTINUOUS
 10
-0.708307
 20
-1.545236
  0
VERTEX
  8
PLAN_1
 62
     2
  6
CONTINUOUS
 10
-0.710484
 20
-1.546870
  0
VERTEX
  8
PLAN_1
 62
     2
  6
CONTINUOUS
 10
-0.712114
 20
-1.547413
  0
VERTEX
  8
PLAN_1
 62
     2
  6
CONTINUOUS
 10
-0.713748
 20
-1.547957
  0
VERTEX
  8
PLAN_1
 62
     2
  6
CONTINUOUS
 10
-0.714835
 20
-1.548500
  0
VERTEX
  8
PLAN_1
 62
     2
  6
CONTINUOUS
 10
-0.714835
 20
-1.543606
  0
VERTEX
  8
PLAN_1
 62
     2
  6
CONTINUOUS
 10
-0.713205
 20
-1.543059
  0
VERTEX
  8
PLAN_1
 62
     2
  6
CONTINUOUS
 10
-0.712114
 20
-1.542516
  0
VERTEX
  8
PLAN_1
 62
     2
  6
CONTINUOUS
 10
-0.711028
 20
-1.541429
  0
VERTEX
  8
PLAN_1
 62
     2
  6
CONTINUOUS
 10
-0.710484
 20
-1.539795
  0
VERTEX
  8
PLAN_1
 62
     2
  6
CONTINUOUS
 10
-0.709941
 20
-1.538165
  0
VERTEX
  8
PLAN_1
 62
     2
  6
CONTINUOUS
 10
-0.709398
 20
-1.536531
  0
VERTEX
  8
PLAN_1
 62
     2
  6
CONTINUOUS
 10
-0.709398
 20
-1.534902
  0
VERTEX
  8
PLAN_1
 62
     2
  6
CONTINUOUS
 10
-0.709398
 20
-1.532724
  0
VERTEX
  8
PLAN_1
 62
     2
  6
CONTINUOUS
 10
-0.714835
 20
-1.532724
  0
VERTEX
  8
PLAN_1
 62
     2
  6
CONTINUOUS
 10
-0.714835
 20
-1.521846
  0
SEQEND
  8
0
  0
POLYLINE
  8
PLAN_1
 62
     2
  6
CONTINUOUS
 66
     1
 40
0.003000
 41
0.003000
  0
VERTEX
  8
PLAN_1
 62
     2
  6
CONTINUOUS
 10
-0.680567
 20
-1.490295
  0
VERTEX
  8
PLAN_1
 62
     2
  6
CONTINUOUS
 10
-0.679476
 20
-1.489752
  0
VERTEX
  8
PLAN_1
 62
     2
  6
CONTINUOUS
 10
-0.678390
 20
-1.488661
  0
VERTEX
  8
PLAN_1
 62
     2
  6
CONTINUOUS
 10
-0.676756
 20
-1.488118
  0
VERTEX
  8
PLAN_1
 62
     2
  6
CONTINUOUS
 10
-0.675126
 20
-1.487031
  0
VERTEX
  8
PLAN_1
 62
     2
  6
CONTINUOUS
 10
-0.673492
 20
-1.486488
  0
VERTEX
  8
PLAN_1
 62
     2
  6
CONTINUOUS
 10
-0.671319
 20
-1.486488
  0
VERTEX
  8
PLAN_1
 62
     2
  6
CONTINUOUS
 10
-0.669142
 20
-1.485945
  0
VERTEX
  8
PLAN_1
 62
     2
  6
CONTINUOUS
 10
-0.666421
 20
-1.485945
  0
VERTEX
  8
PLAN_1
 62
     2
  6
CONTINUOUS
 10
-0.662071
 20
-1.486488
  0
VERTEX
  8
PLAN_1
 62
     2
  6
CONTINUOUS
 10
-0.657717
 20
-1.487575
  0
VERTEX
  8
PLAN_1
 62
     2
  6
CONTINUOUS
 10
-0.653909
 20
-1.489209
  0
VERTEX
  8
PLAN_1
 62
     2
  6
CONTINUOUS
 10
-0.650102
 20
-1.491925
  0
VERTEX
  8
PLAN_1
 62
     2
  6
CONTINUOUS
 10
-0.647382
 20
-1.495189
  0
VERTEX
  8
PLAN_1
 62
     2
  6
CONTINUOUS
 10
-0.644661
 20
-1.499000
  0
VERTEX
  8
PLAN_1
 62
     2
  6
CONTINUOUS
 10
-0.644118
 20
-1.501717
  0
VERTEX
  8
PLAN_1
 62
     2
  6
CONTINUOUS
 10
-0.643031
 20
-1.503894
  0
VERTEX
  8
PLAN_1
 62
     2
  6
CONTINUOUS
 10
-0.643031
 20
-1.506614
  0
VERTEX
  8
PLAN_1
 62
     2
  6
CONTINUOUS
 10
-0.642488
 20
-1.509335
  0
VERTEX
  8
PLAN_1
 62
     2
  6
CONTINUOUS
 10
-0.643031
 20
-1.512598
  0
VERTEX
  8
PLAN_1
 62
     2
  6
CONTINUOUS
 10
-0.643575
 20
-1.516949
  0
VERTEX
  8
PLAN_1
 62
     2
  6
CONTINUOUS
 10
-0.645209
 20
-1.520756
  0
VERTEX
  8
PLAN_1
 62
     2
  6
CONTINUOUS
 10
-0.647382
 20
-1.525110
  0
VERTEX
  8
PLAN_1
 62
     2
  6
CONTINUOUS
 10
-0.649016
 20
-1.527283
  0
VERTEX
  8
PLAN_1
 62
     2
  6
CONTINUOUS
 10
-0.650646
 20
-1.528917
  0
VERTEX
  8
PLAN_1
 62
     2
  6
CONTINUOUS
 10
-0.652823
 20
-1.530547
  0
VERTEX
  8
PLAN_1
 62
     2
  6
CONTINUOUS
 10
-0.655543
 20
-1.532181
  0
VERTEX
  8
PLAN_1
 62
     2
  6
CONTINUOUS
 10
-0.658264
 20
-1.533268
  0
VERTEX
  8
PLAN_1
 62
     2
  6
CONTINUOUS
 10
-0.661528
 20
-1.534358
  0
VERTEX
  8
PLAN_1
 62
     2
  6
CONTINUOUS
 10
-0.665335
 20
-1.534902
  0
VERTEX
  8
PLAN_1
 62
     2
  6
CONTINUOUS
 10
-0.669142
 20
-1.534902
  0
VERTEX
  8
PLAN_1
 62
     2
  6
CONTINUOUS
 10
-0.672949
 20
-1.534902
  0
VERTEX
  8
PLAN_1
 62
     2
  6
CONTINUOUS
 10
-0.676756
 20
-1.534358
  0
VERTEX
  8
PLAN_1
 62
     2
  6
CONTINUOUS
 10
-0.680567
 20
-1.532724
  0
VERTEX
  8
PLAN_1
 62
     2
  6
CONTINUOUS
 10
-0.683831
 20
-1.531094
  0
VERTEX
  8
PLAN_1
 62
     2
  6
CONTINUOUS
 10
-0.687094
 20
-1.528374
  0
VERTEX
  8
PLAN_1
 62
     2
  6
CONTINUOUS
 10
-0.689811
 20
-1.524567
  0
VERTEX
  8
PLAN_1
 62
     2
  6
CONTINUOUS
 10
-0.690902
 20
-1.522933
  0
VERTEX
  8
PLAN_1
 62
     2
  6
CONTINUOUS
 10
-0.691445
 20
-1.520213
  0
VERTEX
  8
PLAN_1
 62
     2
  6
CONTINUOUS
 10
-0.692531
 20
-1.517492
  0
VERTEX
  8
PLAN_1
 62
     2
  6
CONTINUOUS
 10
-0.692531
 20
-1.514776
  0
VERTEX
  8
PLAN_1
 62
     2
  6
CONTINUOUS
 10
-0.683283
 20
-1.514776
  0
VERTEX
  8
PLAN_1
 62
     2
  6
CONTINUOUS
 10
-0.682740
 20
-1.517492
  0
VERTEX
  8
PLAN_1
 62
     2
  6
CONTINUOUS
 10
-0.681654
 20
-1.520213
  0
VERTEX
  8
PLAN_1
 62
     2
  6
CONTINUOUS
 10
-0.680020
 20
-1.522390
  0
VERTEX
  8
PLAN_1
 62
     2
  6
CONTINUOUS
 10
-0.678390
 20
-1.524020
  0
VERTEX
  8
PLAN_1
 62
     2
  6
CONTINUOUS
 10
-0.676213
 20
-1.525654
  0
VERTEX
  8
PLAN_1
 62
     2
  6
CONTINUOUS
 10
-0.673492
 20
-1.526197
  0
VERTEX
  8
PLAN_1
 62
     2
  6
CONTINUOUS
 10
-0.670776
 20
-1.526740
  0
VERTEX
  8
PLAN_1
 62
     2
  6
CONTINUOUS
 10
-0.668055
 20
-1.527283
  0
VERTEX
  8
PLAN_1
 62
     2
  6
CONTINUOUS
 10
-0.664244
 20
-1.526740
  0
VERTEX
  8
PLAN_1
 62
     2
  6
CONTINUOUS
 10
-0.661528
 20
-1.525654
  0
VERTEX
  8
PLAN_1
 62
     2
  6
CONTINUOUS
 10
-0.658807
 20
-1.524020
  0
VERTEX
  8
PLAN_1
 62
     2
  6
CONTINUOUS
 10
-0.656630
 20
-1.521846
  0
VERTEX
  8
PLAN_1
 62
     2
  6
CONTINUOUS
 10
-0.655000
 20
-1.519669
  0
VERTEX
  8
PLAN_1
 62
     2
  6
CONTINUOUS
 10
-0.653366
 20
-1.516949
  0
VERTEX
  8
PLAN_1
 62
     2
  6
CONTINUOUS
 10
-0.652823
 20
-1.513685
  0
VERTEX
  8
PLAN_1
 62
     2
  6
CONTINUOUS
 10
-0.652280
 20
-1.510421
  0
VERTEX
  8
PLAN_1
 62
     2
  6
CONTINUOUS
 10
-0.652823
 20
-1.506614
  0
VERTEX
  8
PLAN_1
 62
     2
  6
CONTINUOUS
 10
-0.653909
 20
-1.503350
  0
VERTEX
  8
PLAN_1
 62
     2
  6
CONTINUOUS
 10
-0.655000
 20
-1.500630
  0
VERTEX
  8
PLAN_1
 62
     2
  6
CONTINUOUS
 10
-0.657173
 20
-1.498453
  0
VERTEX
  8
PLAN_1
 62
     2
  6
CONTINUOUS
 10
-0.659350
 20
-1.496280
  0
VERTEX
  8
PLAN_1
 62
     2
  6
CONTINUOUS
 10
-0.662071
 20
-1.495189
  0
VERTEX
  8
PLAN_1
 62
     2
  6
CONTINUOUS
 10
-0.665335
 20
-1.494102
  0
VERTEX
  8
PLAN_1
 62
     2
  6
CONTINUOUS
 10
-0.668598
 20
-1.494102
  0
VERTEX
  8
PLAN_1
 62
     2
  6
CONTINUOUS
 10
-0.670776
 20
-1.494102
  0
VERTEX
  8
PLAN_1
 62
     2
  6
CONTINUOUS
 10
-0.672406
 20
-1.494646
  0
VERTEX
  8
PLAN_1
 62
     2
  6
CONTINUOUS
 10
-0.674583
 20
-1.495189
  0
VERTEX
  8
PLAN_1
 62
     2
  6
CONTINUOUS
 10
-0.676213
 20
-1.495736
  0
VERTEX
  8
PLAN_1
 62
     2
  6
CONTINUOUS
 10
-0.677846
 20
-1.496823
  0
VERTEX
  8
PLAN_1
 62
     2
  6
CONTINUOUS
 10
-0.679476
 20
-1.497909
  0
VERTEX
  8
PLAN_1
 62
     2
  6
CONTINUOUS
 10
-0.680567
 20
-1.499543
  0
VERTEX
  8
PLAN_1
 62
     2
  6
CONTINUOUS
 10
-0.682197
 20
-1.501173
  0
VERTEX
  8
PLAN_1
 62
     2
  6
CONTINUOUS
 10
-0.690358
 20
-1.500630
  0
VERTEX
  8
PLAN_1
 62
     2
  6
CONTINUOUS
 10
-0.684374
 20
-1.461465
  0
VERTEX
  8
PLAN_1
 62
     2
  6
CONTINUOUS
 10
-0.646839
 20
-1.461465
  0
VERTEX
  8
PLAN_1
 62
     2
  6
CONTINUOUS
 10
-0.646839
 20
-1.470169
  0
VERTEX
  8
PLAN_1
 62
     2
  6
CONTINUOUS
 10
-0.677846
 20
-1.470169
  0
VERTEX
  8
PLAN_1
 62
     2
  6
CONTINUOUS
 10
-0.680567
 20
-1.490295
  0
SEQEND
  8
0
  0
POLYLINE
  8
PLAN_1
 62
     2
  6
CONTINUOUS
 66
     1
 40
0.004350
 41
0.004350
  0
VERTEX
  8
PLAN_1
 62
     2
  6
CONTINUOUS
 10
-2.369610
 20
2.178276
  0
VERTEX
  8
PLAN_1
 62
     2
  6
CONTINUOUS
 10
-2.369610
 20
-1.746508
  0
SEQEND
  8
0
  0
POLYLINE
  8
PLAN_1
 62
     2
  6
CONTINUOUS
 66
     1
 40
0.004350
 41
0.004350
  0
VERTEX
  8
PLAN_1
 62
     2
  6
CONTINUOUS
 10
-2.340232
 20
-1.713870
  0
VERTEX
  8
PLAN_1
 62
     2
  6
CONTINUOUS
 10
-0.099055
 20
-1.713870
  0
SEQEND
  8
0
  0
SOLID
  8
PLAN_1
 62
     2
 10
-0.069138
 20
-1.713870
 11
-0.128429
 21
-1.698094
 12
-0.069138
 22
-1.713870
 13
-0.128429
 23
-1.729646
  0
POLYLINE
  8
PLAN_1
 62
     2
  6
CONTINUOUS
 66
     1
 40
0.003000
 41
0.003000
  0
VERTEX
  8
PLAN_1
 62
     2
  6
CONTINUOUS
 10
-0.069138
 20
-1.713870
  0
VERTEX
  8
PLAN_1
 62
     2
  6
CONTINUOUS
 10
-0.128429
 20
-1.698094
  0
VERTEX
  8
PLAN_1
 62
     2
  6
CONTINUOUS
 10
-0.128429
 20
-1.729646
  0
VERTEX
  8
PLAN_1
 62
     2
  6
CONTINUOUS
 10
-0.069138
 20
-1.713870
  0
SEQEND
  8
0
  0
SOLID
  8
PLAN_1
 62
     2
 10
-2.369610
 20
-1.713870
 11
-2.310858
 21
-1.698094
 12
-2.369610
 22
-1.713870
 13
-2.310858
 23
-1.729646
  0
POLYLINE
  8
PLAN_1
 62
     2
  6
CONTINUOUS
 66
     1
 40
0.003000
 41
0.003000
  0
VERTEX
  8
PLAN_1
 62
     2
  6
CONTINUOUS
 10
-2.369610
 20
-1.713870
  0
VERTEX
  8
PLAN_1
 62
     2
  6
CONTINUOUS
 10
-2.310858
 20
-1.698094
  0
VERTEX
  8
PLAN_1
 62
     2
  6
CONTINUOUS
 10
-2.310858
 20
-1.729646
  0
VERTEX
  8
PLAN_1
 62
     2
  6
CONTINUOUS
 10
-2.369610
 20
-1.713870
  0
SEQEND
  8
0
  0
POLYLINE
  8
PLAN_1
 62
     2
  6
CONTINUOUS
 66
     1
 40
0.003000
 41
0.003000
  0
VERTEX
  8
PLAN_1
 62
     2
  6
CONTINUOUS
 10
-1.234331
 20
-1.636626
  0
VERTEX
  8
PLAN_1
 62
     2
  6
CONTINUOUS
 10
-1.234878
 20
-1.634449
  0
VERTEX
  8
PLAN_1
 62
     2
  6
CONTINUOUS
 10
-1.235421
 20
-1.632272
  0
VERTEX
  8
PLAN_1
 62
     2
  6
CONTINUOUS
 10
-1.236508
 20
-1.630642
  0
VERTEX
  8
PLAN_1
 62
     2
  6
CONTINUOUS
 10
-1.237594
 20
-1.628465
  0
VERTEX
  8
PLAN_1
 62
     2
  6
CONTINUOUS
 10
-1.239772
 20
-1.627378
  0
VERTEX
  8
PLAN_1
 62
     2
  6
CONTINUOUS
 10
-1.241406
 20
-1.626287
  0
VERTEX
  8
PLAN_1
 62
     2
  6
CONTINUOUS
 10
-1.244122
 20
-1.625744
  0
VERTEX
  8
PLAN_1
 62
     2
  6
CONTINUOUS
 10
-1.246843
 20
-1.625744
  0
VERTEX
  8
PLAN_1
 62
     2
  6
CONTINUOUS
 10
-1.249020
 20
-1.625744
  0
VERTEX
  8
PLAN_1
 62
     2
  6
CONTINUOUS
 10
-1.251740
 20
-1.626287
  0
VERTEX
  8
PLAN_1
 62
     2
  6
CONTINUOUS
 10
-1.253370
 20
-1.627378
  0
VERTEX
  8
PLAN_1
 62
     2
  6
CONTINUOUS
 10
-1.255547
 20
-1.628465
  0
VERTEX
  8
PLAN_1
 62
     2
  6
CONTINUOUS
 10
-1.258268
 20
-1.632272
  0
VERTEX
  8
PLAN_1
 62
     2
  6
CONTINUOUS
 10
-1.260988
 20
-1.636079
  0
VERTEX
  8
PLAN_1
 62
     2
  6
CONTINUOUS
 10
-1.262075
 20
-1.640433
  0
VERTEX
  8
PLAN_1
 62
     2
  6
CONTINUOUS
 10
-1.263161
 20
-1.645327
  0
VERTEX
  8
PLAN_1
 62
     2
  6
CONTINUOUS
 10
-1.263709
 20
-1.649134
  0
VERTEX
  8
PLAN_1
 62
     2
  6
CONTINUOUS
 10
-1.264252
 20
-1.652402
  0
VERTEX
  8
PLAN_1
 62
     2
  6
CONTINUOUS
 10
-1.263709
 20
-1.652945
  0
VERTEX
  8
PLAN_1
 62
     2
  6
CONTINUOUS
 10
-1.262618
 20
-1.651311
  0
VERTEX
  8
PLAN_1
 62
     2
  6
CONTINUOUS
 10
-1.261531
 20
-1.649681
  0
VERTEX
  8
PLAN_1
 62
     2
  6
CONTINUOUS
 10
-1.259898
 20
-1.648047
  0
VERTEX
  8
PLAN_1
 62
     2
  6
CONTINUOUS
 10
-1.258268
 20
-1.646961
  0
VERTEX
  8
PLAN_1
 62
     2
  6
CONTINUOUS
 10
-1.255547
 20
-1.645870
  0
VERTEX
  8
PLAN_1
 62
     2
  6
CONTINUOUS
 10
-1.252827
 20
-1.644783
  0
VERTEX
  8
PLAN_1
 62
     2
  6
CONTINUOUS
 10
-1.250106
 20
-1.644240
  0
VERTEX
  8
PLAN_1
 62
     2
  6
CONTINUOUS
 10
-1.246299
 20
-1.643697
  0
VERTEX
  8
PLAN_1
 62
     2
  6
CONTINUOUS
 10
-1.243035
 20
-1.644240
  0
VERTEX
  8
PLAN_1
 62
     2
  6
CONTINUOUS
 10
-1.239228
 20
-1.644783
  0
VERTEX
  8
PLAN_1
 62
     2
  6
CONTINUOUS
 10
-1.235421
 20
-1.646417
  0
VERTEX
  8
PLAN_1
 62
     2
  6
CONTINUOUS
 10
-1.231614
 20
-1.649134
  0
VERTEX
  8
PLAN_1
 62
     2
  6
CONTINUOUS
 10
-1.228346
 20
-1.651854
  0
VERTEX
  8
PLAN_1
 62
     2
  6
CONTINUOUS
 10
-1.225630
 20
-1.656209
  0
VERTEX
  8
PLAN_1
 62
     2
  6
CONTINUOUS
 10
-1.225083
 20
-1.658382
  0
VERTEX
  8
PLAN_1
 62
     2
  6
CONTINUOUS
 10
-1.223996
 20
-1.661102
  0
VERTEX
  8
PLAN_1
 62
     2
  6
CONTINUOUS
 10
-1.223996
 20
-1.663823
  0
VERTEX
  8
PLAN_1
 62
     2
  6
CONTINUOUS
 10
-1.223453
 20
-1.667087
  0
VERTEX
  8
PLAN_1
 62
     2
  6
CONTINUOUS
 10
-1.223453
 20
-1.669807
  0
VERTEX
  8
PLAN_1
 62
     2
  6
CONTINUOUS
 10
-1.223996
 20
-1.672528
  0
VERTEX
  8
PLAN_1
 62
     2
  6
CONTINUOUS
 10
-1.224539
 20
-1.674701
  0
VERTEX
  8
PLAN_1
 62
     2
  6
CONTINUOUS
 10
-1.225083
 20
-1.676878
  0
VERTEX
  8
PLAN_1
 62
     2
  6
CONTINUOUS
 10
-1.226173
 20
-1.679055
  0
VERTEX
  8
PLAN_1
 62
     2
  6
CONTINUOUS
 10
-1.227260
 20
-1.681232
  0
VERTEX
  8
PLAN_1
 62
     2
  6
CONTINUOUS
 10
-1.228894
 20
-1.683406
  0
VERTEX
  8
PLAN_1
 62
     2
  6
CONTINUOUS
 10
-1.230524
 20
-1.685583
  0
VERTEX
  8
PLAN_1
 62
     2
  6
CONTINUOUS
 10
-1.232157
 20
-1.686669
  0
VERTEX
  8
PLAN_1
 62
     2
  6
CONTINUOUS
 10
-1.233787
 20
-1.688303
  0
VERTEX
  8
PLAN_1
 62
     2
  6
CONTINUOUS
 10
-1.235421
 20
-1.689390
  0
VERTEX
  8
PLAN_1
 62
     2
  6
CONTINUOUS
 10
-1.237594
 20
-1.690476
  0
VERTEX
  8
PLAN_1
 62
     2
  6
CONTINUOUS
 10
-1.239772
 20
-1.691567
  0
VERTEX
  8
PLAN_1
 62
     2
  6
CONTINUOUS
 10
-1.242492
 20
-1.692110
  0
VERTEX
  8
PLAN_1
 62
     2
  6
CONTINUOUS
 10
-1.245213
 20
-1.692110
  0
VERTEX
  8
PLAN_1
 62
     2
  6
CONTINUOUS
 10
-1.249020
 20
-1.692654
  0
VERTEX
  8
PLAN_1
 62
     2
  6
CONTINUOUS
 10
-1.251197
 20
-1.692110
  0
VERTEX
  8
PLAN_1
 62
     2
  6
CONTINUOUS
 10
-1.253370
 20
-1.692110
  0
VERTEX
  8
PLAN_1
 62
     2
  6
CONTINUOUS
 10
-1.256091
 20
-1.691024
  0
VERTEX
  8
PLAN_1
 62
     2
  6
CONTINUOUS
 10
-1.258811
 20
-1.689933
  0
VERTEX
  8
PLAN_1
 62
     2
  6
CONTINUOUS
 10
-1.260988
 20
-1.688846
  0
VERTEX
  8
PLAN_1
 62
     2
  6
CONTINUOUS
 10
-1.263709
 20
-1.686669
  0
VERTEX
  8
PLAN_1
 62
     2
  6
CONTINUOUS
 10
-1.265882
 20
-1.684496
  0
VERTEX
  8
PLAN_1
 62
     2
  6
CONTINUOUS
 10
-1.268059
 20
-1.681776
  0
VERTEX
  8
PLAN_1
 62
     2
  6
CONTINUOUS
 10
-1.269146
 20
-1.679055
  0
VERTEX
  8
PLAN_1
 62
     2
  6
CONTINUOUS
 10
-1.270780
 20
-1.676335
  0
VERTEX
  8
PLAN_1
 62
     2
  6
CONTINUOUS
 10
-1.271323
 20
-1.673071
  0
VERTEX
  8
PLAN_1
 62
     2
  6
CONTINUOUS
 10
-1.272409
 20
-1.670350
  0
VERTEX
  8
PLAN_1
 62
     2
  6
CONTINUOUS
 10
-1.272953
 20
-1.667087
  0
VERTEX
  8
PLAN_1
 62
     2
  6
CONTINUOUS
 10
-1.273500
 20
-1.663280
  0
VERTEX
  8
PLAN_1
 62
     2
  6
CONTINUOUS
 10
-1.273500
 20
-1.660016
  0
VERTEX
  8
PLAN_1
 62
     2
  6
CONTINUOUS
 10
-1.273500
 20
-1.656209
  0
VERTEX
  8
PLAN_1
 62
     2
  6
CONTINUOUS
 10
-1.273500
 20
-1.650224
  0
VERTEX
  8
PLAN_1
 62
     2
  6
CONTINUOUS
 10
-1.272409
 20
-1.643697
  0
VERTEX
  8
PLAN_1
 62
     2
  6
CONTINUOUS
 10
-1.270780
 20
-1.637169
  0
VERTEX
  8
PLAN_1
 62
     2
  6
CONTINUOUS
 10
-1.268059
 20
-1.630642
  0
VERTEX
  8
PLAN_1
 62
     2
  6
CONTINUOUS
 10
-1.266425
 20
-1.627921
  0
VERTEX
  8
PLAN_1
 62
     2
  6
CONTINUOUS
 10
-1.264795
 20
-1.625201
  0
VERTEX
  8
PLAN_1
 62
     2
  6
CONTINUOUS
 10
-1.262618
 20
-1.623024
  0
VERTEX
  8
PLAN_1
 62
     2
  6
CONTINUOUS
 10
-1.259898
 20
-1.621394
  0
VERTEX
  8
PLAN_1
 62
     2
  6
CONTINUOUS
 10
-1.257177
 20
-1.619760
  0
VERTEX
  8
PLAN_1
 62
     2
  6
CONTINUOUS
 10
-1.253913
 20
-1.618130
  0
VERTEX
  8
PLAN_1
 62
     2
  6
CONTINUOUS
 10
-1.250106
 20
-1.617587
  0
VERTEX
  8
PLAN_1
 62
     2
  6
CONTINUOUS
 10
-1.246299
 20
-1.617039
  0
VERTEX
  8
PLAN_1
 62
     2
  6
CONTINUOUS
 10
-1.243035
 20
-1.617587
  0
VERTEX
  8
PLAN_1
 62
     2
  6
CONTINUOUS
 10
-1.239772
 20
-1.618130
  0
VERTEX
  8
PLAN_1
 62
     2
  6
CONTINUOUS
 10
-1.236508
 20
-1.619760
  0
VERTEX
  8
PLAN_1
 62
     2
  6
CONTINUOUS
 10
-1.233244
 20
-1.621394
  0
VERTEX
  8
PLAN_1
 62
     2
  6
CONTINUOUS
 10
-1.229980
 20
-1.624114
  0
VERTEX
  8
PLAN_1
 62
     2
  6
CONTINUOUS
 10
-1.227803
 20
-1.627378
  0
VERTEX
  8
PLAN_1
 62
     2
  6
CONTINUOUS
 10
-1.226173
 20
-1.631728
  0
VERTEX
  8
PLAN_1
 62
     2
  6
CONTINUOUS
 10
-1.225083
 20
-1.636626
  0
VERTEX
  8
PLAN_1
 62
     2
  6
CONTINUOUS
 10
-1.234331
 20
-1.636626
  0
SEQEND
  8
0
  0
POLYLINE
  8
PLAN_1
 62
     2
  6
CONTINUOUS
 66
     1
 40
0.003000
 41
0.003000
  0
VERTEX
  8
PLAN_1
 62
     2
  6
CONTINUOUS
 10
-1.247386
 20
-1.683949
  0
VERTEX
  8
PLAN_1
 62
     2
  6
CONTINUOUS
 10
-1.244122
 20
-1.683949
  0
VERTEX
  8
PLAN_1
 62
     2
  6
CONTINUOUS
 10
-1.241406
 20
-1.682862
  0
VERTEX
  8
PLAN_1
 62
     2
  6
CONTINUOUS
 10
-1.239228
 20
-1.681776
  0
VERTEX
  8
PLAN_1
 62
     2
  6
CONTINUOUS
 10
-1.237051
 20
-1.679598
  0
VERTEX
  8
PLAN_1
 62
     2
  6
CONTINUOUS
 10
-1.235421
 20
-1.676878
  0
VERTEX
  8
PLAN_1
 62
     2
  6
CONTINUOUS
 10
-1.233787
 20
-1.674157
  0
VERTEX
  8
PLAN_1
 62
     2
  6
CONTINUOUS
 10
-1.233244
 20
-1.670894
  0
VERTEX
  8
PLAN_1
 62
     2
  6
CONTINUOUS
 10
-1.233244
 20
-1.667630
  0
VERTEX
  8
PLAN_1
 62
     2
  6
CONTINUOUS
 10
-1.233244
 20
-1.664909
  0
VERTEX
  8
PLAN_1
 62
     2
  6
CONTINUOUS
 10
-1.233787
 20
-1.662193
  0
VERTEX
  8
PLAN_1
 62
     2
  6
CONTINUOUS
 10
-1.234878
 20
-1.660016
  0
VERTEX
  8
PLAN_1
 62
     2
  6
CONTINUOUS
 10
-1.235965
 20
-1.657295
  0
VERTEX
  8
PLAN_1
 62
     2
  6
CONTINUOUS
 10
-1.238142
 20
-1.655118
  0
VERTEX
  8
PLAN_1
 62
     2
  6
CONTINUOUS
 10
-1.240858
 20
-1.653488
  0
VERTEX
  8
PLAN_1
 62
     2
  6
CONTINUOUS
 10
-1.244122
 20
-1.652402
  0
VERTEX
  8
PLAN_1
 62
     2
  6
CONTINUOUS
 10
-1.247933
 20
-1.651854
  0
VERTEX
  8
PLAN_1
 62
     2
  6
CONTINUOUS
 10
-1.251197
 20
-1.652402
  0
VERTEX
  8
PLAN_1
 62
     2
  6
CONTINUOUS
 10
-1.254461
 20
-1.653488
  0
VERTEX
  8
PLAN_1
 62
     2
  6
CONTINUOUS
 10
-1.257177
 20
-1.654575
  0
VERTEX
  8
PLAN_1
 62
     2
  6
CONTINUOUS
 10
-1.259354
 20
-1.656752
  0
VERTEX
  8
PLAN_1
 62
     2
  6
CONTINUOUS
 10
-1.260988
 20
-1.658929
  0
VERTEX
  8
PLAN_1
 62
     2
  6
CONTINUOUS
 10
-1.262075
 20
-1.661646
  0
VERTEX
  8
PLAN_1
 62
     2
  6
CONTINUOUS
 10
-1.262618
 20
-1.664909
  0
VERTEX
  8
PLAN_1
 62
     2
  6
CONTINUOUS
 10
-1.262618
 20
-1.668173
  0
VERTEX
  8
PLAN_1
 62
     2
  6
CONTINUOUS
 10
-1.262618
 20
-1.670894
  0
VERTEX
  8
PLAN_1
 62
     2
  6
CONTINUOUS
 10
-1.262075
 20
-1.673614
  0
VERTEX
  8
PLAN_1
 62
     2
  6
CONTINUOUS
 10
-1.260988
 20
-1.676335
  0
VERTEX
  8
PLAN_1
 62
     2
  6
CONTINUOUS
 10
-1.259354
 20
-1.679055
  0
VERTEX
  8
PLAN_1
 62
     2
  6
CONTINUOUS
 10
-1.257177
 20
-1.681232
  0
VERTEX
  8
PLAN_1
 62
     2
  6
CONTINUOUS
 10
-1.254461
 20
-1.682862
  0
VERTEX
  8
PLAN_1
 62
     2
  6
CONTINUOUS
 10
-1.251197
 20
-1.683949
  0
VERTEX
  8
PLAN_1
 62
     2
  6
CONTINUOUS
 10
-1.247386
 20
-1.683949
  0
SEQEND
  8
0
  0
POLYLINE
  8
PLAN_1
 62
     2
  6
CONTINUOUS
 66
     1
 40
0.003000
 41
0.003000
  0
VERTEX
  8
PLAN_1
 62
     2
  6
CONTINUOUS
 10
-1.214748
 20
-1.643697
  0
VERTEX
  8
PLAN_1
 62
     2
  6
CONTINUOUS
 10
-1.214748
 20
-1.639343
  0
VERTEX
  8
PLAN_1
 62
     2
  6
CONTINUOUS
 10
-1.214205
 20
-1.635535
  0
VERTEX
  8
PLAN_1
 62
     2
  6
CONTINUOUS
 10
-1.213118
 20
-1.632272
  0
VERTEX
  8
PLAN_1
 62
     2
  6
CONTINUOUS
 10
-1.212028
 20
-1.629551
  0
VERTEX
  8
PLAN_1
 62
     2
  6
CONTINUOUS
 10
-1.210941
 20
-1.626835
  0
VERTEX
  8
PLAN_1
 62
     2
  6
CONTINUOUS
 10
-1.209311
 20
-1.624657
  0
VERTEX
  8
PLAN_1
 62
     2
  6
CONTINUOUS
 10
-1.207134
 20
-1.623024
  0
VERTEX
  8
PLAN_1
 62
     2
  6
CONTINUOUS
 10
-1.205500
 20
-1.621394
  0
VERTEX
  8
PLAN_1
 62
     2
  6
CONTINUOUS
 10
-1.201150
 20
-1.619217
  0
VERTEX
  8
PLAN_1
 62
     2
  6
CONTINUOUS
 10
-1.196799
 20
-1.618130
  0
VERTEX
  8
PLAN_1
 62
     2
  6
CONTINUOUS
 10
-1.192988
 20
-1.617587
  0
VERTEX
  8
PLAN_1
 62
     2
  6
CONTINUOUS
 10
-1.189724
 20
-1.617039
  0
VERTEX
  8
PLAN_1
 62
     2
  6
CONTINUOUS
 10
-1.184831
 20
-1.617587
  0
VERTEX
  8
PLAN_1
 62
     2
  6
CONTINUOUS
 10
-1.181024
 20
-1.618673
  0
VERTEX
  8
PLAN_1
 62
     2
  6
CONTINUOUS
 10
-1.176669
 20
-1.620850
  0
VERTEX
  8
PLAN_1
 62
     2
  6
CONTINUOUS
 10
-1.173406
 20
-1.623024
  0
VERTEX
  8
PLAN_1
 62
     2
  6
CONTINUOUS
 10
-1.170689
 20
-1.626287
  0
VERTEX
  8
PLAN_1
 62
     2
  6
CONTINUOUS
 10
-1.168512
 20
-1.630098
  0
VERTEX
  8
PLAN_1
 62
     2
  6
CONTINUOUS
 10
-1.167421
 20
-1.634449
  0
VERTEX
  8
PLAN_1
 62
     2
  6
CONTINUOUS
 10
-1.166878
 20
-1.639343
  0
VERTEX
  8
PLAN_1
 62
     2
  6
CONTINUOUS
 10
-1.167421
 20
-1.643697
  0
VERTEX
  8
PLAN_1
 62
     2
  6
CONTINUOUS
 10
-1.168512
 20
-1.647504
  0
VERTEX
  8
PLAN_1
 62
     2
  6
CONTINUOUS
 10
-1.170142
 20
-1.651311
  0
VERTEX
  8
PLAN_1
 62
     2
  6
CONTINUOUS
 10
-1.172319
 20
-1.654031
  0
VERTEX
  8
PLAN_1
 62
     2
  6
CONTINUOUS
 10
-1.175583
 20
-1.656752
  0
VERTEX
  8
PLAN_1
 62
     2
  6
CONTINUOUS
 10
-1.178846
 20
-1.658929
  0
VERTEX
  8
PLAN_1
 62
     2
  6
CONTINUOUS
 10
-1.182654
 20
-1.661646
  0
VERTEX
  8
PLAN_1
 62
     2
  6
CONTINUOUS
 10
-1.186461
 20
-1.663823
  0
VERTEX
  8
PLAN_1
 62
     2
  6
CONTINUOUS
 10
-1.194079
 20
-1.667630
  0
VERTEX
  8
PLAN_1
 62
     2
  6
CONTINUOUS
 10
-1.197343
 20
-1.669807
  0
VERTEX
  8
PLAN_1
 62
     2
  6
CONTINUOUS
 10
-1.200063
 20
-1.671984
  0
VERTEX
  8
PLAN_1
 62
     2
  6
CONTINUOUS
 10
-1.202236
 20
-1.674157
  0
VERTEX
  8
PLAN_1
 62
     2
  6
CONTINUOUS
 10
-1.203870
 20
-1.675791
  0
VERTEX
  8
PLAN_1
 62
     2
  6
CONTINUOUS
 10
-1.204957
 20
-1.677421
  0
VERTEX
  8
PLAN_1
 62
     2
  6
CONTINUOUS
 10
-1.206047
 20
-1.679055
  0
VERTEX
  8
PLAN_1
 62
     2
  6
CONTINUOUS
 10
-1.206047
 20
-1.680685
  0
VERTEX
  8
PLAN_1
 62
     2
  6
CONTINUOUS
 10
-1.206591
 20
-1.681776
  0
VERTEX
  8
PLAN_1
 62
     2
  6
CONTINUOUS
 10
-1.166878
 20
-1.681776
  0
VERTEX
  8
PLAN_1
 62
     2
  6
CONTINUOUS
 10
-1.166878
 20
-1.690476
  0
VERTEX
  8
PLAN_1
 62
     2
  6
CONTINUOUS
 10
-1.216925
 20
-1.690476
  0
VERTEX
  8
PLAN_1
 62
     2
  6
CONTINUOUS
 10
-1.216382
 20
-1.685039
  0
VERTEX
  8
PLAN_1
 62
     2
  6
CONTINUOUS
 10
-1.215291
 20
-1.680142
  0
VERTEX
  8
PLAN_1
 62
     2
  6
CONTINUOUS
 10
-1.213661
 20
-1.676335
  0
VERTEX
  8
PLAN_1
 62
     2
  6
CONTINUOUS
 10
-1.211484
 20
-1.672528
  0
VERTEX
  8
PLAN_1
 62
     2
  6
CONTINUOUS
 10
-1.209311
 20
-1.669264
  0
VERTEX
  8
PLAN_1
 62
     2
  6
CONTINUOUS
 10
-1.206591
 20
-1.666000
  0
VERTEX
  8
PLAN_1
 62
     2
  6
CONTINUOUS
 10
-1.203327
 20
-1.663823
  0
VERTEX
  8
PLAN_1
 62
     2
  6
CONTINUOUS
 10
-1.199516
 20
-1.661646
  0
VERTEX
  8
PLAN_1
 62
     2
  6
CONTINUOUS
 10
-1.190272
 20
-1.655665
  0
VERTEX
  8
PLAN_1
 62
     2
  6
CONTINUOUS
 10
-1.187008
 20
-1.654031
  0
VERTEX
  8
PLAN_1
 62
     2
  6
CONTINUOUS
 10
-1.184831
 20
-1.652402
  0
VERTEX
  8
PLAN_1
 62
     2
  6
CONTINUOUS
 10
-1.182110
 20
-1.650768
  0
VERTEX
  8
PLAN_1
 62
     2
  6
CONTINUOUS
 10
-1.180480
 20
-1.649134
  0
VERTEX
  8
PLAN_1
 62
     2
  6
CONTINUOUS
 10
-1.178846
 20
-1.646961
  0
VERTEX
  8
PLAN_1
 62
     2
  6
CONTINUOUS
 10
-1.177760
 20
-1.644783
  0
VERTEX
  8
PLAN_1
 62
     2
  6
CONTINUOUS
 10
-1.176669
 20
-1.642063
  0
VERTEX
  8
PLAN_1
 62
     2
  6
CONTINUOUS
 10
-1.176669
 20
-1.638799
  0
VERTEX
  8
PLAN_1
 62
     2
  6
CONTINUOUS
 10
-1.176669
 20
-1.636626
  0
VERTEX
  8
PLAN_1
 62
     2
  6
CONTINUOUS
 10
-1.177217
 20
-1.634449
  0
VERTEX
  8
PLAN_1
 62
     2
  6
CONTINUOUS
 10
-1.178303
 20
-1.631728
  0
VERTEX
  8
PLAN_1
 62
     2
  6
CONTINUOUS
 10
-1.179933
 20
-1.630098
  0
VERTEX
  8
PLAN_1
 62
     2
  6
CONTINUOUS
 10
-1.181567
 20
-1.627921
  0
VERTEX
  8
PLAN_1
 62
     2
  6
CONTINUOUS
 10
-1.184287
 20
-1.626835
  0
VERTEX
  8
PLAN_1
 62
     2
  6
CONTINUOUS
 10
-1.187551
 20
-1.625744
  0
VERTEX
  8
PLAN_1
 62
     2
  6
CONTINUOUS
 10
-1.190815
 20
-1.625744
  0
VERTEX
  8
PLAN_1
 62
     2
  6
CONTINUOUS
 10
-1.193535
 20
-1.625744
  0
VERTEX
  8
PLAN_1
 62
     2
  6
CONTINUOUS
 10
-1.195709
 20
-1.626287
  0
VERTEX
  8
PLAN_1
 62
     2
  6
CONTINUOUS
 10
-1.197343
 20
-1.626835
  0
VERTEX
  8
PLAN_1
 62
     2
  6
CONTINUOUS
 10
-1.198972
 20
-1.627378
  0
VERTEX
  8
PLAN_1
 62
     2
  6
CONTINUOUS
 10
-1.201693
 20
-1.630098
  0
VERTEX
  8
PLAN_1
 62
     2
  6
CONTINUOUS
 10
-1.203327
 20
-1.632815
  0
VERTEX
  8
PLAN_1
 62
     2
  6
CONTINUOUS
 10
-1.204413
 20
-1.635535
  0
VERTEX
  8
PLAN_1
 62
     2
  6
CONTINUOUS
 10
-1.205500
 20
-1.638799
  0
VERTEX
  8
PLAN_1
 62
     2
  6
CONTINUOUS
 10
-1.205500
 20
-1.641520
  0
VERTEX
  8
PLAN_1
 62
     2
  6
CONTINUOUS
 10
-1.206047
 20
-1.643697
  0
VERTEX
  8
PLAN_1
 62
     2
  6
CONTINUOUS
 10
-1.214748
 20
-1.643697
  0
SEQEND
  8
0
  0
POLYLINE
  8
PLAN_1
 62
     2
  6
CONTINUOUS
 66
     1
 40
0.004350
 41
0.004350
  0
VERTEX
  8
PLAN_1
 62
     2
  6
CONTINUOUS
 10
0.082087
 20
-1.256929
  0
VERTEX
  8
PLAN_1
 62
     2
  6
CONTINUOUS
 10
0.082087
 20
3.914646
  0
SEQEND
  8
0
  0
SOLID
  8
PLAN_1
 62
     2
 10
0.082087
 20
3.944563
 11
0.066311
 21
3.885268
 12
0.082087
 22
3.944563
 13
0.097862
 23
3.885268
  0
POLYLINE
  8
PLAN_1
 62
     2
  6
CONTINUOUS
 66
     1
 40
0.003000
 41
0.003000
  0
VERTEX
  8
PLAN_1
 62
     2
  6
CONTINUOUS
 10
0.082087
 20
3.944563
  0
VERTEX
  8
PLAN_1
 62
     2
  6
CONTINUOUS
 10
0.066311
 20
3.885268
  0
VERTEX
  8
PLAN_1
 62
     2
  6
CONTINUOUS
 10
0.097862
 20
3.885268
  0
VERTEX
  8
PLAN_1
 62
     2
  6
CONTINUOUS
 10
0.082087
 20
3.944563
  0
SEQEND
  8
0
  0
SOLID
  8
PLAN_1
 62
     2
 10
0.082087
 20
-1.286303
 11
0.066311
 21
-1.227555
 12
0.082087
 22
-1.286303
 13
0.097862
 23
-1.227555
  0
POLYLINE
  8
PLAN_1
 62
     2
  6
CONTINUOUS
 66
     1
 40
0.003000
 41
0.003000
  0
VERTEX
  8
PLAN_1
 62
     2
  6
CONTINUOUS
 10
0.082087
 20
-1.286303
  0
VERTEX
  8
PLAN_1
 62
     2
  6
CONTINUOUS
 10
0.066311
 20
-1.227555
  0
VERTEX
  8
PLAN_1
 62
     2
  6
CONTINUOUS
 10
0.097862
 20
-1.227555
  0
VERTEX
  8
PLAN_1
 62
     2
  6
CONTINUOUS
 10
0.082087
 20
-1.286303
  0
SEQEND
  8
0
  0
POLYLINE
  8
PLAN_1
 62
     2
  6
CONTINUOUS
 66
     1
 40
0.003000
 41
0.003000
  0
VERTEX
  8
PLAN_1
 62
     2
  6
CONTINUOUS
 10
0.058697
 20
1.279626
  0
VERTEX
  8
PLAN_1
 62
     2
  6
CONTINUOUS
 10
0.058697
 20
1.269835
  0
VERTEX
  8
PLAN_1
 62
     2
  6
CONTINUOUS
 10
0.006476
 20
1.269835
  0
VERTEX
  8
PLAN_1
 62
     2
  6
CONTINUOUS
 10
0.006476
 20
1.252429
  0
VERTEX
  8
PLAN_1
 62
     2
  6
CONTINUOUS
 10
-0.000594
 20
1.252429
  0
VERTEX
  8
PLAN_1
 62
     2
  6
CONTINUOUS
 10
-0.001142
 20
1.256780
  0
VERTEX
  8
PLAN_1
 62
     2
  6
CONTINUOUS
 10
-0.001685
 20
1.260043
  0
VERTEX
  8
PLAN_1
 62
     2
  6
CONTINUOUS
 10
-0.002228
 20
1.263307
  0
VERTEX
  8
PLAN_1
 62
     2
  6
CONTINUOUS
 10
-0.003315
 20
1.266028
  0
VERTEX
  8
PLAN_1
 62
     2
  6
CONTINUOUS
 10
-0.004949
 20
1.267661
  0
VERTEX
  8
PLAN_1
 62
     2
  6
CONTINUOUS
 10
-0.007669
 20
1.269835
  0
VERTEX
  8
PLAN_1
 62
     2
  6
CONTINUOUS
 10
-0.010386
 20
1.270925
  0
VERTEX
  8
PLAN_1
 62
     2
  6
CONTINUOUS
 10
-0.014740
 20
1.272012
  0
VERTEX
  8
PLAN_1
 62
     2
  6
CONTINUOUS
 10
-0.014740
 20
1.279626
  0
VERTEX
  8
PLAN_1
 62
     2
  6
CONTINUOUS
 10
0.058697
 20
1.279626
  0
SEQEND
  8
0
  0
POLYLINE
  8
PLAN_1
 62
     2
  6
CONTINUOUS
 66
     1
 40
0.003000
 41
0.003000
  0
VERTEX
  8
PLAN_1
 62
     2
  6
CONTINUOUS
 10
0.016811
 20
1.323146
  0
VERTEX
  8
PLAN_1
 62
     2
  6
CONTINUOUS
 10
0.016811
 20
1.323689
  0
VERTEX
  8
PLAN_1
 62
     2
  6
CONTINUOUS
 10
0.016811
 20
1.324232
  0
VERTEX
  8
PLAN_1
 62
     2
  6
CONTINUOUS
 10
0.016811
 20
1.325323
  0
VERTEX
  8
PLAN_1
 62
     2
  6
CONTINUOUS
 10
0.016811
 20
1.325866
  0
VERTEX
  8
PLAN_1
 62
     2
  6
CONTINUOUS
 10
0.016811
 20
1.326409
  0
VERTEX
  8
PLAN_1
 62
     2
  6
CONTINUOUS
 10
0.016811
 20
1.326953
  0
VERTEX
  8
PLAN_1
 62
     2
  6
CONTINUOUS
 10
0.016811
 20
1.327496
  0
VERTEX
  8
PLAN_1
 62
     2
  6
CONTINUOUS
 10
0.016811
 20
1.328039
  0
VERTEX
  8
PLAN_1
 62
     2
  6
CONTINUOUS
 10
0.016811
 20
1.330760
  0
VERTEX
  8
PLAN_1
 62
     2
  6
CONTINUOUS
 10
0.016268
 20
1.333480
  0
VERTEX
  8
PLAN_1
 62
     2
  6
CONTINUOUS
 10
0.015724
 20
1.335657
  0
VERTEX
  8
PLAN_1
 62
     2
  6
CONTINUOUS
 10
0.014634
 20
1.337835
  0
VERTEX
  8
PLAN_1
 62
     2
  6
CONTINUOUS
 10
0.013004
 20
1.339465
  0
VERTEX
  8
PLAN_1
 62
     2
  6
CONTINUOUS
 10
0.010827
 20
1.341098
  0
VERTEX
  8
PLAN_1
 62
     2
  6
CONTINUOUS
 10
0.008106
 20
1.341642
  0
VERTEX
  8
PLAN_1
 62
     2
  6
CONTINUOUS
 10
0.004843
 20
1.342185
  0
VERTEX
  8
PLAN_1
 62
     2
  6
CONTINUOUS
 10
0.003213
 20
1.341642
  0
VERTEX
  8
PLAN_1
 62
     2
  6
CONTINUOUS
 10
0.001579
 20
1.341642
  0
VERTEX
  8
PLAN_1
 62
     2
  6
CONTINUOUS
 10
-0.000594
 20
1.340551
  0
VERTEX
  8
PLAN_1
 62
     2
  6
CONTINUOUS
 10
-0.002228
 20
1.339465
  0
VERTEX
  8
PLAN_1
 62
     2
  6
CONTINUOUS
 10
-0.003858
 20
1.337835
  0
VERTEX
  8
PLAN_1
 62
     2
  6
CONTINUOUS
 10
-0.005492
 20
1.335114
  0
VERTEX
  8
PLAN_1
 62
     2
  6
CONTINUOUS
 10
-0.006035
 20
1.332394
  0
VERTEX
  8
PLAN_1
 62
     2
  6
CONTINUOUS
 10
-0.006579
 20
1.328587
  0
VERTEX
  8
PLAN_1
 62
     2
  6
CONTINUOUS
 10
-0.006035
 20
1.324232
  0
VERTEX
  8
PLAN_1
 62
     2
  6
CONTINUOUS
 10
-0.004949
 20
1.320969
  0
VERTEX
  8
PLAN_1
 62
     2
  6
CONTINUOUS
 10
-0.002772
 20
1.318248
  0
VERTEX
  8
PLAN_1
 62
     2
  6
CONTINUOUS
 10
-0.000594
 20
1.316618
  0
VERTEX
  8
PLAN_1
 62
     2
  6
CONTINUOUS
 10
0.002122
 20
1.315531
  0
VERTEX
  8
PLAN_1
 62
     2
  6
CONTINUOUS
 10
0.004843
 20
1.314984
  0
VERTEX
  8
PLAN_1
 62
     2
  6
CONTINUOUS
 10
0.007020
 20
1.314441
  0
VERTEX
  8
PLAN_1
 62
     2
  6
CONTINUOUS
 10
0.009197
 20
1.314441
  0
VERTEX
  8
PLAN_1
 62
     2
  6
CONTINUOUS
 10
0.009197
 20
1.305193
  0
VERTEX
  8
PLAN_1
 62
     2
  6
CONTINUOUS
 10
0.005386
 20
1.305736
  0
VERTEX
  8
PLAN_1
 62
     2
  6
CONTINUOUS
 10
0.001035
 20
1.306283
  0
VERTEX
  8
PLAN_1
 62
     2
  6
CONTINUOUS
 10
-0.002772
 20
1.307913
  0
VERTEX
  8
PLAN_1
 62
     2
  6
CONTINUOUS
 10
-0.006579
 20
1.310091
  0
VERTEX
  8
PLAN_1
 62
     2
  6
CONTINUOUS
 10
-0.008213
 20
1.311177
  0
VERTEX
  8
PLAN_1
 62
     2
  6
CONTINUOUS
 10
-0.009843
 20
1.312811
  0
VERTEX
  8
PLAN_1
 62
     2
  6
CONTINUOUS
 10
-0.011476
 20
1.314984
  0
VERTEX
  8
PLAN_1
 62
     2
  6
CONTINUOUS
 10
-0.012563
 20
1.317161
  0
VERTEX
  8
PLAN_1
 62
     2
  6
CONTINUOUS
 10
-0.013106
 20
1.319339
  0
VERTEX
  8
PLAN_1
 62
     2
  6
CONTINUOUS
 10
-0.014197
 20
1.322602
  0
VERTEX
  8
PLAN_1
 62
     2
  6
CONTINUOUS
 10
-0.014740
 20
1.325323
  0
VERTEX
  8
PLAN_1
 62
     2
  6
CONTINUOUS
 10
-0.014740
 20
1.329130
  0
VERTEX
  8
PLAN_1
 62
     2
  6
CONTINUOUS
 10
-0.014197
 20
1.334024
  0
VERTEX
  8
PLAN_1
 62
     2
  6
CONTINUOUS
 10
-0.013106
 20
1.338378
  0
VERTEX
  8
PLAN_1
 62
     2
  6
CONTINUOUS
 10
-0.011476
 20
1.342185
  0
VERTEX
  8
PLAN_1
 62
     2
  6
CONTINUOUS
 10
-0.009299
 20
1.345449
  0
VERTEX
  8
PLAN_1
 62
     2
  6
CONTINUOUS
 10
-0.006579
 20
1.348169
  0
VERTEX
  8
PLAN_1
 62
     2
  6
CONTINUOUS
 10
-0.003315
 20
1.349799
  0
VERTEX
  8
PLAN_1
 62
     2
  6
CONTINUOUS
 10
0.000492
 20
1.350890
  0
VERTEX
  8
PLAN_1
 62
     2
  6
CONTINUOUS
 10
0.004843
 20
1.351433
  0
VERTEX
  8
PLAN_1
 62
     2
  6
CONTINUOUS
 10
0.008106
 20
1.351433
  0
VERTEX
  8
PLAN_1
 62
     2
  6
CONTINUOUS
 10
0.010827
 20
1.350343
  0
VERTEX
  8
PLAN_1
 62
     2
  6
CONTINUOUS
 10
0.013004
 20
1.349799
  0
VERTEX
  8
PLAN_1
 62
     2
  6
CONTINUOUS
 10
0.015181
 20
1.348169
  0
VERTEX
  8
PLAN_1
 62
     2
  6
CONTINUOUS
 10
0.016811
 20
1.347079
  0
VERTEX
  8
PLAN_1
 62
     2
  6
CONTINUOUS
 10
0.017898
 20
1.345449
  0
VERTEX
  8
PLAN_1
 62
     2
  6
CONTINUOUS
 10
0.018988
 20
1.343815
  0
VERTEX
  8
PLAN_1
 62
     2
  6
CONTINUOUS
 10
0.019531
 20
1.342185
  0
VERTEX
  8
PLAN_1
 62
     2
  6
CONTINUOUS
 10
0.020075
 20
1.342185
  0
VERTEX
  8
PLAN_1
 62
     2
  6
CONTINUOUS
 10
0.020618
 20
1.344906
  0
VERTEX
  8
PLAN_1
 62
     2
  6
CONTINUOUS
 10
0.022252
 20
1.347079
  0
VERTEX
  8
PLAN_1
 62
     2
  6
CONTINUOUS
 10
0.023882
 20
1.349256
  0
VERTEX
  8
PLAN_1
 62
     2
  6
CONTINUOUS
 10
0.025516
 20
1.350890
  0
VERTEX
  8
PLAN_1
 62
     2
  6
CONTINUOUS
 10
0.027689
 20
1.352520
  0
VERTEX
  8
PLAN_1
 62
     2
  6
CONTINUOUS
 10
0.030409
 20
1.353606
  0
VERTEX
  8
PLAN_1
 62
     2
  6
CONTINUOUS
 10
0.033673
 20
1.354154
  0
VERTEX
  8
PLAN_1
 62
     2
  6
CONTINUOUS
 10
0.036937
 20
1.354154
  0
VERTEX
  8
PLAN_1
 62
     2
  6
CONTINUOUS
 10
0.041291
 20
1.354154
  0
VERTEX
  8
PLAN_1
 62
     2
  6
CONTINUOUS
 10
0.045642
 20
1.353063
  0
VERTEX
  8
PLAN_1
 62
     2
  6
CONTINUOUS
 10
0.049449
 20
1.350890
  0
VERTEX
  8
PLAN_1
 62
     2
  6
CONTINUOUS
 10
0.053256
 20
1.348169
  0
VERTEX
  8
PLAN_1
 62
     2
  6
CONTINUOUS
 10
0.055976
 20
1.344362
  0
VERTEX
  8
PLAN_1
 62
     2
  6
CONTINUOUS
 10
0.058697
 20
1.340008
  0
VERTEX
  8
PLAN_1
 62
     2
  6
CONTINUOUS
 10
0.059240
 20
1.337287
  0
VERTEX
  8
PLAN_1
 62
     2
  6
CONTINUOUS
 10
0.059783
 20
1.334567
  0
VERTEX
  8
PLAN_1
 62
     2
  6
CONTINUOUS
 10
0.060331
 20
1.331303
  0
VERTEX
  8
PLAN_1
 62
     2
  6
CONTINUOUS
 10
0.060331
 20
1.328039
  0
VERTEX
  8
PLAN_1
 62
     2
  6
CONTINUOUS
 10
0.060331
 20
1.325866
  0
VERTEX
  8
PLAN_1
 62
     2
  6
CONTINUOUS
 10
0.060331
 20
1.324232
  0
VERTEX
  8
PLAN_1
 62
     2
  6
CONTINUOUS
 10
0.059783
 20
1.322059
  0
VERTEX
  8
PLAN_1
 62
     2
  6
CONTINUOUS
 10
0.059783
 20
1.320425
  0
VERTEX
  8
PLAN_1
 62
     2
  6
CONTINUOUS
 10
0.059240
 20
1.318795
  0
VERTEX
  8
PLAN_1
 62
     2
  6
CONTINUOUS
 10
0.058697
 20
1.317161
  0
VERTEX
  8
PLAN_1
 62
     2
  6
CONTINUOUS
 10
0.058154
 20
1.316075
  0
VERTEX
  8
PLAN_1
 62
     2
  6
CONTINUOUS
 10
0.057067
 20
1.314441
  0
VERTEX
  8
PLAN_1
 62
     2
  6
CONTINUOUS
 10
0.055433
 20
1.311720
  0
VERTEX
  8
PLAN_1
 62
     2
  6
CONTINUOUS
 10
0.053256
 20
1.309547
  0
VERTEX
  8
PLAN_1
 62
     2
  6
CONTINUOUS
 10
0.051083
 20
1.307370
  0
VERTEX
  8
PLAN_1
 62
     2
  6
CONTINUOUS
 10
0.048362
 20
1.306283
  0
VERTEX
  8
PLAN_1
 62
     2
  6
CONTINUOUS
 10
0.045642
 20
1.305193
  0
VERTEX
  8
PLAN_1
 62
     2
  6
CONTINUOUS
 10
0.042378
 20
1.304106
  0
VERTEX
  8
PLAN_1
 62
     2
  6
CONTINUOUS
 10
0.039114
 20
1.304106
  0
VERTEX
  8
PLAN_1
 62
     2
  6
CONTINUOUS
 10
0.035850
 20
1.303563
  0
VERTEX
  8
PLAN_1
 62
     2
  6
CONTINUOUS
 10
0.035850
 20
1.312811
  0
VERTEX
  8
PLAN_1
 62
     2
  6
CONTINUOUS
 10
0.038571
 20
1.313354
  0
VERTEX
  8
PLAN_1
 62
     2
  6
CONTINUOUS
 10
0.041291
 20
1.313898
  0
VERTEX
  8
PLAN_1
 62
     2
  6
CONTINUOUS
 10
0.044012
 20
1.314441
  0
VERTEX
  8
PLAN_1
 62
     2
  6
CONTINUOUS
 10
0.046728
 20
1.316075
  0
VERTEX
  8
PLAN_1
 62
     2
  6
CONTINUOUS
 10
0.048906
 20
1.317705
  0
VERTEX
  8
PLAN_1
 62
     2
  6
CONTINUOUS
 10
0.050539
 20
1.320425
  0
VERTEX
  8
PLAN_1
 62
     2
  6
CONTINUOUS
 10
0.051626
 20
1.324232
  0
VERTEX
  8
PLAN_1
 62
     2
  6
CONTINUOUS
 10
0.052169
 20
1.328587
  0
VERTEX
  8
PLAN_1
 62
     2
  6
CONTINUOUS
 10
0.052169
 20
1.331850
  0
VERTEX
  8
PLAN_1
 62
     2
  6
CONTINUOUS
 10
0.051083
 20
1.335114
  0
VERTEX
  8
PLAN_1
 62
     2
  6
CONTINUOUS
 10
0.049992
 20
1.337835
  0
VERTEX
  8
PLAN_1
 62
     2
  6
CONTINUOUS
 10
0.048362
 20
1.340008
  0
VERTEX
  8
PLAN_1
 62
     2
  6
CONTINUOUS
 10
0.046185
 20
1.342185
  0
VERTEX
  8
PLAN_1
 62
     2
  6
CONTINUOUS
 10
0.044012
 20
1.343272
  0
VERTEX
  8
PLAN_1
 62
     2
  6
CONTINUOUS
 10
0.041291
 20
1.344362
  0
VERTEX
  8
PLAN_1
 62
     2
  6
CONTINUOUS
 10
0.038028
 20
1.344362
  0
VERTEX
  8
PLAN_1
 62
     2
  6
CONTINUOUS
 10
0.034217
 20
1.343815
  0
VERTEX
  8
PLAN_1
 62
     2
  6
CONTINUOUS
 10
0.030953
 20
1.342728
  0
VERTEX
  8
PLAN_1
 62
     2
  6
CONTINUOUS
 10
0.028236
 20
1.340551
  0
VERTEX
  8
PLAN_1
 62
     2
  6
CONTINUOUS
 10
0.026602
 20
1.338378
  0
VERTEX
  8
PLAN_1
 62
     2
  6
CONTINUOUS
 10
0.025516
 20
1.335657
  0
VERTEX
  8
PLAN_1
 62
     2
  6
CONTINUOUS
 10
0.024972
 20
1.332937
  0
VERTEX
  8
PLAN_1
 62
     2
  6
CONTINUOUS
 10
0.024972
 20
1.330217
  0
VERTEX
  8
PLAN_1
 62
     2
  6
CONTINUOUS
 10
0.024425
 20
1.327496
  0
VERTEX
  8
PLAN_1
 62
     2
  6
CONTINUOUS
 10
0.024425
 20
1.326953
  0
VERTEX
  8
PLAN_1
 62
     2
  6
CONTINUOUS
 10
0.024425
 20
1.326409
  0
VERTEX
  8
PLAN_1
 62
     2
  6
CONTINUOUS
 10
0.024425
 20
1.325866
  0
VERTEX
  8
PLAN_1
 62
     2
  6
CONTINUOUS
 10
0.024972
 20
1.325323
  0
VERTEX
  8
PLAN_1
 62
     2
  6
CONTINUOUS
 10
0.024972
 20
1.324776
  0
VERTEX
  8
PLAN_1
 62
     2
  6
CONTINUOUS
 10
0.024972
 20
1.324232
  0
VERTEX
  8
PLAN_1
 62
     2
  6
CONTINUOUS
 10
0.024972
 20
1.323689
  0
VERTEX
  8
PLAN_1
 62
     2
  6
CONTINUOUS
 10
0.024972
 20
1.323146
  0
VERTEX
  8
PLAN_1
 62
     2
  6
CONTINUOUS
 10
0.016811
 20
1.323146
  0
SEQEND
  8
0
  0
POLYLINE
  8
PLAN_1
 62
     2
  6
CONTINUOUS
 66
     1
 40
0.003000
 41
0.003000
  0
VERTEX
  8
PLAN_1
 62
     2
  6
CONTINUOUS
 10
0.016811
 20
1.381350
  0
VERTEX
  8
PLAN_1
 62
     2
  6
CONTINUOUS
 10
0.016811
 20
1.381894
  0
VERTEX
  8
PLAN_1
 62
     2
  6
CONTINUOUS
 10
0.016811
 20
1.382437
  0
VERTEX
  8
PLAN_1
 62
     2
  6
CONTINUOUS
 10
0.016811
 20
1.382984
  0
VERTEX
  8
PLAN_1
 62
     2
  6
CONTINUOUS
 10
0.016811
 20
1.383528
  0
VERTEX
  8
PLAN_1
 62
     2
  6
CONTINUOUS
 10
0.016811
 20
1.384071
  0
VERTEX
  8
PLAN_1
 62
     2
  6
CONTINUOUS
 10
0.016811
 20
1.384614
  0
VERTEX
  8
PLAN_1
 62
     2
  6
CONTINUOUS
 10
0.016811
 20
1.385157
  0
VERTEX
  8
PLAN_1
 62
     2
  6
CONTINUOUS
 10
0.016811
 20
1.386248
  0
VERTEX
  8
PLAN_1
 62
     2
  6
CONTINUOUS
 10
0.016811
 20
1.388421
  0
VERTEX
  8
PLAN_1
 62
     2
  6
CONTINUOUS
 10
0.016268
 20
1.391142
  0
VERTEX
  8
PLAN_1
 62
     2
  6
CONTINUOUS
 10
0.015724
 20
1.393319
  0
VERTEX
  8
PLAN_1
 62
     2
  6
CONTINUOUS
 10
0.014634
 20
1.395496
  0
VERTEX
  8
PLAN_1
 62
     2
  6
CONTINUOUS
 10
0.013004
 20
1.397126
  0
VERTEX
  8
PLAN_1
 62
     2
  6
CONTINUOUS
 10
0.010827
 20
1.398760
  0
VERTEX
  8
PLAN_1
 62
     2
  6
CONTINUOUS
 10
0.008106
 20
1.399846
  0
VERTEX
  8
PLAN_1
 62
     2
  6
CONTINUOUS
 10
0.004843
 20
1.399846
  0
VERTEX
  8
PLAN_1
 62
     2
  6
CONTINUOUS
 10
0.003213
 20
1.399846
  0
VERTEX
  8
PLAN_1
 62
     2
  6
CONTINUOUS
 10
0.001579
 20
1.399303
  0
VERTEX
  8
PLAN_1
 62
     2
  6
CONTINUOUS
 10
-0.000594
 20
1.398760
  0
VERTEX
  8
PLAN_1
 62
     2
  6
CONTINUOUS
 10
-0.002228
 20
1.397126
  0
VERTEX
  8
PLAN_1
 62
     2
  6
CONTINUOUS
 10
-0.003858
 20
1.395496
  0
VERTEX
  8
PLAN_1
 62
     2
  6
CONTINUOUS
 10
-0.005492
 20
1.393319
  0
VERTEX
  8
PLAN_1
 62
     2
  6
CONTINUOUS
 10
-0.006035
 20
1.390055
  0
VERTEX
  8
PLAN_1
 62
     2
  6
CONTINUOUS
 10
-0.006579
 20
1.386248
  0
VERTEX
  8
PLAN_1
 62
     2
  6
CONTINUOUS
 10
-0.006035
 20
1.381894
  0
VERTEX
  8
PLAN_1
 62
     2
  6
CONTINUOUS
 10
-0.004949
 20
1.378630
  0
VERTEX
  8
PLAN_1
 62
     2
  6
CONTINUOUS
 10
-0.002772
 20
1.376457
  0
VERTEX
  8
PLAN_1
 62
     2
  6
CONTINUOUS
 10
-0.000594
 20
1.374823
  0
VERTEX
  8
PLAN_1
 62
     2
  6
CONTINUOUS
 10
0.002122
 20
1.373193
  0
VERTEX
  8
PLAN_1
 62
     2
  6
CONTINUOUS
 10
0.004843
 20
1.372646
  0
VERTEX
  8
PLAN_1
 62
     2
  6
CONTINUOUS
 10
0.007020
 20
1.372102
  0
VERTEX
  8
PLAN_1
 62
     2
  6
CONTINUOUS
 10
0.009197
 20
1.372102
  0
VERTEX
  8
PLAN_1
 62
     2
  6
CONTINUOUS
 10
0.009197
 20
1.363398
  0
VERTEX
  8
PLAN_1
 62
     2
  6
CONTINUOUS
 10
0.005386
 20
1.363398
  0
VERTEX
  8
PLAN_1
 62
     2
  6
CONTINUOUS
 10
0.001035
 20
1.363945
  0
VERTEX
  8
PLAN_1
 62
     2
  6
CONTINUOUS
 10
-0.002772
 20
1.365575
  0
VERTEX
  8
PLAN_1
 62
     2
  6
CONTINUOUS
 10
-0.006579
 20
1.367752
  0
VERTEX
  8
PLAN_1
 62
     2
  6
CONTINUOUS
 10
-0.008213
 20
1.369382
  0
VERTEX
  8
PLAN_1
 62
     2
  6
CONTINUOUS
 10
-0.009843
 20
1.371016
  0
VERTEX
  8
PLAN_1
 62
     2
  6
CONTINUOUS
 10
-0.011476
 20
1.372646
  0
VERTEX
  8
PLAN_1
 62
     2
  6
CONTINUOUS
 10
-0.012563
 20
1.374823
  0
VERTEX
  8
PLAN_1
 62
     2
  6
CONTINUOUS
 10
-0.013106
 20
1.377543
  0
VERTEX
  8
PLAN_1
 62
     2
  6
CONTINUOUS
 10
-0.014197
 20
1.380264
  0
VERTEX
  8
PLAN_1
 62
     2
  6
CONTINUOUS
 10
-0.014740
 20
1.383528
  0
VERTEX
  8
PLAN_1
 62
     2
  6
CONTINUOUS
 10
-0.014740
 20
1.386791
  0
VERTEX
  8
PLAN_1
 62
     2
  6
CONTINUOUS
 10
-0.014197
 20
1.391685
  0
VERTEX
  8
PLAN_1
 62
     2
  6
CONTINUOUS
 10
-0.013106
 20
1.396583
  0
VERTEX
  8
PLAN_1
 62
     2
  6
CONTINUOUS
 10
-0.011476
 20
1.400390
  0
VERTEX
  8
PLAN_1
 62
     2
  6
CONTINUOUS
 10
-0.009299
 20
1.403654
  0
VERTEX
  8
PLAN_1
 62
     2
  6
CONTINUOUS
 10
-0.006579
 20
1.405831
  0
VERTEX
  8
PLAN_1
 62
     2
  6
CONTINUOUS
 10
-0.003315
 20
1.408004
  0
VERTEX
  8
PLAN_1
 62
     2
  6
CONTINUOUS
 10
0.000492
 20
1.409094
  0
VERTEX
  8
PLAN_1
 62
     2
  6
CONTINUOUS
 10
0.004843
 20
1.409638
  0
VERTEX
  8
PLAN_1
 62
     2
  6
CONTINUOUS
 10
0.008106
 20
1.409094
  0
VERTEX
  8
PLAN_1
 62
     2
  6
CONTINUOUS
 10
0.010827
 20
1.408551
  0
VERTEX
  8
PLAN_1
 62
     2
  6
CONTINUOUS
 10
0.013004
 20
1.407461
  0
VERTEX
  8
PLAN_1
 62
     2
  6
CONTINUOUS
 10
0.015181
 20
1.406374
  0
VERTEX
  8
PLAN_1
 62
     2
  6
CONTINUOUS
 10
0.016811
 20
1.404740
  0
VERTEX
  8
PLAN_1
 62
     2
  6
CONTINUOUS
 10
0.017898
 20
1.403110
  0
VERTEX
  8
PLAN_1
 62
     2
  6
CONTINUOUS
 10
0.018988
 20
1.401476
  0
VERTEX
  8
PLAN_1
 62
     2
  6
CONTINUOUS
 10
0.019531
 20
1.399846
  0
VERTEX
  8
PLAN_1
 62
     2
  6
CONTINUOUS
 10
0.020075
 20
1.399846
  0
VERTEX
  8
PLAN_1
 62
     2
  6
CONTINUOUS
 10
0.020618
 20
1.402567
  0
VERTEX
  8
PLAN_1
 62
     2
  6
CONTINUOUS
 10
0.022252
 20
1.404740
  0
VERTEX
  8
PLAN_1
 62
     2
  6
CONTINUOUS
 10
0.023882
 20
1.406917
  0
VERTEX
  8
PLAN_1
 62
     2
  6
CONTINUOUS
 10
0.025516
 20
1.408551
  0
VERTEX
  8
PLAN_1
 62
     2
  6
CONTINUOUS
 10
0.027689
 20
1.410181
  0
VERTEX
  8
PLAN_1
 62
     2
  6
CONTINUOUS
 10
0.030409
 20
1.411268
  0
VERTEX
  8
PLAN_1
 62
     2
  6
CONTINUOUS
 10
0.033673
 20
1.411815
  0
VERTEX
  8
PLAN_1
 62
     2
  6
CONTINUOUS
 10
0.036937
 20
1.412358
  0
VERTEX
  8
PLAN_1
 62
     2
  6
CONTINUOUS
 10
0.041291
 20
1.411815
  0
VERTEX
  8
PLAN_1
 62
     2
  6
CONTINUOUS
 10
0.045642
 20
1.410724
  0
VERTEX
  8
PLAN_1
 62
     2
  6
CONTINUOUS
 10
0.049449
 20
1.408551
  0
VERTEX
  8
PLAN_1
 62
     2
  6
CONTINUOUS
 10
0.053256
 20
1.405831
  0
VERTEX
  8
PLAN_1
 62
     2
  6
CONTINUOUS
 10
0.055976
 20
1.402567
  0
VERTEX
  8
PLAN_1
 62
     2
  6
CONTINUOUS
 10
0.058697
 20
1.397669
  0
VERTEX
  8
PLAN_1
 62
     2
  6
CONTINUOUS
 10
0.059240
 20
1.395496
  0
VERTEX
  8
PLAN_1
 62
     2
  6
CONTINUOUS
 10
0.059783
 20
1.392228
  0
VERTEX
  8
PLAN_1
 62
     2
  6
CONTINUOUS
 10
0.060331
 20
1.389512
  0
VERTEX
  8
PLAN_1
 62
     2
  6
CONTINUOUS
 10
0.060331
 20
1.385701
  0
VERTEX
  8
PLAN_1
 62
     2
  6
CONTINUOUS
 10
0.060331
 20
1.384071
  0
VERTEX
  8
PLAN_1
 62
     2
  6
CONTINUOUS
 10
0.060331
 20
1.381894
  0
VERTEX
  8
PLAN_1
 62
     2
  6
CONTINUOUS
 10
0.059783
 20
1.380264
  0
VERTEX
  8
PLAN_1
 62
     2
  6
CONTINUOUS
 10
0.059783
 20
1.378630
  0
VERTEX
  8
PLAN_1
 62
     2
  6
CONTINUOUS
 10
0.059240
 20
1.377000
  0
VERTEX
  8
PLAN_1
 62
     2
  6
CONTINUOUS
 10
0.058697
 20
1.375366
  0
VERTEX
  8
PLAN_1
 62
     2
  6
CONTINUOUS
 10
0.058154
 20
1.373736
  0
VERTEX
  8
PLAN_1
 62
     2
  6
CONTINUOUS
 10
0.057067
 20
1.372102
  0
VERTEX
  8
PLAN_1
 62
     2
  6
CONTINUOUS
 10
0.055433
 20
1.369382
  0
VERTEX
  8
PLAN_1
 62
     2
  6
CONTINUOUS
 10
0.053256
 20
1.367209
  0
VERTEX
  8
PLAN_1
 62
     2
  6
CONTINUOUS
 10
0.051083
 20
1.365575
  0
VERTEX
  8
PLAN_1
 62
     2
  6
CONTINUOUS
 10
0.048362
 20
1.363945
  0
VERTEX
  8
PLAN_1
 62
     2
  6
CONTINUOUS
 10
0.045642
 20
1.362854
  0
VERTEX
  8
PLAN_1
 62
     2
  6
CONTINUOUS
 10
0.042378
 20
1.362311
  0
VERTEX
  8
PLAN_1
 62
     2
  6
CONTINUOUS
 10
0.039114
 20
1.361768
  0
VERTEX
  8
PLAN_1
 62
     2
  6
CONTINUOUS
 10
0.035850
 20
1.361224
  0
VERTEX
  8
PLAN_1
 62
     2
  6
CONTINUOUS
 10
0.035850
 20
1.371016
  0
VERTEX
  8
PLAN_1
 62
     2
  6
CONTINUOUS
 10
0.038571
 20
1.371016
  0
VERTEX
  8
PLAN_1
 62
     2
  6
CONTINUOUS
 10
0.041291
 20
1.371559
  0
VERTEX
  8
PLAN_1
 62
     2
  6
CONTINUOUS
 10
0.044012
 20
1.372646
  0
VERTEX
  8
PLAN_1
 62
     2
  6
CONTINUOUS
 10
0.046728
 20
1.373736
  0
VERTEX
  8
PLAN_1
 62
     2
  6
CONTINUOUS
 10
0.048906
 20
1.375909
  0
VERTEX
  8
PLAN_1
 62
     2
  6
CONTINUOUS
 10
0.050539
 20
1.378630
  0
VERTEX
  8
PLAN_1
 62
     2
  6
CONTINUOUS
 10
0.051626
 20
1.381894
  0
VERTEX
  8
PLAN_1
 62
     2
  6
CONTINUOUS
 10
0.052169
 20
1.386248
  0
VERTEX
  8
PLAN_1
 62
     2
  6
CONTINUOUS
 10
0.052169
 20
1.390055
  0
VERTEX
  8
PLAN_1
 62
     2
  6
CONTINUOUS
 10
0.051083
 20
1.392776
  0
VERTEX
  8
PLAN_1
 62
     2
  6
CONTINUOUS
 10
0.049992
 20
1.395496
  0
VERTEX
  8
PLAN_1
 62
     2
  6
CONTINUOUS
 10
0.048362
 20
1.398213
  0
VERTEX
  8
PLAN_1
 62
     2
  6
CONTINUOUS
 10
0.046185
 20
1.399846
  0
VERTEX
  8
PLAN_1
 62
     2
  6
CONTINUOUS
 10
0.044012
 20
1.401476
  0
VERTEX
  8
PLAN_1
 62
     2
  6
CONTINUOUS
 10
0.041291
 20
1.402024
  0
VERTEX
  8
PLAN_1
 62
     2
  6
CONTINUOUS
 10
0.038028
 20
1.402567
  0
VERTEX
  8
PLAN_1
 62
     2
  6
CONTINUOUS
 10
0.034217
 20
1.402024
  0
VERTEX
  8
PLAN_1
 62
     2
  6
CONTINUOUS
 10
0.030953
 20
1.400390
  0
VERTEX
  8
PLAN_1
 62
     2
  6
CONTINUOUS
 10
0.028236
 20
1.398760
  0
VERTEX
  8
PLAN_1
 62
     2
  6
CONTINUOUS
 10
0.026602
 20
1.396039
  0
VERTEX
  8
PLAN_1
 62
     2
  6
CONTINUOUS
 10
0.025516
 20
1.393319
  0
VERTEX
  8
PLAN_1
 62
     2
  6
CONTINUOUS
 10
0.024972
 20
1.390598
  0
VERTEX
  8
PLAN_1
 62
     2
  6
CONTINUOUS
 10
0.024972
 20
1.387878
  0
VERTEX
  8
PLAN_1
 62
     2
  6
CONTINUOUS
 10
0.024425
 20
1.385157
  0
VERTEX
  8
PLAN_1
 62
     2
  6
CONTINUOUS
 10
0.024425
 20
1.384614
  0
VERTEX
  8
PLAN_1
 62
     2
  6
CONTINUOUS
 10
0.024425
 20
1.384071
  0
VERTEX
  8
PLAN_1
 62
     2
  6
CONTINUOUS
 10
0.024972
 20
1.383528
  0
VERTEX
  8
PLAN_1
 62
     2
  6
CONTINUOUS
 10
0.024972
 20
1.382984
  0
VERTEX
  8
PLAN_1
 62
     2
  6
CONTINUOUS
 10
0.024972
 20
1.382437
  0
VERTEX
  8
PLAN_1
 62
     2
  6
CONTINUOUS
 10
0.024972
 20
1.381894
  0
VERTEX
  8
PLAN_1
 62
     2
  6
CONTINUOUS
 10
0.024972
 20
1.381350
  0
VERTEX
  8
PLAN_1
 62
     2
  6
CONTINUOUS
 10
0.016811
 20
1.381350
  0
SEQEND
  8
0
  0
POLYLINE
  8
PLAN_1
 62
     2
  6
CONTINUOUS
 66
     1
 40
0.004350
 41
0.004350
  0
VERTEX
  8
PLAN_1
 62
     2
  6
CONTINUOUS
 10
-1.739685
 20
4.097965
  0
VERTEX
  8
PLAN_1
 62
     2
  6
CONTINUOUS
 10
-0.099055
 20
4.097965
  0
SEQEND
  8
0
  0
SOLID
  8
PLAN_1
 62
     2
 10
-0.069138
 20
4.097965
 11
-0.128429
 21
4.113740
 12
-0.069138
 22
4.097965
 13
-0.128429
 23
4.082189
  0
POLYLINE
  8
PLAN_1
 62
     2
  6
CONTINUOUS
 66
     1
 40
0.003000
 41
0.003000
  0
VERTEX
  8
PLAN_1
 62
     2
  6
CONTINUOUS
 10
-0.069138
 20
4.097965
  0
VERTEX
  8
PLAN_1
 62
     2
  6
CONTINUOUS
 10
-0.128429
 20
4.113740
  0
VERTEX
  8
PLAN_1
 62
     2
  6
CONTINUOUS
 10
-0.128429
 20
4.082189
  0
VERTEX
  8
PLAN_1
 62
     2
  6
CONTINUOUS
 10
-0.069138
 20
4.097965
  0
SEQEND
  8
0
  0
SOLID
  8
PLAN_1
 62
     2
 10
-1.769602
 20
4.097965
 11
-1.710311
 21
4.113740
 12
-1.769602
 22
4.097965
 13
-1.710311
 23
4.082189
  0
POLYLINE
  8
PLAN_1
 62
     2
  6
CONTINUOUS
 66
     1
 40
0.003000
 41
0.003000
  0
VERTEX
  8
PLAN_1
 62
     2
  6
CONTINUOUS
 10
-1.769602
 20
4.097965
  0
VERTEX
  8
PLAN_1
 62
     2
  6
CONTINUOUS
 10
-1.710311
 20
4.113740
  0
VERTEX
  8
PLAN_1
 62
     2
  6
CONTINUOUS
 10
-1.710311
 20
4.082189
  0
VERTEX
  8
PLAN_1
 62
     2
  6
CONTINUOUS
 10
-1.769602
 20
4.097965
  0
SEQEND
  8
0
  0
POLYLINE
  8
PLAN_1
 62
     2
  6
CONTINUOUS
 66
     1
 40
0.004350
 41
0.004350
  0
VERTEX
  8
PLAN_1
 62
     2
  6
CONTINUOUS
 10
-2.278764
 20
4.256803
  0
VERTEX
  8
PLAN_1
 62
     2
  6
CONTINUOUS
 10
-0.099055
 20
4.256803
  0
SEQEND
  8
0
  0
SOLID
  8
PLAN_1
 62
     2
 10
-0.069138
 20
4.256803
 11
-0.128429
 21
4.272579
 12
-0.069138
 22
4.256803
 13
-0.128429
 23
4.241028
  0
POLYLINE
  8
PLAN_1
 62
     2
  6
CONTINUOUS
 66
     1
 40
0.003000
 41
0.003000
  0
VERTEX
  8
PLAN_1
 62
     2
  6
CONTINUOUS
 10
-0.069138
 20
4.256803
  0
VERTEX
  8
PLAN_1
 62
     2
  6
CONTINUOUS
 10
-0.128429
 20
4.272579
  0
VERTEX
  8
PLAN_1
 62
     2
  6
CONTINUOUS
 10
-0.128429
 20
4.241028
  0
VERTEX
  8
PLAN_1
 62
     2
  6
CONTINUOUS
 10
-0.069138
 20
4.256803
  0
SEQEND
  8
0
  0
SOLID
  8
PLAN_1
 62
     2
 10
-2.308685
 20
4.256803
 11
-2.249390
 21
4.272579
 12
-2.308685
 22
4.256803
 13
-2.249390
 23
4.241028
  0
POLYLINE
  8
PLAN_1
 62
     2
  6
CONTINUOUS
 66
     1
 40
0.003000
 41
0.003000
  0
VERTEX
  8
PLAN_1
 62
     2
  6
CONTINUOUS
 10
-2.308685
 20
4.256803
  0
VERTEX
  8
PLAN_1
 62
     2
  6
CONTINUOUS
 10
-2.249390
 20
4.272579
  0
VERTEX
  8
PLAN_1
 62
     2
  6
CONTINUOUS
 10
-2.249390
 20
4.241028
  0
VERTEX
  8
PLAN_1
 62
     2
  6
CONTINUOUS
 10
-2.308685
 20
4.256803
  0
SEQEND
  8
0
  0
POLYLINE
  8
PLAN_1
 62
     2
  6
CONTINUOUS
 66
     1
 40
0.004350
 41
0.004350
  0
VERTEX
  8
PLAN_1
 62
     2
  6
CONTINUOUS
 10
-2.560000
 20
4.117004
  0
VERTEX
  8
PLAN_1
 62
     2
  6
CONTINUOUS
 10
-2.232528
 20
4.117004
  0
SEQEND
  8
0
  0
SOLID
  8
PLAN_1
 62
     2
 10
-2.202606
 20
4.117004
 11
-2.261902
 21
4.132780
 12
-2.202606
 22
4.117004
 13
-2.261902
 23
4.101228
  0
POLYLINE
  8
PLAN_1
 62
     2
  6
CONTINUOUS
 66
     1
 40
0.003000
 41
0.003000
  0
VERTEX
  8
PLAN_1
 62
     2
  6
CONTINUOUS
 10
-2.202606
 20
4.117004
  0
VERTEX
  8
PLAN_1
 62
     2
  6
CONTINUOUS
 10
-2.261902
 20
4.132780
  0
VERTEX
  8
PLAN_1
 62
     2
  6
CONTINUOUS
 10
-2.261902
 20
4.101228
  0
VERTEX
  8
PLAN_1
 62
     2
  6
CONTINUOUS
 10
-2.202606
 20
4.117004
  0
SEQEND
  8
0
  0
SOLID
  8
PLAN_1
 62
     2
 10
-2.400614
 20
4.117004
 11
-2.341323
 21
4.132780
 12
-2.400614
 22
4.117004
 13
-2.341323
 23
4.101228
  0
POLYLINE
  8
PLAN_1
 62
     2
  6
CONTINUOUS
 66
     1
 40
0.003000
 41
0.003000
  0
VERTEX
  8
PLAN_1
 62
     2
  6
CONTINUOUS
 10
-2.400614
 20
4.117004
  0
VERTEX
  8
PLAN_1
 62
     2
  6
CONTINUOUS
 10
-2.341323
 20
4.132780
  0
VERTEX
  8
PLAN_1
 62
     2
  6
CONTINUOUS
 10
-2.341323
 20
4.101228
  0
VERTEX
  8
PLAN_1
 62
     2
  6
CONTINUOUS
 10
-2.400614
 20
4.117004
  0
SEQEND
  8
0
  0
POLYLINE
  8
PLAN_1
 62
     2
  6
CONTINUOUS
 66
     1
 40
0.004350
 41
0.004350
  0
VERTEX
  8
PLAN_1
 62
     2
  6
CONTINUOUS
 10
-2.308685
 20
3.817272
  0
VERTEX
  8
PLAN_1
 62
     2
  6
CONTINUOUS
 10
-2.308685
 20
4.095787
  0
SEQEND
  8
0
  0
POLYLINE
  8
PLAN_1
 62
     2
  6
CONTINUOUS
 66
     1
 40
0.004350
 41
0.004350
  0
VERTEX
  8
PLAN_1
 62
     2
  6
CONTINUOUS
 10
-2.400614
 20
4.140937
  0
VERTEX
  8
PLAN_1
 62
     2
  6
CONTINUOUS
 10
-2.400614
 20
3.980465
  0
SEQEND
  8
0
  0
POLYLINE
  8
PLAN_1
 62
     2
  6
CONTINUOUS
 66
     1
 40
0.004350
 41
0.004350
  0
VERTEX
  8
PLAN_1
 62
     2
  6
CONTINUOUS
 10
-2.202606
 20
4.140937
  0
VERTEX
  8
PLAN_1
 62
     2
  6
CONTINUOUS
 10
-2.202606
 20
3.980465
  0
SEQEND
  8
0
  0
POLYLINE
  8
PLAN_1
 62
     2
  6
CONTINUOUS
 66
     1
 40
0.004350
 41
0.004350
  0
VERTEX
  8
PLAN_1
 62
     2
  6
CONTINUOUS
 10
-1.769602
 20
4.121354
  0
VERTEX
  8
PLAN_1
 62
     2
  6
CONTINUOUS
 10
-1.769602
 20
3.967953
  0
SEQEND
  8
0
  0
POLYLINE
  8
PLAN_1
 62
     2
  6
CONTINUOUS
 66
     1
 40
0.004350
 41
0.004350
  0
VERTEX
  8
PLAN_1
 62
     2
  6
CONTINUOUS
 10
-0.069138
 20
1.758327
  0
VERTEX
  8
PLAN_1
 62
     2
  6
CONTINUOUS
 10
-0.069138
 20
4.280197
  0
SEQEND
  8
0
  0
POLYLINE
  8
PLAN_1
 62
     2
  6
CONTINUOUS
 66
     1
 40
0.004350
 41
0.004350
  0
VERTEX
  8
PLAN_1
 62
     2
  6
CONTINUOUS
 10
-2.308685
 20
4.137673
  0
VERTEX
  8
PLAN_1
 62
     2
  6
CONTINUOUS
 10
-2.308685
 20
4.280197
  0
SEQEND
  8
0
  0
POLYLINE
  8
PLAN_1
 62
     2
  6
CONTINUOUS
 66
     1
 40
0.003000
 41
0.003000
  0
VERTEX
  8
PLAN_1
 62
     2
  6
CONTINUOUS
 10
-1.223996
 20
4.323169
  0
VERTEX
  8
PLAN_1
 62
     2
  6
CONTINUOUS
 10
-1.222909
 20
4.323713
  0
VERTEX
  8
PLAN_1
 62
     2
  6
CONTINUOUS
 10
-1.221276
 20
4.324803
  0
VERTEX
  8
PLAN_1
 62
     2
  6
CONTINUOUS
 10
-1.219646
 20
4.325346
  0
VERTEX
  8
PLAN_1
 62
     2
  6
CONTINUOUS
 10
-1.218012
 20
4.325890
  0
VERTEX
  8
PLAN_1
 62
     2
  6
CONTINUOUS
 10
-1.216382
 20
4.326976
  0
VERTEX
  8
PLAN_1
 62
     2
  6
CONTINUOUS
 10
-1.214205
 20
4.326976
  0
VERTEX
  8
PLAN_1
 62
     2
  6
CONTINUOUS
 10
-1.212028
 20
4.327520
  0
VERTEX
  8
PLAN_1
 62
     2
  6
CONTINUOUS
 10
-1.209854
 20
4.327520
  0
VERTEX
  8
PLAN_1
 62
     2
  6
CONTINUOUS
 10
-1.205500
 20
4.326976
  0
VERTEX
  8
PLAN_1
 62
     2
  6
CONTINUOUS
 10
-1.201150
 20
4.325890
  0
VERTEX
  8
PLAN_1
 62
     2
  6
CONTINUOUS
 10
-1.196799
 20
4.324256
  0
VERTEX
  8
PLAN_1
 62
     2
  6
CONTINUOUS
 10
-1.193535
 20
4.321535
  0
VERTEX
  8
PLAN_1
 62
     2
  6
CONTINUOUS
 10
-1.190272
 20
4.318272
  0
VERTEX
  8
PLAN_1
 62
     2
  6
CONTINUOUS
 10
-1.187551
 20
4.313921
  0
VERTEX
  8
PLAN_1
 62
     2
  6
CONTINUOUS
 10
-1.187008
 20
4.311744
  0
VERTEX
  8
PLAN_1
 62
     2
  6
CONTINUOUS
 10
-1.186461
 20
4.309571
  0
VERTEX
  8
PLAN_1
 62
     2
  6
CONTINUOUS
 10
-1.185917
 20
4.306850
  0
VERTEX
  8
PLAN_1
 62
     2
  6
CONTINUOUS
 10
-1.185917
 20
4.304130
  0
VERTEX
  8
PLAN_1
 62
     2
  6
CONTINUOUS
 10
-1.185917
 20
4.300866
  0
VERTEX
  8
PLAN_1
 62
     2
  6
CONTINUOUS
 10
-1.186461
 20
4.296516
  0
VERTEX
  8
PLAN_1
 62
     2
  6
CONTINUOUS
 10
-1.188094
 20
4.292705
  0
VERTEX
  8
PLAN_1
 62
     2
  6
CONTINUOUS
 10
-1.190272
 20
4.288354
  0
VERTEX
  8
PLAN_1
 62
     2
  6
CONTINUOUS
 10
-1.191902
 20
4.286177
  0
VERTEX
  8
PLAN_1
 62
     2
  6
CONTINUOUS
 10
-1.194079
 20
4.284547
  0
VERTEX
  8
PLAN_1
 62
     2
  6
CONTINUOUS
 10
-1.195709
 20
4.282913
  0
VERTEX
  8
PLAN_1
 62
     2
  6
CONTINUOUS
 10
-1.198429
 20
4.281283
  0
VERTEX
  8
PLAN_1
 62
     2
  6
CONTINUOUS
 10
-1.201150
 20
4.280197
  0
VERTEX
  8
PLAN_1
 62
     2
  6
CONTINUOUS
 10
-1.204413
 20
4.279106
  0
VERTEX
  8
PLAN_1
 62
     2
  6
CONTINUOUS
 10
-1.208220
 20
4.278563
  0
VERTEX
  8
PLAN_1
 62
     2
  6
CONTINUOUS
 10
-1.212028
 20
4.278563
  0
VERTEX
  8
PLAN_1
 62
     2
  6
CONTINUOUS
 10
-1.215839
 20
4.278563
  0
VERTEX
  8
PLAN_1
 62
     2
  6
CONTINUOUS
 10
-1.219646
 20
4.279106
  0
VERTEX
  8
PLAN_1
 62
     2
  6
CONTINUOUS
 10
-1.223453
 20
4.280740
  0
VERTEX
  8
PLAN_1
 62
     2
  6
CONTINUOUS
 10
-1.227260
 20
4.282370
  0
VERTEX
  8
PLAN_1
 62
     2
  6
CONTINUOUS
 10
-1.229980
 20
4.285091
  0
VERTEX
  8
PLAN_1
 62
     2
  6
CONTINUOUS
 10
-1.232701
 20
4.288354
  0
VERTEX
  8
PLAN_1
 62
     2
  6
CONTINUOUS
 10
-1.233787
 20
4.290531
  0
VERTEX
  8
PLAN_1
 62
     2
  6
CONTINUOUS
 10
-1.234878
 20
4.293252
  0
VERTEX
  8
PLAN_1
 62
     2
  6
CONTINUOUS
 10
-1.235421
 20
4.295972
  0
VERTEX
  8
PLAN_1
 62
     2
  6
CONTINUOUS
 10
-1.235965
 20
4.298689
  0
VERTEX
  8
PLAN_1
 62
     2
  6
CONTINUOUS
 10
-1.226173
 20
4.298689
  0
VERTEX
  8
PLAN_1
 62
     2
  6
CONTINUOUS
 10
-1.225630
 20
4.295425
  0
VERTEX
  8
PLAN_1
 62
     2
  6
CONTINUOUS
 10
-1.224539
 20
4.293252
  0
VERTEX
  8
PLAN_1
 62
     2
  6
CONTINUOUS
 10
-1.223453
 20
4.291075
  0
VERTEX
  8
PLAN_1
 62
     2
  6
CONTINUOUS
 10
-1.221276
 20
4.289441
  0
VERTEX
  8
PLAN_1
 62
     2
  6
CONTINUOUS
 10
-1.219102
 20
4.287811
  0
VERTEX
  8
PLAN_1
 62
     2
  6
CONTINUOUS
 10
-1.216925
 20
4.287268
  0
VERTEX
  8
PLAN_1
 62
     2
  6
CONTINUOUS
 10
-1.213661
 20
4.286724
  0
VERTEX
  8
PLAN_1
 62
     2
  6
CONTINUOUS
 10
-1.210941
 20
4.286177
  0
VERTEX
  8
PLAN_1
 62
     2
  6
CONTINUOUS
 10
-1.207677
 20
4.286724
  0
VERTEX
  8
PLAN_1
 62
     2
  6
CONTINUOUS
 10
-1.204413
 20
4.287811
  0
VERTEX
  8
PLAN_1
 62
     2
  6
CONTINUOUS
 10
-1.201693
 20
4.289441
  0
VERTEX
  8
PLAN_1
 62
     2
  6
CONTINUOUS
 10
-1.199516
 20
4.291075
  0
VERTEX
  8
PLAN_1
 62
     2
  6
CONTINUOUS
 10
-1.197886
 20
4.293795
  0
VERTEX
  8
PLAN_1
 62
     2
  6
CONTINUOUS
 10
-1.196799
 20
4.296516
  0
VERTEX
  8
PLAN_1
 62
     2
  6
CONTINUOUS
 10
-1.195709
 20
4.299780
  0
VERTEX
  8
PLAN_1
 62
     2
  6
CONTINUOUS
 10
-1.195709
 20
4.303043
  0
VERTEX
  8
PLAN_1
 62
     2
  6
CONTINUOUS
 10
-1.195709
 20
4.306850
  0
VERTEX
  8
PLAN_1
 62
     2
  6
CONTINUOUS
 10
-1.196799
 20
4.310114
  0
VERTEX
  8
PLAN_1
 62
     2
  6
CONTINUOUS
 10
-1.198429
 20
4.312835
  0
VERTEX
  8
PLAN_1
 62
     2
  6
CONTINUOUS
 10
-1.200063
 20
4.315008
  0
VERTEX
  8
PLAN_1
 62
     2
  6
CONTINUOUS
 10
-1.202783
 20
4.317185
  0
VERTEX
  8
PLAN_1
 62
     2
  6
CONTINUOUS
 10
-1.205500
 20
4.318272
  0
VERTEX
  8
PLAN_1
 62
     2
  6
CONTINUOUS
 10
-1.208220
 20
4.318819
  0
VERTEX
  8
PLAN_1
 62
     2
  6
CONTINUOUS
 10
-1.211484
 20
4.319362
  0
VERTEX
  8
PLAN_1
 62
     2
  6
CONTINUOUS
 10
-1.213661
 20
4.319362
  0
VERTEX
  8
PLAN_1
 62
     2
  6
CONTINUOUS
 10
-1.215839
 20
4.318819
  0
VERTEX
  8
PLAN_1
 62
     2
  6
CONTINUOUS
 10
-1.217469
 20
4.318272
  0
VERTEX
  8
PLAN_1
 62
     2
  6
CONTINUOUS
 10
-1.219102
 20
4.317728
  0
VERTEX
  8
PLAN_1
 62
     2
  6
CONTINUOUS
 10
-1.220732
 20
4.316642
  0
VERTEX
  8
PLAN_1
 62
     2
  6
CONTINUOUS
 10
-1.222366
 20
4.315555
  0
VERTEX
  8
PLAN_1
 62
     2
  6
CONTINUOUS
 10
-1.223996
 20
4.313921
  0
VERTEX
  8
PLAN_1
 62
     2
  6
CONTINUOUS
 10
-1.225083
 20
4.312291
  0
VERTEX
  8
PLAN_1
 62
     2
  6
CONTINUOUS
 10
-1.233244
 20
4.312835
  0
VERTEX
  8
PLAN_1
 62
     2
  6
CONTINUOUS
 10
-1.227803
 20
4.352000
  0
VERTEX
  8
PLAN_1
 62
     2
  6
CONTINUOUS
 10
-1.189724
 20
4.352000
  0
VERTEX
  8
PLAN_1
 62
     2
  6
CONTINUOUS
 10
-1.189724
 20
4.343295
  0
VERTEX
  8
PLAN_1
 62
     2
  6
CONTINUOUS
 10
-1.220732
 20
4.343295
  0
VERTEX
  8
PLAN_1
 62
     2
  6
CONTINUOUS
 10
-1.223996
 20
4.323169
  0
SEQEND
  8
0
  0
POLYLINE
  8
PLAN_1
 62
     2
  6
CONTINUOUS
 66
     1
 40
0.003000
 41
0.003000
  0
VERTEX
  8
PLAN_1
 62
     2
  6
CONTINUOUS
 10
-1.177217
 20
4.352000
  0
VERTEX
  8
PLAN_1
 62
     2
  6
CONTINUOUS
 10
-1.127169
 20
4.352000
  0
VERTEX
  8
PLAN_1
 62
     2
  6
CONTINUOUS
 10
-1.127169
 20
4.343839
  0
VERTEX
  8
PLAN_1
 62
     2
  6
CONTINUOUS
 10
-1.129890
 20
4.340575
  0
VERTEX
  8
PLAN_1
 62
     2
  6
CONTINUOUS
 10
-1.133697
 20
4.335681
  0
VERTEX
  8
PLAN_1
 62
     2
  6
CONTINUOUS
 10
-1.138047
 20
4.329154
  0
VERTEX
  8
PLAN_1
 62
     2
  6
CONTINUOUS
 10
-1.142945
 20
4.321535
  0
VERTEX
  8
PLAN_1
 62
     2
  6
CONTINUOUS
 10
-1.147295
 20
4.312835
  0
VERTEX
  8
PLAN_1
 62
     2
  6
CONTINUOUS
 10
-1.151102
 20
4.303043
  0
VERTEX
  8
PLAN_1
 62
     2
  6
CONTINUOUS
 10
-1.152736
 20
4.297602
  0
VERTEX
  8
PLAN_1
 62
     2
  6
CONTINUOUS
 10
-1.154366
 20
4.292161
  0
VERTEX
  8
PLAN_1
 62
     2
  6
CONTINUOUS
 10
-1.156000
 20
4.286177
  0
VERTEX
  8
PLAN_1
 62
     2
  6
CONTINUOUS
 10
-1.157087
 20
4.280197
  0
VERTEX
  8
PLAN_1
 62
     2
  6
CONTINUOUS
 10
-1.166878
 20
4.280197
  0
VERTEX
  8
PLAN_1
 62
     2
  6
CONTINUOUS
 10
-1.165791
 20
4.288354
  0
VERTEX
  8
PLAN_1
 62
     2
  6
CONTINUOUS
 10
-1.163071
 20
4.296516
  0
VERTEX
  8
PLAN_1
 62
     2
  6
CONTINUOUS
 10
-1.160350
 20
4.304673
  0
VERTEX
  8
PLAN_1
 62
     2
  6
CONTINUOUS
 10
-1.156543
 20
4.313378
  0
VERTEX
  8
PLAN_1
 62
     2
  6
CONTINUOUS
 10
-1.152193
 20
4.321535
  0
VERTEX
  8
PLAN_1
 62
     2
  6
CONTINUOUS
 10
-1.147295
 20
4.329154
  0
VERTEX
  8
PLAN_1
 62
     2
  6
CONTINUOUS
 10
-1.142402
 20
4.336224
  0
VERTEX
  8
PLAN_1
 62
     2
  6
CONTINUOUS
 10
-1.136961
 20
4.343295
  0
VERTEX
  8
PLAN_1
 62
     2
  6
CONTINUOUS
 10
-1.177217
 20
4.343295
  0
VERTEX
  8
PLAN_1
 62
     2
  6
CONTINUOUS
 10
-1.177217
 20
4.352000
  0
SEQEND
  8
0
  0
POLYLINE
  8
PLAN_1
 62
     2
  6
CONTINUOUS
 66
     1
 40
0.003000
 41
0.003000
  0
VERTEX
  8
PLAN_1
 62
     2
  6
CONTINUOUS
 10
-2.526272
 20
4.183366
  0
VERTEX
  8
PLAN_1
 62
     2
  6
CONTINUOUS
 10
-2.525185
 20
4.184457
  0
VERTEX
  8
PLAN_1
 62
     2
  6
CONTINUOUS
 10
-2.523555
 20
4.185000
  0
VERTEX
  8
PLAN_1
 62
     2
  6
CONTINUOUS
 10
-2.522465
 20
4.186087
  0
VERTEX
  8
PLAN_1
 62
     2
  6
CONTINUOUS
 10
-2.520835
 20
4.186630
  0
VERTEX
  8
PLAN_1
 62
     2
  6
CONTINUOUS
 10
-2.518657
 20
4.187177
  0
VERTEX
  8
PLAN_1
 62
     2
  6
CONTINUOUS
 10
-2.517028
 20
4.187720
  0
VERTEX
  8
PLAN_1
 62
     2
  6
CONTINUOUS
 10
-2.514850
 20
4.187720
  0
VERTEX
  8
PLAN_1
 62
     2
  6
CONTINUOUS
 10
-2.512130
 20
4.187720
  0
VERTEX
  8
PLAN_1
 62
     2
  6
CONTINUOUS
 10
-2.507780
 20
4.187720
  0
VERTEX
  8
PLAN_1
 62
     2
  6
CONTINUOUS
 10
-2.503425
 20
4.186630
  0
VERTEX
  8
PLAN_1
 62
     2
  6
CONTINUOUS
 10
-2.499618
 20
4.184457
  0
VERTEX
  8
PLAN_1
 62
     2
  6
CONTINUOUS
 10
-2.495811
 20
4.181736
  0
VERTEX
  8
PLAN_1
 62
     2
  6
CONTINUOUS
 10
-2.492547
 20
4.178472
  0
VERTEX
  8
PLAN_1
 62
     2
  6
CONTINUOUS
 10
-2.490370
 20
4.174665
  0
VERTEX
  8
PLAN_1
 62
     2
  6
CONTINUOUS
 10
-2.489283
 20
4.172488
  0
VERTEX
  8
PLAN_1
 62
     2
  6
CONTINUOUS
 10
-2.488740
 20
4.169768
  0
VERTEX
  8
PLAN_1
 62
     2
  6
CONTINUOUS
 10
-2.488197
 20
4.167047
  0
VERTEX
  8
PLAN_1
 62
     2
  6
CONTINUOUS
 10
-2.488197
 20
4.164327
  0
VERTEX
  8
PLAN_1
 62
     2
  6
CONTINUOUS
 10
-2.488197
 20
4.161063
  0
VERTEX
  8
PLAN_1
 62
     2
  6
CONTINUOUS
 10
-2.489283
 20
4.157256
  0
VERTEX
  8
PLAN_1
 62
     2
  6
CONTINUOUS
 10
-2.490370
 20
4.152906
  0
VERTEX
  8
PLAN_1
 62
     2
  6
CONTINUOUS
 10
-2.493091
 20
4.148555
  0
VERTEX
  8
PLAN_1
 62
     2
  6
CONTINUOUS
 10
-2.494724
 20
4.146378
  0
VERTEX
  8
PLAN_1
 62
     2
  6
CONTINUOUS
 10
-2.496354
 20
4.144744
  0
VERTEX
  8
PLAN_1
 62
     2
  6
CONTINUOUS
 10
-2.498531
 20
4.143114
  0
VERTEX
  8
PLAN_1
 62
     2
  6
CONTINUOUS
 10
-2.500705
 20
4.141480
  0
VERTEX
  8
PLAN_1
 62
     2
  6
CONTINUOUS
 10
-2.503972
 20
4.140394
  0
VERTEX
  8
PLAN_1
 62
     2
  6
CONTINUOUS
 10
-2.507236
 20
4.139307
  0
VERTEX
  8
PLAN_1
 62
     2
  6
CONTINUOUS
 10
-2.510500
 20
4.138760
  0
VERTEX
  8
PLAN_1
 62
     2
  6
CONTINUOUS
 10
-2.514850
 20
4.138760
  0
VERTEX
  8
PLAN_1
 62
     2
  6
CONTINUOUS
 10
-2.518657
 20
4.138760
  0
VERTEX
  8
PLAN_1
 62
     2
  6
CONTINUOUS
 10
-2.522465
 20
4.139850
  0
VERTEX
  8
PLAN_1
 62
     2
  6
CONTINUOUS
 10
-2.525728
 20
4.140937
  0
VERTEX
  8
PLAN_1
 62
     2
  6
CONTINUOUS
 10
-2.529535
 20
4.142571
  0
VERTEX
  8
PLAN_1
 62
     2
  6
CONTINUOUS
 10
-2.532803
 20
4.145291
  0
VERTEX
  8
PLAN_1
 62
     2
  6
CONTINUOUS
 10
-2.535520
 20
4.149098
  0
VERTEX
  8
PLAN_1
 62
     2
  6
CONTINUOUS
 10
-2.536610
 20
4.151272
  0
VERTEX
  8
PLAN_1
 62
     2
  6
CONTINUOUS
 10
-2.537154
 20
4.153449
  0
VERTEX
  8
PLAN_1
 62
     2
  6
CONTINUOUS
 10
-2.537697
 20
4.156169
  0
VERTEX
  8
PLAN_1
 62
     2
  6
CONTINUOUS
 10
-2.538240
 20
4.158890
  0
VERTEX
  8
PLAN_1
 62
     2
  6
CONTINUOUS
 10
-2.528992
 20
4.158890
  0
VERTEX
  8
PLAN_1
 62
     2
  6
CONTINUOUS
 10
-2.528449
 20
4.156169
  0
VERTEX
  8
PLAN_1
 62
     2
  6
CONTINUOUS
 10
-2.527362
 20
4.153449
  0
VERTEX
  8
PLAN_1
 62
     2
  6
CONTINUOUS
 10
-2.525728
 20
4.151272
  0
VERTEX
  8
PLAN_1
 62
     2
  6
CONTINUOUS
 10
-2.524098
 20
4.149642
  0
VERTEX
  8
PLAN_1
 62
     2
  6
CONTINUOUS
 10
-2.521921
 20
4.148555
  0
VERTEX
  8
PLAN_1
 62
     2
  6
CONTINUOUS
 10
-2.519201
 20
4.147465
  0
VERTEX
  8
PLAN_1
 62
     2
  6
CONTINUOUS
 10
-2.516480
 20
4.146921
  0
VERTEX
  8
PLAN_1
 62
     2
  6
CONTINUOUS
 10
-2.513217
 20
4.146921
  0
VERTEX
  8
PLAN_1
 62
     2
  6
CONTINUOUS
 10
-2.509953
 20
4.146921
  0
VERTEX
  8
PLAN_1
 62
     2
  6
CONTINUOUS
 10
-2.507236
 20
4.148008
  0
VERTEX
  8
PLAN_1
 62
     2
  6
CONTINUOUS
 10
-2.504516
 20
4.149642
  0
VERTEX
  8
PLAN_1
 62
     2
  6
CONTINUOUS
 10
-2.502339
 20
4.151819
  0
VERTEX
  8
PLAN_1
 62
     2
  6
CONTINUOUS
 10
-2.500161
 20
4.153992
  0
VERTEX
  8
PLAN_1
 62
     2
  6
CONTINUOUS
 10
-2.499075
 20
4.156713
  0
VERTEX
  8
PLAN_1
 62
     2
  6
CONTINUOUS
 10
-2.498531
 20
4.159976
  0
VERTEX
  8
PLAN_1
 62
     2
  6
CONTINUOUS
 10
-2.497988
 20
4.163240
  0
VERTEX
  8
PLAN_1
 62
     2
  6
CONTINUOUS
 10
-2.498531
 20
4.167047
  0
VERTEX
  8
PLAN_1
 62
     2
  6
CONTINUOUS
 10
-2.499075
 20
4.170311
  0
VERTEX
  8
PLAN_1
 62
     2
  6
CONTINUOUS
 10
-2.500705
 20
4.173031
  0
VERTEX
  8
PLAN_1
 62
     2
  6
CONTINUOUS
 10
-2.502882
 20
4.175752
  0
VERTEX
  8
PLAN_1
 62
     2
  6
CONTINUOUS
 10
-2.505059
 20
4.177386
  0
VERTEX
  8
PLAN_1
 62
     2
  6
CONTINUOUS
 10
-2.507780
 20
4.178472
  0
VERTEX
  8
PLAN_1
 62
     2
  6
CONTINUOUS
 10
-2.511043
 20
4.179559
  0
VERTEX
  8
PLAN_1
 62
     2
  6
CONTINUOUS
 10
-2.514307
 20
4.179559
  0
VERTEX
  8
PLAN_1
 62
     2
  6
CONTINUOUS
 10
-2.516480
 20
4.179559
  0
VERTEX
  8
PLAN_1
 62
     2
  6
CONTINUOUS
 10
-2.518114
 20
4.179016
  0
VERTEX
  8
PLAN_1
 62
     2
  6
CONTINUOUS
 10
-2.519744
 20
4.178472
  0
VERTEX
  8
PLAN_1
 62
     2
  6
CONTINUOUS
 10
-2.521921
 20
4.177929
  0
VERTEX
  8
PLAN_1
 62
     2
  6
CONTINUOUS
 10
-2.523555
 20
4.176839
  0
VERTEX
  8
PLAN_1
 62
     2
  6
CONTINUOUS
 10
-2.525185
 20
4.175752
  0
VERTEX
  8
PLAN_1
 62
     2
  6
CONTINUOUS
 10
-2.526272
 20
4.174118
  0
VERTEX
  8
PLAN_1
 62
     2
  6
CONTINUOUS
 10
-2.527906
 20
4.172488
  0
VERTEX
  8
PLAN_1
 62
     2
  6
CONTINUOUS
 10
-2.535520
 20
4.173031
  0
VERTEX
  8
PLAN_1
 62
     2
  6
CONTINUOUS
 10
-2.530083
 20
4.212197
  0
VERTEX
  8
PLAN_1
 62
     2
  6
CONTINUOUS
 10
-2.492547
 20
4.212197
  0
VERTEX
  8
PLAN_1
 62
     2
  6
CONTINUOUS
 10
-2.492547
 20
4.203496
  0
VERTEX
  8
PLAN_1
 62
     2
  6
CONTINUOUS
 10
-2.523555
 20
4.203496
  0
VERTEX
  8
PLAN_1
 62
     2
  6
CONTINUOUS
 10
-2.526272
 20
4.183366
  0
SEQEND
  8
0
  0
POLYLINE
  8
PLAN_1
 62
     2
  6
CONTINUOUS
 66
     1
 40
0.003000
 41
0.003000
  0
VERTEX
  8
PLAN_1
 62
     2
  6
CONTINUOUS
 10
-0.942217
 20
4.139307
  0
VERTEX
  8
PLAN_1
 62
     2
  6
CONTINUOUS
 10
-0.942217
 20
4.121354
  0
VERTEX
  8
PLAN_1
 62
     2
  6
CONTINUOUS
 10
-0.951465
 20
4.121354
  0
VERTEX
  8
PLAN_1
 62
     2
  6
CONTINUOUS
 10
-0.951465
 20
4.139307
  0
VERTEX
  8
PLAN_1
 62
     2
  6
CONTINUOUS
 10
-0.983016
 20
4.139307
  0
VERTEX
  8
PLAN_1
 62
     2
  6
CONTINUOUS
 10
-0.983016
 20
4.148008
  0
VERTEX
  8
PLAN_1
 62
     2
  6
CONTINUOUS
 10
-0.949835
 20
4.194791
  0
VERTEX
  8
PLAN_1
 62
     2
  6
CONTINUOUS
 10
-0.942217
 20
4.194791
  0
VERTEX
  8
PLAN_1
 62
     2
  6
CONTINUOUS
 10
-0.942217
 20
4.146921
  0
VERTEX
  8
PLAN_1
 62
     2
  6
CONTINUOUS
 10
-0.931339
 20
4.146921
  0
VERTEX
  8
PLAN_1
 62
     2
  6
CONTINUOUS
 10
-0.931339
 20
4.139307
  0
VERTEX
  8
PLAN_1
 62
     2
  6
CONTINUOUS
 10
-0.942217
 20
4.139307
  0
SEQEND
  8
0
  0
SOLID
  8
PLAN_1
 62
     2
 10
-0.974854
 20
4.146921
 11
-0.951465
 21
4.146921
 12
-0.974854
 22
4.146921
 13
-0.951465
 23
4.180102
  0
POLYLINE
  8
PLAN_1
 62
     2
  6
CONTINUOUS
 66
     1
 40
0.003000
 41
0.003000
  0
VERTEX
  8
PLAN_1
 62
     2
  6
CONTINUOUS
 10
-0.974854
 20
4.146921
  0
VERTEX
  8
PLAN_1
 62
     2
  6
CONTINUOUS
 10
-0.951465
 20
4.146921
  0
VERTEX
  8
PLAN_1
 62
     2
  6
CONTINUOUS
 10
-0.951465
 20
4.180102
  0
VERTEX
  8
PLAN_1
 62
     2
  6
CONTINUOUS
 10
-0.974854
 20
4.146921
  0
SEQEND
  8
0
  0
POLYLINE
  8
PLAN_1
 62
     2
  6
CONTINUOUS
 66
     1
 40
0.003000
 41
0.003000
  0
VERTEX
  8
PLAN_1
 62
     2
  6
CONTINUOUS
 10
-0.890539
 20
4.121354
  0
VERTEX
  8
PLAN_1
 62
     2
  6
CONTINUOUS
 10
-0.900331
 20
4.121354
  0
VERTEX
  8
PLAN_1
 62
     2
  6
CONTINUOUS
 10
-0.900331
 20
4.173575
  0
VERTEX
  8
PLAN_1
 62
     2
  6
CONTINUOUS
 10
-0.917193
 20
4.173575
  0
VERTEX
  8
PLAN_1
 62
     2
  6
CONTINUOUS
 10
-0.917193
 20
4.180650
  0
VERTEX
  8
PLAN_1
 62
     2
  6
CONTINUOUS
 10
-0.913386
 20
4.181193
  0
VERTEX
  8
PLAN_1
 62
     2
  6
CONTINUOUS
 10
-0.909579
 20
4.181193
  0
VERTEX
  8
PLAN_1
 62
     2
  6
CONTINUOUS
 10
-0.906858
 20
4.182280
  0
VERTEX
  8
PLAN_1
 62
     2
  6
CONTINUOUS
 10
-0.904138
 20
4.183366
  0
VERTEX
  8
PLAN_1
 62
     2
  6
CONTINUOUS
 10
-0.901965
 20
4.185000
  0
VERTEX
  8
PLAN_1
 62
     2
  6
CONTINUOUS
 10
-0.900331
 20
4.187177
  0
VERTEX
  8
PLAN_1
 62
     2
  6
CONTINUOUS
 10
-0.899244
 20
4.190441
  0
VERTEX
  8
PLAN_1
 62
     2
  6
CONTINUOUS
 10
-0.897610
 20
4.194791
  0
VERTEX
  8
PLAN_1
 62
     2
  6
CONTINUOUS
 10
-0.890539
 20
4.194791
  0
VERTEX
  8
PLAN_1
 62
     2
  6
CONTINUOUS
 10
-0.890539
 20
4.121354
  0
SEQEND
  8
0
  0
POLYLINE
  8
PLAN_1
 62
     2
  6
CONTINUOUS
 66
     1
 40
0.004350
 41
0.004350
  0
VERTEX
  8
PLAN_1
 62
     2
  6
CONTINUOUS
 10
-1.546031
 20
3.944563
  0
VERTEX
  8
PLAN_1
 62
     2
  6
CONTINUOUS
 10
0.114181
 20
3.944563
  0
SEQEND
  8
0
  0
POLYLINE
  8
PLAN_1
 62
     2
  6
CONTINUOUS
 66
     1
 40
0.004350
 41
0.004350
  0
VERTEX
  8
PLAN_1
 62
     2
  6
CONTINUOUS
 10
-0.065874
 20
-1.286303
  0
VERTEX
  8
PLAN_1
 62
     2
  6
CONTINUOUS
 10
0.105480
 20
-1.286303
  0
SEQEND
  8
0
  0
ENDSEC
  0
EOF
