  0
SECTION
  2
HEADER
  9
$ACADVER
  1
AC1006
  9
$EXTMIN
 10
-1.987646
 20
-4.157780
  9
$EXTMAX
 10
1.987028
 20
4.163000
  9
$LTSCALE
 40
0.000394
  9
$PDMODE
 70
    35
  9
$PDSIZE
 40
0.000315
  0
ENDSEC
  0
SECTION
  2
TABLES
  0
TABLE
  2
LTYPE
 70
     9
  0
LTYPE
  2
CONTINUOUS
 70
    64
  3
Solid line
 72
    65
 73
     0
 40
0.000000
  0
LTYPE
  2
DASHED
 70
    64
  3
__ __ __ __ __ __ __ __ __ __ __ __ __ __ __
 72
    65
 73
     2
 40
0.000003
 49
0.000002
 49
-0.000001
  0
LTYPE
  2
HIDDEN
 70
    64
  3
 _ _ _ _ _ _ _ _ _ _ _ _ _ _ _ _ _ _ _ _ _ _
 72
    65
 73
     2
 40
0.000001
 49
0.000001
 49
-0.000000
  0
LTYPE
  2
CENTER
 70
    64
  3
____ _ ____ _ ____ _ ____ _ ____ _ ____ _ ____
 72
    65
 73
     4
 40
0.000008
 49
0.000005
 49
-0.000001
 49
0.000001
 49
-0.000001
  0
LTYPE
  2
PHANTOM
 70
    64
  3
_____ _ _ _____ _ _ _____ _ _ _____ _ _ ____
 72
    65
 73
     6
 40
0.000010
 49
0.000005
 49
-0.000001
 49
0.000001
 49
-0.000001
 49
0.000001
 49
-0.000001
  0
LTYPE
  2
DOT
 70
    64
  3
...............................................
 72
    65
 73
     2
 40
0.000001
 49
0.000000
 49
-0.000001
  0
LTYPE
  2
DASHDOT
 70
    64
  3
__ . __ . __ . __ . __ . __ . __ . __ . __ . __
 72
    65
 73
     4
 40
0.000004
 49
0.000002
 49
-0.000001
 49
0.000000
 49
-0.000001
  0
LTYPE
  2
BORDER
 70
    64
  3
__ __ . __ __ . __ __ . __ __ . __ __ . __ __
 72
    65
 73
     6
 40
0.000007
 49
0.000002
 49
-0.000001
 49
0.000002
 49
-0.000001
 49
0.000000
 49
-0.000001
  0
LTYPE
  2
DIVIDE
 70
    64
  3
__ . . __ . . __ . . __ . . __ . . __ . . __
 72
    65
 73
     6
 40
0.000005
 49
0.000002
 49
-0.000001
 49
0.000000
 49
-0.000001
 49
0.000000
 49
-0.000001
  0
LTYPE
  2
DOTDOT
 70
    64
  3
 . .  . .  . .  . .  . .  . . 
 72
    65
 73
     5
 40
0.000002
 49
-0.000001
 49
0.000000
 49
-0.000001
 49
0.000000
 49
-0.000001
  0
ENDTAB
  0
TABLE
  2
STYLE
 70
     0
  0
ENDTAB
  0
TABLE
  2
LAYER
 70
     3
  0
LAYER
  2
FOREGROUND
 70
    64
 62
     7
  6
CONTINUOUS
  0
LAYER
  2
BACKGROUND
 70
    65
 62
    -7
  6
CONTINUOUS
  0
LAYER
  2
PLAN_1
 70
    64
 62
     7
  6
CONTINUOUS
  0
ENDTAB
  0
ENDSEC
  0
SECTION
  2
ENTITIES
  0
POLYLINE
  8
PLAN_1
  6
CONTINUOUS
 66
     1
 40
0.003000
 41
0.003000
  0
VERTEX
  8
PLAN_1
  6
CONTINUOUS
 10
0.199098
 20
-4.122937
  0
VERTEX
  8
PLAN_1
  6
CONTINUOUS
 10
0.042043
 20
-4.122937
  0
VERTEX
  8
PLAN_1
  6
CONTINUOUS
 10
0.042043
 20
-4.100575
  0
VERTEX
  8
PLAN_1
  6
CONTINUOUS
 10
0.164256
 20
-3.947681
  0
VERTEX
  8
PLAN_1
  6
CONTINUOUS
 10
0.051406
 20
-3.947681
  0
VERTEX
  8
PLAN_1
  6
CONTINUOUS
 10
0.051406
 20
-3.923760
  0
VERTEX
  8
PLAN_1
  6
CONTINUOUS
 10
0.199098
 20
-3.923760
  0
VERTEX
  8
PLAN_1
  6
CONTINUOUS
 10
0.199098
 20
-3.947161
  0
VERTEX
  8
PLAN_1
  6
CONTINUOUS
 10
0.076366
 20
-4.099016
  0
VERTEX
  8
PLAN_1
  6
CONTINUOUS
 10
0.199098
 20
-4.099016
  0
VERTEX
  8
PLAN_1
  6
CONTINUOUS
 10
0.199098
 20
-4.122937
  0
SEQEND
  8
0
  0
POLYLINE
  8
PLAN_1
  6
CONTINUOUS
 66
     1
 40
0.003000
 41
0.003000
  0
VERTEX
  8
PLAN_1
  6
CONTINUOUS
 10
0.366555
 20
-3.983563
  0
VERTEX
  8
PLAN_1
  6
CONTINUOUS
 10
0.364996
 20
-3.977323
  0
VERTEX
  8
PLAN_1
  6
CONTINUOUS
 10
0.362394
 20
-3.972122
  0
VERTEX
  8
PLAN_1
  6
CONTINUOUS
 10
0.360315
 20
-3.966921
  0
VERTEX
  8
PLAN_1
  6
CONTINUOUS
 10
0.357193
 20
-3.962760
  0
VERTEX
  8
PLAN_1
  6
CONTINUOUS
 10
0.354075
 20
-3.958602
  0
VERTEX
  8
PLAN_1
  6
CONTINUOUS
 10
0.350433
 20
-3.955480
  0
VERTEX
  8
PLAN_1
  6
CONTINUOUS
 10
0.346791
 20
-3.952362
  0
VERTEX
  8
PLAN_1
  6
CONTINUOUS
 10
0.342634
 20
-3.949760
  0
VERTEX
  8
PLAN_1
  6
CONTINUOUS
 10
0.338992
 20
-3.948201
  0
VERTEX
  8
PLAN_1
  6
CONTINUOUS
 10
0.334831
 20
-3.946122
  0
VERTEX
  8
PLAN_1
  6
CONTINUOUS
 10
0.330673
 20
-3.945079
  0
VERTEX
  8
PLAN_1
  6
CONTINUOUS
 10
0.326512
 20
-3.944039
  0
VERTEX
  8
PLAN_1
  6
CONTINUOUS
 10
0.318189
 20
-3.943000
  0
VERTEX
  8
PLAN_1
  6
CONTINUOUS
 10
0.310390
 20
-3.942480
  0
VERTEX
  8
PLAN_1
  6
CONTINUOUS
 10
0.304150
 20
-3.942480
  0
VERTEX
  8
PLAN_1
  6
CONTINUOUS
 10
0.297390
 20
-3.943520
  0
VERTEX
  8
PLAN_1
  6
CONTINUOUS
 10
0.291150
 20
-3.945079
  0
VERTEX
  8
PLAN_1
  6
CONTINUOUS
 10
0.285429
 20
-3.947161
  0
VERTEX
  8
PLAN_1
  6
CONTINUOUS
 10
0.279705
 20
-3.950280
  0
VERTEX
  8
PLAN_1
  6
CONTINUOUS
 10
0.273984
 20
-3.953402
  0
VERTEX
  8
PLAN_1
  6
CONTINUOUS
 10
0.269307
 20
-3.957563
  0
VERTEX
  8
PLAN_1
  6
CONTINUOUS
 10
0.264626
 20
-3.962240
  0
VERTEX
  8
PLAN_1
  6
CONTINUOUS
 10
0.260465
 20
-3.967441
  0
VERTEX
  8
PLAN_1
  6
CONTINUOUS
 10
0.256303
 20
-3.973681
  0
VERTEX
  8
PLAN_1
  6
CONTINUOUS
 10
0.253185
 20
-3.979925
  0
VERTEX
  8
PLAN_1
  6
CONTINUOUS
 10
0.250583
 20
-3.987205
  0
VERTEX
  8
PLAN_1
  6
CONTINUOUS
 10
0.248504
 20
-3.994484
  0
VERTEX
  8
PLAN_1
  6
CONTINUOUS
 10
0.246945
 20
-4.002807
  0
VERTEX
  8
PLAN_1
  6
CONTINUOUS
 10
0.245902
 20
-4.012165
  0
VERTEX
  8
PLAN_1
  6
CONTINUOUS
 10
0.245382
 20
-4.021528
  0
VERTEX
  8
PLAN_1
  6
CONTINUOUS
 10
0.245382
 20
-4.030366
  0
VERTEX
  8
PLAN_1
  6
CONTINUOUS
 10
0.246425
 20
-4.038689
  0
VERTEX
  8
PLAN_1
  6
CONTINUOUS
 10
0.247465
 20
-4.046488
  0
VERTEX
  8
PLAN_1
  6
CONTINUOUS
 10
0.248504
 20
-4.054291
  0
VERTEX
  8
PLAN_1
  6
CONTINUOUS
 10
0.250583
 20
-4.061571
  0
VERTEX
  8
PLAN_1
  6
CONTINUOUS
 10
0.253185
 20
-4.068331
  0
VERTEX
  8
PLAN_1
  6
CONTINUOUS
 10
0.256303
 20
-4.074571
  0
VERTEX
  8
PLAN_1
  6
CONTINUOUS
 10
0.259945
 20
-4.080811
  0
VERTEX
  8
PLAN_1
  6
CONTINUOUS
 10
0.264106
 20
-4.086012
  0
VERTEX
  8
PLAN_1
  6
CONTINUOUS
 10
0.268787
 20
-4.090693
  0
VERTEX
  8
PLAN_1
  6
CONTINUOUS
 10
0.273984
 20
-4.094854
  0
VERTEX
  8
PLAN_1
  6
CONTINUOUS
 10
0.280228
 20
-4.097972
  0
VERTEX
  8
PLAN_1
  6
CONTINUOUS
 10
0.286988
 20
-4.101094
  0
VERTEX
  8
PLAN_1
  6
CONTINUOUS
 10
0.294268
 20
-4.102654
  0
VERTEX
  8
PLAN_1
  6
CONTINUOUS
 10
0.302591
 20
-4.104217
  0
VERTEX
  8
PLAN_1
  6
CONTINUOUS
 10
0.311429
 20
-4.104736
  0
VERTEX
  8
PLAN_1
  6
CONTINUOUS
 10
0.318709
 20
-4.104217
  0
VERTEX
  8
PLAN_1
  6
CONTINUOUS
 10
0.326512
 20
-4.102654
  0
VERTEX
  8
PLAN_1
  6
CONTINUOUS
 10
0.330673
 20
-4.101094
  0
VERTEX
  8
PLAN_1
  6
CONTINUOUS
 10
0.334831
 20
-4.099535
  0
VERTEX
  8
PLAN_1
  6
CONTINUOUS
 10
0.338992
 20
-4.097453
  0
VERTEX
  8
PLAN_1
  6
CONTINUOUS
 10
0.343154
 20
-4.094335
  0
VERTEX
  8
PLAN_1
  6
CONTINUOUS
 10
0.346791
 20
-4.091213
  0
VERTEX
  8
PLAN_1
  6
CONTINUOUS
 10
0.350953
 20
-4.087575
  0
VERTEX
  8
PLAN_1
  6
CONTINUOUS
 10
0.354594
 20
-4.082894
  0
VERTEX
  8
PLAN_1
  6
CONTINUOUS
 10
0.358232
 20
-4.077693
  0
VERTEX
  8
PLAN_1
  6
CONTINUOUS
 10
0.361354
 20
-4.071972
  0
VERTEX
  8
PLAN_1
  6
CONTINUOUS
 10
0.363953
 20
-4.065732
  0
VERTEX
  8
PLAN_1
  6
CONTINUOUS
 10
0.366555
 20
-4.057929
  0
VERTEX
  8
PLAN_1
  6
CONTINUOUS
 10
0.368114
 20
-4.049610
  0
VERTEX
  8
PLAN_1
  6
CONTINUOUS
 10
0.394638
 20
-4.049610
  0
VERTEX
  8
PLAN_1
  6
CONTINUOUS
 10
0.393079
 20
-4.056890
  0
VERTEX
  8
PLAN_1
  6
CONTINUOUS
 10
0.391516
 20
-4.063130
  0
VERTEX
  8
PLAN_1
  6
CONTINUOUS
 10
0.389957
 20
-4.069370
  0
VERTEX
  8
PLAN_1
  6
CONTINUOUS
 10
0.387878
 20
-4.074571
  0
VERTEX
  8
PLAN_1
  6
CONTINUOUS
 10
0.385795
 20
-4.080291
  0
VERTEX
  8
PLAN_1
  6
CONTINUOUS
 10
0.383717
 20
-4.084972
  0
VERTEX
  8
PLAN_1
  6
CONTINUOUS
 10
0.381118
 20
-4.089654
  0
VERTEX
  8
PLAN_1
  6
CONTINUOUS
 10
0.377996
 20
-4.093815
  0
VERTEX
  8
PLAN_1
  6
CONTINUOUS
 10
0.375394
 20
-4.097972
  0
VERTEX
  8
PLAN_1
  6
CONTINUOUS
 10
0.372276
 20
-4.101614
  0
VERTEX
  8
PLAN_1
  6
CONTINUOUS
 10
0.369154
 20
-4.104736
  0
VERTEX
  8
PLAN_1
  6
CONTINUOUS
 10
0.366035
 20
-4.107854
  0
VERTEX
  8
PLAN_1
  6
CONTINUOUS
 10
0.359276
 20
-4.113055
  0
VERTEX
  8
PLAN_1
  6
CONTINUOUS
 10
0.352512
 20
-4.117217
  0
VERTEX
  8
PLAN_1
  6
CONTINUOUS
 10
0.345232
 20
-4.120858
  0
VERTEX
  8
PLAN_1
  6
CONTINUOUS
 10
0.338472
 20
-4.123457
  0
VERTEX
  8
PLAN_1
  6
CONTINUOUS
 10
0.331713
 20
-4.125535
  0
VERTEX
  8
PLAN_1
  6
CONTINUOUS
 10
0.325472
 20
-4.126579
  0
VERTEX
  8
PLAN_1
  6
CONTINUOUS
 10
0.315071
 20
-4.128138
  0
VERTEX
  8
PLAN_1
  6
CONTINUOUS
 10
0.307268
 20
-4.128138
  0
VERTEX
  8
PLAN_1
  6
CONTINUOUS
 10
0.298949
 20
-4.128138
  0
VERTEX
  8
PLAN_1
  6
CONTINUOUS
 10
0.290626
 20
-4.127098
  0
VERTEX
  8
PLAN_1
  6
CONTINUOUS
 10
0.282307
 20
-4.125016
  0
VERTEX
  8
PLAN_1
  6
CONTINUOUS
 10
0.273984
 20
-4.122417
  0
VERTEX
  8
PLAN_1
  6
CONTINUOUS
 10
0.266185
 20
-4.119295
  0
VERTEX
  8
PLAN_1
  6
CONTINUOUS
 10
0.258906
 20
-4.115138
  0
VERTEX
  8
PLAN_1
  6
CONTINUOUS
 10
0.252146
 20
-4.109937
  0
VERTEX
  8
PLAN_1
  6
CONTINUOUS
 10
0.245382
 20
-4.104217
  0
VERTEX
  8
PLAN_1
  6
CONTINUOUS
 10
0.242264
 20
-4.100575
  0
VERTEX
  8
PLAN_1
  6
CONTINUOUS
 10
0.239661
 20
-4.097453
  0
VERTEX
  8
PLAN_1
  6
CONTINUOUS
 10
0.236543
 20
-4.093295
  0
VERTEX
  8
PLAN_1
  6
CONTINUOUS
 10
0.233941
 20
-4.089654
  0
VERTEX
  8
PLAN_1
  6
CONTINUOUS
 10
0.231343
 20
-4.085492
  0
VERTEX
  8
PLAN_1
  6
CONTINUOUS
 10
0.229264
 20
-4.080811
  0
VERTEX
  8
PLAN_1
  6
CONTINUOUS
 10
0.227181
 20
-4.076134
  0
VERTEX
  8
PLAN_1
  6
CONTINUOUS
 10
0.225102
 20
-4.071453
  0
VERTEX
  8
PLAN_1
  6
CONTINUOUS
 10
0.223543
 20
-4.066252
  0
VERTEX
  8
PLAN_1
  6
CONTINUOUS
 10
0.221980
 20
-4.060531
  0
VERTEX
  8
PLAN_1
  6
CONTINUOUS
 10
0.220941
 20
-4.054811
  0
VERTEX
  8
PLAN_1
  6
CONTINUOUS
 10
0.219382
 20
-4.049091
  0
VERTEX
  8
PLAN_1
  6
CONTINUOUS
 10
0.218862
 20
-4.042850
  0
VERTEX
  8
PLAN_1
  6
CONTINUOUS
 10
0.218343
 20
-4.036091
  0
VERTEX
  8
PLAN_1
  6
CONTINUOUS
 10
0.217819
 20
-4.029327
  0
VERTEX
  8
PLAN_1
  6
CONTINUOUS
 10
0.217819
 20
-4.022567
  0
VERTEX
  8
PLAN_1
  6
CONTINUOUS
 10
0.217819
 20
-4.011126
  0
VERTEX
  8
PLAN_1
  6
CONTINUOUS
 10
0.219382
 20
-4.000205
  0
VERTEX
  8
PLAN_1
  6
CONTINUOUS
 10
0.221461
 20
-3.989803
  0
VERTEX
  8
PLAN_1
  6
CONTINUOUS
 10
0.224063
 20
-3.980445
  0
VERTEX
  8
PLAN_1
  6
CONTINUOUS
 10
0.227701
 20
-3.971083
  0
VERTEX
  8
PLAN_1
  6
CONTINUOUS
 10
0.231862
 20
-3.962760
  0
VERTEX
  8
PLAN_1
  6
CONTINUOUS
 10
0.236543
 20
-3.954441
  0
VERTEX
  8
PLAN_1
  6
CONTINUOUS
 10
0.242264
 20
-3.947681
  0
VERTEX
  8
PLAN_1
  6
CONTINUOUS
 10
0.248504
 20
-3.940921
  0
VERTEX
  8
PLAN_1
  6
CONTINUOUS
 10
0.255783
 20
-3.935201
  0
VERTEX
  8
PLAN_1
  6
CONTINUOUS
 10
0.263587
 20
-3.930520
  0
VERTEX
  8
PLAN_1
  6
CONTINUOUS
 10
0.271386
 20
-3.926358
  0
VERTEX
  8
PLAN_1
  6
CONTINUOUS
 10
0.280228
 20
-3.922717
  0
VERTEX
  8
PLAN_1
  6
CONTINUOUS
 10
0.290106
 20
-3.920638
  0
VERTEX
  8
PLAN_1
  6
CONTINUOUS
 10
0.299988
 20
-3.919079
  0
VERTEX
  8
PLAN_1
  6
CONTINUOUS
 10
0.310390
 20
-3.918559
  0
VERTEX
  8
PLAN_1
  6
CONTINUOUS
 10
0.319752
 20
-3.919079
  0
VERTEX
  8
PLAN_1
  6
CONTINUOUS
 10
0.328591
 20
-3.920118
  0
VERTEX
  8
PLAN_1
  6
CONTINUOUS
 10
0.336913
 20
-3.921677
  0
VERTEX
  8
PLAN_1
  6
CONTINUOUS
 10
0.344713
 20
-3.924280
  0
VERTEX
  8
PLAN_1
  6
CONTINUOUS
 10
0.351472
 20
-3.926878
  0
VERTEX
  8
PLAN_1
  6
CONTINUOUS
 10
0.358232
 20
-3.930520
  0
VERTEX
  8
PLAN_1
  6
CONTINUOUS
 10
0.363953
 20
-3.934157
  0
VERTEX
  8
PLAN_1
  6
CONTINUOUS
 10
0.369154
 20
-3.938839
  0
VERTEX
  8
PLAN_1
  6
CONTINUOUS
 10
0.374354
 20
-3.943520
  0
VERTEX
  8
PLAN_1
  6
CONTINUOUS
 10
0.378516
 20
-3.948720
  0
VERTEX
  8
PLAN_1
  6
CONTINUOUS
 10
0.382157
 20
-3.953921
  0
VERTEX
  8
PLAN_1
  6
CONTINUOUS
 10
0.385276
 20
-3.959642
  0
VERTEX
  8
PLAN_1
  6
CONTINUOUS
 10
0.387878
 20
-3.965362
  0
VERTEX
  8
PLAN_1
  6
CONTINUOUS
 10
0.389957
 20
-3.971602
  0
VERTEX
  8
PLAN_1
  6
CONTINUOUS
 10
0.391516
 20
-3.977323
  0
VERTEX
  8
PLAN_1
  6
CONTINUOUS
 10
0.392559
 20
-3.983563
  0
VERTEX
  8
PLAN_1
  6
CONTINUOUS
 10
0.366555
 20
-3.983563
  0
SEQEND
  8
0
  0
POLYLINE
  8
PLAN_1
  6
CONTINUOUS
 66
     1
 40
0.003000
 41
0.003000
  0
VERTEX
  8
PLAN_1
  6
CONTINUOUS
 10
0.453921
 20
-4.122937
  0
VERTEX
  8
PLAN_1
  6
CONTINUOUS
 10
0.426882
 20
-4.122937
  0
VERTEX
  8
PLAN_1
  6
CONTINUOUS
 10
0.426882
 20
-3.923760
  0
VERTEX
  8
PLAN_1
  6
CONTINUOUS
 10
0.453921
 20
-3.923760
  0
VERTEX
  8
PLAN_1
  6
CONTINUOUS
 10
0.453921
 20
-4.020488
  0
VERTEX
  8
PLAN_1
  6
CONTINUOUS
 10
0.550654
 20
-3.923760
  0
VERTEX
  8
PLAN_1
  6
CONTINUOUS
 10
0.587575
 20
-3.923760
  0
VERTEX
  8
PLAN_1
  6
CONTINUOUS
 10
0.504886
 20
-4.004366
  0
VERTEX
  8
PLAN_1
  6
CONTINUOUS
 10
0.589657
 20
-4.122937
  0
VERTEX
  8
PLAN_1
  6
CONTINUOUS
 10
0.554811
 20
-4.122937
  0
VERTEX
  8
PLAN_1
  6
CONTINUOUS
 10
0.485126
 20
-4.023087
  0
VERTEX
  8
PLAN_1
  6
CONTINUOUS
 10
0.453921
 20
-4.053252
  0
VERTEX
  8
PLAN_1
  6
CONTINUOUS
 10
0.453921
 20
-4.122937
  0
SEQEND
  8
0
  0
POLYLINE
  8
PLAN_1
  6
CONTINUOUS
 66
     1
 40
0.003000
 41
0.003000
  0
VERTEX
  8
PLAN_1
  6
CONTINUOUS
 10
0.697307
 20
-4.122937
  0
VERTEX
  8
PLAN_1
  6
CONTINUOUS
 10
0.670264
 20
-4.122937
  0
VERTEX
  8
PLAN_1
  6
CONTINUOUS
 10
0.670264
 20
-4.042850
  0
VERTEX
  8
PLAN_1
  6
CONTINUOUS
 10
0.594854
 20
-3.923760
  0
VERTEX
  8
PLAN_1
  6
CONTINUOUS
 10
0.626579
 20
-3.923760
  0
VERTEX
  8
PLAN_1
  6
CONTINUOUS
 10
0.683783
 20
-4.019449
  0
VERTEX
  8
PLAN_1
  6
CONTINUOUS
 10
0.740469
 20
-3.923760
  0
VERTEX
  8
PLAN_1
  6
CONTINUOUS
 10
0.772193
 20
-3.923760
  0
VERTEX
  8
PLAN_1
  6
CONTINUOUS
 10
0.697307
 20
-4.042850
  0
VERTEX
  8
PLAN_1
  6
CONTINUOUS
 10
0.697307
 20
-4.122937
  0
SEQEND
  8
0
  0
POLYLINE
  8
PLAN_1
  6
CONTINUOUS
 66
     1
 40
0.003000
 41
0.003000
  0
VERTEX
  8
PLAN_1
  6
CONTINUOUS
 10
0.787795
 20
-3.995004
  0
VERTEX
  8
PLAN_1
  6
CONTINUOUS
 10
0.788315
 20
-3.988244
  0
VERTEX
  8
PLAN_1
  6
CONTINUOUS
 10
0.788835
 20
-3.982004
  0
VERTEX
  8
PLAN_1
  6
CONTINUOUS
 10
0.790394
 20
-3.975764
  0
VERTEX
  8
PLAN_1
  6
CONTINUOUS
 10
0.791953
 20
-3.969524
  0
VERTEX
  8
PLAN_1
  6
CONTINUOUS
 10
0.794035
 20
-3.963803
  0
VERTEX
  8
PLAN_1
  6
CONTINUOUS
 10
0.797154
 20
-3.958083
  0
VERTEX
  8
PLAN_1
  6
CONTINUOUS
 10
0.800276
 20
-3.952882
  0
VERTEX
  8
PLAN_1
  6
CONTINUOUS
 10
0.803917
 20
-3.948201
  0
VERTEX
  8
PLAN_1
  6
CONTINUOUS
 10
0.808075
 20
-3.943520
  0
VERTEX
  8
PLAN_1
  6
CONTINUOUS
 10
0.812756
 20
-3.939878
  0
VERTEX
  8
PLAN_1
  6
CONTINUOUS
 10
0.817957
 20
-3.936240
  0
VERTEX
  8
PLAN_1
  6
CONTINUOUS
 10
0.823677
 20
-3.933638
  0
VERTEX
  8
PLAN_1
  6
CONTINUOUS
 10
0.829398
 20
-3.931039
  0
VERTEX
  8
PLAN_1
  6
CONTINUOUS
 10
0.836157
 20
-3.929480
  0
VERTEX
  8
PLAN_1
  6
CONTINUOUS
 10
0.843441
 20
-3.928437
  0
VERTEX
  8
PLAN_1
  6
CONTINUOUS
 10
0.850720
 20
-3.927917
  0
VERTEX
  8
PLAN_1
  6
CONTINUOUS
 10
0.856441
 20
-3.927917
  0
VERTEX
  8
PLAN_1
  6
CONTINUOUS
 10
0.861642
 20
-3.928437
  0
VERTEX
  8
PLAN_1
  6
CONTINUOUS
 10
0.866843
 20
-3.929480
  0
VERTEX
  8
PLAN_1
  6
CONTINUOUS
 10
0.871524
 20
-3.930520
  0
VERTEX
  8
PLAN_1
  6
CONTINUOUS
 10
0.875681
 20
-3.932079
  0
VERTEX
  8
PLAN_1
  6
CONTINUOUS
 10
0.879843
 20
-3.933638
  0
VERTEX
  8
PLAN_1
  6
CONTINUOUS
 10
0.884004
 20
-3.935720
  0
VERTEX
  8
PLAN_1
  6
CONTINUOUS
 10
0.887642
 20
-3.937799
  0
VERTEX
  8
PLAN_1
  6
CONTINUOUS
 10
0.890764
 20
-3.939878
  0
VERTEX
  8
PLAN_1
  6
CONTINUOUS
 10
0.893886
 20
-3.942480
  0
VERTEX
  8
PLAN_1
  6
CONTINUOUS
 10
0.897004
 20
-3.945598
  0
VERTEX
  8
PLAN_1
  6
CONTINUOUS
 10
0.899606
 20
-3.948201
  0
VERTEX
  8
PLAN_1
  6
CONTINUOUS
 10
0.904283
 20
-3.954441
  0
VERTEX
  8
PLAN_1
  6
CONTINUOUS
 10
0.907925
 20
-3.961201
  0
VERTEX
  8
PLAN_1
  6
CONTINUOUS
 10
0.911047
 20
-3.968480
  0
VERTEX
  8
PLAN_1
  6
CONTINUOUS
 10
0.913646
 20
-3.975764
  0
VERTEX
  8
PLAN_1
  6
CONTINUOUS
 10
0.915724
 20
-3.983563
  0
VERTEX
  8
PLAN_1
  6
CONTINUOUS
 10
0.917287
 20
-3.990843
  0
VERTEX
  8
PLAN_1
  6
CONTINUOUS
 10
0.918846
 20
-4.005406
  0
VERTEX
  8
PLAN_1
  6
CONTINUOUS
 10
0.918846
 20
-4.018406
  0
VERTEX
  8
PLAN_1
  6
CONTINUOUS
 10
0.918846
 20
-4.029327
  0
VERTEX
  8
PLAN_1
  6
CONTINUOUS
 10
0.917287
 20
-4.044409
  0
VERTEX
  8
PLAN_1
  6
CONTINUOUS
 10
0.916248
 20
-4.053252
  0
VERTEX
  8
PLAN_1
  6
CONTINUOUS
 10
0.914165
 20
-4.062610
  0
VERTEX
  8
PLAN_1
  6
CONTINUOUS
 10
0.912087
 20
-4.071972
  0
VERTEX
  8
PLAN_1
  6
CONTINUOUS
 10
0.908965
 20
-4.081335
  0
VERTEX
  8
PLAN_1
  6
CONTINUOUS
 10
0.904807
 20
-4.090173
  0
VERTEX
  8
PLAN_1
  6
CONTINUOUS
 10
0.900126
 20
-4.099016
  0
VERTEX
  8
PLAN_1
  6
CONTINUOUS
 10
0.897524
 20
-4.103173
  0
VERTEX
  8
PLAN_1
  6
CONTINUOUS
 10
0.894406
 20
-4.106815
  0
VERTEX
  8
PLAN_1
  6
CONTINUOUS
 10
0.891283
 20
-4.110976
  0
VERTEX
  8
PLAN_1
  6
CONTINUOUS
 10
0.887642
 20
-4.114094
  0
VERTEX
  8
PLAN_1
  6
CONTINUOUS
 10
0.884004
 20
-4.117217
  0
VERTEX
  8
PLAN_1
  6
CONTINUOUS
 10
0.879843
 20
-4.119815
  0
VERTEX
  8
PLAN_1
  6
CONTINUOUS
 10
0.875161
 20
-4.122417
  0
VERTEX
  8
PLAN_1
  6
CONTINUOUS
 10
0.870480
 20
-4.124496
  0
VERTEX
  8
PLAN_1
  6
CONTINUOUS
 10
0.865283
 20
-4.126055
  0
VERTEX
  8
PLAN_1
  6
CONTINUOUS
 10
0.860083
 20
-4.127618
  0
VERTEX
  8
PLAN_1
  6
CONTINUOUS
 10
0.854362
 20
-4.128138
  0
VERTEX
  8
PLAN_1
  6
CONTINUOUS
 10
0.848118
 20
-4.128138
  0
VERTEX
  8
PLAN_1
  6
CONTINUOUS
 10
0.839799
 20
-4.128138
  0
VERTEX
  8
PLAN_1
  6
CONTINUOUS
 10
0.832520
 20
-4.127098
  0
VERTEX
  8
PLAN_1
  6
CONTINUOUS
 10
0.825756
 20
-4.125016
  0
VERTEX
  8
PLAN_1
  6
CONTINUOUS
 10
0.820035
 20
-4.122937
  0
VERTEX
  8
PLAN_1
  6
CONTINUOUS
 10
0.814315
 20
-4.119815
  0
VERTEX
  8
PLAN_1
  6
CONTINUOUS
 10
0.809638
 20
-4.116697
  0
VERTEX
  8
PLAN_1
  6
CONTINUOUS
 10
0.805476
 20
-4.113055
  0
VERTEX
  8
PLAN_1
  6
CONTINUOUS
 10
0.801835
 20
-4.109417
  0
VERTEX
  8
PLAN_1
  6
CONTINUOUS
 10
0.799236
 20
-4.105256
  0
VERTEX
  8
PLAN_1
  6
CONTINUOUS
 10
0.796634
 20
-4.101094
  0
VERTEX
  8
PLAN_1
  6
CONTINUOUS
 10
0.794555
 20
-4.096413
  0
VERTEX
  8
PLAN_1
  6
CONTINUOUS
 10
0.792996
 20
-4.092252
  0
VERTEX
  8
PLAN_1
  6
CONTINUOUS
 10
0.791433
 20
-4.088094
  0
VERTEX
  8
PLAN_1
  6
CONTINUOUS
 10
0.790913
 20
-4.083933
  0
VERTEX
  8
PLAN_1
  6
CONTINUOUS
 10
0.790394
 20
-4.079772
  0
VERTEX
  8
PLAN_1
  6
CONTINUOUS
 10
0.790394
 20
-4.076134
  0
VERTEX
  8
PLAN_1
  6
CONTINUOUS
 10
0.814839
 20
-4.076134
  0
VERTEX
  8
PLAN_1
  6
CONTINUOUS
 10
0.814839
 20
-4.079772
  0
VERTEX
  8
PLAN_1
  6
CONTINUOUS
 10
0.815878
 20
-4.083413
  0
VERTEX
  8
PLAN_1
  6
CONTINUOUS
 10
0.816398
 20
-4.086531
  0
VERTEX
  8
PLAN_1
  6
CONTINUOUS
 10
0.817437
 20
-4.089654
  0
VERTEX
  8
PLAN_1
  6
CONTINUOUS
 10
0.818996
 20
-4.092252
  0
VERTEX
  8
PLAN_1
  6
CONTINUOUS
 10
0.820559
 20
-4.094854
  0
VERTEX
  8
PLAN_1
  6
CONTINUOUS
 10
0.822118
 20
-4.097453
  0
VERTEX
  8
PLAN_1
  6
CONTINUOUS
 10
0.824197
 20
-4.099535
  0
VERTEX
  8
PLAN_1
  6
CONTINUOUS
 10
0.826280
 20
-4.101614
  0
VERTEX
  8
PLAN_1
  6
CONTINUOUS
 10
0.828878
 20
-4.103173
  0
VERTEX
  8
PLAN_1
  6
CONTINUOUS
 10
0.831480
 20
-4.104736
  0
VERTEX
  8
PLAN_1
  6
CONTINUOUS
 10
0.834079
 20
-4.105776
  0
VERTEX
  8
PLAN_1
  6
CONTINUOUS
 10
0.837201
 20
-4.106815
  0
VERTEX
  8
PLAN_1
  6
CONTINUOUS
 10
0.840319
 20
-4.107335
  0
VERTEX
  8
PLAN_1
  6
CONTINUOUS
 10
0.843961
 20
-4.107854
  0
VERTEX
  8
PLAN_1
  6
CONTINUOUS
 10
0.847598
 20
-4.107854
  0
VERTEX
  8
PLAN_1
  6
CONTINUOUS
 10
0.852280
 20
-4.107854
  0
VERTEX
  8
PLAN_1
  6
CONTINUOUS
 10
0.856961
 20
-4.106815
  0
VERTEX
  8
PLAN_1
  6
CONTINUOUS
 10
0.861122
 20
-4.105776
  0
VERTEX
  8
PLAN_1
  6
CONTINUOUS
 10
0.865283
 20
-4.103697
  0
VERTEX
  8
PLAN_1
  6
CONTINUOUS
 10
0.868921
 20
-4.101094
  0
VERTEX
  8
PLAN_1
  6
CONTINUOUS
 10
0.872563
 20
-4.098496
  0
VERTEX
  8
PLAN_1
  6
CONTINUOUS
 10
0.875681
 20
-4.094854
  0
VERTEX
  8
PLAN_1
  6
CONTINUOUS
 10
0.878803
 20
-4.090693
  0
VERTEX
  8
PLAN_1
  6
CONTINUOUS
 10
0.881402
 20
-4.086012
  0
VERTEX
  8
PLAN_1
  6
CONTINUOUS
 10
0.884004
 20
-4.080291
  0
VERTEX
  8
PLAN_1
  6
CONTINUOUS
 10
0.886083
 20
-4.074571
  0
VERTEX
  8
PLAN_1
  6
CONTINUOUS
 10
0.888165
 20
-4.067811
  0
VERTEX
  8
PLAN_1
  6
CONTINUOUS
 10
0.890244
 20
-4.060531
  0
VERTEX
  8
PLAN_1
  6
CONTINUOUS
 10
0.891803
 20
-4.052728
  0
VERTEX
  8
PLAN_1
  6
CONTINUOUS
 10
0.893362
 20
-4.044409
  0
VERTEX
  8
PLAN_1
  6
CONTINUOUS
 10
0.894406
 20
-4.035047
  0
VERTEX
  8
PLAN_1
  6
CONTINUOUS
 10
0.893886
 20
-4.034528
  0
VERTEX
  8
PLAN_1
  6
CONTINUOUS
 10
0.892323
 20
-4.037130
  0
VERTEX
  8
PLAN_1
  6
CONTINUOUS
 10
0.890764
 20
-4.039728
  0
VERTEX
  8
PLAN_1
  6
CONTINUOUS
 10
0.888685
 20
-4.042331
  0
VERTEX
  8
PLAN_1
  6
CONTINUOUS
 10
0.886602
 20
-4.044409
  0
VERTEX
  8
PLAN_1
  6
CONTINUOUS
 10
0.881402
 20
-4.048571
  0
VERTEX
  8
PLAN_1
  6
CONTINUOUS
 10
0.875681
 20
-4.051689
  0
VERTEX
  8
PLAN_1
  6
CONTINUOUS
 10
0.869441
 20
-4.054291
  0
VERTEX
  8
PLAN_1
  6
CONTINUOUS
 10
0.862681
 20
-4.056370
  0
VERTEX
  8
PLAN_1
  6
CONTINUOUS
 10
0.855921
 20
-4.057409
  0
VERTEX
  8
PLAN_1
  6
CONTINUOUS
 10
0.849161
 20
-4.057929
  0
VERTEX
  8
PLAN_1
  6
CONTINUOUS
 10
0.842921
 20
-4.057409
  0
VERTEX
  8
PLAN_1
  6
CONTINUOUS
 10
0.836157
 20
-4.056890
  0
VERTEX
  8
PLAN_1
  6
CONTINUOUS
 10
0.830437
 20
-4.055331
  0
VERTEX
  8
PLAN_1
  6
CONTINUOUS
 10
0.824717
 20
-4.053252
  0
VERTEX
  8
PLAN_1
  6
CONTINUOUS
 10
0.818996
 20
-4.051169
  0
VERTEX
  8
PLAN_1
  6
CONTINUOUS
 10
0.813795
 20
-4.048051
  0
VERTEX
  8
PLAN_1
  6
CONTINUOUS
 10
0.809638
 20
-4.044929
  0
VERTEX
  8
PLAN_1
  6
CONTINUOUS
 10
0.804957
 20
-4.040768
  0
VERTEX
  8
PLAN_1
  6
CONTINUOUS
 10
0.801315
 20
-4.036610
  0
VERTEX
  8
PLAN_1
  6
CONTINUOUS
 10
0.797677
 20
-4.031929
  0
VERTEX
  8
PLAN_1
  6
CONTINUOUS
 10
0.795075
 20
-4.026728
  0
VERTEX
  8
PLAN_1
  6
CONTINUOUS
 10
0.792476
 20
-4.021008
  0
VERTEX
  8
PLAN_1
  6
CONTINUOUS
 10
0.790394
 20
-4.015287
  0
VERTEX
  8
PLAN_1
  6
CONTINUOUS
 10
0.789354
 20
-4.008528
  0
VERTEX
  8
PLAN_1
  6
CONTINUOUS
 10
0.788315
 20
-4.001764
  0
VERTEX
  8
PLAN_1
  6
CONTINUOUS
 10
0.787795
 20
-3.995004
  0
SEQEND
  8
0
  0
POLYLINE
  8
PLAN_1
  6
CONTINUOUS
 66
     1
 40
0.003000
 41
0.003000
  0
VERTEX
  8
PLAN_1
  6
CONTINUOUS
 10
0.890244
 20
-3.991366
  0
VERTEX
  8
PLAN_1
  6
CONTINUOUS
 10
0.890244
 20
-3.987205
  0
VERTEX
  8
PLAN_1
  6
CONTINUOUS
 10
0.889724
 20
-3.983563
  0
VERTEX
  8
PLAN_1
  6
CONTINUOUS
 10
0.889205
 20
-3.979402
  0
VERTEX
  8
PLAN_1
  6
CONTINUOUS
 10
0.888165
 20
-3.975764
  0
VERTEX
  8
PLAN_1
  6
CONTINUOUS
 10
0.887122
 20
-3.972122
  0
VERTEX
  8
PLAN_1
  6
CONTINUOUS
 10
0.885563
 20
-3.968480
  0
VERTEX
  8
PLAN_1
  6
CONTINUOUS
 10
0.883484
 20
-3.965362
  0
VERTEX
  8
PLAN_1
  6
CONTINUOUS
 10
0.881402
 20
-3.962240
  0
VERTEX
  8
PLAN_1
  6
CONTINUOUS
 10
0.878803
 20
-3.959642
  0
VERTEX
  8
PLAN_1
  6
CONTINUOUS
 10
0.875681
 20
-3.957039
  0
VERTEX
  8
PLAN_1
  6
CONTINUOUS
 10
0.872563
 20
-3.954961
  0
VERTEX
  8
PLAN_1
  6
CONTINUOUS
 10
0.868921
 20
-3.953402
  0
VERTEX
  8
PLAN_1
  6
CONTINUOUS
 10
0.865283
 20
-3.951843
  0
VERTEX
  8
PLAN_1
  6
CONTINUOUS
 10
0.860602
 20
-3.950799
  0
VERTEX
  8
PLAN_1
  6
CONTINUOUS
 10
0.855921
 20
-3.950280
  0
VERTEX
  8
PLAN_1
  6
CONTINUOUS
 10
0.851240
 20
-3.949760
  0
VERTEX
  8
PLAN_1
  6
CONTINUOUS
 10
0.846559
 20
-3.950280
  0
VERTEX
  8
PLAN_1
  6
CONTINUOUS
 10
0.842921
 20
-3.950799
  0
VERTEX
  8
PLAN_1
  6
CONTINUOUS
 10
0.839280
 20
-3.951843
  0
VERTEX
  8
PLAN_1
  6
CONTINUOUS
 10
0.835638
 20
-3.952882
  0
VERTEX
  8
PLAN_1
  6
CONTINUOUS
 10
0.832000
 20
-3.954961
  0
VERTEX
  8
PLAN_1
  6
CONTINUOUS
 10
0.828878
 20
-3.957039
  0
VERTEX
  8
PLAN_1
  6
CONTINUOUS
 10
0.826280
 20
-3.959122
  0
VERTEX
  8
PLAN_1
  6
CONTINUOUS
 10
0.823677
 20
-3.962240
  0
VERTEX
  8
PLAN_1
  6
CONTINUOUS
 10
0.821079
 20
-3.964843
  0
VERTEX
  8
PLAN_1
  6
CONTINUOUS
 10
0.818996
 20
-3.968480
  0
VERTEX
  8
PLAN_1
  6
CONTINUOUS
 10
0.817437
 20
-3.972122
  0
VERTEX
  8
PLAN_1
  6
CONTINUOUS
 10
0.815878
 20
-3.975764
  0
VERTEX
  8
PLAN_1
  6
CONTINUOUS
 10
0.814839
 20
-3.979925
  0
VERTEX
  8
PLAN_1
  6
CONTINUOUS
 10
0.813795
 20
-3.984602
  0
VERTEX
  8
PLAN_1
  6
CONTINUOUS
 10
0.813276
 20
-3.988764
  0
VERTEX
  8
PLAN_1
  6
CONTINUOUS
 10
0.813276
 20
-3.993965
  0
VERTEX
  8
PLAN_1
  6
CONTINUOUS
 10
0.813276
 20
-4.000205
  0
VERTEX
  8
PLAN_1
  6
CONTINUOUS
 10
0.814315
 20
-4.006445
  0
VERTEX
  8
PLAN_1
  6
CONTINUOUS
 10
0.815358
 20
-4.011646
  0
VERTEX
  8
PLAN_1
  6
CONTINUOUS
 10
0.816917
 20
-4.016327
  0
VERTEX
  8
PLAN_1
  6
CONTINUOUS
 10
0.818996
 20
-4.019969
  0
VERTEX
  8
PLAN_1
  6
CONTINUOUS
 10
0.821598
 20
-4.023606
  0
VERTEX
  8
PLAN_1
  6
CONTINUOUS
 10
0.824197
 20
-4.026728
  0
VERTEX
  8
PLAN_1
  6
CONTINUOUS
 10
0.826799
 20
-4.028807
  0
VERTEX
  8
PLAN_1
  6
CONTINUOUS
 10
0.829917
 20
-4.030890
  0
VERTEX
  8
PLAN_1
  6
CONTINUOUS
 10
0.833039
 20
-4.032449
  0
VERTEX
  8
PLAN_1
  6
CONTINUOUS
 10
0.836677
 20
-4.033488
  0
VERTEX
  8
PLAN_1
  6
CONTINUOUS
 10
0.839799
 20
-4.034528
  0
VERTEX
  8
PLAN_1
  6
CONTINUOUS
 10
0.846559
 20
-4.035567
  0
VERTEX
  8
PLAN_1
  6
CONTINUOUS
 10
0.852799
 20
-4.036091
  0
VERTEX
  8
PLAN_1
  6
CONTINUOUS
 10
0.858000
 20
-4.035567
  0
VERTEX
  8
PLAN_1
  6
CONTINUOUS
 10
0.864240
 20
-4.034528
  0
VERTEX
  8
PLAN_1
  6
CONTINUOUS
 10
0.867362
 20
-4.033488
  0
VERTEX
  8
PLAN_1
  6
CONTINUOUS
 10
0.870480
 20
-4.031929
  0
VERTEX
  8
PLAN_1
  6
CONTINUOUS
 10
0.873602
 20
-4.030366
  0
VERTEX
  8
PLAN_1
  6
CONTINUOUS
 10
0.876201
 20
-4.028287
  0
VERTEX
  8
PLAN_1
  6
CONTINUOUS
 10
0.879323
 20
-4.025689
  0
VERTEX
  8
PLAN_1
  6
CONTINUOUS
 10
0.881921
 20
-4.022567
  0
VERTEX
  8
PLAN_1
  6
CONTINUOUS
 10
0.884524
 20
-4.018925
  0
VERTEX
  8
PLAN_1
  6
CONTINUOUS
 10
0.886083
 20
-4.014768
  0
VERTEX
  8
PLAN_1
  6
CONTINUOUS
 10
0.888165
 20
-4.010087
  0
VERTEX
  8
PLAN_1
  6
CONTINUOUS
 10
0.889205
 20
-4.004366
  0
VERTEX
  8
PLAN_1
  6
CONTINUOUS
 10
0.890244
 20
-3.998646
  0
VERTEX
  8
PLAN_1
  6
CONTINUOUS
 10
0.890244
 20
-3.991366
  0
SEQEND
  8
0
  0
POLYLINE
  8
PLAN_1
  6
CONTINUOUS
 66
     1
 40
0.003000
 41
0.003000
  0
VERTEX
  8
PLAN_1
  6
CONTINUOUS
 10
1.030138
 20
-4.122937
  0
VERTEX
  8
PLAN_1
  6
CONTINUOUS
 10
1.004134
 20
-4.122937
  0
VERTEX
  8
PLAN_1
  6
CONTINUOUS
 10
1.004134
 20
-3.984602
  0
VERTEX
  8
PLAN_1
  6
CONTINUOUS
 10
0.958890
 20
-3.984602
  0
VERTEX
  8
PLAN_1
  6
CONTINUOUS
 10
0.958890
 20
-3.965362
  0
VERTEX
  8
PLAN_1
  6
CONTINUOUS
 10
0.969811
 20
-3.964323
  0
VERTEX
  8
PLAN_1
  6
CONTINUOUS
 10
0.979173
 20
-3.962760
  0
VERTEX
  8
PLAN_1
  6
CONTINUOUS
 10
0.983331
 20
-3.962240
  0
VERTEX
  8
PLAN_1
  6
CONTINUOUS
 10
0.986972
 20
-3.960681
  0
VERTEX
  8
PLAN_1
  6
CONTINUOUS
 10
0.990614
 20
-3.959642
  0
VERTEX
  8
PLAN_1
  6
CONTINUOUS
 10
0.993732
 20
-3.957563
  0
VERTEX
  8
PLAN_1
  6
CONTINUOUS
 10
0.996854
 20
-3.955480
  0
VERTEX
  8
PLAN_1
  6
CONTINUOUS
 10
0.999453
 20
-3.953402
  0
VERTEX
  8
PLAN_1
  6
CONTINUOUS
 10
1.002055
 20
-3.950280
  0
VERTEX
  8
PLAN_1
  6
CONTINUOUS
 10
1.004134
 20
-3.947161
  0
VERTEX
  8
PLAN_1
  6
CONTINUOUS
 10
1.006217
 20
-3.943000
  0
VERTEX
  8
PLAN_1
  6
CONTINUOUS
 10
1.007776
 20
-3.938839
  0
VERTEX
  8
PLAN_1
  6
CONTINUOUS
 10
1.009854
 20
-3.933638
  0
VERTEX
  8
PLAN_1
  6
CONTINUOUS
 10
1.011413
 20
-3.927917
  0
VERTEX
  8
PLAN_1
  6
CONTINUOUS
 10
1.030138
 20
-3.927917
  0
VERTEX
  8
PLAN_1
  6
CONTINUOUS
 10
1.030138
 20
-4.122937
  0
SEQEND
  8
0
  0
SOLID
  8
PLAN_1
 10
1.085264
 20
-4.157780
 11
1.085264
 21
-4.143740
 12
1.239197
 22
-4.157780
 13
1.239197
 23
-4.143740
  0
POLYLINE
  8
PLAN_1
  6
CONTINUOUS
 66
     1
 40
0.003000
 41
0.003000
  0
VERTEX
  8
PLAN_1
  6
CONTINUOUS
 10
1.085264
 20
-4.157780
  0
VERTEX
  8
PLAN_1
  6
CONTINUOUS
 10
1.085264
 20
-4.143740
  0
VERTEX
  8
PLAN_1
  6
CONTINUOUS
 10
1.239197
 20
-4.143740
  0
VERTEX
  8
PLAN_1
  6
CONTINUOUS
 10
1.239197
 20
-4.157780
  0
VERTEX
  8
PLAN_1
  6
CONTINUOUS
 10
1.085264
 20
-4.157780
  0
SEQEND
  8
0
  0
POLYLINE
  8
PLAN_1
  6
CONTINUOUS
 66
     1
 40
0.003000
 41
0.003000
  0
VERTEX
  8
PLAN_1
  6
CONTINUOUS
 10
1.290161
 20
-4.122937
  0
VERTEX
  8
PLAN_1
  6
CONTINUOUS
 10
1.263118
 20
-4.122937
  0
VERTEX
  8
PLAN_1
  6
CONTINUOUS
 10
1.263118
 20
-3.923760
  0
VERTEX
  8
PLAN_1
  6
CONTINUOUS
 10
1.401453
 20
-3.923760
  0
VERTEX
  8
PLAN_1
  6
CONTINUOUS
 10
1.401453
 20
-3.947681
  0
VERTEX
  8
PLAN_1
  6
CONTINUOUS
 10
1.290161
 20
-3.947681
  0
VERTEX
  8
PLAN_1
  6
CONTINUOUS
 10
1.290161
 20
-4.008528
  0
VERTEX
  8
PLAN_1
  6
CONTINUOUS
 10
1.387929
 20
-4.008528
  0
VERTEX
  8
PLAN_1
  6
CONTINUOUS
 10
1.387929
 20
-4.032449
  0
VERTEX
  8
PLAN_1
  6
CONTINUOUS
 10
1.290161
 20
-4.032449
  0
VERTEX
  8
PLAN_1
  6
CONTINUOUS
 10
1.290161
 20
-4.122937
  0
SEQEND
  8
0
  0
SOLID
  8
PLAN_1
 10
1.420693
 20
-4.122937
 11
1.391571
 21
-4.122937
 12
1.420693
 22
-4.093815
 13
1.391571
 23
-4.093815
  0
POLYLINE
  8
PLAN_1
  6
CONTINUOUS
 66
     1
 40
0.003000
 41
0.003000
  0
VERTEX
  8
PLAN_1
  6
CONTINUOUS
 10
1.420693
 20
-4.122937
  0
VERTEX
  8
PLAN_1
  6
CONTINUOUS
 10
1.391571
 20
-4.122937
  0
VERTEX
  8
PLAN_1
  6
CONTINUOUS
 10
1.391571
 20
-4.093815
  0
VERTEX
  8
PLAN_1
  6
CONTINUOUS
 10
1.420693
 20
-4.093815
  0
VERTEX
  8
PLAN_1
  6
CONTINUOUS
 10
1.420693
 20
-4.122937
  0
SEQEND
  8
0
  0
POLYLINE
  8
PLAN_1
  6
CONTINUOUS
 66
     1
 40
0.003000
 41
0.003000
  0
VERTEX
  8
PLAN_1
  6
CONTINUOUS
 10
1.615713
 20
-4.122937
  0
VERTEX
  8
PLAN_1
  6
CONTINUOUS
 10
1.468539
 20
-4.122937
  0
VERTEX
  8
PLAN_1
  6
CONTINUOUS
 10
1.468539
 20
-3.923760
  0
VERTEX
  8
PLAN_1
  6
CONTINUOUS
 10
1.613630
 20
-3.923760
  0
VERTEX
  8
PLAN_1
  6
CONTINUOUS
 10
1.613630
 20
-3.947681
  0
VERTEX
  8
PLAN_1
  6
CONTINUOUS
 10
1.495579
 20
-3.947681
  0
VERTEX
  8
PLAN_1
  6
CONTINUOUS
 10
1.495579
 20
-4.008528
  0
VERTEX
  8
PLAN_1
  6
CONTINUOUS
 10
1.604272
 20
-4.008528
  0
VERTEX
  8
PLAN_1
  6
CONTINUOUS
 10
1.604272
 20
-4.032449
  0
VERTEX
  8
PLAN_1
  6
CONTINUOUS
 10
1.495579
 20
-4.032449
  0
VERTEX
  8
PLAN_1
  6
CONTINUOUS
 10
1.495579
 20
-4.099016
  0
VERTEX
  8
PLAN_1
  6
CONTINUOUS
 10
1.615713
 20
-4.099016
  0
VERTEX
  8
PLAN_1
  6
CONTINUOUS
 10
1.615713
 20
-4.122937
  0
SEQEND
  8
0
  0
POLYLINE
  8
PLAN_1
  6
CONTINUOUS
 66
     1
 40
0.003000
 41
0.003000
  0
VERTEX
  8
PLAN_1
  6
CONTINUOUS
 10
1.680717
 20
-4.122937
  0
VERTEX
  8
PLAN_1
  6
CONTINUOUS
 10
1.653677
 20
-4.122937
  0
VERTEX
  8
PLAN_1
  6
CONTINUOUS
 10
1.653677
 20
-3.923760
  0
VERTEX
  8
PLAN_1
  6
CONTINUOUS
 10
1.743122
 20
-3.923760
  0
VERTEX
  8
PLAN_1
  6
CONTINUOUS
 10
1.749886
 20
-3.924280
  0
VERTEX
  8
PLAN_1
  6
CONTINUOUS
 10
1.756646
 20
-3.924799
  0
VERTEX
  8
PLAN_1
  6
CONTINUOUS
 10
1.762366
 20
-3.926358
  0
VERTEX
  8
PLAN_1
  6
CONTINUOUS
 10
1.768087
 20
-3.927917
  0
VERTEX
  8
PLAN_1
  6
CONTINUOUS
 10
1.773287
 20
-3.930520
  0
VERTEX
  8
PLAN_1
  6
CONTINUOUS
 10
1.778488
 20
-3.933118
  0
VERTEX
  8
PLAN_1
  6
CONTINUOUS
 10
1.782646
 20
-3.936240
  0
VERTEX
  8
PLAN_1
  6
CONTINUOUS
 10
1.786807
 20
-3.939878
  0
VERTEX
  8
PLAN_1
  6
CONTINUOUS
 10
1.790449
 20
-3.943520
  0
VERTEX
  8
PLAN_1
  6
CONTINUOUS
 10
1.793567
 20
-3.948201
  0
VERTEX
  8
PLAN_1
  6
CONTINUOUS
 10
1.796169
 20
-3.952362
  0
VERTEX
  8
PLAN_1
  6
CONTINUOUS
 10
1.798248
 20
-3.957563
  0
VERTEX
  8
PLAN_1
  6
CONTINUOUS
 10
1.800331
 20
-3.962760
  0
VERTEX
  8
PLAN_1
  6
CONTINUOUS
 10
1.801370
 20
-3.968480
  0
VERTEX
  8
PLAN_1
  6
CONTINUOUS
 10
1.802409
 20
-3.974205
  0
VERTEX
  8
PLAN_1
  6
CONTINUOUS
 10
1.802409
 20
-3.979925
  0
VERTEX
  8
PLAN_1
  6
CONTINUOUS
 10
1.802409
 20
-3.985122
  0
VERTEX
  8
PLAN_1
  6
CONTINUOUS
 10
1.801890
 20
-3.990323
  0
VERTEX
  8
PLAN_1
  6
CONTINUOUS
 10
1.800850
 20
-3.995524
  0
VERTEX
  8
PLAN_1
  6
CONTINUOUS
 10
1.799287
 20
-4.000724
  0
VERTEX
  8
PLAN_1
  6
CONTINUOUS
 10
1.797209
 20
-4.005925
  0
VERTEX
  8
PLAN_1
  6
CONTINUOUS
 10
1.795130
 20
-4.010606
  0
VERTEX
  8
PLAN_1
  6
CONTINUOUS
 10
1.792528
 20
-4.015287
  0
VERTEX
  8
PLAN_1
  6
CONTINUOUS
 10
1.788890
 20
-4.019969
  0
VERTEX
  8
PLAN_1
  6
CONTINUOUS
 10
1.785248
 20
-4.024126
  0
VERTEX
  8
PLAN_1
  6
CONTINUOUS
 10
1.781087
 20
-4.027768
  0
VERTEX
  8
PLAN_1
  6
CONTINUOUS
 10
1.776406
 20
-4.030890
  0
VERTEX
  8
PLAN_1
  6
CONTINUOUS
 10
1.770685
 20
-4.033488
  0
VERTEX
  8
PLAN_1
  6
CONTINUOUS
 10
1.764965
 20
-4.036091
  0
VERTEX
  8
PLAN_1
  6
CONTINUOUS
 10
1.758205
 20
-4.037650
  0
VERTEX
  8
PLAN_1
  6
CONTINUOUS
 10
1.750925
 20
-4.038689
  0
VERTEX
  8
PLAN_1
  6
CONTINUOUS
 10
1.743122
 20
-4.039209
  0
VERTEX
  8
PLAN_1
  6
CONTINUOUS
 10
1.680717
 20
-4.039209
  0
VERTEX
  8
PLAN_1
  6
CONTINUOUS
 10
1.680717
 20
-4.122937
  0
SEQEND
  8
0
  0
POLYLINE
  8
PLAN_1
  6
CONTINUOUS
 66
     1
 40
0.003000
 41
0.003000
  0
VERTEX
  8
PLAN_1
  6
CONTINUOUS
 10
1.680717
 20
-4.015807
  0
VERTEX
  8
PLAN_1
  6
CONTINUOUS
 10
1.734283
 20
-4.015807
  0
VERTEX
  8
PLAN_1
  6
CONTINUOUS
 10
1.742602
 20
-4.015287
  0
VERTEX
  8
PLAN_1
  6
CONTINUOUS
 10
1.750925
 20
-4.014248
  0
VERTEX
  8
PLAN_1
  6
CONTINUOUS
 10
1.754043
 20
-4.013205
  0
VERTEX
  8
PLAN_1
  6
CONTINUOUS
 10
1.757685
 20
-4.011646
  0
VERTEX
  8
PLAN_1
  6
CONTINUOUS
 10
1.760807
 20
-4.010087
  0
VERTEX
  8
PLAN_1
  6
CONTINUOUS
 10
1.763406
 20
-4.008008
  0
VERTEX
  8
PLAN_1
  6
CONTINUOUS
 10
1.766008
 20
-4.005925
  0
VERTEX
  8
PLAN_1
  6
CONTINUOUS
 10
1.768087
 20
-4.003327
  0
VERTEX
  8
PLAN_1
  6
CONTINUOUS
 10
1.770165
 20
-4.000205
  0
VERTEX
  8
PLAN_1
  6
CONTINUOUS
 10
1.771728
 20
-3.997087
  0
VERTEX
  8
PLAN_1
  6
CONTINUOUS
 10
1.772768
 20
-3.993445
  0
VERTEX
  8
PLAN_1
  6
CONTINUOUS
 10
1.773807
 20
-3.989283
  0
VERTEX
  8
PLAN_1
  6
CONTINUOUS
 10
1.774327
 20
-3.985122
  0
VERTEX
  8
PLAN_1
  6
CONTINUOUS
 10
1.774846
 20
-3.979925
  0
VERTEX
  8
PLAN_1
  6
CONTINUOUS
 10
1.774327
 20
-3.975764
  0
VERTEX
  8
PLAN_1
  6
CONTINUOUS
 10
1.773807
 20
-3.971602
  0
VERTEX
  8
PLAN_1
  6
CONTINUOUS
 10
1.772768
 20
-3.967961
  0
VERTEX
  8
PLAN_1
  6
CONTINUOUS
 10
1.771728
 20
-3.964323
  0
VERTEX
  8
PLAN_1
  6
CONTINUOUS
 10
1.770165
 20
-3.961201
  0
VERTEX
  8
PLAN_1
  6
CONTINUOUS
 10
1.768087
 20
-3.958602
  0
VERTEX
  8
PLAN_1
  6
CONTINUOUS
 10
1.766008
 20
-3.956000
  0
VERTEX
  8
PLAN_1
  6
CONTINUOUS
 10
1.763406
 20
-3.953921
  0
VERTEX
  8
PLAN_1
  6
CONTINUOUS
 10
1.760287
 20
-3.952362
  0
VERTEX
  8
PLAN_1
  6
CONTINUOUS
 10
1.757685
 20
-3.950799
  0
VERTEX
  8
PLAN_1
  6
CONTINUOUS
 10
1.754043
 20
-3.949240
  0
VERTEX
  8
PLAN_1
  6
CONTINUOUS
 10
1.750925
 20
-3.948720
  0
VERTEX
  8
PLAN_1
  6
CONTINUOUS
 10
1.743122
 20
-3.947161
  0
VERTEX
  8
PLAN_1
  6
CONTINUOUS
 10
1.735323
 20
-3.946642
  0
VERTEX
  8
PLAN_1
  6
CONTINUOUS
 10
1.680717
 20
-3.946642
  0
VERTEX
  8
PLAN_1
  6
CONTINUOUS
 10
1.680717
 20
-4.015807
  0
SEQEND
  8
0
  0
POLYLINE
  8
PLAN_1
  6
CONTINUOUS
 66
     1
 40
0.003000
 41
0.003000
  0
VERTEX
  8
PLAN_1
  6
CONTINUOUS
 10
1.956343
 20
-3.982004
  0
VERTEX
  8
PLAN_1
  6
CONTINUOUS
 10
1.955823
 20
-3.976803
  0
VERTEX
  8
PLAN_1
  6
CONTINUOUS
 10
1.954783
 20
-3.971602
  0
VERTEX
  8
PLAN_1
  6
CONTINUOUS
 10
1.953224
 20
-3.966921
  0
VERTEX
  8
PLAN_1
  6
CONTINUOUS
 10
1.951142
 20
-3.962760
  0
VERTEX
  8
PLAN_1
  6
CONTINUOUS
 10
1.948543
 20
-3.959122
  0
VERTEX
  8
PLAN_1
  6
CONTINUOUS
 10
1.945941
 20
-3.956000
  0
VERTEX
  8
PLAN_1
  6
CONTINUOUS
 10
1.942823
 20
-3.952882
  0
VERTEX
  8
PLAN_1
  6
CONTINUOUS
 10
1.939701
 20
-3.950280
  0
VERTEX
  8
PLAN_1
  6
CONTINUOUS
 10
1.936063
 20
-3.948201
  0
VERTEX
  8
PLAN_1
  6
CONTINUOUS
 10
1.931902
 20
-3.946122
  0
VERTEX
  8
PLAN_1
  6
CONTINUOUS
 10
1.928260
 20
-3.944559
  0
VERTEX
  8
PLAN_1
  6
CONTINUOUS
 10
1.924102
 20
-3.943520
  0
VERTEX
  8
PLAN_1
  6
CONTINUOUS
 10
1.915260
 20
-3.941961
  0
VERTEX
  8
PLAN_1
  6
CONTINUOUS
 10
1.906941
 20
-3.941441
  0
VERTEX
  8
PLAN_1
  6
CONTINUOUS
 10
1.900177
 20
-3.941961
  0
VERTEX
  8
PLAN_1
  6
CONTINUOUS
 10
1.892378
 20
-3.943000
  0
VERTEX
  8
PLAN_1
  6
CONTINUOUS
 10
1.888736
 20
-3.943520
  0
VERTEX
  8
PLAN_1
  6
CONTINUOUS
 10
1.885098
 20
-3.944559
  0
VERTEX
  8
PLAN_1
  6
CONTINUOUS
 10
1.881457
 20
-3.946122
  0
VERTEX
  8
PLAN_1
  6
CONTINUOUS
 10
1.877815
 20
-3.947681
  0
VERTEX
  8
PLAN_1
  6
CONTINUOUS
 10
1.874177
 20
-3.949760
  0
VERTEX
  8
PLAN_1
  6
CONTINUOUS
 10
1.871055
 20
-3.952362
  0
VERTEX
  8
PLAN_1
  6
CONTINUOUS
 10
1.868457
 20
-3.954961
  0
VERTEX
  8
PLAN_1
  6
CONTINUOUS
 10
1.865854
 20
-3.958083
  0
VERTEX
  8
PLAN_1
  6
CONTINUOUS
 10
1.864295
 20
-3.962240
  0
VERTEX
  8
PLAN_1
  6
CONTINUOUS
 10
1.862736
 20
-3.966402
  0
VERTEX
  8
PLAN_1
  6
CONTINUOUS
 10
1.861697
 20
-3.971083
  0
VERTEX
  8
PLAN_1
  6
CONTINUOUS
 10
1.861173
 20
-3.976803
  0
VERTEX
  8
PLAN_1
  6
CONTINUOUS
 10
1.861697
 20
-3.979402
  0
VERTEX
  8
PLAN_1
  6
CONTINUOUS
 10
1.861697
 20
-3.982524
  0
VERTEX
  8
PLAN_1
  6
CONTINUOUS
 10
1.862736
 20
-3.985122
  0
VERTEX
  8
PLAN_1
  6
CONTINUOUS
 10
1.863256
 20
-3.987205
  0
VERTEX
  8
PLAN_1
  6
CONTINUOUS
 10
1.865854
 20
-3.991366
  0
VERTEX
  8
PLAN_1
  6
CONTINUOUS
 10
1.868976
 20
-3.994484
  0
VERTEX
  8
PLAN_1
  6
CONTINUOUS
 10
1.872614
 20
-3.997087
  0
VERTEX
  8
PLAN_1
  6
CONTINUOUS
 10
1.876256
 20
-3.999165
  0
VERTEX
  8
PLAN_1
  6
CONTINUOUS
 10
1.880417
 20
-4.000724
  0
VERTEX
  8
PLAN_1
  6
CONTINUOUS
 10
1.885098
 20
-4.001764
  0
VERTEX
  8
PLAN_1
  6
CONTINUOUS
 10
1.941783
 20
-4.014768
  0
VERTEX
  8
PLAN_1
  6
CONTINUOUS
 10
1.946465
 20
-4.016327
  0
VERTEX
  8
PLAN_1
  6
CONTINUOUS
 10
1.951142
 20
-4.017366
  0
VERTEX
  8
PLAN_1
  6
CONTINUOUS
 10
1.955823
 20
-4.019449
  0
VERTEX
  8
PLAN_1
  6
CONTINUOUS
 10
1.959984
 20
-4.021528
  0
VERTEX
  8
PLAN_1
  6
CONTINUOUS
 10
1.963626
 20
-4.023606
  0
VERTEX
  8
PLAN_1
  6
CONTINUOUS
 10
1.967264
 20
-4.026209
  0
VERTEX
  8
PLAN_1
  6
CONTINUOUS
 10
1.970906
 20
-4.028807
  0
VERTEX
  8
PLAN_1
  6
CONTINUOUS
 10
1.974024
 20
-4.031929
  0
VERTEX
  8
PLAN_1
  6
CONTINUOUS
 10
1.977146
 20
-4.035047
  0
VERTEX
  8
PLAN_1
  6
CONTINUOUS
 10
1.979744
 20
-4.039209
  0
VERTEX
  8
PLAN_1
  6
CONTINUOUS
 10
1.981827
 20
-4.042850
  0
VERTEX
  8
PLAN_1
  6
CONTINUOUS
 10
1.983906
 20
-4.047531
  0
VERTEX
  8
PLAN_1
  6
CONTINUOUS
 10
1.984945
 20
-4.052209
  0
VERTEX
  8
PLAN_1
  6
CONTINUOUS
 10
1.985988
 20
-4.056890
  0
VERTEX
  8
PLAN_1
  6
CONTINUOUS
 10
1.987028
 20
-4.062610
  0
VERTEX
  8
PLAN_1
  6
CONTINUOUS
 10
1.987028
 20
-4.068331
  0
VERTEX
  8
PLAN_1
  6
CONTINUOUS
 10
1.986508
 20
-4.076654
  0
VERTEX
  8
PLAN_1
  6
CONTINUOUS
 10
1.984945
 20
-4.084453
  0
VERTEX
  8
PLAN_1
  6
CONTINUOUS
 10
1.982866
 20
-4.091213
  0
VERTEX
  8
PLAN_1
  6
CONTINUOUS
 10
1.979744
 20
-4.097453
  0
VERTEX
  8
PLAN_1
  6
CONTINUOUS
 10
1.976106
 20
-4.103173
  0
VERTEX
  8
PLAN_1
  6
CONTINUOUS
 10
1.971425
 20
-4.107854
  0
VERTEX
  8
PLAN_1
  6
CONTINUOUS
 10
1.966224
 20
-4.112016
  0
VERTEX
  8
PLAN_1
  6
CONTINUOUS
 10
1.961024
 20
-4.116177
  0
VERTEX
  8
PLAN_1
  6
CONTINUOUS
 10
1.954783
 20
-4.119295
  0
VERTEX
  8
PLAN_1
  6
CONTINUOUS
 10
1.948543
 20
-4.121898
  0
VERTEX
  8
PLAN_1
  6
CONTINUOUS
 10
1.942303
 20
-4.123976
  0
VERTEX
  8
PLAN_1
  6
CONTINUOUS
 10
1.935543
 20
-4.125535
  0
VERTEX
  8
PLAN_1
  6
CONTINUOUS
 10
1.928780
 20
-4.127098
  0
VERTEX
  8
PLAN_1
  6
CONTINUOUS
 10
1.922020
 20
-4.127618
  0
VERTEX
  8
PLAN_1
  6
CONTINUOUS
 10
1.915780
 20
-4.128138
  0
VERTEX
  8
PLAN_1
  6
CONTINUOUS
 10
1.909020
 20
-4.128138
  0
VERTEX
  8
PLAN_1
  6
CONTINUOUS
 10
1.896539
 20
-4.127618
  0
VERTEX
  8
PLAN_1
  6
CONTINUOUS
 10
1.885618
 20
-4.126579
  0
VERTEX
  8
PLAN_1
  6
CONTINUOUS
 10
1.876256
 20
-4.124496
  0
VERTEX
  8
PLAN_1
  6
CONTINUOUS
 10
1.868457
 20
-4.121898
  0
VERTEX
  8
PLAN_1
  6
CONTINUOUS
 10
1.862217
 20
-4.118776
  0
VERTEX
  8
PLAN_1
  6
CONTINUOUS
 10
1.857016
 20
-4.115657
  0
VERTEX
  8
PLAN_1
  6
CONTINUOUS
 10
1.852335
 20
-4.112535
  0
VERTEX
  8
PLAN_1
  6
CONTINUOUS
 10
1.848693
 20
-4.109417
  0
VERTEX
  8
PLAN_1
  6
CONTINUOUS
 10
1.842972
 20
-4.103173
  0
VERTEX
  8
PLAN_1
  6
CONTINUOUS
 10
1.838811
 20
-4.097453
  0
VERTEX
  8
PLAN_1
  6
CONTINUOUS
 10
1.835173
 20
-4.091213
  0
VERTEX
  8
PLAN_1
  6
CONTINUOUS
 10
1.832571
 20
-4.084972
  0
VERTEX
  8
PLAN_1
  6
CONTINUOUS
 10
1.830492
 20
-4.078732
  0
VERTEX
  8
PLAN_1
  6
CONTINUOUS
 10
1.829453
 20
-4.072492
  0
VERTEX
  8
PLAN_1
  6
CONTINUOUS
 10
1.828933
 20
-4.065732
  0
VERTEX
  8
PLAN_1
  6
CONTINUOUS
 10
1.828413
 20
-4.058449
  0
VERTEX
  8
PLAN_1
  6
CONTINUOUS
 10
1.853894
 20
-4.058449
  0
VERTEX
  8
PLAN_1
  6
CONTINUOUS
 10
1.854413
 20
-4.065213
  0
VERTEX
  8
PLAN_1
  6
CONTINUOUS
 10
1.855453
 20
-4.070933
  0
VERTEX
  8
PLAN_1
  6
CONTINUOUS
 10
1.857016
 20
-4.076654
  0
VERTEX
  8
PLAN_1
  6
CONTINUOUS
 10
1.859094
 20
-4.081335
  0
VERTEX
  8
PLAN_1
  6
CONTINUOUS
 10
1.861697
 20
-4.085492
  0
VERTEX
  8
PLAN_1
  6
CONTINUOUS
 10
1.864295
 20
-4.089134
  0
VERTEX
  8
PLAN_1
  6
CONTINUOUS
 10
1.867937
 20
-4.092776
  0
VERTEX
  8
PLAN_1
  6
CONTINUOUS
 10
1.871575
 20
-4.095374
  0
VERTEX
  8
PLAN_1
  6
CONTINUOUS
 10
1.875736
 20
-4.097972
  0
VERTEX
  8
PLAN_1
  6
CONTINUOUS
 10
1.880417
 20
-4.100055
  0
VERTEX
  8
PLAN_1
  6
CONTINUOUS
 10
1.884579
 20
-4.101614
  0
VERTEX
  8
PLAN_1
  6
CONTINUOUS
 10
1.889256
 20
-4.103173
  0
VERTEX
  8
PLAN_1
  6
CONTINUOUS
 10
1.894457
 20
-4.104217
  0
VERTEX
  8
PLAN_1
  6
CONTINUOUS
 10
1.899138
 20
-4.104736
  0
VERTEX
  8
PLAN_1
  6
CONTINUOUS
 10
1.903819
 20
-4.105256
  0
VERTEX
  8
PLAN_1
  6
CONTINUOUS
 10
1.909020
 20
-4.105256
  0
VERTEX
  8
PLAN_1
  6
CONTINUOUS
 10
1.916819
 20
-4.105256
  0
VERTEX
  8
PLAN_1
  6
CONTINUOUS
 10
1.925142
 20
-4.104217
  0
VERTEX
  8
PLAN_1
  6
CONTINUOUS
 10
1.929303
 20
-4.103173
  0
VERTEX
  8
PLAN_1
  6
CONTINUOUS
 10
1.933980
 20
-4.102134
  0
VERTEX
  8
PLAN_1
  6
CONTINUOUS
 10
1.938142
 20
-4.101094
  0
VERTEX
  8
PLAN_1
  6
CONTINUOUS
 10
1.942303
 20
-4.099016
  0
VERTEX
  8
PLAN_1
  6
CONTINUOUS
 10
1.945941
 20
-4.097453
  0
VERTEX
  8
PLAN_1
  6
CONTINUOUS
 10
1.949583
 20
-4.094854
  0
VERTEX
  8
PLAN_1
  6
CONTINUOUS
 10
1.952705
 20
-4.092252
  0
VERTEX
  8
PLAN_1
  6
CONTINUOUS
 10
1.955823
 20
-4.089134
  0
VERTEX
  8
PLAN_1
  6
CONTINUOUS
 10
1.957906
 20
-4.085492
  0
VERTEX
  8
PLAN_1
  6
CONTINUOUS
 10
1.959465
 20
-4.081335
  0
VERTEX
  8
PLAN_1
  6
CONTINUOUS
 10
1.960504
 20
-4.076654
  0
VERTEX
  8
PLAN_1
  6
CONTINUOUS
 10
1.961024
 20
-4.071972
  0
VERTEX
  8
PLAN_1
  6
CONTINUOUS
 10
1.961024
 20
-4.067811
  0
VERTEX
  8
PLAN_1
  6
CONTINUOUS
 10
1.960504
 20
-4.064693
  0
VERTEX
  8
PLAN_1
  6
CONTINUOUS
 10
1.959984
 20
-4.061571
  0
VERTEX
  8
PLAN_1
  6
CONTINUOUS
 10
1.958945
 20
-4.058449
  0
VERTEX
  8
PLAN_1
  6
CONTINUOUS
 10
1.957906
 20
-4.055850
  0
VERTEX
  8
PLAN_1
  6
CONTINUOUS
 10
1.956343
 20
-4.053252
  0
VERTEX
  8
PLAN_1
  6
CONTINUOUS
 10
1.954264
 20
-4.051169
  0
VERTEX
  8
PLAN_1
  6
CONTINUOUS
 10
1.952185
 20
-4.049091
  0
VERTEX
  8
PLAN_1
  6
CONTINUOUS
 10
1.949583
 20
-4.047531
  0
VERTEX
  8
PLAN_1
  6
CONTINUOUS
 10
1.946465
 20
-4.045449
  0
VERTEX
  8
PLAN_1
  6
CONTINUOUS
 10
1.942823
 20
-4.043890
  0
VERTEX
  8
PLAN_1
  6
CONTINUOUS
 10
1.939181
 20
-4.042331
  0
VERTEX
  8
PLAN_1
  6
CONTINUOUS
 10
1.929823
 20
-4.039209
  0
VERTEX
  8
PLAN_1
  6
CONTINUOUS
 10
1.918382
 20
-4.036610
  0
VERTEX
  8
PLAN_1
  6
CONTINUOUS
 10
1.877815
 20
-4.027248
  0
VERTEX
  8
PLAN_1
  6
CONTINUOUS
 10
1.872094
 20
-4.025689
  0
VERTEX
  8
PLAN_1
  6
CONTINUOUS
 10
1.865854
 20
-4.023087
  0
VERTEX
  8
PLAN_1
  6
CONTINUOUS
 10
1.862217
 20
-4.022047
  0
VERTEX
  8
PLAN_1
  6
CONTINUOUS
 10
1.858575
 20
-4.019969
  0
VERTEX
  8
PLAN_1
  6
CONTINUOUS
 10
1.854933
 20
-4.017886
  0
VERTEX
  8
PLAN_1
  6
CONTINUOUS
 10
1.851815
 20
-4.015287
  0
VERTEX
  8
PLAN_1
  6
CONTINUOUS
 10
1.848173
 20
-4.012685
  0
VERTEX
  8
PLAN_1
  6
CONTINUOUS
 10
1.845055
 20
-4.009567
  0
VERTEX
  8
PLAN_1
  6
CONTINUOUS
 10
1.842453
 20
-4.005925
  0
VERTEX
  8
PLAN_1
  6
CONTINUOUS
 10
1.839854
 20
-4.001764
  0
VERTEX
  8
PLAN_1
  6
CONTINUOUS
 10
1.838291
 20
-3.997087
  0
VERTEX
  8
PLAN_1
  6
CONTINUOUS
 10
1.836732
 20
-3.991886
  0
VERTEX
  8
PLAN_1
  6
CONTINUOUS
 10
1.835693
 20
-3.986165
  0
VERTEX
  8
PLAN_1
  6
CONTINUOUS
 10
1.835173
 20
-3.979925
  0
VERTEX
  8
PLAN_1
  6
CONTINUOUS
 10
1.835693
 20
-3.974205
  0
VERTEX
  8
PLAN_1
  6
CONTINUOUS
 10
1.836213
 20
-3.968480
  0
VERTEX
  8
PLAN_1
  6
CONTINUOUS
 10
1.837252
 20
-3.962760
  0
VERTEX
  8
PLAN_1
  6
CONTINUOUS
 10
1.839335
 20
-3.957563
  0
VERTEX
  8
PLAN_1
  6
CONTINUOUS
 10
1.841413
 20
-3.951843
  0
VERTEX
  8
PLAN_1
  6
CONTINUOUS
 10
1.844012
 20
-3.947161
  0
VERTEX
  8
PLAN_1
  6
CONTINUOUS
 10
1.847654
 20
-3.941961
  0
VERTEX
  8
PLAN_1
  6
CONTINUOUS
 10
1.851295
 20
-3.937799
  0
VERTEX
  8
PLAN_1
  6
CONTINUOUS
 10
1.855972
 20
-3.933638
  0
VERTEX
  8
PLAN_1
  6
CONTINUOUS
 10
1.861173
 20
-3.930000
  0
VERTEX
  8
PLAN_1
  6
CONTINUOUS
 10
1.866374
 20
-3.926358
  0
VERTEX
  8
PLAN_1
  6
CONTINUOUS
 10
1.872614
 20
-3.923760
  0
VERTEX
  8
PLAN_1
  6
CONTINUOUS
 10
1.879378
 20
-3.921677
  0
VERTEX
  8
PLAN_1
  6
CONTINUOUS
 10
1.887177
 20
-3.920118
  0
VERTEX
  8
PLAN_1
  6
CONTINUOUS
 10
1.894976
 20
-3.919079
  0
VERTEX
  8
PLAN_1
  6
CONTINUOUS
 10
1.903819
 20
-3.918559
  0
VERTEX
  8
PLAN_1
  6
CONTINUOUS
 10
1.916299
 20
-3.919079
  0
VERTEX
  8
PLAN_1
  6
CONTINUOUS
 10
1.927220
 20
-3.920638
  0
VERTEX
  8
PLAN_1
  6
CONTINUOUS
 10
1.936583
 20
-3.922717
  0
VERTEX
  8
PLAN_1
  6
CONTINUOUS
 10
1.945421
 20
-3.925319
  0
VERTEX
  8
PLAN_1
  6
CONTINUOUS
 10
1.952705
 20
-3.928957
  0
VERTEX
  8
PLAN_1
  6
CONTINUOUS
 10
1.958945
 20
-3.933118
  0
VERTEX
  8
PLAN_1
  6
CONTINUOUS
 10
1.964146
 20
-3.937280
  0
VERTEX
  8
PLAN_1
  6
CONTINUOUS
 10
1.968303
 20
-3.941961
  0
VERTEX
  8
PLAN_1
  6
CONTINUOUS
 10
1.971945
 20
-3.947161
  0
VERTEX
  8
PLAN_1
  6
CONTINUOUS
 10
1.975067
 20
-3.952362
  0
VERTEX
  8
PLAN_1
  6
CONTINUOUS
 10
1.977146
 20
-3.957563
  0
VERTEX
  8
PLAN_1
  6
CONTINUOUS
 10
1.978705
 20
-3.962760
  0
VERTEX
  8
PLAN_1
  6
CONTINUOUS
 10
1.980787
 20
-3.973161
  0
VERTEX
  8
PLAN_1
  6
CONTINUOUS
 10
1.981307
 20
-3.982004
  0
VERTEX
  8
PLAN_1
  6
CONTINUOUS
 10
1.956343
 20
-3.982004
  0
SEQEND
  8
0
  0
POLYLINE
  8
PLAN_1
 62
     5
  6
CONTINUOUS
 66
     1
 40
0.003000
 41
0.003000
  0
VERTEX
  8
PLAN_1
 62
     5
  6
CONTINUOUS
 10
-1.986146
 20
-1.083252
  0
VERTEX
  8
PLAN_1
 62
     5
  6
CONTINUOUS
 10
-1.986146
 20
-1.074929
  0
SEQEND
  8
0
  0
POLYLINE
  8
PLAN_1
 62
     5
  6
CONTINUOUS
 66
     1
 40
0.003000
 41
0.003000
  0
VERTEX
  8
PLAN_1
 62
     5
  6
CONTINUOUS
 10
-1.986146
 20
-1.066610
  0
VERTEX
  8
PLAN_1
 62
     5
  6
CONTINUOUS
 10
-1.986146
 20
-1.058291
  0
SEQEND
  8
0
  0
POLYLINE
  8
PLAN_1
 62
     5
  6
CONTINUOUS
 66
     1
 40
0.003000
 41
0.003000
  0
VERTEX
  8
PLAN_1
 62
     5
  6
CONTINUOUS
 10
-1.986146
 20
-1.049969
  0
VERTEX
  8
PLAN_1
 62
     5
  6
CONTINUOUS
 10
-1.986146
 20
-1.041650
  0
SEQEND
  8
0
  0
POLYLINE
  8
PLAN_1
 62
     5
  6
CONTINUOUS
 66
     1
 40
0.003000
 41
0.003000
  0
VERTEX
  8
PLAN_1
 62
     5
  6
CONTINUOUS
 10
-1.986146
 20
-1.033327
  0
VERTEX
  8
PLAN_1
 62
     5
  6
CONTINUOUS
 10
-1.986146
 20
-1.025008
  0
SEQEND
  8
0
  0
POLYLINE
  8
PLAN_1
 62
     5
  6
CONTINUOUS
 66
     1
 40
0.003000
 41
0.003000
  0
VERTEX
  8
PLAN_1
 62
     5
  6
CONTINUOUS
 10
-1.986146
 20
-1.016685
  0
VERTEX
  8
PLAN_1
 62
     5
  6
CONTINUOUS
 10
-1.986146
 20
-1.008366
  0
SEQEND
  8
0
  0
POLYLINE
  8
PLAN_1
 62
     5
  6
CONTINUOUS
 66
     1
 40
0.003000
 41
0.003000
  0
VERTEX
  8
PLAN_1
 62
     5
  6
CONTINUOUS
 10
-1.986146
 20
-1.000043
  0
VERTEX
  8
PLAN_1
 62
     5
  6
CONTINUOUS
 10
-1.986146
 20
-0.991724
  0
SEQEND
  8
0
  0
POLYLINE
  8
PLAN_1
 62
     5
  6
CONTINUOUS
 66
     1
 40
0.003000
 41
0.003000
  0
VERTEX
  8
PLAN_1
 62
     5
  6
CONTINUOUS
 10
-1.986146
 20
-0.983402
  0
VERTEX
  8
PLAN_1
 62
     5
  6
CONTINUOUS
 10
-1.986146
 20
-0.975083
  0
SEQEND
  8
0
  0
POLYLINE
  8
PLAN_1
 62
     5
  6
CONTINUOUS
 66
     1
 40
0.003000
 41
0.003000
  0
VERTEX
  8
PLAN_1
 62
     5
  6
CONTINUOUS
 10
-1.986146
 20
-0.966760
  0
VERTEX
  8
PLAN_1
 62
     5
  6
CONTINUOUS
 10
-1.986146
 20
-0.958441
  0
SEQEND
  8
0
  0
POLYLINE
  8
PLAN_1
 62
     5
  6
CONTINUOUS
 66
     1
 40
0.003000
 41
0.003000
  0
VERTEX
  8
PLAN_1
 62
     5
  6
CONTINUOUS
 10
-1.986146
 20
-0.950118
  0
VERTEX
  8
PLAN_1
 62
     5
  6
CONTINUOUS
 10
-1.986146
 20
-0.941799
  0
SEQEND
  8
0
  0
POLYLINE
  8
PLAN_1
 62
     5
  6
CONTINUOUS
 66
     1
 40
0.003000
 41
0.003000
  0
VERTEX
  8
PLAN_1
 62
     5
  6
CONTINUOUS
 10
-1.986146
 20
-0.933476
  0
VERTEX
  8
PLAN_1
 62
     5
  6
CONTINUOUS
 10
-1.986146
 20
-0.925157
  0
SEQEND
  8
0
  0
POLYLINE
  8
PLAN_1
 62
     5
  6
CONTINUOUS
 66
     1
 40
0.003000
 41
0.003000
  0
VERTEX
  8
PLAN_1
 62
     5
  6
CONTINUOUS
 10
-1.986146
 20
-0.916835
  0
VERTEX
  8
PLAN_1
 62
     5
  6
CONTINUOUS
 10
-1.986146
 20
-0.908516
  0
SEQEND
  8
0
  0
POLYLINE
  8
PLAN_1
 62
     5
  6
CONTINUOUS
 66
     1
 40
0.003000
 41
0.003000
  0
VERTEX
  8
PLAN_1
 62
     5
  6
CONTINUOUS
 10
-1.986146
 20
-0.900193
  0
VERTEX
  8
PLAN_1
 62
     5
  6
CONTINUOUS
 10
-1.986146
 20
-0.891874
  0
SEQEND
  8
0
  0
POLYLINE
  8
PLAN_1
 62
     5
  6
CONTINUOUS
 66
     1
 40
0.003000
 41
0.003000
  0
VERTEX
  8
PLAN_1
 62
     5
  6
CONTINUOUS
 10
-1.986146
 20
-0.883551
  0
VERTEX
  8
PLAN_1
 62
     5
  6
CONTINUOUS
 10
-1.986146
 20
-0.875232
  0
SEQEND
  8
0
  0
POLYLINE
  8
PLAN_1
 62
     5
  6
CONTINUOUS
 66
     1
 40
0.003000
 41
0.003000
  0
VERTEX
  8
PLAN_1
 62
     5
  6
CONTINUOUS
 10
-1.986146
 20
-0.866913
  0
VERTEX
  8
PLAN_1
 62
     5
  6
CONTINUOUS
 10
-1.986146
 20
-0.858591
  0
SEQEND
  8
0
  0
POLYLINE
  8
PLAN_1
 62
     5
  6
CONTINUOUS
 66
     1
 40
0.003000
 41
0.003000
  0
VERTEX
  8
PLAN_1
 62
     5
  6
CONTINUOUS
 10
-1.986146
 20
-0.850272
  0
VERTEX
  8
PLAN_1
 62
     5
  6
CONTINUOUS
 10
-1.986146
 20
-0.841949
  0
SEQEND
  8
0
  0
POLYLINE
  8
PLAN_1
 62
     5
  6
CONTINUOUS
 66
     1
 40
0.003000
 41
0.003000
  0
VERTEX
  8
PLAN_1
 62
     5
  6
CONTINUOUS
 10
-1.986146
 20
-0.833630
  0
VERTEX
  8
PLAN_1
 62
     5
  6
CONTINUOUS
 10
-1.986146
 20
-0.825307
  0
SEQEND
  8
0
  0
POLYLINE
  8
PLAN_1
 62
     5
  6
CONTINUOUS
 66
     1
 40
0.003000
 41
0.003000
  0
VERTEX
  8
PLAN_1
 62
     5
  6
CONTINUOUS
 10
-1.986146
 20
-0.816988
  0
VERTEX
  8
PLAN_1
 62
     5
  6
CONTINUOUS
 10
-1.986146
 20
-0.808665
  0
SEQEND
  8
0
  0
POLYLINE
  8
PLAN_1
 62
     5
  6
CONTINUOUS
 66
     1
 40
0.003000
 41
0.003000
  0
VERTEX
  8
PLAN_1
 62
     5
  6
CONTINUOUS
 10
-1.986146
 20
-0.800346
  0
VERTEX
  8
PLAN_1
 62
     5
  6
CONTINUOUS
 10
-1.986146
 20
-0.792024
  0
SEQEND
  8
0
  0
POLYLINE
  8
PLAN_1
 62
     5
  6
CONTINUOUS
 66
     1
 40
0.003000
 41
0.003000
  0
VERTEX
  8
PLAN_1
 62
     5
  6
CONTINUOUS
 10
-1.986146
 20
-0.783705
  0
VERTEX
  8
PLAN_1
 62
     5
  6
CONTINUOUS
 10
-1.986146
 20
-0.775382
  0
SEQEND
  8
0
  0
POLYLINE
  8
PLAN_1
 62
     5
  6
CONTINUOUS
 66
     1
 40
0.003000
 41
0.003000
  0
VERTEX
  8
PLAN_1
 62
     5
  6
CONTINUOUS
 10
-1.986146
 20
-0.767063
  0
VERTEX
  8
PLAN_1
 62
     5
  6
CONTINUOUS
 10
-1.986146
 20
-0.758740
  0
SEQEND
  8
0
  0
POLYLINE
  8
PLAN_1
 62
     5
  6
CONTINUOUS
 66
     1
 40
0.003000
 41
0.003000
  0
VERTEX
  8
PLAN_1
 62
     5
  6
CONTINUOUS
 10
-1.986146
 20
-0.750421
  0
VERTEX
  8
PLAN_1
 62
     5
  6
CONTINUOUS
 10
-1.986146
 20
-0.742098
  0
SEQEND
  8
0
  0
POLYLINE
  8
PLAN_1
 62
     5
  6
CONTINUOUS
 66
     1
 40
0.003000
 41
0.003000
  0
VERTEX
  8
PLAN_1
 62
     5
  6
CONTINUOUS
 10
-1.986146
 20
-0.733780
  0
VERTEX
  8
PLAN_1
 62
     5
  6
CONTINUOUS
 10
-1.986146
 20
-0.725457
  0
SEQEND
  8
0
  0
POLYLINE
  8
PLAN_1
 62
     5
  6
CONTINUOUS
 66
     1
 40
0.003000
 41
0.003000
  0
VERTEX
  8
PLAN_1
 62
     5
  6
CONTINUOUS
 10
-1.986146
 20
-0.717138
  0
VERTEX
  8
PLAN_1
 62
     5
  6
CONTINUOUS
 10
-1.986146
 20
-0.708815
  0
SEQEND
  8
0
  0
POLYLINE
  8
PLAN_1
 62
     5
  6
CONTINUOUS
 66
     1
 40
0.003000
 41
0.003000
  0
VERTEX
  8
PLAN_1
 62
     5
  6
CONTINUOUS
 10
-1.986146
 20
-0.700496
  0
VERTEX
  8
PLAN_1
 62
     5
  6
CONTINUOUS
 10
-1.986146
 20
-0.692173
  0
SEQEND
  8
0
  0
POLYLINE
  8
PLAN_1
 62
     5
  6
CONTINUOUS
 66
     1
 40
0.003000
 41
0.003000
  0
VERTEX
  8
PLAN_1
 62
     5
  6
CONTINUOUS
 10
-1.986146
 20
-0.683854
  0
VERTEX
  8
PLAN_1
 62
     5
  6
CONTINUOUS
 10
-1.986146
 20
-0.675535
  0
SEQEND
  8
0
  0
POLYLINE
  8
PLAN_1
 62
     5
  6
CONTINUOUS
 66
     1
 40
0.003000
 41
0.003000
  0
VERTEX
  8
PLAN_1
 62
     5
  6
CONTINUOUS
 10
-1.986146
 20
-0.667213
  0
VERTEX
  8
PLAN_1
 62
     5
  6
CONTINUOUS
 10
-1.986146
 20
-0.658894
  0
SEQEND
  8
0
  0
POLYLINE
  8
PLAN_1
 62
     5
  6
CONTINUOUS
 66
     1
 40
0.003000
 41
0.003000
  0
VERTEX
  8
PLAN_1
 62
     5
  6
CONTINUOUS
 10
-1.986146
 20
-0.650571
  0
VERTEX
  8
PLAN_1
 62
     5
  6
CONTINUOUS
 10
-1.986146
 20
-0.642252
  0
SEQEND
  8
0
  0
POLYLINE
  8
PLAN_1
 62
     5
  6
CONTINUOUS
 66
     1
 40
0.003000
 41
0.003000
  0
VERTEX
  8
PLAN_1
 62
     5
  6
CONTINUOUS
 10
-1.986146
 20
-0.633929
  0
VERTEX
  8
PLAN_1
 62
     5
  6
CONTINUOUS
 10
-1.986146
 20
-0.625610
  0
SEQEND
  8
0
  0
POLYLINE
  8
PLAN_1
 62
     5
  6
CONTINUOUS
 66
     1
 40
0.003000
 41
0.003000
  0
VERTEX
  8
PLAN_1
 62
     5
  6
CONTINUOUS
 10
-1.986146
 20
-0.617287
  0
VERTEX
  8
PLAN_1
 62
     5
  6
CONTINUOUS
 10
-1.986146
 20
-0.608969
  0
SEQEND
  8
0
  0
POLYLINE
  8
PLAN_1
 62
     5
  6
CONTINUOUS
 66
     1
 40
0.003000
 41
0.003000
  0
VERTEX
  8
PLAN_1
 62
     5
  6
CONTINUOUS
 10
-1.986146
 20
-0.600646
  0
VERTEX
  8
PLAN_1
 62
     5
  6
CONTINUOUS
 10
-1.986146
 20
-0.592327
  0
SEQEND
  8
0
  0
POLYLINE
  8
PLAN_1
 62
     5
  6
CONTINUOUS
 66
     1
 40
0.003000
 41
0.003000
  0
VERTEX
  8
PLAN_1
 62
     5
  6
CONTINUOUS
 10
-1.986146
 20
-0.584004
  0
VERTEX
  8
PLAN_1
 62
     5
  6
CONTINUOUS
 10
-1.986146
 20
-0.575165
  0
SEQEND
  8
0
  0
POLYLINE
  8
PLAN_1
 62
     5
  6
CONTINUOUS
 66
     1
 40
0.003000
 41
0.003000
  0
VERTEX
  8
PLAN_1
 62
     5
  6
CONTINUOUS
 10
-1.986146
 20
-0.566843
  0
VERTEX
  8
PLAN_1
 62
     5
  6
CONTINUOUS
 10
-1.986146
 20
-0.558524
  0
SEQEND
  8
0
  0
POLYLINE
  8
PLAN_1
 62
     5
  6
CONTINUOUS
 66
     1
 40
0.003000
 41
0.003000
  0
VERTEX
  8
PLAN_1
 62
     5
  6
CONTINUOUS
 10
-1.986146
 20
-0.550201
  0
VERTEX
  8
PLAN_1
 62
     5
  6
CONTINUOUS
 10
-1.986146
 20
-0.541882
  0
SEQEND
  8
0
  0
POLYLINE
  8
PLAN_1
 62
     5
  6
CONTINUOUS
 66
     1
 40
0.003000
 41
0.003000
  0
VERTEX
  8
PLAN_1
 62
     5
  6
CONTINUOUS
 10
-1.986146
 20
-0.533559
  0
VERTEX
  8
PLAN_1
 62
     5
  6
CONTINUOUS
 10
-1.986146
 20
-0.525240
  0
SEQEND
  8
0
  0
POLYLINE
  8
PLAN_1
 62
     5
  6
CONTINUOUS
 66
     1
 40
0.003000
 41
0.003000
  0
VERTEX
  8
PLAN_1
 62
     5
  6
CONTINUOUS
 10
-1.986146
 20
-0.516917
  0
VERTEX
  8
PLAN_1
 62
     5
  6
CONTINUOUS
 10
-1.986146
 20
-0.508598
  0
SEQEND
  8
0
  0
POLYLINE
  8
PLAN_1
 62
     5
  6
CONTINUOUS
 66
     1
 40
0.003000
 41
0.003000
  0
VERTEX
  8
PLAN_1
 62
     5
  6
CONTINUOUS
 10
-1.986146
 20
-0.500276
  0
VERTEX
  8
PLAN_1
 62
     5
  6
CONTINUOUS
 10
-1.986146
 20
-0.491957
  0
SEQEND
  8
0
  0
POLYLINE
  8
PLAN_1
 62
     5
  6
CONTINUOUS
 66
     1
 40
0.003000
 41
0.003000
  0
VERTEX
  8
PLAN_1
 62
     5
  6
CONTINUOUS
 10
-1.986146
 20
-0.483634
  0
VERTEX
  8
PLAN_1
 62
     5
  6
CONTINUOUS
 10
-1.986146
 20
-0.475315
  0
SEQEND
  8
0
  0
POLYLINE
  8
PLAN_1
 62
     5
  6
CONTINUOUS
 66
     1
 40
0.003000
 41
0.003000
  0
VERTEX
  8
PLAN_1
 62
     5
  6
CONTINUOUS
 10
-1.986146
 20
-0.466992
  0
VERTEX
  8
PLAN_1
 62
     5
  6
CONTINUOUS
 10
-1.986146
 20
-0.458673
  0
SEQEND
  8
0
  0
POLYLINE
  8
PLAN_1
 62
     5
  6
CONTINUOUS
 66
     1
 40
0.003000
 41
0.003000
  0
VERTEX
  8
PLAN_1
 62
     5
  6
CONTINUOUS
 10
-1.986146
 20
-0.450354
  0
VERTEX
  8
PLAN_1
 62
     5
  6
CONTINUOUS
 10
-1.986146
 20
-0.442031
  0
SEQEND
  8
0
  0
POLYLINE
  8
PLAN_1
 62
     5
  6
CONTINUOUS
 66
     1
 40
0.003000
 41
0.003000
  0
VERTEX
  8
PLAN_1
 62
     5
  6
CONTINUOUS
 10
-1.986146
 20
-0.433713
  0
VERTEX
  8
PLAN_1
 62
     5
  6
CONTINUOUS
 10
-1.986146
 20
-0.425390
  0
SEQEND
  8
0
  0
POLYLINE
  8
PLAN_1
 62
     5
  6
CONTINUOUS
 66
     1
 40
0.003000
 41
0.003000
  0
VERTEX
  8
PLAN_1
 62
     5
  6
CONTINUOUS
 10
-1.986146
 20
-0.417071
  0
VERTEX
  8
PLAN_1
 62
     5
  6
CONTINUOUS
 10
-1.986146
 20
-0.408748
  0
SEQEND
  8
0
  0
POLYLINE
  8
PLAN_1
 62
     5
  6
CONTINUOUS
 66
     1
 40
0.003000
 41
0.003000
  0
VERTEX
  8
PLAN_1
 62
     5
  6
CONTINUOUS
 10
-1.986146
 20
-0.400429
  0
VERTEX
  8
PLAN_1
 62
     5
  6
CONTINUOUS
 10
-1.986146
 20
-0.392106
  0
SEQEND
  8
0
  0
POLYLINE
  8
PLAN_1
 62
     5
  6
CONTINUOUS
 66
     1
 40
0.003000
 41
0.003000
  0
VERTEX
  8
PLAN_1
 62
     5
  6
CONTINUOUS
 10
-1.986146
 20
-0.383787
  0
VERTEX
  8
PLAN_1
 62
     5
  6
CONTINUOUS
 10
-1.986146
 20
-0.377547
  0
SEQEND
  8
0
  0
POLYLINE
  8
PLAN_1
 62
     5
  6
CONTINUOUS
 66
     1
 40
0.003000
 41
0.003000
  0
VERTEX
  8
PLAN_1
 62
     5
  6
CONTINUOUS
 10
-1.986146
 20
-0.383787
  0
VERTEX
  8
PLAN_1
 62
     5
  6
CONTINUOUS
 10
-1.986146
 20
-0.377547
  0
SEQEND
  8
0
  0
POLYLINE
  8
PLAN_1
 62
     5
  6
CONTINUOUS
 66
     1
 40
0.003000
 41
0.003000
  0
VERTEX
  8
PLAN_1
 62
     5
  6
CONTINUOUS
 10
-1.986146
 20
-0.377547
  0
VERTEX
  8
PLAN_1
 62
     5
  6
CONTINUOUS
 10
-1.986146
 20
-0.373386
  0
VERTEX
  8
PLAN_1
 62
     5
  6
CONTINUOUS
 10
-1.986146
 20
-0.369744
  0
VERTEX
  8
PLAN_1
 62
     5
  6
CONTINUOUS
 10
-1.986146
 20
-0.369224
  0
SEQEND
  8
0
  0
POLYLINE
  8
PLAN_1
 62
     5
  6
CONTINUOUS
 66
     1
 40
0.003000
 41
0.003000
  0
VERTEX
  8
PLAN_1
 62
     5
  6
CONTINUOUS
 10
-1.984067
 20
-0.360906
  0
VERTEX
  8
PLAN_1
 62
     5
  6
CONTINUOUS
 10
-1.983024
 20
-0.358823
  0
VERTEX
  8
PLAN_1
 62
     5
  6
CONTINUOUS
 10
-1.981465
 20
-0.355705
  0
VERTEX
  8
PLAN_1
 62
     5
  6
CONTINUOUS
 10
-1.979906
 20
-0.353622
  0
SEQEND
  8
0
  0
POLYLINE
  8
PLAN_1
 62
     5
  6
CONTINUOUS
 66
     1
 40
0.003000
 41
0.003000
  0
VERTEX
  8
PLAN_1
 62
     5
  6
CONTINUOUS
 10
-1.974185
 20
-0.347902
  0
VERTEX
  8
PLAN_1
 62
     5
  6
CONTINUOUS
 10
-1.971583
 20
-0.345823
  0
VERTEX
  8
PLAN_1
 62
     5
  6
CONTINUOUS
 10
-1.968465
 20
-0.343744
  0
VERTEX
  8
PLAN_1
 62
     5
  6
CONTINUOUS
 10
-1.967425
 20
-0.343220
  0
SEQEND
  8
0
  0
POLYLINE
  8
PLAN_1
 62
     5
  6
CONTINUOUS
 66
     1
 40
0.003000
 41
0.003000
  0
VERTEX
  8
PLAN_1
 62
     5
  6
CONTINUOUS
 10
-1.959622
 20
-0.340102
  0
VERTEX
  8
PLAN_1
 62
     5
  6
CONTINUOUS
 10
-1.958063
 20
-0.340102
  0
VERTEX
  8
PLAN_1
 62
     5
  6
CONTINUOUS
 10
-1.954421
 20
-0.339583
  0
VERTEX
  8
PLAN_1
 62
     5
  6
CONTINUOUS
 10
-1.951303
 20
-0.339063
  0
SEQEND
  8
0
  0
POLYLINE
  8
PLAN_1
 62
     5
  6
CONTINUOUS
 66
     1
 40
0.003000
 41
0.003000
  0
VERTEX
  8
PLAN_1
 62
     5
  6
CONTINUOUS
 10
-1.950783
 20
-0.339063
  0
VERTEX
  8
PLAN_1
 62
     5
  6
CONTINUOUS
 10
-1.941941
 20
-0.339063
  0
SEQEND
  8
0
  0
POLYLINE
  8
PLAN_1
 62
     5
  6
CONTINUOUS
 66
     1
 40
0.003000
 41
0.003000
  0
VERTEX
  8
PLAN_1
 62
     5
  6
CONTINUOUS
 10
-1.933622
 20
-0.339063
  0
VERTEX
  8
PLAN_1
 62
     5
  6
CONTINUOUS
 10
-1.925299
 20
-0.339063
  0
SEQEND
  8
0
  0
POLYLINE
  8
PLAN_1
 62
     5
  6
CONTINUOUS
 66
     1
 40
0.003000
 41
0.003000
  0
VERTEX
  8
PLAN_1
 62
     5
  6
CONTINUOUS
 10
-1.916980
 20
-0.339063
  0
VERTEX
  8
PLAN_1
 62
     5
  6
CONTINUOUS
 10
-1.908657
 20
-0.339063
  0
SEQEND
  8
0
  0
POLYLINE
  8
PLAN_1
 62
     5
  6
CONTINUOUS
 66
     1
 40
0.003000
 41
0.003000
  0
VERTEX
  8
PLAN_1
 62
     5
  6
CONTINUOUS
 10
-1.900339
 20
-0.339063
  0
VERTEX
  8
PLAN_1
 62
     5
  6
CONTINUOUS
 10
-1.892016
 20
-0.339063
  0
SEQEND
  8
0
  0
POLYLINE
  8
PLAN_1
 62
     5
  6
CONTINUOUS
 66
     1
 40
0.003000
 41
0.003000
  0
VERTEX
  8
PLAN_1
 62
     5
  6
CONTINUOUS
 10
-1.883697
 20
-0.339063
  0
VERTEX
  8
PLAN_1
 62
     5
  6
CONTINUOUS
 10
-1.875374
 20
-0.339063
  0
SEQEND
  8
0
  0
POLYLINE
  8
PLAN_1
 62
     5
  6
CONTINUOUS
 66
     1
 40
0.003000
 41
0.003000
  0
VERTEX
  8
PLAN_1
 62
     5
  6
CONTINUOUS
 10
-1.867055
 20
-0.339063
  0
VERTEX
  8
PLAN_1
 62
     5
  6
CONTINUOUS
 10
-1.858732
 20
-0.339063
  0
SEQEND
  8
0
  0
POLYLINE
  8
PLAN_1
 62
     5
  6
CONTINUOUS
 66
     1
 40
0.003000
 41
0.003000
  0
VERTEX
  8
PLAN_1
 62
     5
  6
CONTINUOUS
 10
-1.850413
 20
-0.339063
  0
VERTEX
  8
PLAN_1
 62
     5
  6
CONTINUOUS
 10
-1.842091
 20
-0.339063
  0
SEQEND
  8
0
  0
POLYLINE
  8
PLAN_1
 62
     5
  6
CONTINUOUS
 66
     1
 40
0.003000
 41
0.003000
  0
VERTEX
  8
PLAN_1
 62
     5
  6
CONTINUOUS
 10
-1.833772
 20
-0.339063
  0
VERTEX
  8
PLAN_1
 62
     5
  6
CONTINUOUS
 10
-1.825449
 20
-0.339063
  0
SEQEND
  8
0
  0
POLYLINE
  8
PLAN_1
 62
     5
  6
CONTINUOUS
 66
     1
 40
0.003000
 41
0.003000
  0
VERTEX
  8
PLAN_1
 62
     5
  6
CONTINUOUS
 10
-1.817130
 20
-0.339063
  0
VERTEX
  8
PLAN_1
 62
     5
  6
CONTINUOUS
 10
-1.808811
 20
-0.339063
  0
SEQEND
  8
0
  0
POLYLINE
  8
PLAN_1
 62
     5
  6
CONTINUOUS
 66
     1
 40
0.003000
 41
0.003000
  0
VERTEX
  8
PLAN_1
 62
     5
  6
CONTINUOUS
 10
-1.800488
 20
-0.339063
  0
VERTEX
  8
PLAN_1
 62
     5
  6
CONTINUOUS
 10
-1.792169
 20
-0.339063
  0
SEQEND
  8
0
  0
POLYLINE
  8
PLAN_1
 62
     5
  6
CONTINUOUS
 66
     1
 40
0.003000
 41
0.003000
  0
VERTEX
  8
PLAN_1
 62
     5
  6
CONTINUOUS
 10
-1.783846
 20
-0.339063
  0
VERTEX
  8
PLAN_1
 62
     5
  6
CONTINUOUS
 10
-1.775528
 20
-0.339063
  0
SEQEND
  8
0
  0
POLYLINE
  8
PLAN_1
 62
     5
  6
CONTINUOUS
 66
     1
 40
0.003000
 41
0.003000
  0
VERTEX
  8
PLAN_1
 62
     5
  6
CONTINUOUS
 10
-1.767205
 20
-0.339063
  0
VERTEX
  8
PLAN_1
 62
     5
  6
CONTINUOUS
 10
-1.758886
 20
-0.339063
  0
SEQEND
  8
0
  0
POLYLINE
  8
PLAN_1
 62
     5
  6
CONTINUOUS
 66
     1
 40
0.003000
 41
0.003000
  0
VERTEX
  8
PLAN_1
 62
     5
  6
CONTINUOUS
 10
-1.750563
 20
-0.339063
  0
VERTEX
  8
PLAN_1
 62
     5
  6
CONTINUOUS
 10
-1.742244
 20
-0.339063
  0
SEQEND
  8
0
  0
POLYLINE
  8
PLAN_1
 62
     5
  6
CONTINUOUS
 66
     1
 40
0.003000
 41
0.003000
  0
VERTEX
  8
PLAN_1
 62
     5
  6
CONTINUOUS
 10
-1.733921
 20
-0.339063
  0
VERTEX
  8
PLAN_1
 62
     5
  6
CONTINUOUS
 10
-1.725602
 20
-0.339063
  0
SEQEND
  8
0
  0
POLYLINE
  8
PLAN_1
 62
     5
  6
CONTINUOUS
 66
     1
 40
0.003000
 41
0.003000
  0
VERTEX
  8
PLAN_1
 62
     5
  6
CONTINUOUS
 10
-1.717280
 20
-0.339063
  0
VERTEX
  8
PLAN_1
 62
     5
  6
CONTINUOUS
 10
-1.708961
 20
-0.339063
  0
SEQEND
  8
0
  0
POLYLINE
  8
PLAN_1
 62
     5
  6
CONTINUOUS
 66
     1
 40
0.003000
 41
0.003000
  0
VERTEX
  8
PLAN_1
 62
     5
  6
CONTINUOUS
 10
-1.700638
 20
-0.339063
  0
VERTEX
  8
PLAN_1
 62
     5
  6
CONTINUOUS
 10
-1.692319
 20
-0.339063
  0
SEQEND
  8
0
  0
POLYLINE
  8
PLAN_1
 62
     5
  6
CONTINUOUS
 66
     1
 40
0.003000
 41
0.003000
  0
VERTEX
  8
PLAN_1
 62
     5
  6
CONTINUOUS
 10
-1.683996
 20
-0.339063
  0
VERTEX
  8
PLAN_1
 62
     5
  6
CONTINUOUS
 10
-1.675677
 20
-0.339063
  0
SEQEND
  8
0
  0
POLYLINE
  8
PLAN_1
 62
     5
  6
CONTINUOUS
 66
     1
 40
0.003000
 41
0.003000
  0
VERTEX
  8
PLAN_1
 62
     5
  6
CONTINUOUS
 10
-1.667354
 20
-0.339063
  0
VERTEX
  8
PLAN_1
 62
     5
  6
CONTINUOUS
 10
-1.659035
 20
-0.339063
  0
SEQEND
  8
0
  0
POLYLINE
  8
PLAN_1
 62
     5
  6
CONTINUOUS
 66
     1
 40
0.003000
 41
0.003000
  0
VERTEX
  8
PLAN_1
 62
     5
  6
CONTINUOUS
 10
-1.650713
 20
-0.339063
  0
VERTEX
  8
PLAN_1
 62
     5
  6
CONTINUOUS
 10
-1.642394
 20
-0.339063
  0
SEQEND
  8
0
  0
POLYLINE
  8
PLAN_1
 62
     5
  6
CONTINUOUS
 66
     1
 40
0.003000
 41
0.003000
  0
VERTEX
  8
PLAN_1
 62
     5
  6
CONTINUOUS
 10
-1.634071
 20
-0.339063
  0
VERTEX
  8
PLAN_1
 62
     5
  6
CONTINUOUS
 10
-1.625752
 20
-0.339063
  0
SEQEND
  8
0
  0
POLYLINE
  8
PLAN_1
 62
     5
  6
CONTINUOUS
 66
     1
 40
0.003000
 41
0.003000
  0
VERTEX
  8
PLAN_1
 62
     5
  6
CONTINUOUS
 10
-1.617433
 20
-0.339063
  0
VERTEX
  8
PLAN_1
 62
     5
  6
CONTINUOUS
 10
-1.609110
 20
-0.339063
  0
SEQEND
  8
0
  0
POLYLINE
  8
PLAN_1
 62
     5
  6
CONTINUOUS
 66
     1
 40
0.003000
 41
0.003000
  0
VERTEX
  8
PLAN_1
 62
     5
  6
CONTINUOUS
 10
-1.600791
 20
-0.339063
  0
VERTEX
  8
PLAN_1
 62
     5
  6
CONTINUOUS
 10
-1.592469
 20
-0.339063
  0
SEQEND
  8
0
  0
POLYLINE
  8
PLAN_1
 62
     5
  6
CONTINUOUS
 66
     1
 40
0.003000
 41
0.003000
  0
VERTEX
  8
PLAN_1
 62
     5
  6
CONTINUOUS
 10
-1.584150
 20
-0.339063
  0
VERTEX
  8
PLAN_1
 62
     5
  6
CONTINUOUS
 10
-1.575827
 20
-0.339063
  0
SEQEND
  8
0
  0
POLYLINE
  8
PLAN_1
 62
     5
  6
CONTINUOUS
 66
     1
 40
0.003000
 41
0.003000
  0
VERTEX
  8
PLAN_1
 62
     5
  6
CONTINUOUS
 10
-1.567508
 20
-0.339063
  0
VERTEX
  8
PLAN_1
 62
     5
  6
CONTINUOUS
 10
-1.559185
 20
-0.339063
  0
SEQEND
  8
0
  0
POLYLINE
  8
PLAN_1
 62
     5
  6
CONTINUOUS
 66
     1
 40
0.003000
 41
0.003000
  0
VERTEX
  8
PLAN_1
 62
     5
  6
CONTINUOUS
 10
-1.550866
 20
-0.339063
  0
VERTEX
  8
PLAN_1
 62
     5
  6
CONTINUOUS
 10
-1.542543
 20
-0.339063
  0
SEQEND
  8
0
  0
POLYLINE
  8
PLAN_1
 62
     5
  6
CONTINUOUS
 66
     1
 40
0.003000
 41
0.003000
  0
VERTEX
  8
PLAN_1
 62
     5
  6
CONTINUOUS
 10
-1.534224
 20
-0.339063
  0
VERTEX
  8
PLAN_1
 62
     5
  6
CONTINUOUS
 10
-1.525902
 20
-0.339063
  0
SEQEND
  8
0
  0
POLYLINE
  8
PLAN_1
 62
     5
  6
CONTINUOUS
 66
     1
 40
0.003000
 41
0.003000
  0
VERTEX
  8
PLAN_1
 62
     5
  6
CONTINUOUS
 10
-1.517583
 20
-0.339063
  0
VERTEX
  8
PLAN_1
 62
     5
  6
CONTINUOUS
 10
-1.509260
 20
-0.339063
  0
SEQEND
  8
0
  0
POLYLINE
  8
PLAN_1
 62
     5
  6
CONTINUOUS
 66
     1
 40
0.003000
 41
0.003000
  0
VERTEX
  8
PLAN_1
 62
     5
  6
CONTINUOUS
 10
-1.500941
 20
-0.339063
  0
VERTEX
  8
PLAN_1
 62
     5
  6
CONTINUOUS
 10
-1.492618
 20
-0.339063
  0
SEQEND
  8
0
  0
POLYLINE
  8
PLAN_1
 62
     5
  6
CONTINUOUS
 66
     1
 40
0.003000
 41
0.003000
  0
VERTEX
  8
PLAN_1
 62
     5
  6
CONTINUOUS
 10
-1.484299
 20
-0.339063
  0
VERTEX
  8
PLAN_1
 62
     5
  6
CONTINUOUS
 10
-1.475976
 20
-0.339063
  0
SEQEND
  8
0
  0
POLYLINE
  8
PLAN_1
 62
     5
  6
CONTINUOUS
 66
     1
 40
0.003000
 41
0.003000
  0
VERTEX
  8
PLAN_1
 62
     5
  6
CONTINUOUS
 10
-1.467657
 20
-0.339063
  0
VERTEX
  8
PLAN_1
 62
     5
  6
CONTINUOUS
 10
-1.459335
 20
-0.339063
  0
SEQEND
  8
0
  0
POLYLINE
  8
PLAN_1
 62
     5
  6
CONTINUOUS
 66
     1
 40
0.003000
 41
0.003000
  0
VERTEX
  8
PLAN_1
 62
     5
  6
CONTINUOUS
 10
-1.451016
 20
-0.339063
  0
VERTEX
  8
PLAN_1
 62
     5
  6
CONTINUOUS
 10
-1.442693
 20
-0.339063
  0
SEQEND
  8
0
  0
POLYLINE
  8
PLAN_1
 62
     5
  6
CONTINUOUS
 66
     1
 40
0.003000
 41
0.003000
  0
VERTEX
  8
PLAN_1
 62
     5
  6
CONTINUOUS
 10
-1.434374
 20
-0.339063
  0
VERTEX
  8
PLAN_1
 62
     5
  6
CONTINUOUS
 10
-1.426055
 20
-0.339063
  0
SEQEND
  8
0
  0
POLYLINE
  8
PLAN_1
 62
     5
  6
CONTINUOUS
 66
     1
 40
0.003000
 41
0.003000
  0
VERTEX
  8
PLAN_1
 62
     5
  6
CONTINUOUS
 10
-1.417732
 20
-0.339063
  0
VERTEX
  8
PLAN_1
 62
     5
  6
CONTINUOUS
 10
-1.409413
 20
-0.339063
  0
SEQEND
  8
0
  0
POLYLINE
  8
PLAN_1
 62
     5
  6
CONTINUOUS
 66
     1
 40
0.003000
 41
0.003000
  0
VERTEX
  8
PLAN_1
 62
     5
  6
CONTINUOUS
 10
-1.401091
 20
-0.339063
  0
VERTEX
  8
PLAN_1
 62
     5
  6
CONTINUOUS
 10
-1.392772
 20
-0.339063
  0
SEQEND
  8
0
  0
POLYLINE
  8
PLAN_1
 62
     5
  6
CONTINUOUS
 66
     1
 40
0.003000
 41
0.003000
  0
VERTEX
  8
PLAN_1
 62
     5
  6
CONTINUOUS
 10
-1.384449
 20
-0.339063
  0
VERTEX
  8
PLAN_1
 62
     5
  6
CONTINUOUS
 10
-1.376130
 20
-0.339063
  0
SEQEND
  8
0
  0
POLYLINE
  8
PLAN_1
 62
     5
  6
CONTINUOUS
 66
     1
 40
0.003000
 41
0.003000
  0
VERTEX
  8
PLAN_1
 62
     5
  6
CONTINUOUS
 10
-1.367807
 20
-0.339063
  0
VERTEX
  8
PLAN_1
 62
     5
  6
CONTINUOUS
 10
-1.359488
 20
-0.339063
  0
SEQEND
  8
0
  0
POLYLINE
  8
PLAN_1
 62
     5
  6
CONTINUOUS
 66
     1
 40
0.003000
 41
0.003000
  0
VERTEX
  8
PLAN_1
 62
     5
  6
CONTINUOUS
 10
-1.350646
 20
-0.339063
  0
VERTEX
  8
PLAN_1
 62
     5
  6
CONTINUOUS
 10
-1.342327
 20
-0.339063
  0
SEQEND
  8
0
  0
POLYLINE
  8
PLAN_1
 62
     5
  6
CONTINUOUS
 66
     1
 40
0.003000
 41
0.003000
  0
VERTEX
  8
PLAN_1
 62
     5
  6
CONTINUOUS
 10
-1.334004
 20
-0.339063
  0
VERTEX
  8
PLAN_1
 62
     5
  6
CONTINUOUS
 10
-1.325685
 20
-0.339063
  0
SEQEND
  8
0
  0
POLYLINE
  8
PLAN_1
 62
     5
  6
CONTINUOUS
 66
     1
 40
0.003000
 41
0.003000
  0
VERTEX
  8
PLAN_1
 62
     5
  6
CONTINUOUS
 10
-1.317362
 20
-0.339063
  0
VERTEX
  8
PLAN_1
 62
     5
  6
CONTINUOUS
 10
-1.309043
 20
-0.339063
  0
SEQEND
  8
0
  0
POLYLINE
  8
PLAN_1
 62
     5
  6
CONTINUOUS
 66
     1
 40
0.003000
 41
0.003000
  0
VERTEX
  8
PLAN_1
 62
     5
  6
CONTINUOUS
 10
-1.300720
 20
-0.339063
  0
VERTEX
  8
PLAN_1
 62
     5
  6
CONTINUOUS
 10
-1.292402
 20
-0.339063
  0
SEQEND
  8
0
  0
POLYLINE
  8
PLAN_1
 62
     5
  6
CONTINUOUS
 66
     1
 40
0.003000
 41
0.003000
  0
VERTEX
  8
PLAN_1
 62
     5
  6
CONTINUOUS
 10
-1.284079
 20
-0.339063
  0
VERTEX
  8
PLAN_1
 62
     5
  6
CONTINUOUS
 10
-1.275760
 20
-0.339063
  0
SEQEND
  8
0
  0
POLYLINE
  8
PLAN_1
 62
     5
  6
CONTINUOUS
 66
     1
 40
0.003000
 41
0.003000
  0
VERTEX
  8
PLAN_1
 62
     5
  6
CONTINUOUS
 10
-1.267437
 20
-0.339063
  0
VERTEX
  8
PLAN_1
 62
     5
  6
CONTINUOUS
 10
-1.259118
 20
-0.339063
  0
SEQEND
  8
0
  0
POLYLINE
  8
PLAN_1
 62
     5
  6
CONTINUOUS
 66
     1
 40
0.003000
 41
0.003000
  0
VERTEX
  8
PLAN_1
 62
     5
  6
CONTINUOUS
 10
-1.250795
 20
-0.339063
  0
VERTEX
  8
PLAN_1
 62
     5
  6
CONTINUOUS
 10
-1.242476
 20
-0.339063
  0
SEQEND
  8
0
  0
POLYLINE
  8
PLAN_1
 62
     5
  6
CONTINUOUS
 66
     1
 40
0.003000
 41
0.003000
  0
VERTEX
  8
PLAN_1
 62
     5
  6
CONTINUOUS
 10
-1.234154
 20
-0.339063
  0
VERTEX
  8
PLAN_1
 62
     5
  6
CONTINUOUS
 10
-1.225835
 20
-0.339063
  0
SEQEND
  8
0
  0
POLYLINE
  8
PLAN_1
 62
     5
  6
CONTINUOUS
 66
     1
 40
0.003000
 41
0.003000
  0
VERTEX
  8
PLAN_1
 62
     5
  6
CONTINUOUS
 10
-1.217512
 20
-0.339063
  0
VERTEX
  8
PLAN_1
 62
     5
  6
CONTINUOUS
 10
-1.209193
 20
-0.339063
  0
SEQEND
  8
0
  0
POLYLINE
  8
PLAN_1
 62
     5
  6
CONTINUOUS
 66
     1
 40
0.003000
 41
0.003000
  0
VERTEX
  8
PLAN_1
 62
     5
  6
CONTINUOUS
 10
-1.200874
 20
-0.339063
  0
VERTEX
  8
PLAN_1
 62
     5
  6
CONTINUOUS
 10
-1.192551
 20
-0.339063
  0
SEQEND
  8
0
  0
POLYLINE
  8
PLAN_1
 62
     5
  6
CONTINUOUS
 66
     1
 40
0.003000
 41
0.003000
  0
VERTEX
  8
PLAN_1
 62
     5
  6
CONTINUOUS
 10
-1.184232
 20
-0.339063
  0
VERTEX
  8
PLAN_1
 62
     5
  6
CONTINUOUS
 10
-1.175909
 20
-0.339063
  0
SEQEND
  8
0
  0
POLYLINE
  8
PLAN_1
 62
     5
  6
CONTINUOUS
 66
     1
 40
0.003000
 41
0.003000
  0
VERTEX
  8
PLAN_1
 62
     5
  6
CONTINUOUS
 10
-1.167591
 20
-0.339063
  0
VERTEX
  8
PLAN_1
 62
     5
  6
CONTINUOUS
 10
-1.159268
 20
-0.339063
  0
SEQEND
  8
0
  0
POLYLINE
  8
PLAN_1
 62
     5
  6
CONTINUOUS
 66
     1
 40
0.003000
 41
0.003000
  0
VERTEX
  8
PLAN_1
 62
     5
  6
CONTINUOUS
 10
-1.150949
 20
-0.339063
  0
VERTEX
  8
PLAN_1
 62
     5
  6
CONTINUOUS
 10
-1.142626
 20
-0.339063
  0
SEQEND
  8
0
  0
POLYLINE
  8
PLAN_1
 62
     5
  6
CONTINUOUS
 66
     1
 40
0.003000
 41
0.003000
  0
VERTEX
  8
PLAN_1
 62
     5
  6
CONTINUOUS
 10
-1.134307
 20
-0.339063
  0
VERTEX
  8
PLAN_1
 62
     5
  6
CONTINUOUS
 10
-1.125984
 20
-0.339063
  0
SEQEND
  8
0
  0
POLYLINE
  8
PLAN_1
 62
     5
  6
CONTINUOUS
 66
     1
 40
0.003000
 41
0.003000
  0
VERTEX
  8
PLAN_1
 62
     5
  6
CONTINUOUS
 10
-1.117665
 20
-0.339063
  0
VERTEX
  8
PLAN_1
 62
     5
  6
CONTINUOUS
 10
-1.109343
 20
-0.339063
  0
SEQEND
  8
0
  0
POLYLINE
  8
PLAN_1
 62
     5
  6
CONTINUOUS
 66
     1
 40
0.003000
 41
0.003000
  0
VERTEX
  8
PLAN_1
 62
     5
  6
CONTINUOUS
 10
-1.101024
 20
-0.339063
  0
VERTEX
  8
PLAN_1
 62
     5
  6
CONTINUOUS
 10
-1.092701
 20
-0.339063
  0
SEQEND
  8
0
  0
POLYLINE
  8
PLAN_1
 62
     5
  6
CONTINUOUS
 66
     1
 40
0.003000
 41
0.003000
  0
VERTEX
  8
PLAN_1
 62
     5
  6
CONTINUOUS
 10
-1.084382
 20
-0.339063
  0
VERTEX
  8
PLAN_1
 62
     5
  6
CONTINUOUS
 10
-1.076059
 20
-0.339063
  0
SEQEND
  8
0
  0
POLYLINE
  8
PLAN_1
 62
     5
  6
CONTINUOUS
 66
     1
 40
0.003000
 41
0.003000
  0
VERTEX
  8
PLAN_1
 62
     5
  6
CONTINUOUS
 10
-1.067740
 20
-0.339063
  0
VERTEX
  8
PLAN_1
 62
     5
  6
CONTINUOUS
 10
-1.059417
 20
-0.339063
  0
SEQEND
  8
0
  0
POLYLINE
  8
PLAN_1
 62
     5
  6
CONTINUOUS
 66
     1
 40
0.003000
 41
0.003000
  0
VERTEX
  8
PLAN_1
 62
     5
  6
CONTINUOUS
 10
-1.051098
 20
-0.339063
  0
VERTEX
  8
PLAN_1
 62
     5
  6
CONTINUOUS
 10
-1.042776
 20
-0.339063
  0
SEQEND
  8
0
  0
POLYLINE
  8
PLAN_1
 62
     5
  6
CONTINUOUS
 66
     1
 40
0.003000
 41
0.003000
  0
VERTEX
  8
PLAN_1
 62
     5
  6
CONTINUOUS
 10
-1.034457
 20
-0.339063
  0
VERTEX
  8
PLAN_1
 62
     5
  6
CONTINUOUS
 10
-1.026134
 20
-0.339063
  0
SEQEND
  8
0
  0
POLYLINE
  8
PLAN_1
 62
     5
  6
CONTINUOUS
 66
     1
 40
0.003000
 41
0.003000
  0
VERTEX
  8
PLAN_1
 62
     5
  6
CONTINUOUS
 10
-1.017815
 20
-0.339063
  0
VERTEX
  8
PLAN_1
 62
     5
  6
CONTINUOUS
 10
-1.009496
 20
-0.339063
  0
SEQEND
  8
0
  0
POLYLINE
  8
PLAN_1
 62
     5
  6
CONTINUOUS
 66
     1
 40
0.003000
 41
0.003000
  0
VERTEX
  8
PLAN_1
 62
     5
  6
CONTINUOUS
 10
-1.001173
 20
-0.339063
  0
VERTEX
  8
PLAN_1
 62
     5
  6
CONTINUOUS
 10
-0.992854
 20
-0.339063
  0
SEQEND
  8
0
  0
POLYLINE
  8
PLAN_1
 62
     5
  6
CONTINUOUS
 66
     1
 40
0.003000
 41
0.003000
  0
VERTEX
  8
PLAN_1
 62
     5
  6
CONTINUOUS
 10
-0.984531
 20
-0.339063
  0
VERTEX
  8
PLAN_1
 62
     5
  6
CONTINUOUS
 10
-0.976213
 20
-0.339063
  0
SEQEND
  8
0
  0
POLYLINE
  8
PLAN_1
 62
     5
  6
CONTINUOUS
 66
     1
 40
0.003000
 41
0.003000
  0
VERTEX
  8
PLAN_1
 62
     5
  6
CONTINUOUS
 10
-0.967890
 20
-0.339063
  0
VERTEX
  8
PLAN_1
 62
     5
  6
CONTINUOUS
 10
-0.959571
 20
-0.339063
  0
SEQEND
  8
0
  0
POLYLINE
  8
PLAN_1
 62
     5
  6
CONTINUOUS
 66
     1
 40
0.003000
 41
0.003000
  0
VERTEX
  8
PLAN_1
 62
     5
  6
CONTINUOUS
 10
-0.951248
 20
-0.339063
  0
VERTEX
  8
PLAN_1
 62
     5
  6
CONTINUOUS
 10
-0.942929
 20
-0.339063
  0
SEQEND
  8
0
  0
POLYLINE
  8
PLAN_1
 62
     5
  6
CONTINUOUS
 66
     1
 40
0.003000
 41
0.003000
  0
VERTEX
  8
PLAN_1
 62
     5
  6
CONTINUOUS
 10
-0.934606
 20
-0.339063
  0
VERTEX
  8
PLAN_1
 62
     5
  6
CONTINUOUS
 10
-0.926287
 20
-0.339063
  0
SEQEND
  8
0
  0
POLYLINE
  8
PLAN_1
 62
     5
  6
CONTINUOUS
 66
     1
 40
0.003000
 41
0.003000
  0
VERTEX
  8
PLAN_1
 62
     5
  6
CONTINUOUS
 10
-0.917965
 20
-0.339063
  0
VERTEX
  8
PLAN_1
 62
     5
  6
CONTINUOUS
 10
-0.909646
 20
-0.339063
  0
SEQEND
  8
0
  0
POLYLINE
  8
PLAN_1
 62
     5
  6
CONTINUOUS
 66
     1
 40
0.003000
 41
0.003000
  0
VERTEX
  8
PLAN_1
 62
     5
  6
CONTINUOUS
 10
-0.901323
 20
-0.339063
  0
VERTEX
  8
PLAN_1
 62
     5
  6
CONTINUOUS
 10
-0.893004
 20
-0.339063
  0
SEQEND
  8
0
  0
POLYLINE
  8
PLAN_1
 62
     5
  6
CONTINUOUS
 66
     1
 40
0.003000
 41
0.003000
  0
VERTEX
  8
PLAN_1
 62
     5
  6
CONTINUOUS
 10
-0.884681
 20
-0.339063
  0
VERTEX
  8
PLAN_1
 62
     5
  6
CONTINUOUS
 10
-0.876362
 20
-0.339063
  0
SEQEND
  8
0
  0
POLYLINE
  8
PLAN_1
 62
     5
  6
CONTINUOUS
 66
     1
 40
0.003000
 41
0.003000
  0
VERTEX
  8
PLAN_1
 62
     5
  6
CONTINUOUS
 10
-0.868039
 20
-0.339063
  0
VERTEX
  8
PLAN_1
 62
     5
  6
CONTINUOUS
 10
-0.859720
 20
-0.339063
  0
SEQEND
  8
0
  0
POLYLINE
  8
PLAN_1
 62
     5
  6
CONTINUOUS
 66
     1
 40
0.003000
 41
0.003000
  0
VERTEX
  8
PLAN_1
 62
     5
  6
CONTINUOUS
 10
-0.851398
 20
-0.339063
  0
VERTEX
  8
PLAN_1
 62
     5
  6
CONTINUOUS
 10
-0.843079
 20
-0.339063
  0
SEQEND
  8
0
  0
POLYLINE
  8
PLAN_1
 62
     5
  6
CONTINUOUS
 66
     1
 40
0.003000
 41
0.003000
  0
VERTEX
  8
PLAN_1
 62
     5
  6
CONTINUOUS
 10
-0.834756
 20
-0.339063
  0
VERTEX
  8
PLAN_1
 62
     5
  6
CONTINUOUS
 10
-0.826437
 20
-0.339063
  0
SEQEND
  8
0
  0
POLYLINE
  8
PLAN_1
 62
     5
  6
CONTINUOUS
 66
     1
 40
0.003000
 41
0.003000
  0
VERTEX
  8
PLAN_1
 62
     5
  6
CONTINUOUS
 10
-0.818118
 20
-0.339063
  0
VERTEX
  8
PLAN_1
 62
     5
  6
CONTINUOUS
 10
-0.809795
 20
-0.339063
  0
SEQEND
  8
0
  0
POLYLINE
  8
PLAN_1
 62
     5
  6
CONTINUOUS
 66
     1
 40
0.003000
 41
0.003000
  0
VERTEX
  8
PLAN_1
 62
     5
  6
CONTINUOUS
 10
-0.801476
 20
-0.339063
  0
VERTEX
  8
PLAN_1
 62
     5
  6
CONTINUOUS
 10
-0.793154
 20
-0.339063
  0
SEQEND
  8
0
  0
POLYLINE
  8
PLAN_1
 62
     5
  6
CONTINUOUS
 66
     1
 40
0.003000
 41
0.003000
  0
VERTEX
  8
PLAN_1
 62
     5
  6
CONTINUOUS
 10
-0.784835
 20
-0.339063
  0
VERTEX
  8
PLAN_1
 62
     5
  6
CONTINUOUS
 10
-0.776512
 20
-0.339063
  0
SEQEND
  8
0
  0
POLYLINE
  8
PLAN_1
 62
     5
  6
CONTINUOUS
 66
     1
 40
0.003000
 41
0.003000
  0
VERTEX
  8
PLAN_1
 62
     5
  6
CONTINUOUS
 10
-0.768193
 20
-0.339063
  0
VERTEX
  8
PLAN_1
 62
     5
  6
CONTINUOUS
 10
-0.759350
 20
-0.339063
  0
SEQEND
  8
0
  0
POLYLINE
  8
PLAN_1
 62
     5
  6
CONTINUOUS
 66
     1
 40
0.003000
 41
0.003000
  0
VERTEX
  8
PLAN_1
 62
     5
  6
CONTINUOUS
 10
-0.751031
 20
-0.339063
  0
VERTEX
  8
PLAN_1
 62
     5
  6
CONTINUOUS
 10
-0.742709
 20
-0.339063
  0
SEQEND
  8
0
  0
POLYLINE
  8
PLAN_1
 62
     5
  6
CONTINUOUS
 66
     1
 40
0.003000
 41
0.003000
  0
VERTEX
  8
PLAN_1
 62
     5
  6
CONTINUOUS
 10
-0.734390
 20
-0.339063
  0
VERTEX
  8
PLAN_1
 62
     5
  6
CONTINUOUS
 10
-0.726067
 20
-0.339063
  0
SEQEND
  8
0
  0
POLYLINE
  8
PLAN_1
 62
     5
  6
CONTINUOUS
 66
     1
 40
0.003000
 41
0.003000
  0
VERTEX
  8
PLAN_1
 62
     5
  6
CONTINUOUS
 10
-0.717748
 20
-0.339063
  0
VERTEX
  8
PLAN_1
 62
     5
  6
CONTINUOUS
 10
-0.709425
 20
-0.339063
  0
SEQEND
  8
0
  0
POLYLINE
  8
PLAN_1
 62
     5
  6
CONTINUOUS
 66
     1
 40
0.003000
 41
0.003000
  0
VERTEX
  8
PLAN_1
 62
     5
  6
CONTINUOUS
 10
-0.701106
 20
-0.339063
  0
VERTEX
  8
PLAN_1
 62
     5
  6
CONTINUOUS
 10
-0.692783
 20
-0.339063
  0
SEQEND
  8
0
  0
POLYLINE
  8
PLAN_1
 62
     5
  6
CONTINUOUS
 66
     1
 40
0.003000
 41
0.003000
  0
VERTEX
  8
PLAN_1
 62
     5
  6
CONTINUOUS
 10
-0.684465
 20
-0.339063
  0
VERTEX
  8
PLAN_1
 62
     5
  6
CONTINUOUS
 10
-0.676142
 20
-0.339063
  0
SEQEND
  8
0
  0
POLYLINE
  8
PLAN_1
 62
     5
  6
CONTINUOUS
 66
     1
 40
0.003000
 41
0.003000
  0
VERTEX
  8
PLAN_1
 62
     5
  6
CONTINUOUS
 10
-0.667823
 20
-0.339063
  0
VERTEX
  8
PLAN_1
 62
     5
  6
CONTINUOUS
 10
-0.659500
 20
-0.339063
  0
SEQEND
  8
0
  0
POLYLINE
  8
PLAN_1
 62
     5
  6
CONTINUOUS
 66
     1
 40
0.003000
 41
0.003000
  0
VERTEX
  8
PLAN_1
 62
     5
  6
CONTINUOUS
 10
-0.651181
 20
-0.339063
  0
VERTEX
  8
PLAN_1
 62
     5
  6
CONTINUOUS
 10
-0.642858
 20
-0.339063
  0
SEQEND
  8
0
  0
POLYLINE
  8
PLAN_1
 62
     5
  6
CONTINUOUS
 66
     1
 40
0.003000
 41
0.003000
  0
VERTEX
  8
PLAN_1
 62
     5
  6
CONTINUOUS
 10
-0.634539
 20
-0.339063
  0
VERTEX
  8
PLAN_1
 62
     5
  6
CONTINUOUS
 10
-0.626217
 20
-0.339063
  0
SEQEND
  8
0
  0
POLYLINE
  8
PLAN_1
 62
     5
  6
CONTINUOUS
 66
     1
 40
0.003000
 41
0.003000
  0
VERTEX
  8
PLAN_1
 62
     5
  6
CONTINUOUS
 10
-0.617898
 20
-0.339063
  0
VERTEX
  8
PLAN_1
 62
     5
  6
CONTINUOUS
 10
-0.609575
 20
-0.339063
  0
SEQEND
  8
0
  0
POLYLINE
  8
PLAN_1
 62
     5
  6
CONTINUOUS
 66
     1
 40
0.003000
 41
0.003000
  0
VERTEX
  8
PLAN_1
 62
     5
  6
CONTINUOUS
 10
-0.601256
 20
-0.339063
  0
VERTEX
  8
PLAN_1
 62
     5
  6
CONTINUOUS
 10
-0.592937
 20
-0.339063
  0
SEQEND
  8
0
  0
POLYLINE
  8
PLAN_1
 62
     5
  6
CONTINUOUS
 66
     1
 40
0.003000
 41
0.003000
  0
VERTEX
  8
PLAN_1
 62
     5
  6
CONTINUOUS
 10
-0.584614
 20
-0.339063
  0
VERTEX
  8
PLAN_1
 62
     5
  6
CONTINUOUS
 10
-0.576295
 20
-0.339063
  0
SEQEND
  8
0
  0
POLYLINE
  8
PLAN_1
 62
     5
  6
CONTINUOUS
 66
     1
 40
0.003000
 41
0.003000
  0
VERTEX
  8
PLAN_1
 62
     5
  6
CONTINUOUS
 10
-0.567972
 20
-0.339063
  0
VERTEX
  8
PLAN_1
 62
     5
  6
CONTINUOUS
 10
-0.559654
 20
-0.339063
  0
SEQEND
  8
0
  0
POLYLINE
  8
PLAN_1
 62
     5
  6
CONTINUOUS
 66
     1
 40
0.003000
 41
0.003000
  0
VERTEX
  8
PLAN_1
 62
     5
  6
CONTINUOUS
 10
-0.551331
 20
-0.339063
  0
VERTEX
  8
PLAN_1
 62
     5
  6
CONTINUOUS
 10
-0.543012
 20
-0.339063
  0
SEQEND
  8
0
  0
POLYLINE
  8
PLAN_1
 62
     5
  6
CONTINUOUS
 66
     1
 40
0.003000
 41
0.003000
  0
VERTEX
  8
PLAN_1
 62
     5
  6
CONTINUOUS
 10
-0.534689
 20
-0.339063
  0
VERTEX
  8
PLAN_1
 62
     5
  6
CONTINUOUS
 10
-0.526370
 20
-0.339063
  0
SEQEND
  8
0
  0
POLYLINE
  8
PLAN_1
 62
     5
  6
CONTINUOUS
 66
     1
 40
0.003000
 41
0.003000
  0
VERTEX
  8
PLAN_1
 62
     5
  6
CONTINUOUS
 10
-0.518047
 20
-0.339063
  0
VERTEX
  8
PLAN_1
 62
     5
  6
CONTINUOUS
 10
-0.509728
 20
-0.339063
  0
SEQEND
  8
0
  0
POLYLINE
  8
PLAN_1
 62
     5
  6
CONTINUOUS
 66
     1
 40
0.003000
 41
0.003000
  0
VERTEX
  8
PLAN_1
 62
     5
  6
CONTINUOUS
 10
-0.501406
 20
-0.339063
  0
VERTEX
  8
PLAN_1
 62
     5
  6
CONTINUOUS
 10
-0.493087
 20
-0.339063
  0
SEQEND
  8
0
  0
POLYLINE
  8
PLAN_1
 62
     5
  6
CONTINUOUS
 66
     1
 40
0.003000
 41
0.003000
  0
VERTEX
  8
PLAN_1
 62
     5
  6
CONTINUOUS
 10
-0.484764
 20
-0.339063
  0
VERTEX
  8
PLAN_1
 62
     5
  6
CONTINUOUS
 10
-0.476445
 20
-0.339063
  0
SEQEND
  8
0
  0
POLYLINE
  8
PLAN_1
 62
     5
  6
CONTINUOUS
 66
     1
 40
0.003000
 41
0.003000
  0
VERTEX
  8
PLAN_1
 62
     5
  6
CONTINUOUS
 10
-0.468122
 20
-0.339063
  0
VERTEX
  8
PLAN_1
 62
     5
  6
CONTINUOUS
 10
-0.459803
 20
-0.339063
  0
SEQEND
  8
0
  0
POLYLINE
  8
PLAN_1
 62
     5
  6
CONTINUOUS
 66
     1
 40
0.003000
 41
0.003000
  0
VERTEX
  8
PLAN_1
 62
     5
  6
CONTINUOUS
 10
-0.454083
 20
-0.339063
  0
VERTEX
  8
PLAN_1
 62
     5
  6
CONTINUOUS
 10
-0.449921
 20
-0.339583
  0
VERTEX
  8
PLAN_1
 62
     5
  6
CONTINUOUS
 10
-0.446280
 20
-0.340102
  0
VERTEX
  8
PLAN_1
 62
     5
  6
CONTINUOUS
 10
-0.445760
 20
-0.340102
  0
SEQEND
  8
0
  0
POLYLINE
  8
PLAN_1
 62
     5
  6
CONTINUOUS
 66
     1
 40
0.003000
 41
0.003000
  0
VERTEX
  8
PLAN_1
 62
     5
  6
CONTINUOUS
 10
-0.437961
 20
-0.342701
  0
VERTEX
  8
PLAN_1
 62
     5
  6
CONTINUOUS
 10
-0.435882
 20
-0.343744
  0
VERTEX
  8
PLAN_1
 62
     5
  6
CONTINUOUS
 10
-0.432760
 20
-0.345823
  0
VERTEX
  8
PLAN_1
 62
     5
  6
CONTINUOUS
 10
-0.430681
 20
-0.347382
  0
SEQEND
  8
0
  0
POLYLINE
  8
PLAN_1
 62
     5
  6
CONTINUOUS
 66
     1
 40
0.003000
 41
0.003000
  0
VERTEX
  8
PLAN_1
 62
     5
  6
CONTINUOUS
 10
-0.424441
 20
-0.352583
  0
VERTEX
  8
PLAN_1
 62
     5
  6
CONTINUOUS
 10
-0.424441
 20
-0.353102
  0
VERTEX
  8
PLAN_1
 62
     5
  6
CONTINUOUS
 10
-0.421839
 20
-0.355705
  0
VERTEX
  8
PLAN_1
 62
     5
  6
CONTINUOUS
 10
-0.420280
 20
-0.358823
  0
VERTEX
  8
PLAN_1
 62
     5
  6
CONTINUOUS
 10
-0.419760
 20
-0.359343
  0
SEQEND
  8
0
  0
POLYLINE
  8
PLAN_1
 62
     5
  6
CONTINUOUS
 66
     1
 40
0.003000
 41
0.003000
  0
VERTEX
  8
PLAN_1
 62
     5
  6
CONTINUOUS
 10
-0.416638
 20
-0.367146
  0
VERTEX
  8
PLAN_1
 62
     5
  6
CONTINUOUS
 10
-0.415598
 20
-0.369744
  0
VERTEX
  8
PLAN_1
 62
     5
  6
CONTINUOUS
 10
-0.415079
 20
-0.373386
  0
VERTEX
  8
PLAN_1
 62
     5
  6
CONTINUOUS
 10
-0.414559
 20
-0.375465
  0
SEQEND
  8
0
  0
POLYLINE
  8
PLAN_1
 62
     5
  6
CONTINUOUS
 66
     1
 40
0.003000
 41
0.003000
  0
VERTEX
  8
PLAN_1
 62
     5
  6
CONTINUOUS
 10
-0.414559
 20
-0.377028
  0
VERTEX
  8
PLAN_1
 62
     5
  6
CONTINUOUS
 10
-0.414559
 20
-0.385346
  0
SEQEND
  8
0
  0
POLYLINE
  8
PLAN_1
 62
     5
  6
CONTINUOUS
 66
     1
 40
0.003000
 41
0.003000
  0
VERTEX
  8
PLAN_1
 62
     5
  6
CONTINUOUS
 10
-0.414559
 20
-0.393665
  0
VERTEX
  8
PLAN_1
 62
     5
  6
CONTINUOUS
 10
-0.414559
 20
-0.401988
  0
SEQEND
  8
0
  0
POLYLINE
  8
PLAN_1
 62
     5
  6
CONTINUOUS
 66
     1
 40
0.003000
 41
0.003000
  0
VERTEX
  8
PLAN_1
 62
     5
  6
CONTINUOUS
 10
-0.414559
 20
-0.410307
  0
VERTEX
  8
PLAN_1
 62
     5
  6
CONTINUOUS
 10
-0.414559
 20
-0.418630
  0
SEQEND
  8
0
  0
POLYLINE
  8
PLAN_1
 62
     5
  6
CONTINUOUS
 66
     1
 40
0.003000
 41
0.003000
  0
VERTEX
  8
PLAN_1
 62
     5
  6
CONTINUOUS
 10
-0.414559
 20
-0.426949
  0
VERTEX
  8
PLAN_1
 62
     5
  6
CONTINUOUS
 10
-0.414559
 20
-0.435272
  0
SEQEND
  8
0
  0
POLYLINE
  8
PLAN_1
 62
     5
  6
CONTINUOUS
 66
     1
 40
0.003000
 41
0.003000
  0
VERTEX
  8
PLAN_1
 62
     5
  6
CONTINUOUS
 10
-0.414559
 20
-0.443591
  0
VERTEX
  8
PLAN_1
 62
     5
  6
CONTINUOUS
 10
-0.414559
 20
-0.451913
  0
SEQEND
  8
0
  0
POLYLINE
  8
PLAN_1
 62
     5
  6
CONTINUOUS
 66
     1
 40
0.003000
 41
0.003000
  0
VERTEX
  8
PLAN_1
 62
     5
  6
CONTINUOUS
 10
-0.414559
 20
-0.460232
  0
VERTEX
  8
PLAN_1
 62
     5
  6
CONTINUOUS
 10
-0.414559
 20
-0.468555
  0
SEQEND
  8
0
  0
POLYLINE
  8
PLAN_1
 62
     5
  6
CONTINUOUS
 66
     1
 40
0.003000
 41
0.003000
  0
VERTEX
  8
PLAN_1
 62
     5
  6
CONTINUOUS
 10
-0.414559
 20
-0.476874
  0
VERTEX
  8
PLAN_1
 62
     5
  6
CONTINUOUS
 10
-0.414559
 20
-0.485197
  0
SEQEND
  8
0
  0
POLYLINE
  8
PLAN_1
 62
     5
  6
CONTINUOUS
 66
     1
 40
0.003000
 41
0.003000
  0
VERTEX
  8
PLAN_1
 62
     5
  6
CONTINUOUS
 10
-0.414559
 20
-0.493516
  0
VERTEX
  8
PLAN_1
 62
     5
  6
CONTINUOUS
 10
-0.414559
 20
-0.501839
  0
SEQEND
  8
0
  0
POLYLINE
  8
PLAN_1
 62
     5
  6
CONTINUOUS
 66
     1
 40
0.003000
 41
0.003000
  0
VERTEX
  8
PLAN_1
 62
     5
  6
CONTINUOUS
 10
-0.414559
 20
-0.510157
  0
VERTEX
  8
PLAN_1
 62
     5
  6
CONTINUOUS
 10
-0.414559
 20
-0.518480
  0
SEQEND
  8
0
  0
POLYLINE
  8
PLAN_1
 62
     5
  6
CONTINUOUS
 66
     1
 40
0.003000
 41
0.003000
  0
VERTEX
  8
PLAN_1
 62
     5
  6
CONTINUOUS
 10
-0.414559
 20
-0.526799
  0
VERTEX
  8
PLAN_1
 62
     5
  6
CONTINUOUS
 10
-0.414559
 20
-0.535122
  0
SEQEND
  8
0
  0
POLYLINE
  8
PLAN_1
 62
     5
  6
CONTINUOUS
 66
     1
 40
0.003000
 41
0.003000
  0
VERTEX
  8
PLAN_1
 62
     5
  6
CONTINUOUS
 10
-0.414559
 20
-0.543441
  0
VERTEX
  8
PLAN_1
 62
     5
  6
CONTINUOUS
 10
-0.414559
 20
-0.552283
  0
SEQEND
  8
0
  0
POLYLINE
  8
PLAN_1
 62
     5
  6
CONTINUOUS
 66
     1
 40
0.003000
 41
0.003000
  0
VERTEX
  8
PLAN_1
 62
     5
  6
CONTINUOUS
 10
-0.414559
 20
-0.560602
  0
VERTEX
  8
PLAN_1
 62
     5
  6
CONTINUOUS
 10
-0.414559
 20
-0.568925
  0
SEQEND
  8
0
  0
POLYLINE
  8
PLAN_1
 62
     5
  6
CONTINUOUS
 66
     1
 40
0.003000
 41
0.003000
  0
VERTEX
  8
PLAN_1
 62
     5
  6
CONTINUOUS
 10
-0.414559
 20
-0.577244
  0
VERTEX
  8
PLAN_1
 62
     5
  6
CONTINUOUS
 10
-0.414559
 20
-0.585567
  0
SEQEND
  8
0
  0
POLYLINE
  8
PLAN_1
 62
     5
  6
CONTINUOUS
 66
     1
 40
0.003000
 41
0.003000
  0
VERTEX
  8
PLAN_1
 62
     5
  6
CONTINUOUS
 10
-0.414559
 20
-0.593886
  0
VERTEX
  8
PLAN_1
 62
     5
  6
CONTINUOUS
 10
-0.414559
 20
-0.602209
  0
SEQEND
  8
0
  0
POLYLINE
  8
PLAN_1
 62
     5
  6
CONTINUOUS
 66
     1
 40
0.003000
 41
0.003000
  0
VERTEX
  8
PLAN_1
 62
     5
  6
CONTINUOUS
 10
-0.414559
 20
-0.610528
  0
VERTEX
  8
PLAN_1
 62
     5
  6
CONTINUOUS
 10
-0.414559
 20
-0.618846
  0
SEQEND
  8
0
  0
POLYLINE
  8
PLAN_1
 62
     5
  6
CONTINUOUS
 66
     1
 40
0.003000
 41
0.003000
  0
VERTEX
  8
PLAN_1
 62
     5
  6
CONTINUOUS
 10
-0.414559
 20
-0.627169
  0
VERTEX
  8
PLAN_1
 62
     5
  6
CONTINUOUS
 10
-0.414559
 20
-0.635488
  0
SEQEND
  8
0
  0
POLYLINE
  8
PLAN_1
 62
     5
  6
CONTINUOUS
 66
     1
 40
0.003000
 41
0.003000
  0
VERTEX
  8
PLAN_1
 62
     5
  6
CONTINUOUS
 10
-0.414559
 20
-0.643811
  0
VERTEX
  8
PLAN_1
 62
     5
  6
CONTINUOUS
 10
-0.414559
 20
-0.652130
  0
SEQEND
  8
0
  0
POLYLINE
  8
PLAN_1
 62
     5
  6
CONTINUOUS
 66
     1
 40
0.003000
 41
0.003000
  0
VERTEX
  8
PLAN_1
 62
     5
  6
CONTINUOUS
 10
-0.414559
 20
-0.660453
  0
VERTEX
  8
PLAN_1
 62
     5
  6
CONTINUOUS
 10
-0.414559
 20
-0.668772
  0
SEQEND
  8
0
  0
POLYLINE
  8
PLAN_1
 62
     5
  6
CONTINUOUS
 66
     1
 40
0.003000
 41
0.003000
  0
VERTEX
  8
PLAN_1
 62
     5
  6
CONTINUOUS
 10
-0.414559
 20
-0.677094
  0
VERTEX
  8
PLAN_1
 62
     5
  6
CONTINUOUS
 10
-0.414559
 20
-0.685413
  0
SEQEND
  8
0
  0
POLYLINE
  8
PLAN_1
 62
     5
  6
CONTINUOUS
 66
     1
 40
0.003000
 41
0.003000
  0
VERTEX
  8
PLAN_1
 62
     5
  6
CONTINUOUS
 10
-0.414559
 20
-0.693736
  0
VERTEX
  8
PLAN_1
 62
     5
  6
CONTINUOUS
 10
-0.414559
 20
-0.702055
  0
SEQEND
  8
0
  0
POLYLINE
  8
PLAN_1
 62
     5
  6
CONTINUOUS
 66
     1
 40
0.003000
 41
0.003000
  0
VERTEX
  8
PLAN_1
 62
     5
  6
CONTINUOUS
 10
-0.414559
 20
-0.710378
  0
VERTEX
  8
PLAN_1
 62
     5
  6
CONTINUOUS
 10
-0.414559
 20
-0.718697
  0
SEQEND
  8
0
  0
POLYLINE
  8
PLAN_1
 62
     5
  6
CONTINUOUS
 66
     1
 40
0.003000
 41
0.003000
  0
VERTEX
  8
PLAN_1
 62
     5
  6
CONTINUOUS
 10
-0.414559
 20
-0.727020
  0
VERTEX
  8
PLAN_1
 62
     5
  6
CONTINUOUS
 10
-0.414559
 20
-0.735339
  0
SEQEND
  8
0
  0
POLYLINE
  8
PLAN_1
 62
     5
  6
CONTINUOUS
 66
     1
 40
0.003000
 41
0.003000
  0
VERTEX
  8
PLAN_1
 62
     5
  6
CONTINUOUS
 10
-0.414559
 20
-0.743661
  0
VERTEX
  8
PLAN_1
 62
     5
  6
CONTINUOUS
 10
-0.414559
 20
-0.751980
  0
SEQEND
  8
0
  0
POLYLINE
  8
PLAN_1
 62
     5
  6
CONTINUOUS
 66
     1
 40
0.003000
 41
0.003000
  0
VERTEX
  8
PLAN_1
 62
     5
  6
CONTINUOUS
 10
-0.414559
 20
-0.760303
  0
VERTEX
  8
PLAN_1
 62
     5
  6
CONTINUOUS
 10
-0.414559
 20
-0.768622
  0
SEQEND
  8
0
  0
POLYLINE
  8
PLAN_1
 62
     5
  6
CONTINUOUS
 66
     1
 40
0.003000
 41
0.003000
  0
VERTEX
  8
PLAN_1
 62
     5
  6
CONTINUOUS
 10
-0.414559
 20
-0.776945
  0
VERTEX
  8
PLAN_1
 62
     5
  6
CONTINUOUS
 10
-0.414559
 20
-0.785264
  0
SEQEND
  8
0
  0
POLYLINE
  8
PLAN_1
 62
     5
  6
CONTINUOUS
 66
     1
 40
0.003000
 41
0.003000
  0
VERTEX
  8
PLAN_1
 62
     5
  6
CONTINUOUS
 10
-0.414559
 20
-0.793583
  0
VERTEX
  8
PLAN_1
 62
     5
  6
CONTINUOUS
 10
-0.414559
 20
-0.801906
  0
SEQEND
  8
0
  0
POLYLINE
  8
PLAN_1
 62
     5
  6
CONTINUOUS
 66
     1
 40
0.003000
 41
0.003000
  0
VERTEX
  8
PLAN_1
 62
     5
  6
CONTINUOUS
 10
-0.414559
 20
-0.810224
  0
VERTEX
  8
PLAN_1
 62
     5
  6
CONTINUOUS
 10
-0.414559
 20
-0.818547
  0
SEQEND
  8
0
  0
POLYLINE
  8
PLAN_1
 62
     5
  6
CONTINUOUS
 66
     1
 40
0.003000
 41
0.003000
  0
VERTEX
  8
PLAN_1
 62
     5
  6
CONTINUOUS
 10
-0.414559
 20
-0.826866
  0
VERTEX
  8
PLAN_1
 62
     5
  6
CONTINUOUS
 10
-0.414559
 20
-0.835189
  0
SEQEND
  8
0
  0
POLYLINE
  8
PLAN_1
 62
     5
  6
CONTINUOUS
 66
     1
 40
0.003000
 41
0.003000
  0
VERTEX
  8
PLAN_1
 62
     5
  6
CONTINUOUS
 10
-0.414559
 20
-0.843508
  0
VERTEX
  8
PLAN_1
 62
     5
  6
CONTINUOUS
 10
-0.414559
 20
-0.851831
  0
SEQEND
  8
0
  0
POLYLINE
  8
PLAN_1
 62
     5
  6
CONTINUOUS
 66
     1
 40
0.003000
 41
0.003000
  0
VERTEX
  8
PLAN_1
 62
     5
  6
CONTINUOUS
 10
-0.414559
 20
-0.860150
  0
VERTEX
  8
PLAN_1
 62
     5
  6
CONTINUOUS
 10
-0.414559
 20
-0.868472
  0
SEQEND
  8
0
  0
POLYLINE
  8
PLAN_1
 62
     5
  6
CONTINUOUS
 66
     1
 40
0.003000
 41
0.003000
  0
VERTEX
  8
PLAN_1
 62
     5
  6
CONTINUOUS
 10
-0.414559
 20
-0.876791
  0
VERTEX
  8
PLAN_1
 62
     5
  6
CONTINUOUS
 10
-0.414559
 20
-0.885114
  0
SEQEND
  8
0
  0
POLYLINE
  8
PLAN_1
 62
     5
  6
CONTINUOUS
 66
     1
 40
0.003000
 41
0.003000
  0
VERTEX
  8
PLAN_1
 62
     5
  6
CONTINUOUS
 10
-0.414559
 20
-0.893433
  0
VERTEX
  8
PLAN_1
 62
     5
  6
CONTINUOUS
 10
-0.414559
 20
-0.901756
  0
SEQEND
  8
0
  0
POLYLINE
  8
PLAN_1
 62
     5
  6
CONTINUOUS
 66
     1
 40
0.003000
 41
0.003000
  0
VERTEX
  8
PLAN_1
 62
     5
  6
CONTINUOUS
 10
-0.414559
 20
-0.910075
  0
VERTEX
  8
PLAN_1
 62
     5
  6
CONTINUOUS
 10
-0.414559
 20
-0.918398
  0
SEQEND
  8
0
  0
POLYLINE
  8
PLAN_1
 62
     5
  6
CONTINUOUS
 66
     1
 40
0.003000
 41
0.003000
  0
VERTEX
  8
PLAN_1
 62
     5
  6
CONTINUOUS
 10
-0.414559
 20
-0.926717
  0
VERTEX
  8
PLAN_1
 62
     5
  6
CONTINUOUS
 10
-0.414559
 20
-0.935039
  0
SEQEND
  8
0
  0
POLYLINE
  8
PLAN_1
 62
     5
  6
CONTINUOUS
 66
     1
 40
0.003000
 41
0.003000
  0
VERTEX
  8
PLAN_1
 62
     5
  6
CONTINUOUS
 10
-0.414559
 20
-0.943358
  0
VERTEX
  8
PLAN_1
 62
     5
  6
CONTINUOUS
 10
-0.414559
 20
-0.951681
  0
SEQEND
  8
0
  0
POLYLINE
  8
PLAN_1
 62
     5
  6
CONTINUOUS
 66
     1
 40
0.003000
 41
0.003000
  0
VERTEX
  8
PLAN_1
 62
     5
  6
CONTINUOUS
 10
-0.414559
 20
-0.960000
  0
VERTEX
  8
PLAN_1
 62
     5
  6
CONTINUOUS
 10
-0.414559
 20
-0.968323
  0
SEQEND
  8
0
  0
POLYLINE
  8
PLAN_1
 62
     5
  6
CONTINUOUS
 66
     1
 40
0.003000
 41
0.003000
  0
VERTEX
  8
PLAN_1
 62
     5
  6
CONTINUOUS
 10
-0.414559
 20
-0.976642
  0
VERTEX
  8
PLAN_1
 62
     5
  6
CONTINUOUS
 10
-0.414559
 20
-0.984961
  0
SEQEND
  8
0
  0
POLYLINE
  8
PLAN_1
 62
     5
  6
CONTINUOUS
 66
     1
 40
0.003000
 41
0.003000
  0
VERTEX
  8
PLAN_1
 62
     5
  6
CONTINUOUS
 10
-0.414559
 20
-0.993283
  0
VERTEX
  8
PLAN_1
 62
     5
  6
CONTINUOUS
 10
-0.414559
 20
-1.001602
  0
SEQEND
  8
0
  0
POLYLINE
  8
PLAN_1
 62
     5
  6
CONTINUOUS
 66
     1
 40
0.003000
 41
0.003000
  0
VERTEX
  8
PLAN_1
 62
     5
  6
CONTINUOUS
 10
-0.414559
 20
-1.009925
  0
VERTEX
  8
PLAN_1
 62
     5
  6
CONTINUOUS
 10
-0.414559
 20
-1.018244
  0
SEQEND
  8
0
  0
POLYLINE
  8
PLAN_1
 62
     5
  6
CONTINUOUS
 66
     1
 40
0.003000
 41
0.003000
  0
VERTEX
  8
PLAN_1
 62
     5
  6
CONTINUOUS
 10
-0.414559
 20
-1.026567
  0
VERTEX
  8
PLAN_1
 62
     5
  6
CONTINUOUS
 10
-0.414559
 20
-1.034886
  0
SEQEND
  8
0
  0
POLYLINE
  8
PLAN_1
 62
     5
  6
CONTINUOUS
 66
     1
 40
0.003000
 41
0.003000
  0
VERTEX
  8
PLAN_1
 62
     5
  6
CONTINUOUS
 10
-0.414559
 20
-1.043209
  0
VERTEX
  8
PLAN_1
 62
     5
  6
CONTINUOUS
 10
-0.414559
 20
-1.051528
  0
SEQEND
  8
0
  0
POLYLINE
  8
PLAN_1
 62
     5
  6
CONTINUOUS
 66
     1
 40
0.003000
 41
0.003000
  0
VERTEX
  8
PLAN_1
 62
     5
  6
CONTINUOUS
 10
-0.414559
 20
-1.059850
  0
VERTEX
  8
PLAN_1
 62
     5
  6
CONTINUOUS
 10
-0.414559
 20
-1.068169
  0
SEQEND
  8
0
  0
POLYLINE
  8
PLAN_1
 62
     5
  6
CONTINUOUS
 66
     1
 40
0.003000
 41
0.003000
  0
VERTEX
  8
PLAN_1
 62
     5
  6
CONTINUOUS
 10
-0.414559
 20
-1.076492
  0
VERTEX
  8
PLAN_1
 62
     5
  6
CONTINUOUS
 10
-0.414559
 20
-1.083252
  0
SEQEND
  8
0
  0
POLYLINE
  8
PLAN_1
 62
     5
  6
CONTINUOUS
 66
     1
 40
0.003000
 41
0.003000
  0
VERTEX
  8
PLAN_1
 62
     5
  6
CONTINUOUS
 10
-0.414559
 20
-1.076492
  0
VERTEX
  8
PLAN_1
 62
     5
  6
CONTINUOUS
 10
-0.414559
 20
-1.083252
  0
SEQEND
  8
0
  0
POLYLINE
  8
PLAN_1
 62
     5
  6
CONTINUOUS
 66
     1
 40
0.003000
 41
0.003000
  0
VERTEX
  8
PLAN_1
 62
     5
  6
CONTINUOUS
 10
-0.728150
 20
-0.601165
  0
VERTEX
  8
PLAN_1
 62
     5
  6
CONTINUOUS
 10
-0.719827
 20
-0.601165
  0
SEQEND
  8
0
  0
POLYLINE
  8
PLAN_1
 62
     5
  6
CONTINUOUS
 66
     1
 40
0.003000
 41
0.003000
  0
VERTEX
  8
PLAN_1
 62
     5
  6
CONTINUOUS
 10
-0.711508
 20
-0.601165
  0
VERTEX
  8
PLAN_1
 62
     5
  6
CONTINUOUS
 10
-0.703185
 20
-0.601165
  0
SEQEND
  8
0
  0
POLYLINE
  8
PLAN_1
 62
     5
  6
CONTINUOUS
 66
     1
 40
0.003000
 41
0.003000
  0
VERTEX
  8
PLAN_1
 62
     5
  6
CONTINUOUS
 10
-0.694866
 20
-0.601165
  0
VERTEX
  8
PLAN_1
 62
     5
  6
CONTINUOUS
 10
-0.686543
 20
-0.601165
  0
SEQEND
  8
0
  0
POLYLINE
  8
PLAN_1
 62
     5
  6
CONTINUOUS
 66
     1
 40
0.003000
 41
0.003000
  0
VERTEX
  8
PLAN_1
 62
     5
  6
CONTINUOUS
 10
-0.678224
 20
-0.601165
  0
VERTEX
  8
PLAN_1
 62
     5
  6
CONTINUOUS
 10
-0.669902
 20
-0.601165
  0
SEQEND
  8
0
  0
POLYLINE
  8
PLAN_1
 62
     5
  6
CONTINUOUS
 66
     1
 40
0.003000
 41
0.003000
  0
VERTEX
  8
PLAN_1
 62
     5
  6
CONTINUOUS
 10
-0.661583
 20
-0.601165
  0
VERTEX
  8
PLAN_1
 62
     5
  6
CONTINUOUS
 10
-0.653260
 20
-0.601165
  0
SEQEND
  8
0
  0
POLYLINE
  8
PLAN_1
 62
     5
  6
CONTINUOUS
 66
     1
 40
0.003000
 41
0.003000
  0
VERTEX
  8
PLAN_1
 62
     5
  6
CONTINUOUS
 10
-0.644941
 20
-0.601165
  0
VERTEX
  8
PLAN_1
 62
     5
  6
CONTINUOUS
 10
-0.636618
 20
-0.601165
  0
SEQEND
  8
0
  0
POLYLINE
  8
PLAN_1
 62
     5
  6
CONTINUOUS
 66
     1
 40
0.003000
 41
0.003000
  0
VERTEX
  8
PLAN_1
 62
     5
  6
CONTINUOUS
 10
-0.628299
 20
-0.601165
  0
VERTEX
  8
PLAN_1
 62
     5
  6
CONTINUOUS
 10
-0.619976
 20
-0.601165
  0
SEQEND
  8
0
  0
POLYLINE
  8
PLAN_1
 62
     5
  6
CONTINUOUS
 66
     1
 40
0.003000
 41
0.003000
  0
VERTEX
  8
PLAN_1
 62
     5
  6
CONTINUOUS
 10
-0.611657
 20
-0.601165
  0
VERTEX
  8
PLAN_1
 62
     5
  6
CONTINUOUS
 10
-0.603335
 20
-0.601165
  0
SEQEND
  8
0
  0
POLYLINE
  8
PLAN_1
 62
     5
  6
CONTINUOUS
 66
     1
 40
0.003000
 41
0.003000
  0
VERTEX
  8
PLAN_1
 62
     5
  6
CONTINUOUS
 10
-0.595016
 20
-0.601165
  0
VERTEX
  8
PLAN_1
 62
     5
  6
CONTINUOUS
 10
-0.586693
 20
-0.601165
  0
SEQEND
  8
0
  0
POLYLINE
  8
PLAN_1
 62
     5
  6
CONTINUOUS
 66
     1
 40
0.003000
 41
0.003000
  0
VERTEX
  8
PLAN_1
 62
     5
  6
CONTINUOUS
 10
-0.578374
 20
-0.601165
  0
VERTEX
  8
PLAN_1
 62
     5
  6
CONTINUOUS
 10
-0.570051
 20
-0.601165
  0
SEQEND
  8
0
  0
POLYLINE
  8
PLAN_1
 62
     5
  6
CONTINUOUS
 66
     1
 40
0.003000
 41
0.003000
  0
VERTEX
  8
PLAN_1
 62
     5
  6
CONTINUOUS
 10
-0.561732
 20
-0.601165
  0
VERTEX
  8
PLAN_1
 62
     5
  6
CONTINUOUS
 10
-0.553413
 20
-0.601165
  0
SEQEND
  8
0
  0
POLYLINE
  8
PLAN_1
 62
     5
  6
CONTINUOUS
 66
     1
 40
0.003000
 41
0.003000
  0
VERTEX
  8
PLAN_1
 62
     5
  6
CONTINUOUS
 10
-0.545091
 20
-0.601165
  0
VERTEX
  8
PLAN_1
 62
     5
  6
CONTINUOUS
 10
-0.536772
 20
-0.601165
  0
SEQEND
  8
0
  0
POLYLINE
  8
PLAN_1
 62
     5
  6
CONTINUOUS
 66
     1
 40
0.003000
 41
0.003000
  0
VERTEX
  8
PLAN_1
 62
     5
  6
CONTINUOUS
 10
-0.528449
 20
-0.601165
  0
VERTEX
  8
PLAN_1
 62
     5
  6
CONTINUOUS
 10
-0.520130
 20
-0.601165
  0
SEQEND
  8
0
  0
POLYLINE
  8
PLAN_1
 62
     5
  6
CONTINUOUS
 66
     1
 40
0.003000
 41
0.003000
  0
VERTEX
  8
PLAN_1
 62
     5
  6
CONTINUOUS
 10
-0.511807
 20
-0.601165
  0
VERTEX
  8
PLAN_1
 62
     5
  6
CONTINUOUS
 10
-0.503488
 20
-0.601165
  0
SEQEND
  8
0
  0
POLYLINE
  8
PLAN_1
 62
     5
  6
CONTINUOUS
 66
     1
 40
0.003000
 41
0.003000
  0
VERTEX
  8
PLAN_1
 62
     5
  6
CONTINUOUS
 10
-0.495165
 20
-0.601165
  0
VERTEX
  8
PLAN_1
 62
     5
  6
CONTINUOUS
 10
-0.486846
 20
-0.601165
  0
SEQEND
  8
0
  0
POLYLINE
  8
PLAN_1
 62
     5
  6
CONTINUOUS
 66
     1
 40
0.003000
 41
0.003000
  0
VERTEX
  8
PLAN_1
 62
     5
  6
CONTINUOUS
 10
-0.478524
 20
-0.601165
  0
VERTEX
  8
PLAN_1
 62
     5
  6
CONTINUOUS
 10
-0.470205
 20
-0.601165
  0
SEQEND
  8
0
  0
POLYLINE
  8
PLAN_1
 62
     5
  6
CONTINUOUS
 66
     1
 40
0.003000
 41
0.003000
  0
VERTEX
  8
PLAN_1
 62
     5
  6
CONTINUOUS
 10
-0.461882
 20
-0.601165
  0
VERTEX
  8
PLAN_1
 62
     5
  6
CONTINUOUS
 10
-0.453563
 20
-0.601165
  0
SEQEND
  8
0
  0
POLYLINE
  8
PLAN_1
 62
     5
  6
CONTINUOUS
 66
     1
 40
0.003000
 41
0.003000
  0
VERTEX
  8
PLAN_1
 62
     5
  6
CONTINUOUS
 10
-0.445240
 20
-0.601165
  0
VERTEX
  8
PLAN_1
 62
     5
  6
CONTINUOUS
 10
-0.436921
 20
-0.601165
  0
SEQEND
  8
0
  0
POLYLINE
  8
PLAN_1
 62
     5
  6
CONTINUOUS
 66
     1
 40
0.003000
 41
0.003000
  0
VERTEX
  8
PLAN_1
 62
     5
  6
CONTINUOUS
 10
-0.428598
 20
-0.601165
  0
VERTEX
  8
PLAN_1
 62
     5
  6
CONTINUOUS
 10
-0.420280
 20
-0.601165
  0
SEQEND
  8
0
  0
POLYLINE
  8
PLAN_1
 62
     5
  6
CONTINUOUS
 66
     1
 40
0.003000
 41
0.003000
  0
VERTEX
  8
PLAN_1
 62
     5
  6
CONTINUOUS
 10
-0.596055
 20
-0.727539
  0
VERTEX
  8
PLAN_1
 62
     5
  6
CONTINUOUS
 10
-0.596055
 20
-0.719217
  0
SEQEND
  8
0
  0
POLYLINE
  8
PLAN_1
 62
     5
  6
CONTINUOUS
 66
     1
 40
0.003000
 41
0.003000
  0
VERTEX
  8
PLAN_1
 62
     5
  6
CONTINUOUS
 10
-0.596055
 20
-0.710898
  0
VERTEX
  8
PLAN_1
 62
     5
  6
CONTINUOUS
 10
-0.596055
 20
-0.702575
  0
SEQEND
  8
0
  0
POLYLINE
  8
PLAN_1
 62
     5
  6
CONTINUOUS
 66
     1
 40
0.003000
 41
0.003000
  0
VERTEX
  8
PLAN_1
 62
     5
  6
CONTINUOUS
 10
-0.596055
 20
-0.694256
  0
VERTEX
  8
PLAN_1
 62
     5
  6
CONTINUOUS
 10
-0.596055
 20
-0.685933
  0
SEQEND
  8
0
  0
POLYLINE
  8
PLAN_1
 62
     5
  6
CONTINUOUS
 66
     1
 40
0.003000
 41
0.003000
  0
VERTEX
  8
PLAN_1
 62
     5
  6
CONTINUOUS
 10
-0.596055
 20
-0.677614
  0
VERTEX
  8
PLAN_1
 62
     5
  6
CONTINUOUS
 10
-0.596055
 20
-0.669291
  0
SEQEND
  8
0
  0
POLYLINE
  8
PLAN_1
 62
     5
  6
CONTINUOUS
 66
     1
 40
0.003000
 41
0.003000
  0
VERTEX
  8
PLAN_1
 62
     5
  6
CONTINUOUS
 10
-0.596055
 20
-0.660972
  0
VERTEX
  8
PLAN_1
 62
     5
  6
CONTINUOUS
 10
-0.596055
 20
-0.652650
  0
SEQEND
  8
0
  0
POLYLINE
  8
PLAN_1
 62
     5
  6
CONTINUOUS
 66
     1
 40
0.003000
 41
0.003000
  0
VERTEX
  8
PLAN_1
 62
     5
  6
CONTINUOUS
 10
-0.596055
 20
-0.644331
  0
VERTEX
  8
PLAN_1
 62
     5
  6
CONTINUOUS
 10
-0.596055
 20
-0.636012
  0
SEQEND
  8
0
  0
POLYLINE
  8
PLAN_1
 62
     5
  6
CONTINUOUS
 66
     1
 40
0.003000
 41
0.003000
  0
VERTEX
  8
PLAN_1
 62
     5
  6
CONTINUOUS
 10
-0.596055
 20
-0.627689
  0
VERTEX
  8
PLAN_1
 62
     5
  6
CONTINUOUS
 10
-0.596055
 20
-0.619370
  0
SEQEND
  8
0
  0
POLYLINE
  8
PLAN_1
 62
     5
  6
CONTINUOUS
 66
     1
 40
0.003000
 41
0.003000
  0
VERTEX
  8
PLAN_1
 62
     5
  6
CONTINUOUS
 10
-0.596055
 20
-0.611047
  0
VERTEX
  8
PLAN_1
 62
     5
  6
CONTINUOUS
 10
-0.596055
 20
-0.602728
  0
SEQEND
  8
0
  0
POLYLINE
  8
PLAN_1
 62
     5
  6
CONTINUOUS
 66
     1
 40
0.003000
 41
0.003000
  0
VERTEX
  8
PLAN_1
 62
     5
  6
CONTINUOUS
 10
-0.596055
 20
-0.594406
  0
VERTEX
  8
PLAN_1
 62
     5
  6
CONTINUOUS
 10
-0.596055
 20
-0.586087
  0
SEQEND
  8
0
  0
POLYLINE
  8
PLAN_1
 62
     5
  6
CONTINUOUS
 66
     1
 40
0.003000
 41
0.003000
  0
VERTEX
  8
PLAN_1
 62
     5
  6
CONTINUOUS
 10
-0.596055
 20
-0.577764
  0
VERTEX
  8
PLAN_1
 62
     5
  6
CONTINUOUS
 10
-0.596055
 20
-0.569445
  0
SEQEND
  8
0
  0
POLYLINE
  8
PLAN_1
 62
     5
  6
CONTINUOUS
 66
     1
 40
0.003000
 41
0.003000
  0
VERTEX
  8
PLAN_1
 62
     5
  6
CONTINUOUS
 10
-0.596055
 20
-0.561122
  0
VERTEX
  8
PLAN_1
 62
     5
  6
CONTINUOUS
 10
-0.596055
 20
-0.552803
  0
SEQEND
  8
0
  0
POLYLINE
  8
PLAN_1
 62
     5
  6
CONTINUOUS
 66
     1
 40
0.003000
 41
0.003000
  0
VERTEX
  8
PLAN_1
 62
     5
  6
CONTINUOUS
 10
-0.596055
 20
-0.544480
  0
VERTEX
  8
PLAN_1
 62
     5
  6
CONTINUOUS
 10
-0.596055
 20
-0.536161
  0
SEQEND
  8
0
  0
POLYLINE
  8
PLAN_1
 62
     5
  6
CONTINUOUS
 66
     1
 40
0.003000
 41
0.003000
  0
VERTEX
  8
PLAN_1
 62
     5
  6
CONTINUOUS
 10
-0.596055
 20
-0.527839
  0
VERTEX
  8
PLAN_1
 62
     5
  6
CONTINUOUS
 10
-0.596055
 20
-0.519520
  0
SEQEND
  8
0
  0
POLYLINE
  8
PLAN_1
 62
     5
  6
CONTINUOUS
 66
     1
 40
0.003000
 41
0.003000
  0
VERTEX
  8
PLAN_1
 62
     5
  6
CONTINUOUS
 10
-0.596055
 20
-0.511197
  0
VERTEX
  8
PLAN_1
 62
     5
  6
CONTINUOUS
 10
-0.596055
 20
-0.502878
  0
SEQEND
  8
0
  0
POLYLINE
  8
PLAN_1
 62
     5
  6
CONTINUOUS
 66
     1
 40
0.003000
 41
0.003000
  0
VERTEX
  8
PLAN_1
 62
     5
  6
CONTINUOUS
 10
-0.596055
 20
-0.494555
  0
VERTEX
  8
PLAN_1
 62
     5
  6
CONTINUOUS
 10
-0.596055
 20
-0.486236
  0
SEQEND
  8
0
  0
POLYLINE
  8
PLAN_1
 62
     5
  6
CONTINUOUS
 66
     1
 40
0.003000
 41
0.003000
  0
VERTEX
  8
PLAN_1
 62
     5
  6
CONTINUOUS
 10
-0.596055
 20
-0.477913
  0
VERTEX
  8
PLAN_1
 62
     5
  6
CONTINUOUS
 10
-0.596055
 20
-0.469594
  0
SEQEND
  8
0
  0
POLYLINE
  8
PLAN_1
 62
     5
  6
CONTINUOUS
 66
     1
 40
0.003000
 41
0.003000
  0
VERTEX
  8
PLAN_1
 62
     5
  6
CONTINUOUS
 10
-1.944543
 20
-0.601165
  0
VERTEX
  8
PLAN_1
 62
     5
  6
CONTINUOUS
 10
-1.936220
 20
-0.601165
  0
SEQEND
  8
0
  0
POLYLINE
  8
PLAN_1
 62
     5
  6
CONTINUOUS
 66
     1
 40
0.003000
 41
0.003000
  0
VERTEX
  8
PLAN_1
 62
     5
  6
CONTINUOUS
 10
-1.927902
 20
-0.601165
  0
VERTEX
  8
PLAN_1
 62
     5
  6
CONTINUOUS
 10
-1.919579
 20
-0.601165
  0
SEQEND
  8
0
  0
POLYLINE
  8
PLAN_1
 62
     5
  6
CONTINUOUS
 66
     1
 40
0.003000
 41
0.003000
  0
VERTEX
  8
PLAN_1
 62
     5
  6
CONTINUOUS
 10
-1.911260
 20
-0.601165
  0
VERTEX
  8
PLAN_1
 62
     5
  6
CONTINUOUS
 10
-1.902937
 20
-0.601165
  0
SEQEND
  8
0
  0
POLYLINE
  8
PLAN_1
 62
     5
  6
CONTINUOUS
 66
     1
 40
0.003000
 41
0.003000
  0
VERTEX
  8
PLAN_1
 62
     5
  6
CONTINUOUS
 10
-1.894618
 20
-0.601165
  0
VERTEX
  8
PLAN_1
 62
     5
  6
CONTINUOUS
 10
-1.886295
 20
-0.601165
  0
SEQEND
  8
0
  0
POLYLINE
  8
PLAN_1
 62
     5
  6
CONTINUOUS
 66
     1
 40
0.003000
 41
0.003000
  0
VERTEX
  8
PLAN_1
 62
     5
  6
CONTINUOUS
 10
-1.877976
 20
-0.601165
  0
VERTEX
  8
PLAN_1
 62
     5
  6
CONTINUOUS
 10
-1.869654
 20
-0.601165
  0
SEQEND
  8
0
  0
POLYLINE
  8
PLAN_1
 62
     5
  6
CONTINUOUS
 66
     1
 40
0.003000
 41
0.003000
  0
VERTEX
  8
PLAN_1
 62
     5
  6
CONTINUOUS
 10
-1.861335
 20
-0.601165
  0
VERTEX
  8
PLAN_1
 62
     5
  6
CONTINUOUS
 10
-1.853012
 20
-0.601165
  0
SEQEND
  8
0
  0
POLYLINE
  8
PLAN_1
 62
     5
  6
CONTINUOUS
 66
     1
 40
0.003000
 41
0.003000
  0
VERTEX
  8
PLAN_1
 62
     5
  6
CONTINUOUS
 10
-1.844693
 20
-0.601165
  0
VERTEX
  8
PLAN_1
 62
     5
  6
CONTINUOUS
 10
-1.836370
 20
-0.601165
  0
SEQEND
  8
0
  0
POLYLINE
  8
PLAN_1
 62
     5
  6
CONTINUOUS
 66
     1
 40
0.003000
 41
0.003000
  0
VERTEX
  8
PLAN_1
 62
     5
  6
CONTINUOUS
 10
-1.828051
 20
-0.601165
  0
VERTEX
  8
PLAN_1
 62
     5
  6
CONTINUOUS
 10
-1.819728
 20
-0.601165
  0
SEQEND
  8
0
  0
POLYLINE
  8
PLAN_1
 62
     5
  6
CONTINUOUS
 66
     1
 40
0.003000
 41
0.003000
  0
VERTEX
  8
PLAN_1
 62
     5
  6
CONTINUOUS
 10
-1.811409
 20
-0.601165
  0
VERTEX
  8
PLAN_1
 62
     5
  6
CONTINUOUS
 10
-1.803091
 20
-0.601165
  0
SEQEND
  8
0
  0
POLYLINE
  8
PLAN_1
 62
     5
  6
CONTINUOUS
 66
     1
 40
0.003000
 41
0.003000
  0
VERTEX
  8
PLAN_1
 62
     5
  6
CONTINUOUS
 10
-1.794768
 20
-0.601165
  0
VERTEX
  8
PLAN_1
 62
     5
  6
CONTINUOUS
 10
-1.786449
 20
-0.601165
  0
SEQEND
  8
0
  0
POLYLINE
  8
PLAN_1
 62
     5
  6
CONTINUOUS
 66
     1
 40
0.003000
 41
0.003000
  0
VERTEX
  8
PLAN_1
 62
     5
  6
CONTINUOUS
 10
-1.778126
 20
-0.601165
  0
VERTEX
  8
PLAN_1
 62
     5
  6
CONTINUOUS
 10
-1.769807
 20
-0.601165
  0
SEQEND
  8
0
  0
POLYLINE
  8
PLAN_1
 62
     5
  6
CONTINUOUS
 66
     1
 40
0.003000
 41
0.003000
  0
VERTEX
  8
PLAN_1
 62
     5
  6
CONTINUOUS
 10
-1.761484
 20
-0.601165
  0
VERTEX
  8
PLAN_1
 62
     5
  6
CONTINUOUS
 10
-1.753165
 20
-0.601165
  0
SEQEND
  8
0
  0
POLYLINE
  8
PLAN_1
 62
     5
  6
CONTINUOUS
 66
     1
 40
0.003000
 41
0.003000
  0
VERTEX
  8
PLAN_1
 62
     5
  6
CONTINUOUS
 10
-1.744843
 20
-0.601165
  0
VERTEX
  8
PLAN_1
 62
     5
  6
CONTINUOUS
 10
-1.736524
 20
-0.601165
  0
SEQEND
  8
0
  0
POLYLINE
  8
PLAN_1
 62
     5
  6
CONTINUOUS
 66
     1
 40
0.003000
 41
0.003000
  0
VERTEX
  8
PLAN_1
 62
     5
  6
CONTINUOUS
 10
-1.728201
 20
-0.601165
  0
VERTEX
  8
PLAN_1
 62
     5
  6
CONTINUOUS
 10
-1.719882
 20
-0.601165
  0
SEQEND
  8
0
  0
POLYLINE
  8
PLAN_1
 62
     5
  6
CONTINUOUS
 66
     1
 40
0.003000
 41
0.003000
  0
VERTEX
  8
PLAN_1
 62
     5
  6
CONTINUOUS
 10
-1.711559
 20
-0.601165
  0
VERTEX
  8
PLAN_1
 62
     5
  6
CONTINUOUS
 10
-1.703240
 20
-0.601165
  0
SEQEND
  8
0
  0
POLYLINE
  8
PLAN_1
 62
     5
  6
CONTINUOUS
 66
     1
 40
0.003000
 41
0.003000
  0
VERTEX
  8
PLAN_1
 62
     5
  6
CONTINUOUS
 10
-1.694917
 20
-0.601165
  0
VERTEX
  8
PLAN_1
 62
     5
  6
CONTINUOUS
 10
-1.686598
 20
-0.601165
  0
SEQEND
  8
0
  0
POLYLINE
  8
PLAN_1
 62
     5
  6
CONTINUOUS
 66
     1
 40
0.003000
 41
0.003000
  0
VERTEX
  8
PLAN_1
 62
     5
  6
CONTINUOUS
 10
-1.678276
 20
-0.601165
  0
VERTEX
  8
PLAN_1
 62
     5
  6
CONTINUOUS
 10
-1.675157
 20
-0.601165
  0
SEQEND
  8
0
  0
POLYLINE
  8
PLAN_1
 62
     5
  6
CONTINUOUS
 66
     1
 40
0.003000
 41
0.003000
  0
VERTEX
  8
PLAN_1
 62
     5
  6
CONTINUOUS
 10
-1.678276
 20
-0.601165
  0
VERTEX
  8
PLAN_1
 62
     5
  6
CONTINUOUS
 10
-1.675157
 20
-0.601165
  0
SEQEND
  8
0
  0
POLYLINE
  8
PLAN_1
 62
     5
  6
CONTINUOUS
 66
     1
 40
0.003000
 41
0.003000
  0
VERTEX
  8
PLAN_1
 62
     5
  6
CONTINUOUS
 10
-1.812449
 20
-0.742098
  0
VERTEX
  8
PLAN_1
 62
     5
  6
CONTINUOUS
 10
-1.812449
 20
-0.733780
  0
SEQEND
  8
0
  0
POLYLINE
  8
PLAN_1
 62
     5
  6
CONTINUOUS
 66
     1
 40
0.003000
 41
0.003000
  0
VERTEX
  8
PLAN_1
 62
     5
  6
CONTINUOUS
 10
-1.812449
 20
-0.725457
  0
VERTEX
  8
PLAN_1
 62
     5
  6
CONTINUOUS
 10
-1.812449
 20
-0.717138
  0
SEQEND
  8
0
  0
POLYLINE
  8
PLAN_1
 62
     5
  6
CONTINUOUS
 66
     1
 40
0.003000
 41
0.003000
  0
VERTEX
  8
PLAN_1
 62
     5
  6
CONTINUOUS
 10
-1.812449
 20
-0.708815
  0
VERTEX
  8
PLAN_1
 62
     5
  6
CONTINUOUS
 10
-1.812449
 20
-0.700496
  0
SEQEND
  8
0
  0
POLYLINE
  8
PLAN_1
 62
     5
  6
CONTINUOUS
 66
     1
 40
0.003000
 41
0.003000
  0
VERTEX
  8
PLAN_1
 62
     5
  6
CONTINUOUS
 10
-1.812449
 20
-0.692173
  0
VERTEX
  8
PLAN_1
 62
     5
  6
CONTINUOUS
 10
-1.812449
 20
-0.683854
  0
SEQEND
  8
0
  0
POLYLINE
  8
PLAN_1
 62
     5
  6
CONTINUOUS
 66
     1
 40
0.003000
 41
0.003000
  0
VERTEX
  8
PLAN_1
 62
     5
  6
CONTINUOUS
 10
-1.812449
 20
-0.675535
  0
VERTEX
  8
PLAN_1
 62
     5
  6
CONTINUOUS
 10
-1.812449
 20
-0.667213
  0
SEQEND
  8
0
  0
POLYLINE
  8
PLAN_1
 62
     5
  6
CONTINUOUS
 66
     1
 40
0.003000
 41
0.003000
  0
VERTEX
  8
PLAN_1
 62
     5
  6
CONTINUOUS
 10
-1.812449
 20
-0.658894
  0
VERTEX
  8
PLAN_1
 62
     5
  6
CONTINUOUS
 10
-1.812449
 20
-0.650571
  0
SEQEND
  8
0
  0
POLYLINE
  8
PLAN_1
 62
     5
  6
CONTINUOUS
 66
     1
 40
0.003000
 41
0.003000
  0
VERTEX
  8
PLAN_1
 62
     5
  6
CONTINUOUS
 10
-1.812449
 20
-0.642252
  0
VERTEX
  8
PLAN_1
 62
     5
  6
CONTINUOUS
 10
-1.812449
 20
-0.633929
  0
SEQEND
  8
0
  0
POLYLINE
  8
PLAN_1
 62
     5
  6
CONTINUOUS
 66
     1
 40
0.003000
 41
0.003000
  0
VERTEX
  8
PLAN_1
 62
     5
  6
CONTINUOUS
 10
-1.812449
 20
-0.625610
  0
VERTEX
  8
PLAN_1
 62
     5
  6
CONTINUOUS
 10
-1.812449
 20
-0.617287
  0
SEQEND
  8
0
  0
POLYLINE
  8
PLAN_1
 62
     5
  6
CONTINUOUS
 66
     1
 40
0.003000
 41
0.003000
  0
VERTEX
  8
PLAN_1
 62
     5
  6
CONTINUOUS
 10
-1.812449
 20
-0.608969
  0
VERTEX
  8
PLAN_1
 62
     5
  6
CONTINUOUS
 10
-1.812449
 20
-0.600646
  0
SEQEND
  8
0
  0
POLYLINE
  8
PLAN_1
 62
     5
  6
CONTINUOUS
 66
     1
 40
0.003000
 41
0.003000
  0
VERTEX
  8
PLAN_1
 62
     5
  6
CONTINUOUS
 10
-1.812449
 20
-0.592327
  0
VERTEX
  8
PLAN_1
 62
     5
  6
CONTINUOUS
 10
-1.812449
 20
-0.583484
  0
SEQEND
  8
0
  0
POLYLINE
  8
PLAN_1
 62
     5
  6
CONTINUOUS
 66
     1
 40
0.003000
 41
0.003000
  0
VERTEX
  8
PLAN_1
 62
     5
  6
CONTINUOUS
 10
-1.812449
 20
-0.575165
  0
VERTEX
  8
PLAN_1
 62
     5
  6
CONTINUOUS
 10
-1.812449
 20
-0.566843
  0
SEQEND
  8
0
  0
POLYLINE
  8
PLAN_1
 62
     5
  6
CONTINUOUS
 66
     1
 40
0.003000
 41
0.003000
  0
VERTEX
  8
PLAN_1
 62
     5
  6
CONTINUOUS
 10
-1.812449
 20
-0.558524
  0
VERTEX
  8
PLAN_1
 62
     5
  6
CONTINUOUS
 10
-1.812449
 20
-0.550201
  0
SEQEND
  8
0
  0
POLYLINE
  8
PLAN_1
 62
     5
  6
CONTINUOUS
 66
     1
 40
0.003000
 41
0.003000
  0
VERTEX
  8
PLAN_1
 62
     5
  6
CONTINUOUS
 10
-1.812449
 20
-0.541882
  0
VERTEX
  8
PLAN_1
 62
     5
  6
CONTINUOUS
 10
-1.812449
 20
-0.533559
  0
SEQEND
  8
0
  0
POLYLINE
  8
PLAN_1
 62
     5
  6
CONTINUOUS
 66
     1
 40
0.003000
 41
0.003000
  0
VERTEX
  8
PLAN_1
 62
     5
  6
CONTINUOUS
 10
-1.812449
 20
-0.525240
  0
VERTEX
  8
PLAN_1
 62
     5
  6
CONTINUOUS
 10
-1.812449
 20
-0.516917
  0
SEQEND
  8
0
  0
POLYLINE
  8
PLAN_1
 62
     5
  6
CONTINUOUS
 66
     1
 40
0.003000
 41
0.003000
  0
VERTEX
  8
PLAN_1
 62
     5
  6
CONTINUOUS
 10
-1.812449
 20
-0.508598
  0
VERTEX
  8
PLAN_1
 62
     5
  6
CONTINUOUS
 10
-1.812449
 20
-0.500276
  0
SEQEND
  8
0
  0
POLYLINE
  8
PLAN_1
 62
     5
  6
CONTINUOUS
 66
     1
 40
0.003000
 41
0.003000
  0
VERTEX
  8
PLAN_1
 62
     5
  6
CONTINUOUS
 10
-1.812449
 20
-0.491957
  0
VERTEX
  8
PLAN_1
 62
     5
  6
CONTINUOUS
 10
-1.812449
 20
-0.483634
  0
SEQEND
  8
0
  0
POLYLINE
  8
PLAN_1
  6
CONTINUOUS
 66
     1
 40
0.008319
 41
0.008319
  0
VERTEX
  8
PLAN_1
  6
CONTINUOUS
 10
-1.128067
 20
-0.946480
  0
VERTEX
  8
PLAN_1
  6
CONTINUOUS
 10
-1.128067
 20
-0.836748
  0
VERTEX
  8
PLAN_1
  6
CONTINUOUS
 10
-1.264319
 20
-0.836748
  0
VERTEX
  8
PLAN_1
  6
CONTINUOUS
 10
-1.264319
 20
-0.946480
  0
VERTEX
  8
PLAN_1
  6
CONTINUOUS
 10
-1.128067
 20
-0.946480
  0
SEQEND
  8
0
  0
POLYLINE
  8
PLAN_1
  6
CONTINUOUS
 66
     1
 40
0.008319
 41
0.008319
  0
VERTEX
  8
PLAN_1
  6
CONTINUOUS
 10
-0.671461
 20
-0.361945
  0
VERTEX
  8
PLAN_1
  6
CONTINUOUS
 10
-0.671461
 20
-0.339063
  0
VERTEX
  8
PLAN_1
  6
CONTINUOUS
 10
-1.736524
 20
-0.339063
  0
VERTEX
  8
PLAN_1
  6
CONTINUOUS
 10
-1.736524
 20
-0.361945
  0
VERTEX
  8
PLAN_1
  6
CONTINUOUS
 10
-0.671461
 20
-0.361945
  0
SEQEND
  8
0
  0
POLYLINE
  8
PLAN_1
  6
CONTINUOUS
 66
     1
 40
0.008319
 41
0.008319
  0
VERTEX
  8
PLAN_1
  6
CONTINUOUS
 10
-0.877402
 20
-0.836748
  0
VERTEX
  8
PLAN_1
  6
CONTINUOUS
 10
-0.877402
 20
-0.361945
  0
VERTEX
  8
PLAN_1
  6
CONTINUOUS
 10
-1.531102
 20
-0.361945
  0
VERTEX
  8
PLAN_1
  6
CONTINUOUS
 10
-1.531102
 20
-0.836748
  0
VERTEX
  8
PLAN_1
  6
CONTINUOUS
 10
-0.877402
 20
-0.836748
  0
SEQEND
  8
0
  0
POLYLINE
  8
PLAN_1
  6
CONTINUOUS
 66
     1
 40
0.008319
 41
0.008319
  0
VERTEX
  8
PLAN_1
  6
CONTINUOUS
 10
-0.641819
 20
0.662551
  0
VERTEX
  8
PLAN_1
  6
CONTINUOUS
 10
-0.554972
 20
0.662551
  0
VERTEX
  8
PLAN_1
  6
CONTINUOUS
 10
-0.554972
 20
-0.150283
  0
SEQEND
  8
0
  0
POLYLINE
  8
PLAN_1
  6
CONTINUOUS
 66
     1
 40
0.008319
 41
0.008319
  0
VERTEX
  8
PLAN_1
  6
CONTINUOUS
 10
-0.554972
 20
-0.150283
  0
VERTEX
  8
PLAN_1
  6
CONTINUOUS
 10
-0.554972
 20
-0.339063
  0
VERTEX
  8
PLAN_1
  6
CONTINUOUS
 10
-0.786394
 20
-0.339063
  0
SEQEND
  8
0
  0
POLYLINE
  8
PLAN_1
  6
CONTINUOUS
 66
     1
 40
0.008319
 41
0.008319
  0
VERTEX
  8
PLAN_1
  6
CONTINUOUS
 10
-1.528504
 20
-0.339063
  0
VERTEX
  8
PLAN_1
  6
CONTINUOUS
 10
-0.884161
 20
-0.339063
  0
SEQEND
  8
0
  0
POLYLINE
  8
PLAN_1
  6
CONTINUOUS
 66
     1
 40
0.008319
 41
0.008319
  0
VERTEX
  8
PLAN_1
  6
CONTINUOUS
 10
-0.786394
 20
-0.339063
  0
VERTEX
  8
PLAN_1
  6
CONTINUOUS
 10
-0.884161
 20
-0.339063
  0
SEQEND
  8
0
  0
POLYLINE
  8
PLAN_1
  6
CONTINUOUS
 66
     1
 40
0.008319
 41
0.008319
  0
VERTEX
  8
PLAN_1
  6
CONTINUOUS
 10
-1.617953
 20
-0.339063
  0
VERTEX
  8
PLAN_1
  6
CONTINUOUS
 10
-1.528504
 20
-0.339063
  0
SEQEND
  8
0
  0
POLYLINE
  8
PLAN_1
  6
CONTINUOUS
 66
     1
 40
0.008319
 41
0.008319
  0
VERTEX
  8
PLAN_1
  6
CONTINUOUS
 10
-1.704280
 20
0.662551
  0
VERTEX
  8
PLAN_1
  6
CONTINUOUS
 10
-1.854055
 20
0.662551
  0
VERTEX
  8
PLAN_1
  6
CONTINUOUS
 10
-1.854055
 20
-0.339063
  0
VERTEX
  8
PLAN_1
  6
CONTINUOUS
 10
-1.617953
 20
-0.339063
  0
SEQEND
  8
0
  0
POLYLINE
  8
PLAN_1
  6
CONTINUOUS
 66
     1
 40
0.008319
 41
0.008319
  0
VERTEX
  8
PLAN_1
  6
CONTINUOUS
 10
-1.704280
 20
-0.149244
  0
VERTEX
  8
PLAN_1
  6
CONTINUOUS
 10
-1.853531
 20
-0.149244
  0
SEQEND
  8
0
  0
POLYLINE
  8
PLAN_1
  6
CONTINUOUS
 66
     1
 40
0.008319
 41
0.008319
  0
VERTEX
  8
PLAN_1
  6
CONTINUOUS
 10
-1.528504
 20
-0.229850
  0
VERTEX
  8
PLAN_1
  6
CONTINUOUS
 10
-1.528504
 20
-0.339063
  0
SEQEND
  8
0
  0
POLYLINE
  8
PLAN_1
  6
CONTINUOUS
 66
     1
 40
0.008319
 41
0.008319
  0
VERTEX
  8
PLAN_1
  6
CONTINUOUS
 10
-0.884161
 20
-0.229850
  0
VERTEX
  8
PLAN_1
  6
CONTINUOUS
 10
-0.884161
 20
-0.339063
  0
SEQEND
  8
0
  0
POLYLINE
  8
PLAN_1
  6
CONTINUOUS
 66
     1
 40
0.008319
 41
0.008319
  0
VERTEX
  8
PLAN_1
  6
CONTINUOUS
 10
-0.553933
 20
-0.150283
  0
VERTEX
  8
PLAN_1
  6
CONTINUOUS
 10
-0.554972
 20
-0.150283
  0
SEQEND
  8
0
  0
POLYLINE
  8
PLAN_1
  6
CONTINUOUS
 66
     1
 40
0.008319
 41
0.008319
  0
VERTEX
  8
PLAN_1
  6
CONTINUOUS
 10
-0.641819
 20
-0.150283
  0
VERTEX
  8
PLAN_1
  6
CONTINUOUS
 10
-0.554972
 20
-0.150283
  0
SEQEND
  8
0
  0
POLYLINE
  8
PLAN_1
  6
CONTINUOUS
 66
     1
 40
0.008319
 41
0.008319
  0
VERTEX
  8
PLAN_1
  6
CONTINUOUS
 10
-1.617953
 20
-0.339063
  0
VERTEX
  8
PLAN_1
  6
CONTINUOUS
 10
-1.617953
 20
-0.229850
  0
SEQEND
  8
0
  0
POLYLINE
  8
PLAN_1
  6
CONTINUOUS
 66
     1
 40
0.008319
 41
0.008319
  0
VERTEX
  8
PLAN_1
  6
CONTINUOUS
 10
-0.786394
 20
-0.339063
  0
VERTEX
  8
PLAN_1
  6
CONTINUOUS
 10
-0.786394
 20
-0.229850
  0
SEQEND
  8
0
  0
POLYLINE
  8
PLAN_1
  6
CONTINUOUS
 66
     1
 40
0.008319
 41
0.008319
  0
VERTEX
  8
PLAN_1
  6
CONTINUOUS
 10
-1.851972
 20
0.459732
  0
VERTEX
  8
PLAN_1
  6
CONTINUOUS
 10
-1.704280
 20
0.459732
  0
SEQEND
  8
0
  0
POLYLINE
  8
PLAN_1
  6
CONTINUOUS
 66
     1
 40
0.008319
 41
0.008319
  0
VERTEX
  8
PLAN_1
  6
CONTINUOUS
 10
-0.641819
 20
0.459732
  0
VERTEX
  8
PLAN_1
  6
CONTINUOUS
 10
-0.557051
 20
0.459732
  0
SEQEND
  8
0
  0
POLYLINE
  8
PLAN_1
  6
CONTINUOUS
 66
     1
 40
0.008319
 41
0.008319
  0
VERTEX
  8
PLAN_1
  6
CONTINUOUS
 10
-1.704280
 20
0.662551
  0
VERTEX
  8
PLAN_1
  6
CONTINUOUS
 10
-1.704280
 20
0.459732
  0
SEQEND
  8
0
  0
POLYLINE
  8
PLAN_1
  6
CONTINUOUS
 66
     1
 40
0.008319
 41
0.008319
  0
VERTEX
  8
PLAN_1
  6
CONTINUOUS
 10
-1.704280
 20
-0.149244
  0
VERTEX
  8
PLAN_1
  6
CONTINUOUS
 10
-1.704280
 20
-0.229850
  0
VERTEX
  8
PLAN_1
  6
CONTINUOUS
 10
-1.617953
 20
-0.229850
  0
SEQEND
  8
0
  0
POLYLINE
  8
PLAN_1
  6
CONTINUOUS
 66
     1
 40
0.008319
 41
0.008319
  0
VERTEX
  8
PLAN_1
  6
CONTINUOUS
 10
-1.617953
 20
-0.229850
  0
VERTEX
  8
PLAN_1
  6
CONTINUOUS
 10
-1.528504
 20
-0.229850
  0
SEQEND
  8
0
  0
POLYLINE
  8
PLAN_1
  6
CONTINUOUS
 66
     1
 40
0.008319
 41
0.008319
  0
VERTEX
  8
PLAN_1
  6
CONTINUOUS
 10
-1.704280
 20
-0.149244
  0
VERTEX
  8
PLAN_1
  6
CONTINUOUS
 10
-1.704280
 20
0.459732
  0
SEQEND
  8
0
  0
POLYLINE
  8
PLAN_1
  6
CONTINUOUS
 66
     1
 40
0.008319
 41
0.008319
  0
VERTEX
  8
PLAN_1
  6
CONTINUOUS
 10
-0.884161
 20
-0.229850
  0
VERTEX
  8
PLAN_1
  6
CONTINUOUS
 10
-1.528504
 20
-0.229850
  0
SEQEND
  8
0
  0
POLYLINE
  8
PLAN_1
  6
CONTINUOUS
 66
     1
 40
0.008319
 41
0.008319
  0
VERTEX
  8
PLAN_1
  6
CONTINUOUS
 10
-0.884161
 20
-0.229850
  0
VERTEX
  8
PLAN_1
  6
CONTINUOUS
 10
-0.786394
 20
-0.229850
  0
SEQEND
  8
0
  0
POLYLINE
  8
PLAN_1
  6
CONTINUOUS
 66
     1
 40
0.008319
 41
0.008319
  0
VERTEX
  8
PLAN_1
  6
CONTINUOUS
 10
-0.641819
 20
-0.150283
  0
VERTEX
  8
PLAN_1
  6
CONTINUOUS
 10
-0.641819
 20
-0.229850
  0
VERTEX
  8
PLAN_1
  6
CONTINUOUS
 10
-0.786394
 20
-0.229850
  0
SEQEND
  8
0
  0
POLYLINE
  8
PLAN_1
  6
CONTINUOUS
 66
     1
 40
0.008319
 41
0.008319
  0
VERTEX
  8
PLAN_1
  6
CONTINUOUS
 10
-0.641819
 20
0.662551
  0
VERTEX
  8
PLAN_1
  6
CONTINUOUS
 10
-0.641819
 20
0.683354
  0
VERTEX
  8
PLAN_1
  6
CONTINUOUS
 10
-1.704280
 20
0.683354
  0
VERTEX
  8
PLAN_1
  6
CONTINUOUS
 10
-1.704280
 20
0.662551
  0
SEQEND
  8
0
  0
POLYLINE
  8
PLAN_1
  6
CONTINUOUS
 66
     1
 40
0.008319
 41
0.008319
  0
VERTEX
  8
PLAN_1
  6
CONTINUOUS
 10
-0.641819
 20
0.459732
  0
VERTEX
  8
PLAN_1
  6
CONTINUOUS
 10
-0.641819
 20
-0.150283
  0
SEQEND
  8
0
  0
POLYLINE
  8
PLAN_1
  6
CONTINUOUS
 66
     1
 40
0.008319
 41
0.008319
  0
VERTEX
  8
PLAN_1
  6
CONTINUOUS
 10
-0.641819
 20
0.459732
  0
VERTEX
  8
PLAN_1
  6
CONTINUOUS
 10
-0.641819
 20
0.662551
  0
SEQEND
  8
0
  0
POLYLINE
  8
PLAN_1
  6
CONTINUOUS
 66
     1
 40
0.008319
 41
0.008319
  0
VERTEX
  8
PLAN_1
  6
CONTINUOUS
 10
-0.641819
 20
0.683354
  0
VERTEX
  8
PLAN_1
  6
CONTINUOUS
 10
-0.641819
 20
0.804524
  0
VERTEX
  8
PLAN_1
  6
CONTINUOUS
 10
-1.704280
 20
0.804524
  0
VERTEX
  8
PLAN_1
  6
CONTINUOUS
 10
-1.704280
 20
0.683354
  0
SEQEND
  8
0
  0
POLYLINE
  8
PLAN_1
  6
CONTINUOUS
 66
     1
 40
0.008319
 41
0.008319
  0
VERTEX
  8
PLAN_1
  6
CONTINUOUS
 10
-1.441134
 20
0.683354
  0
VERTEX
  8
PLAN_1
  6
CONTINUOUS
 10
-1.704280
 20
0.683354
  0
VERTEX
  8
PLAN_1
  6
CONTINUOUS
 10
-1.704280
 20
0.745760
  0
VERTEX
  8
PLAN_1
  6
CONTINUOUS
 10
-1.441134
 20
0.745760
  0
SEQEND
  8
0
  0
POLYLINE
  8
PLAN_1
  6
CONTINUOUS
 66
     1
 40
0.008319
 41
0.008319
  0
VERTEX
  8
PLAN_1
  6
CONTINUOUS
 10
-1.547744
 20
0.723398
  0
VERTEX
  8
PLAN_1
  6
CONTINUOUS
 10
-1.547744
 20
0.745760
  0
VERTEX
  8
PLAN_1
  6
CONTINUOUS
 10
-1.594547
 20
0.745760
  0
VERTEX
  8
PLAN_1
  6
CONTINUOUS
 10
-1.594547
 20
0.723398
  0
VERTEX
  8
PLAN_1
  6
CONTINUOUS
 10
-1.547744
 20
0.723398
  0
SEQEND
  8
0
  0
POLYLINE
  8
PLAN_1
  6
CONTINUOUS
 66
     1
 40
0.008319
 41
0.008319
  0
VERTEX
  8
PLAN_1
  6
CONTINUOUS
 10
-0.893524
 20
0.745760
  0
VERTEX
  8
PLAN_1
  6
CONTINUOUS
 10
-0.644421
 20
0.745760
  0
VERTEX
  8
PLAN_1
  6
CONTINUOUS
 10
-0.644421
 20
0.683354
  0
VERTEX
  8
PLAN_1
  6
CONTINUOUS
 10
-0.893524
 20
0.683354
  0
SEQEND
  8
0
  0
POLYLINE
  8
PLAN_1
  6
CONTINUOUS
 66
     1
 40
0.008319
 41
0.008319
  0
VERTEX
  8
PLAN_1
  6
CONTINUOUS
 10
-0.753110
 20
0.723398
  0
VERTEX
  8
PLAN_1
  6
CONTINUOUS
 10
-0.753110
 20
0.745760
  0
VERTEX
  8
PLAN_1
  6
CONTINUOUS
 10
-0.799913
 20
0.745760
  0
VERTEX
  8
PLAN_1
  6
CONTINUOUS
 10
-0.799913
 20
0.723398
  0
VERTEX
  8
PLAN_1
  6
CONTINUOUS
 10
-0.753110
 20
0.723398
  0
SEQEND
  8
0
  0
POLYLINE
  8
PLAN_1
  6
CONTINUOUS
 66
     1
 40
0.008319
 41
0.008319
  0
VERTEX
  8
PLAN_1
  6
CONTINUOUS
 10
-1.202433
 20
0.606906
  0
VERTEX
  8
PLAN_1
  6
CONTINUOUS
 10
-1.202433
 20
0.559063
  0
SEQEND
  8
0
  0
POLYLINE
  8
PLAN_1
  6
CONTINUOUS
 66
     1
 40
0.008319
 41
0.008319
  0
VERTEX
  8
PLAN_1
  6
CONTINUOUS
 10
-1.422413
 20
0.628228
  0
VERTEX
  8
PLAN_1
  6
CONTINUOUS
 10
-1.422413
 20
0.630307
  0
VERTEX
  8
PLAN_1
  6
CONTINUOUS
 10
-1.422413
 20
0.636551
  0
VERTEX
  8
PLAN_1
  6
CONTINUOUS
 10
-1.422413
 20
0.645390
  0
VERTEX
  8
PLAN_1
  6
CONTINUOUS
 10
-1.422413
 20
0.655272
  0
VERTEX
  8
PLAN_1
  6
CONTINUOUS
 10
-1.422413
 20
0.665673
  0
VERTEX
  8
PLAN_1
  6
CONTINUOUS
 10
-1.422413
 20
0.675031
  0
VERTEX
  8
PLAN_1
  6
CONTINUOUS
 10
-1.421894
 20
0.681272
  0
VERTEX
  8
PLAN_1
  6
CONTINUOUS
 10
-1.421894
 20
0.683354
  0
SEQEND
  8
0
  0
POLYLINE
  8
PLAN_1
  6
CONTINUOUS
 66
     1
 40
0.008319
 41
0.008319
  0
VERTEX
  8
PLAN_1
  6
CONTINUOUS
 10
-1.401610
 20
0.628228
  0
VERTEX
  8
PLAN_1
  6
CONTINUOUS
 10
-1.401091
 20
0.683354
  0
SEQEND
  8
0
  0
POLYLINE
  8
PLAN_1
  6
CONTINUOUS
 66
     1
 40
0.008319
 41
0.008319
  0
VERTEX
  8
PLAN_1
  6
CONTINUOUS
 10
-0.936169
 20
0.371846
  0
VERTEX
  8
PLAN_1
  6
CONTINUOUS
 10
-0.798354
 20
0.371846
  0
SEQEND
  8
0
  0
POLYLINE
  8
PLAN_1
  6
CONTINUOUS
 66
     1
 40
0.008319
 41
0.008319
  0
VERTEX
  8
PLAN_1
  6
CONTINUOUS
 10
-0.798354
 20
0.371846
  0
VERTEX
  8
PLAN_1
  6
CONTINUOUS
 10
-0.800433
 20
0.391087
  0
VERTEX
  8
PLAN_1
  6
CONTINUOUS
 10
-0.803555
 20
0.409807
  0
VERTEX
  8
PLAN_1
  6
CONTINUOUS
 10
-0.807717
 20
0.428531
  0
VERTEX
  8
PLAN_1
  6
CONTINUOUS
 10
-0.812398
 20
0.446732
  0
VERTEX
  8
PLAN_1
  6
CONTINUOUS
 10
-0.818638
 20
0.464413
  0
VERTEX
  8
PLAN_1
  6
CONTINUOUS
 10
-0.825398
 20
0.482094
  0
VERTEX
  8
PLAN_1
  6
CONTINUOUS
 10
-0.832677
 20
0.499256
  0
VERTEX
  8
PLAN_1
  6
CONTINUOUS
 10
-0.841000
 20
0.515378
  0
VERTEX
  8
PLAN_1
  6
CONTINUOUS
 10
-0.850358
 20
0.531500
  0
VERTEX
  8
PLAN_1
  6
CONTINUOUS
 10
-0.860240
 20
0.547102
  0
VERTEX
  8
PLAN_1
  6
CONTINUOUS
 10
-0.870642
 20
0.562181
  0
VERTEX
  8
PLAN_1
  6
CONTINUOUS
 10
-0.882083
 20
0.576744
  0
VERTEX
  8
PLAN_1
  6
CONTINUOUS
 10
-0.894043
 20
0.590264
  0
VERTEX
  8
PLAN_1
  6
CONTINUOUS
 10
-0.907043
 20
0.603787
  0
VERTEX
  8
PLAN_1
  6
CONTINUOUS
 10
-0.920047
 20
0.616268
  0
VERTEX
  8
PLAN_1
  6
CONTINUOUS
 10
-0.934087
 20
0.628228
  0
SEQEND
  8
0
  0
POLYLINE
  8
PLAN_1
  6
CONTINUOUS
 66
     1
 40
0.008319
 41
0.008319
  0
VERTEX
  8
PLAN_1
  6
CONTINUOUS
 10
-1.129626
 20
0.606906
  0
VERTEX
  8
PLAN_1
  6
CONTINUOUS
 10
-1.129626
 20
0.559063
  0
SEQEND
  8
0
  0
POLYLINE
  8
PLAN_1
  6
CONTINUOUS
 66
     1
 40
0.008319
 41
0.008319
  0
VERTEX
  8
PLAN_1
  6
CONTINUOUS
 10
-0.932528
 20
0.299039
  0
VERTEX
  8
PLAN_1
  6
CONTINUOUS
 10
-0.799394
 20
0.299039
  0
SEQEND
  8
0
  0
POLYLINE
  8
PLAN_1
  6
CONTINUOUS
 66
     1
 40
0.008319
 41
0.008319
  0
VERTEX
  8
PLAN_1
  6
CONTINUOUS
 10
-0.799394
 20
0.299039
  0
VERTEX
  8
PLAN_1
  6
CONTINUOUS
 10
-0.801476
 20
0.282917
  0
VERTEX
  8
PLAN_1
  6
CONTINUOUS
 10
-0.804594
 20
0.266795
  0
VERTEX
  8
PLAN_1
  6
CONTINUOUS
 10
-0.808236
 20
0.251193
  0
VERTEX
  8
PLAN_1
  6
CONTINUOUS
 10
-0.811874
 20
0.236110
  0
VERTEX
  8
PLAN_1
  6
CONTINUOUS
 10
-0.817075
 20
0.221031
  0
VERTEX
  8
PLAN_1
  6
CONTINUOUS
 10
-0.822276
 20
0.205949
  0
VERTEX
  8
PLAN_1
  6
CONTINUOUS
 10
-0.828516
 20
0.191386
  0
VERTEX
  8
PLAN_1
  6
CONTINUOUS
 10
-0.834756
 20
0.177346
  0
VERTEX
  8
PLAN_1
  6
CONTINUOUS
 10
-0.842039
 20
0.163827
  0
VERTEX
  8
PLAN_1
  6
CONTINUOUS
 10
-0.849839
 20
0.150303
  0
VERTEX
  8
PLAN_1
  6
CONTINUOUS
 10
-0.858161
 20
0.136783
  0
VERTEX
  8
PLAN_1
  6
CONTINUOUS
 10
-0.867000
 20
0.124303
  0
VERTEX
  8
PLAN_1
  6
CONTINUOUS
 10
-0.876362
 20
0.111819
  0
VERTEX
  8
PLAN_1
  6
CONTINUOUS
 10
-0.885724
 20
0.099858
  0
VERTEX
  8
PLAN_1
  6
CONTINUOUS
 10
-0.896122
 20
0.088417
  0
VERTEX
  8
PLAN_1
  6
CONTINUOUS
 10
-0.907043
 20
0.077496
  0
VERTEX
  8
PLAN_1
  6
CONTINUOUS
 10
-0.917965
 20
0.066575
  0
VERTEX
  8
PLAN_1
  6
CONTINUOUS
 10
-0.929925
 20
0.056697
  0
VERTEX
  8
PLAN_1
  6
CONTINUOUS
 10
-0.941890
 20
0.046815
  0
VERTEX
  8
PLAN_1
  6
CONTINUOUS
 10
-0.954370
 20
0.037453
  0
VERTEX
  8
PLAN_1
  6
CONTINUOUS
 10
-0.966850
 20
0.029134
  0
VERTEX
  8
PLAN_1
  6
CONTINUOUS
 10
-0.980370
 20
0.020811
  0
VERTEX
  8
PLAN_1
  6
CONTINUOUS
 10
-0.993894
 20
0.013012
  0
VERTEX
  8
PLAN_1
  6
CONTINUOUS
 10
-1.007933
 20
0.006252
  0
VERTEX
  8
PLAN_1
  6
CONTINUOUS
 10
-1.021976
 20
-0.000512
  0
VERTEX
  8
PLAN_1
  6
CONTINUOUS
 10
-1.036535
 20
-0.006232
  0
VERTEX
  8
PLAN_1
  6
CONTINUOUS
 10
-1.051618
 20
-0.011433
  0
VERTEX
  8
PLAN_1
  6
CONTINUOUS
 10
-1.066701
 20
-0.016110
  0
VERTEX
  8
PLAN_1
  6
CONTINUOUS
 10
-1.081780
 20
-0.020272
  0
VERTEX
  8
PLAN_1
  6
CONTINUOUS
 10
-1.097382
 20
-0.023394
  0
VERTEX
  8
PLAN_1
  6
CONTINUOUS
 10
-1.113504
 20
-0.025992
  0
VERTEX
  8
PLAN_1
  6
CONTINUOUS
 10
-1.129626
 20
-0.028075
  0
SEQEND
  8
0
  0
POLYLINE
  8
PLAN_1
  6
CONTINUOUS
 66
     1
 40
0.008319
 41
0.008319
  0
VERTEX
  8
PLAN_1
  6
CONTINUOUS
 10
-1.129626
 20
-0.028075
  0
VERTEX
  8
PLAN_1
  6
CONTINUOUS
 10
-1.129626
 20
0.092059
  0
SEQEND
  8
0
  0
POLYLINE
  8
PLAN_1
  6
CONTINUOUS
 66
     1
 40
0.008319
 41
0.008319
  0
VERTEX
  8
PLAN_1
  6
CONTINUOUS
 10
-0.934087
 20
0.628228
  0
VERTEX
  8
PLAN_1
  6
CONTINUOUS
 10
-0.934606
 20
0.683354
  0
SEQEND
  8
0
  0
POLYLINE
  8
PLAN_1
  6
CONTINUOUS
 66
     1
 40
0.008319
 41
0.008319
  0
VERTEX
  8
PLAN_1
  6
CONTINUOUS
 10
-0.913283
 20
0.628228
  0
VERTEX
  8
PLAN_1
  6
CONTINUOUS
 10
-0.913807
 20
0.683354
  0
SEQEND
  8
0
  0
POLYLINE
  8
PLAN_1
  6
CONTINUOUS
 66
     1
 40
0.008319
 41
0.008319
  0
VERTEX
  8
PLAN_1
  6
CONTINUOUS
 10
-0.945528
 20
0.607945
  0
VERTEX
  8
PLAN_1
  6
CONTINUOUS
 10
-0.945528
 20
0.683354
  0
VERTEX
  8
PLAN_1
  6
CONTINUOUS
 10
-1.380287
 20
0.683354
  0
VERTEX
  8
PLAN_1
  6
CONTINUOUS
 10
-1.380287
 20
0.607945
  0
VERTEX
  8
PLAN_1
  6
CONTINUOUS
 10
-0.945528
 20
0.607945
  0
SEQEND
  8
0
  0
POLYLINE
  8
PLAN_1
  6
CONTINUOUS
 66
     1
 40
0.008319
 41
0.008319
  0
VERTEX
  8
PLAN_1
  6
CONTINUOUS
 10
-1.167591
 20
0.089457
  0
VERTEX
  8
PLAN_1
  6
CONTINUOUS
 10
-1.155626
 20
0.089976
  0
VERTEX
  8
PLAN_1
  6
CONTINUOUS
 10
-1.143665
 20
0.091020
  0
VERTEX
  8
PLAN_1
  6
CONTINUOUS
 10
-1.131705
 20
0.092579
  0
VERTEX
  8
PLAN_1
  6
CONTINUOUS
 10
-1.119744
 20
0.094657
  0
VERTEX
  8
PLAN_1
  6
CONTINUOUS
 10
-1.108303
 20
0.097260
  0
VERTEX
  8
PLAN_1
  6
CONTINUOUS
 10
-1.097382
 20
0.100378
  0
VERTEX
  8
PLAN_1
  6
CONTINUOUS
 10
-1.086461
 20
0.104020
  0
VERTEX
  8
PLAN_1
  6
CONTINUOUS
 10
-1.075539
 20
0.108181
  0
VERTEX
  8
PLAN_1
  6
CONTINUOUS
 10
-1.065138
 20
0.112862
  0
VERTEX
  8
PLAN_1
  6
CONTINUOUS
 10
-1.055260
 20
0.118059
  0
VERTEX
  8
PLAN_1
  6
CONTINUOUS
 10
-1.045378
 20
0.123780
  0
VERTEX
  8
PLAN_1
  6
CONTINUOUS
 10
-1.035496
 20
0.130024
  0
VERTEX
  8
PLAN_1
  6
CONTINUOUS
 10
-1.026134
 20
0.136783
  0
VERTEX
  8
PLAN_1
  6
CONTINUOUS
 10
-1.017295
 20
0.143543
  0
VERTEX
  8
PLAN_1
  6
CONTINUOUS
 10
-1.008972
 20
0.150823
  0
VERTEX
  8
PLAN_1
  6
CONTINUOUS
 10
-1.000654
 20
0.158626
  0
VERTEX
  8
PLAN_1
  6
CONTINUOUS
 10
-0.992854
 20
0.166945
  0
VERTEX
  8
PLAN_1
  6
CONTINUOUS
 10
-0.985571
 20
0.175787
  0
VERTEX
  8
PLAN_1
  6
CONTINUOUS
 10
-0.978291
 20
0.184626
  0
VERTEX
  8
PLAN_1
  6
CONTINUOUS
 10
-0.971531
 20
0.193988
  0
VERTEX
  8
PLAN_1
  6
CONTINUOUS
 10
-0.965811
 20
0.203350
  0
VERTEX
  8
PLAN_1
  6
CONTINUOUS
 10
-0.960091
 20
0.213228
  0
VERTEX
  8
PLAN_1
  6
CONTINUOUS
 10
-0.954890
 20
0.223630
  0
VERTEX
  8
PLAN_1
  6
CONTINUOUS
 10
-0.950209
 20
0.234031
  0
VERTEX
  8
PLAN_1
  6
CONTINUOUS
 10
-0.945528
 20
0.244433
  0
VERTEX
  8
PLAN_1
  6
CONTINUOUS
 10
-0.941890
 20
0.255354
  0
VERTEX
  8
PLAN_1
  6
CONTINUOUS
 10
-0.938768
 20
0.266795
  0
VERTEX
  8
PLAN_1
  6
CONTINUOUS
 10
-0.936169
 20
0.278236
  0
VERTEX
  8
PLAN_1
  6
CONTINUOUS
 10
-0.934087
 20
0.289677
  0
VERTEX
  8
PLAN_1
  6
CONTINUOUS
 10
-0.932528
 20
0.301638
  0
VERTEX
  8
PLAN_1
  6
CONTINUOUS
 10
-0.931488
 20
0.313598
  0
VERTEX
  8
PLAN_1
  6
CONTINUOUS
 10
-0.931488
 20
0.326079
  0
VERTEX
  8
PLAN_1
  6
CONTINUOUS
 10
-0.931488
 20
0.338043
  0
VERTEX
  8
PLAN_1
  6
CONTINUOUS
 10
-0.932528
 20
0.350004
  0
VERTEX
  8
PLAN_1
  6
CONTINUOUS
 10
-0.934087
 20
0.361965
  0
VERTEX
  8
PLAN_1
  6
CONTINUOUS
 10
-0.936169
 20
0.373406
  0
VERTEX
  8
PLAN_1
  6
CONTINUOUS
 10
-0.938768
 20
0.384846
  0
VERTEX
  8
PLAN_1
  6
CONTINUOUS
 10
-0.941890
 20
0.396287
  0
VERTEX
  8
PLAN_1
  6
CONTINUOUS
 10
-0.945528
 20
0.407209
  0
VERTEX
  8
PLAN_1
  6
CONTINUOUS
 10
-0.950209
 20
0.417610
  0
VERTEX
  8
PLAN_1
  6
CONTINUOUS
 10
-0.954890
 20
0.428012
  0
VERTEX
  8
PLAN_1
  6
CONTINUOUS
 10
-0.960091
 20
0.438409
  0
VERTEX
  8
PLAN_1
  6
CONTINUOUS
 10
-0.965811
 20
0.448291
  0
VERTEX
  8
PLAN_1
  6
CONTINUOUS
 10
-0.971531
 20
0.457654
  0
VERTEX
  8
PLAN_1
  6
CONTINUOUS
 10
-0.978291
 20
0.467012
  0
VERTEX
  8
PLAN_1
  6
CONTINUOUS
 10
-0.985571
 20
0.475854
  0
VERTEX
  8
PLAN_1
  6
CONTINUOUS
 10
-0.992854
 20
0.484697
  0
VERTEX
  8
PLAN_1
  6
CONTINUOUS
 10
-1.000654
 20
0.493016
  0
VERTEX
  8
PLAN_1
  6
CONTINUOUS
 10
-1.008972
 20
0.500815
  0
VERTEX
  8
PLAN_1
  6
CONTINUOUS
 10
-1.017295
 20
0.508098
  0
VERTEX
  8
PLAN_1
  6
CONTINUOUS
 10
-1.026134
 20
0.514858
  0
VERTEX
  8
PLAN_1
  6
CONTINUOUS
 10
-1.035496
 20
0.521618
  0
VERTEX
  8
PLAN_1
  6
CONTINUOUS
 10
-1.045378
 20
0.527858
  0
VERTEX
  8
PLAN_1
  6
CONTINUOUS
 10
-1.055260
 20
0.533579
  0
VERTEX
  8
PLAN_1
  6
CONTINUOUS
 10
-1.065138
 20
0.538780
  0
VERTEX
  8
PLAN_1
  6
CONTINUOUS
 10
-1.075539
 20
0.543461
  0
VERTEX
  8
PLAN_1
  6
CONTINUOUS
 10
-1.086461
 20
0.547622
  0
VERTEX
  8
PLAN_1
  6
CONTINUOUS
 10
-1.097382
 20
0.551260
  0
VERTEX
  8
PLAN_1
  6
CONTINUOUS
 10
-1.108303
 20
0.554382
  0
VERTEX
  8
PLAN_1
  6
CONTINUOUS
 10
-1.119744
 20
0.556980
  0
VERTEX
  8
PLAN_1
  6
CONTINUOUS
 10
-1.131705
 20
0.559063
  0
VERTEX
  8
PLAN_1
  6
CONTINUOUS
 10
-1.143665
 20
0.560622
  0
VERTEX
  8
PLAN_1
  6
CONTINUOUS
 10
-1.155626
 20
0.561661
  0
VERTEX
  8
PLAN_1
  6
CONTINUOUS
 10
-1.167591
 20
0.562181
  0
VERTEX
  8
PLAN_1
  6
CONTINUOUS
 10
-1.179551
 20
0.561661
  0
VERTEX
  8
PLAN_1
  6
CONTINUOUS
 10
-1.191512
 20
0.560622
  0
VERTEX
  8
PLAN_1
  6
CONTINUOUS
 10
-1.203472
 20
0.559063
  0
VERTEX
  8
PLAN_1
  6
CONTINUOUS
 10
-1.214913
 20
0.556980
  0
VERTEX
  8
PLAN_1
  6
CONTINUOUS
 10
-1.226354
 20
0.554382
  0
VERTEX
  8
PLAN_1
  6
CONTINUOUS
 10
-1.237795
 20
0.551260
  0
VERTEX
  8
PLAN_1
  6
CONTINUOUS
 10
-1.248717
 20
0.547622
  0
VERTEX
  8
PLAN_1
  6
CONTINUOUS
 10
-1.259638
 20
0.543461
  0
VERTEX
  8
PLAN_1
  6
CONTINUOUS
 10
-1.270039
 20
0.538780
  0
VERTEX
  8
PLAN_1
  6
CONTINUOUS
 10
-1.279921
 20
0.533579
  0
VERTEX
  8
PLAN_1
  6
CONTINUOUS
 10
-1.289799
 20
0.527858
  0
VERTEX
  8
PLAN_1
  6
CONTINUOUS
 10
-1.299681
 20
0.521618
  0
VERTEX
  8
PLAN_1
  6
CONTINUOUS
 10
-1.309043
 20
0.514858
  0
VERTEX
  8
PLAN_1
  6
CONTINUOUS
 10
-1.317882
 20
0.508098
  0
VERTEX
  8
PLAN_1
  6
CONTINUOUS
 10
-1.326205
 20
0.500815
  0
VERTEX
  8
PLAN_1
  6
CONTINUOUS
 10
-1.334524
 20
0.493016
  0
VERTEX
  8
PLAN_1
  6
CONTINUOUS
 10
-1.342327
 20
0.484697
  0
VERTEX
  8
PLAN_1
  6
CONTINUOUS
 10
-1.349606
 20
0.475854
  0
VERTEX
  8
PLAN_1
  6
CONTINUOUS
 10
-1.356886
 20
0.467012
  0
VERTEX
  8
PLAN_1
  6
CONTINUOUS
 10
-1.363646
 20
0.457654
  0
VERTEX
  8
PLAN_1
  6
CONTINUOUS
 10
-1.369366
 20
0.448291
  0
VERTEX
  8
PLAN_1
  6
CONTINUOUS
 10
-1.375087
 20
0.438409
  0
VERTEX
  8
PLAN_1
  6
CONTINUOUS
 10
-1.380287
 20
0.428012
  0
VERTEX
  8
PLAN_1
  6
CONTINUOUS
 10
-1.384969
 20
0.417610
  0
VERTEX
  8
PLAN_1
  6
CONTINUOUS
 10
-1.389650
 20
0.407209
  0
VERTEX
  8
PLAN_1
  6
CONTINUOUS
 10
-1.393291
 20
0.396287
  0
VERTEX
  8
PLAN_1
  6
CONTINUOUS
 10
-1.396409
 20
0.384846
  0
VERTEX
  8
PLAN_1
  6
CONTINUOUS
 10
-1.399012
 20
0.373406
  0
VERTEX
  8
PLAN_1
  6
CONTINUOUS
 10
-1.401091
 20
0.361965
  0
VERTEX
  8
PLAN_1
  6
CONTINUOUS
 10
-1.402650
 20
0.350004
  0
VERTEX
  8
PLAN_1
  6
CONTINUOUS
 10
-1.403169
 20
0.338043
  0
VERTEX
  8
PLAN_1
  6
CONTINUOUS
 10
-1.403693
 20
0.326079
  0
VERTEX
  8
PLAN_1
  6
CONTINUOUS
 10
-1.403169
 20
0.313598
  0
VERTEX
  8
PLAN_1
  6
CONTINUOUS
 10
-1.402650
 20
0.301638
  0
VERTEX
  8
PLAN_1
  6
CONTINUOUS
 10
-1.401091
 20
0.289677
  0
VERTEX
  8
PLAN_1
  6
CONTINUOUS
 10
-1.399012
 20
0.278236
  0
VERTEX
  8
PLAN_1
  6
CONTINUOUS
 10
-1.396409
 20
0.266795
  0
VERTEX
  8
PLAN_1
  6
CONTINUOUS
 10
-1.393291
 20
0.255354
  0
VERTEX
  8
PLAN_1
  6
CONTINUOUS
 10
-1.389650
 20
0.244433
  0
VERTEX
  8
PLAN_1
  6
CONTINUOUS
 10
-1.384969
 20
0.234031
  0
VERTEX
  8
PLAN_1
  6
CONTINUOUS
 10
-1.380287
 20
0.223630
  0
VERTEX
  8
PLAN_1
  6
CONTINUOUS
 10
-1.375087
 20
0.213228
  0
VERTEX
  8
PLAN_1
  6
CONTINUOUS
 10
-1.369366
 20
0.203350
  0
VERTEX
  8
PLAN_1
  6
CONTINUOUS
 10
-1.363646
 20
0.193988
  0
VERTEX
  8
PLAN_1
  6
CONTINUOUS
 10
-1.356886
 20
0.184626
  0
VERTEX
  8
PLAN_1
  6
CONTINUOUS
 10
-1.349606
 20
0.175787
  0
VERTEX
  8
PLAN_1
  6
CONTINUOUS
 10
-1.342327
 20
0.166945
  0
VERTEX
  8
PLAN_1
  6
CONTINUOUS
 10
-1.334524
 20
0.158626
  0
VERTEX
  8
PLAN_1
  6
CONTINUOUS
 10
-1.326205
 20
0.150823
  0
VERTEX
  8
PLAN_1
  6
CONTINUOUS
 10
-1.317882
 20
0.143543
  0
VERTEX
  8
PLAN_1
  6
CONTINUOUS
 10
-1.309043
 20
0.136783
  0
VERTEX
  8
PLAN_1
  6
CONTINUOUS
 10
-1.299681
 20
0.130024
  0
VERTEX
  8
PLAN_1
  6
CONTINUOUS
 10
-1.289799
 20
0.123780
  0
VERTEX
  8
PLAN_1
  6
CONTINUOUS
 10
-1.279921
 20
0.118059
  0
VERTEX
  8
PLAN_1
  6
CONTINUOUS
 10
-1.270039
 20
0.112862
  0
VERTEX
  8
PLAN_1
  6
CONTINUOUS
 10
-1.259638
 20
0.108181
  0
VERTEX
  8
PLAN_1
  6
CONTINUOUS
 10
-1.248717
 20
0.104020
  0
VERTEX
  8
PLAN_1
  6
CONTINUOUS
 10
-1.237795
 20
0.100378
  0
VERTEX
  8
PLAN_1
  6
CONTINUOUS
 10
-1.226354
 20
0.097260
  0
VERTEX
  8
PLAN_1
  6
CONTINUOUS
 10
-1.214913
 20
0.094657
  0
VERTEX
  8
PLAN_1
  6
CONTINUOUS
 10
-1.203472
 20
0.092579
  0
VERTEX
  8
PLAN_1
  6
CONTINUOUS
 10
-1.191512
 20
0.091020
  0
VERTEX
  8
PLAN_1
  6
CONTINUOUS
 10
-1.179551
 20
0.089976
  0
VERTEX
  8
PLAN_1
  6
CONTINUOUS
 10
-1.167591
 20
0.089457
  0
SEQEND
  8
0
  0
POLYLINE
  8
PLAN_1
  6
CONTINUOUS
 66
     1
 40
0.008319
 41
0.008319
  0
VERTEX
  8
PLAN_1
  6
CONTINUOUS
 10
-1.178512
 20
0.555421
  0
VERTEX
  8
PLAN_1
  6
CONTINUOUS
 10
-0.975169
 20
0.446213
  0
VERTEX
  8
PLAN_1
  6
CONTINUOUS
 10
-0.975169
 20
0.205429
  0
VERTEX
  8
PLAN_1
  6
CONTINUOUS
 10
-1.178512
 20
0.093098
  0
VERTEX
  8
PLAN_1
  6
CONTINUOUS
 10
-1.371969
 20
0.205429
  0
VERTEX
  8
PLAN_1
  6
CONTINUOUS
 10
-1.371969
 20
0.446213
  0
VERTEX
  8
PLAN_1
  6
CONTINUOUS
 10
-1.178512
 20
0.555421
  0
SEQEND
  8
0
  0
POLYLINE
  8
PLAN_1
  6
CONTINUOUS
 66
     1
 40
0.008319
 41
0.008319
  0
VERTEX
  8
PLAN_1
  6
CONTINUOUS
 10
-1.174870
 20
0.206988
  0
VERTEX
  8
PLAN_1
  6
CONTINUOUS
 10
-1.168630
 20
0.206988
  0
VERTEX
  8
PLAN_1
  6
CONTINUOUS
 10
-1.162390
 20
0.207508
  0
VERTEX
  8
PLAN_1
  6
CONTINUOUS
 10
-1.156669
 20
0.208028
  0
VERTEX
  8
PLAN_1
  6
CONTINUOUS
 10
-1.150949
 20
0.209071
  0
VERTEX
  8
PLAN_1
  6
CONTINUOUS
 10
-1.145228
 20
0.210630
  0
VERTEX
  8
PLAN_1
  6
CONTINUOUS
 10
-1.139508
 20
0.212189
  0
VERTEX
  8
PLAN_1
  6
CONTINUOUS
 10
-1.134307
 20
0.214272
  0
VERTEX
  8
PLAN_1
  6
CONTINUOUS
 10
-1.128587
 20
0.216350
  0
VERTEX
  8
PLAN_1
  6
CONTINUOUS
 10
-1.123386
 20
0.218429
  0
VERTEX
  8
PLAN_1
  6
CONTINUOUS
 10
-1.118185
 20
0.221031
  0
VERTEX
  8
PLAN_1
  6
CONTINUOUS
 10
-1.113504
 20
0.224150
  0
VERTEX
  8
PLAN_1
  6
CONTINUOUS
 10
-1.108823
 20
0.227272
  0
VERTEX
  8
PLAN_1
  6
CONTINUOUS
 10
-1.104142
 20
0.230390
  0
VERTEX
  8
PLAN_1
  6
CONTINUOUS
 10
-1.099465
 20
0.234031
  0
VERTEX
  8
PLAN_1
  6
CONTINUOUS
 10
-1.095303
 20
0.237673
  0
VERTEX
  8
PLAN_1
  6
CONTINUOUS
 10
-1.091142
 20
0.241311
  0
VERTEX
  8
PLAN_1
  6
CONTINUOUS
 10
-1.087500
 20
0.245472
  0
VERTEX
  8
PLAN_1
  6
CONTINUOUS
 10
-1.083343
 20
0.249634
  0
VERTEX
  8
PLAN_1
  6
CONTINUOUS
 10
-1.080220
 20
0.254315
  0
VERTEX
  8
PLAN_1
  6
CONTINUOUS
 10
-1.076579
 20
0.258992
  0
VERTEX
  8
PLAN_1
  6
CONTINUOUS
 10
-1.073461
 20
0.263673
  0
VERTEX
  8
PLAN_1
  6
CONTINUOUS
 10
-1.070858
 20
0.268874
  0
VERTEX
  8
PLAN_1
  6
CONTINUOUS
 10
-1.068260
 20
0.273555
  0
VERTEX
  8
PLAN_1
  6
CONTINUOUS
 10
-1.065661
 20
0.278756
  0
VERTEX
  8
PLAN_1
  6
CONTINUOUS
 10
-1.063579
 20
0.284476
  0
VERTEX
  8
PLAN_1
  6
CONTINUOUS
 10
-1.062020
 20
0.289677
  0
VERTEX
  8
PLAN_1
  6
CONTINUOUS
 10
-1.060461
 20
0.295398
  0
VERTEX
  8
PLAN_1
  6
CONTINUOUS
 10
-1.058898
 20
0.301118
  0
VERTEX
  8
PLAN_1
  6
CONTINUOUS
 10
-1.057858
 20
0.306839
  0
VERTEX
  8
PLAN_1
  6
CONTINUOUS
 10
-1.057339
 20
0.313079
  0
VERTEX
  8
PLAN_1
  6
CONTINUOUS
 10
-1.056819
 20
0.318799
  0
VERTEX
  8
PLAN_1
  6
CONTINUOUS
 10
-1.056819
 20
0.325039
  0
VERTEX
  8
PLAN_1
  6
CONTINUOUS
 10
-1.056819
 20
0.331280
  0
VERTEX
  8
PLAN_1
  6
CONTINUOUS
 10
-1.057339
 20
0.337000
  0
VERTEX
  8
PLAN_1
  6
CONTINUOUS
 10
-1.057858
 20
0.342720
  0
VERTEX
  8
PLAN_1
  6
CONTINUOUS
 10
-1.058898
 20
0.348961
  0
VERTEX
  8
PLAN_1
  6
CONTINUOUS
 10
-1.060461
 20
0.354681
  0
VERTEX
  8
PLAN_1
  6
CONTINUOUS
 10
-1.062020
 20
0.359882
  0
VERTEX
  8
PLAN_1
  6
CONTINUOUS
 10
-1.063579
 20
0.365602
  0
VERTEX
  8
PLAN_1
  6
CONTINUOUS
 10
-1.065661
 20
0.370803
  0
VERTEX
  8
PLAN_1
  6
CONTINUOUS
 10
-1.068260
 20
0.376004
  0
VERTEX
  8
PLAN_1
  6
CONTINUOUS
 10
-1.070858
 20
0.381205
  0
VERTEX
  8
PLAN_1
  6
CONTINUOUS
 10
-1.073461
 20
0.386406
  0
VERTEX
  8
PLAN_1
  6
CONTINUOUS
 10
-1.076579
 20
0.391087
  0
VERTEX
  8
PLAN_1
  6
CONTINUOUS
 10
-1.080220
 20
0.395768
  0
VERTEX
  8
PLAN_1
  6
CONTINUOUS
 10
-1.083343
 20
0.399929
  0
VERTEX
  8
PLAN_1
  6
CONTINUOUS
 10
-1.087500
 20
0.404606
  0
VERTEX
  8
PLAN_1
  6
CONTINUOUS
 10
-1.091142
 20
0.408248
  0
VERTEX
  8
PLAN_1
  6
CONTINUOUS
 10
-1.095303
 20
0.412409
  0
VERTEX
  8
PLAN_1
  6
CONTINUOUS
 10
-1.099465
 20
0.416047
  0
VERTEX
  8
PLAN_1
  6
CONTINUOUS
 10
-1.104142
 20
0.419689
  0
VERTEX
  8
PLAN_1
  6
CONTINUOUS
 10
-1.108823
 20
0.422811
  0
VERTEX
  8
PLAN_1
  6
CONTINUOUS
 10
-1.113504
 20
0.425929
  0
VERTEX
  8
PLAN_1
  6
CONTINUOUS
 10
-1.118185
 20
0.429051
  0
VERTEX
  8
PLAN_1
  6
CONTINUOUS
 10
-1.123386
 20
0.431650
  0
VERTEX
  8
PLAN_1
  6
CONTINUOUS
 10
-1.128587
 20
0.433732
  0
VERTEX
  8
PLAN_1
  6
CONTINUOUS
 10
-1.134307
 20
0.435811
  0
VERTEX
  8
PLAN_1
  6
CONTINUOUS
 10
-1.139508
 20
0.437890
  0
VERTEX
  8
PLAN_1
  6
CONTINUOUS
 10
-1.145228
 20
0.439453
  0
VERTEX
  8
PLAN_1
  6
CONTINUOUS
 10
-1.150949
 20
0.440492
  0
VERTEX
  8
PLAN_1
  6
CONTINUOUS
 10
-1.156669
 20
0.441531
  0
VERTEX
  8
PLAN_1
  6
CONTINUOUS
 10
-1.162390
 20
0.442571
  0
VERTEX
  8
PLAN_1
  6
CONTINUOUS
 10
-1.168630
 20
0.443091
  0
VERTEX
  8
PLAN_1
  6
CONTINUOUS
 10
-1.174870
 20
0.443091
  0
VERTEX
  8
PLAN_1
  6
CONTINUOUS
 10
-1.180591
 20
0.443091
  0
VERTEX
  8
PLAN_1
  6
CONTINUOUS
 10
-1.186831
 20
0.442571
  0
VERTEX
  8
PLAN_1
  6
CONTINUOUS
 10
-1.192551
 20
0.441531
  0
VERTEX
  8
PLAN_1
  6
CONTINUOUS
 10
-1.198272
 20
0.440492
  0
VERTEX
  8
PLAN_1
  6
CONTINUOUS
 10
-1.203992
 20
0.439453
  0
VERTEX
  8
PLAN_1
  6
CONTINUOUS
 10
-1.209713
 20
0.437890
  0
VERTEX
  8
PLAN_1
  6
CONTINUOUS
 10
-1.215433
 20
0.435811
  0
VERTEX
  8
PLAN_1
  6
CONTINUOUS
 10
-1.220634
 20
0.433732
  0
VERTEX
  8
PLAN_1
  6
CONTINUOUS
 10
-1.225835
 20
0.431650
  0
VERTEX
  8
PLAN_1
  6
CONTINUOUS
 10
-1.231035
 20
0.429051
  0
VERTEX
  8
PLAN_1
  6
CONTINUOUS
 10
-1.235717
 20
0.425929
  0
VERTEX
  8
PLAN_1
  6
CONTINUOUS
 10
-1.240917
 20
0.422811
  0
VERTEX
  8
PLAN_1
  6
CONTINUOUS
 10
-1.245075
 20
0.419689
  0
VERTEX
  8
PLAN_1
  6
CONTINUOUS
 10
-1.249756
 20
0.416047
  0
VERTEX
  8
PLAN_1
  6
CONTINUOUS
 10
-1.253917
 20
0.412409
  0
VERTEX
  8
PLAN_1
  6
CONTINUOUS
 10
-1.258079
 20
0.408248
  0
VERTEX
  8
PLAN_1
  6
CONTINUOUS
 10
-1.262236
 20
0.404606
  0
VERTEX
  8
PLAN_1
  6
CONTINUOUS
 10
-1.265878
 20
0.399929
  0
VERTEX
  8
PLAN_1
  6
CONTINUOUS
 10
-1.269520
 20
0.395768
  0
VERTEX
  8
PLAN_1
  6
CONTINUOUS
 10
-1.272638
 20
0.391087
  0
VERTEX
  8
PLAN_1
  6
CONTINUOUS
 10
-1.275760
 20
0.386406
  0
VERTEX
  8
PLAN_1
  6
CONTINUOUS
 10
-1.278358
 20
0.381205
  0
VERTEX
  8
PLAN_1
  6
CONTINUOUS
 10
-1.280961
 20
0.376004
  0
VERTEX
  8
PLAN_1
  6
CONTINUOUS
 10
-1.283559
 20
0.370803
  0
VERTEX
  8
PLAN_1
  6
CONTINUOUS
 10
-1.285642
 20
0.365602
  0
VERTEX
  8
PLAN_1
  6
CONTINUOUS
 10
-1.287201
 20
0.359882
  0
VERTEX
  8
PLAN_1
  6
CONTINUOUS
 10
-1.289280
 20
0.354681
  0
VERTEX
  8
PLAN_1
  6
CONTINUOUS
 10
-1.290319
 20
0.348961
  0
VERTEX
  8
PLAN_1
  6
CONTINUOUS
 10
-1.291362
 20
0.342720
  0
VERTEX
  8
PLAN_1
  6
CONTINUOUS
 10
-1.292402
 20
0.337000
  0
VERTEX
  8
PLAN_1
  6
CONTINUOUS
 10
-1.292402
 20
0.331280
  0
VERTEX
  8
PLAN_1
  6
CONTINUOUS
 10
-1.292921
 20
0.325039
  0
VERTEX
  8
PLAN_1
  6
CONTINUOUS
 10
-1.292402
 20
0.318799
  0
VERTEX
  8
PLAN_1
  6
CONTINUOUS
 10
-1.292402
 20
0.313079
  0
VERTEX
  8
PLAN_1
  6
CONTINUOUS
 10
-1.291362
 20
0.306839
  0
VERTEX
  8
PLAN_1
  6
CONTINUOUS
 10
-1.290319
 20
0.301118
  0
VERTEX
  8
PLAN_1
  6
CONTINUOUS
 10
-1.289280
 20
0.295398
  0
VERTEX
  8
PLAN_1
  6
CONTINUOUS
 10
-1.287201
 20
0.289677
  0
VERTEX
  8
PLAN_1
  6
CONTINUOUS
 10
-1.285642
 20
0.284476
  0
VERTEX
  8
PLAN_1
  6
CONTINUOUS
 10
-1.283559
 20
0.278756
  0
VERTEX
  8
PLAN_1
  6
CONTINUOUS
 10
-1.280961
 20
0.273555
  0
VERTEX
  8
PLAN_1
  6
CONTINUOUS
 10
-1.278358
 20
0.268874
  0
VERTEX
  8
PLAN_1
  6
CONTINUOUS
 10
-1.275760
 20
0.263673
  0
VERTEX
  8
PLAN_1
  6
CONTINUOUS
 10
-1.272638
 20
0.258992
  0
VERTEX
  8
PLAN_1
  6
CONTINUOUS
 10
-1.269520
 20
0.254315
  0
VERTEX
  8
PLAN_1
  6
CONTINUOUS
 10
-1.265878
 20
0.249634
  0
VERTEX
  8
PLAN_1
  6
CONTINUOUS
 10
-1.262236
 20
0.245472
  0
VERTEX
  8
PLAN_1
  6
CONTINUOUS
 10
-1.258079
 20
0.241311
  0
VERTEX
  8
PLAN_1
  6
CONTINUOUS
 10
-1.253917
 20
0.237673
  0
VERTEX
  8
PLAN_1
  6
CONTINUOUS
 10
-1.249756
 20
0.234031
  0
VERTEX
  8
PLAN_1
  6
CONTINUOUS
 10
-1.245075
 20
0.230390
  0
VERTEX
  8
PLAN_1
  6
CONTINUOUS
 10
-1.240917
 20
0.227272
  0
VERTEX
  8
PLAN_1
  6
CONTINUOUS
 10
-1.235717
 20
0.224150
  0
VERTEX
  8
PLAN_1
  6
CONTINUOUS
 10
-1.231035
 20
0.221031
  0
VERTEX
  8
PLAN_1
  6
CONTINUOUS
 10
-1.225835
 20
0.218429
  0
VERTEX
  8
PLAN_1
  6
CONTINUOUS
 10
-1.220634
 20
0.216350
  0
VERTEX
  8
PLAN_1
  6
CONTINUOUS
 10
-1.215433
 20
0.214272
  0
VERTEX
  8
PLAN_1
  6
CONTINUOUS
 10
-1.209713
 20
0.212189
  0
VERTEX
  8
PLAN_1
  6
CONTINUOUS
 10
-1.203992
 20
0.210630
  0
VERTEX
  8
PLAN_1
  6
CONTINUOUS
 10
-1.198272
 20
0.209071
  0
VERTEX
  8
PLAN_1
  6
CONTINUOUS
 10
-1.192551
 20
0.208028
  0
VERTEX
  8
PLAN_1
  6
CONTINUOUS
 10
-1.186831
 20
0.207508
  0
VERTEX
  8
PLAN_1
  6
CONTINUOUS
 10
-1.180591
 20
0.206988
  0
VERTEX
  8
PLAN_1
  6
CONTINUOUS
 10
-1.174870
 20
0.206988
  0
SEQEND
  8
0
  0
POLYLINE
  8
PLAN_1
  6
CONTINUOUS
 66
     1
 40
0.008319
 41
0.008319
  0
VERTEX
  8
PLAN_1
  6
CONTINUOUS
 10
-1.398492
 20
0.371846
  0
VERTEX
  8
PLAN_1
  6
CONTINUOUS
 10
-1.537343
 20
0.371846
  0
SEQEND
  8
0
  0
POLYLINE
  8
PLAN_1
  6
CONTINUOUS
 66
     1
 40
0.008319
 41
0.008319
  0
VERTEX
  8
PLAN_1
  6
CONTINUOUS
 10
-1.537343
 20
0.371846
  0
VERTEX
  8
PLAN_1
  6
CONTINUOUS
 10
-1.535264
 20
0.391087
  0
VERTEX
  8
PLAN_1
  6
CONTINUOUS
 10
-1.532142
 20
0.409807
  0
VERTEX
  8
PLAN_1
  6
CONTINUOUS
 10
-1.527984
 20
0.428531
  0
VERTEX
  8
PLAN_1
  6
CONTINUOUS
 10
-1.522783
 20
0.446732
  0
VERTEX
  8
PLAN_1
  6
CONTINUOUS
 10
-1.517063
 20
0.464413
  0
VERTEX
  8
PLAN_1
  6
CONTINUOUS
 10
-1.510299
 20
0.482094
  0
VERTEX
  8
PLAN_1
  6
CONTINUOUS
 10
-1.503020
 20
0.499256
  0
VERTEX
  8
PLAN_1
  6
CONTINUOUS
 10
-1.494701
 20
0.515378
  0
VERTEX
  8
PLAN_1
  6
CONTINUOUS
 10
-1.485339
 20
0.531500
  0
VERTEX
  8
PLAN_1
  6
CONTINUOUS
 10
-1.475457
 20
0.547102
  0
VERTEX
  8
PLAN_1
  6
CONTINUOUS
 10
-1.465055
 20
0.562181
  0
VERTEX
  8
PLAN_1
  6
CONTINUOUS
 10
-1.453614
 20
0.576744
  0
VERTEX
  8
PLAN_1
  6
CONTINUOUS
 10
-1.441654
 20
0.590264
  0
VERTEX
  8
PLAN_1
  6
CONTINUOUS
 10
-1.428654
 20
0.603787
  0
VERTEX
  8
PLAN_1
  6
CONTINUOUS
 10
-1.415654
 20
0.616268
  0
VERTEX
  8
PLAN_1
  6
CONTINUOUS
 10
-1.401610
 20
0.628228
  0
SEQEND
  8
0
  0
POLYLINE
  8
PLAN_1
  6
CONTINUOUS
 66
     1
 40
0.008319
 41
0.008319
  0
VERTEX
  8
PLAN_1
  6
CONTINUOUS
 10
-1.401091
 20
0.299039
  0
VERTEX
  8
PLAN_1
  6
CONTINUOUS
 10
-1.536303
 20
0.299039
  0
SEQEND
  8
0
  0
POLYLINE
  8
PLAN_1
  6
CONTINUOUS
 66
     1
 40
0.008319
 41
0.008319
  0
VERTEX
  8
PLAN_1
  6
CONTINUOUS
 10
-1.536303
 20
0.299039
  0
VERTEX
  8
PLAN_1
  6
CONTINUOUS
 10
-1.534224
 20
0.282917
  0
VERTEX
  8
PLAN_1
  6
CONTINUOUS
 10
-1.531102
 20
0.266795
  0
VERTEX
  8
PLAN_1
  6
CONTINUOUS
 10
-1.527465
 20
0.251193
  0
VERTEX
  8
PLAN_1
  6
CONTINUOUS
 10
-1.523303
 20
0.235591
  0
VERTEX
  8
PLAN_1
  6
CONTINUOUS
 10
-1.518622
 20
0.220512
  0
VERTEX
  8
PLAN_1
  6
CONTINUOUS
 10
-1.512902
 20
0.205429
  0
VERTEX
  8
PLAN_1
  6
CONTINUOUS
 10
-1.507181
 20
0.190866
  0
VERTEX
  8
PLAN_1
  6
CONTINUOUS
 10
-1.500421
 20
0.176827
  0
VERTEX
  8
PLAN_1
  6
CONTINUOUS
 10
-1.493138
 20
0.162783
  0
VERTEX
  8
PLAN_1
  6
CONTINUOUS
 10
-1.485339
 20
0.149264
  0
VERTEX
  8
PLAN_1
  6
CONTINUOUS
 10
-1.477020
 20
0.136264
  0
VERTEX
  8
PLAN_1
  6
CONTINUOUS
 10
-1.468177
 20
0.123260
  0
VERTEX
  8
PLAN_1
  6
CONTINUOUS
 10
-1.458815
 20
0.110780
  0
VERTEX
  8
PLAN_1
  6
CONTINUOUS
 10
-1.448937
 20
0.098819
  0
VERTEX
  8
PLAN_1
  6
CONTINUOUS
 10
-1.438535
 20
0.087378
  0
VERTEX
  8
PLAN_1
  6
CONTINUOUS
 10
-1.427614
 20
0.075937
  0
VERTEX
  8
PLAN_1
  6
CONTINUOUS
 10
-1.416173
 20
0.065535
  0
VERTEX
  8
PLAN_1
  6
CONTINUOUS
 10
-1.404732
 20
0.055134
  0
VERTEX
  8
PLAN_1
  6
CONTINUOUS
 10
-1.392252
 20
0.045776
  0
VERTEX
  8
PLAN_1
  6
CONTINUOUS
 10
-1.379768
 20
0.036413
  0
VERTEX
  8
PLAN_1
  6
CONTINUOUS
 10
-1.366768
 20
0.027571
  0
VERTEX
  8
PLAN_1
  6
CONTINUOUS
 10
-1.353248
 20
0.019772
  0
VERTEX
  8
PLAN_1
  6
CONTINUOUS
 10
-1.339724
 20
0.011972
  0
VERTEX
  8
PLAN_1
  6
CONTINUOUS
 10
-1.325685
 20
0.005209
  0
VERTEX
  8
PLAN_1
  6
CONTINUOUS
 10
-1.311122
 20
-0.001551
  0
VERTEX
  8
PLAN_1
  6
CONTINUOUS
 10
-1.296563
 20
-0.007272
  0
VERTEX
  8
PLAN_1
  6
CONTINUOUS
 10
-1.281480
 20
-0.012472
  0
VERTEX
  8
PLAN_1
  6
CONTINUOUS
 10
-1.266398
 20
-0.017154
  0
VERTEX
  8
PLAN_1
  6
CONTINUOUS
 10
-1.250795
 20
-0.020791
  0
VERTEX
  8
PLAN_1
  6
CONTINUOUS
 10
-1.234677
 20
-0.023913
  0
VERTEX
  8
PLAN_1
  6
CONTINUOUS
 10
-1.219075
 20
-0.026512
  0
VERTEX
  8
PLAN_1
  6
CONTINUOUS
 10
-1.202433
 20
-0.028594
  0
SEQEND
  8
0
  0
POLYLINE
  8
PLAN_1
  6
CONTINUOUS
 66
     1
 40
0.008319
 41
0.008319
  0
VERTEX
  8
PLAN_1
  6
CONTINUOUS
 10
-1.202433
 20
-0.028594
  0
VERTEX
  8
PLAN_1
  6
CONTINUOUS
 10
-1.202433
 20
0.092059
  0
SEQEND
  8
0
  0
POLYLINE
  8
PLAN_1
  6
CONTINUOUS
 66
     1
 40
0.008319
 41
0.008319
  0
VERTEX
  8
PLAN_1
  6
CONTINUOUS
 10
-1.422413
 20
0.628228
  0
VERTEX
  8
PLAN_1
  6
CONTINUOUS
 10
-1.436972
 20
0.614709
  0
VERTEX
  8
PLAN_1
  6
CONTINUOUS
 10
-1.451016
 20
0.600146
  0
VERTEX
  8
PLAN_1
  6
CONTINUOUS
 10
-1.464016
 20
0.585063
  0
VERTEX
  8
PLAN_1
  6
CONTINUOUS
 10
-1.476496
 20
0.569465
  0
VERTEX
  8
PLAN_1
  6
CONTINUOUS
 10
-1.482740
 20
0.561142
  0
VERTEX
  8
PLAN_1
  6
CONTINUOUS
 10
-1.488461
 20
0.552823
  0
VERTEX
  8
PLAN_1
  6
CONTINUOUS
 10
-1.493661
 20
0.544500
  0
VERTEX
  8
PLAN_1
  6
CONTINUOUS
 10
-1.498858
 20
0.535661
  0
VERTEX
  8
PLAN_1
  6
CONTINUOUS
 10
-1.504059
 20
0.527339
  0
VERTEX
  8
PLAN_1
  6
CONTINUOUS
 10
-1.508740
 20
0.518500
  0
VERTEX
  8
PLAN_1
  6
CONTINUOUS
 10
-1.513421
 20
0.509138
  0
VERTEX
  8
PLAN_1
  6
CONTINUOUS
 10
-1.518102
 20
0.500295
  0
VERTEX
  8
PLAN_1
  6
CONTINUOUS
 10
-1.522264
 20
0.490937
  0
VERTEX
  8
PLAN_1
  6
CONTINUOUS
 10
-1.525902
 20
0.481575
  0
VERTEX
  8
PLAN_1
  6
CONTINUOUS
 10
-1.529543
 20
0.472213
  0
VERTEX
  8
PLAN_1
  6
CONTINUOUS
 10
-1.533185
 20
0.462335
  0
VERTEX
  8
PLAN_1
  6
CONTINUOUS
 10
-1.536303
 20
0.452453
  0
VERTEX
  8
PLAN_1
  6
CONTINUOUS
 10
-1.538906
 20
0.442571
  0
VERTEX
  8
PLAN_1
  6
CONTINUOUS
 10
-1.541504
 20
0.432689
  0
VERTEX
  8
PLAN_1
  6
CONTINUOUS
 10
-1.544102
 20
0.422811
  0
VERTEX
  8
PLAN_1
  6
CONTINUOUS
 10
-1.546185
 20
0.412409
  0
VERTEX
  8
PLAN_1
  6
CONTINUOUS
 10
-1.548264
 20
0.402008
  0
VERTEX
  8
PLAN_1
  6
CONTINUOUS
 10
-1.549827
 20
0.391606
  0
VERTEX
  8
PLAN_1
  6
CONTINUOUS
 10
-1.550866
 20
0.381205
  0
VERTEX
  8
PLAN_1
  6
CONTINUOUS
 10
-1.551906
 20
0.370803
  0
VERTEX
  8
PLAN_1
  6
CONTINUOUS
 10
-1.552425
 20
0.360402
  0
VERTEX
  8
PLAN_1
  6
CONTINUOUS
 10
-1.552945
 20
0.349484
  0
VERTEX
  8
PLAN_1
  6
CONTINUOUS
 10
-1.553465
 20
0.338563
  0
VERTEX
  8
PLAN_1
  6
CONTINUOUS
 10
-1.552945
 20
0.318799
  0
VERTEX
  8
PLAN_1
  6
CONTINUOUS
 10
-1.551386
 20
0.299559
  0
VERTEX
  8
PLAN_1
  6
CONTINUOUS
 10
-1.548783
 20
0.280315
  0
VERTEX
  8
PLAN_1
  6
CONTINUOUS
 10
-1.545146
 20
0.261075
  0
VERTEX
  8
PLAN_1
  6
CONTINUOUS
 10
-1.540984
 20
0.242354
  0
VERTEX
  8
PLAN_1
  6
CONTINUOUS
 10
-1.535783
 20
0.224150
  0
VERTEX
  8
PLAN_1
  6
CONTINUOUS
 10
-1.530063
 20
0.206469
  0
VERTEX
  8
PLAN_1
  6
CONTINUOUS
 10
-1.522783
 20
0.188787
  0
VERTEX
  8
PLAN_1
  6
CONTINUOUS
 10
-1.514980
 20
0.171626
  0
VERTEX
  8
PLAN_1
  6
CONTINUOUS
 10
-1.506661
 20
0.154984
  0
VERTEX
  8
PLAN_1
  6
CONTINUOUS
 10
-1.497299
 20
0.138862
  0
VERTEX
  8
PLAN_1
  6
CONTINUOUS
 10
-1.487417
 20
0.123260
  0
VERTEX
  8
PLAN_1
  6
CONTINUOUS
 10
-1.476496
 20
0.108181
  0
VERTEX
  8
PLAN_1
  6
CONTINUOUS
 10
-1.465055
 20
0.093618
  0
VERTEX
  8
PLAN_1
  6
CONTINUOUS
 10
-1.453094
 20
0.079579
  0
VERTEX
  8
PLAN_1
  6
CONTINUOUS
 10
-1.440094
 20
0.066055
  0
VERTEX
  8
PLAN_1
  6
CONTINUOUS
 10
-1.427094
 20
0.053575
  0
VERTEX
  8
PLAN_1
  6
CONTINUOUS
 10
-1.413051
 20
0.041614
  0
VERTEX
  8
PLAN_1
  6
CONTINUOUS
 10
-1.398492
 20
0.030173
  0
VERTEX
  8
PLAN_1
  6
CONTINUOUS
 10
-1.383409
 20
0.019252
  0
VERTEX
  8
PLAN_1
  6
CONTINUOUS
 10
-1.367807
 20
0.009370
  0
VERTEX
  8
PLAN_1
  6
CONTINUOUS
 10
-1.351685
 20
0.000008
  0
VERTEX
  8
PLAN_1
  6
CONTINUOUS
 10
-1.335043
 20
-0.008831
  0
VERTEX
  8
PLAN_1
  6
CONTINUOUS
 10
-1.317882
 20
-0.016110
  0
VERTEX
  8
PLAN_1
  6
CONTINUOUS
 10
-1.300201
 20
-0.023394
  0
VERTEX
  8
PLAN_1
  6
CONTINUOUS
 10
-1.282520
 20
-0.029114
  0
VERTEX
  8
PLAN_1
  6
CONTINUOUS
 10
-1.264319
 20
-0.034315
  0
VERTEX
  8
PLAN_1
  6
CONTINUOUS
 10
-1.245594
 20
-0.038992
  0
VERTEX
  8
PLAN_1
  6
CONTINUOUS
 10
-1.226354
 20
-0.042114
  0
VERTEX
  8
PLAN_1
  6
CONTINUOUS
 10
-1.207114
 20
-0.044713
  0
VERTEX
  8
PLAN_1
  6
CONTINUOUS
 10
-1.187870
 20
-0.046276
  0
VERTEX
  8
PLAN_1
  6
CONTINUOUS
 10
-1.167591
 20
-0.046795
  0
VERTEX
  8
PLAN_1
  6
CONTINUOUS
 10
-1.147827
 20
-0.046276
  0
VERTEX
  8
PLAN_1
  6
CONTINUOUS
 10
-1.128587
 20
-0.044713
  0
VERTEX
  8
PLAN_1
  6
CONTINUOUS
 10
-1.109343
 20
-0.042114
  0
VERTEX
  8
PLAN_1
  6
CONTINUOUS
 10
-1.090102
 20
-0.038992
  0
VERTEX
  8
PLAN_1
  6
CONTINUOUS
 10
-1.071382
 20
-0.034315
  0
VERTEX
  8
PLAN_1
  6
CONTINUOUS
 10
-1.053177
 20
-0.029114
  0
VERTEX
  8
PLAN_1
  6
CONTINUOUS
 10
-1.035496
 20
-0.023394
  0
VERTEX
  8
PLAN_1
  6
CONTINUOUS
 10
-1.017815
 20
-0.016110
  0
VERTEX
  8
PLAN_1
  6
CONTINUOUS
 10
-1.000654
 20
-0.008831
  0
VERTEX
  8
PLAN_1
  6
CONTINUOUS
 10
-0.984012
 20
0.000008
  0
VERTEX
  8
PLAN_1
  6
CONTINUOUS
 10
-0.967890
 20
0.009370
  0
VERTEX
  8
PLAN_1
  6
CONTINUOUS
 10
-0.952287
 20
0.019252
  0
VERTEX
  8
PLAN_1
  6
CONTINUOUS
 10
-0.937209
 20
0.030173
  0
VERTEX
  8
PLAN_1
  6
CONTINUOUS
 10
-0.922646
 20
0.041614
  0
VERTEX
  8
PLAN_1
  6
CONTINUOUS
 10
-0.908606
 20
0.053575
  0
VERTEX
  8
PLAN_1
  6
CONTINUOUS
 10
-0.895083
 20
0.066055
  0
VERTEX
  8
PLAN_1
  6
CONTINUOUS
 10
-0.882602
 20
0.079579
  0
VERTEX
  8
PLAN_1
  6
CONTINUOUS
 10
-0.870642
 20
0.093618
  0
VERTEX
  8
PLAN_1
  6
CONTINUOUS
 10
-0.859201
 20
0.108181
  0
VERTEX
  8
PLAN_1
  6
CONTINUOUS
 10
-0.848280
 20
0.123260
  0
VERTEX
  8
PLAN_1
  6
CONTINUOUS
 10
-0.838398
 20
0.138862
  0
VERTEX
  8
PLAN_1
  6
CONTINUOUS
 10
-0.829035
 20
0.154984
  0
VERTEX
  8
PLAN_1
  6
CONTINUOUS
 10
-0.820717
 20
0.171626
  0
VERTEX
  8
PLAN_1
  6
CONTINUOUS
 10
-0.812917
 20
0.188787
  0
VERTEX
  8
PLAN_1
  6
CONTINUOUS
 10
-0.805634
 20
0.206469
  0
VERTEX
  8
PLAN_1
  6
CONTINUOUS
 10
-0.799913
 20
0.224150
  0
VERTEX
  8
PLAN_1
  6
CONTINUOUS
 10
-0.794713
 20
0.242354
  0
VERTEX
  8
PLAN_1
  6
CONTINUOUS
 10
-0.790035
 20
0.261075
  0
VERTEX
  8
PLAN_1
  6
CONTINUOUS
 10
-0.786913
 20
0.280315
  0
VERTEX
  8
PLAN_1
  6
CONTINUOUS
 10
-0.784315
 20
0.299559
  0
VERTEX
  8
PLAN_1
  6
CONTINUOUS
 10
-0.782752
 20
0.318799
  0
VERTEX
  8
PLAN_1
  6
CONTINUOUS
 10
-0.782232
 20
0.338563
  0
VERTEX
  8
PLAN_1
  6
CONTINUOUS
 10
-0.782752
 20
0.349484
  0
VERTEX
  8
PLAN_1
  6
CONTINUOUS
 10
-0.783272
 20
0.360402
  0
VERTEX
  8
PLAN_1
  6
CONTINUOUS
 10
-0.783791
 20
0.370803
  0
VERTEX
  8
PLAN_1
  6
CONTINUOUS
 10
-0.784835
 20
0.381205
  0
VERTEX
  8
PLAN_1
  6
CONTINUOUS
 10
-0.785874
 20
0.391606
  0
VERTEX
  8
PLAN_1
  6
CONTINUOUS
 10
-0.787433
 20
0.402008
  0
VERTEX
  8
PLAN_1
  6
CONTINUOUS
 10
-0.789512
 20
0.412409
  0
VERTEX
  8
PLAN_1
  6
CONTINUOUS
 10
-0.791594
 20
0.422811
  0
VERTEX
  8
PLAN_1
  6
CONTINUOUS
 10
-0.794193
 20
0.432689
  0
VERTEX
  8
PLAN_1
  6
CONTINUOUS
 10
-0.796795
 20
0.442571
  0
VERTEX
  8
PLAN_1
  6
CONTINUOUS
 10
-0.799394
 20
0.452453
  0
VERTEX
  8
PLAN_1
  6
CONTINUOUS
 10
-0.802516
 20
0.462335
  0
VERTEX
  8
PLAN_1
  6
CONTINUOUS
 10
-0.806154
 20
0.472213
  0
VERTEX
  8
PLAN_1
  6
CONTINUOUS
 10
-0.809795
 20
0.481575
  0
VERTEX
  8
PLAN_1
  6
CONTINUOUS
 10
-0.813437
 20
0.490937
  0
VERTEX
  8
PLAN_1
  6
CONTINUOUS
 10
-0.817594
 20
0.500295
  0
VERTEX
  8
PLAN_1
  6
CONTINUOUS
 10
-0.822276
 20
0.509138
  0
VERTEX
  8
PLAN_1
  6
CONTINUOUS
 10
-0.826957
 20
0.518500
  0
VERTEX
  8
PLAN_1
  6
CONTINUOUS
 10
-0.831638
 20
0.527339
  0
VERTEX
  8
PLAN_1
  6
CONTINUOUS
 10
-0.836839
 20
0.535661
  0
VERTEX
  8
PLAN_1
  6
CONTINUOUS
 10
-0.847240
 20
0.552823
  0
VERTEX
  8
PLAN_1
  6
CONTINUOUS
 10
-0.859201
 20
0.569465
  0
VERTEX
  8
PLAN_1
  6
CONTINUOUS
 10
-0.871161
 20
0.585063
  0
VERTEX
  8
PLAN_1
  6
CONTINUOUS
 10
-0.884681
 20
0.600146
  0
VERTEX
  8
PLAN_1
  6
CONTINUOUS
 10
-0.898724
 20
0.614709
  0
VERTEX
  8
PLAN_1
  6
CONTINUOUS
 10
-0.913283
 20
0.628228
  0
SEQEND
  8
0
  0
POLYLINE
  8
PLAN_1
  6
CONTINUOUS
 66
     1
 40
0.008319
 41
0.008319
  0
VERTEX
  8
PLAN_1
  6
CONTINUOUS
 10
-0.894563
 20
0.769161
  0
VERTEX
  8
PLAN_1
  6
CONTINUOUS
 10
-0.894563
 20
0.683354
  0
VERTEX
  8
PLAN_1
  6
CONTINUOUS
 10
-1.441134
 20
0.683354
  0
VERTEX
  8
PLAN_1
  6
CONTINUOUS
 10
-1.441134
 20
0.769161
  0
VERTEX
  8
PLAN_1
  6
CONTINUOUS
 10
-0.894563
 20
0.769161
  0
SEQEND
  8
0
  0
POLYLINE
  8
PLAN_1
  6
CONTINUOUS
 66
     1
 40
0.008319
 41
0.008319
  0
VERTEX
  8
PLAN_1
  6
CONTINUOUS
 10
-1.029256
 20
1.408823
  0
VERTEX
  8
PLAN_1
  6
CONTINUOUS
 10
-1.024575
 20
1.413504
  0
VERTEX
  8
PLAN_1
  6
CONTINUOUS
 10
-1.020937
 20
1.418181
  0
VERTEX
  8
PLAN_1
  6
CONTINUOUS
 10
-1.018335
 20
1.422343
  0
VERTEX
  8
PLAN_1
  6
CONTINUOUS
 10
-1.016776
 20
1.426504
  0
VERTEX
  8
PLAN_1
  6
CONTINUOUS
 10
-1.016256
 20
1.430665
  0
VERTEX
  8
PLAN_1
  6
CONTINUOUS
 10
-1.016256
 20
1.434303
  0
VERTEX
  8
PLAN_1
  6
CONTINUOUS
 10
-1.017295
 20
1.437945
  0
VERTEX
  8
PLAN_1
  6
CONTINUOUS
 10
-1.018335
 20
1.441587
  0
VERTEX
  8
PLAN_1
  6
CONTINUOUS
 10
-1.019894
 20
1.444705
  0
VERTEX
  8
PLAN_1
  6
CONTINUOUS
 10
-1.021457
 20
1.447307
  0
VERTEX
  8
PLAN_1
  6
CONTINUOUS
 10
-1.023535
 20
1.449906
  0
VERTEX
  8
PLAN_1
  6
CONTINUOUS
 10
-1.025094
 20
1.451984
  0
VERTEX
  8
PLAN_1
  6
CONTINUOUS
 10
-1.028217
 20
1.454587
  0
VERTEX
  8
PLAN_1
  6
CONTINUOUS
 10
-1.029256
 20
1.455626
  0
SEQEND
  8
0
  0
POLYLINE
  8
PLAN_1
  6
CONTINUOUS
 66
     1
 40
0.008319
 41
0.008319
  0
VERTEX
  8
PLAN_1
  6
CONTINUOUS
 10
-1.029256
 20
1.455626
  0
VERTEX
  8
PLAN_1
  6
CONTINUOUS
 10
-1.317362
 20
1.455626
  0
SEQEND
  8
0
  0
POLYLINE
  8
PLAN_1
  6
CONTINUOUS
 66
     1
 40
0.008319
 41
0.008319
  0
VERTEX
  8
PLAN_1
  6
CONTINUOUS
 10
-1.317362
 20
1.455626
  0
VERTEX
  8
PLAN_1
  6
CONTINUOUS
 10
-1.318402
 20
1.455106
  0
VERTEX
  8
PLAN_1
  6
CONTINUOUS
 10
-1.321004
 20
1.451984
  0
VERTEX
  8
PLAN_1
  6
CONTINUOUS
 10
-1.324122
 20
1.447827
  0
VERTEX
  8
PLAN_1
  6
CONTINUOUS
 10
-1.327244
 20
1.442106
  0
VERTEX
  8
PLAN_1
  6
CONTINUOUS
 10
-1.328283
 20
1.438984
  0
VERTEX
  8
PLAN_1
  6
CONTINUOUS
 10
-1.328803
 20
1.435343
  0
VERTEX
  8
PLAN_1
  6
CONTINUOUS
 10
-1.328803
 20
1.431185
  0
VERTEX
  8
PLAN_1
  6
CONTINUOUS
 10
-1.328283
 20
1.427024
  0
VERTEX
  8
PLAN_1
  6
CONTINUOUS
 10
-1.327244
 20
1.422862
  0
VERTEX
  8
PLAN_1
  6
CONTINUOUS
 10
-1.324646
 20
1.418181
  0
VERTEX
  8
PLAN_1
  6
CONTINUOUS
 10
-1.321524
 20
1.413504
  0
VERTEX
  8
PLAN_1
  6
CONTINUOUS
 10
-1.317362
 20
1.408823
  0
SEQEND
  8
0
  0
POLYLINE
  8
PLAN_1
  6
CONTINUOUS
 66
     1
 40
0.008319
 41
0.008319
  0
VERTEX
  8
PLAN_1
  6
CONTINUOUS
 10
-1.317362
 20
1.408823
  0
VERTEX
  8
PLAN_1
  6
CONTINUOUS
 10
-1.029256
 20
1.408823
  0
SEQEND
  8
0
  0
POLYLINE
  8
PLAN_1
  6
CONTINUOUS
 66
     1
 40
0.008319
 41
0.008319
  0
VERTEX
  8
PLAN_1
  6
CONTINUOUS
 10
-1.028736
 20
1.362539
  0
VERTEX
  8
PLAN_1
  6
CONTINUOUS
 10
-1.024055
 20
1.367217
  0
VERTEX
  8
PLAN_1
  6
CONTINUOUS
 10
-1.020413
 20
1.371378
  0
VERTEX
  8
PLAN_1
  6
CONTINUOUS
 10
-1.017815
 20
1.376059
  0
VERTEX
  8
PLAN_1
  6
CONTINUOUS
 10
-1.016256
 20
1.380220
  0
VERTEX
  8
PLAN_1
  6
CONTINUOUS
 10
-1.015736
 20
1.384378
  0
VERTEX
  8
PLAN_1
  6
CONTINUOUS
 10
-1.015736
 20
1.388020
  0
VERTEX
  8
PLAN_1
  6
CONTINUOUS
 10
-1.016776
 20
1.391661
  0
VERTEX
  8
PLAN_1
  6
CONTINUOUS
 10
-1.017815
 20
1.395299
  0
VERTEX
  8
PLAN_1
  6
CONTINUOUS
 10
-1.019374
 20
1.398421
  0
VERTEX
  8
PLAN_1
  6
CONTINUOUS
 10
-1.020937
 20
1.401020
  0
VERTEX
  8
PLAN_1
  6
CONTINUOUS
 10
-1.023016
 20
1.403622
  0
VERTEX
  8
PLAN_1
  6
CONTINUOUS
 10
-1.024575
 20
1.405701
  0
VERTEX
  8
PLAN_1
  6
CONTINUOUS
 10
-1.027697
 20
1.408303
  0
VERTEX
  8
PLAN_1
  6
CONTINUOUS
 10
-1.028736
 20
1.409343
  0
SEQEND
  8
0
  0
POLYLINE
  8
PLAN_1
  6
CONTINUOUS
 66
     1
 40
0.008319
 41
0.008319
  0
VERTEX
  8
PLAN_1
  6
CONTINUOUS
 10
-1.028736
 20
1.409343
  0
VERTEX
  8
PLAN_1
  6
CONTINUOUS
 10
-1.316843
 20
1.409343
  0
SEQEND
  8
0
  0
POLYLINE
  8
PLAN_1
  6
CONTINUOUS
 66
     1
 40
0.008319
 41
0.008319
  0
VERTEX
  8
PLAN_1
  6
CONTINUOUS
 10
-1.316843
 20
1.409343
  0
VERTEX
  8
PLAN_1
  6
CONTINUOUS
 10
-1.317882
 20
1.408303
  0
VERTEX
  8
PLAN_1
  6
CONTINUOUS
 10
-1.320484
 20
1.405701
  0
VERTEX
  8
PLAN_1
  6
CONTINUOUS
 10
-1.324122
 20
1.401539
  0
VERTEX
  8
PLAN_1
  6
CONTINUOUS
 10
-1.326724
 20
1.395819
  0
VERTEX
  8
PLAN_1
  6
CONTINUOUS
 10
-1.327764
 20
1.392181
  0
VERTEX
  8
PLAN_1
  6
CONTINUOUS
 10
-1.328283
 20
1.388539
  0
VERTEX
  8
PLAN_1
  6
CONTINUOUS
 10
-1.328283
 20
1.384898
  0
VERTEX
  8
PLAN_1
  6
CONTINUOUS
 10
-1.327764
 20
1.380740
  0
VERTEX
  8
PLAN_1
  6
CONTINUOUS
 10
-1.326724
 20
1.376579
  0
VERTEX
  8
PLAN_1
  6
CONTINUOUS
 10
-1.324646
 20
1.371898
  0
VERTEX
  8
PLAN_1
  6
CONTINUOUS
 10
-1.321524
 20
1.367217
  0
VERTEX
  8
PLAN_1
  6
CONTINUOUS
 10
-1.316843
 20
1.362539
  0
SEQEND
  8
0
  0
POLYLINE
  8
PLAN_1
  6
CONTINUOUS
 66
     1
 40
0.008319
 41
0.008319
  0
VERTEX
  8
PLAN_1
  6
CONTINUOUS
 10
-1.316843
 20
1.362539
  0
VERTEX
  8
PLAN_1
  6
CONTINUOUS
 10
-1.028736
 20
1.362539
  0
SEQEND
  8
0
  0
POLYLINE
  8
PLAN_1
  6
CONTINUOUS
 66
     1
 40
0.008319
 41
0.008319
  0
VERTEX
  8
PLAN_1
  6
CONTINUOUS
 10
-1.029256
 20
1.315213
  0
VERTEX
  8
PLAN_1
  6
CONTINUOUS
 10
-1.024055
 20
1.319894
  0
VERTEX
  8
PLAN_1
  6
CONTINUOUS
 10
-1.020413
 20
1.324575
  0
VERTEX
  8
PLAN_1
  6
CONTINUOUS
 10
-1.018335
 20
1.328736
  0
VERTEX
  8
PLAN_1
  6
CONTINUOUS
 10
-1.016776
 20
1.332894
  0
VERTEX
  8
PLAN_1
  6
CONTINUOUS
 10
-1.016256
 20
1.337055
  0
VERTEX
  8
PLAN_1
  6
CONTINUOUS
 10
-1.016256
 20
1.340697
  0
VERTEX
  8
PLAN_1
  6
CONTINUOUS
 10
-1.016776
 20
1.344335
  0
VERTEX
  8
PLAN_1
  6
CONTINUOUS
 10
-1.017815
 20
1.347976
  0
VERTEX
  8
PLAN_1
  6
CONTINUOUS
 10
-1.021457
 20
1.353697
  0
VERTEX
  8
PLAN_1
  6
CONTINUOUS
 10
-1.025094
 20
1.358378
  0
VERTEX
  8
PLAN_1
  6
CONTINUOUS
 10
-1.027697
 20
1.361496
  0
VERTEX
  8
PLAN_1
  6
CONTINUOUS
 10
-1.029256
 20
1.362539
  0
SEQEND
  8
0
  0
POLYLINE
  8
PLAN_1
  6
CONTINUOUS
 66
     1
 40
0.008319
 41
0.008319
  0
VERTEX
  8
PLAN_1
  6
CONTINUOUS
 10
-1.029256
 20
1.362539
  0
VERTEX
  8
PLAN_1
  6
CONTINUOUS
 10
-1.317362
 20
1.362539
  0
SEQEND
  8
0
  0
POLYLINE
  8
PLAN_1
  6
CONTINUOUS
 66
     1
 40
0.008319
 41
0.008319
  0
VERTEX
  8
PLAN_1
  6
CONTINUOUS
 10
-1.317362
 20
1.362539
  0
VERTEX
  8
PLAN_1
  6
CONTINUOUS
 10
-1.318402
 20
1.361496
  0
VERTEX
  8
PLAN_1
  6
CONTINUOUS
 10
-1.321004
 20
1.358898
  0
VERTEX
  8
PLAN_1
  6
CONTINUOUS
 10
-1.324122
 20
1.354217
  0
VERTEX
  8
PLAN_1
  6
CONTINUOUS
 10
-1.326724
 20
1.348496
  0
VERTEX
  8
PLAN_1
  6
CONTINUOUS
 10
-1.327764
 20
1.345374
  0
VERTEX
  8
PLAN_1
  6
CONTINUOUS
 10
-1.328803
 20
1.341736
  0
VERTEX
  8
PLAN_1
  6
CONTINUOUS
 10
-1.328803
 20
1.338094
  0
VERTEX
  8
PLAN_1
  6
CONTINUOUS
 10
-1.328283
 20
1.333933
  0
VERTEX
  8
PLAN_1
  6
CONTINUOUS
 10
-1.326724
 20
1.329256
  0
VERTEX
  8
PLAN_1
  6
CONTINUOUS
 10
-1.324646
 20
1.325094
  0
VERTEX
  8
PLAN_1
  6
CONTINUOUS
 10
-1.321524
 20
1.320413
  0
VERTEX
  8
PLAN_1
  6
CONTINUOUS
 10
-1.317362
 20
1.315213
  0
SEQEND
  8
0
  0
POLYLINE
  8
PLAN_1
  6
CONTINUOUS
 66
     1
 40
0.008319
 41
0.008319
  0
VERTEX
  8
PLAN_1
  6
CONTINUOUS
 10
-1.317362
 20
1.315213
  0
VERTEX
  8
PLAN_1
  6
CONTINUOUS
 10
-1.029256
 20
1.315213
  0
SEQEND
  8
0
  0
POLYLINE
  8
PLAN_1
  6
CONTINUOUS
 66
     1
 40
0.008319
 41
0.008319
  0
VERTEX
  8
PLAN_1
  6
CONTINUOUS
 10
-1.028736
 20
1.268929
  0
VERTEX
  8
PLAN_1
  6
CONTINUOUS
 10
-1.023535
 20
1.273610
  0
VERTEX
  8
PLAN_1
  6
CONTINUOUS
 10
-1.020413
 20
1.277768
  0
VERTEX
  8
PLAN_1
  6
CONTINUOUS
 10
-1.017815
 20
1.282449
  0
VERTEX
  8
PLAN_1
  6
CONTINUOUS
 10
-1.016256
 20
1.286610
  0
VERTEX
  8
PLAN_1
  6
CONTINUOUS
 10
-1.015736
 20
1.290772
  0
VERTEX
  8
PLAN_1
  6
CONTINUOUS
 10
-1.015736
 20
1.294409
  0
VERTEX
  8
PLAN_1
  6
CONTINUOUS
 10
-1.016256
 20
1.298051
  0
VERTEX
  8
PLAN_1
  6
CONTINUOUS
 10
-1.017815
 20
1.301693
  0
VERTEX
  8
PLAN_1
  6
CONTINUOUS
 10
-1.019374
 20
1.304811
  0
VERTEX
  8
PLAN_1
  6
CONTINUOUS
 10
-1.020937
 20
1.307413
  0
VERTEX
  8
PLAN_1
  6
CONTINUOUS
 10
-1.022496
 20
1.310012
  0
VERTEX
  8
PLAN_1
  6
CONTINUOUS
 10
-1.024575
 20
1.312094
  0
VERTEX
  8
PLAN_1
  6
CONTINUOUS
 10
-1.027177
 20
1.314693
  0
VERTEX
  8
PLAN_1
  6
CONTINUOUS
 10
-1.028736
 20
1.315732
  0
SEQEND
  8
0
  0
POLYLINE
  8
PLAN_1
  6
CONTINUOUS
 66
     1
 40
0.008319
 41
0.008319
  0
VERTEX
  8
PLAN_1
  6
CONTINUOUS
 10
-1.028736
 20
1.315732
  0
VERTEX
  8
PLAN_1
  6
CONTINUOUS
 10
-1.316843
 20
1.315732
  0
SEQEND
  8
0
  0
POLYLINE
  8
PLAN_1
  6
CONTINUOUS
 66
     1
 40
0.008319
 41
0.008319
  0
VERTEX
  8
PLAN_1
  6
CONTINUOUS
 10
-1.316843
 20
1.315732
  0
VERTEX
  8
PLAN_1
  6
CONTINUOUS
 10
-1.317882
 20
1.314693
  0
VERTEX
  8
PLAN_1
  6
CONTINUOUS
 10
-1.320484
 20
1.312094
  0
VERTEX
  8
PLAN_1
  6
CONTINUOUS
 10
-1.323602
 20
1.307933
  0
VERTEX
  8
PLAN_1
  6
CONTINUOUS
 10
-1.326724
 20
1.302213
  0
VERTEX
  8
PLAN_1
  6
CONTINUOUS
 10
-1.327764
 20
1.299091
  0
VERTEX
  8
PLAN_1
  6
CONTINUOUS
 10
-1.328283
 20
1.295453
  0
VERTEX
  8
PLAN_1
  6
CONTINUOUS
 10
-1.328283
 20
1.291291
  0
VERTEX
  8
PLAN_1
  6
CONTINUOUS
 10
-1.327764
 20
1.287130
  0
VERTEX
  8
PLAN_1
  6
CONTINUOUS
 10
-1.326205
 20
1.282969
  0
VERTEX
  8
PLAN_1
  6
CONTINUOUS
 10
-1.324122
 20
1.278291
  0
VERTEX
  8
PLAN_1
  6
CONTINUOUS
 10
-1.321004
 20
1.273610
  0
VERTEX
  8
PLAN_1
  6
CONTINUOUS
 10
-1.316843
 20
1.268929
  0
SEQEND
  8
0
  0
POLYLINE
  8
PLAN_1
  6
CONTINUOUS
 66
     1
 40
0.008319
 41
0.008319
  0
VERTEX
  8
PLAN_1
  6
CONTINUOUS
 10
-1.316843
 20
1.268929
  0
VERTEX
  8
PLAN_1
  6
CONTINUOUS
 10
-1.028736
 20
1.268929
  0
SEQEND
  8
0
  0
POLYLINE
  8
PLAN_1
  6
CONTINUOUS
 66
     1
 40
0.008319
 41
0.008319
  0
VERTEX
  8
PLAN_1
  6
CONTINUOUS
 10
-1.029256
 20
1.222646
  0
VERTEX
  8
PLAN_1
  6
CONTINUOUS
 10
-1.024055
 20
1.227323
  0
VERTEX
  8
PLAN_1
  6
CONTINUOUS
 10
-1.020413
 20
1.231484
  0
VERTEX
  8
PLAN_1
  6
CONTINUOUS
 10
-1.018335
 20
1.236165
  0
VERTEX
  8
PLAN_1
  6
CONTINUOUS
 10
-1.016776
 20
1.240327
  0
VERTEX
  8
PLAN_1
  6
CONTINUOUS
 10
-1.016256
 20
1.243965
  0
VERTEX
  8
PLAN_1
  6
CONTINUOUS
 10
-1.016256
 20
1.248126
  0
VERTEX
  8
PLAN_1
  6
CONTINUOUS
 10
-1.016776
 20
1.251768
  0
VERTEX
  8
PLAN_1
  6
CONTINUOUS
 10
-1.017815
 20
1.254886
  0
VERTEX
  8
PLAN_1
  6
CONTINUOUS
 10
-1.019374
 20
1.258008
  0
VERTEX
  8
PLAN_1
  6
CONTINUOUS
 10
-1.021457
 20
1.261130
  0
VERTEX
  8
PLAN_1
  6
CONTINUOUS
 10
-1.023016
 20
1.263209
  0
VERTEX
  8
PLAN_1
  6
CONTINUOUS
 10
-1.025094
 20
1.265287
  0
VERTEX
  8
PLAN_1
  6
CONTINUOUS
 10
-1.027697
 20
1.268409
  0
VERTEX
  8
PLAN_1
  6
CONTINUOUS
 10
-1.029256
 20
1.269449
  0
SEQEND
  8
0
  0
POLYLINE
  8
PLAN_1
  6
CONTINUOUS
 66
     1
 40
0.008319
 41
0.008319
  0
VERTEX
  8
PLAN_1
  6
CONTINUOUS
 10
-1.029256
 20
1.269449
  0
VERTEX
  8
PLAN_1
  6
CONTINUOUS
 10
-1.317362
 20
1.269449
  0
SEQEND
  8
0
  0
POLYLINE
  8
PLAN_1
  6
CONTINUOUS
 66
     1
 40
0.008319
 41
0.008319
  0
VERTEX
  8
PLAN_1
  6
CONTINUOUS
 10
-1.317362
 20
1.269449
  0
VERTEX
  8
PLAN_1
  6
CONTINUOUS
 10
-1.318402
 20
1.268409
  0
VERTEX
  8
PLAN_1
  6
CONTINUOUS
 10
-1.321004
 20
1.265807
  0
VERTEX
  8
PLAN_1
  6
CONTINUOUS
 10
-1.324122
 20
1.261650
  0
VERTEX
  8
PLAN_1
  6
CONTINUOUS
 10
-1.326724
 20
1.255929
  0
VERTEX
  8
PLAN_1
  6
CONTINUOUS
 10
-1.327764
 20
1.252287
  0
VERTEX
  8
PLAN_1
  6
CONTINUOUS
 10
-1.328803
 20
1.248646
  0
VERTEX
  8
PLAN_1
  6
CONTINUOUS
 10
-1.328803
 20
1.245008
  0
VERTEX
  8
PLAN_1
  6
CONTINUOUS
 10
-1.328283
 20
1.240846
  0
VERTEX
  8
PLAN_1
  6
CONTINUOUS
 10
-1.326724
 20
1.236685
  0
VERTEX
  8
PLAN_1
  6
CONTINUOUS
 10
-1.324646
 20
1.232004
  0
VERTEX
  8
PLAN_1
  6
CONTINUOUS
 10
-1.321524
 20
1.227323
  0
VERTEX
  8
PLAN_1
  6
CONTINUOUS
 10
-1.317362
 20
1.222646
  0
SEQEND
  8
0
  0
POLYLINE
  8
PLAN_1
  6
CONTINUOUS
 66
     1
 40
0.008319
 41
0.008319
  0
VERTEX
  8
PLAN_1
  6
CONTINUOUS
 10
-1.317362
 20
1.222646
  0
VERTEX
  8
PLAN_1
  6
CONTINUOUS
 10
-1.029256
 20
1.222646
  0
SEQEND
  8
0
  0
POLYLINE
  8
PLAN_1
  6
CONTINUOUS
 66
     1
 40
0.008319
 41
0.008319
  0
VERTEX
  8
PLAN_1
  6
CONTINUOUS
 10
-1.028736
 20
1.176358
  0
VERTEX
  8
PLAN_1
  6
CONTINUOUS
 10
-1.023535
 20
1.180520
  0
VERTEX
  8
PLAN_1
  6
CONTINUOUS
 10
-1.020413
 20
1.185201
  0
VERTEX
  8
PLAN_1
  6
CONTINUOUS
 10
-1.017815
 20
1.189362
  0
VERTEX
  8
PLAN_1
  6
CONTINUOUS
 10
-1.016256
 20
1.193520
  0
VERTEX
  8
PLAN_1
  6
CONTINUOUS
 10
-1.015736
 20
1.197681
  0
VERTEX
  8
PLAN_1
  6
CONTINUOUS
 10
-1.015736
 20
1.201843
  0
VERTEX
  8
PLAN_1
  6
CONTINUOUS
 10
-1.016256
 20
1.205484
  0
VERTEX
  8
PLAN_1
  6
CONTINUOUS
 10
-1.017815
 20
1.208602
  0
VERTEX
  8
PLAN_1
  6
CONTINUOUS
 10
-1.019374
 20
1.211724
  0
VERTEX
  8
PLAN_1
  6
CONTINUOUS
 10
-1.020937
 20
1.214843
  0
VERTEX
  8
PLAN_1
  6
CONTINUOUS
 10
-1.022496
 20
1.216925
  0
VERTEX
  8
PLAN_1
  6
CONTINUOUS
 10
-1.024575
 20
1.219004
  0
VERTEX
  8
PLAN_1
  6
CONTINUOUS
 10
-1.027177
 20
1.222126
  0
VERTEX
  8
PLAN_1
  6
CONTINUOUS
 10
-1.028736
 20
1.223165
  0
SEQEND
  8
0
  0
POLYLINE
  8
PLAN_1
  6
CONTINUOUS
 66
     1
 40
0.008319
 41
0.008319
  0
VERTEX
  8
PLAN_1
  6
CONTINUOUS
 10
-1.028736
 20
1.223165
  0
VERTEX
  8
PLAN_1
  6
CONTINUOUS
 10
-1.316843
 20
1.223165
  0
SEQEND
  8
0
  0
POLYLINE
  8
PLAN_1
  6
CONTINUOUS
 66
     1
 40
0.008319
 41
0.008319
  0
VERTEX
  8
PLAN_1
  6
CONTINUOUS
 10
-1.316843
 20
1.223165
  0
VERTEX
  8
PLAN_1
  6
CONTINUOUS
 10
-1.317882
 20
1.222126
  0
VERTEX
  8
PLAN_1
  6
CONTINUOUS
 10
-1.320484
 20
1.219524
  0
VERTEX
  8
PLAN_1
  6
CONTINUOUS
 10
-1.323602
 20
1.214843
  0
VERTEX
  8
PLAN_1
  6
CONTINUOUS
 10
-1.326724
 20
1.209122
  0
VERTEX
  8
PLAN_1
  6
CONTINUOUS
 10
-1.327764
 20
1.206004
  0
VERTEX
  8
PLAN_1
  6
CONTINUOUS
 10
-1.328283
 20
1.202362
  0
VERTEX
  8
PLAN_1
  6
CONTINUOUS
 10
-1.328283
 20
1.198720
  0
VERTEX
  8
PLAN_1
  6
CONTINUOUS
 10
-1.327764
 20
1.194563
  0
VERTEX
  8
PLAN_1
  6
CONTINUOUS
 10
-1.326205
 20
1.189882
  0
VERTEX
  8
PLAN_1
  6
CONTINUOUS
 10
-1.324122
 20
1.185720
  0
VERTEX
  8
PLAN_1
  6
CONTINUOUS
 10
-1.321004
 20
1.181039
  0
VERTEX
  8
PLAN_1
  6
CONTINUOUS
 10
-1.316843
 20
1.176358
  0
SEQEND
  8
0
  0
POLYLINE
  8
PLAN_1
  6
CONTINUOUS
 66
     1
 40
0.008319
 41
0.008319
  0
VERTEX
  8
PLAN_1
  6
CONTINUOUS
 10
-1.316843
 20
1.176358
  0
VERTEX
  8
PLAN_1
  6
CONTINUOUS
 10
-1.028736
 20
1.176358
  0
SEQEND
  8
0
  0
POLYLINE
  8
PLAN_1
  6
CONTINUOUS
 66
     1
 40
0.008319
 41
0.008319
  0
VERTEX
  8
PLAN_1
  6
CONTINUOUS
 10
-1.029256
 20
1.129555
  0
VERTEX
  8
PLAN_1
  6
CONTINUOUS
 10
-1.024055
 20
1.134236
  0
VERTEX
  8
PLAN_1
  6
CONTINUOUS
 10
-1.020413
 20
1.138917
  0
VERTEX
  8
PLAN_1
  6
CONTINUOUS
 10
-1.018335
 20
1.143079
  0
VERTEX
  8
PLAN_1
  6
CONTINUOUS
 10
-1.016776
 20
1.147236
  0
VERTEX
  8
PLAN_1
  6
CONTINUOUS
 10
-1.016256
 20
1.151398
  0
VERTEX
  8
PLAN_1
  6
CONTINUOUS
 10
-1.016256
 20
1.155039
  0
VERTEX
  8
PLAN_1
  6
CONTINUOUS
 10
-1.016776
 20
1.158677
  0
VERTEX
  8
PLAN_1
  6
CONTINUOUS
 10
-1.017815
 20
1.162319
  0
VERTEX
  8
PLAN_1
  6
CONTINUOUS
 10
-1.019374
 20
1.165441
  0
VERTEX
  8
PLAN_1
  6
CONTINUOUS
 10
-1.021457
 20
1.168039
  0
VERTEX
  8
PLAN_1
  6
CONTINUOUS
 10
-1.023016
 20
1.170638
  0
VERTEX
  8
PLAN_1
  6
CONTINUOUS
 10
-1.025094
 20
1.172720
  0
VERTEX
  8
PLAN_1
  6
CONTINUOUS
 10
-1.027697
 20
1.175319
  0
VERTEX
  8
PLAN_1
  6
CONTINUOUS
 10
-1.029256
 20
1.176358
  0
SEQEND
  8
0
  0
POLYLINE
  8
PLAN_1
  6
CONTINUOUS
 66
     1
 40
0.008319
 41
0.008319
  0
VERTEX
  8
PLAN_1
  6
CONTINUOUS
 10
-1.029256
 20
1.176358
  0
VERTEX
  8
PLAN_1
  6
CONTINUOUS
 10
-1.317362
 20
1.176358
  0
SEQEND
  8
0
  0
POLYLINE
  8
PLAN_1
  6
CONTINUOUS
 66
     1
 40
0.008319
 41
0.008319
  0
VERTEX
  8
PLAN_1
  6
CONTINUOUS
 10
-1.317362
 20
1.176358
  0
VERTEX
  8
PLAN_1
  6
CONTINUOUS
 10
-1.318402
 20
1.175839
  0
VERTEX
  8
PLAN_1
  6
CONTINUOUS
 10
-1.321004
 20
1.172720
  0
VERTEX
  8
PLAN_1
  6
CONTINUOUS
 10
-1.324122
 20
1.168559
  0
VERTEX
  8
PLAN_1
  6
CONTINUOUS
 10
-1.326724
 20
1.162839
  0
VERTEX
  8
PLAN_1
  6
CONTINUOUS
 10
-1.327764
 20
1.159717
  0
VERTEX
  8
PLAN_1
  6
CONTINUOUS
 10
-1.328803
 20
1.156079
  0
VERTEX
  8
PLAN_1
  6
CONTINUOUS
 10
-1.328803
 20
1.151917
  0
VERTEX
  8
PLAN_1
  6
CONTINUOUS
 10
-1.328283
 20
1.148276
  0
VERTEX
  8
PLAN_1
  6
CONTINUOUS
 10
-1.326724
 20
1.143598
  0
VERTEX
  8
PLAN_1
  6
CONTINUOUS
 10
-1.324646
 20
1.139437
  0
VERTEX
  8
PLAN_1
  6
CONTINUOUS
 10
-1.321524
 20
1.134756
  0
VERTEX
  8
PLAN_1
  6
CONTINUOUS
 10
-1.317362
 20
1.129555
  0
SEQEND
  8
0
  0
POLYLINE
  8
PLAN_1
  6
CONTINUOUS
 66
     1
 40
0.008319
 41
0.008319
  0
VERTEX
  8
PLAN_1
  6
CONTINUOUS
 10
-1.317362
 20
1.129555
  0
VERTEX
  8
PLAN_1
  6
CONTINUOUS
 10
-1.029256
 20
1.129555
  0
SEQEND
  8
0
  0
POLYLINE
  8
PLAN_1
  6
CONTINUOUS
 66
     1
 40
0.008319
 41
0.008319
  0
VERTEX
  8
PLAN_1
  6
CONTINUOUS
 10
-1.028736
 20
1.083272
  0
VERTEX
  8
PLAN_1
  6
CONTINUOUS
 10
-1.023535
 20
1.087953
  0
VERTEX
  8
PLAN_1
  6
CONTINUOUS
 10
-1.020413
 20
1.092110
  0
VERTEX
  8
PLAN_1
  6
CONTINUOUS
 10
-1.017815
 20
1.096791
  0
VERTEX
  8
PLAN_1
  6
CONTINUOUS
 10
-1.016256
 20
1.100953
  0
VERTEX
  8
PLAN_1
  6
CONTINUOUS
 10
-1.015736
 20
1.105114
  0
VERTEX
  8
PLAN_1
  6
CONTINUOUS
 10
-1.015736
 20
1.108752
  0
VERTEX
  8
PLAN_1
  6
CONTINUOUS
 10
-1.016256
 20
1.112394
  0
VERTEX
  8
PLAN_1
  6
CONTINUOUS
 10
-1.017815
 20
1.116035
  0
VERTEX
  8
PLAN_1
  6
CONTINUOUS
 10
-1.019374
 20
1.119154
  0
VERTEX
  8
PLAN_1
  6
CONTINUOUS
 10
-1.020937
 20
1.121756
  0
VERTEX
  8
PLAN_1
  6
CONTINUOUS
 10
-1.022496
 20
1.124354
  0
VERTEX
  8
PLAN_1
  6
CONTINUOUS
 10
-1.024575
 20
1.126437
  0
VERTEX
  8
PLAN_1
  6
CONTINUOUS
 10
-1.027177
 20
1.129035
  0
VERTEX
  8
PLAN_1
  6
CONTINUOUS
 10
-1.028736
 20
1.130075
  0
SEQEND
  8
0
  0
POLYLINE
  8
PLAN_1
  6
CONTINUOUS
 66
     1
 40
0.008319
 41
0.008319
  0
VERTEX
  8
PLAN_1
  6
CONTINUOUS
 10
-1.028736
 20
1.130075
  0
VERTEX
  8
PLAN_1
  6
CONTINUOUS
 10
-1.316843
 20
1.130075
  0
SEQEND
  8
0
  0
POLYLINE
  8
PLAN_1
  6
CONTINUOUS
 66
     1
 40
0.008319
 41
0.008319
  0
VERTEX
  8
PLAN_1
  6
CONTINUOUS
 10
-1.316843
 20
1.130075
  0
VERTEX
  8
PLAN_1
  6
CONTINUOUS
 10
-1.317882
 20
1.129035
  0
VERTEX
  8
PLAN_1
  6
CONTINUOUS
 10
-1.320484
 20
1.126437
  0
VERTEX
  8
PLAN_1
  6
CONTINUOUS
 10
-1.323602
 20
1.122276
  0
VERTEX
  8
PLAN_1
  6
CONTINUOUS
 10
-1.326724
 20
1.116555
  0
VERTEX
  8
PLAN_1
  6
CONTINUOUS
 10
-1.327764
 20
1.112913
  0
VERTEX
  8
PLAN_1
  6
CONTINUOUS
 10
-1.328283
 20
1.109795
  0
VERTEX
  8
PLAN_1
  6
CONTINUOUS
 10
-1.328283
 20
1.105634
  0
VERTEX
  8
PLAN_1
  6
CONTINUOUS
 10
-1.327764
 20
1.101472
  0
VERTEX
  8
PLAN_1
  6
CONTINUOUS
 10
-1.326205
 20
1.097311
  0
VERTEX
  8
PLAN_1
  6
CONTINUOUS
 10
-1.324122
 20
1.092634
  0
VERTEX
  8
PLAN_1
  6
CONTINUOUS
 10
-1.321004
 20
1.087953
  0
VERTEX
  8
PLAN_1
  6
CONTINUOUS
 10
-1.316843
 20
1.083272
  0
SEQEND
  8
0
  0
POLYLINE
  8
PLAN_1
  6
CONTINUOUS
 66
     1
 40
0.008319
 41
0.008319
  0
VERTEX
  8
PLAN_1
  6
CONTINUOUS
 10
-1.316843
 20
1.083272
  0
VERTEX
  8
PLAN_1
  6
CONTINUOUS
 10
-1.028736
 20
1.083272
  0
SEQEND
  8
0
  0
POLYLINE
  8
PLAN_1
  6
CONTINUOUS
 66
     1
 40
0.008319
 41
0.008319
  0
VERTEX
  8
PLAN_1
  6
CONTINUOUS
 10
-1.029256
 20
1.036988
  0
VERTEX
  8
PLAN_1
  6
CONTINUOUS
 10
-1.024055
 20
1.041146
  0
VERTEX
  8
PLAN_1
  6
CONTINUOUS
 10
-1.020413
 20
1.045827
  0
VERTEX
  8
PLAN_1
  6
CONTINUOUS
 10
-1.018335
 20
1.049988
  0
VERTEX
  8
PLAN_1
  6
CONTINUOUS
 10
-1.016776
 20
1.054669
  0
VERTEX
  8
PLAN_1
  6
CONTINUOUS
 10
-1.016256
 20
1.058307
  0
VERTEX
  8
PLAN_1
  6
CONTINUOUS
 10
-1.016256
 20
1.062469
  0
VERTEX
  8
PLAN_1
  6
CONTINUOUS
 10
-1.016776
 20
1.066110
  0
VERTEX
  8
PLAN_1
  6
CONTINUOUS
 10
-1.017815
 20
1.069228
  0
VERTEX
  8
PLAN_1
  6
CONTINUOUS
 10
-1.019374
 20
1.072350
  0
VERTEX
  8
PLAN_1
  6
CONTINUOUS
 10
-1.021457
 20
1.075472
  0
VERTEX
  8
PLAN_1
  6
CONTINUOUS
 10
-1.023016
 20
1.077551
  0
VERTEX
  8
PLAN_1
  6
CONTINUOUS
 10
-1.025094
 20
1.079630
  0
VERTEX
  8
PLAN_1
  6
CONTINUOUS
 10
-1.027697
 20
1.082752
  0
VERTEX
  8
PLAN_1
  6
CONTINUOUS
 10
-1.029256
 20
1.083791
  0
SEQEND
  8
0
  0
POLYLINE
  8
PLAN_1
  6
CONTINUOUS
 66
     1
 40
0.008319
 41
0.008319
  0
VERTEX
  8
PLAN_1
  6
CONTINUOUS
 10
-1.029256
 20
1.083791
  0
VERTEX
  8
PLAN_1
  6
CONTINUOUS
 10
-1.317362
 20
1.083791
  0
SEQEND
  8
0
  0
POLYLINE
  8
PLAN_1
  6
CONTINUOUS
 66
     1
 40
0.008319
 41
0.008319
  0
VERTEX
  8
PLAN_1
  6
CONTINUOUS
 10
-1.317362
 20
1.083791
  0
VERTEX
  8
PLAN_1
  6
CONTINUOUS
 10
-1.318402
 20
1.082752
  0
VERTEX
  8
PLAN_1
  6
CONTINUOUS
 10
-1.321004
 20
1.080150
  0
VERTEX
  8
PLAN_1
  6
CONTINUOUS
 10
-1.324122
 20
1.075992
  0
VERTEX
  8
PLAN_1
  6
CONTINUOUS
 10
-1.326724
 20
1.070272
  0
VERTEX
  8
PLAN_1
  6
CONTINUOUS
 10
-1.327764
 20
1.066630
  0
VERTEX
  8
PLAN_1
  6
CONTINUOUS
 10
-1.328803
 20
1.062988
  0
VERTEX
  8
PLAN_1
  6
CONTINUOUS
 10
-1.328803
 20
1.059350
  0
VERTEX
  8
PLAN_1
  6
CONTINUOUS
 10
-1.328283
 20
1.055189
  0
VERTEX
  8
PLAN_1
  6
CONTINUOUS
 10
-1.326724
 20
1.051028
  0
VERTEX
  8
PLAN_1
  6
CONTINUOUS
 10
-1.324646
 20
1.046346
  0
VERTEX
  8
PLAN_1
  6
CONTINUOUS
 10
-1.321524
 20
1.041669
  0
VERTEX
  8
PLAN_1
  6
CONTINUOUS
 10
-1.317362
 20
1.036988
  0
SEQEND
  8
0
  0
POLYLINE
  8
PLAN_1
  6
CONTINUOUS
 66
     1
 40
0.008319
 41
0.008319
  0
VERTEX
  8
PLAN_1
  6
CONTINUOUS
 10
-1.317362
 20
1.036988
  0
VERTEX
  8
PLAN_1
  6
CONTINUOUS
 10
-1.029256
 20
1.036988
  0
SEQEND
  8
0
  0
POLYLINE
  8
PLAN_1
  6
CONTINUOUS
 66
     1
 40
0.008319
 41
0.008319
  0
VERTEX
  8
PLAN_1
  6
CONTINUOUS
 10
-1.028736
 20
0.990181
  0
VERTEX
  8
PLAN_1
  6
CONTINUOUS
 10
-1.023535
 20
0.994862
  0
VERTEX
  8
PLAN_1
  6
CONTINUOUS
 10
-1.020413
 20
0.999543
  0
VERTEX
  8
PLAN_1
  6
CONTINUOUS
 10
-1.017815
 20
1.003705
  0
VERTEX
  8
PLAN_1
  6
CONTINUOUS
 10
-1.016256
 20
1.007866
  0
VERTEX
  8
PLAN_1
  6
CONTINUOUS
 10
-1.015736
 20
1.012024
  0
VERTEX
  8
PLAN_1
  6
CONTINUOUS
 10
-1.015736
 20
1.016185
  0
VERTEX
  8
PLAN_1
  6
CONTINUOUS
 10
-1.016256
 20
1.019827
  0
VERTEX
  8
PLAN_1
  6
CONTINUOUS
 10
-1.017815
 20
1.022945
  0
VERTEX
  8
PLAN_1
  6
CONTINUOUS
 10
-1.019374
 20
1.026067
  0
VERTEX
  8
PLAN_1
  6
CONTINUOUS
 10
-1.020937
 20
1.028665
  0
VERTEX
  8
PLAN_1
  6
CONTINUOUS
 10
-1.022496
 20
1.031268
  0
VERTEX
  8
PLAN_1
  6
CONTINUOUS
 10
-1.024575
 20
1.033346
  0
VERTEX
  8
PLAN_1
  6
CONTINUOUS
 10
-1.027177
 20
1.036469
  0
VERTEX
  8
PLAN_1
  6
CONTINUOUS
 10
-1.028736
 20
1.037508
  0
SEQEND
  8
0
  0
POLYLINE
  8
PLAN_1
  6
CONTINUOUS
 66
     1
 40
0.008319
 41
0.008319
  0
VERTEX
  8
PLAN_1
  6
CONTINUOUS
 10
-1.028736
 20
1.037508
  0
VERTEX
  8
PLAN_1
  6
CONTINUOUS
 10
-1.316843
 20
1.037508
  0
SEQEND
  8
0
  0
POLYLINE
  8
PLAN_1
  6
CONTINUOUS
 66
     1
 40
0.008319
 41
0.008319
  0
VERTEX
  8
PLAN_1
  6
CONTINUOUS
 10
-1.316843
 20
1.037508
  0
VERTEX
  8
PLAN_1
  6
CONTINUOUS
 10
-1.317882
 20
1.036469
  0
VERTEX
  8
PLAN_1
  6
CONTINUOUS
 10
-1.320484
 20
1.033866
  0
VERTEX
  8
PLAN_1
  6
CONTINUOUS
 10
-1.323602
 20
1.029185
  0
VERTEX
  8
PLAN_1
  6
CONTINUOUS
 10
-1.326724
 20
1.023465
  0
VERTEX
  8
PLAN_1
  6
CONTINUOUS
 10
-1.327764
 20
1.020346
  0
VERTEX
  8
PLAN_1
  6
CONTINUOUS
 10
-1.328283
 20
1.016705
  0
VERTEX
  8
PLAN_1
  6
CONTINUOUS
 10
-1.328283
 20
1.013063
  0
VERTEX
  8
PLAN_1
  6
CONTINUOUS
 10
-1.327764
 20
1.008906
  0
VERTEX
  8
PLAN_1
  6
CONTINUOUS
 10
-1.326205
 20
1.004224
  0
VERTEX
  8
PLAN_1
  6
CONTINUOUS
 10
-1.324122
 20
1.000063
  0
VERTEX
  8
PLAN_1
  6
CONTINUOUS
 10
-1.321004
 20
0.995382
  0
VERTEX
  8
PLAN_1
  6
CONTINUOUS
 10
-1.316843
 20
0.990181
  0
SEQEND
  8
0
  0
POLYLINE
  8
PLAN_1
  6
CONTINUOUS
 66
     1
 40
0.008319
 41
0.008319
  0
VERTEX
  8
PLAN_1
  6
CONTINUOUS
 10
-1.316843
 20
0.990181
  0
VERTEX
  8
PLAN_1
  6
CONTINUOUS
 10
-1.028736
 20
0.990181
  0
SEQEND
  8
0
  0
POLYLINE
  8
PLAN_1
  6
CONTINUOUS
 66
     1
 40
0.008319
 41
0.008319
  0
VERTEX
  8
PLAN_1
  6
CONTINUOUS
 10
-1.029256
 20
0.943898
  0
VERTEX
  8
PLAN_1
  6
CONTINUOUS
 10
-1.024055
 20
0.948579
  0
VERTEX
  8
PLAN_1
  6
CONTINUOUS
 10
-1.020413
 20
0.952740
  0
VERTEX
  8
PLAN_1
  6
CONTINUOUS
 10
-1.018335
 20
0.957421
  0
VERTEX
  8
PLAN_1
  6
CONTINUOUS
 10
-1.016776
 20
0.961579
  0
VERTEX
  8
PLAN_1
  6
CONTINUOUS
 10
-1.016256
 20
0.965740
  0
VERTEX
  8
PLAN_1
  6
CONTINUOUS
 10
-1.016256
 20
0.969382
  0
VERTEX
  8
PLAN_1
  6
CONTINUOUS
 10
-1.016776
 20
0.973020
  0
VERTEX
  8
PLAN_1
  6
CONTINUOUS
 10
-1.017815
 20
0.976661
  0
VERTEX
  8
PLAN_1
  6
CONTINUOUS
 10
-1.019374
 20
0.979783
  0
VERTEX
  8
PLAN_1
  6
CONTINUOUS
 10
-1.021457
 20
0.982382
  0
VERTEX
  8
PLAN_1
  6
CONTINUOUS
 10
-1.023016
 20
0.984980
  0
VERTEX
  8
PLAN_1
  6
CONTINUOUS
 10
-1.025094
 20
0.987063
  0
VERTEX
  8
PLAN_1
  6
CONTINUOUS
 10
-1.027697
 20
0.989661
  0
VERTEX
  8
PLAN_1
  6
CONTINUOUS
 10
-1.029256
 20
0.990701
  0
SEQEND
  8
0
  0
POLYLINE
  8
PLAN_1
  6
CONTINUOUS
 66
     1
 40
0.008319
 41
0.008319
  0
VERTEX
  8
PLAN_1
  6
CONTINUOUS
 10
-1.029256
 20
0.990701
  0
VERTEX
  8
PLAN_1
  6
CONTINUOUS
 10
-1.317362
 20
0.990701
  0
SEQEND
  8
0
  0
POLYLINE
  8
PLAN_1
  6
CONTINUOUS
 66
     1
 40
0.008319
 41
0.008319
  0
VERTEX
  8
PLAN_1
  6
CONTINUOUS
 10
-1.317362
 20
0.990701
  0
VERTEX
  8
PLAN_1
  6
CONTINUOUS
 10
-1.318402
 20
0.989661
  0
VERTEX
  8
PLAN_1
  6
CONTINUOUS
 10
-1.321004
 20
0.987063
  0
VERTEX
  8
PLAN_1
  6
CONTINUOUS
 10
-1.324122
 20
0.982902
  0
VERTEX
  8
PLAN_1
  6
CONTINUOUS
 10
-1.326724
 20
0.977181
  0
VERTEX
  8
PLAN_1
  6
CONTINUOUS
 10
-1.327764
 20
0.974063
  0
VERTEX
  8
PLAN_1
  6
CONTINUOUS
 10
-1.328803
 20
0.970421
  0
VERTEX
  8
PLAN_1
  6
CONTINUOUS
 10
-1.328803
 20
0.966260
  0
VERTEX
  8
PLAN_1
  6
CONTINUOUS
 10
-1.328283
 20
0.962098
  0
VERTEX
  8
PLAN_1
  6
CONTINUOUS
 10
-1.326724
 20
0.957941
  0
VERTEX
  8
PLAN_1
  6
CONTINUOUS
 10
-1.324646
 20
0.953260
  0
VERTEX
  8
PLAN_1
  6
CONTINUOUS
 10
-1.321524
 20
0.948579
  0
VERTEX
  8
PLAN_1
  6
CONTINUOUS
 10
-1.317362
 20
0.943898
  0
SEQEND
  8
0
  0
POLYLINE
  8
PLAN_1
  6
CONTINUOUS
 66
     1
 40
0.008319
 41
0.008319
  0
VERTEX
  8
PLAN_1
  6
CONTINUOUS
 10
-1.317362
 20
0.943898
  0
VERTEX
  8
PLAN_1
  6
CONTINUOUS
 10
-1.029256
 20
0.943898
  0
SEQEND
  8
0
  0
POLYLINE
  8
PLAN_1
  6
CONTINUOUS
 66
     1
 40
0.008319
 41
0.008319
  0
VERTEX
  8
PLAN_1
  6
CONTINUOUS
 10
-1.028736
 20
0.897614
  0
VERTEX
  8
PLAN_1
  6
CONTINUOUS
 10
-1.023535
 20
0.902295
  0
VERTEX
  8
PLAN_1
  6
CONTINUOUS
 10
-1.020413
 20
0.906453
  0
VERTEX
  8
PLAN_1
  6
CONTINUOUS
 10
-1.017815
 20
0.911134
  0
VERTEX
  8
PLAN_1
  6
CONTINUOUS
 10
-1.016256
 20
0.915295
  0
VERTEX
  8
PLAN_1
  6
CONTINUOUS
 10
-1.015736
 20
0.919457
  0
VERTEX
  8
PLAN_1
  6
CONTINUOUS
 10
-1.015736
 20
0.923094
  0
VERTEX
  8
PLAN_1
  6
CONTINUOUS
 10
-1.016256
 20
0.926736
  0
VERTEX
  8
PLAN_1
  6
CONTINUOUS
 10
-1.017815
 20
0.929858
  0
VERTEX
  8
PLAN_1
  6
CONTINUOUS
 10
-1.019374
 20
0.932976
  0
VERTEX
  8
PLAN_1
  6
CONTINUOUS
 10
-1.020937
 20
0.936098
  0
VERTEX
  8
PLAN_1
  6
CONTINUOUS
 10
-1.022496
 20
0.938697
  0
VERTEX
  8
PLAN_1
  6
CONTINUOUS
 10
-1.024575
 20
0.940780
  0
VERTEX
  8
PLAN_1
  6
CONTINUOUS
 10
-1.027177
 20
0.943378
  0
VERTEX
  8
PLAN_1
  6
CONTINUOUS
 10
-1.028736
 20
0.944417
  0
SEQEND
  8
0
  0
POLYLINE
  8
PLAN_1
  6
CONTINUOUS
 66
     1
 40
0.008319
 41
0.008319
  0
VERTEX
  8
PLAN_1
  6
CONTINUOUS
 10
-1.028736
 20
0.944417
  0
VERTEX
  8
PLAN_1
  6
CONTINUOUS
 10
-1.316843
 20
0.944417
  0
SEQEND
  8
0
  0
POLYLINE
  8
PLAN_1
  6
CONTINUOUS
 66
     1
 40
0.008319
 41
0.008319
  0
VERTEX
  8
PLAN_1
  6
CONTINUOUS
 10
-1.316843
 20
0.944417
  0
VERTEX
  8
PLAN_1
  6
CONTINUOUS
 10
-1.317882
 20
0.943378
  0
VERTEX
  8
PLAN_1
  6
CONTINUOUS
 10
-1.320484
 20
0.940780
  0
VERTEX
  8
PLAN_1
  6
CONTINUOUS
 10
-1.323602
 20
0.936618
  0
VERTEX
  8
PLAN_1
  6
CONTINUOUS
 10
-1.326724
 20
0.930898
  0
VERTEX
  8
PLAN_1
  6
CONTINUOUS
 10
-1.327764
 20
0.927256
  0
VERTEX
  8
PLAN_1
  6
CONTINUOUS
 10
-1.328283
 20
0.923618
  0
VERTEX
  8
PLAN_1
  6
CONTINUOUS
 10
-1.328283
 20
0.919976
  0
VERTEX
  8
PLAN_1
  6
CONTINUOUS
 10
-1.327764
 20
0.915815
  0
VERTEX
  8
PLAN_1
  6
CONTINUOUS
 10
-1.326205
 20
0.911654
  0
VERTEX
  8
PLAN_1
  6
CONTINUOUS
 10
-1.324122
 20
0.906976
  0
VERTEX
  8
PLAN_1
  6
CONTINUOUS
 10
-1.321004
 20
0.902295
  0
VERTEX
  8
PLAN_1
  6
CONTINUOUS
 10
-1.316843
 20
0.897614
  0
SEQEND
  8
0
  0
POLYLINE
  8
PLAN_1
  6
CONTINUOUS
 66
     1
 40
0.008319
 41
0.008319
  0
VERTEX
  8
PLAN_1
  6
CONTINUOUS
 10
-1.316843
 20
0.897614
  0
VERTEX
  8
PLAN_1
  6
CONTINUOUS
 10
-1.028736
 20
0.897614
  0
SEQEND
  8
0
  0
POLYLINE
  8
PLAN_1
  6
CONTINUOUS
 66
     1
 40
0.008319
 41
0.008319
  0
VERTEX
  8
PLAN_1
  6
CONTINUOUS
 10
-1.029256
 20
0.851331
  0
VERTEX
  8
PLAN_1
  6
CONTINUOUS
 10
-1.024055
 20
0.855488
  0
VERTEX
  8
PLAN_1
  6
CONTINUOUS
 10
-1.020413
 20
0.860169
  0
VERTEX
  8
PLAN_1
  6
CONTINUOUS
 10
-1.018335
 20
0.864331
  0
VERTEX
  8
PLAN_1
  6
CONTINUOUS
 10
-1.016776
 20
0.868492
  0
VERTEX
  8
PLAN_1
  6
CONTINUOUS
 10
-1.016256
 20
0.872650
  0
VERTEX
  8
PLAN_1
  6
CONTINUOUS
 10
-1.016256
 20
0.876811
  0
VERTEX
  8
PLAN_1
  6
CONTINUOUS
 10
-1.016776
 20
0.880453
  0
VERTEX
  8
PLAN_1
  6
CONTINUOUS
 10
-1.017815
 20
0.883571
  0
VERTEX
  8
PLAN_1
  6
CONTINUOUS
 10
-1.021457
 20
0.889815
  0
VERTEX
  8
PLAN_1
  6
CONTINUOUS
 10
-1.025094
 20
0.893972
  0
VERTEX
  8
PLAN_1
  6
CONTINUOUS
 10
-1.027697
 20
0.897094
  0
VERTEX
  8
PLAN_1
  6
CONTINUOUS
 10
-1.029256
 20
0.898134
  0
SEQEND
  8
0
  0
POLYLINE
  8
PLAN_1
  6
CONTINUOUS
 66
     1
 40
0.008319
 41
0.008319
  0
VERTEX
  8
PLAN_1
  6
CONTINUOUS
 10
-1.029256
 20
0.898134
  0
VERTEX
  8
PLAN_1
  6
CONTINUOUS
 10
-1.317362
 20
0.898134
  0
SEQEND
  8
0
  0
POLYLINE
  8
PLAN_1
  6
CONTINUOUS
 66
     1
 40
0.008319
 41
0.008319
  0
VERTEX
  8
PLAN_1
  6
CONTINUOUS
 10
-1.317362
 20
0.898134
  0
VERTEX
  8
PLAN_1
  6
CONTINUOUS
 10
-1.318402
 20
0.897094
  0
VERTEX
  8
PLAN_1
  6
CONTINUOUS
 10
-1.321004
 20
0.894492
  0
VERTEX
  8
PLAN_1
  6
CONTINUOUS
 10
-1.324122
 20
0.889815
  0
VERTEX
  8
PLAN_1
  6
CONTINUOUS
 10
-1.326724
 20
0.884094
  0
VERTEX
  8
PLAN_1
  6
CONTINUOUS
 10
-1.327764
 20
0.880972
  0
VERTEX
  8
PLAN_1
  6
CONTINUOUS
 10
-1.328803
 20
0.877331
  0
VERTEX
  8
PLAN_1
  6
CONTINUOUS
 10
-1.328803
 20
0.873693
  0
VERTEX
  8
PLAN_1
  6
CONTINUOUS
 10
-1.328283
 20
0.869531
  0
VERTEX
  8
PLAN_1
  6
CONTINUOUS
 10
-1.326724
 20
0.865370
  0
VERTEX
  8
PLAN_1
  6
CONTINUOUS
 10
-1.324646
 20
0.860689
  0
VERTEX
  8
PLAN_1
  6
CONTINUOUS
 10
-1.321524
 20
0.856012
  0
VERTEX
  8
PLAN_1
  6
CONTINUOUS
 10
-1.317362
 20
0.851331
  0
SEQEND
  8
0
  0
POLYLINE
  8
PLAN_1
  6
CONTINUOUS
 66
     1
 40
0.008319
 41
0.008319
  0
VERTEX
  8
PLAN_1
  6
CONTINUOUS
 10
-1.317362
 20
0.851331
  0
VERTEX
  8
PLAN_1
  6
CONTINUOUS
 10
-1.029256
 20
0.851331
  0
SEQEND
  8
0
  0
POLYLINE
  8
PLAN_1
  6
CONTINUOUS
 66
     1
 40
0.008319
 41
0.008319
  0
VERTEX
  8
PLAN_1
  6
CONTINUOUS
 10
-1.028736
 20
0.804524
  0
VERTEX
  8
PLAN_1
  6
CONTINUOUS
 10
-1.023535
 20
0.809205
  0
VERTEX
  8
PLAN_1
  6
CONTINUOUS
 10
-1.020413
 20
0.813886
  0
VERTEX
  8
PLAN_1
  6
CONTINUOUS
 10
-1.017815
 20
0.818047
  0
VERTEX
  8
PLAN_1
  6
CONTINUOUS
 10
-1.016256
 20
0.822209
  0
VERTEX
  8
PLAN_1
  6
CONTINUOUS
 10
-1.015736
 20
0.826366
  0
VERTEX
  8
PLAN_1
  6
CONTINUOUS
 10
-1.015736
 20
0.830008
  0
VERTEX
  8
PLAN_1
  6
CONTINUOUS
 10
-1.016256
 20
0.833650
  0
VERTEX
  8
PLAN_1
  6
CONTINUOUS
 10
-1.017815
 20
0.837287
  0
VERTEX
  8
PLAN_1
  6
CONTINUOUS
 10
-1.019374
 20
0.840409
  0
VERTEX
  8
PLAN_1
  6
CONTINUOUS
 10
-1.020937
 20
0.843008
  0
VERTEX
  8
PLAN_1
  6
CONTINUOUS
 10
-1.022496
 20
0.845610
  0
VERTEX
  8
PLAN_1
  6
CONTINUOUS
 10
-1.024575
 20
0.847689
  0
VERTEX
  8
PLAN_1
  6
CONTINUOUS
 10
-1.027177
 20
0.850811
  0
VERTEX
  8
PLAN_1
  6
CONTINUOUS
 10
-1.028736
 20
0.851331
  0
SEQEND
  8
0
  0
POLYLINE
  8
PLAN_1
  6
CONTINUOUS
 66
     1
 40
0.008319
 41
0.008319
  0
VERTEX
  8
PLAN_1
  6
CONTINUOUS
 10
-1.028736
 20
0.851331
  0
VERTEX
  8
PLAN_1
  6
CONTINUOUS
 10
-1.316843
 20
0.851331
  0
SEQEND
  8
0
  0
POLYLINE
  8
PLAN_1
  6
CONTINUOUS
 66
     1
 40
0.008319
 41
0.008319
  0
VERTEX
  8
PLAN_1
  6
CONTINUOUS
 10
-1.316843
 20
0.851331
  0
VERTEX
  8
PLAN_1
  6
CONTINUOUS
 10
-1.317882
 20
0.850811
  0
VERTEX
  8
PLAN_1
  6
CONTINUOUS
 10
-1.320484
 20
0.847689
  0
VERTEX
  8
PLAN_1
  6
CONTINUOUS
 10
-1.323602
 20
0.843528
  0
VERTEX
  8
PLAN_1
  6
CONTINUOUS
 10
-1.326724
 20
0.837807
  0
VERTEX
  8
PLAN_1
  6
CONTINUOUS
 10
-1.327764
 20
0.834689
  0
VERTEX
  8
PLAN_1
  6
CONTINUOUS
 10
-1.328283
 20
0.831047
  0
VERTEX
  8
PLAN_1
  6
CONTINUOUS
 10
-1.328283
 20
0.826886
  0
VERTEX
  8
PLAN_1
  6
CONTINUOUS
 10
-1.327764
 20
0.823248
  0
VERTEX
  8
PLAN_1
  6
CONTINUOUS
 10
-1.326205
 20
0.818567
  0
VERTEX
  8
PLAN_1
  6
CONTINUOUS
 10
-1.324122
 20
0.814406
  0
VERTEX
  8
PLAN_1
  6
CONTINUOUS
 10
-1.321004
 20
0.809724
  0
VERTEX
  8
PLAN_1
  6
CONTINUOUS
 10
-1.316843
 20
0.804524
  0
SEQEND
  8
0
  0
POLYLINE
  8
PLAN_1
  6
CONTINUOUS
 66
     1
 40
0.008319
 41
0.008319
  0
VERTEX
  8
PLAN_1
  6
CONTINUOUS
 10
-1.316843
 20
0.804524
  0
VERTEX
  8
PLAN_1
  6
CONTINUOUS
 10
-1.028736
 20
0.804524
  0
SEQEND
  8
0
  0
POLYLINE
  8
PLAN_1
  6
CONTINUOUS
 66
     1
 40
0.008319
 41
0.008319
  0
VERTEX
  8
PLAN_1
  6
CONTINUOUS
 10
-1.029256
 20
2.059921
  0
VERTEX
  8
PLAN_1
  6
CONTINUOUS
 10
-1.024575
 20
2.064083
  0
VERTEX
  8
PLAN_1
  6
CONTINUOUS
 10
-1.020937
 20
2.068764
  0
VERTEX
  8
PLAN_1
  6
CONTINUOUS
 10
-1.018335
 20
2.072925
  0
VERTEX
  8
PLAN_1
  6
CONTINUOUS
 10
-1.016776
 20
2.077606
  0
VERTEX
  8
PLAN_1
  6
CONTINUOUS
 10
-1.016256
 20
2.081244
  0
VERTEX
  8
PLAN_1
  6
CONTINUOUS
 10
-1.016256
 20
2.085406
  0
VERTEX
  8
PLAN_1
  6
CONTINUOUS
 10
-1.017295
 20
2.089047
  0
VERTEX
  8
PLAN_1
  6
CONTINUOUS
 10
-1.018335
 20
2.092165
  0
VERTEX
  8
PLAN_1
  6
CONTINUOUS
 10
-1.019894
 20
2.095287
  0
VERTEX
  8
PLAN_1
  6
CONTINUOUS
 10
-1.021457
 20
2.098406
  0
VERTEX
  8
PLAN_1
  6
CONTINUOUS
 10
-1.023535
 20
2.100488
  0
VERTEX
  8
PLAN_1
  6
CONTINUOUS
 10
-1.025094
 20
2.102567
  0
VERTEX
  8
PLAN_1
  6
CONTINUOUS
 10
-1.028217
 20
2.105689
  0
VERTEX
  8
PLAN_1
  6
CONTINUOUS
 10
-1.029256
 20
2.106728
  0
SEQEND
  8
0
  0
POLYLINE
  8
PLAN_1
  6
CONTINUOUS
 66
     1
 40
0.008319
 41
0.008319
  0
VERTEX
  8
PLAN_1
  6
CONTINUOUS
 10
-1.029256
 20
2.106728
  0
VERTEX
  8
PLAN_1
  6
CONTINUOUS
 10
-1.317362
 20
2.106728
  0
SEQEND
  8
0
  0
POLYLINE
  8
PLAN_1
  6
CONTINUOUS
 66
     1
 40
0.008319
 41
0.008319
  0
VERTEX
  8
PLAN_1
  6
CONTINUOUS
 10
-1.317362
 20
2.106728
  0
VERTEX
  8
PLAN_1
  6
CONTINUOUS
 10
-1.318402
 20
2.105689
  0
VERTEX
  8
PLAN_1
  6
CONTINUOUS
 10
-1.321004
 20
2.103087
  0
VERTEX
  8
PLAN_1
  6
CONTINUOUS
 10
-1.324122
 20
2.098925
  0
VERTEX
  8
PLAN_1
  6
CONTINUOUS
 10
-1.327244
 20
2.093205
  0
VERTEX
  8
PLAN_1
  6
CONTINUOUS
 10
-1.328283
 20
2.089567
  0
VERTEX
  8
PLAN_1
  6
CONTINUOUS
 10
-1.328803
 20
2.085925
  0
VERTEX
  8
PLAN_1
  6
CONTINUOUS
 10
-1.328803
 20
2.082283
  0
VERTEX
  8
PLAN_1
  6
CONTINUOUS
 10
-1.328283
 20
2.078126
  0
VERTEX
  8
PLAN_1
  6
CONTINUOUS
 10
-1.327244
 20
2.073965
  0
VERTEX
  8
PLAN_1
  6
CONTINUOUS
 10
-1.324646
 20
2.069283
  0
VERTEX
  8
PLAN_1
  6
CONTINUOUS
 10
-1.321524
 20
2.064602
  0
VERTEX
  8
PLAN_1
  6
CONTINUOUS
 10
-1.317362
 20
2.059921
  0
SEQEND
  8
0
  0
POLYLINE
  8
PLAN_1
  6
CONTINUOUS
 66
     1
 40
0.008319
 41
0.008319
  0
VERTEX
  8
PLAN_1
  6
CONTINUOUS
 10
-1.317362
 20
2.059921
  0
VERTEX
  8
PLAN_1
  6
CONTINUOUS
 10
-1.029256
 20
2.059921
  0
SEQEND
  8
0
  0
POLYLINE
  8
PLAN_1
  6
CONTINUOUS
 66
     1
 40
0.008319
 41
0.008319
  0
VERTEX
  8
PLAN_1
  6
CONTINUOUS
 10
-1.028736
 20
2.013118
  0
VERTEX
  8
PLAN_1
  6
CONTINUOUS
 10
-1.024055
 20
2.017799
  0
VERTEX
  8
PLAN_1
  6
CONTINUOUS
 10
-1.020413
 20
2.022480
  0
VERTEX
  8
PLAN_1
  6
CONTINUOUS
 10
-1.017815
 20
2.026638
  0
VERTEX
  8
PLAN_1
  6
CONTINUOUS
 10
-1.016256
 20
2.030799
  0
VERTEX
  8
PLAN_1
  6
CONTINUOUS
 10
-1.015736
 20
2.034961
  0
VERTEX
  8
PLAN_1
  6
CONTINUOUS
 10
-1.015736
 20
2.039122
  0
VERTEX
  8
PLAN_1
  6
CONTINUOUS
 10
-1.016776
 20
2.042760
  0
VERTEX
  8
PLAN_1
  6
CONTINUOUS
 10
-1.017815
 20
2.045882
  0
VERTEX
  8
PLAN_1
  6
CONTINUOUS
 10
-1.019374
 20
2.049000
  0
VERTEX
  8
PLAN_1
  6
CONTINUOUS
 10
-1.020937
 20
2.051602
  0
VERTEX
  8
PLAN_1
  6
CONTINUOUS
 10
-1.023016
 20
2.054201
  0
VERTEX
  8
PLAN_1
  6
CONTINUOUS
 10
-1.024575
 20
2.056283
  0
VERTEX
  8
PLAN_1
  6
CONTINUOUS
 10
-1.027697
 20
2.059402
  0
VERTEX
  8
PLAN_1
  6
CONTINUOUS
 10
-1.028736
 20
2.060441
  0
SEQEND
  8
0
  0
POLYLINE
  8
PLAN_1
  6
CONTINUOUS
 66
     1
 40
0.008319
 41
0.008319
  0
VERTEX
  8
PLAN_1
  6
CONTINUOUS
 10
-1.028736
 20
2.060441
  0
VERTEX
  8
PLAN_1
  6
CONTINUOUS
 10
-1.316843
 20
2.060441
  0
SEQEND
  8
0
  0
POLYLINE
  8
PLAN_1
  6
CONTINUOUS
 66
     1
 40
0.008319
 41
0.008319
  0
VERTEX
  8
PLAN_1
  6
CONTINUOUS
 10
-1.316843
 20
2.060441
  0
VERTEX
  8
PLAN_1
  6
CONTINUOUS
 10
-1.317882
 20
2.059402
  0
VERTEX
  8
PLAN_1
  6
CONTINUOUS
 10
-1.320484
 20
2.056803
  0
VERTEX
  8
PLAN_1
  6
CONTINUOUS
 10
-1.324122
 20
2.052122
  0
VERTEX
  8
PLAN_1
  6
CONTINUOUS
 10
-1.326724
 20
2.046402
  0
VERTEX
  8
PLAN_1
  6
CONTINUOUS
 10
-1.327764
 20
2.043280
  0
VERTEX
  8
PLAN_1
  6
CONTINUOUS
 10
-1.328283
 20
2.039642
  0
VERTEX
  8
PLAN_1
  6
CONTINUOUS
 10
-1.328283
 20
2.036000
  0
VERTEX
  8
PLAN_1
  6
CONTINUOUS
 10
-1.327764
 20
2.031839
  0
VERTEX
  8
PLAN_1
  6
CONTINUOUS
 10
-1.326724
 20
2.027161
  0
VERTEX
  8
PLAN_1
  6
CONTINUOUS
 10
-1.324646
 20
2.023000
  0
VERTEX
  8
PLAN_1
  6
CONTINUOUS
 10
-1.321524
 20
2.018319
  0
VERTEX
  8
PLAN_1
  6
CONTINUOUS
 10
-1.316843
 20
2.013118
  0
SEQEND
  8
0
  0
POLYLINE
  8
PLAN_1
  6
CONTINUOUS
 66
     1
 40
0.008319
 41
0.008319
  0
VERTEX
  8
PLAN_1
  6
CONTINUOUS
 10
-1.316843
 20
2.013118
  0
VERTEX
  8
PLAN_1
  6
CONTINUOUS
 10
-1.028736
 20
2.013118
  0
SEQEND
  8
0
  0
POLYLINE
  8
PLAN_1
  6
CONTINUOUS
 66
     1
 40
0.008319
 41
0.008319
  0
VERTEX
  8
PLAN_1
  6
CONTINUOUS
 10
-1.029256
 20
1.966315
  0
VERTEX
  8
PLAN_1
  6
CONTINUOUS
 10
-1.024055
 20
1.970996
  0
VERTEX
  8
PLAN_1
  6
CONTINUOUS
 10
-1.020413
 20
1.975154
  0
VERTEX
  8
PLAN_1
  6
CONTINUOUS
 10
-1.018335
 20
1.979835
  0
VERTEX
  8
PLAN_1
  6
CONTINUOUS
 10
-1.016776
 20
1.983996
  0
VERTEX
  8
PLAN_1
  6
CONTINUOUS
 10
-1.016256
 20
1.988157
  0
VERTEX
  8
PLAN_1
  6
CONTINUOUS
 10
-1.016256
 20
1.991795
  0
VERTEX
  8
PLAN_1
  6
CONTINUOUS
 10
-1.016776
 20
1.995437
  0
VERTEX
  8
PLAN_1
  6
CONTINUOUS
 10
-1.017815
 20
1.999079
  0
VERTEX
  8
PLAN_1
  6
CONTINUOUS
 10
-1.021457
 20
2.004799
  0
VERTEX
  8
PLAN_1
  6
CONTINUOUS
 10
-1.025094
 20
2.009476
  0
VERTEX
  8
PLAN_1
  6
CONTINUOUS
 10
-1.027697
 20
2.012079
  0
VERTEX
  8
PLAN_1
  6
CONTINUOUS
 10
-1.029256
 20
2.013118
  0
SEQEND
  8
0
  0
POLYLINE
  8
PLAN_1
  6
CONTINUOUS
 66
     1
 40
0.008319
 41
0.008319
  0
VERTEX
  8
PLAN_1
  6
CONTINUOUS
 10
-1.029256
 20
2.013118
  0
VERTEX
  8
PLAN_1
  6
CONTINUOUS
 10
-1.317362
 20
2.013118
  0
SEQEND
  8
0
  0
POLYLINE
  8
PLAN_1
  6
CONTINUOUS
 66
     1
 40
0.008319
 41
0.008319
  0
VERTEX
  8
PLAN_1
  6
CONTINUOUS
 10
-1.317362
 20
2.013118
  0
VERTEX
  8
PLAN_1
  6
CONTINUOUS
 10
-1.318402
 20
2.012079
  0
VERTEX
  8
PLAN_1
  6
CONTINUOUS
 10
-1.321004
 20
2.009476
  0
VERTEX
  8
PLAN_1
  6
CONTINUOUS
 10
-1.324122
 20
2.005319
  0
VERTEX
  8
PLAN_1
  6
CONTINUOUS
 10
-1.326724
 20
1.999598
  0
VERTEX
  8
PLAN_1
  6
CONTINUOUS
 10
-1.327764
 20
1.995957
  0
VERTEX
  8
PLAN_1
  6
CONTINUOUS
 10
-1.328803
 20
1.992315
  0
VERTEX
  8
PLAN_1
  6
CONTINUOUS
 10
-1.328803
 20
1.988677
  0
VERTEX
  8
PLAN_1
  6
CONTINUOUS
 10
-1.328283
 20
1.984516
  0
VERTEX
  8
PLAN_1
  6
CONTINUOUS
 10
-1.326724
 20
1.980354
  0
VERTEX
  8
PLAN_1
  6
CONTINUOUS
 10
-1.324646
 20
1.975673
  0
VERTEX
  8
PLAN_1
  6
CONTINUOUS
 10
-1.321524
 20
1.970996
  0
VERTEX
  8
PLAN_1
  6
CONTINUOUS
 10
-1.317362
 20
1.966315
  0
SEQEND
  8
0
  0
POLYLINE
  8
PLAN_1
  6
CONTINUOUS
 66
     1
 40
0.008319
 41
0.008319
  0
VERTEX
  8
PLAN_1
  6
CONTINUOUS
 10
-1.317362
 20
1.966315
  0
VERTEX
  8
PLAN_1
  6
CONTINUOUS
 10
-1.029256
 20
1.966315
  0
SEQEND
  8
0
  0
POLYLINE
  8
PLAN_1
  6
CONTINUOUS
 66
     1
 40
0.008319
 41
0.008319
  0
VERTEX
  8
PLAN_1
  6
CONTINUOUS
 10
-1.028736
 20
1.920031
  0
VERTEX
  8
PLAN_1
  6
CONTINUOUS
 10
-1.023535
 20
1.924189
  0
VERTEX
  8
PLAN_1
  6
CONTINUOUS
 10
-1.020413
 20
1.928870
  0
VERTEX
  8
PLAN_1
  6
CONTINUOUS
 10
-1.017815
 20
1.933031
  0
VERTEX
  8
PLAN_1
  6
CONTINUOUS
 10
-1.016256
 20
1.937193
  0
VERTEX
  8
PLAN_1
  6
CONTINUOUS
 10
-1.015736
 20
1.941350
  0
VERTEX
  8
PLAN_1
  6
CONTINUOUS
 10
-1.015736
 20
1.945512
  0
VERTEX
  8
PLAN_1
  6
CONTINUOUS
 10
-1.016256
 20
1.949154
  0
VERTEX
  8
PLAN_1
  6
CONTINUOUS
 10
-1.017815
 20
1.952272
  0
VERTEX
  8
PLAN_1
  6
CONTINUOUS
 10
-1.019374
 20
1.955394
  0
VERTEX
  8
PLAN_1
  6
CONTINUOUS
 10
-1.020937
 20
1.958512
  0
VERTEX
  8
PLAN_1
  6
CONTINUOUS
 10
-1.022496
 20
1.960594
  0
VERTEX
  8
PLAN_1
  6
CONTINUOUS
 10
-1.024575
 20
1.962673
  0
VERTEX
  8
PLAN_1
  6
CONTINUOUS
 10
-1.027177
 20
1.965795
  0
VERTEX
  8
PLAN_1
  6
CONTINUOUS
 10
-1.028736
 20
1.966835
  0
SEQEND
  8
0
  0
POLYLINE
  8
PLAN_1
  6
CONTINUOUS
 66
     1
 40
0.008319
 41
0.008319
  0
VERTEX
  8
PLAN_1
  6
CONTINUOUS
 10
-1.028736
 20
1.966835
  0
VERTEX
  8
PLAN_1
  6
CONTINUOUS
 10
-1.316843
 20
1.966835
  0
SEQEND
  8
0
  0
POLYLINE
  8
PLAN_1
  6
CONTINUOUS
 66
     1
 40
0.008319
 41
0.008319
  0
VERTEX
  8
PLAN_1
  6
CONTINUOUS
 10
-1.316843
 20
1.966835
  0
VERTEX
  8
PLAN_1
  6
CONTINUOUS
 10
-1.317882
 20
1.965795
  0
VERTEX
  8
PLAN_1
  6
CONTINUOUS
 10
-1.320484
 20
1.963193
  0
VERTEX
  8
PLAN_1
  6
CONTINUOUS
 10
-1.323602
 20
1.958512
  0
VERTEX
  8
PLAN_1
  6
CONTINUOUS
 10
-1.326724
 20
1.953311
  0
VERTEX
  8
PLAN_1
  6
CONTINUOUS
 10
-1.327764
 20
1.949673
  0
VERTEX
  8
PLAN_1
  6
CONTINUOUS
 10
-1.328283
 20
1.946031
  0
VERTEX
  8
PLAN_1
  6
CONTINUOUS
 10
-1.328283
 20
1.942394
  0
VERTEX
  8
PLAN_1
  6
CONTINUOUS
 10
-1.327764
 20
1.938232
  0
VERTEX
  8
PLAN_1
  6
CONTINUOUS
 10
-1.326205
 20
1.934071
  0
VERTEX
  8
PLAN_1
  6
CONTINUOUS
 10
-1.324122
 20
1.929390
  0
VERTEX
  8
PLAN_1
  6
CONTINUOUS
 10
-1.321004
 20
1.924709
  0
VERTEX
  8
PLAN_1
  6
CONTINUOUS
 10
-1.316843
 20
1.920031
  0
SEQEND
  8
0
  0
POLYLINE
  8
PLAN_1
  6
CONTINUOUS
 66
     1
 40
0.008319
 41
0.008319
  0
VERTEX
  8
PLAN_1
  6
CONTINUOUS
 10
-1.316843
 20
1.920031
  0
VERTEX
  8
PLAN_1
  6
CONTINUOUS
 10
-1.028736
 20
1.920031
  0
SEQEND
  8
0
  0
POLYLINE
  8
PLAN_1
  6
CONTINUOUS
 66
     1
 40
0.008319
 41
0.008319
  0
VERTEX
  8
PLAN_1
  6
CONTINUOUS
 10
-1.029256
 20
1.873224
  0
VERTEX
  8
PLAN_1
  6
CONTINUOUS
 10
-1.024055
 20
1.877906
  0
VERTEX
  8
PLAN_1
  6
CONTINUOUS
 10
-1.020413
 20
1.882587
  0
VERTEX
  8
PLAN_1
  6
CONTINUOUS
 10
-1.018335
 20
1.886748
  0
VERTEX
  8
PLAN_1
  6
CONTINUOUS
 10
-1.016776
 20
1.890906
  0
VERTEX
  8
PLAN_1
  6
CONTINUOUS
 10
-1.016256
 20
1.895067
  0
VERTEX
  8
PLAN_1
  6
CONTINUOUS
 10
-1.016256
 20
1.898709
  0
VERTEX
  8
PLAN_1
  6
CONTINUOUS
 10
-1.016776
 20
1.902346
  0
VERTEX
  8
PLAN_1
  6
CONTINUOUS
 10
-1.017815
 20
1.905988
  0
VERTEX
  8
PLAN_1
  6
CONTINUOUS
 10
-1.019374
 20
1.909110
  0
VERTEX
  8
PLAN_1
  6
CONTINUOUS
 10
-1.021457
 20
1.911709
  0
VERTEX
  8
PLAN_1
  6
CONTINUOUS
 10
-1.023016
 20
1.914311
  0
VERTEX
  8
PLAN_1
  6
CONTINUOUS
 10
-1.025094
 20
1.916390
  0
VERTEX
  8
PLAN_1
  6
CONTINUOUS
 10
-1.027697
 20
1.919508
  0
VERTEX
  8
PLAN_1
  6
CONTINUOUS
 10
-1.029256
 20
1.920551
  0
SEQEND
  8
0
  0
POLYLINE
  8
PLAN_1
  6
CONTINUOUS
 66
     1
 40
0.008319
 41
0.008319
  0
VERTEX
  8
PLAN_1
  6
CONTINUOUS
 10
-1.029256
 20
1.920551
  0
VERTEX
  8
PLAN_1
  6
CONTINUOUS
 10
-1.317362
 20
1.920551
  0
SEQEND
  8
0
  0
POLYLINE
  8
PLAN_1
  6
CONTINUOUS
 66
     1
 40
0.008319
 41
0.008319
  0
VERTEX
  8
PLAN_1
  6
CONTINUOUS
 10
-1.317362
 20
1.920551
  0
VERTEX
  8
PLAN_1
  6
CONTINUOUS
 10
-1.318402
 20
1.919508
  0
VERTEX
  8
PLAN_1
  6
CONTINUOUS
 10
-1.321004
 20
1.916390
  0
VERTEX
  8
PLAN_1
  6
CONTINUOUS
 10
-1.324122
 20
1.912228
  0
VERTEX
  8
PLAN_1
  6
CONTINUOUS
 10
-1.326724
 20
1.906508
  0
VERTEX
  8
PLAN_1
  6
CONTINUOUS
 10
-1.327764
 20
1.903390
  0
VERTEX
  8
PLAN_1
  6
CONTINUOUS
 10
-1.328803
 20
1.899748
  0
VERTEX
  8
PLAN_1
  6
CONTINUOUS
 10
-1.328803
 20
1.895587
  0
VERTEX
  8
PLAN_1
  6
CONTINUOUS
 10
-1.328283
 20
1.891949
  0
VERTEX
  8
PLAN_1
  6
CONTINUOUS
 10
-1.326724
 20
1.887268
  0
VERTEX
  8
PLAN_1
  6
CONTINUOUS
 10
-1.324646
 20
1.883106
  0
VERTEX
  8
PLAN_1
  6
CONTINUOUS
 10
-1.321524
 20
1.878425
  0
VERTEX
  8
PLAN_1
  6
CONTINUOUS
 10
-1.317362
 20
1.873224
  0
SEQEND
  8
0
  0
POLYLINE
  8
PLAN_1
  6
CONTINUOUS
 66
     1
 40
0.008319
 41
0.008319
  0
VERTEX
  8
PLAN_1
  6
CONTINUOUS
 10
-1.317362
 20
1.873224
  0
VERTEX
  8
PLAN_1
  6
CONTINUOUS
 10
-1.029256
 20
1.873224
  0
SEQEND
  8
0
  0
POLYLINE
  8
PLAN_1
  6
CONTINUOUS
 66
     1
 40
0.008319
 41
0.008319
  0
VERTEX
  8
PLAN_1
  6
CONTINUOUS
 10
-1.028736
 20
1.826941
  0
VERTEX
  8
PLAN_1
  6
CONTINUOUS
 10
-1.023535
 20
1.831622
  0
VERTEX
  8
PLAN_1
  6
CONTINUOUS
 10
-1.020413
 20
1.835783
  0
VERTEX
  8
PLAN_1
  6
CONTINUOUS
 10
-1.017815
 20
1.840461
  0
VERTEX
  8
PLAN_1
  6
CONTINUOUS
 10
-1.016256
 20
1.844622
  0
VERTEX
  8
PLAN_1
  6
CONTINUOUS
 10
-1.015736
 20
1.848783
  0
VERTEX
  8
PLAN_1
  6
CONTINUOUS
 10
-1.015736
 20
1.852425
  0
VERTEX
  8
PLAN_1
  6
CONTINUOUS
 10
-1.016256
 20
1.856063
  0
VERTEX
  8
PLAN_1
  6
CONTINUOUS
 10
-1.017815
 20
1.859705
  0
VERTEX
  8
PLAN_1
  6
CONTINUOUS
 10
-1.019374
 20
1.862823
  0
VERTEX
  8
PLAN_1
  6
CONTINUOUS
 10
-1.020937
 20
1.865425
  0
VERTEX
  8
PLAN_1
  6
CONTINUOUS
 10
-1.022496
 20
1.868024
  0
VERTEX
  8
PLAN_1
  6
CONTINUOUS
 10
-1.024575
 20
1.870106
  0
VERTEX
  8
PLAN_1
  6
CONTINUOUS
 10
-1.027177
 20
1.872705
  0
VERTEX
  8
PLAN_1
  6
CONTINUOUS
 10
-1.028736
 20
1.873744
  0
SEQEND
  8
0
  0
POLYLINE
  8
PLAN_1
  6
CONTINUOUS
 66
     1
 40
0.008319
 41
0.008319
  0
VERTEX
  8
PLAN_1
  6
CONTINUOUS
 10
-1.028736
 20
1.873744
  0
VERTEX
  8
PLAN_1
  6
CONTINUOUS
 10
-1.316843
 20
1.873744
  0
SEQEND
  8
0
  0
POLYLINE
  8
PLAN_1
  6
CONTINUOUS
 66
     1
 40
0.008319
 41
0.008319
  0
VERTEX
  8
PLAN_1
  6
CONTINUOUS
 10
-1.316843
 20
1.873744
  0
VERTEX
  8
PLAN_1
  6
CONTINUOUS
 10
-1.317882
 20
1.872705
  0
VERTEX
  8
PLAN_1
  6
CONTINUOUS
 10
-1.320484
 20
1.870106
  0
VERTEX
  8
PLAN_1
  6
CONTINUOUS
 10
-1.323602
 20
1.865945
  0
VERTEX
  8
PLAN_1
  6
CONTINUOUS
 10
-1.326724
 20
1.860224
  0
VERTEX
  8
PLAN_1
  6
CONTINUOUS
 10
-1.327764
 20
1.857102
  0
VERTEX
  8
PLAN_1
  6
CONTINUOUS
 10
-1.328283
 20
1.853465
  0
VERTEX
  8
PLAN_1
  6
CONTINUOUS
 10
-1.328283
 20
1.849303
  0
VERTEX
  8
PLAN_1
  6
CONTINUOUS
 10
-1.327764
 20
1.845142
  0
VERTEX
  8
PLAN_1
  6
CONTINUOUS
 10
-1.326205
 20
1.840984
  0
VERTEX
  8
PLAN_1
  6
CONTINUOUS
 10
-1.324122
 20
1.836303
  0
VERTEX
  8
PLAN_1
  6
CONTINUOUS
 10
-1.321004
 20
1.831622
  0
VERTEX
  8
PLAN_1
  6
CONTINUOUS
 10
-1.316843
 20
1.826941
  0
SEQEND
  8
0
  0
POLYLINE
  8
PLAN_1
  6
CONTINUOUS
 66
     1
 40
0.008319
 41
0.008319
  0
VERTEX
  8
PLAN_1
  6
CONTINUOUS
 10
-1.316843
 20
1.826941
  0
VERTEX
  8
PLAN_1
  6
CONTINUOUS
 10
-1.028736
 20
1.826941
  0
SEQEND
  8
0
  0
POLYLINE
  8
PLAN_1
  6
CONTINUOUS
 66
     1
 40
0.008319
 41
0.008319
  0
VERTEX
  8
PLAN_1
  6
CONTINUOUS
 10
-1.029256
 20
1.780657
  0
VERTEX
  8
PLAN_1
  6
CONTINUOUS
 10
-1.024055
 20
1.785339
  0
VERTEX
  8
PLAN_1
  6
CONTINUOUS
 10
-1.020413
 20
1.789496
  0
VERTEX
  8
PLAN_1
  6
CONTINUOUS
 10
-1.018335
 20
1.793657
  0
VERTEX
  8
PLAN_1
  6
CONTINUOUS
 10
-1.016776
 20
1.798339
  0
VERTEX
  8
PLAN_1
  6
CONTINUOUS
 10
-1.016256
 20
1.801980
  0
VERTEX
  8
PLAN_1
  6
CONTINUOUS
 10
-1.016256
 20
1.806138
  0
VERTEX
  8
PLAN_1
  6
CONTINUOUS
 10
-1.016776
 20
1.809780
  0
VERTEX
  8
PLAN_1
  6
CONTINUOUS
 10
-1.017815
 20
1.812902
  0
VERTEX
  8
PLAN_1
  6
CONTINUOUS
 10
-1.019374
 20
1.816020
  0
VERTEX
  8
PLAN_1
  6
CONTINUOUS
 10
-1.021457
 20
1.819142
  0
VERTEX
  8
PLAN_1
  6
CONTINUOUS
 10
-1.023016
 20
1.821220
  0
VERTEX
  8
PLAN_1
  6
CONTINUOUS
 10
-1.025094
 20
1.823299
  0
VERTEX
  8
PLAN_1
  6
CONTINUOUS
 10
-1.027697
 20
1.826421
  0
VERTEX
  8
PLAN_1
  6
CONTINUOUS
 10
-1.029256
 20
1.827461
  0
SEQEND
  8
0
  0
POLYLINE
  8
PLAN_1
  6
CONTINUOUS
 66
     1
 40
0.008319
 41
0.008319
  0
VERTEX
  8
PLAN_1
  6
CONTINUOUS
 10
-1.029256
 20
1.827461
  0
VERTEX
  8
PLAN_1
  6
CONTINUOUS
 10
-1.317362
 20
1.827461
  0
SEQEND
  8
0
  0
POLYLINE
  8
PLAN_1
  6
CONTINUOUS
 66
     1
 40
0.008319
 41
0.008319
  0
VERTEX
  8
PLAN_1
  6
CONTINUOUS
 10
-1.317362
 20
1.827461
  0
VERTEX
  8
PLAN_1
  6
CONTINUOUS
 10
-1.318402
 20
1.826421
  0
VERTEX
  8
PLAN_1
  6
CONTINUOUS
 10
-1.321004
 20
1.823819
  0
VERTEX
  8
PLAN_1
  6
CONTINUOUS
 10
-1.324122
 20
1.819661
  0
VERTEX
  8
PLAN_1
  6
CONTINUOUS
 10
-1.326724
 20
1.813941
  0
VERTEX
  8
PLAN_1
  6
CONTINUOUS
 10
-1.327764
 20
1.810299
  0
VERTEX
  8
PLAN_1
  6
CONTINUOUS
 10
-1.328803
 20
1.806657
  0
VERTEX
  8
PLAN_1
  6
CONTINUOUS
 10
-1.328803
 20
1.803020
  0
VERTEX
  8
PLAN_1
  6
CONTINUOUS
 10
-1.328283
 20
1.798858
  0
VERTEX
  8
PLAN_1
  6
CONTINUOUS
 10
-1.326724
 20
1.794697
  0
VERTEX
  8
PLAN_1
  6
CONTINUOUS
 10
-1.324646
 20
1.790016
  0
VERTEX
  8
PLAN_1
  6
CONTINUOUS
 10
-1.321524
 20
1.785339
  0
VERTEX
  8
PLAN_1
  6
CONTINUOUS
 10
-1.317362
 20
1.780657
  0
SEQEND
  8
0
  0
POLYLINE
  8
PLAN_1
  6
CONTINUOUS
 66
     1
 40
0.008319
 41
0.008319
  0
VERTEX
  8
PLAN_1
  6
CONTINUOUS
 10
-1.317362
 20
1.780657
  0
VERTEX
  8
PLAN_1
  6
CONTINUOUS
 10
-1.029256
 20
1.780657
  0
SEQEND
  8
0
  0
POLYLINE
  8
PLAN_1
  6
CONTINUOUS
 66
     1
 40
0.008319
 41
0.008319
  0
VERTEX
  8
PLAN_1
  6
CONTINUOUS
 10
-1.028736
 20
1.734374
  0
VERTEX
  8
PLAN_1
  6
CONTINUOUS
 10
-1.023535
 20
1.738531
  0
VERTEX
  8
PLAN_1
  6
CONTINUOUS
 10
-1.020413
 20
1.743213
  0
VERTEX
  8
PLAN_1
  6
CONTINUOUS
 10
-1.017815
 20
1.747374
  0
VERTEX
  8
PLAN_1
  6
CONTINUOUS
 10
-1.016256
 20
1.751535
  0
VERTEX
  8
PLAN_1
  6
CONTINUOUS
 10
-1.015736
 20
1.755693
  0
VERTEX
  8
PLAN_1
  6
CONTINUOUS
 10
-1.015736
 20
1.759854
  0
VERTEX
  8
PLAN_1
  6
CONTINUOUS
 10
-1.016256
 20
1.763496
  0
VERTEX
  8
PLAN_1
  6
CONTINUOUS
 10
-1.017815
 20
1.766614
  0
VERTEX
  8
PLAN_1
  6
CONTINUOUS
 10
-1.019374
 20
1.769736
  0
VERTEX
  8
PLAN_1
  6
CONTINUOUS
 10
-1.020937
 20
1.772335
  0
VERTEX
  8
PLAN_1
  6
CONTINUOUS
 10
-1.022496
 20
1.774937
  0
VERTEX
  8
PLAN_1
  6
CONTINUOUS
 10
-1.024575
 20
1.777016
  0
VERTEX
  8
PLAN_1
  6
CONTINUOUS
 10
-1.027177
 20
1.780138
  0
VERTEX
  8
PLAN_1
  6
CONTINUOUS
 10
-1.028736
 20
1.781177
  0
SEQEND
  8
0
  0
POLYLINE
  8
PLAN_1
  6
CONTINUOUS
 66
     1
 40
0.008319
 41
0.008319
  0
VERTEX
  8
PLAN_1
  6
CONTINUOUS
 10
-1.028736
 20
1.781177
  0
VERTEX
  8
PLAN_1
  6
CONTINUOUS
 10
-1.316843
 20
1.781177
  0
SEQEND
  8
0
  0
POLYLINE
  8
PLAN_1
  6
CONTINUOUS
 66
     1
 40
0.008319
 41
0.008319
  0
VERTEX
  8
PLAN_1
  6
CONTINUOUS
 10
-1.316843
 20
1.781177
  0
VERTEX
  8
PLAN_1
  6
CONTINUOUS
 10
-1.317882
 20
1.780138
  0
VERTEX
  8
PLAN_1
  6
CONTINUOUS
 10
-1.320484
 20
1.777535
  0
VERTEX
  8
PLAN_1
  6
CONTINUOUS
 10
-1.323602
 20
1.772854
  0
VERTEX
  8
PLAN_1
  6
CONTINUOUS
 10
-1.326724
 20
1.767134
  0
VERTEX
  8
PLAN_1
  6
CONTINUOUS
 10
-1.327764
 20
1.764016
  0
VERTEX
  8
PLAN_1
  6
CONTINUOUS
 10
-1.328283
 20
1.760374
  0
VERTEX
  8
PLAN_1
  6
CONTINUOUS
 10
-1.328283
 20
1.756736
  0
VERTEX
  8
PLAN_1
  6
CONTINUOUS
 10
-1.327764
 20
1.752575
  0
VERTEX
  8
PLAN_1
  6
CONTINUOUS
 10
-1.326205
 20
1.747894
  0
VERTEX
  8
PLAN_1
  6
CONTINUOUS
 10
-1.324122
 20
1.743732
  0
VERTEX
  8
PLAN_1
  6
CONTINUOUS
 10
-1.321004
 20
1.739051
  0
VERTEX
  8
PLAN_1
  6
CONTINUOUS
 10
-1.316843
 20
1.734374
  0
SEQEND
  8
0
  0
POLYLINE
  8
PLAN_1
  6
CONTINUOUS
 66
     1
 40
0.008319
 41
0.008319
  0
VERTEX
  8
PLAN_1
  6
CONTINUOUS
 10
-1.316843
 20
1.734374
  0
VERTEX
  8
PLAN_1
  6
CONTINUOUS
 10
-1.028736
 20
1.734374
  0
SEQEND
  8
0
  0
POLYLINE
  8
PLAN_1
  6
CONTINUOUS
 66
     1
 40
0.008319
 41
0.008319
  0
VERTEX
  8
PLAN_1
  6
CONTINUOUS
 10
-1.029256
 20
1.687567
  0
VERTEX
  8
PLAN_1
  6
CONTINUOUS
 10
-1.024055
 20
1.692248
  0
VERTEX
  8
PLAN_1
  6
CONTINUOUS
 10
-1.020413
 20
1.696929
  0
VERTEX
  8
PLAN_1
  6
CONTINUOUS
 10
-1.018335
 20
1.701091
  0
VERTEX
  8
PLAN_1
  6
CONTINUOUS
 10
-1.016776
 20
1.705248
  0
VERTEX
  8
PLAN_1
  6
CONTINUOUS
 10
-1.016256
 20
1.709409
  0
VERTEX
  8
PLAN_1
  6
CONTINUOUS
 10
-1.016256
 20
1.713051
  0
VERTEX
  8
PLAN_1
  6
CONTINUOUS
 10
-1.016776
 20
1.716689
  0
VERTEX
  8
PLAN_1
  6
CONTINUOUS
 10
-1.017815
 20
1.720331
  0
VERTEX
  8
PLAN_1
  6
CONTINUOUS
 10
-1.019374
 20
1.723453
  0
VERTEX
  8
PLAN_1
  6
CONTINUOUS
 10
-1.021457
 20
1.726051
  0
VERTEX
  8
PLAN_1
  6
CONTINUOUS
 10
-1.023016
 20
1.728654
  0
VERTEX
  8
PLAN_1
  6
CONTINUOUS
 10
-1.025094
 20
1.730732
  0
VERTEX
  8
PLAN_1
  6
CONTINUOUS
 10
-1.027697
 20
1.733331
  0
VERTEX
  8
PLAN_1
  6
CONTINUOUS
 10
-1.029256
 20
1.734374
  0
SEQEND
  8
0
  0
POLYLINE
  8
PLAN_1
  6
CONTINUOUS
 66
     1
 40
0.008319
 41
0.008319
  0
VERTEX
  8
PLAN_1
  6
CONTINUOUS
 10
-1.029256
 20
1.734374
  0
VERTEX
  8
PLAN_1
  6
CONTINUOUS
 10
-1.317362
 20
1.734374
  0
SEQEND
  8
0
  0
POLYLINE
  8
PLAN_1
  6
CONTINUOUS
 66
     1
 40
0.008319
 41
0.008319
  0
VERTEX
  8
PLAN_1
  6
CONTINUOUS
 10
-1.317362
 20
1.734374
  0
VERTEX
  8
PLAN_1
  6
CONTINUOUS
 10
-1.318402
 20
1.733850
  0
VERTEX
  8
PLAN_1
  6
CONTINUOUS
 10
-1.321004
 20
1.730732
  0
VERTEX
  8
PLAN_1
  6
CONTINUOUS
 10
-1.324122
 20
1.726571
  0
VERTEX
  8
PLAN_1
  6
CONTINUOUS
 10
-1.326724
 20
1.720850
  0
VERTEX
  8
PLAN_1
  6
CONTINUOUS
 10
-1.327764
 20
1.717732
  0
VERTEX
  8
PLAN_1
  6
CONTINUOUS
 10
-1.328803
 20
1.714091
  0
VERTEX
  8
PLAN_1
  6
CONTINUOUS
 10
-1.328803
 20
1.709929
  0
VERTEX
  8
PLAN_1
  6
CONTINUOUS
 10
-1.328283
 20
1.705768
  0
VERTEX
  8
PLAN_1
  6
CONTINUOUS
 10
-1.326724
 20
1.701610
  0
VERTEX
  8
PLAN_1
  6
CONTINUOUS
 10
-1.324646
 20
1.697449
  0
VERTEX
  8
PLAN_1
  6
CONTINUOUS
 10
-1.321524
 20
1.692768
  0
VERTEX
  8
PLAN_1
  6
CONTINUOUS
 10
-1.317362
 20
1.687567
  0
SEQEND
  8
0
  0
POLYLINE
  8
PLAN_1
  6
CONTINUOUS
 66
     1
 40
0.008319
 41
0.008319
  0
VERTEX
  8
PLAN_1
  6
CONTINUOUS
 10
-1.317362
 20
1.687567
  0
VERTEX
  8
PLAN_1
  6
CONTINUOUS
 10
-1.029256
 20
1.687567
  0
SEQEND
  8
0
  0
POLYLINE
  8
PLAN_1
  6
CONTINUOUS
 66
     1
 40
0.008319
 41
0.008319
  0
VERTEX
  8
PLAN_1
  6
CONTINUOUS
 10
-1.028736
 20
1.641283
  0
VERTEX
  8
PLAN_1
  6
CONTINUOUS
 10
-1.023535
 20
1.645965
  0
VERTEX
  8
PLAN_1
  6
CONTINUOUS
 10
-1.020413
 20
1.650126
  0
VERTEX
  8
PLAN_1
  6
CONTINUOUS
 10
-1.017815
 20
1.654803
  0
VERTEX
  8
PLAN_1
  6
CONTINUOUS
 10
-1.016256
 20
1.658965
  0
VERTEX
  8
PLAN_1
  6
CONTINUOUS
 10
-1.015736
 20
1.663126
  0
VERTEX
  8
PLAN_1
  6
CONTINUOUS
 10
-1.015736
 20
1.666768
  0
VERTEX
  8
PLAN_1
  6
CONTINUOUS
 10
-1.016256
 20
1.670406
  0
VERTEX
  8
PLAN_1
  6
CONTINUOUS
 10
-1.017815
 20
1.674047
  0
VERTEX
  8
PLAN_1
  6
CONTINUOUS
 10
-1.019374
 20
1.677165
  0
VERTEX
  8
PLAN_1
  6
CONTINUOUS
 10
-1.020937
 20
1.679768
  0
VERTEX
  8
PLAN_1
  6
CONTINUOUS
 10
-1.022496
 20
1.682366
  0
VERTEX
  8
PLAN_1
  6
CONTINUOUS
 10
-1.024575
 20
1.684449
  0
VERTEX
  8
PLAN_1
  6
CONTINUOUS
 10
-1.027177
 20
1.687047
  0
VERTEX
  8
PLAN_1
  6
CONTINUOUS
 10
-1.028736
 20
1.688087
  0
SEQEND
  8
0
  0
POLYLINE
  8
PLAN_1
  6
CONTINUOUS
 66
     1
 40
0.008319
 41
0.008319
  0
VERTEX
  8
PLAN_1
  6
CONTINUOUS
 10
-1.028736
 20
1.688087
  0
VERTEX
  8
PLAN_1
  6
CONTINUOUS
 10
-1.316843
 20
1.688087
  0
SEQEND
  8
0
  0
POLYLINE
  8
PLAN_1
  6
CONTINUOUS
 66
     1
 40
0.008319
 41
0.008319
  0
VERTEX
  8
PLAN_1
  6
CONTINUOUS
 10
-1.316843
 20
1.688087
  0
VERTEX
  8
PLAN_1
  6
CONTINUOUS
 10
-1.317882
 20
1.687047
  0
VERTEX
  8
PLAN_1
  6
CONTINUOUS
 10
-1.320484
 20
1.684449
  0
VERTEX
  8
PLAN_1
  6
CONTINUOUS
 10
-1.323602
 20
1.680287
  0
VERTEX
  8
PLAN_1
  6
CONTINUOUS
 10
-1.326724
 20
1.674567
  0
VERTEX
  8
PLAN_1
  6
CONTINUOUS
 10
-1.327764
 20
1.670925
  0
VERTEX
  8
PLAN_1
  6
CONTINUOUS
 10
-1.328283
 20
1.667807
  0
VERTEX
  8
PLAN_1
  6
CONTINUOUS
 10
-1.328283
 20
1.663646
  0
VERTEX
  8
PLAN_1
  6
CONTINUOUS
 10
-1.327764
 20
1.659484
  0
VERTEX
  8
PLAN_1
  6
CONTINUOUS
 10
-1.326205
 20
1.655327
  0
VERTEX
  8
PLAN_1
  6
CONTINUOUS
 10
-1.324122
 20
1.650646
  0
VERTEX
  8
PLAN_1
  6
CONTINUOUS
 10
-1.321004
 20
1.645965
  0
VERTEX
  8
PLAN_1
  6
CONTINUOUS
 10
-1.316843
 20
1.641283
  0
SEQEND
  8
0
  0
POLYLINE
  8
PLAN_1
  6
CONTINUOUS
 66
     1
 40
0.008319
 41
0.008319
  0
VERTEX
  8
PLAN_1
  6
CONTINUOUS
 10
-1.316843
 20
1.641283
  0
VERTEX
  8
PLAN_1
  6
CONTINUOUS
 10
-1.028736
 20
1.641283
  0
SEQEND
  8
0
  0
POLYLINE
  8
PLAN_1
  6
CONTINUOUS
 66
     1
 40
0.008319
 41
0.008319
  0
VERTEX
  8
PLAN_1
  6
CONTINUOUS
 10
-1.029256
 20
1.595000
  0
VERTEX
  8
PLAN_1
  6
CONTINUOUS
 10
-1.024055
 20
1.599161
  0
VERTEX
  8
PLAN_1
  6
CONTINUOUS
 10
-1.020413
 20
1.603839
  0
VERTEX
  8
PLAN_1
  6
CONTINUOUS
 10
-1.018335
 20
1.608000
  0
VERTEX
  8
PLAN_1
  6
CONTINUOUS
 10
-1.016776
 20
1.612161
  0
VERTEX
  8
PLAN_1
  6
CONTINUOUS
 10
-1.016256
 20
1.616323
  0
VERTEX
  8
PLAN_1
  6
CONTINUOUS
 10
-1.016256
 20
1.620480
  0
VERTEX
  8
PLAN_1
  6
CONTINUOUS
 10
-1.016776
 20
1.624122
  0
VERTEX
  8
PLAN_1
  6
CONTINUOUS
 10
-1.017815
 20
1.627244
  0
VERTEX
  8
PLAN_1
  6
CONTINUOUS
 10
-1.019374
 20
1.630362
  0
VERTEX
  8
PLAN_1
  6
CONTINUOUS
 10
-1.021457
 20
1.633484
  0
VERTEX
  8
PLAN_1
  6
CONTINUOUS
 10
-1.023016
 20
1.635563
  0
VERTEX
  8
PLAN_1
  6
CONTINUOUS
 10
-1.025094
 20
1.637642
  0
VERTEX
  8
PLAN_1
  6
CONTINUOUS
 10
-1.027697
 20
1.640764
  0
VERTEX
  8
PLAN_1
  6
CONTINUOUS
 10
-1.029256
 20
1.641803
  0
SEQEND
  8
0
  0
POLYLINE
  8
PLAN_1
  6
CONTINUOUS
 66
     1
 40
0.008319
 41
0.008319
  0
VERTEX
  8
PLAN_1
  6
CONTINUOUS
 10
-1.029256
 20
1.641803
  0
VERTEX
  8
PLAN_1
  6
CONTINUOUS
 10
-1.317362
 20
1.641803
  0
SEQEND
  8
0
  0
POLYLINE
  8
PLAN_1
  6
CONTINUOUS
 66
     1
 40
0.008319
 41
0.008319
  0
VERTEX
  8
PLAN_1
  6
CONTINUOUS
 10
-1.317362
 20
1.641803
  0
VERTEX
  8
PLAN_1
  6
CONTINUOUS
 10
-1.318402
 20
1.640764
  0
VERTEX
  8
PLAN_1
  6
CONTINUOUS
 10
-1.321004
 20
1.638161
  0
VERTEX
  8
PLAN_1
  6
CONTINUOUS
 10
-1.324122
 20
1.634004
  0
VERTEX
  8
PLAN_1
  6
CONTINUOUS
 10
-1.326724
 20
1.628283
  0
VERTEX
  8
PLAN_1
  6
CONTINUOUS
 10
-1.327764
 20
1.624642
  0
VERTEX
  8
PLAN_1
  6
CONTINUOUS
 10
-1.328803
 20
1.621000
  0
VERTEX
  8
PLAN_1
  6
CONTINUOUS
 10
-1.328803
 20
1.617362
  0
VERTEX
  8
PLAN_1
  6
CONTINUOUS
 10
-1.328283
 20
1.613201
  0
VERTEX
  8
PLAN_1
  6
CONTINUOUS
 10
-1.326724
 20
1.609039
  0
VERTEX
  8
PLAN_1
  6
CONTINUOUS
 10
-1.324646
 20
1.604358
  0
VERTEX
  8
PLAN_1
  6
CONTINUOUS
 10
-1.321524
 20
1.599681
  0
VERTEX
  8
PLAN_1
  6
CONTINUOUS
 10
-1.317362
 20
1.595000
  0
SEQEND
  8
0
  0
POLYLINE
  8
PLAN_1
  6
CONTINUOUS
 66
     1
 40
0.008319
 41
0.008319
  0
VERTEX
  8
PLAN_1
  6
CONTINUOUS
 10
-1.317362
 20
1.595000
  0
VERTEX
  8
PLAN_1
  6
CONTINUOUS
 10
-1.029256
 20
1.595000
  0
SEQEND
  8
0
  0
POLYLINE
  8
PLAN_1
  6
CONTINUOUS
 66
     1
 40
0.008319
 41
0.008319
  0
VERTEX
  8
PLAN_1
  6
CONTINUOUS
 10
-1.028736
 20
1.548193
  0
VERTEX
  8
PLAN_1
  6
CONTINUOUS
 10
-1.023535
 20
1.552874
  0
VERTEX
  8
PLAN_1
  6
CONTINUOUS
 10
-1.020413
 20
1.557555
  0
VERTEX
  8
PLAN_1
  6
CONTINUOUS
 10
-1.017815
 20
1.561717
  0
VERTEX
  8
PLAN_1
  6
CONTINUOUS
 10
-1.016256
 20
1.565878
  0
VERTEX
  8
PLAN_1
  6
CONTINUOUS
 10
-1.015736
 20
1.570035
  0
VERTEX
  8
PLAN_1
  6
CONTINUOUS
 10
-1.015736
 20
1.573677
  0
VERTEX
  8
PLAN_1
  6
CONTINUOUS
 10
-1.016256
 20
1.577319
  0
VERTEX
  8
PLAN_1
  6
CONTINUOUS
 10
-1.017815
 20
1.580957
  0
VERTEX
  8
PLAN_1
  6
CONTINUOUS
 10
-1.019374
 20
1.584079
  0
VERTEX
  8
PLAN_1
  6
CONTINUOUS
 10
-1.020937
 20
1.586677
  0
VERTEX
  8
PLAN_1
  6
CONTINUOUS
 10
-1.022496
 20
1.589280
  0
VERTEX
  8
PLAN_1
  6
CONTINUOUS
 10
-1.024575
 20
1.591358
  0
VERTEX
  8
PLAN_1
  6
CONTINUOUS
 10
-1.027177
 20
1.594480
  0
VERTEX
  8
PLAN_1
  6
CONTINUOUS
 10
-1.028736
 20
1.595520
  0
SEQEND
  8
0
  0
POLYLINE
  8
PLAN_1
  6
CONTINUOUS
 66
     1
 40
0.008319
 41
0.008319
  0
VERTEX
  8
PLAN_1
  6
CONTINUOUS
 10
-1.028736
 20
1.595520
  0
VERTEX
  8
PLAN_1
  6
CONTINUOUS
 10
-1.316843
 20
1.595520
  0
SEQEND
  8
0
  0
POLYLINE
  8
PLAN_1
  6
CONTINUOUS
 66
     1
 40
0.008319
 41
0.008319
  0
VERTEX
  8
PLAN_1
  6
CONTINUOUS
 10
-1.316843
 20
1.595520
  0
VERTEX
  8
PLAN_1
  6
CONTINUOUS
 10
-1.317882
 20
1.594480
  0
VERTEX
  8
PLAN_1
  6
CONTINUOUS
 10
-1.320484
 20
1.591878
  0
VERTEX
  8
PLAN_1
  6
CONTINUOUS
 10
-1.323602
 20
1.587197
  0
VERTEX
  8
PLAN_1
  6
CONTINUOUS
 10
-1.326724
 20
1.581476
  0
VERTEX
  8
PLAN_1
  6
CONTINUOUS
 10
-1.327764
 20
1.578358
  0
VERTEX
  8
PLAN_1
  6
CONTINUOUS
 10
-1.328283
 20
1.574717
  0
VERTEX
  8
PLAN_1
  6
CONTINUOUS
 10
-1.328283
 20
1.571079
  0
VERTEX
  8
PLAN_1
  6
CONTINUOUS
 10
-1.327764
 20
1.566917
  0
VERTEX
  8
PLAN_1
  6
CONTINUOUS
 10
-1.326205
 20
1.562236
  0
VERTEX
  8
PLAN_1
  6
CONTINUOUS
 10
-1.324122
 20
1.558075
  0
VERTEX
  8
PLAN_1
  6
CONTINUOUS
 10
-1.321004
 20
1.553394
  0
VERTEX
  8
PLAN_1
  6
CONTINUOUS
 10
-1.316843
 20
1.548193
  0
SEQEND
  8
0
  0
POLYLINE
  8
PLAN_1
  6
CONTINUOUS
 66
     1
 40
0.008319
 41
0.008319
  0
VERTEX
  8
PLAN_1
  6
CONTINUOUS
 10
-1.316843
 20
1.548193
  0
VERTEX
  8
PLAN_1
  6
CONTINUOUS
 10
-1.028736
 20
1.548193
  0
SEQEND
  8
0
  0
POLYLINE
  8
PLAN_1
  6
CONTINUOUS
 66
     1
 40
0.008319
 41
0.008319
  0
VERTEX
  8
PLAN_1
  6
CONTINUOUS
 10
-1.029256
 20
1.501909
  0
VERTEX
  8
PLAN_1
  6
CONTINUOUS
 10
-1.024055
 20
1.506591
  0
VERTEX
  8
PLAN_1
  6
CONTINUOUS
 10
-1.020413
 20
1.510752
  0
VERTEX
  8
PLAN_1
  6
CONTINUOUS
 10
-1.018335
 20
1.515433
  0
VERTEX
  8
PLAN_1
  6
CONTINUOUS
 10
-1.016776
 20
1.519591
  0
VERTEX
  8
PLAN_1
  6
CONTINUOUS
 10
-1.016256
 20
1.523752
  0
VERTEX
  8
PLAN_1
  6
CONTINUOUS
 10
-1.016256
 20
1.527394
  0
VERTEX
  8
PLAN_1
  6
CONTINUOUS
 10
-1.016776
 20
1.531031
  0
VERTEX
  8
PLAN_1
  6
CONTINUOUS
 10
-1.017815
 20
1.534673
  0
VERTEX
  8
PLAN_1
  6
CONTINUOUS
 10
-1.021457
 20
1.540394
  0
VERTEX
  8
PLAN_1
  6
CONTINUOUS
 10
-1.025094
 20
1.545075
  0
VERTEX
  8
PLAN_1
  6
CONTINUOUS
 10
-1.027697
 20
1.547673
  0
VERTEX
  8
PLAN_1
  6
CONTINUOUS
 10
-1.029256
 20
1.548717
  0
SEQEND
  8
0
  0
POLYLINE
  8
PLAN_1
  6
CONTINUOUS
 66
     1
 40
0.008319
 41
0.008319
  0
VERTEX
  8
PLAN_1
  6
CONTINUOUS
 10
-1.029256
 20
1.548717
  0
VERTEX
  8
PLAN_1
  6
CONTINUOUS
 10
-1.317362
 20
1.548717
  0
SEQEND
  8
0
  0
POLYLINE
  8
PLAN_1
  6
CONTINUOUS
 66
     1
 40
0.008319
 41
0.008319
  0
VERTEX
  8
PLAN_1
  6
CONTINUOUS
 10
-1.317362
 20
1.548717
  0
VERTEX
  8
PLAN_1
  6
CONTINUOUS
 10
-1.318402
 20
1.547673
  0
VERTEX
  8
PLAN_1
  6
CONTINUOUS
 10
-1.321004
 20
1.545075
  0
VERTEX
  8
PLAN_1
  6
CONTINUOUS
 10
-1.324122
 20
1.540913
  0
VERTEX
  8
PLAN_1
  6
CONTINUOUS
 10
-1.326724
 20
1.535193
  0
VERTEX
  8
PLAN_1
  6
CONTINUOUS
 10
-1.327764
 20
1.532075
  0
VERTEX
  8
PLAN_1
  6
CONTINUOUS
 10
-1.328803
 20
1.528433
  0
VERTEX
  8
PLAN_1
  6
CONTINUOUS
 10
-1.328803
 20
1.524272
  0
VERTEX
  8
PLAN_1
  6
CONTINUOUS
 10
-1.328283
 20
1.520114
  0
VERTEX
  8
PLAN_1
  6
CONTINUOUS
 10
-1.326724
 20
1.515953
  0
VERTEX
  8
PLAN_1
  6
CONTINUOUS
 10
-1.324646
 20
1.511272
  0
VERTEX
  8
PLAN_1
  6
CONTINUOUS
 10
-1.321524
 20
1.506591
  0
VERTEX
  8
PLAN_1
  6
CONTINUOUS
 10
-1.317362
 20
1.501909
  0
SEQEND
  8
0
  0
POLYLINE
  8
PLAN_1
  6
CONTINUOUS
 66
     1
 40
0.008319
 41
0.008319
  0
VERTEX
  8
PLAN_1
  6
CONTINUOUS
 10
-1.317362
 20
1.501909
  0
VERTEX
  8
PLAN_1
  6
CONTINUOUS
 10
-1.029256
 20
1.501909
  0
SEQEND
  8
0
  0
POLYLINE
  8
PLAN_1
  6
CONTINUOUS
 66
     1
 40
0.008319
 41
0.008319
  0
VERTEX
  8
PLAN_1
  6
CONTINUOUS
 10
-1.028736
 20
1.455626
  0
VERTEX
  8
PLAN_1
  6
CONTINUOUS
 10
-1.023535
 20
1.460307
  0
VERTEX
  8
PLAN_1
  6
CONTINUOUS
 10
-1.020413
 20
1.464469
  0
VERTEX
  8
PLAN_1
  6
CONTINUOUS
 10
-1.017815
 20
1.469146
  0
VERTEX
  8
PLAN_1
  6
CONTINUOUS
 10
-1.016256
 20
1.473307
  0
VERTEX
  8
PLAN_1
  6
CONTINUOUS
 10
-1.015736
 20
1.476949
  0
VERTEX
  8
PLAN_1
  6
CONTINUOUS
 10
-1.015736
 20
1.481110
  0
VERTEX
  8
PLAN_1
  6
CONTINUOUS
 10
-1.016256
 20
1.484748
  0
VERTEX
  8
PLAN_1
  6
CONTINUOUS
 10
-1.017815
 20
1.487870
  0
VERTEX
  8
PLAN_1
  6
CONTINUOUS
 10
-1.019374
 20
1.490988
  0
VERTEX
  8
PLAN_1
  6
CONTINUOUS
 10
-1.020937
 20
1.494110
  0
VERTEX
  8
PLAN_1
  6
CONTINUOUS
 10
-1.022496
 20
1.496709
  0
VERTEX
  8
PLAN_1
  6
CONTINUOUS
 10
-1.024575
 20
1.498272
  0
VERTEX
  8
PLAN_1
  6
CONTINUOUS
 10
-1.027177
 20
1.501390
  0
VERTEX
  8
PLAN_1
  6
CONTINUOUS
 10
-1.028736
 20
1.502429
  0
SEQEND
  8
0
  0
POLYLINE
  8
PLAN_1
  6
CONTINUOUS
 66
     1
 40
0.008319
 41
0.008319
  0
VERTEX
  8
PLAN_1
  6
CONTINUOUS
 10
-1.028736
 20
1.502429
  0
VERTEX
  8
PLAN_1
  6
CONTINUOUS
 10
-1.316843
 20
1.502429
  0
SEQEND
  8
0
  0
POLYLINE
  8
PLAN_1
  6
CONTINUOUS
 66
     1
 40
0.008319
 41
0.008319
  0
VERTEX
  8
PLAN_1
  6
CONTINUOUS
 10
-1.316843
 20
1.502429
  0
VERTEX
  8
PLAN_1
  6
CONTINUOUS
 10
-1.317882
 20
1.501390
  0
VERTEX
  8
PLAN_1
  6
CONTINUOUS
 10
-1.320484
 20
1.498791
  0
VERTEX
  8
PLAN_1
  6
CONTINUOUS
 10
-1.323602
 20
1.494630
  0
VERTEX
  8
PLAN_1
  6
CONTINUOUS
 10
-1.326724
 20
1.488909
  0
VERTEX
  8
PLAN_1
  6
CONTINUOUS
 10
-1.327764
 20
1.485268
  0
VERTEX
  8
PLAN_1
  6
CONTINUOUS
 10
-1.328283
 20
1.481630
  0
VERTEX
  8
PLAN_1
  6
CONTINUOUS
 10
-1.328283
 20
1.477988
  0
VERTEX
  8
PLAN_1
  6
CONTINUOUS
 10
-1.327764
 20
1.473827
  0
VERTEX
  8
PLAN_1
  6
CONTINUOUS
 10
-1.326205
 20
1.469669
  0
VERTEX
  8
PLAN_1
  6
CONTINUOUS
 10
-1.324122
 20
1.464988
  0
VERTEX
  8
PLAN_1
  6
CONTINUOUS
 10
-1.321004
 20
1.460307
  0
VERTEX
  8
PLAN_1
  6
CONTINUOUS
 10
-1.316843
 20
1.455626
  0
SEQEND
  8
0
  0
POLYLINE
  8
PLAN_1
  6
CONTINUOUS
 66
     1
 40
0.008319
 41
0.008319
  0
VERTEX
  8
PLAN_1
  6
CONTINUOUS
 10
-1.316843
 20
1.455626
  0
VERTEX
  8
PLAN_1
  6
CONTINUOUS
 10
-1.028736
 20
1.455626
  0
SEQEND
  8
0
  0
POLYLINE
  8
PLAN_1
  6
CONTINUOUS
 66
     1
 40
0.008319
 41
0.008319
  0
VERTEX
  8
PLAN_1
  6
CONTINUOUS
 10
-1.228433
 20
3.189988
  0
VERTEX
  8
PLAN_1
  6
CONTINUOUS
 10
-1.228433
 20
2.480642
  0
VERTEX
  8
PLAN_1
  6
CONTINUOUS
 10
-1.110382
 20
2.480642
  0
VERTEX
  8
PLAN_1
  6
CONTINUOUS
 10
-1.110382
 20
3.260717
  0
SEQEND
  8
0
  0
POLYLINE
  8
PLAN_1
  6
CONTINUOUS
 66
     1
 40
0.008319
 41
0.008319
  0
VERTEX
  8
PLAN_1
  6
CONTINUOUS
 10
-1.110382
 20
3.396969
  0
VERTEX
  8
PLAN_1
  6
CONTINUOUS
 10
-1.110382
 20
4.158839
  0
VERTEX
  8
PLAN_1
  6
CONTINUOUS
 10
-1.228433
 20
4.158839
  0
VERTEX
  8
PLAN_1
  6
CONTINUOUS
 10
-1.228433
 20
3.328843
  0
SEQEND
  8
0
  0
POLYLINE
  8
PLAN_1
  6
CONTINUOUS
 66
     1
 40
0.008319
 41
0.008319
  0
VERTEX
  8
PLAN_1
  6
CONTINUOUS
 10
-1.021976
 20
2.440598
  0
VERTEX
  8
PLAN_1
  6
CONTINUOUS
 10
-1.062020
 20
2.480642
  0
VERTEX
  8
PLAN_1
  6
CONTINUOUS
 10
-1.285642
 20
2.480642
  0
VERTEX
  8
PLAN_1
  6
CONTINUOUS
 10
-1.327764
 20
2.440598
  0
VERTEX
  8
PLAN_1
  6
CONTINUOUS
 10
-1.327764
 20
2.107248
  0
VERTEX
  8
PLAN_1
  6
CONTINUOUS
 10
-1.021976
 20
2.107248
  0
VERTEX
  8
PLAN_1
  6
CONTINUOUS
 10
-1.021976
 20
2.440598
  0
SEQEND
  8
0
  0
POLYLINE
  8
PLAN_1
  6
CONTINUOUS
 66
     1
 40
0.008319
 41
0.008319
  0
VERTEX
  8
PLAN_1
  6
CONTINUOUS
 10
-0.935126
 20
0.768642
  0
VERTEX
  8
PLAN_1
  6
CONTINUOUS
 10
-0.935126
 20
0.805043
  0
SEQEND
  8
0
  0
POLYLINE
  8
PLAN_1
  6
CONTINUOUS
 66
     1
 40
0.008319
 41
0.008319
  0
VERTEX
  8
PLAN_1
  6
CONTINUOUS
 10
-1.407331
 20
0.805043
  0
VERTEX
  8
PLAN_1
  6
CONTINUOUS
 10
-1.407331
 20
0.768642
  0
SEQEND
  8
0
  0
POLYLINE
  8
PLAN_1
  6
CONTINUOUS
 66
     1
 40
0.008319
 41
0.008319
  0
VERTEX
  8
PLAN_1
  6
CONTINUOUS
 10
-1.409413
 20
3.223791
  0
VERTEX
  8
PLAN_1
  6
CONTINUOUS
 10
-0.921087
 20
3.505657
  0
SEQEND
  8
0
  0
POLYLINE
  8
PLAN_1
  6
CONTINUOUS
 66
     1
 40
0.008319
 41
0.008319
  0
VERTEX
  8
PLAN_1
  6
CONTINUOUS
 10
-1.408370
 20
3.091701
  0
VERTEX
  8
PLAN_1
  6
CONTINUOUS
 10
-0.917445
 20
3.373567
  0
SEQEND
  8
0
  0
POLYLINE
  8
PLAN_1
  6
CONTINUOUS
 66
     1
 40
0.008319
 41
0.008319
  0
VERTEX
  8
PLAN_1
  6
CONTINUOUS
 10
-1.327764
 20
2.440598
  0
VERTEX
  8
PLAN_1
  6
CONTINUOUS
 10
-1.021976
 20
2.440598
  0
SEQEND
  8
0
  0
POLYLINE
  8
PLAN_1
 62
     2
  6
CONTINUOUS
 66
     1
 40
0.004157
 41
0.004157
  0
VERTEX
  8
PLAN_1
 62
     2
  6
CONTINUOUS
 10
-1.085941
 20
4.158319
  0
VERTEX
  8
PLAN_1
 62
     2
  6
CONTINUOUS
 10
-0.636098
 20
4.158319
  0
SEQEND
  8
0
  0
POLYLINE
  8
PLAN_1
 62
     2
  6
CONTINUOUS
 66
     1
 40
0.004157
 41
0.004157
  0
VERTEX
  8
PLAN_1
 62
     2
  6
CONTINUOUS
 10
-0.096807
 20
4.112035
  0
VERTEX
  8
PLAN_1
 62
     2
  6
CONTINUOUS
 10
-0.096807
 20
-0.567362
  0
SEQEND
  8
0
  0
SOLID
  8
PLAN_1
 62
     2
 10
-0.096807
 20
4.155201
 11
-0.081209
 21
4.095913
 12
-0.096807
 22
4.155201
 13
-0.112929
 23
4.095913
  0
POLYLINE
  8
PLAN_1
 62
     2
  6
CONTINUOUS
 66
     1
 40
0.003000
 41
0.003000
  0
VERTEX
  8
PLAN_1
 62
     2
  6
CONTINUOUS
 10
-0.096807
 20
4.155201
  0
VERTEX
  8
PLAN_1
 62
     2
  6
CONTINUOUS
 10
-0.081209
 20
4.095913
  0
VERTEX
  8
PLAN_1
 62
     2
  6
CONTINUOUS
 10
-0.112929
 20
4.095913
  0
VERTEX
  8
PLAN_1
 62
     2
  6
CONTINUOUS
 10
-0.096807
 20
4.155201
  0
SEQEND
  8
0
  0
SOLID
  8
PLAN_1
 62
     2
 10
-0.096807
 20
-0.603768
 11
-0.081209
 21
-0.545000
 12
-0.096807
 22
-0.603768
 13
-0.112929
 23
-0.545000
  0
POLYLINE
  8
PLAN_1
 62
     2
  6
CONTINUOUS
 66
     1
 40
0.003000
 41
0.003000
  0
VERTEX
  8
PLAN_1
 62
     2
  6
CONTINUOUS
 10
-0.096807
 20
-0.603768
  0
VERTEX
  8
PLAN_1
 62
     2
  6
CONTINUOUS
 10
-0.081209
 20
-0.545000
  0
VERTEX
  8
PLAN_1
 62
     2
  6
CONTINUOUS
 10
-0.112929
 20
-0.545000
  0
VERTEX
  8
PLAN_1
 62
     2
  6
CONTINUOUS
 10
-0.096807
 20
-0.603768
  0
SEQEND
  8
0
  0
POLYLINE
  8
PLAN_1
 62
     2
  6
CONTINUOUS
 66
     1
 40
0.004157
 41
0.004157
  0
VERTEX
  8
PLAN_1
 62
     2
  6
CONTINUOUS
 10
-0.254902
 20
4.112035
  0
VERTEX
  8
PLAN_1
 62
     2
  6
CONTINUOUS
 10
-0.254902
 20
0.371846
  0
SEQEND
  8
0
  0
SOLID
  8
PLAN_1
 62
     2
 10
-0.254902
 20
4.155201
 11
-0.239303
 21
4.095913
 12
-0.254902
 22
4.155201
 13
-0.270504
 23
4.095913
  0
POLYLINE
  8
PLAN_1
 62
     2
  6
CONTINUOUS
 66
     1
 40
0.003000
 41
0.003000
  0
VERTEX
  8
PLAN_1
 62
     2
  6
CONTINUOUS
 10
-0.254902
 20
4.155201
  0
VERTEX
  8
PLAN_1
 62
     2
  6
CONTINUOUS
 10
-0.239303
 20
4.095913
  0
VERTEX
  8
PLAN_1
 62
     2
  6
CONTINUOUS
 10
-0.270504
 20
4.095913
  0
VERTEX
  8
PLAN_1
 62
     2
  6
CONTINUOUS
 10
-0.254902
 20
4.155201
  0
SEQEND
  8
0
  0
SOLID
  8
PLAN_1
 62
     2
 10
-0.254902
 20
0.332323
 11
-0.239303
 21
0.391087
 12
-0.254902
 22
0.332323
 13
-0.270504
 23
0.391087
  0
POLYLINE
  8
PLAN_1
 62
     2
  6
CONTINUOUS
 66
     1
 40
0.003000
 41
0.003000
  0
VERTEX
  8
PLAN_1
 62
     2
  6
CONTINUOUS
 10
-0.254902
 20
0.332323
  0
VERTEX
  8
PLAN_1
 62
     2
  6
CONTINUOUS
 10
-0.239303
 20
0.391087
  0
VERTEX
  8
PLAN_1
 62
     2
  6
CONTINUOUS
 10
-0.270504
 20
0.391087
  0
VERTEX
  8
PLAN_1
 62
     2
  6
CONTINUOUS
 10
-0.254902
 20
0.332323
  0
SEQEND
  8
0
  0
POLYLINE
  8
PLAN_1
 62
     2
  6
CONTINUOUS
 66
     1
 40
0.003000
 41
0.003000
  0
VERTEX
  8
PLAN_1
 62
     2
  6
CONTINUOUS
 10
-0.278827
 20
2.194614
  0
VERTEX
  8
PLAN_1
 62
     2
  6
CONTINUOUS
 10
-0.278827
 20
2.184736
  0
VERTEX
  8
PLAN_1
 62
     2
  6
CONTINUOUS
 10
-0.330831
 20
2.184736
  0
VERTEX
  8
PLAN_1
 62
     2
  6
CONTINUOUS
 10
-0.330831
 20
2.167575
  0
VERTEX
  8
PLAN_1
 62
     2
  6
CONTINUOUS
 10
-0.338110
 20
2.167575
  0
VERTEX
  8
PLAN_1
 62
     2
  6
CONTINUOUS
 10
-0.338630
 20
2.171732
  0
VERTEX
  8
PLAN_1
 62
     2
  6
CONTINUOUS
 10
-0.339150
 20
2.175374
  0
VERTEX
  8
PLAN_1
 62
     2
  6
CONTINUOUS
 10
-0.339673
 20
2.178492
  0
VERTEX
  8
PLAN_1
 62
     2
  6
CONTINUOUS
 10
-0.340713
 20
2.181094
  0
VERTEX
  8
PLAN_1
 62
     2
  6
CONTINUOUS
 10
-0.342791
 20
2.183173
  0
VERTEX
  8
PLAN_1
 62
     2
  6
CONTINUOUS
 10
-0.344870
 20
2.184736
  0
VERTEX
  8
PLAN_1
 62
     2
  6
CONTINUOUS
 10
-0.347992
 20
2.186295
  0
VERTEX
  8
PLAN_1
 62
     2
  6
CONTINUOUS
 10
-0.352154
 20
2.187335
  0
VERTEX
  8
PLAN_1
 62
     2
  6
CONTINUOUS
 10
-0.352154
 20
2.194614
  0
VERTEX
  8
PLAN_1
 62
     2
  6
CONTINUOUS
 10
-0.278827
 20
2.194614
  0
SEQEND
  8
0
  0
POLYLINE
  8
PLAN_1
 62
     2
  6
CONTINUOUS
 66
     1
 40
0.003000
 41
0.003000
  0
VERTEX
  8
PLAN_1
 62
     2
  6
CONTINUOUS
 10
-0.321469
 20
2.228417
  0
VERTEX
  8
PLAN_1
 62
     2
  6
CONTINUOUS
 10
-0.322508
 20
2.229461
  0
VERTEX
  8
PLAN_1
 62
     2
  6
CONTINUOUS
 10
-0.323031
 20
2.231020
  0
VERTEX
  8
PLAN_1
 62
     2
  6
CONTINUOUS
 10
-0.324071
 20
2.232579
  0
VERTEX
  8
PLAN_1
 62
     2
  6
CONTINUOUS
 10
-0.324591
 20
2.234138
  0
VERTEX
  8
PLAN_1
 62
     2
  6
CONTINUOUS
 10
-0.325110
 20
2.235701
  0
VERTEX
  8
PLAN_1
 62
     2
  6
CONTINUOUS
 10
-0.325630
 20
2.237780
  0
VERTEX
  8
PLAN_1
 62
     2
  6
CONTINUOUS
 10
-0.326150
 20
2.239858
  0
VERTEX
  8
PLAN_1
 62
     2
  6
CONTINUOUS
 10
-0.326150
 20
2.242461
  0
VERTEX
  8
PLAN_1
 62
     2
  6
CONTINUOUS
 10
-0.325630
 20
2.246622
  0
VERTEX
  8
PLAN_1
 62
     2
  6
CONTINUOUS
 10
-0.324591
 20
2.251299
  0
VERTEX
  8
PLAN_1
 62
     2
  6
CONTINUOUS
 10
-0.322508
 20
2.255461
  0
VERTEX
  8
PLAN_1
 62
     2
  6
CONTINUOUS
 10
-0.319909
 20
2.259102
  0
VERTEX
  8
PLAN_1
 62
     2
  6
CONTINUOUS
 10
-0.316787
 20
2.262220
  0
VERTEX
  8
PLAN_1
 62
     2
  6
CONTINUOUS
 10
-0.312630
 20
2.264303
  0
VERTEX
  8
PLAN_1
 62
     2
  6
CONTINUOUS
 10
-0.310547
 20
2.265343
  0
VERTEX
  8
PLAN_1
 62
     2
  6
CONTINUOUS
 10
-0.307949
 20
2.265862
  0
VERTEX
  8
PLAN_1
 62
     2
  6
CONTINUOUS
 10
-0.305346
 20
2.266382
  0
VERTEX
  8
PLAN_1
 62
     2
  6
CONTINUOUS
 10
-0.302748
 20
2.266382
  0
VERTEX
  8
PLAN_1
 62
     2
  6
CONTINUOUS
 10
-0.299106
 20
2.266382
  0
VERTEX
  8
PLAN_1
 62
     2
  6
CONTINUOUS
 10
-0.294949
 20
2.265343
  0
VERTEX
  8
PLAN_1
 62
     2
  6
CONTINUOUS
 10
-0.290787
 20
2.264303
  0
VERTEX
  8
PLAN_1
 62
     2
  6
CONTINUOUS
 10
-0.286626
 20
2.261701
  0
VERTEX
  8
PLAN_1
 62
     2
  6
CONTINUOUS
 10
-0.284547
 20
2.260142
  0
VERTEX
  8
PLAN_1
 62
     2
  6
CONTINUOUS
 10
-0.282984
 20
2.258583
  0
VERTEX
  8
PLAN_1
 62
     2
  6
CONTINUOUS
 10
-0.281425
 20
2.255980
  0
VERTEX
  8
PLAN_1
 62
     2
  6
CONTINUOUS
 10
-0.279866
 20
2.253902
  0
VERTEX
  8
PLAN_1
 62
     2
  6
CONTINUOUS
 10
-0.278827
 20
2.250780
  0
VERTEX
  8
PLAN_1
 62
     2
  6
CONTINUOUS
 10
-0.277787
 20
2.247661
  0
VERTEX
  8
PLAN_1
 62
     2
  6
CONTINUOUS
 10
-0.277264
 20
2.244020
  0
VERTEX
  8
PLAN_1
 62
     2
  6
CONTINUOUS
 10
-0.276744
 20
2.239858
  0
VERTEX
  8
PLAN_1
 62
     2
  6
CONTINUOUS
 10
-0.277264
 20
2.236220
  0
VERTEX
  8
PLAN_1
 62
     2
  6
CONTINUOUS
 10
-0.277787
 20
2.232579
  0
VERTEX
  8
PLAN_1
 62
     2
  6
CONTINUOUS
 10
-0.278827
 20
2.228937
  0
VERTEX
  8
PLAN_1
 62
     2
  6
CONTINUOUS
 10
-0.280906
 20
2.225299
  0
VERTEX
  8
PLAN_1
 62
     2
  6
CONTINUOUS
 10
-0.283508
 20
2.222177
  0
VERTEX
  8
PLAN_1
 62
     2
  6
CONTINUOUS
 10
-0.287146
 20
2.219579
  0
VERTEX
  8
PLAN_1
 62
     2
  6
CONTINUOUS
 10
-0.289228
 20
2.218539
  0
VERTEX
  8
PLAN_1
 62
     2
  6
CONTINUOUS
 10
-0.291827
 20
2.217496
  0
VERTEX
  8
PLAN_1
 62
     2
  6
CONTINUOUS
 10
-0.294429
 20
2.216976
  0
VERTEX
  8
PLAN_1
 62
     2
  6
CONTINUOUS
 10
-0.297028
 20
2.216457
  0
VERTEX
  8
PLAN_1
 62
     2
  6
CONTINUOUS
 10
-0.297028
 20
2.225819
  0
VERTEX
  8
PLAN_1
 62
     2
  6
CONTINUOUS
 10
-0.293906
 20
2.226339
  0
VERTEX
  8
PLAN_1
 62
     2
  6
CONTINUOUS
 10
-0.291827
 20
2.227378
  0
VERTEX
  8
PLAN_1
 62
     2
  6
CONTINUOUS
 10
-0.289748
 20
2.228937
  0
VERTEX
  8
PLAN_1
 62
     2
  6
CONTINUOUS
 10
-0.287665
 20
2.231020
  0
VERTEX
  8
PLAN_1
 62
     2
  6
CONTINUOUS
 10
-0.286626
 20
2.233098
  0
VERTEX
  8
PLAN_1
 62
     2
  6
CONTINUOUS
 10
-0.285587
 20
2.235701
  0
VERTEX
  8
PLAN_1
 62
     2
  6
CONTINUOUS
 10
-0.285067
 20
2.238299
  0
VERTEX
  8
PLAN_1
 62
     2
  6
CONTINUOUS
 10
-0.285067
 20
2.241421
  0
VERTEX
  8
PLAN_1
 62
     2
  6
CONTINUOUS
 10
-0.285067
 20
2.244539
  0
VERTEX
  8
PLAN_1
 62
     2
  6
CONTINUOUS
 10
-0.286106
 20
2.247661
  0
VERTEX
  8
PLAN_1
 62
     2
  6
CONTINUOUS
 10
-0.287665
 20
2.250260
  0
VERTEX
  8
PLAN_1
 62
     2
  6
CONTINUOUS
 10
-0.289748
 20
2.252343
  0
VERTEX
  8
PLAN_1
 62
     2
  6
CONTINUOUS
 10
-0.292346
 20
2.254421
  0
VERTEX
  8
PLAN_1
 62
     2
  6
CONTINUOUS
 10
-0.294949
 20
2.255461
  0
VERTEX
  8
PLAN_1
 62
     2
  6
CONTINUOUS
 10
-0.298067
 20
2.256500
  0
VERTEX
  8
PLAN_1
 62
     2
  6
CONTINUOUS
 10
-0.301709
 20
2.256500
  0
VERTEX
  8
PLAN_1
 62
     2
  6
CONTINUOUS
 10
-0.305346
 20
2.256500
  0
VERTEX
  8
PLAN_1
 62
     2
  6
CONTINUOUS
 10
-0.308469
 20
2.255461
  0
VERTEX
  8
PLAN_1
 62
     2
  6
CONTINUOUS
 10
-0.311591
 20
2.253902
  0
VERTEX
  8
PLAN_1
 62
     2
  6
CONTINUOUS
 10
-0.313669
 20
2.251819
  0
VERTEX
  8
PLAN_1
 62
     2
  6
CONTINUOUS
 10
-0.315228
 20
2.249740
  0
VERTEX
  8
PLAN_1
 62
     2
  6
CONTINUOUS
 10
-0.316787
 20
2.246622
  0
VERTEX
  8
PLAN_1
 62
     2
  6
CONTINUOUS
 10
-0.317311
 20
2.244020
  0
VERTEX
  8
PLAN_1
 62
     2
  6
CONTINUOUS
 10
-0.317831
 20
2.240378
  0
VERTEX
  8
PLAN_1
 62
     2
  6
CONTINUOUS
 10
-0.317831
 20
2.238299
  0
VERTEX
  8
PLAN_1
 62
     2
  6
CONTINUOUS
 10
-0.317311
 20
2.236740
  0
VERTEX
  8
PLAN_1
 62
     2
  6
CONTINUOUS
 10
-0.316787
 20
2.234657
  0
VERTEX
  8
PLAN_1
 62
     2
  6
CONTINUOUS
 10
-0.316268
 20
2.233098
  0
VERTEX
  8
PLAN_1
 62
     2
  6
CONTINUOUS
 10
-0.315228
 20
2.231539
  0
VERTEX
  8
PLAN_1
 62
     2
  6
CONTINUOUS
 10
-0.313669
 20
2.229980
  0
VERTEX
  8
PLAN_1
 62
     2
  6
CONTINUOUS
 10
-0.312630
 20
2.228417
  0
VERTEX
  8
PLAN_1
 62
     2
  6
CONTINUOUS
 10
-0.311067
 20
2.226858
  0
VERTEX
  8
PLAN_1
 62
     2
  6
CONTINUOUS
 10
-0.311067
 20
2.219059
  0
VERTEX
  8
PLAN_1
 62
     2
  6
CONTINUOUS
 10
-0.350591
 20
2.224780
  0
VERTEX
  8
PLAN_1
 62
     2
  6
CONTINUOUS
 10
-0.350591
 20
2.262220
  0
VERTEX
  8
PLAN_1
 62
     2
  6
CONTINUOUS
 10
-0.341752
 20
2.262220
  0
VERTEX
  8
PLAN_1
 62
     2
  6
CONTINUOUS
 10
-0.341752
 20
2.231539
  0
VERTEX
  8
PLAN_1
 62
     2
  6
CONTINUOUS
 10
-0.321469
 20
2.228417
  0
SEQEND
  8
0
  0
POLYLINE
  8
PLAN_1
 62
     2
  6
CONTINUOUS
 66
     1
 40
0.003000
 41
0.003000
  0
VERTEX
  8
PLAN_1
 62
     2
  6
CONTINUOUS
 10
-0.350591
 20
2.272622
  0
VERTEX
  8
PLAN_1
 62
     2
  6
CONTINUOUS
 10
-0.350591
 20
2.323067
  0
VERTEX
  8
PLAN_1
 62
     2
  6
CONTINUOUS
 10
-0.342272
 20
2.323067
  0
VERTEX
  8
PLAN_1
 62
     2
  6
CONTINUOUS
 10
-0.339150
 20
2.319949
  0
VERTEX
  8
PLAN_1
 62
     2
  6
CONTINUOUS
 10
-0.333953
 20
2.316307
  0
VERTEX
  8
PLAN_1
 62
     2
  6
CONTINUOUS
 10
-0.327709
 20
2.312146
  0
VERTEX
  8
PLAN_1
 62
     2
  6
CONTINUOUS
 10
-0.319909
 20
2.307465
  0
VERTEX
  8
PLAN_1
 62
     2
  6
CONTINUOUS
 10
-0.311591
 20
2.303307
  0
VERTEX
  8
PLAN_1
 62
     2
  6
CONTINUOUS
 10
-0.301709
 20
2.299146
  0
VERTEX
  8
PLAN_1
 62
     2
  6
CONTINUOUS
 10
-0.296508
 20
2.297067
  0
VERTEX
  8
PLAN_1
 62
     2
  6
CONTINUOUS
 10
-0.290787
 20
2.295504
  0
VERTEX
  8
PLAN_1
 62
     2
  6
CONTINUOUS
 10
-0.285067
 20
2.294465
  0
VERTEX
  8
PLAN_1
 62
     2
  6
CONTINUOUS
 10
-0.278827
 20
2.292906
  0
VERTEX
  8
PLAN_1
 62
     2
  6
CONTINUOUS
 10
-0.278827
 20
2.283024
  0
VERTEX
  8
PLAN_1
 62
     2
  6
CONTINUOUS
 10
-0.286626
 20
2.284583
  0
VERTEX
  8
PLAN_1
 62
     2
  6
CONTINUOUS
 10
-0.294949
 20
2.286665
  0
VERTEX
  8
PLAN_1
 62
     2
  6
CONTINUOUS
 10
-0.303268
 20
2.289783
  0
VERTEX
  8
PLAN_1
 62
     2
  6
CONTINUOUS
 10
-0.311591
 20
2.293425
  0
VERTEX
  8
PLAN_1
 62
     2
  6
CONTINUOUS
 10
-0.319909
 20
2.298106
  0
VERTEX
  8
PLAN_1
 62
     2
  6
CONTINUOUS
 10
-0.327709
 20
2.302787
  0
VERTEX
  8
PLAN_1
 62
     2
  6
CONTINUOUS
 10
-0.334992
 20
2.307465
  0
VERTEX
  8
PLAN_1
 62
     2
  6
CONTINUOUS
 10
-0.341752
 20
2.312665
  0
VERTEX
  8
PLAN_1
 62
     2
  6
CONTINUOUS
 10
-0.341752
 20
2.272622
  0
VERTEX
  8
PLAN_1
 62
     2
  6
CONTINUOUS
 10
-0.350591
 20
2.272622
  0
SEQEND
  8
0
  0
POLYLINE
  8
PLAN_1
 62
     2
  6
CONTINUOUS
 66
     1
 40
0.003000
 41
0.003000
  0
VERTEX
  8
PLAN_1
 62
     2
  6
CONTINUOUS
 10
-0.119169
 20
1.725012
  0
VERTEX
  8
PLAN_1
 62
     2
  6
CONTINUOUS
 10
-0.119169
 20
1.715130
  0
VERTEX
  8
PLAN_1
 62
     2
  6
CONTINUOUS
 10
-0.171177
 20
1.715130
  0
VERTEX
  8
PLAN_1
 62
     2
  6
CONTINUOUS
 10
-0.171177
 20
1.697969
  0
VERTEX
  8
PLAN_1
 62
     2
  6
CONTINUOUS
 10
-0.178457
 20
1.697969
  0
VERTEX
  8
PLAN_1
 62
     2
  6
CONTINUOUS
 10
-0.178976
 20
1.702130
  0
VERTEX
  8
PLAN_1
 62
     2
  6
CONTINUOUS
 10
-0.179496
 20
1.705768
  0
VERTEX
  8
PLAN_1
 62
     2
  6
CONTINUOUS
 10
-0.180016
 20
1.708890
  0
VERTEX
  8
PLAN_1
 62
     2
  6
CONTINUOUS
 10
-0.181055
 20
1.710969
  0
VERTEX
  8
PLAN_1
 62
     2
  6
CONTINUOUS
 10
-0.183138
 20
1.713051
  0
VERTEX
  8
PLAN_1
 62
     2
  6
CONTINUOUS
 10
-0.185217
 20
1.715130
  0
VERTEX
  8
PLAN_1
 62
     2
  6
CONTINUOUS
 10
-0.188339
 20
1.716689
  0
VERTEX
  8
PLAN_1
 62
     2
  6
CONTINUOUS
 10
-0.192496
 20
1.717732
  0
VERTEX
  8
PLAN_1
 62
     2
  6
CONTINUOUS
 10
-0.192496
 20
1.725012
  0
VERTEX
  8
PLAN_1
 62
     2
  6
CONTINUOUS
 10
-0.119169
 20
1.725012
  0
SEQEND
  8
0
  0
POLYLINE
  8
PLAN_1
 62
     2
  6
CONTINUOUS
 66
     1
 40
0.003000
 41
0.003000
  0
VERTEX
  8
PLAN_1
 62
     2
  6
CONTINUOUS
 10
-0.190937
 20
1.747374
  0
VERTEX
  8
PLAN_1
 62
     2
  6
CONTINUOUS
 10
-0.190937
 20
1.797819
  0
VERTEX
  8
PLAN_1
 62
     2
  6
CONTINUOUS
 10
-0.182618
 20
1.797819
  0
VERTEX
  8
PLAN_1
 62
     2
  6
CONTINUOUS
 10
-0.179496
 20
1.794697
  0
VERTEX
  8
PLAN_1
 62
     2
  6
CONTINUOUS
 10
-0.174295
 20
1.790539
  0
VERTEX
  8
PLAN_1
 62
     2
  6
CONTINUOUS
 10
-0.168055
 20
1.786378
  0
VERTEX
  8
PLAN_1
 62
     2
  6
CONTINUOUS
 10
-0.160256
 20
1.781697
  0
VERTEX
  8
PLAN_1
 62
     2
  6
CONTINUOUS
 10
-0.151933
 20
1.777535
  0
VERTEX
  8
PLAN_1
 62
     2
  6
CONTINUOUS
 10
-0.142051
 20
1.773378
  0
VERTEX
  8
PLAN_1
 62
     2
  6
CONTINUOUS
 10
-0.136854
 20
1.771815
  0
VERTEX
  8
PLAN_1
 62
     2
  6
CONTINUOUS
 10
-0.131130
 20
1.770256
  0
VERTEX
  8
PLAN_1
 62
     2
  6
CONTINUOUS
 10
-0.125409
 20
1.768697
  0
VERTEX
  8
PLAN_1
 62
     2
  6
CONTINUOUS
 10
-0.119169
 20
1.767654
  0
VERTEX
  8
PLAN_1
 62
     2
  6
CONTINUOUS
 10
-0.119169
 20
1.757776
  0
VERTEX
  8
PLAN_1
 62
     2
  6
CONTINUOUS
 10
-0.126972
 20
1.758815
  0
VERTEX
  8
PLAN_1
 62
     2
  6
CONTINUOUS
 10
-0.135291
 20
1.761413
  0
VERTEX
  8
PLAN_1
 62
     2
  6
CONTINUOUS
 10
-0.143614
 20
1.764535
  0
VERTEX
  8
PLAN_1
 62
     2
  6
CONTINUOUS
 10
-0.151933
 20
1.768177
  0
VERTEX
  8
PLAN_1
 62
     2
  6
CONTINUOUS
 10
-0.160256
 20
1.772335
  0
VERTEX
  8
PLAN_1
 62
     2
  6
CONTINUOUS
 10
-0.168055
 20
1.777016
  0
VERTEX
  8
PLAN_1
 62
     2
  6
CONTINUOUS
 10
-0.175335
 20
1.782217
  0
VERTEX
  8
PLAN_1
 62
     2
  6
CONTINUOUS
 10
-0.182098
 20
1.787417
  0
VERTEX
  8
PLAN_1
 62
     2
  6
CONTINUOUS
 10
-0.182098
 20
1.747374
  0
VERTEX
  8
PLAN_1
 62
     2
  6
CONTINUOUS
 10
-0.190937
 20
1.747374
  0
SEQEND
  8
0
  0
POLYLINE
  8
PLAN_1
 62
     2
  6
CONTINUOUS
 66
     1
 40
0.003000
 41
0.003000
  0
VERTEX
  8
PLAN_1
 62
     2
  6
CONTINUOUS
 10
-0.167535
 20
1.803539
  0
VERTEX
  8
PLAN_1
 62
     2
  6
CONTINUOUS
 10
-0.172217
 20
1.804059
  0
VERTEX
  8
PLAN_1
 62
     2
  6
CONTINUOUS
 10
-0.176898
 20
1.805098
  0
VERTEX
  8
PLAN_1
 62
     2
  6
CONTINUOUS
 10
-0.181055
 20
1.806657
  0
VERTEX
  8
PLAN_1
 62
     2
  6
CONTINUOUS
 10
-0.184697
 20
1.809260
  0
VERTEX
  8
PLAN_1
 62
     2
  6
CONTINUOUS
 10
-0.187819
 20
1.812902
  0
VERTEX
  8
PLAN_1
 62
     2
  6
CONTINUOUS
 10
-0.190417
 20
1.816539
  0
VERTEX
  8
PLAN_1
 62
     2
  6
CONTINUOUS
 10
-0.191457
 20
1.819142
  0
VERTEX
  8
PLAN_1
 62
     2
  6
CONTINUOUS
 10
-0.191976
 20
1.821740
  0
VERTEX
  8
PLAN_1
 62
     2
  6
CONTINUOUS
 10
-0.192496
 20
1.824343
  0
VERTEX
  8
PLAN_1
 62
     2
  6
CONTINUOUS
 10
-0.192496
 20
1.826941
  0
VERTEX
  8
PLAN_1
 62
     2
  6
CONTINUOUS
 10
-0.191976
 20
1.831102
  0
VERTEX
  8
PLAN_1
 62
     2
  6
CONTINUOUS
 10
-0.191457
 20
1.834740
  0
VERTEX
  8
PLAN_1
 62
     2
  6
CONTINUOUS
 10
-0.190417
 20
1.837862
  0
VERTEX
  8
PLAN_1
 62
     2
  6
CONTINUOUS
 10
-0.188858
 20
1.840984
  0
VERTEX
  8
PLAN_1
 62
     2
  6
CONTINUOUS
 10
-0.186776
 20
1.843063
  0
VERTEX
  8
PLAN_1
 62
     2
  6
CONTINUOUS
 10
-0.184697
 20
1.845142
  0
VERTEX
  8
PLAN_1
 62
     2
  6
CONTINUOUS
 10
-0.182618
 20
1.847224
  0
VERTEX
  8
PLAN_1
 62
     2
  6
CONTINUOUS
 10
-0.180016
 20
1.848264
  0
VERTEX
  8
PLAN_1
 62
     2
  6
CONTINUOUS
 10
-0.174295
 20
1.850343
  0
VERTEX
  8
PLAN_1
 62
     2
  6
CONTINUOUS
 10
-0.168575
 20
1.851902
  0
VERTEX
  8
PLAN_1
 62
     2
  6
CONTINUOUS
 10
-0.163374
 20
1.852425
  0
VERTEX
  8
PLAN_1
 62
     2
  6
CONTINUOUS
 10
-0.158693
 20
1.852425
  0
VERTEX
  8
PLAN_1
 62
     2
  6
CONTINUOUS
 10
-0.154535
 20
1.852425
  0
VERTEX
  8
PLAN_1
 62
     2
  6
CONTINUOUS
 10
-0.148815
 20
1.851902
  0
VERTEX
  8
PLAN_1
 62
     2
  6
CONTINUOUS
 10
-0.142051
 20
1.850862
  0
VERTEX
  8
PLAN_1
 62
     2
  6
CONTINUOUS
 10
-0.134772
 20
1.848783
  0
VERTEX
  8
PLAN_1
 62
     2
  6
CONTINUOUS
 10
-0.131654
 20
1.847224
  0
VERTEX
  8
PLAN_1
 62
     2
  6
CONTINUOUS
 10
-0.128531
 20
1.845661
  0
VERTEX
  8
PLAN_1
 62
     2
  6
CONTINUOUS
 10
-0.125409
 20
1.843583
  0
VERTEX
  8
PLAN_1
 62
     2
  6
CONTINUOUS
 10
-0.122811
 20
1.840984
  0
VERTEX
  8
PLAN_1
 62
     2
  6
CONTINUOUS
 10
-0.120213
 20
1.837862
  0
VERTEX
  8
PLAN_1
 62
     2
  6
CONTINUOUS
 10
-0.118650
 20
1.834220
  0
VERTEX
  8
PLAN_1
 62
     2
  6
CONTINUOUS
 10
-0.117610
 20
1.830583
  0
VERTEX
  8
PLAN_1
 62
     2
  6
CONTINUOUS
 10
-0.117091
 20
1.825902
  0
VERTEX
  8
PLAN_1
 62
     2
  6
CONTINUOUS
 10
-0.117610
 20
1.822780
  0
VERTEX
  8
PLAN_1
 62
     2
  6
CONTINUOUS
 10
-0.118130
 20
1.820181
  0
VERTEX
  8
PLAN_1
 62
     2
  6
CONTINUOUS
 10
-0.118650
 20
1.817579
  0
VERTEX
  8
PLAN_1
 62
     2
  6
CONTINUOUS
 10
-0.119169
 20
1.815500
  0
VERTEX
  8
PLAN_1
 62
     2
  6
CONTINUOUS
 10
-0.121772
 20
1.811858
  0
VERTEX
  8
PLAN_1
 62
     2
  6
CONTINUOUS
 10
-0.124370
 20
1.808740
  0
VERTEX
  8
PLAN_1
 62
     2
  6
CONTINUOUS
 10
-0.127492
 20
1.806657
  0
VERTEX
  8
PLAN_1
 62
     2
  6
CONTINUOUS
 10
-0.130610
 20
1.805098
  0
VERTEX
  8
PLAN_1
 62
     2
  6
CONTINUOUS
 10
-0.134252
 20
1.804579
  0
VERTEX
  8
PLAN_1
 62
     2
  6
CONTINUOUS
 10
-0.136854
 20
1.804059
  0
VERTEX
  8
PLAN_1
 62
     2
  6
CONTINUOUS
 10
-0.136854
 20
1.813421
  0
VERTEX
  8
PLAN_1
 62
     2
  6
CONTINUOUS
 10
-0.134252
 20
1.813941
  0
VERTEX
  8
PLAN_1
 62
     2
  6
CONTINUOUS
 10
-0.131654
 20
1.814461
  0
VERTEX
  8
PLAN_1
 62
     2
  6
CONTINUOUS
 10
-0.130091
 20
1.815500
  0
VERTEX
  8
PLAN_1
 62
     2
  6
CONTINUOUS
 10
-0.128012
 20
1.817059
  0
VERTEX
  8
PLAN_1
 62
     2
  6
CONTINUOUS
 10
-0.126972
 20
1.818622
  0
VERTEX
  8
PLAN_1
 62
     2
  6
CONTINUOUS
 10
-0.125933
 20
1.820701
  0
VERTEX
  8
PLAN_1
 62
     2
  6
CONTINUOUS
 10
-0.124890
 20
1.823299
  0
VERTEX
  8
PLAN_1
 62
     2
  6
CONTINUOUS
 10
-0.124890
 20
1.825902
  0
VERTEX
  8
PLAN_1
 62
     2
  6
CONTINUOUS
 10
-0.125409
 20
1.829539
  0
VERTEX
  8
PLAN_1
 62
     2
  6
CONTINUOUS
 10
-0.126453
 20
1.832661
  0
VERTEX
  8
PLAN_1
 62
     2
  6
CONTINUOUS
 10
-0.128531
 20
1.835260
  0
VERTEX
  8
PLAN_1
 62
     2
  6
CONTINUOUS
 10
-0.131654
 20
1.837343
  0
VERTEX
  8
PLAN_1
 62
     2
  6
CONTINUOUS
 10
-0.135291
 20
1.839421
  0
VERTEX
  8
PLAN_1
 62
     2
  6
CONTINUOUS
 10
-0.139972
 20
1.840984
  0
VERTEX
  8
PLAN_1
 62
     2
  6
CONTINUOUS
 10
-0.145693
 20
1.842543
  0
VERTEX
  8
PLAN_1
 62
     2
  6
CONTINUOUS
 10
-0.152453
 20
1.843583
  0
VERTEX
  8
PLAN_1
 62
     2
  6
CONTINUOUS
 10
-0.152453
 20
1.843063
  0
VERTEX
  8
PLAN_1
 62
     2
  6
CONTINUOUS
 10
-0.150374
 20
1.842024
  0
VERTEX
  8
PLAN_1
 62
     2
  6
CONTINUOUS
 10
-0.148815
 20
1.840461
  0
VERTEX
  8
PLAN_1
 62
     2
  6
CONTINUOUS
 10
-0.147252
 20
1.838382
  0
VERTEX
  8
PLAN_1
 62
     2
  6
CONTINUOUS
 10
-0.146213
 20
1.836303
  0
VERTEX
  8
PLAN_1
 62
     2
  6
CONTINUOUS
 10
-0.145173
 20
1.834220
  0
VERTEX
  8
PLAN_1
 62
     2
  6
CONTINUOUS
 10
-0.144134
 20
1.831622
  0
VERTEX
  8
PLAN_1
 62
     2
  6
CONTINUOUS
 10
-0.144134
 20
1.829020
  0
VERTEX
  8
PLAN_1
 62
     2
  6
CONTINUOUS
 10
-0.143614
 20
1.826421
  0
VERTEX
  8
PLAN_1
 62
     2
  6
CONTINUOUS
 10
-0.144134
 20
1.821740
  0
VERTEX
  8
PLAN_1
 62
     2
  6
CONTINUOUS
 10
-0.145173
 20
1.817059
  0
VERTEX
  8
PLAN_1
 62
     2
  6
CONTINUOUS
 10
-0.147252
 20
1.813421
  0
VERTEX
  8
PLAN_1
 62
     2
  6
CONTINUOUS
 10
-0.149854
 20
1.809780
  0
VERTEX
  8
PLAN_1
 62
     2
  6
CONTINUOUS
 10
-0.153492
 20
1.807181
  0
VERTEX
  8
PLAN_1
 62
     2
  6
CONTINUOUS
 10
-0.157654
 20
1.805098
  0
VERTEX
  8
PLAN_1
 62
     2
  6
CONTINUOUS
 10
-0.162335
 20
1.804059
  0
VERTEX
  8
PLAN_1
 62
     2
  6
CONTINUOUS
 10
-0.167535
 20
1.803539
  0
SEQEND
  8
0
  0
POLYLINE
  8
PLAN_1
 62
     2
  6
CONTINUOUS
 66
     1
 40
0.003000
 41
0.003000
  0
VERTEX
  8
PLAN_1
 62
     2
  6
CONTINUOUS
 10
-0.168575
 20
1.842024
  0
VERTEX
  8
PLAN_1
 62
     2
  6
CONTINUOUS
 10
-0.171697
 20
1.841504
  0
VERTEX
  8
PLAN_1
 62
     2
  6
CONTINUOUS
 10
-0.174815
 20
1.840984
  0
VERTEX
  8
PLAN_1
 62
     2
  6
CONTINUOUS
 10
-0.177417
 20
1.839941
  0
VERTEX
  8
PLAN_1
 62
     2
  6
CONTINUOUS
 10
-0.179496
 20
1.838382
  0
VERTEX
  8
PLAN_1
 62
     2
  6
CONTINUOUS
 10
-0.181575
 20
1.836303
  0
VERTEX
  8
PLAN_1
 62
     2
  6
CONTINUOUS
 10
-0.183138
 20
1.833701
  0
VERTEX
  8
PLAN_1
 62
     2
  6
CONTINUOUS
 10
-0.183657
 20
1.830583
  0
VERTEX
  8
PLAN_1
 62
     2
  6
CONTINUOUS
 10
-0.184177
 20
1.826941
  0
VERTEX
  8
PLAN_1
 62
     2
  6
CONTINUOUS
 10
-0.183657
 20
1.823819
  0
VERTEX
  8
PLAN_1
 62
     2
  6
CONTINUOUS
 10
-0.183138
 20
1.821220
  0
VERTEX
  8
PLAN_1
 62
     2
  6
CONTINUOUS
 10
-0.181575
 20
1.818622
  0
VERTEX
  8
PLAN_1
 62
     2
  6
CONTINUOUS
 10
-0.179496
 20
1.816539
  0
VERTEX
  8
PLAN_1
 62
     2
  6
CONTINUOUS
 10
-0.177417
 20
1.814980
  0
VERTEX
  8
PLAN_1
 62
     2
  6
CONTINUOUS
 10
-0.174295
 20
1.813941
  0
VERTEX
  8
PLAN_1
 62
     2
  6
CONTINUOUS
 10
-0.171177
 20
1.813421
  0
VERTEX
  8
PLAN_1
 62
     2
  6
CONTINUOUS
 10
-0.167535
 20
1.812902
  0
VERTEX
  8
PLAN_1
 62
     2
  6
CONTINUOUS
 10
-0.162854
 20
1.813421
  0
VERTEX
  8
PLAN_1
 62
     2
  6
CONTINUOUS
 10
-0.159213
 20
1.814461
  0
VERTEX
  8
PLAN_1
 62
     2
  6
CONTINUOUS
 10
-0.156614
 20
1.816020
  0
VERTEX
  8
PLAN_1
 62
     2
  6
CONTINUOUS
 10
-0.154535
 20
1.818098
  0
VERTEX
  8
PLAN_1
 62
     2
  6
CONTINUOUS
 10
-0.153492
 20
1.820181
  0
VERTEX
  8
PLAN_1
 62
     2
  6
CONTINUOUS
 10
-0.152453
 20
1.822780
  0
VERTEX
  8
PLAN_1
 62
     2
  6
CONTINUOUS
 10
-0.151933
 20
1.825382
  0
VERTEX
  8
PLAN_1
 62
     2
  6
CONTINUOUS
 10
-0.151933
 20
1.827980
  0
VERTEX
  8
PLAN_1
 62
     2
  6
CONTINUOUS
 10
-0.151933
 20
1.829539
  0
VERTEX
  8
PLAN_1
 62
     2
  6
CONTINUOUS
 10
-0.152453
 20
1.832142
  0
VERTEX
  8
PLAN_1
 62
     2
  6
CONTINUOUS
 10
-0.153492
 20
1.834220
  0
VERTEX
  8
PLAN_1
 62
     2
  6
CONTINUOUS
 10
-0.155055
 20
1.836823
  0
VERTEX
  8
PLAN_1
 62
     2
  6
CONTINUOUS
 10
-0.157134
 20
1.838902
  0
VERTEX
  8
PLAN_1
 62
     2
  6
CONTINUOUS
 10
-0.159736
 20
1.840461
  0
VERTEX
  8
PLAN_1
 62
     2
  6
CONTINUOUS
 10
-0.163894
 20
1.841504
  0
VERTEX
  8
PLAN_1
 62
     2
  6
CONTINUOUS
 10
-0.168575
 20
1.842024
  0
SEQEND
  8
0
  0
POLYLINE
  8
PLAN_1
 62
     2
  6
CONTINUOUS
 66
     1
 40
0.004157
 41
0.004157
  0
VERTEX
  8
PLAN_1
 62
     2
  6
CONTINUOUS
 10
-0.360472
 20
-0.603768
  0
VERTEX
  8
PLAN_1
 62
     2
  6
CONTINUOUS
 10
-0.073406
 20
-0.603768
  0
SEQEND
  8
0
  0
POLYLINE
  8
PLAN_1
 62
     2
  6
CONTINUOUS
 66
     1
 40
0.004157
 41
0.004157
  0
VERTEX
  8
PLAN_1
 62
     2
  6
CONTINUOUS
 10
-0.707866
 20
0.332323
  0
VERTEX
  8
PLAN_1
 62
     2
  6
CONTINUOUS
 10
-0.231500
 20
0.332323
  0
SEQEND
  8
0
  0
POLYLINE
  8
PLAN_1
 62
     2
  6
CONTINUOUS
 66
     1
 40
0.004157
 41
0.004157
  0
VERTEX
  8
PLAN_1
 62
     2
  6
CONTINUOUS
 10
-1.009496
 20
4.157799
  0
VERTEX
  8
PLAN_1
 62
     2
  6
CONTINUOUS
 10
-0.073406
 20
4.157799
  0
SEQEND
  8
0
  0
ENDSEC
  0
EOF
