  0
SECTION
  2
HEADER
  9
$ACADVER
  1
AC1006
  9
$EXTMIN
 10
-2.229000
 20
-4.169500
  9
$EXTMAX
 10
2.230000
 20
4.168000
  9
$LTSCALE
 40
0.000394
  9
$PDMODE
 70
    35
  9
$PDSIZE
 40
0.000315
  0
ENDSEC
  0
SECTION
  2
TABLES
  0
TABLE
  2
LTYPE
 70
     9
  0
LTYPE
  2
CONTINUOUS
 70
    64
  3
Solid line
 72
    65
 73
     0
 40
0.000000
  0
LTYPE
  2
DASHED
 70
    64
  3
__ __ __ __ __ __ __ __ __ __ __ __ __ __ __
 72
    65
 73
     2
 40
0.000003
 49
0.000002
 49
-0.000001
  0
LTYPE
  2
HIDDEN
 70
    64
  3
 _ _ _ _ _ _ _ _ _ _ _ _ _ _ _ _ _ _ _ _ _ _
 72
    65
 73
     2
 40
0.000001
 49
0.000001
 49
-0.000000
  0
LTYPE
  2
CENTER
 70
    64
  3
____ _ ____ _ ____ _ ____ _ ____ _ ____ _ ____
 72
    65
 73
     4
 40
0.000008
 49
0.000005
 49
-0.000001
 49
0.000001
 49
-0.000001
  0
LTYPE
  2
PHANTOM
 70
    64
  3
_____ _ _ _____ _ _ _____ _ _ _____ _ _ ____
 72
    65
 73
     6
 40
0.000010
 49
0.000005
 49
-0.000001
 49
0.000001
 49
-0.000001
 49
0.000001
 49
-0.000001
  0
LTYPE
  2
DOT
 70
    64
  3
...............................................
 72
    65
 73
     2
 40
0.000001
 49
0.000000
 49
-0.000001
  0
LTYPE
  2
DASHDOT
 70
    64
  3
__ . __ . __ . __ . __ . __ . __ . __ . __ . __
 72
    65
 73
     4
 40
0.000004
 49
0.000002
 49
-0.000001
 49
0.000000
 49
-0.000001
  0
LTYPE
  2
BORDER
 70
    64
  3
__ __ . __ __ . __ __ . __ __ . __ __ . __ __
 72
    65
 73
     6
 40
0.000007
 49
0.000002
 49
-0.000001
 49
0.000002
 49
-0.000001
 49
0.000000
 49
-0.000001
  0
LTYPE
  2
DIVIDE
 70
    64
  3
__ . . __ . . __ . . __ . . __ . . __ . . __
 72
    65
 73
     6
 40
0.000005
 49
0.000002
 49
-0.000001
 49
0.000000
 49
-0.000001
 49
0.000000
 49
-0.000001
  0
LTYPE
  2
DOTDOT
 70
    64
  3
 . .  . .  . .  . .  . .  . . 
 72
    65
 73
     5
 40
0.000002
 49
-0.000001
 49
0.000000
 49
-0.000001
 49
0.000000
 49
-0.000001
  0
ENDTAB
  0
TABLE
  2
STYLE
 70
     0
  0
ENDTAB
  0
TABLE
  2
LAYER
 70
     3
  0
LAYER
  2
FOREGROUND
 70
    64
 62
     7
  6
CONTINUOUS
  0
LAYER
  2
BACKGROUND
 70
    65
 62
    -7
  6
CONTINUOUS
  0
LAYER
  2
PLAN_1
 70
    64
 62
     7
  6
CONTINUOUS
  0
ENDTAB
  0
ENDSEC
  0
SECTION
  2
ENTITIES
  0
POLYLINE
  8
PLAN_1
  6
CONTINUOUS
 66
     1
 40
0.003000
 41
0.003000
  0
VERTEX
  8
PLAN_1
  6
CONTINUOUS
 10
0.243071
 20
-4.164291
  0
VERTEX
  8
PLAN_1
  6
CONTINUOUS
 10
0.209720
 20
-4.164291
  0
VERTEX
  8
PLAN_1
  6
CONTINUOUS
 10
0.156567
 20
-4.082480
  0
VERTEX
  8
PLAN_1
  6
CONTINUOUS
 10
0.101331
 20
-4.164291
  0
VERTEX
  8
PLAN_1
  6
CONTINUOUS
 10
0.068504
 20
-4.164291
  0
VERTEX
  8
PLAN_1
  6
CONTINUOUS
 10
0.139894
 20
-4.062157
  0
VERTEX
  8
PLAN_1
  6
CONTINUOUS
 10
0.073193
 20
-3.964713
  0
VERTEX
  8
PLAN_1
  6
CONTINUOUS
 10
0.107063
 20
-3.964713
  0
VERTEX
  8
PLAN_1
  6
CONTINUOUS
 10
0.157610
 20
-4.041311
  0
VERTEX
  8
PLAN_1
  6
CONTINUOUS
 10
0.208157
 20
-3.964713
  0
VERTEX
  8
PLAN_1
  6
CONTINUOUS
 10
0.239941
 20
-3.964713
  0
VERTEX
  8
PLAN_1
  6
CONTINUOUS
 10
0.173244
 20
-4.062157
  0
VERTEX
  8
PLAN_1
  6
CONTINUOUS
 10
0.243071
 20
-4.164291
  0
SEQEND
  8
0
  0
POLYLINE
  8
PLAN_1
  6
CONTINUOUS
 66
     1
 40
0.003000
 41
0.003000
  0
VERTEX
  8
PLAN_1
  6
CONTINUOUS
 10
0.409299
 20
-4.025157
  0
VERTEX
  8
PLAN_1
  6
CONTINUOUS
 10
0.407736
 20
-4.018906
  0
VERTEX
  8
PLAN_1
  6
CONTINUOUS
 10
0.405650
 20
-4.013173
  0
VERTEX
  8
PLAN_1
  6
CONTINUOUS
 10
0.403043
 20
-4.007961
  0
VERTEX
  8
PLAN_1
  6
CONTINUOUS
 10
0.400441
 20
-4.003795
  0
VERTEX
  8
PLAN_1
  6
CONTINUOUS
 10
0.397311
 20
-3.999626
  0
VERTEX
  8
PLAN_1
  6
CONTINUOUS
 10
0.393665
 20
-3.996500
  0
VERTEX
  8
PLAN_1
  6
CONTINUOUS
 10
0.390016
 20
-3.993370
  0
VERTEX
  8
PLAN_1
  6
CONTINUOUS
 10
0.385850
 20
-3.991287
  0
VERTEX
  8
PLAN_1
  6
CONTINUOUS
 10
0.381681
 20
-3.989205
  0
VERTEX
  8
PLAN_1
  6
CONTINUOUS
 10
0.378031
 20
-3.987638
  0
VERTEX
  8
PLAN_1
  6
CONTINUOUS
 10
0.373862
 20
-3.986075
  0
VERTEX
  8
PLAN_1
  6
CONTINUOUS
 10
0.369697
 20
-3.985035
  0
VERTEX
  8
PLAN_1
  6
CONTINUOUS
 10
0.361358
 20
-3.983992
  0
VERTEX
  8
PLAN_1
  6
CONTINUOUS
 10
0.353539
 20
-3.983472
  0
VERTEX
  8
PLAN_1
  6
CONTINUOUS
 10
0.347287
 20
-3.983992
  0
VERTEX
  8
PLAN_1
  6
CONTINUOUS
 10
0.340512
 20
-3.985035
  0
VERTEX
  8
PLAN_1
  6
CONTINUOUS
 10
0.334260
 20
-3.986598
  0
VERTEX
  8
PLAN_1
  6
CONTINUOUS
 10
0.328528
 20
-3.988681
  0
VERTEX
  8
PLAN_1
  6
CONTINUOUS
 10
0.322795
 20
-3.991287
  0
VERTEX
  8
PLAN_1
  6
CONTINUOUS
 10
0.317063
 20
-3.994933
  0
VERTEX
  8
PLAN_1
  6
CONTINUOUS
 10
0.312374
 20
-3.998583
  0
VERTEX
  8
PLAN_1
  6
CONTINUOUS
 10
0.307685
 20
-4.003272
  0
VERTEX
  8
PLAN_1
  6
CONTINUOUS
 10
0.303516
 20
-4.008484
  0
VERTEX
  8
PLAN_1
  6
CONTINUOUS
 10
0.299870
 20
-4.014736
  0
VERTEX
  8
PLAN_1
  6
CONTINUOUS
 10
0.296220
 20
-4.020988
  0
VERTEX
  8
PLAN_1
  6
CONTINUOUS
 10
0.293614
 20
-4.028283
  0
VERTEX
  8
PLAN_1
  6
CONTINUOUS
 10
0.291531
 20
-4.036102
  0
VERTEX
  8
PLAN_1
  6
CONTINUOUS
 10
0.289969
 20
-4.044437
  0
VERTEX
  8
PLAN_1
  6
CONTINUOUS
 10
0.288925
 20
-4.053299
  0
VERTEX
  8
PLAN_1
  6
CONTINUOUS
 10
0.288406
 20
-4.062677
  0
VERTEX
  8
PLAN_1
  6
CONTINUOUS
 10
0.288925
 20
-4.071535
  0
VERTEX
  8
PLAN_1
  6
CONTINUOUS
 10
0.289445
 20
-4.079874
  0
VERTEX
  8
PLAN_1
  6
CONTINUOUS
 10
0.290488
 20
-4.087689
  0
VERTEX
  8
PLAN_1
  6
CONTINUOUS
 10
0.292051
 20
-4.095508
  0
VERTEX
  8
PLAN_1
  6
CONTINUOUS
 10
0.293614
 20
-4.102803
  0
VERTEX
  8
PLAN_1
  6
CONTINUOUS
 10
0.296220
 20
-4.109575
  0
VERTEX
  8
PLAN_1
  6
CONTINUOUS
 10
0.299346
 20
-4.115831
  0
VERTEX
  8
PLAN_1
  6
CONTINUOUS
 10
0.302996
 20
-4.121559
  0
VERTEX
  8
PLAN_1
  6
CONTINUOUS
 10
0.307165
 20
-4.127291
  0
VERTEX
  8
PLAN_1
  6
CONTINUOUS
 10
0.311854
 20
-4.131984
  0
VERTEX
  8
PLAN_1
  6
CONTINUOUS
 10
0.317587
 20
-4.135630
  0
VERTEX
  8
PLAN_1
  6
CONTINUOUS
 10
0.323319
 20
-4.139280
  0
VERTEX
  8
PLAN_1
  6
CONTINUOUS
 10
0.330091
 20
-4.141882
  0
VERTEX
  8
PLAN_1
  6
CONTINUOUS
 10
0.337386
 20
-4.143969
  0
VERTEX
  8
PLAN_1
  6
CONTINUOUS
 10
0.345724
 20
-4.145012
  0
VERTEX
  8
PLAN_1
  6
CONTINUOUS
 10
0.354583
 20
-4.145531
  0
VERTEX
  8
PLAN_1
  6
CONTINUOUS
 10
0.361878
 20
-4.145012
  0
VERTEX
  8
PLAN_1
  6
CONTINUOUS
 10
0.369697
 20
-4.143445
  0
VERTEX
  8
PLAN_1
  6
CONTINUOUS
 10
0.373862
 20
-4.142406
  0
VERTEX
  8
PLAN_1
  6
CONTINUOUS
 10
0.378031
 20
-4.140319
  0
VERTEX
  8
PLAN_1
  6
CONTINUOUS
 10
0.382201
 20
-4.138236
  0
VERTEX
  8
PLAN_1
  6
CONTINUOUS
 10
0.386370
 20
-4.135630
  0
VERTEX
  8
PLAN_1
  6
CONTINUOUS
 10
0.390016
 20
-4.132504
  0
VERTEX
  8
PLAN_1
  6
CONTINUOUS
 10
0.394185
 20
-4.128854
  0
VERTEX
  8
PLAN_1
  6
CONTINUOUS
 10
0.397835
 20
-4.124165
  0
VERTEX
  8
PLAN_1
  6
CONTINUOUS
 10
0.400961
 20
-4.118957
  0
VERTEX
  8
PLAN_1
  6
CONTINUOUS
 10
0.404087
 20
-4.113224
  0
VERTEX
  8
PLAN_1
  6
CONTINUOUS
 10
0.407213
 20
-4.106449
  0
VERTEX
  8
PLAN_1
  6
CONTINUOUS
 10
0.409299
 20
-4.099154
  0
VERTEX
  8
PLAN_1
  6
CONTINUOUS
 10
0.411382
 20
-4.090815
  0
VERTEX
  8
PLAN_1
  6
CONTINUOUS
 10
0.437437
 20
-4.090815
  0
VERTEX
  8
PLAN_1
  6
CONTINUOUS
 10
0.436394
 20
-4.097591
  0
VERTEX
  8
PLAN_1
  6
CONTINUOUS
 10
0.434831
 20
-4.104366
  0
VERTEX
  8
PLAN_1
  6
CONTINUOUS
 10
0.433268
 20
-4.110098
  0
VERTEX
  8
PLAN_1
  6
CONTINUOUS
 10
0.431185
 20
-4.115831
  0
VERTEX
  8
PLAN_1
  6
CONTINUOUS
 10
0.429098
 20
-4.121039
  0
VERTEX
  8
PLAN_1
  6
CONTINUOUS
 10
0.426496
 20
-4.126252
  0
VERTEX
  8
PLAN_1
  6
CONTINUOUS
 10
0.423890
 20
-4.130941
  0
VERTEX
  8
PLAN_1
  6
CONTINUOUS
 10
0.421283
 20
-4.135110
  0
VERTEX
  8
PLAN_1
  6
CONTINUOUS
 10
0.418677
 20
-4.138756
  0
VERTEX
  8
PLAN_1
  6
CONTINUOUS
 10
0.415551
 20
-4.142406
  0
VERTEX
  8
PLAN_1
  6
CONTINUOUS
 10
0.412425
 20
-4.146051
  0
VERTEX
  8
PLAN_1
  6
CONTINUOUS
 10
0.408776
 20
-4.148657
  0
VERTEX
  8
PLAN_1
  6
CONTINUOUS
 10
0.402524
 20
-4.154390
  0
VERTEX
  8
PLAN_1
  6
CONTINUOUS
 10
0.395228
 20
-4.158559
  0
VERTEX
  8
PLAN_1
  6
CONTINUOUS
 10
0.388453
 20
-4.161685
  0
VERTEX
  8
PLAN_1
  6
CONTINUOUS
 10
0.381681
 20
-4.164291
  0
VERTEX
  8
PLAN_1
  6
CONTINUOUS
 10
0.374906
 20
-4.166374
  0
VERTEX
  8
PLAN_1
  6
CONTINUOUS
 10
0.368654
 20
-4.167937
  0
VERTEX
  8
PLAN_1
  6
CONTINUOUS
 10
0.358232
 20
-4.168980
  0
VERTEX
  8
PLAN_1
  6
CONTINUOUS
 10
0.350413
 20
-4.169500
  0
VERTEX
  8
PLAN_1
  6
CONTINUOUS
 10
0.342079
 20
-4.168980
  0
VERTEX
  8
PLAN_1
  6
CONTINUOUS
 10
0.333740
 20
-4.167937
  0
VERTEX
  8
PLAN_1
  6
CONTINUOUS
 10
0.325402
 20
-4.166374
  0
VERTEX
  8
PLAN_1
  6
CONTINUOUS
 10
0.317063
 20
-4.163768
  0
VERTEX
  8
PLAN_1
  6
CONTINUOUS
 10
0.309768
 20
-4.160122
  0
VERTEX
  8
PLAN_1
  6
CONTINUOUS
 10
0.301953
 20
-4.155953
  0
VERTEX
  8
PLAN_1
  6
CONTINUOUS
 10
0.295177
 20
-4.151264
  0
VERTEX
  8
PLAN_1
  6
CONTINUOUS
 10
0.288406
 20
-4.145012
  0
VERTEX
  8
PLAN_1
  6
CONTINUOUS
 10
0.285280
 20
-4.141882
  0
VERTEX
  8
PLAN_1
  6
CONTINUOUS
 10
0.282673
 20
-4.138236
  0
VERTEX
  8
PLAN_1
  6
CONTINUOUS
 10
0.279547
 20
-4.134587
  0
VERTEX
  8
PLAN_1
  6
CONTINUOUS
 10
0.276941
 20
-4.130941
  0
VERTEX
  8
PLAN_1
  6
CONTINUOUS
 10
0.274854
 20
-4.126252
  0
VERTEX
  8
PLAN_1
  6
CONTINUOUS
 10
0.272252
 20
-4.122083
  0
VERTEX
  8
PLAN_1
  6
CONTINUOUS
 10
0.270165
 20
-4.117394
  0
VERTEX
  8
PLAN_1
  6
CONTINUOUS
 10
0.268602
 20
-4.112181
  0
VERTEX
  8
PLAN_1
  6
CONTINUOUS
 10
0.266520
 20
-4.106969
  0
VERTEX
  8
PLAN_1
  6
CONTINUOUS
 10
0.264957
 20
-4.101760
  0
VERTEX
  8
PLAN_1
  6
CONTINUOUS
 10
0.263913
 20
-4.096028
  0
VERTEX
  8
PLAN_1
  6
CONTINUOUS
 10
0.262870
 20
-4.090295
  0
VERTEX
  8
PLAN_1
  6
CONTINUOUS
 10
0.261827
 20
-4.084043
  0
VERTEX
  8
PLAN_1
  6
CONTINUOUS
 10
0.261307
 20
-4.077268
  0
VERTEX
  8
PLAN_1
  6
CONTINUOUS
 10
0.260787
 20
-4.070492
  0
VERTEX
  8
PLAN_1
  6
CONTINUOUS
 10
0.260787
 20
-4.063720
  0
VERTEX
  8
PLAN_1
  6
CONTINUOUS
 10
0.261307
 20
-4.052256
  0
VERTEX
  8
PLAN_1
  6
CONTINUOUS
 10
0.262350
 20
-4.041311
  0
VERTEX
  8
PLAN_1
  6
CONTINUOUS
 10
0.264433
 20
-4.030890
  0
VERTEX
  8
PLAN_1
  6
CONTINUOUS
 10
0.267039
 20
-4.021512
  0
VERTEX
  8
PLAN_1
  6
CONTINUOUS
 10
0.270689
 20
-4.012130
  0
VERTEX
  8
PLAN_1
  6
CONTINUOUS
 10
0.274854
 20
-4.003795
  0
VERTEX
  8
PLAN_1
  6
CONTINUOUS
 10
0.280067
 20
-3.995976
  0
VERTEX
  8
PLAN_1
  6
CONTINUOUS
 10
0.285280
 20
-3.988681
  0
VERTEX
  8
PLAN_1
  6
CONTINUOUS
 10
0.292051
 20
-3.981909
  0
VERTEX
  8
PLAN_1
  6
CONTINUOUS
 10
0.298827
 20
-3.976177
  0
VERTEX
  8
PLAN_1
  6
CONTINUOUS
 10
0.306642
 20
-3.971484
  0
VERTEX
  8
PLAN_1
  6
CONTINUOUS
 10
0.314980
 20
-3.967319
  0
VERTEX
  8
PLAN_1
  6
CONTINUOUS
 10
0.323839
 20
-3.964189
  0
VERTEX
  8
PLAN_1
  6
CONTINUOUS
 10
0.333217
 20
-3.961587
  0
VERTEX
  8
PLAN_1
  6
CONTINUOUS
 10
0.343118
 20
-3.960024
  0
VERTEX
  8
PLAN_1
  6
CONTINUOUS
 10
0.353539
 20
-3.959500
  0
VERTEX
  8
PLAN_1
  6
CONTINUOUS
 10
0.362921
 20
-3.960024
  0
VERTEX
  8
PLAN_1
  6
CONTINUOUS
 10
0.371780
 20
-3.961063
  0
VERTEX
  8
PLAN_1
  6
CONTINUOUS
 10
0.380118
 20
-3.962626
  0
VERTEX
  8
PLAN_1
  6
CONTINUOUS
 10
0.387413
 20
-3.965232
  0
VERTEX
  8
PLAN_1
  6
CONTINUOUS
 10
0.394709
 20
-3.968358
  0
VERTEX
  8
PLAN_1
  6
CONTINUOUS
 10
0.400961
 20
-3.971484
  0
VERTEX
  8
PLAN_1
  6
CONTINUOUS
 10
0.407213
 20
-3.975654
  0
VERTEX
  8
PLAN_1
  6
CONTINUOUS
 10
0.412425
 20
-3.979823
  0
VERTEX
  8
PLAN_1
  6
CONTINUOUS
 10
0.417114
 20
-3.984512
  0
VERTEX
  8
PLAN_1
  6
CONTINUOUS
 10
0.421283
 20
-3.989724
  0
VERTEX
  8
PLAN_1
  6
CONTINUOUS
 10
0.425453
 20
-3.994933
  0
VERTEX
  8
PLAN_1
  6
CONTINUOUS
 10
0.428579
 20
-4.000665
  0
VERTEX
  8
PLAN_1
  6
CONTINUOUS
 10
0.431185
 20
-4.006398
  0
VERTEX
  8
PLAN_1
  6
CONTINUOUS
 10
0.433268
 20
-4.012654
  0
VERTEX
  8
PLAN_1
  6
CONTINUOUS
 10
0.434831
 20
-4.018906
  0
VERTEX
  8
PLAN_1
  6
CONTINUOUS
 10
0.435354
 20
-4.025157
  0
VERTEX
  8
PLAN_1
  6
CONTINUOUS
 10
0.409299
 20
-4.025157
  0
SEQEND
  8
0
  0
POLYLINE
  8
PLAN_1
  6
CONTINUOUS
 66
     1
 40
0.003000
 41
0.003000
  0
VERTEX
  8
PLAN_1
  6
CONTINUOUS
 10
0.496843
 20
-4.164291
  0
VERTEX
  8
PLAN_1
  6
CONTINUOUS
 10
0.470268
 20
-4.164291
  0
VERTEX
  8
PLAN_1
  6
CONTINUOUS
 10
0.470268
 20
-3.964713
  0
VERTEX
  8
PLAN_1
  6
CONTINUOUS
 10
0.496843
 20
-3.964713
  0
VERTEX
  8
PLAN_1
  6
CONTINUOUS
 10
0.496843
 20
-4.061634
  0
VERTEX
  8
PLAN_1
  6
CONTINUOUS
 10
0.593764
 20
-3.964713
  0
VERTEX
  8
PLAN_1
  6
CONTINUOUS
 10
0.630764
 20
-3.964713
  0
VERTEX
  8
PLAN_1
  6
CONTINUOUS
 10
0.547909
 20
-4.045480
  0
VERTEX
  8
PLAN_1
  6
CONTINUOUS
 10
0.632846
 20
-4.164291
  0
VERTEX
  8
PLAN_1
  6
CONTINUOUS
 10
0.597933
 20
-4.164291
  0
VERTEX
  8
PLAN_1
  6
CONTINUOUS
 10
0.528630
 20
-4.064240
  0
VERTEX
  8
PLAN_1
  6
CONTINUOUS
 10
0.496843
 20
-4.094465
  0
VERTEX
  8
PLAN_1
  6
CONTINUOUS
 10
0.496843
 20
-4.164291
  0
SEQEND
  8
0
  0
POLYLINE
  8
PLAN_1
  6
CONTINUOUS
 66
     1
 40
0.003000
 41
0.003000
  0
VERTEX
  8
PLAN_1
  6
CONTINUOUS
 10
0.682350
 20
-4.140319
  0
VERTEX
  8
PLAN_1
  6
CONTINUOUS
 10
0.783445
 20
-4.140319
  0
VERTEX
  8
PLAN_1
  6
CONTINUOUS
 10
0.783445
 20
-4.164291
  0
VERTEX
  8
PLAN_1
  6
CONTINUOUS
 10
0.655256
 20
-4.164291
  0
VERTEX
  8
PLAN_1
  6
CONTINUOUS
 10
0.655256
 20
-3.964713
  0
VERTEX
  8
PLAN_1
  6
CONTINUOUS
 10
0.682350
 20
-3.964713
  0
VERTEX
  8
PLAN_1
  6
CONTINUOUS
 10
0.682350
 20
-4.140319
  0
SEQEND
  8
0
  0
POLYLINE
  8
PLAN_1
  6
CONTINUOUS
 66
     1
 40
0.003000
 41
0.003000
  0
VERTEX
  8
PLAN_1
  6
CONTINUOUS
 10
0.972079
 20
-4.010047
  0
VERTEX
  8
PLAN_1
  6
CONTINUOUS
 10
0.991358
 20
-4.010047
  0
VERTEX
  8
PLAN_1
  6
CONTINUOUS
 10
0.987193
 20
-4.024638
  0
VERTEX
  8
PLAN_1
  6
CONTINUOUS
 10
0.983024
 20
-4.039228
  0
VERTEX
  8
PLAN_1
  6
CONTINUOUS
 10
0.978854
 20
-4.053819
  0
VERTEX
  8
PLAN_1
  6
CONTINUOUS
 10
0.974685
 20
-4.066846
  0
VERTEX
  8
PLAN_1
  6
CONTINUOUS
 10
0.971035
 20
-4.078831
  0
VERTEX
  8
PLAN_1
  6
CONTINUOUS
 10
0.968433
 20
-4.088732
  0
VERTEX
  8
PLAN_1
  6
CONTINUOUS
 10
0.966870
 20
-4.096028
  0
VERTEX
  8
PLAN_1
  6
CONTINUOUS
 10
0.966346
 20
-4.100197
  0
VERTEX
  8
PLAN_1
  6
CONTINUOUS
 10
0.966346
 20
-4.102280
  0
VERTEX
  8
PLAN_1
  6
CONTINUOUS
 10
0.966346
 20
-4.103843
  0
VERTEX
  8
PLAN_1
  6
CONTINUOUS
 10
0.966870
 20
-4.105406
  0
VERTEX
  8
PLAN_1
  6
CONTINUOUS
 10
0.967390
 20
-4.106449
  0
VERTEX
  8
PLAN_1
  6
CONTINUOUS
 10
0.968433
 20
-4.107492
  0
VERTEX
  8
PLAN_1
  6
CONTINUOUS
 10
0.969472
 20
-4.108012
  0
VERTEX
  8
PLAN_1
  6
CONTINUOUS
 10
0.970516
 20
-4.108535
  0
VERTEX
  8
PLAN_1
  6
CONTINUOUS
 10
0.972079
 20
-4.108535
  0
VERTEX
  8
PLAN_1
  6
CONTINUOUS
 10
0.975728
 20
-4.108012
  0
VERTEX
  8
PLAN_1
  6
CONTINUOUS
 10
0.978854
 20
-4.106969
  0
VERTEX
  8
PLAN_1
  6
CONTINUOUS
 10
0.982500
 20
-4.105406
  0
VERTEX
  8
PLAN_1
  6
CONTINUOUS
 10
0.986150
 20
-4.103323
  0
VERTEX
  8
PLAN_1
  6
CONTINUOUS
 10
0.989276
 20
-4.100717
  0
VERTEX
  8
PLAN_1
  6
CONTINUOUS
 10
0.992921
 20
-4.097071
  0
VERTEX
  8
PLAN_1
  6
CONTINUOUS
 10
0.996051
 20
-4.093421
  0
VERTEX
  8
PLAN_1
  6
CONTINUOUS
 10
0.998654
 20
-4.089776
  0
VERTEX
  8
PLAN_1
  6
CONTINUOUS
 10
1.001260
 20
-4.085083
  0
VERTEX
  8
PLAN_1
  6
CONTINUOUS
 10
1.003866
 20
-4.080394
  0
VERTEX
  8
PLAN_1
  6
CONTINUOUS
 10
1.005949
 20
-4.075705
  0
VERTEX
  8
PLAN_1
  6
CONTINUOUS
 10
1.008035
 20
-4.070492
  0
VERTEX
  8
PLAN_1
  6
CONTINUOUS
 10
1.009598
 20
-4.065283
  0
VERTEX
  8
PLAN_1
  6
CONTINUOUS
 10
1.010642
 20
-4.059551
  0
VERTEX
  8
PLAN_1
  6
CONTINUOUS
 10
1.011161
 20
-4.053819
  0
VERTEX
  8
PLAN_1
  6
CONTINUOUS
 10
1.011161
 20
-4.048606
  0
VERTEX
  8
PLAN_1
  6
CONTINUOUS
 10
1.011161
 20
-4.040272
  0
VERTEX
  8
PLAN_1
  6
CONTINUOUS
 10
1.009598
 20
-4.032453
  0
VERTEX
  8
PLAN_1
  6
CONTINUOUS
 10
1.008035
 20
-4.025157
  0
VERTEX
  8
PLAN_1
  6
CONTINUOUS
 10
1.005429
 20
-4.018386
  0
VERTEX
  8
PLAN_1
  6
CONTINUOUS
 10
1.001783
 20
-4.012130
  0
VERTEX
  8
PLAN_1
  6
CONTINUOUS
 10
0.998134
 20
-4.006398
  0
VERTEX
  8
PLAN_1
  6
CONTINUOUS
 10
0.993445
 20
-4.001189
  0
VERTEX
  8
PLAN_1
  6
CONTINUOUS
 10
0.988232
 20
-3.995976
  0
VERTEX
  8
PLAN_1
  6
CONTINUOUS
 10
0.983024
 20
-3.991807
  0
VERTEX
  8
PLAN_1
  6
CONTINUOUS
 10
0.976768
 20
-3.987638
  0
VERTEX
  8
PLAN_1
  6
CONTINUOUS
 10
0.970516
 20
-3.984512
  0
VERTEX
  8
PLAN_1
  6
CONTINUOUS
 10
0.963740
 20
-3.981909
  0
VERTEX
  8
PLAN_1
  6
CONTINUOUS
 10
0.956445
 20
-3.979823
  0
VERTEX
  8
PLAN_1
  6
CONTINUOUS
 10
0.949150
 20
-3.978260
  0
VERTEX
  8
PLAN_1
  6
CONTINUOUS
 10
0.941854
 20
-3.977217
  0
VERTEX
  8
PLAN_1
  6
CONTINUOUS
 10
0.934039
 20
-3.976697
  0
VERTEX
  8
PLAN_1
  6
CONTINUOUS
 10
0.924661
 20
-3.977217
  0
VERTEX
  8
PLAN_1
  6
CONTINUOUS
 10
0.916323
 20
-3.978780
  0
VERTEX
  8
PLAN_1
  6
CONTINUOUS
 10
0.907984
 20
-3.980866
  0
VERTEX
  8
PLAN_1
  6
CONTINUOUS
 10
0.900169
 20
-3.983992
  0
VERTEX
  8
PLAN_1
  6
CONTINUOUS
 10
0.892350
 20
-3.987638
  0
VERTEX
  8
PLAN_1
  6
CONTINUOUS
 10
0.885579
 20
-3.991807
  0
VERTEX
  8
PLAN_1
  6
CONTINUOUS
 10
0.879323
 20
-3.997020
  0
VERTEX
  8
PLAN_1
  6
CONTINUOUS
 10
0.873071
 20
-4.002752
  0
VERTEX
  8
PLAN_1
  6
CONTINUOUS
 10
0.867862
 20
-4.009004
  0
VERTEX
  8
PLAN_1
  6
CONTINUOUS
 10
0.863169
 20
-4.015780
  0
VERTEX
  8
PLAN_1
  6
CONTINUOUS
 10
0.859004
 20
-4.023594
  0
VERTEX
  8
PLAN_1
  6
CONTINUOUS
 10
0.855874
 20
-4.030890
  0
VERTEX
  8
PLAN_1
  6
CONTINUOUS
 10
0.853272
 20
-4.039228
  0
VERTEX
  8
PLAN_1
  6
CONTINUOUS
 10
0.851185
 20
-4.047567
  0
VERTEX
  8
PLAN_1
  6
CONTINUOUS
 10
0.850142
 20
-4.056425
  0
VERTEX
  8
PLAN_1
  6
CONTINUOUS
 10
0.849622
 20
-4.065803
  0
VERTEX
  8
PLAN_1
  6
CONTINUOUS
 10
0.850142
 20
-4.074661
  0
VERTEX
  8
PLAN_1
  6
CONTINUOUS
 10
0.851185
 20
-4.083520
  0
VERTEX
  8
PLAN_1
  6
CONTINUOUS
 10
0.853272
 20
-4.091858
  0
VERTEX
  8
PLAN_1
  6
CONTINUOUS
 10
0.856398
 20
-4.100197
  0
VERTEX
  8
PLAN_1
  6
CONTINUOUS
 10
0.860043
 20
-4.107492
  0
VERTEX
  8
PLAN_1
  6
CONTINUOUS
 10
0.864213
 20
-4.114787
  0
VERTEX
  8
PLAN_1
  6
CONTINUOUS
 10
0.868902
 20
-4.121559
  0
VERTEX
  8
PLAN_1
  6
CONTINUOUS
 10
0.874634
 20
-4.127291
  0
VERTEX
  8
PLAN_1
  6
CONTINUOUS
 10
0.880890
 20
-4.133024
  0
VERTEX
  8
PLAN_1
  6
CONTINUOUS
 10
0.887142
 20
-4.137717
  0
VERTEX
  8
PLAN_1
  6
CONTINUOUS
 10
0.894437
 20
-4.141882
  0
VERTEX
  8
PLAN_1
  6
CONTINUOUS
 10
0.901732
 20
-4.145531
  0
VERTEX
  8
PLAN_1
  6
CONTINUOUS
 10
0.910071
 20
-4.148657
  0
VERTEX
  8
PLAN_1
  6
CONTINUOUS
 10
0.918406
 20
-4.150740
  0
VERTEX
  8
PLAN_1
  6
CONTINUOUS
 10
0.926744
 20
-4.151783
  0
VERTEX
  8
PLAN_1
  6
CONTINUOUS
 10
0.936122
 20
-4.152307
  0
VERTEX
  8
PLAN_1
  6
CONTINUOUS
 10
0.940815
 20
-4.152307
  0
VERTEX
  8
PLAN_1
  6
CONTINUOUS
 10
0.945504
 20
-4.151783
  0
VERTEX
  8
PLAN_1
  6
CONTINUOUS
 10
0.950193
 20
-4.151264
  0
VERTEX
  8
PLAN_1
  6
CONTINUOUS
 10
0.954882
 20
-4.150220
  0
VERTEX
  8
PLAN_1
  6
CONTINUOUS
 10
0.964264
 20
-4.147614
  0
VERTEX
  8
PLAN_1
  6
CONTINUOUS
 10
0.973642
 20
-4.143969
  0
VERTEX
  8
PLAN_1
  6
CONTINUOUS
 10
0.981980
 20
-4.139280
  0
VERTEX
  8
PLAN_1
  6
CONTINUOUS
 10
0.989795
 20
-4.133547
  0
VERTEX
  8
PLAN_1
  6
CONTINUOUS
 10
0.993445
 20
-4.130941
  0
VERTEX
  8
PLAN_1
  6
CONTINUOUS
 10
0.997091
 20
-4.127815
  0
VERTEX
  8
PLAN_1
  6
CONTINUOUS
 10
1.000220
 20
-4.124165
  0
VERTEX
  8
PLAN_1
  6
CONTINUOUS
 10
1.003346
 20
-4.120520
  0
VERTEX
  8
PLAN_1
  6
CONTINUOUS
 10
1.022106
 20
-4.120520
  0
VERTEX
  8
PLAN_1
  6
CONTINUOUS
 10
1.018457
 20
-4.126252
  0
VERTEX
  8
PLAN_1
  6
CONTINUOUS
 10
1.014287
 20
-4.131461
  0
VERTEX
  8
PLAN_1
  6
CONTINUOUS
 10
1.010118
 20
-4.136150
  0
VERTEX
  8
PLAN_1
  6
CONTINUOUS
 10
1.005949
 20
-4.140843
  0
VERTEX
  8
PLAN_1
  6
CONTINUOUS
 10
1.001260
 20
-4.145531
  0
VERTEX
  8
PLAN_1
  6
CONTINUOUS
 10
0.996051
 20
-4.149177
  0
VERTEX
  8
PLAN_1
  6
CONTINUOUS
 10
0.990839
 20
-4.153346
  0
VERTEX
  8
PLAN_1
  6
CONTINUOUS
 10
0.985106
 20
-4.156472
  0
VERTEX
  8
PLAN_1
  6
CONTINUOUS
 10
0.979374
 20
-4.159602
  0
VERTEX
  8
PLAN_1
  6
CONTINUOUS
 10
0.973642
 20
-4.162205
  0
VERTEX
  8
PLAN_1
  6
CONTINUOUS
 10
0.967390
 20
-4.164291
  0
VERTEX
  8
PLAN_1
  6
CONTINUOUS
 10
0.961138
 20
-4.166374
  0
VERTEX
  8
PLAN_1
  6
CONTINUOUS
 10
0.954882
 20
-4.167417
  0
VERTEX
  8
PLAN_1
  6
CONTINUOUS
 10
0.948630
 20
-4.168461
  0
VERTEX
  8
PLAN_1
  6
CONTINUOUS
 10
0.941854
 20
-4.169500
  0
VERTEX
  8
PLAN_1
  6
CONTINUOUS
 10
0.935602
 20
-4.169500
  0
VERTEX
  8
PLAN_1
  6
CONTINUOUS
 10
0.929870
 20
-4.169500
  0
VERTEX
  8
PLAN_1
  6
CONTINUOUS
 10
0.924138
 20
-4.168980
  0
VERTEX
  8
PLAN_1
  6
CONTINUOUS
 10
0.918929
 20
-4.168461
  0
VERTEX
  8
PLAN_1
  6
CONTINUOUS
 10
0.913717
 20
-4.167417
  0
VERTEX
  8
PLAN_1
  6
CONTINUOUS
 10
0.903295
 20
-4.164811
  0
VERTEX
  8
PLAN_1
  6
CONTINUOUS
 10
0.893917
 20
-4.161165
  0
VERTEX
  8
PLAN_1
  6
CONTINUOUS
 10
0.884535
 20
-4.156996
  0
VERTEX
  8
PLAN_1
  6
CONTINUOUS
 10
0.875677
 20
-4.151783
  0
VERTEX
  8
PLAN_1
  6
CONTINUOUS
 10
0.867339
 20
-4.145531
  0
VERTEX
  8
PLAN_1
  6
CONTINUOUS
 10
0.860043
 20
-4.138756
  0
VERTEX
  8
PLAN_1
  6
CONTINUOUS
 10
0.853272
 20
-4.131461
  0
VERTEX
  8
PLAN_1
  6
CONTINUOUS
 10
0.847016
 20
-4.123646
  0
VERTEX
  8
PLAN_1
  6
CONTINUOUS
 10
0.841807
 20
-4.114787
  0
VERTEX
  8
PLAN_1
  6
CONTINUOUS
 10
0.837638
 20
-4.105406
  0
VERTEX
  8
PLAN_1
  6
CONTINUOUS
 10
0.835551
 20
-4.100717
  0
VERTEX
  8
PLAN_1
  6
CONTINUOUS
 10
0.833988
 20
-4.095508
  0
VERTEX
  8
PLAN_1
  6
CONTINUOUS
 10
0.832425
 20
-4.090815
  0
VERTEX
  8
PLAN_1
  6
CONTINUOUS
 10
0.831386
 20
-4.085606
  0
VERTEX
  8
PLAN_1
  6
CONTINUOUS
 10
0.830343
 20
-4.080394
  0
VERTEX
  8
PLAN_1
  6
CONTINUOUS
 10
0.829819
 20
-4.075185
  0
VERTEX
  8
PLAN_1
  6
CONTINUOUS
 10
0.829299
 20
-4.069453
  0
VERTEX
  8
PLAN_1
  6
CONTINUOUS
 10
0.829299
 20
-4.064240
  0
VERTEX
  8
PLAN_1
  6
CONTINUOUS
 10
0.829299
 20
-4.058508
  0
VERTEX
  8
PLAN_1
  6
CONTINUOUS
 10
0.829819
 20
-4.053299
  0
VERTEX
  8
PLAN_1
  6
CONTINUOUS
 10
0.830343
 20
-4.048087
  0
VERTEX
  8
PLAN_1
  6
CONTINUOUS
 10
0.831386
 20
-4.042874
  0
VERTEX
  8
PLAN_1
  6
CONTINUOUS
 10
0.833988
 20
-4.032976
  0
VERTEX
  8
PLAN_1
  6
CONTINUOUS
 10
0.837638
 20
-4.023075
  0
VERTEX
  8
PLAN_1
  6
CONTINUOUS
 10
0.842327
 20
-4.014217
  0
VERTEX
  8
PLAN_1
  6
CONTINUOUS
 10
0.847539
 20
-4.005358
  0
VERTEX
  8
PLAN_1
  6
CONTINUOUS
 10
0.853272
 20
-3.997539
  0
VERTEX
  8
PLAN_1
  6
CONTINUOUS
 10
0.860043
 20
-3.990244
  0
VERTEX
  8
PLAN_1
  6
CONTINUOUS
 10
0.867862
 20
-3.983472
  0
VERTEX
  8
PLAN_1
  6
CONTINUOUS
 10
0.875677
 20
-3.977217
  0
VERTEX
  8
PLAN_1
  6
CONTINUOUS
 10
0.884535
 20
-3.972008
  0
VERTEX
  8
PLAN_1
  6
CONTINUOUS
 10
0.893394
 20
-3.967839
  0
VERTEX
  8
PLAN_1
  6
CONTINUOUS
 10
0.903295
 20
-3.964189
  0
VERTEX
  8
PLAN_1
  6
CONTINUOUS
 10
0.913197
 20
-3.961587
  0
VERTEX
  8
PLAN_1
  6
CONTINUOUS
 10
0.918406
 20
-3.961063
  0
VERTEX
  8
PLAN_1
  6
CONTINUOUS
 10
0.923618
 20
-3.960024
  0
VERTEX
  8
PLAN_1
  6
CONTINUOUS
 10
0.928827
 20
-3.960024
  0
VERTEX
  8
PLAN_1
  6
CONTINUOUS
 10
0.934039
 20
-3.959500
  0
VERTEX
  8
PLAN_1
  6
CONTINUOUS
 10
0.943421
 20
-3.960024
  0
VERTEX
  8
PLAN_1
  6
CONTINUOUS
 10
0.952799
 20
-3.961587
  0
VERTEX
  8
PLAN_1
  6
CONTINUOUS
 10
0.961657
 20
-3.963150
  0
VERTEX
  8
PLAN_1
  6
CONTINUOUS
 10
0.970516
 20
-3.966276
  0
VERTEX
  8
PLAN_1
  6
CONTINUOUS
 10
0.978854
 20
-3.969402
  0
VERTEX
  8
PLAN_1
  6
CONTINUOUS
 10
0.986669
 20
-3.973571
  0
VERTEX
  8
PLAN_1
  6
CONTINUOUS
 10
0.993965
 20
-3.978780
  0
VERTEX
  8
PLAN_1
  6
CONTINUOUS
 10
1.000740
 20
-3.983992
  0
VERTEX
  8
PLAN_1
  6
CONTINUOUS
 10
1.006992
 20
-3.990244
  0
VERTEX
  8
PLAN_1
  6
CONTINUOUS
 10
1.012724
 20
-3.996500
  0
VERTEX
  8
PLAN_1
  6
CONTINUOUS
 10
1.017413
 20
-4.003795
  0
VERTEX
  8
PLAN_1
  6
CONTINUOUS
 10
1.021583
 20
-4.011610
  0
VERTEX
  8
PLAN_1
  6
CONTINUOUS
 10
1.025232
 20
-4.019425
  0
VERTEX
  8
PLAN_1
  6
CONTINUOUS
 10
1.027315
 20
-4.028283
  0
VERTEX
  8
PLAN_1
  6
CONTINUOUS
 10
1.028878
 20
-4.037142
  0
VERTEX
  8
PLAN_1
  6
CONTINUOUS
 10
1.029402
 20
-4.046524
  0
VERTEX
  8
PLAN_1
  6
CONTINUOUS
 10
1.028878
 20
-4.055382
  0
VERTEX
  8
PLAN_1
  6
CONTINUOUS
 10
1.027835
 20
-4.064240
  0
VERTEX
  8
PLAN_1
  6
CONTINUOUS
 10
1.025232
 20
-4.072579
  0
VERTEX
  8
PLAN_1
  6
CONTINUOUS
 10
1.022626
 20
-4.079874
  0
VERTEX
  8
PLAN_1
  6
CONTINUOUS
 10
1.018976
 20
-4.087169
  0
VERTEX
  8
PLAN_1
  6
CONTINUOUS
 10
1.014811
 20
-4.093941
  0
VERTEX
  8
PLAN_1
  6
CONTINUOUS
 10
1.010642
 20
-4.099673
  0
VERTEX
  8
PLAN_1
  6
CONTINUOUS
 10
1.005429
 20
-4.105406
  0
VERTEX
  8
PLAN_1
  6
CONTINUOUS
 10
1.000220
 20
-4.110098
  0
VERTEX
  8
PLAN_1
  6
CONTINUOUS
 10
0.995008
 20
-4.114264
  0
VERTEX
  8
PLAN_1
  6
CONTINUOUS
 10
0.989276
 20
-4.117913
  0
VERTEX
  8
PLAN_1
  6
CONTINUOUS
 10
0.984063
 20
-4.121039
  0
VERTEX
  8
PLAN_1
  6
CONTINUOUS
 10
0.978331
 20
-4.123646
  0
VERTEX
  8
PLAN_1
  6
CONTINUOUS
 10
0.973122
 20
-4.125209
  0
VERTEX
  8
PLAN_1
  6
CONTINUOUS
 10
0.967909
 20
-4.126252
  0
VERTEX
  8
PLAN_1
  6
CONTINUOUS
 10
0.963220
 20
-4.126252
  0
VERTEX
  8
PLAN_1
  6
CONTINUOUS
 10
0.959575
 20
-4.126252
  0
VERTEX
  8
PLAN_1
  6
CONTINUOUS
 10
0.956445
 20
-4.125209
  0
VERTEX
  8
PLAN_1
  6
CONTINUOUS
 10
0.953319
 20
-4.124165
  0
VERTEX
  8
PLAN_1
  6
CONTINUOUS
 10
0.950717
 20
-4.122083
  0
VERTEX
  8
PLAN_1
  6
CONTINUOUS
 10
0.948630
 20
-4.119996
  0
VERTEX
  8
PLAN_1
  6
CONTINUOUS
 10
0.947067
 20
-4.116870
  0
VERTEX
  8
PLAN_1
  6
CONTINUOUS
 10
0.946024
 20
-4.113224
  0
VERTEX
  8
PLAN_1
  6
CONTINUOUS
 10
0.945504
 20
-4.109055
  0
VERTEX
  8
PLAN_1
  6
CONTINUOUS
 10
0.944984
 20
-4.109055
  0
VERTEX
  8
PLAN_1
  6
CONTINUOUS
 10
0.941854
 20
-4.112701
  0
VERTEX
  8
PLAN_1
  6
CONTINUOUS
 10
0.938209
 20
-4.115831
  0
VERTEX
  8
PLAN_1
  6
CONTINUOUS
 10
0.934039
 20
-4.118433
  0
VERTEX
  8
PLAN_1
  6
CONTINUOUS
 10
0.929870
 20
-4.121039
  0
VERTEX
  8
PLAN_1
  6
CONTINUOUS
 10
0.925701
 20
-4.123126
  0
VERTEX
  8
PLAN_1
  6
CONTINUOUS
 10
0.921012
 20
-4.125209
  0
VERTEX
  8
PLAN_1
  6
CONTINUOUS
 10
0.916323
 20
-4.126252
  0
VERTEX
  8
PLAN_1
  6
CONTINUOUS
 10
0.911634
 20
-4.126252
  0
VERTEX
  8
PLAN_1
  6
CONTINUOUS
 10
0.906941
 20
-4.126252
  0
VERTEX
  8
PLAN_1
  6
CONTINUOUS
 10
0.902776
 20
-4.125728
  0
VERTEX
  8
PLAN_1
  6
CONTINUOUS
 10
0.899126
 20
-4.124689
  0
VERTEX
  8
PLAN_1
  6
CONTINUOUS
 10
0.894957
 20
-4.123126
  0
VERTEX
  8
PLAN_1
  6
CONTINUOUS
 10
0.891311
 20
-4.121039
  0
VERTEX
  8
PLAN_1
  6
CONTINUOUS
 10
0.888185
 20
-4.118957
  0
VERTEX
  8
PLAN_1
  6
CONTINUOUS
 10
0.885055
 20
-4.116350
  0
VERTEX
  8
PLAN_1
  6
CONTINUOUS
 10
0.881929
 20
-4.113224
  0
VERTEX
  8
PLAN_1
  6
CONTINUOUS
 10
0.879846
 20
-4.110098
  0
VERTEX
  8
PLAN_1
  6
CONTINUOUS
 10
0.877240
 20
-4.106969
  0
VERTEX
  8
PLAN_1
  6
CONTINUOUS
 10
0.875157
 20
-4.103323
  0
VERTEX
  8
PLAN_1
  6
CONTINUOUS
 10
0.873594
 20
-4.099154
  0
VERTEX
  8
PLAN_1
  6
CONTINUOUS
 10
0.872551
 20
-4.094984
  0
VERTEX
  8
PLAN_1
  6
CONTINUOUS
 10
0.871508
 20
-4.090815
  0
VERTEX
  8
PLAN_1
  6
CONTINUOUS
 10
0.870988
 20
-4.086646
  0
VERTEX
  8
PLAN_1
  6
CONTINUOUS
 10
0.870465
 20
-4.081957
  0
VERTEX
  8
PLAN_1
  6
CONTINUOUS
 10
0.870988
 20
-4.075185
  0
VERTEX
  8
PLAN_1
  6
CONTINUOUS
 10
0.872028
 20
-4.067890
  0
VERTEX
  8
PLAN_1
  6
CONTINUOUS
 10
0.873071
 20
-4.061114
  0
VERTEX
  8
PLAN_1
  6
CONTINUOUS
 10
0.875157
 20
-4.054339
  0
VERTEX
  8
PLAN_1
  6
CONTINUOUS
 10
0.877760
 20
-4.047567
  0
VERTEX
  8
PLAN_1
  6
CONTINUOUS
 10
0.880890
 20
-4.041311
  0
VERTEX
  8
PLAN_1
  6
CONTINUOUS
 10
0.884535
 20
-4.035579
  0
VERTEX
  8
PLAN_1
  6
CONTINUOUS
 10
0.888185
 20
-4.029846
  0
VERTEX
  8
PLAN_1
  6
CONTINUOUS
 10
0.892874
 20
-4.024638
  0
VERTEX
  8
PLAN_1
  6
CONTINUOUS
 10
0.897563
 20
-4.019949
  0
VERTEX
  8
PLAN_1
  6
CONTINUOUS
 10
0.902776
 20
-4.015780
  0
VERTEX
  8
PLAN_1
  6
CONTINUOUS
 10
0.908508
 20
-4.012130
  0
VERTEX
  8
PLAN_1
  6
CONTINUOUS
 10
0.914760
 20
-4.009528
  0
VERTEX
  8
PLAN_1
  6
CONTINUOUS
 10
0.921012
 20
-4.007441
  0
VERTEX
  8
PLAN_1
  6
CONTINUOUS
 10
0.927787
 20
-4.005878
  0
VERTEX
  8
PLAN_1
  6
CONTINUOUS
 10
0.934559
 20
-4.005358
  0
VERTEX
  8
PLAN_1
  6
CONTINUOUS
 10
0.939772
 20
-4.005878
  0
VERTEX
  8
PLAN_1
  6
CONTINUOUS
 10
0.944461
 20
-4.006921
  0
VERTEX
  8
PLAN_1
  6
CONTINUOUS
 10
0.948630
 20
-4.008484
  0
VERTEX
  8
PLAN_1
  6
CONTINUOUS
 10
0.952799
 20
-4.010567
  0
VERTEX
  8
PLAN_1
  6
CONTINUOUS
 10
0.956969
 20
-4.013693
  0
VERTEX
  8
PLAN_1
  6
CONTINUOUS
 10
0.960614
 20
-4.017343
  0
VERTEX
  8
PLAN_1
  6
CONTINUOUS
 10
0.963740
 20
-4.021512
  0
VERTEX
  8
PLAN_1
  6
CONTINUOUS
 10
0.966870
 20
-4.027244
  0
VERTEX
  8
PLAN_1
  6
CONTINUOUS
 10
0.972079
 20
-4.010047
  0
SEQEND
  8
0
  0
POLYLINE
  8
PLAN_1
  6
CONTINUOUS
 66
     1
 40
0.003000
 41
0.003000
  0
VERTEX
  8
PLAN_1
  6
CONTINUOUS
 10
0.935602
 20
-4.025681
  0
VERTEX
  8
PLAN_1
  6
CONTINUOUS
 10
0.930913
 20
-4.025681
  0
VERTEX
  8
PLAN_1
  6
CONTINUOUS
 10
0.926224
 20
-4.026720
  0
VERTEX
  8
PLAN_1
  6
CONTINUOUS
 10
0.922575
 20
-4.028283
  0
VERTEX
  8
PLAN_1
  6
CONTINUOUS
 10
0.918406
 20
-4.030890
  0
VERTEX
  8
PLAN_1
  6
CONTINUOUS
 10
0.914760
 20
-4.033496
  0
VERTEX
  8
PLAN_1
  6
CONTINUOUS
 10
0.911110
 20
-4.036622
  0
VERTEX
  8
PLAN_1
  6
CONTINUOUS
 10
0.907984
 20
-4.040272
  0
VERTEX
  8
PLAN_1
  6
CONTINUOUS
 10
0.905378
 20
-4.043917
  0
VERTEX
  8
PLAN_1
  6
CONTINUOUS
 10
0.902776
 20
-4.048087
  0
VERTEX
  8
PLAN_1
  6
CONTINUOUS
 10
0.900169
 20
-4.052256
  0
VERTEX
  8
PLAN_1
  6
CONTINUOUS
 10
0.898083
 20
-4.056945
  0
VERTEX
  8
PLAN_1
  6
CONTINUOUS
 10
0.896520
 20
-4.061634
  0
VERTEX
  8
PLAN_1
  6
CONTINUOUS
 10
0.894957
 20
-4.065803
  0
VERTEX
  8
PLAN_1
  6
CONTINUOUS
 10
0.894437
 20
-4.070492
  0
VERTEX
  8
PLAN_1
  6
CONTINUOUS
 10
0.893917
 20
-4.075185
  0
VERTEX
  8
PLAN_1
  6
CONTINUOUS
 10
0.893394
 20
-4.079350
  0
VERTEX
  8
PLAN_1
  6
CONTINUOUS
 10
0.893917
 20
-4.085083
  0
VERTEX
  8
PLAN_1
  6
CONTINUOUS
 10
0.894957
 20
-4.090295
  0
VERTEX
  8
PLAN_1
  6
CONTINUOUS
 10
0.897043
 20
-4.094984
  0
VERTEX
  8
PLAN_1
  6
CONTINUOUS
 10
0.900169
 20
-4.099154
  0
VERTEX
  8
PLAN_1
  6
CONTINUOUS
 10
0.903295
 20
-4.102280
  0
VERTEX
  8
PLAN_1
  6
CONTINUOUS
 10
0.907465
 20
-4.104366
  0
VERTEX
  8
PLAN_1
  6
CONTINUOUS
 10
0.909547
 20
-4.105406
  0
VERTEX
  8
PLAN_1
  6
CONTINUOUS
 10
0.911634
 20
-4.105929
  0
VERTEX
  8
PLAN_1
  6
CONTINUOUS
 10
0.914236
 20
-4.106449
  0
VERTEX
  8
PLAN_1
  6
CONTINUOUS
 10
0.916843
 20
-4.106449
  0
VERTEX
  8
PLAN_1
  6
CONTINUOUS
 10
0.921012
 20
-4.105929
  0
VERTEX
  8
PLAN_1
  6
CONTINUOUS
 10
0.925181
 20
-4.104886
  0
VERTEX
  8
PLAN_1
  6
CONTINUOUS
 10
0.929350
 20
-4.103323
  0
VERTEX
  8
PLAN_1
  6
CONTINUOUS
 10
0.932996
 20
-4.100717
  0
VERTEX
  8
PLAN_1
  6
CONTINUOUS
 10
0.936646
 20
-4.098110
  0
VERTEX
  8
PLAN_1
  6
CONTINUOUS
 10
0.940291
 20
-4.094984
  0
VERTEX
  8
PLAN_1
  6
CONTINUOUS
 10
0.943421
 20
-4.091339
  0
VERTEX
  8
PLAN_1
  6
CONTINUOUS
 10
0.946547
 20
-4.087169
  0
VERTEX
  8
PLAN_1
  6
CONTINUOUS
 10
0.949150
 20
-4.083000
  0
VERTEX
  8
PLAN_1
  6
CONTINUOUS
 10
0.951236
 20
-4.078311
  0
VERTEX
  8
PLAN_1
  6
CONTINUOUS
 10
0.953319
 20
-4.073622
  0
VERTEX
  8
PLAN_1
  6
CONTINUOUS
 10
0.954882
 20
-4.068929
  0
VERTEX
  8
PLAN_1
  6
CONTINUOUS
 10
0.956445
 20
-4.064240
  0
VERTEX
  8
PLAN_1
  6
CONTINUOUS
 10
0.957488
 20
-4.059551
  0
VERTEX
  8
PLAN_1
  6
CONTINUOUS
 10
0.958012
 20
-4.055382
  0
VERTEX
  8
PLAN_1
  6
CONTINUOUS
 10
0.958012
 20
-4.051213
  0
VERTEX
  8
PLAN_1
  6
CONTINUOUS
 10
0.957488
 20
-4.046004
  0
VERTEX
  8
PLAN_1
  6
CONTINUOUS
 10
0.956445
 20
-4.041311
  0
VERTEX
  8
PLAN_1
  6
CONTINUOUS
 10
0.954362
 20
-4.037142
  0
VERTEX
  8
PLAN_1
  6
CONTINUOUS
 10
0.951236
 20
-4.032976
  0
VERTEX
  8
PLAN_1
  6
CONTINUOUS
 10
0.948110
 20
-4.029846
  0
VERTEX
  8
PLAN_1
  6
CONTINUOUS
 10
0.943941
 20
-4.027764
  0
VERTEX
  8
PLAN_1
  6
CONTINUOUS
 10
0.939772
 20
-4.026201
  0
VERTEX
  8
PLAN_1
  6
CONTINUOUS
 10
0.935602
 20
-4.025681
  0
SEQEND
  8
0
  0
POLYLINE
  8
PLAN_1
  6
CONTINUOUS
 66
     1
 40
0.003000
 41
0.003000
  0
VERTEX
  8
PLAN_1
  6
CONTINUOUS
 10
1.090890
 20
-3.964713
  0
VERTEX
  8
PLAN_1
  6
CONTINUOUS
 10
1.178433
 20
-3.964713
  0
VERTEX
  8
PLAN_1
  6
CONTINUOUS
 10
1.185209
 20
-3.965232
  0
VERTEX
  8
PLAN_1
  6
CONTINUOUS
 10
1.191461
 20
-3.966276
  0
VERTEX
  8
PLAN_1
  6
CONTINUOUS
 10
1.197713
 20
-3.967319
  0
VERTEX
  8
PLAN_1
  6
CONTINUOUS
 10
1.202925
 20
-3.968882
  0
VERTEX
  8
PLAN_1
  6
CONTINUOUS
 10
1.208134
 20
-3.970965
  0
VERTEX
  8
PLAN_1
  6
CONTINUOUS
 10
1.212827
 20
-3.973571
  0
VERTEX
  8
PLAN_1
  6
CONTINUOUS
 10
1.216992
 20
-3.976697
  0
VERTEX
  8
PLAN_1
  6
CONTINUOUS
 10
1.220642
 20
-3.979823
  0
VERTEX
  8
PLAN_1
  6
CONTINUOUS
 10
1.223768
 20
-3.983472
  0
VERTEX
  8
PLAN_1
  6
CONTINUOUS
 10
1.226894
 20
-3.987118
  0
VERTEX
  8
PLAN_1
  6
CONTINUOUS
 10
1.229500
 20
-3.991287
  0
VERTEX
  8
PLAN_1
  6
CONTINUOUS
 10
1.231583
 20
-3.995976
  0
VERTEX
  8
PLAN_1
  6
CONTINUOUS
 10
1.233146
 20
-4.000665
  0
VERTEX
  8
PLAN_1
  6
CONTINUOUS
 10
1.234189
 20
-4.005358
  0
VERTEX
  8
PLAN_1
  6
CONTINUOUS
 10
1.234713
 20
-4.010047
  0
VERTEX
  8
PLAN_1
  6
CONTINUOUS
 10
1.234713
 20
-4.015256
  0
VERTEX
  8
PLAN_1
  6
CONTINUOUS
 10
1.234713
 20
-4.020469
  0
VERTEX
  8
PLAN_1
  6
CONTINUOUS
 10
1.233669
 20
-4.025681
  0
VERTEX
  8
PLAN_1
  6
CONTINUOUS
 10
1.232106
 20
-4.031413
  0
VERTEX
  8
PLAN_1
  6
CONTINUOUS
 10
1.230020
 20
-4.037142
  0
VERTEX
  8
PLAN_1
  6
CONTINUOUS
 10
1.228457
 20
-4.039748
  0
VERTEX
  8
PLAN_1
  6
CONTINUOUS
 10
1.226374
 20
-4.042354
  0
VERTEX
  8
PLAN_1
  6
CONTINUOUS
 10
1.224287
 20
-4.045480
  0
VERTEX
  8
PLAN_1
  6
CONTINUOUS
 10
1.221685
 20
-4.048087
  0
VERTEX
  8
PLAN_1
  6
CONTINUOUS
 10
1.219079
 20
-4.050169
  0
VERTEX
  8
PLAN_1
  6
CONTINUOUS
 10
1.215953
 20
-4.052776
  0
VERTEX
  8
PLAN_1
  6
CONTINUOUS
 10
1.212303
 20
-4.054862
  0
VERTEX
  8
PLAN_1
  6
CONTINUOUS
 10
1.208134
 20
-4.056945
  0
VERTEX
  8
PLAN_1
  6
CONTINUOUS
 10
1.213346
 20
-4.059031
  0
VERTEX
  8
PLAN_1
  6
CONTINUOUS
 10
1.219598
 20
-4.061634
  0
VERTEX
  8
PLAN_1
  6
CONTINUOUS
 10
1.225331
 20
-4.065283
  0
VERTEX
  8
PLAN_1
  6
CONTINUOUS
 10
1.231063
 20
-4.070492
  0
VERTEX
  8
PLAN_1
  6
CONTINUOUS
 10
1.233669
 20
-4.073098
  0
VERTEX
  8
PLAN_1
  6
CONTINUOUS
 10
1.236276
 20
-4.076224
  0
VERTEX
  8
PLAN_1
  6
CONTINUOUS
 10
1.238878
 20
-4.079874
  0
VERTEX
  8
PLAN_1
  6
CONTINUOUS
 10
1.240441
 20
-4.084043
  0
VERTEX
  8
PLAN_1
  6
CONTINUOUS
 10
1.242008
 20
-4.088732
  0
VERTEX
  8
PLAN_1
  6
CONTINUOUS
 10
1.243571
 20
-4.093941
  0
VERTEX
  8
PLAN_1
  6
CONTINUOUS
 10
1.244091
 20
-4.099154
  0
VERTEX
  8
PLAN_1
  6
CONTINUOUS
 10
1.244610
 20
-4.105406
  0
VERTEX
  8
PLAN_1
  6
CONTINUOUS
 10
1.244091
 20
-4.111138
  0
VERTEX
  8
PLAN_1
  6
CONTINUOUS
 10
1.243047
 20
-4.116870
  0
VERTEX
  8
PLAN_1
  6
CONTINUOUS
 10
1.242008
 20
-4.122602
  0
VERTEX
  8
PLAN_1
  6
CONTINUOUS
 10
1.239921
 20
-4.127815
  0
VERTEX
  8
PLAN_1
  6
CONTINUOUS
 10
1.237315
 20
-4.133024
  0
VERTEX
  8
PLAN_1
  6
CONTINUOUS
 10
1.234713
 20
-4.138236
  0
VERTEX
  8
PLAN_1
  6
CONTINUOUS
 10
1.231063
 20
-4.142406
  0
VERTEX
  8
PLAN_1
  6
CONTINUOUS
 10
1.226894
 20
-4.146575
  0
VERTEX
  8
PLAN_1
  6
CONTINUOUS
 10
1.222724
 20
-4.150740
  0
VERTEX
  8
PLAN_1
  6
CONTINUOUS
 10
1.217516
 20
-4.153870
  0
VERTEX
  8
PLAN_1
  6
CONTINUOUS
 10
1.211783
 20
-4.156996
  0
VERTEX
  8
PLAN_1
  6
CONTINUOUS
 10
1.206051
 20
-4.159602
  0
VERTEX
  8
PLAN_1
  6
CONTINUOUS
 10
1.199276
 20
-4.161685
  0
VERTEX
  8
PLAN_1
  6
CONTINUOUS
 10
1.191980
 20
-4.163248
  0
VERTEX
  8
PLAN_1
  6
CONTINUOUS
 10
1.184685
 20
-4.163768
  0
VERTEX
  8
PLAN_1
  6
CONTINUOUS
 10
1.176870
 20
-4.164291
  0
VERTEX
  8
PLAN_1
  6
CONTINUOUS
 10
1.090890
 20
-4.164291
  0
VERTEX
  8
PLAN_1
  6
CONTINUOUS
 10
1.090890
 20
-3.964713
  0
SEQEND
  8
0
  0
POLYLINE
  8
PLAN_1
  6
CONTINUOUS
 66
     1
 40
0.003000
 41
0.003000
  0
VERTEX
  8
PLAN_1
  6
CONTINUOUS
 10
1.117984
 20
-4.049130
  0
VERTEX
  8
PLAN_1
  6
CONTINUOUS
 10
1.166449
 20
-4.049130
  0
VERTEX
  8
PLAN_1
  6
CONTINUOUS
 10
1.175827
 20
-4.049130
  0
VERTEX
  8
PLAN_1
  6
CONTINUOUS
 10
1.183642
 20
-4.047567
  0
VERTEX
  8
PLAN_1
  6
CONTINUOUS
 10
1.187291
 20
-4.047043
  0
VERTEX
  8
PLAN_1
  6
CONTINUOUS
 10
1.190937
 20
-4.045480
  0
VERTEX
  8
PLAN_1
  6
CONTINUOUS
 10
1.194067
 20
-4.043917
  0
VERTEX
  8
PLAN_1
  6
CONTINUOUS
 10
1.196669
 20
-4.042354
  0
VERTEX
  8
PLAN_1
  6
CONTINUOUS
 10
1.199276
 20
-4.040272
  0
VERTEX
  8
PLAN_1
  6
CONTINUOUS
 10
1.201882
 20
-4.038185
  0
VERTEX
  8
PLAN_1
  6
CONTINUOUS
 10
1.203445
 20
-4.035579
  0
VERTEX
  8
PLAN_1
  6
CONTINUOUS
 10
1.205008
 20
-4.032453
  0
VERTEX
  8
PLAN_1
  6
CONTINUOUS
 10
1.206571
 20
-4.029327
  0
VERTEX
  8
PLAN_1
  6
CONTINUOUS
 10
1.207094
 20
-4.025681
  0
VERTEX
  8
PLAN_1
  6
CONTINUOUS
 10
1.207614
 20
-4.021512
  0
VERTEX
  8
PLAN_1
  6
CONTINUOUS
 10
1.208134
 20
-4.017343
  0
VERTEX
  8
PLAN_1
  6
CONTINUOUS
 10
1.208134
 20
-4.013693
  0
VERTEX
  8
PLAN_1
  6
CONTINUOUS
 10
1.207614
 20
-4.010567
  0
VERTEX
  8
PLAN_1
  6
CONTINUOUS
 10
1.206571
 20
-4.007441
  0
VERTEX
  8
PLAN_1
  6
CONTINUOUS
 10
1.205528
 20
-4.004835
  0
VERTEX
  8
PLAN_1
  6
CONTINUOUS
 10
1.204488
 20
-4.002232
  0
VERTEX
  8
PLAN_1
  6
CONTINUOUS
 10
1.202925
 20
-3.999626
  0
VERTEX
  8
PLAN_1
  6
CONTINUOUS
 10
1.200839
 20
-3.997539
  0
VERTEX
  8
PLAN_1
  6
CONTINUOUS
 10
1.198756
 20
-3.995457
  0
VERTEX
  8
PLAN_1
  6
CONTINUOUS
 10
1.196150
 20
-3.993894
  0
VERTEX
  8
PLAN_1
  6
CONTINUOUS
 10
1.193024
 20
-3.992331
  0
VERTEX
  8
PLAN_1
  6
CONTINUOUS
 10
1.189374
 20
-3.990768
  0
VERTEX
  8
PLAN_1
  6
CONTINUOUS
 10
1.185728
 20
-3.989724
  0
VERTEX
  8
PLAN_1
  6
CONTINUOUS
 10
1.181559
 20
-3.989205
  0
VERTEX
  8
PLAN_1
  6
CONTINUOUS
 10
1.176870
 20
-3.988681
  0
VERTEX
  8
PLAN_1
  6
CONTINUOUS
 10
1.172181
 20
-3.988161
  0
VERTEX
  8
PLAN_1
  6
CONTINUOUS
 10
1.166449
 20
-3.988161
  0
VERTEX
  8
PLAN_1
  6
CONTINUOUS
 10
1.117984
 20
-3.988161
  0
VERTEX
  8
PLAN_1
  6
CONTINUOUS
 10
1.117984
 20
-4.049130
  0
SEQEND
  8
0
  0
POLYLINE
  8
PLAN_1
  6
CONTINUOUS
 66
     1
 40
0.003000
 41
0.003000
  0
VERTEX
  8
PLAN_1
  6
CONTINUOUS
 10
1.117984
 20
-4.141362
  0
VERTEX
  8
PLAN_1
  6
CONTINUOUS
 10
1.175307
 20
-4.141362
  0
VERTEX
  8
PLAN_1
  6
CONTINUOUS
 10
1.180516
 20
-4.140843
  0
VERTEX
  8
PLAN_1
  6
CONTINUOUS
 10
1.185209
 20
-4.140319
  0
VERTEX
  8
PLAN_1
  6
CONTINUOUS
 10
1.189374
 20
-4.139799
  0
VERTEX
  8
PLAN_1
  6
CONTINUOUS
 10
1.193543
 20
-4.138756
  0
VERTEX
  8
PLAN_1
  6
CONTINUOUS
 10
1.197713
 20
-4.137193
  0
VERTEX
  8
PLAN_1
  6
CONTINUOUS
 10
1.200839
 20
-4.135630
  0
VERTEX
  8
PLAN_1
  6
CONTINUOUS
 10
1.203965
 20
-4.133547
  0
VERTEX
  8
PLAN_1
  6
CONTINUOUS
 10
1.207094
 20
-4.131461
  0
VERTEX
  8
PLAN_1
  6
CONTINUOUS
 10
1.209177
 20
-4.128854
  0
VERTEX
  8
PLAN_1
  6
CONTINUOUS
 10
1.211260
 20
-4.126252
  0
VERTEX
  8
PLAN_1
  6
CONTINUOUS
 10
1.213346
 20
-4.123126
  0
VERTEX
  8
PLAN_1
  6
CONTINUOUS
 10
1.214909
 20
-4.119996
  0
VERTEX
  8
PLAN_1
  6
CONTINUOUS
 10
1.215953
 20
-4.116350
  0
VERTEX
  8
PLAN_1
  6
CONTINUOUS
 10
1.216992
 20
-4.112701
  0
VERTEX
  8
PLAN_1
  6
CONTINUOUS
 10
1.217516
 20
-4.109055
  0
VERTEX
  8
PLAN_1
  6
CONTINUOUS
 10
1.217516
 20
-4.104886
  0
VERTEX
  8
PLAN_1
  6
CONTINUOUS
 10
1.216992
 20
-4.099673
  0
VERTEX
  8
PLAN_1
  6
CONTINUOUS
 10
1.216472
 20
-4.095508
  0
VERTEX
  8
PLAN_1
  6
CONTINUOUS
 10
1.214909
 20
-4.091339
  0
VERTEX
  8
PLAN_1
  6
CONTINUOUS
 10
1.213346
 20
-4.087689
  0
VERTEX
  8
PLAN_1
  6
CONTINUOUS
 10
1.211260
 20
-4.084563
  0
VERTEX
  8
PLAN_1
  6
CONTINUOUS
 10
1.208657
 20
-4.081957
  0
VERTEX
  8
PLAN_1
  6
CONTINUOUS
 10
1.205528
 20
-4.079350
  0
VERTEX
  8
PLAN_1
  6
CONTINUOUS
 10
1.202402
 20
-4.077787
  0
VERTEX
  8
PLAN_1
  6
CONTINUOUS
 10
1.198756
 20
-4.075705
  0
VERTEX
  8
PLAN_1
  6
CONTINUOUS
 10
1.195106
 20
-4.074661
  0
VERTEX
  8
PLAN_1
  6
CONTINUOUS
 10
1.191461
 20
-4.073622
  0
VERTEX
  8
PLAN_1
  6
CONTINUOUS
 10
1.187291
 20
-4.072579
  0
VERTEX
  8
PLAN_1
  6
CONTINUOUS
 10
1.178953
 20
-4.071535
  0
VERTEX
  8
PLAN_1
  6
CONTINUOUS
 10
1.170618
 20
-4.071016
  0
VERTEX
  8
PLAN_1
  6
CONTINUOUS
 10
1.117984
 20
-4.071016
  0
VERTEX
  8
PLAN_1
  6
CONTINUOUS
 10
1.117984
 20
-4.141362
  0
SEQEND
  8
0
  0
POLYLINE
  8
PLAN_1
  6
CONTINUOUS
 66
     1
 40
0.003000
 41
0.003000
  0
VERTEX
  8
PLAN_1
  6
CONTINUOUS
 10
1.265976
 20
-3.973047
  0
VERTEX
  8
PLAN_1
  6
CONTINUOUS
 10
1.400941
 20
-3.973047
  0
VERTEX
  8
PLAN_1
  6
CONTINUOUS
 10
1.400941
 20
-3.994413
  0
VERTEX
  8
PLAN_1
  6
CONTINUOUS
 10
1.392083
 20
-4.004315
  0
VERTEX
  8
PLAN_1
  6
CONTINUOUS
 10
1.382181
 20
-4.017343
  0
VERTEX
  8
PLAN_1
  6
CONTINUOUS
 10
1.376449
 20
-4.025681
  0
VERTEX
  8
PLAN_1
  6
CONTINUOUS
 10
1.370717
 20
-4.034016
  0
VERTEX
  8
PLAN_1
  6
CONTINUOUS
 10
1.364465
 20
-4.043917
  0
VERTEX
  8
PLAN_1
  6
CONTINUOUS
 10
1.358732
 20
-4.054339
  0
VERTEX
  8
PLAN_1
  6
CONTINUOUS
 10
1.352476
 20
-4.065803
  0
VERTEX
  8
PLAN_1
  6
CONTINUOUS
 10
1.346744
 20
-4.077787
  0
VERTEX
  8
PLAN_1
  6
CONTINUOUS
 10
1.341535
 20
-4.090295
  0
VERTEX
  8
PLAN_1
  6
CONTINUOUS
 10
1.336323
 20
-4.103843
  0
VERTEX
  8
PLAN_1
  6
CONTINUOUS
 10
1.331634
 20
-4.117913
  0
VERTEX
  8
PLAN_1
  6
CONTINUOUS
 10
1.327465
 20
-4.132504
  0
VERTEX
  8
PLAN_1
  6
CONTINUOUS
 10
1.323295
 20
-4.148138
  0
VERTEX
  8
PLAN_1
  6
CONTINUOUS
 10
1.320693
 20
-4.164291
  0
VERTEX
  8
PLAN_1
  6
CONTINUOUS
 10
1.293594
 20
-4.164291
  0
VERTEX
  8
PLAN_1
  6
CONTINUOUS
 10
1.295157
 20
-4.153870
  0
VERTEX
  8
PLAN_1
  6
CONTINUOUS
 10
1.297240
 20
-4.143445
  0
VERTEX
  8
PLAN_1
  6
CONTINUOUS
 10
1.300370
 20
-4.132504
  0
VERTEX
  8
PLAN_1
  6
CONTINUOUS
 10
1.303496
 20
-4.121559
  0
VERTEX
  8
PLAN_1
  6
CONTINUOUS
 10
1.307665
 20
-4.110618
  0
VERTEX
  8
PLAN_1
  6
CONTINUOUS
 10
1.311831
 20
-4.099154
  0
VERTEX
  8
PLAN_1
  6
CONTINUOUS
 10
1.316524
 20
-4.088213
  0
VERTEX
  8
PLAN_1
  6
CONTINUOUS
 10
1.321732
 20
-4.076748
  0
VERTEX
  8
PLAN_1
  6
CONTINUOUS
 10
1.327465
 20
-4.065803
  0
VERTEX
  8
PLAN_1
  6
CONTINUOUS
 10
1.333197
 20
-4.054862
  0
VERTEX
  8
PLAN_1
  6
CONTINUOUS
 10
1.339449
 20
-4.044437
  0
VERTEX
  8
PLAN_1
  6
CONTINUOUS
 10
1.345705
 20
-4.034016
  0
VERTEX
  8
PLAN_1
  6
CONTINUOUS
 10
1.352476
 20
-4.024118
  0
VERTEX
  8
PLAN_1
  6
CONTINUOUS
 10
1.359252
 20
-4.014736
  0
VERTEX
  8
PLAN_1
  6
CONTINUOUS
 10
1.366028
 20
-4.005878
  0
VERTEX
  8
PLAN_1
  6
CONTINUOUS
 10
1.373323
 20
-3.997020
  0
VERTEX
  8
PLAN_1
  6
CONTINUOUS
 10
1.265976
 20
-3.997020
  0
VERTEX
  8
PLAN_1
  6
CONTINUOUS
 10
1.265976
 20
-3.973047
  0
SEQEND
  8
0
  0
POLYLINE
  8
PLAN_1
  6
CONTINUOUS
 66
     1
 40
0.003000
 41
0.003000
  0
VERTEX
  8
PLAN_1
  6
CONTINUOUS
 10
1.461386
 20
-4.164291
  0
VERTEX
  8
PLAN_1
  6
CONTINUOUS
 10
1.434291
 20
-4.164291
  0
VERTEX
  8
PLAN_1
  6
CONTINUOUS
 10
1.434291
 20
-3.964713
  0
VERTEX
  8
PLAN_1
  6
CONTINUOUS
 10
1.526524
 20
-3.964713
  0
VERTEX
  8
PLAN_1
  6
CONTINUOUS
 10
1.532776
 20
-3.965232
  0
VERTEX
  8
PLAN_1
  6
CONTINUOUS
 10
1.538508
 20
-3.965752
  0
VERTEX
  8
PLAN_1
  6
CONTINUOUS
 10
1.544760
 20
-3.966276
  0
VERTEX
  8
PLAN_1
  6
CONTINUOUS
 10
1.550492
 20
-3.967319
  0
VERTEX
  8
PLAN_1
  6
CONTINUOUS
 10
1.556224
 20
-3.968882
  0
VERTEX
  8
PLAN_1
  6
CONTINUOUS
 10
1.561437
 20
-3.970965
  0
VERTEX
  8
PLAN_1
  6
CONTINUOUS
 10
1.566646
 20
-3.973047
  0
VERTEX
  8
PLAN_1
  6
CONTINUOUS
 10
1.571339
 20
-3.976177
  0
VERTEX
  8
PLAN_1
  6
CONTINUOUS
 10
1.576028
 20
-3.979303
  0
VERTEX
  8
PLAN_1
  6
CONTINUOUS
 10
1.579673
 20
-3.982949
  0
VERTEX
  8
PLAN_1
  6
CONTINUOUS
 10
1.583323
 20
-3.987638
  0
VERTEX
  8
PLAN_1
  6
CONTINUOUS
 10
1.586449
 20
-3.992331
  0
VERTEX
  8
PLAN_1
  6
CONTINUOUS
 10
1.588535
 20
-3.998063
  0
VERTEX
  8
PLAN_1
  6
CONTINUOUS
 10
1.590618
 20
-4.004315
  0
VERTEX
  8
PLAN_1
  6
CONTINUOUS
 10
1.591661
 20
-4.011091
  0
VERTEX
  8
PLAN_1
  6
CONTINUOUS
 10
1.592181
 20
-4.018386
  0
VERTEX
  8
PLAN_1
  6
CONTINUOUS
 10
1.591661
 20
-4.023594
  0
VERTEX
  8
PLAN_1
  6
CONTINUOUS
 10
1.591138
 20
-4.028807
  0
VERTEX
  8
PLAN_1
  6
CONTINUOUS
 10
1.590618
 20
-4.032976
  0
VERTEX
  8
PLAN_1
  6
CONTINUOUS
 10
1.589575
 20
-4.037142
  0
VERTEX
  8
PLAN_1
  6
CONTINUOUS
 10
1.588012
 20
-4.041311
  0
VERTEX
  8
PLAN_1
  6
CONTINUOUS
 10
1.586449
 20
-4.044437
  0
VERTEX
  8
PLAN_1
  6
CONTINUOUS
 10
1.584886
 20
-4.047567
  0
VERTEX
  8
PLAN_1
  6
CONTINUOUS
 10
1.582803
 20
-4.050693
  0
VERTEX
  8
PLAN_1
  6
CONTINUOUS
 10
1.578634
 20
-4.055382
  0
VERTEX
  8
PLAN_1
  6
CONTINUOUS
 10
1.573941
 20
-4.059551
  0
VERTEX
  8
PLAN_1
  6
CONTINUOUS
 10
1.569252
 20
-4.063197
  0
VERTEX
  8
PLAN_1
  6
CONTINUOUS
 10
1.564043
 20
-4.066327
  0
VERTEX
  8
PLAN_1
  6
CONTINUOUS
 10
1.568732
 20
-4.067890
  0
VERTEX
  8
PLAN_1
  6
CONTINUOUS
 10
1.572378
 20
-4.069972
  0
VERTEX
  8
PLAN_1
  6
CONTINUOUS
 10
1.576547
 20
-4.073098
  0
VERTEX
  8
PLAN_1
  6
CONTINUOUS
 10
1.580197
 20
-4.076224
  0
VERTEX
  8
PLAN_1
  6
CONTINUOUS
 10
1.581760
 20
-4.078311
  0
VERTEX
  8
PLAN_1
  6
CONTINUOUS
 10
1.582803
 20
-4.080917
  0
VERTEX
  8
PLAN_1
  6
CONTINUOUS
 10
1.584366
 20
-4.083520
  0
VERTEX
  8
PLAN_1
  6
CONTINUOUS
 10
1.585406
 20
-4.086646
  0
VERTEX
  8
PLAN_1
  6
CONTINUOUS
 10
1.586449
 20
-4.090295
  0
VERTEX
  8
PLAN_1
  6
CONTINUOUS
 10
1.586969
 20
-4.094465
  0
VERTEX
  8
PLAN_1
  6
CONTINUOUS
 10
1.588012
 20
-4.098634
  0
VERTEX
  8
PLAN_1
  6
CONTINUOUS
 10
1.588012
 20
-4.103843
  0
VERTEX
  8
PLAN_1
  6
CONTINUOUS
 10
1.589575
 20
-4.139799
  0
VERTEX
  8
PLAN_1
  6
CONTINUOUS
 10
1.590098
 20
-4.143445
  0
VERTEX
  8
PLAN_1
  6
CONTINUOUS
 10
1.590098
 20
-4.147094
  0
VERTEX
  8
PLAN_1
  6
CONTINUOUS
 10
1.590618
 20
-4.149701
  0
VERTEX
  8
PLAN_1
  6
CONTINUOUS
 10
1.591661
 20
-4.152307
  0
VERTEX
  8
PLAN_1
  6
CONTINUOUS
 10
1.593224
 20
-4.154390
  0
VERTEX
  8
PLAN_1
  6
CONTINUOUS
 10
1.594787
 20
-4.156472
  0
VERTEX
  8
PLAN_1
  6
CONTINUOUS
 10
1.596870
 20
-4.158035
  0
VERTEX
  8
PLAN_1
  6
CONTINUOUS
 10
1.599996
 20
-4.159602
  0
VERTEX
  8
PLAN_1
  6
CONTINUOUS
 10
1.599996
 20
-4.164291
  0
VERTEX
  8
PLAN_1
  6
CONTINUOUS
 10
1.566646
 20
-4.164291
  0
VERTEX
  8
PLAN_1
  6
CONTINUOUS
 10
1.565606
 20
-4.159079
  0
VERTEX
  8
PLAN_1
  6
CONTINUOUS
 10
1.564563
 20
-4.152307
  0
VERTEX
  8
PLAN_1
  6
CONTINUOUS
 10
1.563520
 20
-4.145012
  0
VERTEX
  8
PLAN_1
  6
CONTINUOUS
 10
1.563000
 20
-4.137717
  0
VERTEX
  8
PLAN_1
  6
CONTINUOUS
 10
1.562480
 20
-4.130421
  0
VERTEX
  8
PLAN_1
  6
CONTINUOUS
 10
1.561957
 20
-4.123646
  0
VERTEX
  8
PLAN_1
  6
CONTINUOUS
 10
1.561957
 20
-4.117913
  0
VERTEX
  8
PLAN_1
  6
CONTINUOUS
 10
1.561957
 20
-4.114264
  0
VERTEX
  8
PLAN_1
  6
CONTINUOUS
 10
1.561957
 20
-4.108012
  0
VERTEX
  8
PLAN_1
  6
CONTINUOUS
 10
1.560917
 20
-4.101760
  0
VERTEX
  8
PLAN_1
  6
CONTINUOUS
 10
1.560394
 20
-4.098634
  0
VERTEX
  8
PLAN_1
  6
CONTINUOUS
 10
1.559350
 20
-4.096028
  0
VERTEX
  8
PLAN_1
  6
CONTINUOUS
 10
1.557787
 20
-4.092902
  0
VERTEX
  8
PLAN_1
  6
CONTINUOUS
 10
1.556224
 20
-4.090295
  0
VERTEX
  8
PLAN_1
  6
CONTINUOUS
 10
1.554142
 20
-4.087689
  0
VERTEX
  8
PLAN_1
  6
CONTINUOUS
 10
1.552055
 20
-4.085606
  0
VERTEX
  8
PLAN_1
  6
CONTINUOUS
 10
1.548929
 20
-4.083520
  0
VERTEX
  8
PLAN_1
  6
CONTINUOUS
 10
1.545803
 20
-4.081957
  0
VERTEX
  8
PLAN_1
  6
CONTINUOUS
 10
1.541634
 20
-4.080394
  0
VERTEX
  8
PLAN_1
  6
CONTINUOUS
 10
1.537465
 20
-4.079350
  0
VERTEX
  8
PLAN_1
  6
CONTINUOUS
 10
1.532256
 20
-4.078831
  0
VERTEX
  8
PLAN_1
  6
CONTINUOUS
 10
1.526524
 20
-4.078831
  0
VERTEX
  8
PLAN_1
  6
CONTINUOUS
 10
1.461386
 20
-4.078831
  0
VERTEX
  8
PLAN_1
  6
CONTINUOUS
 10
1.461386
 20
-4.164291
  0
SEQEND
  8
0
  0
POLYLINE
  8
PLAN_1
  6
CONTINUOUS
 66
     1
 40
0.003000
 41
0.003000
  0
VERTEX
  8
PLAN_1
  6
CONTINUOUS
 10
1.461386
 20
-4.055902
  0
VERTEX
  8
PLAN_1
  6
CONTINUOUS
 10
1.523917
 20
-4.055902
  0
VERTEX
  8
PLAN_1
  6
CONTINUOUS
 10
1.531213
 20
-4.055382
  0
VERTEX
  8
PLAN_1
  6
CONTINUOUS
 10
1.538508
 20
-4.054339
  0
VERTEX
  8
PLAN_1
  6
CONTINUOUS
 10
1.541634
 20
-4.053819
  0
VERTEX
  8
PLAN_1
  6
CONTINUOUS
 10
1.545283
 20
-4.052776
  0
VERTEX
  8
PLAN_1
  6
CONTINUOUS
 10
1.548409
 20
-4.051213
  0
VERTEX
  8
PLAN_1
  6
CONTINUOUS
 10
1.551535
 20
-4.049650
  0
VERTEX
  8
PLAN_1
  6
CONTINUOUS
 10
1.554142
 20
-4.047567
  0
VERTEX
  8
PLAN_1
  6
CONTINUOUS
 10
1.556748
 20
-4.044961
  0
VERTEX
  8
PLAN_1
  6
CONTINUOUS
 10
1.558831
 20
-4.042354
  0
VERTEX
  8
PLAN_1
  6
CONTINUOUS
 10
1.560917
 20
-4.039228
  0
VERTEX
  8
PLAN_1
  6
CONTINUOUS
 10
1.561957
 20
-4.035579
  0
VERTEX
  8
PLAN_1
  6
CONTINUOUS
 10
1.563520
 20
-4.031413
  0
VERTEX
  8
PLAN_1
  6
CONTINUOUS
 10
1.564043
 20
-4.026720
  0
VERTEX
  8
PLAN_1
  6
CONTINUOUS
 10
1.564043
 20
-4.021512
  0
VERTEX
  8
PLAN_1
  6
CONTINUOUS
 10
1.564043
 20
-4.015780
  0
VERTEX
  8
PLAN_1
  6
CONTINUOUS
 10
1.563000
 20
-4.011091
  0
VERTEX
  8
PLAN_1
  6
CONTINUOUS
 10
1.561957
 20
-4.006921
  0
VERTEX
  8
PLAN_1
  6
CONTINUOUS
 10
1.560394
 20
-4.003272
  0
VERTEX
  8
PLAN_1
  6
CONTINUOUS
 10
1.558831
 20
-4.000146
  0
VERTEX
  8
PLAN_1
  6
CONTINUOUS
 10
1.556224
 20
-3.997020
  0
VERTEX
  8
PLAN_1
  6
CONTINUOUS
 10
1.554142
 20
-3.994933
  0
VERTEX
  8
PLAN_1
  6
CONTINUOUS
 10
1.551535
 20
-3.992850
  0
VERTEX
  8
PLAN_1
  6
CONTINUOUS
 10
1.548409
 20
-3.991807
  0
VERTEX
  8
PLAN_1
  6
CONTINUOUS
 10
1.545803
 20
-3.990244
  0
VERTEX
  8
PLAN_1
  6
CONTINUOUS
 10
1.542677
 20
-3.989724
  0
VERTEX
  8
PLAN_1
  6
CONTINUOUS
 10
1.539551
 20
-3.988681
  0
VERTEX
  8
PLAN_1
  6
CONTINUOUS
 10
1.533819
 20
-3.988161
  0
VERTEX
  8
PLAN_1
  6
CONTINUOUS
 10
1.528606
 20
-3.988161
  0
VERTEX
  8
PLAN_1
  6
CONTINUOUS
 10
1.461386
 20
-3.988161
  0
VERTEX
  8
PLAN_1
  6
CONTINUOUS
 10
1.461386
 20
-4.055902
  0
SEQEND
  8
0
  0
SOLID
  8
PLAN_1
 10
1.663571
 20
-4.164291
 11
1.634390
 21
-4.164291
 12
1.663571
 22
-4.134587
 13
1.634390
 23
-4.134587
  0
POLYLINE
  8
PLAN_1
  6
CONTINUOUS
 66
     1
 40
0.003000
 41
0.003000
  0
VERTEX
  8
PLAN_1
  6
CONTINUOUS
 10
1.663571
 20
-4.164291
  0
VERTEX
  8
PLAN_1
  6
CONTINUOUS
 10
1.634390
 20
-4.164291
  0
VERTEX
  8
PLAN_1
  6
CONTINUOUS
 10
1.634390
 20
-4.134587
  0
VERTEX
  8
PLAN_1
  6
CONTINUOUS
 10
1.663571
 20
-4.134587
  0
VERTEX
  8
PLAN_1
  6
CONTINUOUS
 10
1.663571
 20
-4.164291
  0
SEQEND
  8
0
  0
POLYLINE
  8
PLAN_1
  6
CONTINUOUS
 66
     1
 40
0.003000
 41
0.003000
  0
VERTEX
  8
PLAN_1
  6
CONTINUOUS
 10
1.858461
 20
-4.164291
  0
VERTEX
  8
PLAN_1
  6
CONTINUOUS
 10
1.711512
 20
-4.164291
  0
VERTEX
  8
PLAN_1
  6
CONTINUOUS
 10
1.711512
 20
-3.964713
  0
VERTEX
  8
PLAN_1
  6
CONTINUOUS
 10
1.856374
 20
-3.964713
  0
VERTEX
  8
PLAN_1
  6
CONTINUOUS
 10
1.856374
 20
-3.988681
  0
VERTEX
  8
PLAN_1
  6
CONTINUOUS
 10
1.738087
 20
-3.988681
  0
VERTEX
  8
PLAN_1
  6
CONTINUOUS
 10
1.738087
 20
-4.049650
  0
VERTEX
  8
PLAN_1
  6
CONTINUOUS
 10
1.847516
 20
-4.049650
  0
VERTEX
  8
PLAN_1
  6
CONTINUOUS
 10
1.847516
 20
-4.073622
  0
VERTEX
  8
PLAN_1
  6
CONTINUOUS
 10
1.738087
 20
-4.073622
  0
VERTEX
  8
PLAN_1
  6
CONTINUOUS
 10
1.738087
 20
-4.140319
  0
VERTEX
  8
PLAN_1
  6
CONTINUOUS
 10
1.858461
 20
-4.140319
  0
VERTEX
  8
PLAN_1
  6
CONTINUOUS
 10
1.858461
 20
-4.164291
  0
SEQEND
  8
0
  0
POLYLINE
  8
PLAN_1
  6
CONTINUOUS
 66
     1
 40
0.003000
 41
0.003000
  0
VERTEX
  8
PLAN_1
  6
CONTINUOUS
 10
1.923598
 20
-4.164291
  0
VERTEX
  8
PLAN_1
  6
CONTINUOUS
 10
1.896500
 20
-4.164291
  0
VERTEX
  8
PLAN_1
  6
CONTINUOUS
 10
1.896500
 20
-3.964713
  0
VERTEX
  8
PLAN_1
  6
CONTINUOUS
 10
1.986130
 20
-3.964713
  0
VERTEX
  8
PLAN_1
  6
CONTINUOUS
 10
1.992902
 20
-3.965232
  0
VERTEX
  8
PLAN_1
  6
CONTINUOUS
 10
1.999154
 20
-3.966276
  0
VERTEX
  8
PLAN_1
  6
CONTINUOUS
 10
2.005409
 20
-3.967319
  0
VERTEX
  8
PLAN_1
  6
CONTINUOUS
 10
2.011142
 20
-3.969402
  0
VERTEX
  8
PLAN_1
  6
CONTINUOUS
 10
2.016350
 20
-3.971484
  0
VERTEX
  8
PLAN_1
  6
CONTINUOUS
 10
2.021043
 20
-3.974091
  0
VERTEX
  8
PLAN_1
  6
CONTINUOUS
 10
2.025732
 20
-3.977217
  0
VERTEX
  8
PLAN_1
  6
CONTINUOUS
 10
2.029378
 20
-3.980866
  0
VERTEX
  8
PLAN_1
  6
CONTINUOUS
 10
2.033028
 20
-3.985035
  0
VERTEX
  8
PLAN_1
  6
CONTINUOUS
 10
2.036154
 20
-3.989205
  0
VERTEX
  8
PLAN_1
  6
CONTINUOUS
 10
2.039280
 20
-3.993894
  0
VERTEX
  8
PLAN_1
  6
CONTINUOUS
 10
2.041362
 20
-3.998583
  0
VERTEX
  8
PLAN_1
  6
CONTINUOUS
 10
2.042929
 20
-4.003795
  0
VERTEX
  8
PLAN_1
  6
CONTINUOUS
 10
2.044492
 20
-4.009528
  0
VERTEX
  8
PLAN_1
  6
CONTINUOUS
 10
2.045012
 20
-4.015256
  0
VERTEX
  8
PLAN_1
  6
CONTINUOUS
 10
2.045531
 20
-4.020988
  0
VERTEX
  8
PLAN_1
  6
CONTINUOUS
 10
2.045012
 20
-4.026201
  0
VERTEX
  8
PLAN_1
  6
CONTINUOUS
 10
2.044492
 20
-4.031413
  0
VERTEX
  8
PLAN_1
  6
CONTINUOUS
 10
2.043449
 20
-4.036622
  0
VERTEX
  8
PLAN_1
  6
CONTINUOUS
 10
2.042406
 20
-4.041835
  0
VERTEX
  8
PLAN_1
  6
CONTINUOUS
 10
2.040323
 20
-4.047043
  0
VERTEX
  8
PLAN_1
  6
CONTINUOUS
 10
2.038236
 20
-4.051736
  0
VERTEX
  8
PLAN_1
  6
CONTINUOUS
 10
2.035110
 20
-4.056425
  0
VERTEX
  8
PLAN_1
  6
CONTINUOUS
 10
2.031984
 20
-4.061114
  0
VERTEX
  8
PLAN_1
  6
CONTINUOUS
 10
2.028339
 20
-4.065283
  0
VERTEX
  8
PLAN_1
  6
CONTINUOUS
 10
2.024169
 20
-4.068929
  0
VERTEX
  8
PLAN_1
  6
CONTINUOUS
 10
2.018957
 20
-4.072055
  0
VERTEX
  8
PLAN_1
  6
CONTINUOUS
 10
2.013744
 20
-4.074661
  0
VERTEX
  8
PLAN_1
  6
CONTINUOUS
 10
2.008016
 20
-4.077268
  0
VERTEX
  8
PLAN_1
  6
CONTINUOUS
 10
2.001240
 20
-4.078831
  0
VERTEX
  8
PLAN_1
  6
CONTINUOUS
 10
1.993945
 20
-4.079874
  0
VERTEX
  8
PLAN_1
  6
CONTINUOUS
 10
1.986130
 20
-4.080394
  0
VERTEX
  8
PLAN_1
  6
CONTINUOUS
 10
1.923598
 20
-4.080394
  0
VERTEX
  8
PLAN_1
  6
CONTINUOUS
 10
1.923598
 20
-4.164291
  0
SEQEND
  8
0
  0
POLYLINE
  8
PLAN_1
  6
CONTINUOUS
 66
     1
 40
0.003000
 41
0.003000
  0
VERTEX
  8
PLAN_1
  6
CONTINUOUS
 10
1.923598
 20
-4.056945
  0
VERTEX
  8
PLAN_1
  6
CONTINUOUS
 10
1.977268
 20
-4.056945
  0
VERTEX
  8
PLAN_1
  6
CONTINUOUS
 10
1.985606
 20
-4.056425
  0
VERTEX
  8
PLAN_1
  6
CONTINUOUS
 10
1.993425
 20
-4.055382
  0
VERTEX
  8
PLAN_1
  6
CONTINUOUS
 10
1.997071
 20
-4.054339
  0
VERTEX
  8
PLAN_1
  6
CONTINUOUS
 10
2.000720
 20
-4.052776
  0
VERTEX
  8
PLAN_1
  6
CONTINUOUS
 10
2.003323
 20
-4.051213
  0
VERTEX
  8
PLAN_1
  6
CONTINUOUS
 10
2.006449
 20
-4.049130
  0
VERTEX
  8
PLAN_1
  6
CONTINUOUS
 10
2.009055
 20
-4.047043
  0
VERTEX
  8
PLAN_1
  6
CONTINUOUS
 10
2.011142
 20
-4.044437
  0
VERTEX
  8
PLAN_1
  6
CONTINUOUS
 10
2.013224
 20
-4.041311
  0
VERTEX
  8
PLAN_1
  6
CONTINUOUS
 10
2.014787
 20
-4.038185
  0
VERTEX
  8
PLAN_1
  6
CONTINUOUS
 10
2.015831
 20
-4.034539
  0
VERTEX
  8
PLAN_1
  6
CONTINUOUS
 10
2.016874
 20
-4.030370
  0
VERTEX
  8
PLAN_1
  6
CONTINUOUS
 10
2.017394
 20
-4.026201
  0
VERTEX
  8
PLAN_1
  6
CONTINUOUS
 10
2.017394
 20
-4.021512
  0
VERTEX
  8
PLAN_1
  6
CONTINUOUS
 10
2.017394
 20
-4.016823
  0
VERTEX
  8
PLAN_1
  6
CONTINUOUS
 10
2.016874
 20
-4.012654
  0
VERTEX
  8
PLAN_1
  6
CONTINUOUS
 10
2.015831
 20
-4.009004
  0
VERTEX
  8
PLAN_1
  6
CONTINUOUS
 10
2.014787
 20
-4.005358
  0
VERTEX
  8
PLAN_1
  6
CONTINUOUS
 10
2.012705
 20
-4.002232
  0
VERTEX
  8
PLAN_1
  6
CONTINUOUS
 10
2.011142
 20
-3.999626
  0
VERTEX
  8
PLAN_1
  6
CONTINUOUS
 10
2.008535
 20
-3.997020
  0
VERTEX
  8
PLAN_1
  6
CONTINUOUS
 10
2.006449
 20
-3.994933
  0
VERTEX
  8
PLAN_1
  6
CONTINUOUS
 10
2.003323
 20
-3.993370
  0
VERTEX
  8
PLAN_1
  6
CONTINUOUS
 10
2.000197
 20
-3.991807
  0
VERTEX
  8
PLAN_1
  6
CONTINUOUS
 10
1.997071
 20
-3.990768
  0
VERTEX
  8
PLAN_1
  6
CONTINUOUS
 10
1.993945
 20
-3.989724
  0
VERTEX
  8
PLAN_1
  6
CONTINUOUS
 10
1.986130
 20
-3.988161
  0
VERTEX
  8
PLAN_1
  6
CONTINUOUS
 10
1.978311
 20
-3.988161
  0
VERTEX
  8
PLAN_1
  6
CONTINUOUS
 10
1.923598
 20
-3.988161
  0
VERTEX
  8
PLAN_1
  6
CONTINUOUS
 10
1.923598
 20
-4.056945
  0
SEQEND
  8
0
  0
POLYLINE
  8
PLAN_1
  6
CONTINUOUS
 66
     1
 40
0.003000
 41
0.003000
  0
VERTEX
  8
PLAN_1
  6
CONTINUOUS
 10
2.199256
 20
-4.023075
  0
VERTEX
  8
PLAN_1
  6
CONTINUOUS
 10
2.198736
 20
-4.017862
  0
VERTEX
  8
PLAN_1
  6
CONTINUOUS
 10
2.197693
 20
-4.012654
  0
VERTEX
  8
PLAN_1
  6
CONTINUOUS
 10
2.196130
 20
-4.007961
  0
VERTEX
  8
PLAN_1
  6
CONTINUOUS
 10
2.194043
 20
-4.003795
  0
VERTEX
  8
PLAN_1
  6
CONTINUOUS
 10
2.191441
 20
-4.000146
  0
VERTEX
  8
PLAN_1
  6
CONTINUOUS
 10
2.188835
 20
-3.997020
  0
VERTEX
  8
PLAN_1
  6
CONTINUOUS
 10
2.185709
 20
-3.993894
  0
VERTEX
  8
PLAN_1
  6
CONTINUOUS
 10
2.182579
 20
-3.991287
  0
VERTEX
  8
PLAN_1
  6
CONTINUOUS
 10
2.178933
 20
-3.989205
  0
VERTEX
  8
PLAN_1
  6
CONTINUOUS
 10
2.174764
 20
-3.987638
  0
VERTEX
  8
PLAN_1
  6
CONTINUOUS
 10
2.171118
 20
-3.986075
  0
VERTEX
  8
PLAN_1
  6
CONTINUOUS
 10
2.166949
 20
-3.984512
  0
VERTEX
  8
PLAN_1
  6
CONTINUOUS
 10
2.158091
 20
-3.982949
  0
VERTEX
  8
PLAN_1
  6
CONTINUOUS
 10
2.149752
 20
-3.982949
  0
VERTEX
  8
PLAN_1
  6
CONTINUOUS
 10
2.142976
 20
-3.982949
  0
VERTEX
  8
PLAN_1
  6
CONTINUOUS
 10
2.135681
 20
-3.983992
  0
VERTEX
  8
PLAN_1
  6
CONTINUOUS
 10
2.131512
 20
-3.984512
  0
VERTEX
  8
PLAN_1
  6
CONTINUOUS
 10
2.127866
 20
-3.986075
  0
VERTEX
  8
PLAN_1
  6
CONTINUOUS
 10
2.124217
 20
-3.987118
  0
VERTEX
  8
PLAN_1
  6
CONTINUOUS
 10
2.120571
 20
-3.988681
  0
VERTEX
  8
PLAN_1
  6
CONTINUOUS
 10
2.117445
 20
-3.990768
  0
VERTEX
  8
PLAN_1
  6
CONTINUOUS
 10
2.114319
 20
-3.993370
  0
VERTEX
  8
PLAN_1
  6
CONTINUOUS
 10
2.111189
 20
-3.995976
  0
VERTEX
  8
PLAN_1
  6
CONTINUOUS
 10
2.109106
 20
-3.999626
  0
VERTEX
  8
PLAN_1
  6
CONTINUOUS
 10
2.107024
 20
-4.003272
  0
VERTEX
  8
PLAN_1
  6
CONTINUOUS
 10
2.105457
 20
-4.007441
  0
VERTEX
  8
PLAN_1
  6
CONTINUOUS
 10
2.104417
 20
-4.012130
  0
VERTEX
  8
PLAN_1
  6
CONTINUOUS
 10
2.104417
 20
-4.017862
  0
VERTEX
  8
PLAN_1
  6
CONTINUOUS
 10
2.104417
 20
-4.020988
  0
VERTEX
  8
PLAN_1
  6
CONTINUOUS
 10
2.104937
 20
-4.023594
  0
VERTEX
  8
PLAN_1
  6
CONTINUOUS
 10
2.105457
 20
-4.026201
  0
VERTEX
  8
PLAN_1
  6
CONTINUOUS
 10
2.106500
 20
-4.028283
  0
VERTEX
  8
PLAN_1
  6
CONTINUOUS
 10
2.108587
 20
-4.032453
  0
VERTEX
  8
PLAN_1
  6
CONTINUOUS
 10
2.111713
 20
-4.035579
  0
VERTEX
  8
PLAN_1
  6
CONTINUOUS
 10
2.115358
 20
-4.038185
  0
VERTEX
  8
PLAN_1
  6
CONTINUOUS
 10
2.119008
 20
-4.040272
  0
VERTEX
  8
PLAN_1
  6
CONTINUOUS
 10
2.123697
 20
-4.041835
  0
VERTEX
  8
PLAN_1
  6
CONTINUOUS
 10
2.127866
 20
-4.042874
  0
VERTEX
  8
PLAN_1
  6
CONTINUOUS
 10
2.184665
 20
-4.055902
  0
VERTEX
  8
PLAN_1
  6
CONTINUOUS
 10
2.189354
 20
-4.057465
  0
VERTEX
  8
PLAN_1
  6
CONTINUOUS
 10
2.194043
 20
-4.058508
  0
VERTEX
  8
PLAN_1
  6
CONTINUOUS
 10
2.198736
 20
-4.060594
  0
VERTEX
  8
PLAN_1
  6
CONTINUOUS
 10
2.202902
 20
-4.062677
  0
VERTEX
  8
PLAN_1
  6
CONTINUOUS
 10
2.206551
 20
-4.064760
  0
VERTEX
  8
PLAN_1
  6
CONTINUOUS
 10
2.210197
 20
-4.067366
  0
VERTEX
  8
PLAN_1
  6
CONTINUOUS
 10
2.213846
 20
-4.069972
  0
VERTEX
  8
PLAN_1
  6
CONTINUOUS
 10
2.216972
 20
-4.073098
  0
VERTEX
  8
PLAN_1
  6
CONTINUOUS
 10
2.220098
 20
-4.076224
  0
VERTEX
  8
PLAN_1
  6
CONTINUOUS
 10
2.222705
 20
-4.079874
  0
VERTEX
  8
PLAN_1
  6
CONTINUOUS
 10
2.224787
 20
-4.084043
  0
VERTEX
  8
PLAN_1
  6
CONTINUOUS
 10
2.226350
 20
-4.088213
  0
VERTEX
  8
PLAN_1
  6
CONTINUOUS
 10
2.227917
 20
-4.092902
  0
VERTEX
  8
PLAN_1
  6
CONTINUOUS
 10
2.228957
 20
-4.098110
  0
VERTEX
  8
PLAN_1
  6
CONTINUOUS
 10
2.230000
 20
-4.103323
  0
VERTEX
  8
PLAN_1
  6
CONTINUOUS
 10
2.230000
 20
-4.109055
  0
VERTEX
  8
PLAN_1
  6
CONTINUOUS
 10
2.229480
 20
-4.117913
  0
VERTEX
  8
PLAN_1
  6
CONTINUOUS
 10
2.227917
 20
-4.125209
  0
VERTEX
  8
PLAN_1
  6
CONTINUOUS
 10
2.225831
 20
-4.132504
  0
VERTEX
  8
PLAN_1
  6
CONTINUOUS
 10
2.222705
 20
-4.138756
  0
VERTEX
  8
PLAN_1
  6
CONTINUOUS
 10
2.218535
 20
-4.143969
  0
VERTEX
  8
PLAN_1
  6
CONTINUOUS
 10
2.214366
 20
-4.149177
  0
VERTEX
  8
PLAN_1
  6
CONTINUOUS
 10
2.209157
 20
-4.153346
  0
VERTEX
  8
PLAN_1
  6
CONTINUOUS
 10
2.203945
 20
-4.156996
  0
VERTEX
  8
PLAN_1
  6
CONTINUOUS
 10
2.197693
 20
-4.160122
  0
VERTEX
  8
PLAN_1
  6
CONTINUOUS
 10
2.191441
 20
-4.162728
  0
VERTEX
  8
PLAN_1
  6
CONTINUOUS
 10
2.185185
 20
-4.164811
  0
VERTEX
  8
PLAN_1
  6
CONTINUOUS
 10
2.178413
 20
-4.166898
  0
VERTEX
  8
PLAN_1
  6
CONTINUOUS
 10
2.171638
 20
-4.167937
  0
VERTEX
  8
PLAN_1
  6
CONTINUOUS
 10
2.165386
 20
-4.168980
  0
VERTEX
  8
PLAN_1
  6
CONTINUOUS
 10
2.158610
 20
-4.169500
  0
VERTEX
  8
PLAN_1
  6
CONTINUOUS
 10
2.151835
 20
-4.169500
  0
VERTEX
  8
PLAN_1
  6
CONTINUOUS
 10
2.139331
 20
-4.168980
  0
VERTEX
  8
PLAN_1
  6
CONTINUOUS
 10
2.128386
 20
-4.167417
  0
VERTEX
  8
PLAN_1
  6
CONTINUOUS
 10
2.119008
 20
-4.165335
  0
VERTEX
  8
PLAN_1
  6
CONTINUOUS
 10
2.111189
 20
-4.162728
  0
VERTEX
  8
PLAN_1
  6
CONTINUOUS
 10
2.104937
 20
-4.160122
  0
VERTEX
  8
PLAN_1
  6
CONTINUOUS
 10
2.099728
 20
-4.156996
  0
VERTEX
  8
PLAN_1
  6
CONTINUOUS
 10
2.095559
 20
-4.153346
  0
VERTEX
  8
PLAN_1
  6
CONTINUOUS
 10
2.091909
 20
-4.150220
  0
VERTEX
  8
PLAN_1
  6
CONTINUOUS
 10
2.086177
 20
-4.144488
  0
VERTEX
  8
PLAN_1
  6
CONTINUOUS
 10
2.081488
 20
-4.138756
  0
VERTEX
  8
PLAN_1
  6
CONTINUOUS
 10
2.077843
 20
-4.132504
  0
VERTEX
  8
PLAN_1
  6
CONTINUOUS
 10
2.075236
 20
-4.126252
  0
VERTEX
  8
PLAN_1
  6
CONTINUOUS
 10
2.073673
 20
-4.119996
  0
VERTEX
  8
PLAN_1
  6
CONTINUOUS
 10
2.072110
 20
-4.113224
  0
VERTEX
  8
PLAN_1
  6
CONTINUOUS
 10
2.071587
 20
-4.106969
  0
VERTEX
  8
PLAN_1
  6
CONTINUOUS
 10
2.071587
 20
-4.099673
  0
VERTEX
  8
PLAN_1
  6
CONTINUOUS
 10
2.096598
 20
-4.099673
  0
VERTEX
  8
PLAN_1
  6
CONTINUOUS
 10
2.097122
 20
-4.106449
  0
VERTEX
  8
PLAN_1
  6
CONTINUOUS
 10
2.098161
 20
-4.112181
  0
VERTEX
  8
PLAN_1
  6
CONTINUOUS
 10
2.099728
 20
-4.117394
  0
VERTEX
  8
PLAN_1
  6
CONTINUOUS
 10
2.101811
 20
-4.122602
  0
VERTEX
  8
PLAN_1
  6
CONTINUOUS
 10
2.104417
 20
-4.126772
  0
VERTEX
  8
PLAN_1
  6
CONTINUOUS
 10
2.107543
 20
-4.130421
  0
VERTEX
  8
PLAN_1
  6
CONTINUOUS
 10
2.110669
 20
-4.133547
  0
VERTEX
  8
PLAN_1
  6
CONTINUOUS
 10
2.114839
 20
-4.136673
  0
VERTEX
  8
PLAN_1
  6
CONTINUOUS
 10
2.119008
 20
-4.139280
  0
VERTEX
  8
PLAN_1
  6
CONTINUOUS
 10
2.123177
 20
-4.141362
  0
VERTEX
  8
PLAN_1
  6
CONTINUOUS
 10
2.127866
 20
-4.142925
  0
VERTEX
  8
PLAN_1
  6
CONTINUOUS
 10
2.132555
 20
-4.144488
  0
VERTEX
  8
PLAN_1
  6
CONTINUOUS
 10
2.137244
 20
-4.145012
  0
VERTEX
  8
PLAN_1
  6
CONTINUOUS
 10
2.141937
 20
-4.146051
  0
VERTEX
  8
PLAN_1
  6
CONTINUOUS
 10
2.147146
 20
-4.146575
  0
VERTEX
  8
PLAN_1
  6
CONTINUOUS
 10
2.151835
 20
-4.146575
  0
VERTEX
  8
PLAN_1
  6
CONTINUOUS
 10
2.159654
 20
-4.146051
  0
VERTEX
  8
PLAN_1
  6
CONTINUOUS
 10
2.167988
 20
-4.145012
  0
VERTEX
  8
PLAN_1
  6
CONTINUOUS
 10
2.172681
 20
-4.144488
  0
VERTEX
  8
PLAN_1
  6
CONTINUOUS
 10
2.176850
 20
-4.143445
  0
VERTEX
  8
PLAN_1
  6
CONTINUOUS
 10
2.181016
 20
-4.141882
  0
VERTEX
  8
PLAN_1
  6
CONTINUOUS
 10
2.185185
 20
-4.140319
  0
VERTEX
  8
PLAN_1
  6
CONTINUOUS
 10
2.188835
 20
-4.138236
  0
VERTEX
  8
PLAN_1
  6
CONTINUOUS
 10
2.192480
 20
-4.136150
  0
VERTEX
  8
PLAN_1
  6
CONTINUOUS
 10
2.195606
 20
-4.133547
  0
VERTEX
  8
PLAN_1
  6
CONTINUOUS
 10
2.198736
 20
-4.130421
  0
VERTEX
  8
PLAN_1
  6
CONTINUOUS
 10
2.200819
 20
-4.126772
  0
VERTEX
  8
PLAN_1
  6
CONTINUOUS
 10
2.202382
 20
-4.122602
  0
VERTEX
  8
PLAN_1
  6
CONTINUOUS
 10
2.203425
 20
-4.117913
  0
VERTEX
  8
PLAN_1
  6
CONTINUOUS
 10
2.203945
 20
-4.112701
  0
VERTEX
  8
PLAN_1
  6
CONTINUOUS
 10
2.203945
 20
-4.109055
  0
VERTEX
  8
PLAN_1
  6
CONTINUOUS
 10
2.203425
 20
-4.105929
  0
VERTEX
  8
PLAN_1
  6
CONTINUOUS
 10
2.202902
 20
-4.102803
  0
VERTEX
  8
PLAN_1
  6
CONTINUOUS
 10
2.201862
 20
-4.099673
  0
VERTEX
  8
PLAN_1
  6
CONTINUOUS
 10
2.200819
 20
-4.097071
  0
VERTEX
  8
PLAN_1
  6
CONTINUOUS
 10
2.199256
 20
-4.094465
  0
VERTEX
  8
PLAN_1
  6
CONTINUOUS
 10
2.197169
 20
-4.092378
  0
VERTEX
  8
PLAN_1
  6
CONTINUOUS
 10
2.195087
 20
-4.090295
  0
VERTEX
  8
PLAN_1
  6
CONTINUOUS
 10
2.192480
 20
-4.088732
  0
VERTEX
  8
PLAN_1
  6
CONTINUOUS
 10
2.189354
 20
-4.086646
  0
VERTEX
  8
PLAN_1
  6
CONTINUOUS
 10
2.185709
 20
-4.085083
  0
VERTEX
  8
PLAN_1
  6
CONTINUOUS
 10
2.182059
 20
-4.083520
  0
VERTEX
  8
PLAN_1
  6
CONTINUOUS
 10
2.172681
 20
-4.080394
  0
VERTEX
  8
PLAN_1
  6
CONTINUOUS
 10
2.161217
 20
-4.077787
  0
VERTEX
  8
PLAN_1
  6
CONTINUOUS
 10
2.120571
 20
-4.068409
  0
VERTEX
  8
PLAN_1
  6
CONTINUOUS
 10
2.114839
 20
-4.066846
  0
VERTEX
  8
PLAN_1
  6
CONTINUOUS
 10
2.108587
 20
-4.064240
  0
VERTEX
  8
PLAN_1
  6
CONTINUOUS
 10
2.104937
 20
-4.063197
  0
VERTEX
  8
PLAN_1
  6
CONTINUOUS
 10
2.101291
 20
-4.061114
  0
VERTEX
  8
PLAN_1
  6
CONTINUOUS
 10
2.098161
 20
-4.059031
  0
VERTEX
  8
PLAN_1
  6
CONTINUOUS
 10
2.094516
 20
-4.056425
  0
VERTEX
  8
PLAN_1
  6
CONTINUOUS
 10
2.091390
 20
-4.053819
  0
VERTEX
  8
PLAN_1
  6
CONTINUOUS
 10
2.088264
 20
-4.050693
  0
VERTEX
  8
PLAN_1
  6
CONTINUOUS
 10
2.085657
 20
-4.047043
  0
VERTEX
  8
PLAN_1
  6
CONTINUOUS
 10
2.083051
 20
-4.042874
  0
VERTEX
  8
PLAN_1
  6
CONTINUOUS
 10
2.080969
 20
-4.038185
  0
VERTEX
  8
PLAN_1
  6
CONTINUOUS
 10
2.079406
 20
-4.032976
  0
VERTEX
  8
PLAN_1
  6
CONTINUOUS
 10
2.078362
 20
-4.027764
  0
VERTEX
  8
PLAN_1
  6
CONTINUOUS
 10
2.078362
 20
-4.021512
  0
VERTEX
  8
PLAN_1
  6
CONTINUOUS
 10
2.078362
 20
-4.015256
  0
VERTEX
  8
PLAN_1
  6
CONTINUOUS
 10
2.079406
 20
-4.009528
  0
VERTEX
  8
PLAN_1
  6
CONTINUOUS
 10
2.080445
 20
-4.004315
  0
VERTEX
  8
PLAN_1
  6
CONTINUOUS
 10
2.082008
 20
-3.998583
  0
VERTEX
  8
PLAN_1
  6
CONTINUOUS
 10
2.084614
 20
-3.993370
  0
VERTEX
  8
PLAN_1
  6
CONTINUOUS
 10
2.087220
 20
-3.988161
  0
VERTEX
  8
PLAN_1
  6
CONTINUOUS
 10
2.090346
 20
-3.983472
  0
VERTEX
  8
PLAN_1
  6
CONTINUOUS
 10
2.094516
 20
-3.978780
  0
VERTEX
  8
PLAN_1
  6
CONTINUOUS
 10
2.098685
 20
-3.974614
  0
VERTEX
  8
PLAN_1
  6
CONTINUOUS
 10
2.103894
 20
-3.970965
  0
VERTEX
  8
PLAN_1
  6
CONTINUOUS
 10
2.109626
 20
-3.967839
  0
VERTEX
  8
PLAN_1
  6
CONTINUOUS
 10
2.115882
 20
-3.964713
  0
VERTEX
  8
PLAN_1
  6
CONTINUOUS
 10
2.122654
 20
-3.962626
  0
VERTEX
  8
PLAN_1
  6
CONTINUOUS
 10
2.129949
 20
-3.961063
  0
VERTEX
  8
PLAN_1
  6
CONTINUOUS
 10
2.137768
 20
-3.960024
  0
VERTEX
  8
PLAN_1
  6
CONTINUOUS
 10
2.146626
 20
-3.959500
  0
VERTEX
  8
PLAN_1
  6
CONTINUOUS
 10
2.159130
 20
-3.960024
  0
VERTEX
  8
PLAN_1
  6
CONTINUOUS
 10
2.170075
 20
-3.961587
  0
VERTEX
  8
PLAN_1
  6
CONTINUOUS
 10
2.179453
 20
-3.963669
  0
VERTEX
  8
PLAN_1
  6
CONTINUOUS
 10
2.188311
 20
-3.966795
  0
VERTEX
  8
PLAN_1
  6
CONTINUOUS
 10
2.195606
 20
-3.969921
  0
VERTEX
  8
PLAN_1
  6
CONTINUOUS
 10
2.201862
 20
-3.974091
  0
VERTEX
  8
PLAN_1
  6
CONTINUOUS
 10
2.207071
 20
-3.978260
  0
VERTEX
  8
PLAN_1
  6
CONTINUOUS
 10
2.211240
 20
-3.983472
  0
VERTEX
  8
PLAN_1
  6
CONTINUOUS
 10
2.214890
 20
-3.988161
  0
VERTEX
  8
PLAN_1
  6
CONTINUOUS
 10
2.217492
 20
-3.993370
  0
VERTEX
  8
PLAN_1
  6
CONTINUOUS
 10
2.220098
 20
-3.998583
  0
VERTEX
  8
PLAN_1
  6
CONTINUOUS
 10
2.221661
 20
-4.004315
  0
VERTEX
  8
PLAN_1
  6
CONTINUOUS
 10
2.223748
 20
-4.014217
  0
VERTEX
  8
PLAN_1
  6
CONTINUOUS
 10
2.224268
 20
-4.023075
  0
VERTEX
  8
PLAN_1
  6
CONTINUOUS
 10
2.199256
 20
-4.023075
  0
SEQEND
  8
0
  0
POLYLINE
  8
PLAN_1
  6
CONTINUOUS
 66
     1
 40
0.008335
 41
0.008335
  0
VERTEX
  8
PLAN_1
  6
CONTINUOUS
 10
-1.101354
 20
2.433280
  0
VERTEX
  8
PLAN_1
  6
CONTINUOUS
 10
-2.039323
 20
2.433280
  0
SEQEND
  8
0
  0
POLYLINE
  8
PLAN_1
  6
CONTINUOUS
 66
     1
 40
0.008335
 41
0.008335
  0
VERTEX
  8
PLAN_1
  6
CONTINUOUS
 10
-2.039323
 20
2.493205
  0
VERTEX
  8
PLAN_1
  6
CONTINUOUS
 10
-2.039323
 20
2.648492
  0
VERTEX
  8
PLAN_1
  6
CONTINUOUS
 10
-1.961157
 20
2.960626
  0
VERTEX
  8
PLAN_1
  6
CONTINUOUS
 10
-1.180559
 20
2.960626
  0
VERTEX
  8
PLAN_1
  6
CONTINUOUS
 10
-1.101354
 20
2.648492
  0
VERTEX
  8
PLAN_1
  6
CONTINUOUS
 10
-1.101354
 20
2.492161
  0
SEQEND
  8
0
  0
POLYLINE
  8
PLAN_1
  6
CONTINUOUS
 66
     1
 40
0.008335
 41
0.008335
  0
VERTEX
  8
PLAN_1
  6
CONTINUOUS
 10
-1.492693
 20
3.409287
  0
VERTEX
  8
PLAN_1
  6
CONTINUOUS
 10
-1.258724
 20
3.409287
  0
VERTEX
  8
PLAN_1
  6
CONTINUOUS
 10
-1.258724
 20
2.960626
  0
VERTEX
  8
PLAN_1
  6
CONTINUOUS
 10
-1.882992
 20
2.960626
  0
VERTEX
  8
PLAN_1
  6
CONTINUOUS
 10
-1.882992
 20
3.409287
  0
VERTEX
  8
PLAN_1
  6
CONTINUOUS
 10
-1.649024
 20
3.409287
  0
VERTEX
  8
PLAN_1
  6
CONTINUOUS
 10
-1.649024
 20
3.018988
  0
VERTEX
  8
PLAN_1
  6
CONTINUOUS
 10
-1.492693
 20
3.018988
  0
VERTEX
  8
PLAN_1
  6
CONTINUOUS
 10
-1.492693
 20
3.409287
  0
SEQEND
  8
0
  0
POLYLINE
  8
PLAN_1
  6
CONTINUOUS
 66
     1
 40
0.008335
 41
0.008335
  0
VERTEX
  8
PLAN_1
  6
CONTINUOUS
 10
-1.806913
 20
2.493205
  0
VERTEX
  8
PLAN_1
  6
CONTINUOUS
 10
-1.806913
 20
2.509358
  0
VERTEX
  8
PLAN_1
  6
CONTINUOUS
 10
-1.807437
 20
2.526031
  0
VERTEX
  8
PLAN_1
  6
CONTINUOUS
 10
-1.808476
 20
2.542709
  0
VERTEX
  8
PLAN_1
  6
CONTINUOUS
 10
-1.809520
 20
2.559906
  0
VERTEX
  8
PLAN_1
  6
CONTINUOUS
 10
-1.813165
 20
2.593776
  0
VERTEX
  8
PLAN_1
  6
CONTINUOUS
 10
-1.817335
 20
2.628169
  0
VERTEX
  8
PLAN_1
  6
CONTINUOUS
 10
-1.822547
 20
2.662039
  0
VERTEX
  8
PLAN_1
  6
CONTINUOUS
 10
-1.828280
 20
2.694866
  0
VERTEX
  8
PLAN_1
  6
CONTINUOUS
 10
-1.834531
 20
2.727177
  0
VERTEX
  8
PLAN_1
  6
CONTINUOUS
 10
-1.841307
 20
2.757398
  0
VERTEX
  8
PLAN_1
  6
CONTINUOUS
 10
-1.847559
 20
2.785539
  0
VERTEX
  8
PLAN_1
  6
CONTINUOUS
 10
-1.853811
 20
2.811594
  0
VERTEX
  8
PLAN_1
  6
CONTINUOUS
 10
-1.859543
 20
2.834520
  0
VERTEX
  8
PLAN_1
  6
CONTINUOUS
 10
-1.864756
 20
2.854323
  0
VERTEX
  8
PLAN_1
  6
CONTINUOUS
 10
-1.872571
 20
2.882461
  0
VERTEX
  8
PLAN_1
  6
CONTINUOUS
 10
-1.875697
 20
2.892362
  0
VERTEX
  8
PLAN_1
  6
CONTINUOUS
 10
-1.879346
 20
2.897575
  0
VERTEX
  8
PLAN_1
  6
CONTINUOUS
 10
-1.883516
 20
2.901740
  0
VERTEX
  8
PLAN_1
  6
CONTINUOUS
 10
-1.887685
 20
2.904346
  0
VERTEX
  8
PLAN_1
  6
CONTINUOUS
 10
-1.891850
 20
2.906433
  0
VERTEX
  8
PLAN_1
  6
CONTINUOUS
 10
-1.896020
 20
2.907996
  0
VERTEX
  8
PLAN_1
  6
CONTINUOUS
 10
-1.900189
 20
2.908516
  0
VERTEX
  8
PLAN_1
  6
CONTINUOUS
 10
-1.904358
 20
2.908516
  0
VERTEX
  8
PLAN_1
  6
CONTINUOUS
 10
-1.908008
 20
2.907996
  0
VERTEX
  8
PLAN_1
  6
CONTINUOUS
 10
-1.914780
 20
2.906433
  0
VERTEX
  8
PLAN_1
  6
CONTINUOUS
 10
-1.920512
 20
2.903827
  0
VERTEX
  8
PLAN_1
  6
CONTINUOUS
 10
-1.924161
 20
2.902264
  0
VERTEX
  8
PLAN_1
  6
CONTINUOUS
 10
-1.925201
 20
2.901220
  0
VERTEX
  8
PLAN_1
  6
CONTINUOUS
 10
-1.930413
 20
2.891843
  0
VERTEX
  8
PLAN_1
  6
CONTINUOUS
 10
-1.935102
 20
2.882461
  0
VERTEX
  8
PLAN_1
  6
CONTINUOUS
 10
-1.939791
 20
2.872559
  0
VERTEX
  8
PLAN_1
  6
CONTINUOUS
 10
-1.944484
 20
2.862661
  0
VERTEX
  8
PLAN_1
  6
CONTINUOUS
 10
-1.952819
 20
2.841815
  0
VERTEX
  8
PLAN_1
  6
CONTINUOUS
 10
-1.960114
 20
2.820972
  0
VERTEX
  8
PLAN_1
  6
CONTINUOUS
 10
-1.966890
 20
2.799606
  0
VERTEX
  8
PLAN_1
  6
CONTINUOUS
 10
-1.973142
 20
2.778764
  0
VERTEX
  8
PLAN_1
  6
CONTINUOUS
 10
-1.978354
 20
2.758441
  0
VERTEX
  8
PLAN_1
  6
CONTINUOUS
 10
-1.983043
 20
2.738638
  0
VERTEX
  8
PLAN_1
  6
CONTINUOUS
 10
-1.990339
 20
2.702685
  0
VERTEX
  8
PLAN_1
  6
CONTINUOUS
 10
-1.995551
 20
2.674024
  0
VERTEX
  8
PLAN_1
  6
CONTINUOUS
 10
-1.998677
 20
2.654744
  0
VERTEX
  8
PLAN_1
  6
CONTINUOUS
 10
-1.999720
 20
2.647969
  0
SEQEND
  8
0
  0
POLYLINE
  8
PLAN_1
  6
CONTINUOUS
 66
     1
 40
0.008335
 41
0.008335
  0
VERTEX
  8
PLAN_1
  6
CONTINUOUS
 10
-1.999720
 20
2.647969
  0
VERTEX
  8
PLAN_1
  6
CONTINUOUS
 10
-1.999720
 20
2.465587
  0
SEQEND
  8
0
  0
POLYLINE
  8
PLAN_1
  6
CONTINUOUS
 66
     1
 40
0.008335
 41
0.008335
  0
VERTEX
  8
PLAN_1
  6
CONTINUOUS
 10
-1.331677
 20
2.493205
  0
VERTEX
  8
PLAN_1
  6
CONTINUOUS
 10
-1.331677
 20
2.509358
  0
VERTEX
  8
PLAN_1
  6
CONTINUOUS
 10
-1.331154
 20
2.526031
  0
VERTEX
  8
PLAN_1
  6
CONTINUOUS
 10
-1.330114
 20
2.542709
  0
VERTEX
  8
PLAN_1
  6
CONTINUOUS
 10
-1.328551
 20
2.559906
  0
VERTEX
  8
PLAN_1
  6
CONTINUOUS
 10
-1.325425
 20
2.593776
  0
VERTEX
  8
PLAN_1
  6
CONTINUOUS
 10
-1.320732
 20
2.628169
  0
VERTEX
  8
PLAN_1
  6
CONTINUOUS
 10
-1.315524
 20
2.662039
  0
VERTEX
  8
PLAN_1
  6
CONTINUOUS
 10
-1.309791
 20
2.694866
  0
VERTEX
  8
PLAN_1
  6
CONTINUOUS
 10
-1.303535
 20
2.727177
  0
VERTEX
  8
PLAN_1
  6
CONTINUOUS
 10
-1.297283
 20
2.757398
  0
VERTEX
  8
PLAN_1
  6
CONTINUOUS
 10
-1.291031
 20
2.785539
  0
VERTEX
  8
PLAN_1
  6
CONTINUOUS
 10
-1.284780
 20
2.811594
  0
VERTEX
  8
PLAN_1
  6
CONTINUOUS
 10
-1.279047
 20
2.834520
  0
VERTEX
  8
PLAN_1
  6
CONTINUOUS
 10
-1.273835
 20
2.854323
  0
VERTEX
  8
PLAN_1
  6
CONTINUOUS
 10
-1.266020
 20
2.882461
  0
VERTEX
  8
PLAN_1
  6
CONTINUOUS
 10
-1.262894
 20
2.892362
  0
VERTEX
  8
PLAN_1
  6
CONTINUOUS
 10
-1.259764
 20
2.898094
  0
VERTEX
  8
PLAN_1
  6
CONTINUOUS
 10
-1.256638
 20
2.902264
  0
VERTEX
  8
PLAN_1
  6
CONTINUOUS
 10
-1.253512
 20
2.905390
  0
VERTEX
  8
PLAN_1
  6
CONTINUOUS
 10
-1.249866
 20
2.907996
  0
VERTEX
  8
PLAN_1
  6
CONTINUOUS
 10
-1.246217
 20
2.909035
  0
VERTEX
  8
PLAN_1
  6
CONTINUOUS
 10
-1.242571
 20
2.909559
  0
VERTEX
  8
PLAN_1
  6
CONTINUOUS
 10
-1.238921
 20
2.909559
  0
VERTEX
  8
PLAN_1
  6
CONTINUOUS
 10
-1.235276
 20
2.909035
  0
VERTEX
  8
PLAN_1
  6
CONTINUOUS
 10
-1.229020
 20
2.906953
  0
VERTEX
  8
PLAN_1
  6
CONTINUOUS
 10
-1.223811
 20
2.904346
  0
VERTEX
  8
PLAN_1
  6
CONTINUOUS
 10
-1.220161
 20
2.902264
  0
VERTEX
  8
PLAN_1
  6
CONTINUOUS
 10
-1.218598
 20
2.901220
  0
VERTEX
  8
PLAN_1
  6
CONTINUOUS
 10
-1.213909
 20
2.891843
  0
VERTEX
  8
PLAN_1
  6
CONTINUOUS
 10
-1.208697
 20
2.882461
  0
VERTEX
  8
PLAN_1
  6
CONTINUOUS
 10
-1.204008
 20
2.872559
  0
VERTEX
  8
PLAN_1
  6
CONTINUOUS
 10
-1.199319
 20
2.862661
  0
VERTEX
  8
PLAN_1
  6
CONTINUOUS
 10
-1.190980
 20
2.841815
  0
VERTEX
  8
PLAN_1
  6
CONTINUOUS
 10
-1.183165
 20
2.820972
  0
VERTEX
  8
PLAN_1
  6
CONTINUOUS
 10
-1.175870
 20
2.799606
  0
VERTEX
  8
PLAN_1
  6
CONTINUOUS
 10
-1.169094
 20
2.778764
  0
VERTEX
  8
PLAN_1
  6
CONTINUOUS
 10
-1.163362
 20
2.758441
  0
VERTEX
  8
PLAN_1
  6
CONTINUOUS
 10
-1.158154
 20
2.738638
  0
VERTEX
  8
PLAN_1
  6
CONTINUOUS
 10
-1.149815
 20
2.702685
  0
VERTEX
  8
PLAN_1
  6
CONTINUOUS
 10
-1.143563
 20
2.674024
  0
VERTEX
  8
PLAN_1
  6
CONTINUOUS
 10
-1.139913
 20
2.654744
  0
VERTEX
  8
PLAN_1
  6
CONTINUOUS
 10
-1.138870
 20
2.647969
  0
SEQEND
  8
0
  0
POLYLINE
  8
PLAN_1
  6
CONTINUOUS
 66
     1
 40
0.008335
 41
0.008335
  0
VERTEX
  8
PLAN_1
  6
CONTINUOUS
 10
-1.138870
 20
2.647969
  0
VERTEX
  8
PLAN_1
  6
CONTINUOUS
 10
-1.138870
 20
2.465587
  0
SEQEND
  8
0
  0
POLYLINE
  8
PLAN_1
  6
CONTINUOUS
 66
     1
 40
0.008335
 41
0.008335
  0
VERTEX
  8
PLAN_1
  6
CONTINUOUS
 10
-2.058602
 20
2.121665
  0
VERTEX
  8
PLAN_1
  6
CONTINUOUS
 10
-2.058602
 20
2.199307
  0
VERTEX
  8
PLAN_1
  6
CONTINUOUS
 10
-2.097685
 20
2.199307
  0
SEQEND
  8
0
  0
POLYLINE
  8
PLAN_1
  6
CONTINUOUS
 66
     1
 40
0.008335
 41
0.008335
  0
VERTEX
  8
PLAN_1
  6
CONTINUOUS
 10
-1.084677
 20
2.121665
  0
VERTEX
  8
PLAN_1
  6
CONTINUOUS
 10
-1.084677
 20
2.199307
  0
VERTEX
  8
PLAN_1
  6
CONTINUOUS
 10
-1.045594
 20
2.199307
  0
SEQEND
  8
0
  0
POLYLINE
  8
PLAN_1
  6
CONTINUOUS
 66
     1
 40
0.008335
 41
0.008335
  0
VERTEX
  8
PLAN_1
  6
CONTINUOUS
 10
-2.097685
 20
2.433799
  0
VERTEX
  8
PLAN_1
  6
CONTINUOUS
 10
-2.097685
 20
2.121665
  0
VERTEX
  8
PLAN_1
  6
CONTINUOUS
 10
-1.044031
 20
2.121665
  0
VERTEX
  8
PLAN_1
  6
CONTINUOUS
 10
-1.044031
 20
2.433799
  0
VERTEX
  8
PLAN_1
  6
CONTINUOUS
 10
-1.336886
 20
2.433799
  0
VERTEX
  8
PLAN_1
  6
CONTINUOUS
 10
-1.336886
 20
2.492161
  0
VERTEX
  8
PLAN_1
  6
CONTINUOUS
 10
-1.805350
 20
2.492161
  0
VERTEX
  8
PLAN_1
  6
CONTINUOUS
 10
-1.805350
 20
2.433799
  0
VERTEX
  8
PLAN_1
  6
CONTINUOUS
 10
-2.097685
 20
2.433799
  0
SEQEND
  8
0
  0
POLYLINE
  8
PLAN_1
  6
CONTINUOUS
 66
     1
 40
0.008335
 41
0.008335
  0
VERTEX
  8
PLAN_1
  6
CONTINUOUS
 10
-1.969496
 20
2.492161
  0
VERTEX
  8
PLAN_1
  6
CONTINUOUS
 10
-1.882472
 20
2.492161
  0
VERTEX
  8
PLAN_1
  6
CONTINUOUS
 10
-1.882472
 20
2.433280
  0
VERTEX
  8
PLAN_1
  6
CONTINUOUS
 10
-2.097161
 20
2.433280
  0
VERTEX
  8
PLAN_1
  6
CONTINUOUS
 10
-2.097161
 20
2.492161
  0
VERTEX
  8
PLAN_1
  6
CONTINUOUS
 10
-2.010661
 20
2.492161
  0
VERTEX
  8
PLAN_1
  6
CONTINUOUS
 10
-2.010661
 20
2.461937
  0
VERTEX
  8
PLAN_1
  6
CONTINUOUS
 10
-1.969496
 20
2.461937
  0
VERTEX
  8
PLAN_1
  6
CONTINUOUS
 10
-1.969496
 20
2.492161
  0
SEQEND
  8
0
  0
POLYLINE
  8
PLAN_1
  6
CONTINUOUS
 66
     1
 40
0.008335
 41
0.008335
  0
VERTEX
  8
PLAN_1
  6
CONTINUOUS
 10
-1.131055
 20
2.492161
  0
VERTEX
  8
PLAN_1
  6
CONTINUOUS
 10
-1.044555
 20
2.492161
  0
VERTEX
  8
PLAN_1
  6
CONTINUOUS
 10
-1.044555
 20
2.433280
  0
VERTEX
  8
PLAN_1
  6
CONTINUOUS
 10
-1.259244
 20
2.433280
  0
VERTEX
  8
PLAN_1
  6
CONTINUOUS
 10
-1.259244
 20
2.492161
  0
VERTEX
  8
PLAN_1
  6
CONTINUOUS
 10
-1.172220
 20
2.492161
  0
VERTEX
  8
PLAN_1
  6
CONTINUOUS
 10
-1.172220
 20
2.461937
  0
VERTEX
  8
PLAN_1
  6
CONTINUOUS
 10
-1.131575
 20
2.461937
  0
VERTEX
  8
PLAN_1
  6
CONTINUOUS
 10
-1.131055
 20
2.492161
  0
SEQEND
  8
0
  0
POLYLINE
  8
PLAN_1
  6
CONTINUOUS
 66
     1
 40
0.008335
 41
0.008335
  0
VERTEX
  8
PLAN_1
  6
CONTINUOUS
 10
-1.502594
 20
3.289957
  0
VERTEX
  8
PLAN_1
  6
CONTINUOUS
 10
-1.502594
 20
3.758421
  0
VERTEX
  8
PLAN_1
  6
CONTINUOUS
 10
-1.639122
 20
3.758421
  0
VERTEX
  8
PLAN_1
  6
CONTINUOUS
 10
-1.639122
 20
3.289957
  0
VERTEX
  8
PLAN_1
  6
CONTINUOUS
 10
-1.502594
 20
3.289957
  0
SEQEND
  8
0
  0
POLYLINE
  8
PLAN_1
  6
CONTINUOUS
 66
     1
 40
0.008335
 41
0.008335
  0
VERTEX
  8
PLAN_1
  6
CONTINUOUS
 10
-1.642768
 20
3.676610
  0
VERTEX
  8
PLAN_1
  6
CONTINUOUS
 10
-1.654232
 20
3.671917
  0
VERTEX
  8
PLAN_1
  6
CONTINUOUS
 10
-1.665177
 20
3.666709
  0
VERTEX
  8
PLAN_1
  6
CONTINUOUS
 10
-1.674555
 20
3.661496
  0
VERTEX
  8
PLAN_1
  6
CONTINUOUS
 10
-1.683413
 20
3.655764
  0
VERTEX
  8
PLAN_1
  6
CONTINUOUS
 10
-1.691232
 20
3.649512
  0
VERTEX
  8
PLAN_1
  6
CONTINUOUS
 10
-1.698004
 20
3.643780
  0
VERTEX
  8
PLAN_1
  6
CONTINUOUS
 10
-1.704260
 20
3.637528
  0
VERTEX
  8
PLAN_1
  6
CONTINUOUS
 10
-1.709469
 20
3.631795
  0
VERTEX
  8
PLAN_1
  6
CONTINUOUS
 10
-1.713638
 20
3.626583
  0
VERTEX
  8
PLAN_1
  6
CONTINUOUS
 10
-1.717807
 20
3.621374
  0
VERTEX
  8
PLAN_1
  6
CONTINUOUS
 10
-1.720933
 20
3.616681
  0
VERTEX
  8
PLAN_1
  6
CONTINUOUS
 10
-1.723020
 20
3.612516
  0
VERTEX
  8
PLAN_1
  6
CONTINUOUS
 10
-1.726146
 20
3.606783
  0
VERTEX
  8
PLAN_1
  6
CONTINUOUS
 10
-1.727185
 20
3.604177
  0
SEQEND
  8
0
  0
POLYLINE
  8
PLAN_1
  6
CONTINUOUS
 66
     1
 40
0.008335
 41
0.008335
  0
VERTEX
  8
PLAN_1
  6
CONTINUOUS
 10
-1.727185
 20
3.604177
  0
VERTEX
  8
PLAN_1
  6
CONTINUOUS
 10
-1.726665
 20
3.604697
  0
SEQEND
  8
0
  0
POLYLINE
  8
PLAN_1
  6
CONTINUOUS
 66
     1
 40
0.008335
 41
0.008335
  0
VERTEX
  8
PLAN_1
  6
CONTINUOUS
 10
-1.726665
 20
3.604697
  0
VERTEX
  8
PLAN_1
  6
CONTINUOUS
 10
-1.721976
 20
3.583854
  0
VERTEX
  8
PLAN_1
  6
CONTINUOUS
 10
-1.718327
 20
3.563531
  0
VERTEX
  8
PLAN_1
  6
CONTINUOUS
 10
-1.715724
 20
3.544252
  0
VERTEX
  8
PLAN_1
  6
CONTINUOUS
 10
-1.714157
 20
3.526012
  0
VERTEX
  8
PLAN_1
  6
CONTINUOUS
 10
-1.713638
 20
3.508815
  0
VERTEX
  8
PLAN_1
  6
CONTINUOUS
 10
-1.713638
 20
3.493185
  0
VERTEX
  8
PLAN_1
  6
CONTINUOUS
 10
-1.714681
 20
3.478071
  0
VERTEX
  8
PLAN_1
  6
CONTINUOUS
 10
-1.715724
 20
3.465043
  0
VERTEX
  8
PLAN_1
  6
CONTINUOUS
 10
-1.717287
 20
3.453059
  0
VERTEX
  8
PLAN_1
  6
CONTINUOUS
 10
-1.718850
 20
3.442118
  0
VERTEX
  8
PLAN_1
  6
CONTINUOUS
 10
-1.720933
 20
3.432736
  0
VERTEX
  8
PLAN_1
  6
CONTINUOUS
 10
-1.722496
 20
3.425441
  0
VERTEX
  8
PLAN_1
  6
CONTINUOUS
 10
-1.725622
 20
3.415020
  0
VERTEX
  8
PLAN_1
  6
CONTINUOUS
 10
-1.726665
 20
3.411370
  0
SEQEND
  8
0
  0
POLYLINE
  8
PLAN_1
  6
CONTINUOUS
 66
     1
 40
0.008335
 41
0.008335
  0
VERTEX
  8
PLAN_1
  6
CONTINUOUS
 10
-1.726665
 20
3.411370
  0
VERTEX
  8
PLAN_1
  6
CONTINUOUS
 10
-1.641728
 20
3.411370
  0
SEQEND
  8
0
  0
POLYLINE
  8
PLAN_1
  6
CONTINUOUS
 66
     1
 40
0.008335
 41
0.008335
  0
VERTEX
  8
PLAN_1
  6
CONTINUOUS
 10
-1.503638
 20
3.411370
  0
VERTEX
  8
PLAN_1
  6
CONTINUOUS
 10
-1.415051
 20
3.411370
  0
SEQEND
  8
0
  0
POLYLINE
  8
PLAN_1
  6
CONTINUOUS
 66
     1
 40
0.008335
 41
0.008335
  0
VERTEX
  8
PLAN_1
  6
CONTINUOUS
 10
-1.415051
 20
3.411370
  0
VERTEX
  8
PLAN_1
  6
CONTINUOUS
 10
-1.416614
 20
3.415020
  0
VERTEX
  8
PLAN_1
  6
CONTINUOUS
 10
-1.419220
 20
3.425441
  0
VERTEX
  8
PLAN_1
  6
CONTINUOUS
 10
-1.421303
 20
3.432736
  0
VERTEX
  8
PLAN_1
  6
CONTINUOUS
 10
-1.422866
 20
3.442118
  0
VERTEX
  8
PLAN_1
  6
CONTINUOUS
 10
-1.424433
 20
3.453059
  0
VERTEX
  8
PLAN_1
  6
CONTINUOUS
 10
-1.425996
 20
3.465043
  0
VERTEX
  8
PLAN_1
  6
CONTINUOUS
 10
-1.427559
 20
3.478071
  0
VERTEX
  8
PLAN_1
  6
CONTINUOUS
 10
-1.428079
 20
3.493185
  0
VERTEX
  8
PLAN_1
  6
CONTINUOUS
 10
-1.428079
 20
3.508815
  0
VERTEX
  8
PLAN_1
  6
CONTINUOUS
 10
-1.427559
 20
3.526012
  0
VERTEX
  8
PLAN_1
  6
CONTINUOUS
 10
-1.425996
 20
3.544252
  0
VERTEX
  8
PLAN_1
  6
CONTINUOUS
 10
-1.423390
 20
3.563531
  0
VERTEX
  8
PLAN_1
  6
CONTINUOUS
 10
-1.421827
 20
3.573433
  0
VERTEX
  8
PLAN_1
  6
CONTINUOUS
 10
-1.420264
 20
3.583854
  0
VERTEX
  8
PLAN_1
  6
CONTINUOUS
 10
-1.417657
 20
3.594276
  0
VERTEX
  8
PLAN_1
  6
CONTINUOUS
 10
-1.415051
 20
3.604697
  0
VERTEX
  8
PLAN_1
  6
CONTINUOUS
 10
-1.416094
 20
3.607303
  0
VERTEX
  8
PLAN_1
  6
CONTINUOUS
 10
-1.419220
 20
3.613035
  0
VERTEX
  8
PLAN_1
  6
CONTINUOUS
 10
-1.421827
 20
3.617205
  0
VERTEX
  8
PLAN_1
  6
CONTINUOUS
 10
-1.424953
 20
3.621894
  0
VERTEX
  8
PLAN_1
  6
CONTINUOUS
 10
-1.428598
 20
3.627106
  0
VERTEX
  8
PLAN_1
  6
CONTINUOUS
 10
-1.433291
 20
3.632839
  0
VERTEX
  8
PLAN_1
  6
CONTINUOUS
 10
-1.438500
 20
3.638567
  0
VERTEX
  8
PLAN_1
  6
CONTINUOUS
 10
-1.444752
 20
3.644823
  0
VERTEX
  8
PLAN_1
  6
CONTINUOUS
 10
-1.451528
 20
3.650555
  0
VERTEX
  8
PLAN_1
  6
CONTINUOUS
 10
-1.459866
 20
3.656807
  0
VERTEX
  8
PLAN_1
  6
CONTINUOUS
 10
-1.468724
 20
3.662539
  0
VERTEX
  8
PLAN_1
  6
CONTINUOUS
 10
-1.478626
 20
3.667748
  0
VERTEX
  8
PLAN_1
  6
CONTINUOUS
 10
-1.489567
 20
3.672961
  0
VERTEX
  8
PLAN_1
  6
CONTINUOUS
 10
-1.501551
 20
3.677130
  0
SEQEND
  8
0
  0
POLYLINE
  8
PLAN_1
  6
CONTINUOUS
 66
     1
 40
0.008335
 41
0.008335
  0
VERTEX
  8
PLAN_1
  6
CONTINUOUS
 10
-1.415051
 20
3.602091
  0
VERTEX
  8
PLAN_1
  6
CONTINUOUS
 10
-1.502594
 20
3.602091
  0
SEQEND
  8
0
  0
POLYLINE
  8
PLAN_1
  6
CONTINUOUS
 66
     1
 40
0.008335
 41
0.008335
  0
VERTEX
  8
PLAN_1
  6
CONTINUOUS
 10
-1.641728
 20
3.602091
  0
VERTEX
  8
PLAN_1
  6
CONTINUOUS
 10
-1.726665
 20
3.602091
  0
SEQEND
  8
0
  0
POLYLINE
  8
PLAN_1
  6
CONTINUOUS
 66
     1
 40
0.008335
 41
0.008335
  0
VERTEX
  8
PLAN_1
  6
CONTINUOUS
 10
-1.100831
 20
2.649012
  0
VERTEX
  8
PLAN_1
  6
CONTINUOUS
 10
-1.138870
 20
2.649012
  0
SEQEND
  8
0
  0
POLYLINE
  8
PLAN_1
  6
CONTINUOUS
 66
     1
 40
0.008335
 41
0.008335
  0
VERTEX
  8
PLAN_1
  6
CONTINUOUS
 10
-1.317606
 20
2.649012
  0
VERTEX
  8
PLAN_1
  6
CONTINUOUS
 10
-1.820984
 20
2.649012
  0
SEQEND
  8
0
  0
POLYLINE
  8
PLAN_1
  6
CONTINUOUS
 66
     1
 40
0.008335
 41
0.008335
  0
VERTEX
  8
PLAN_1
  6
CONTINUOUS
 10
-1.999720
 20
2.649012
  0
VERTEX
  8
PLAN_1
  6
CONTINUOUS
 10
-2.036717
 20
2.649012
  0
SEQEND
  8
0
  0
POLYLINE
  8
PLAN_1
  6
CONTINUOUS
 66
     1
 40
0.008335
 41
0.008335
  0
VERTEX
  8
PLAN_1
  6
CONTINUOUS
 10
-1.040906
 20
-0.358744
  0
VERTEX
  8
PLAN_1
  6
CONTINUOUS
 10
-1.040906
 20
2.121665
  0
VERTEX
  8
PLAN_1
  6
CONTINUOUS
 10
-2.116965
 20
2.121665
  0
VERTEX
  8
PLAN_1
  6
CONTINUOUS
 10
-2.158130
 20
1.822555
  0
VERTEX
  8
PLAN_1
  6
CONTINUOUS
 10
-2.028378
 20
1.822555
  0
VERTEX
  8
PLAN_1
  6
CONTINUOUS
 10
-2.028378
 20
-0.358744
  0
VERTEX
  8
PLAN_1
  6
CONTINUOUS
 10
-1.040906
 20
-0.358744
  0
SEQEND
  8
0
  0
POLYLINE
  8
PLAN_1
  6
CONTINUOUS
 66
     1
 40
0.008335
 41
0.008335
  0
VERTEX
  8
PLAN_1
  6
CONTINUOUS
 10
-2.028378
 20
-0.358744
  0
VERTEX
  8
PLAN_1
  6
CONTINUOUS
 10
-2.028378
 20
1.822035
  0
VERTEX
  8
PLAN_1
  6
CONTINUOUS
 10
-2.158130
 20
1.822035
  0
VERTEX
  8
PLAN_1
  6
CONTINUOUS
 10
-2.158130
 20
-0.358744
  0
VERTEX
  8
PLAN_1
  6
CONTINUOUS
 10
-2.028378
 20
-0.358744
  0
SEQEND
  8
0
  0
POLYLINE
  8
PLAN_1
  6
CONTINUOUS
 66
     1
 40
0.008335
 41
0.008335
  0
VERTEX
  8
PLAN_1
  6
CONTINUOUS
 10
-2.026295
 20
1.614118
  0
VERTEX
  8
PLAN_1
  6
CONTINUOUS
 10
-1.288425
 20
1.614118
  0
SEQEND
  8
0
  0
POLYLINE
  8
PLAN_1
  6
CONTINUOUS
 66
     1
 40
0.008335
 41
0.008335
  0
VERTEX
  8
PLAN_1
  6
CONTINUOUS
 10
-1.288425
 20
1.419228
  0
VERTEX
  8
PLAN_1
  6
CONTINUOUS
 10
-1.288425
 20
2.121665
  0
SEQEND
  8
0
  0
POLYLINE
  8
PLAN_1
  6
CONTINUOUS
 66
     1
 40
0.008335
 41
0.008335
  0
VERTEX
  8
PLAN_1
  6
CONTINUOUS
 10
-2.158130
 20
1.319701
  0
VERTEX
  8
PLAN_1
  6
CONTINUOUS
 10
-2.158130
 20
1.504169
  0
VERTEX
  8
PLAN_1
  6
CONTINUOUS
 10
-2.224831
 20
1.504169
  0
VERTEX
  8
PLAN_1
  6
CONTINUOUS
 10
-2.224831
 20
1.319701
  0
VERTEX
  8
PLAN_1
  6
CONTINUOUS
 10
-2.158130
 20
1.319701
  0
SEQEND
  8
0
  0
POLYLINE
  8
PLAN_1
  6
CONTINUOUS
 66
     1
 40
0.008335
 41
0.008335
  0
VERTEX
  8
PLAN_1
  6
CONTINUOUS
 10
-1.144083
 20
-0.857949
  0
VERTEX
  8
PLAN_1
  6
CONTINUOUS
 10
-1.144083
 20
-0.773531
  0
VERTEX
  8
PLAN_1
  6
CONTINUOUS
 10
-1.939791
 20
-0.773531
  0
VERTEX
  8
PLAN_1
  6
CONTINUOUS
 10
-1.939791
 20
-0.857949
  0
VERTEX
  8
PLAN_1
  6
CONTINUOUS
 10
-1.144083
 20
-0.857949
  0
SEQEND
  8
0
  0
POLYLINE
  8
PLAN_1
  6
CONTINUOUS
 66
     1
 40
0.008335
 41
0.008335
  0
VERTEX
  8
PLAN_1
  6
CONTINUOUS
 10
-1.042469
 20
-0.773531
  0
VERTEX
  8
PLAN_1
  6
CONTINUOUS
 10
-1.042469
 20
-0.358744
  0
VERTEX
  8
PLAN_1
  6
CONTINUOUS
 10
-2.028378
 20
-0.358744
  0
VERTEX
  8
PLAN_1
  6
CONTINUOUS
 10
-2.028378
 20
-0.773531
  0
VERTEX
  8
PLAN_1
  6
CONTINUOUS
 10
-1.042469
 20
-0.773531
  0
SEQEND
  8
0
  0
POLYLINE
  8
PLAN_1
  6
CONTINUOUS
 66
     1
 40
0.008335
 41
0.008335
  0
VERTEX
  8
PLAN_1
  6
CONTINUOUS
 10
-1.097185
 20
-1.030953
  0
VERTEX
  8
PLAN_1
  6
CONTINUOUS
 10
-1.097185
 20
-0.857949
  0
VERTEX
  8
PLAN_1
  6
CONTINUOUS
 10
-1.974185
 20
-0.857949
  0
VERTEX
  8
PLAN_1
  6
CONTINUOUS
 10
-1.974185
 20
-1.030953
  0
VERTEX
  8
PLAN_1
  6
CONTINUOUS
 10
-1.097185
 20
-1.030953
  0
SEQEND
  8
0
  0
POLYLINE
  8
PLAN_1
  6
CONTINUOUS
 66
     1
 40
0.008335
 41
0.008335
  0
VERTEX
  8
PLAN_1
  6
CONTINUOUS
 10
-1.976791
 20
-0.951224
  0
VERTEX
  8
PLAN_1
  6
CONTINUOUS
 10
-1.965327
 20
-0.960083
  0
VERTEX
  8
PLAN_1
  6
CONTINUOUS
 10
-1.953343
 20
-0.968421
  0
VERTEX
  8
PLAN_1
  6
CONTINUOUS
 10
-1.941354
 20
-0.976760
  0
VERTEX
  8
PLAN_1
  6
CONTINUOUS
 10
-1.928850
 20
-0.984055
  0
VERTEX
  8
PLAN_1
  6
CONTINUOUS
 10
-1.916343
 20
-0.990831
  0
VERTEX
  8
PLAN_1
  6
CONTINUOUS
 10
-1.903315
 20
-0.997602
  0
VERTEX
  8
PLAN_1
  6
CONTINUOUS
 10
-1.889768
 20
-1.003335
  0
VERTEX
  8
PLAN_1
  6
CONTINUOUS
 10
-1.876220
 20
-1.008547
  0
VERTEX
  8
PLAN_1
  6
CONTINUOUS
 10
-1.862150
 20
-1.013236
  0
VERTEX
  8
PLAN_1
  6
CONTINUOUS
 10
-1.848079
 20
-1.017406
  0
VERTEX
  8
PLAN_1
  6
CONTINUOUS
 10
-1.833488
 20
-1.021051
  0
VERTEX
  8
PLAN_1
  6
CONTINUOUS
 10
-1.818898
 20
-1.024177
  0
VERTEX
  8
PLAN_1
  6
CONTINUOUS
 10
-1.803787
 20
-1.026264
  0
VERTEX
  8
PLAN_1
  6
CONTINUOUS
 10
-1.788677
 20
-1.027827
  0
VERTEX
  8
PLAN_1
  6
CONTINUOUS
 10
-1.773563
 20
-1.028870
  0
VERTEX
  8
PLAN_1
  6
CONTINUOUS
 10
-1.757933
 20
-1.029390
  0
VERTEX
  8
PLAN_1
  6
CONTINUOUS
 10
-1.742299
 20
-1.028870
  0
VERTEX
  8
PLAN_1
  6
CONTINUOUS
 10
-1.727709
 20
-1.028346
  0
VERTEX
  8
PLAN_1
  6
CONTINUOUS
 10
-1.713118
 20
-1.026783
  0
VERTEX
  8
PLAN_1
  6
CONTINUOUS
 10
-1.699047
 20
-1.024701
  0
VERTEX
  8
PLAN_1
  6
CONTINUOUS
 10
-1.685500
 20
-1.022614
  0
VERTEX
  8
PLAN_1
  6
CONTINUOUS
 10
-1.671949
 20
-1.019488
  0
VERTEX
  8
PLAN_1
  6
CONTINUOUS
 10
-1.658925
 20
-1.015319
  0
VERTEX
  8
PLAN_1
  6
CONTINUOUS
 10
-1.645898
 20
-1.011154
  0
VERTEX
  8
PLAN_1
  6
CONTINUOUS
 10
-1.632870
 20
-1.005941
  0
VERTEX
  8
PLAN_1
  6
CONTINUOUS
 10
-1.619843
 20
-1.000209
  0
VERTEX
  8
PLAN_1
  6
CONTINUOUS
 10
-1.606815
 20
-0.993957
  0
VERTEX
  8
PLAN_1
  6
CONTINUOUS
 10
-1.593787
 20
-0.987181
  0
VERTEX
  8
PLAN_1
  6
CONTINUOUS
 10
-1.580760
 20
-0.979366
  0
VERTEX
  8
PLAN_1
  6
CONTINUOUS
 10
-1.567213
 20
-0.970508
  0
VERTEX
  8
PLAN_1
  6
CONTINUOUS
 10
-1.553142
 20
-0.961126
  0
VERTEX
  8
PLAN_1
  6
CONTINUOUS
 10
-1.539071
 20
-0.951224
  0
VERTEX
  8
PLAN_1
  6
CONTINUOUS
 10
-1.528650
 20
-0.959563
  0
VERTEX
  8
PLAN_1
  6
CONTINUOUS
 10
-1.517709
 20
-0.966858
  0
VERTEX
  8
PLAN_1
  6
CONTINUOUS
 10
-1.506244
 20
-0.974673
  0
VERTEX
  8
PLAN_1
  6
CONTINUOUS
 10
-1.493736
 20
-0.981969
  0
VERTEX
  8
PLAN_1
  6
CONTINUOUS
 10
-1.481232
 20
-0.988744
  0
VERTEX
  8
PLAN_1
  6
CONTINUOUS
 10
-1.468205
 20
-0.994996
  0
VERTEX
  8
PLAN_1
  6
CONTINUOUS
 10
-1.454654
 20
-1.001252
  0
VERTEX
  8
PLAN_1
  6
CONTINUOUS
 10
-1.440587
 20
-1.006461
  0
VERTEX
  8
PLAN_1
  6
CONTINUOUS
 10
-1.426516
 20
-1.011673
  0
VERTEX
  8
PLAN_1
  6
CONTINUOUS
 10
-1.411925
 20
-1.015843
  0
VERTEX
  8
PLAN_1
  6
CONTINUOUS
 10
-1.396815
 20
-1.020012
  0
VERTEX
  8
PLAN_1
  6
CONTINUOUS
 10
-1.381701
 20
-1.023138
  0
VERTEX
  8
PLAN_1
  6
CONTINUOUS
 10
-1.366591
 20
-1.025744
  0
VERTEX
  8
PLAN_1
  6
CONTINUOUS
 10
-1.350957
 20
-1.027827
  0
VERTEX
  8
PLAN_1
  6
CONTINUOUS
 10
-1.335846
 20
-1.028870
  0
VERTEX
  8
PLAN_1
  6
CONTINUOUS
 10
-1.320213
 20
-1.029390
  0
VERTEX
  8
PLAN_1
  6
CONTINUOUS
 10
-1.304579
 20
-1.028870
  0
VERTEX
  8
PLAN_1
  6
CONTINUOUS
 10
-1.288945
 20
-1.027827
  0
VERTEX
  8
PLAN_1
  6
CONTINUOUS
 10
-1.273315
 20
-1.026264
  0
VERTEX
  8
PLAN_1
  6
CONTINUOUS
 10
-1.258201
 20
-1.023657
  0
VERTEX
  8
PLAN_1
  6
CONTINUOUS
 10
-1.243610
 20
-1.020531
  0
VERTEX
  8
PLAN_1
  6
CONTINUOUS
 10
-1.228500
 20
-1.016882
  0
VERTEX
  8
PLAN_1
  6
CONTINUOUS
 10
-1.214429
 20
-1.012717
  0
VERTEX
  8
PLAN_1
  6
CONTINUOUS
 10
-1.200362
 20
-1.008024
  0
VERTEX
  8
PLAN_1
  6
CONTINUOUS
 10
-1.186291
 20
-1.002291
  0
VERTEX
  8
PLAN_1
  6
CONTINUOUS
 10
-1.172744
 20
-0.996563
  0
VERTEX
  8
PLAN_1
  6
CONTINUOUS
 10
-1.159193
 20
-0.989787
  0
VERTEX
  8
PLAN_1
  6
CONTINUOUS
 10
-1.146689
 20
-0.982492
  0
VERTEX
  8
PLAN_1
  6
CONTINUOUS
 10
-1.133661
 20
-0.974673
  0
VERTEX
  8
PLAN_1
  6
CONTINUOUS
 10
-1.121677
 20
-0.966858
  0
VERTEX
  8
PLAN_1
  6
CONTINUOUS
 10
-1.109689
 20
-0.958000
  0
VERTEX
  8
PLAN_1
  6
CONTINUOUS
 10
-1.098224
 20
-0.948622
  0
SEQEND
  8
0
  0
POLYLINE
  8
PLAN_1
  6
CONTINUOUS
 66
     1
 40
0.008335
 41
0.008335
  0
VERTEX
  8
PLAN_1
  6
CONTINUOUS
 10
-1.539071
 20
-0.857949
  0
VERTEX
  8
PLAN_1
  6
CONTINUOUS
 10
-1.539071
 20
-0.952268
  0
SEQEND
  8
0
  0
POLYLINE
  8
PLAN_1
  6
CONTINUOUS
 66
     1
 40
0.008335
 41
0.008335
  0
VERTEX
  8
PLAN_1
  6
CONTINUOUS
 10
-2.158130
 20
-0.325394
  0
VERTEX
  8
PLAN_1
  6
CONTINUOUS
 10
-2.158130
 20
-0.140406
  0
VERTEX
  8
PLAN_1
  6
CONTINUOUS
 10
-2.224831
 20
-0.140406
  0
VERTEX
  8
PLAN_1
  6
CONTINUOUS
 10
-2.224831
 20
-0.325394
  0
VERTEX
  8
PLAN_1
  6
CONTINUOUS
 10
-2.158130
 20
-0.325394
  0
SEQEND
  8
0
  0
POLYLINE
  8
PLAN_1
  6
CONTINUOUS
 66
     1
 40
0.008335
 41
0.008335
  0
VERTEX
  8
PLAN_1
  6
CONTINUOUS
 10
-2.089866
 20
1.821516
  0
VERTEX
  8
PLAN_1
  6
CONTINUOUS
 10
-2.089866
 20
-0.357701
  0
SEQEND
  8
0
  0
POLYLINE
  8
PLAN_1
 62
     2
  6
CONTINUOUS
 66
     1
 40
0.004165
 41
0.004165
  0
VERTEX
  8
PLAN_1
 62
     2
  6
CONTINUOUS
 10
-1.544283
 20
4.071075
  0
VERTEX
  8
PLAN_1
 62
     2
  6
CONTINUOUS
 10
-1.071130
 20
4.071075
  0
SEQEND
  8
0
  0
SOLID
  8
PLAN_1
 62
     2
 10
-1.041425
 20
4.071075
 11
-1.100311
 21
4.087232
 12
-1.041425
 22
4.071075
 13
-1.100311
 23
4.055445
  0
POLYLINE
  8
PLAN_1
 62
     2
  6
CONTINUOUS
 66
     1
 40
0.003000
 41
0.003000
  0
VERTEX
  8
PLAN_1
 62
     2
  6
CONTINUOUS
 10
-1.041425
 20
4.071075
  0
VERTEX
  8
PLAN_1
 62
     2
  6
CONTINUOUS
 10
-1.100311
 20
4.087232
  0
VERTEX
  8
PLAN_1
 62
     2
  6
CONTINUOUS
 10
-1.100311
 20
4.055445
  0
VERTEX
  8
PLAN_1
 62
     2
  6
CONTINUOUS
 10
-1.041425
 20
4.071075
  0
SEQEND
  8
0
  0
SOLID
  8
PLAN_1
 62
     2
 10
-1.573984
 20
4.071075
 11
-1.514579
 21
4.087232
 12
-1.573984
 22
4.071075
 13
-1.514579
 23
4.055445
  0
POLYLINE
  8
PLAN_1
 62
     2
  6
CONTINUOUS
 66
     1
 40
0.003000
 41
0.003000
  0
VERTEX
  8
PLAN_1
 62
     2
  6
CONTINUOUS
 10
-1.573984
 20
4.071075
  0
VERTEX
  8
PLAN_1
 62
     2
  6
CONTINUOUS
 10
-1.514579
 20
4.087232
  0
VERTEX
  8
PLAN_1
 62
     2
  6
CONTINUOUS
 10
-1.514579
 20
4.055445
  0
VERTEX
  8
PLAN_1
 62
     2
  6
CONTINUOUS
 10
-1.573984
 20
4.071075
  0
SEQEND
  8
0
  0
POLYLINE
  8
PLAN_1
 62
     2
  6
CONTINUOUS
 66
     1
 40
0.003000
 41
0.003000
  0
VERTEX
  8
PLAN_1
 62
     2
  6
CONTINUOUS
 10
-1.332197
 20
4.095047
  0
VERTEX
  8
PLAN_1
 62
     2
  6
CONTINUOUS
 10
-1.342098
 20
4.095047
  0
VERTEX
  8
PLAN_1
 62
     2
  6
CONTINUOUS
 10
-1.342098
 20
4.146634
  0
VERTEX
  8
PLAN_1
 62
     2
  6
CONTINUOUS
 10
-1.358772
 20
4.146634
  0
VERTEX
  8
PLAN_1
 62
     2
  6
CONTINUOUS
 10
-1.358772
 20
4.153929
  0
VERTEX
  8
PLAN_1
 62
     2
  6
CONTINUOUS
 10
-1.354606
 20
4.154453
  0
VERTEX
  8
PLAN_1
 62
     2
  6
CONTINUOUS
 10
-1.351476
 20
4.154972
  0
VERTEX
  8
PLAN_1
 62
     2
  6
CONTINUOUS
 10
-1.348350
 20
4.155492
  0
VERTEX
  8
PLAN_1
 62
     2
  6
CONTINUOUS
 10
-1.345744
 20
4.157055
  0
VERTEX
  8
PLAN_1
 62
     2
  6
CONTINUOUS
 10
-1.343661
 20
4.158622
  0
VERTEX
  8
PLAN_1
 62
     2
  6
CONTINUOUS
 10
-1.342098
 20
4.160705
  0
VERTEX
  8
PLAN_1
 62
     2
  6
CONTINUOUS
 10
-1.340535
 20
4.163831
  0
VERTEX
  8
PLAN_1
 62
     2
  6
CONTINUOUS
 10
-1.339492
 20
4.168000
  0
VERTEX
  8
PLAN_1
 62
     2
  6
CONTINUOUS
 10
-1.332197
 20
4.168000
  0
VERTEX
  8
PLAN_1
 62
     2
  6
CONTINUOUS
 10
-1.332197
 20
4.095047
  0
SEQEND
  8
0
  0
POLYLINE
  8
PLAN_1
 62
     2
  6
CONTINUOUS
 66
     1
 40
0.003000
 41
0.003000
  0
VERTEX
  8
PLAN_1
 62
     2
  6
CONTINUOUS
 10
-1.268102
 20
4.112764
  0
VERTEX
  8
PLAN_1
 62
     2
  6
CONTINUOUS
 10
-1.268102
 20
4.095047
  0
VERTEX
  8
PLAN_1
 62
     2
  6
CONTINUOUS
 10
-1.276961
 20
4.095047
  0
VERTEX
  8
PLAN_1
 62
     2
  6
CONTINUOUS
 10
-1.276961
 20
4.112764
  0
VERTEX
  8
PLAN_1
 62
     2
  6
CONTINUOUS
 10
-1.308748
 20
4.112764
  0
VERTEX
  8
PLAN_1
 62
     2
  6
CONTINUOUS
 10
-1.308748
 20
4.121622
  0
VERTEX
  8
PLAN_1
 62
     2
  6
CONTINUOUS
 10
-1.275398
 20
4.168000
  0
VERTEX
  8
PLAN_1
 62
     2
  6
CONTINUOUS
 10
-1.268102
 20
4.168000
  0
VERTEX
  8
PLAN_1
 62
     2
  6
CONTINUOUS
 10
-1.268102
 20
4.120579
  0
VERTEX
  8
PLAN_1
 62
     2
  6
CONTINUOUS
 10
-1.257161
 20
4.120579
  0
VERTEX
  8
PLAN_1
 62
     2
  6
CONTINUOUS
 10
-1.257161
 20
4.112764
  0
VERTEX
  8
PLAN_1
 62
     2
  6
CONTINUOUS
 10
-1.268102
 20
4.112764
  0
SEQEND
  8
0
  0
SOLID
  8
PLAN_1
 62
     2
 10
-1.300409
 20
4.120579
 11
-1.276961
 21
4.120579
 12
-1.277484
 22
4.153929
 13
-1.276961
 23
4.153929
  0
POLYLINE
  8
PLAN_1
 62
     2
  6
CONTINUOUS
 66
     1
 40
0.003000
 41
0.003000
  0
VERTEX
  8
PLAN_1
 62
     2
  6
CONTINUOUS
 10
-1.300409
 20
4.120579
  0
VERTEX
  8
PLAN_1
 62
     2
  6
CONTINUOUS
 10
-1.276961
 20
4.120579
  0
VERTEX
  8
PLAN_1
 62
     2
  6
CONTINUOUS
 10
-1.276961
 20
4.153929
  0
VERTEX
  8
PLAN_1
 62
     2
  6
CONTINUOUS
 10
-1.277484
 20
4.153929
  0
VERTEX
  8
PLAN_1
 62
     2
  6
CONTINUOUS
 10
-1.300409
 20
4.120579
  0
SEQEND
  8
0
  0
POLYLINE
  8
PLAN_1
 62
     2
  6
CONTINUOUS
 66
     1
 40
0.004165
 41
0.004165
  0
VERTEX
  8
PLAN_1
 62
     2
  6
CONTINUOUS
 10
-2.190961
 20
-1.326413
  0
VERTEX
  8
PLAN_1
 62
     2
  6
CONTINUOUS
 10
-1.071650
 20
-1.326413
  0
SEQEND
  8
0
  0
SOLID
  8
PLAN_1
 62
     2
 10
-1.042469
 20
-1.326413
 11
-1.101354
 21
-1.310780
 12
-1.042469
 22
-1.326413
 13
-1.101354
 23
-1.342047
  0
POLYLINE
  8
PLAN_1
 62
     2
  6
CONTINUOUS
 66
     1
 40
0.003000
 41
0.003000
  0
VERTEX
  8
PLAN_1
 62
     2
  6
CONTINUOUS
 10
-1.042469
 20
-1.326413
  0
VERTEX
  8
PLAN_1
 62
     2
  6
CONTINUOUS
 10
-1.101354
 20
-1.310780
  0
VERTEX
  8
PLAN_1
 62
     2
  6
CONTINUOUS
 10
-1.101354
 20
-1.342047
  0
VERTEX
  8
PLAN_1
 62
     2
  6
CONTINUOUS
 10
-1.042469
 20
-1.326413
  0
SEQEND
  8
0
  0
SOLID
  8
PLAN_1
 62
     2
 10
-2.220142
 20
-1.326413
 11
-2.161256
 21
-1.310780
 12
-2.220142
 22
-1.326413
 13
-2.161256
 23
-1.342047
  0
POLYLINE
  8
PLAN_1
 62
     2
  6
CONTINUOUS
 66
     1
 40
0.003000
 41
0.003000
  0
VERTEX
  8
PLAN_1
 62
     2
  6
CONTINUOUS
 10
-2.220142
 20
-1.326413
  0
VERTEX
  8
PLAN_1
 62
     2
  6
CONTINUOUS
 10
-2.161256
 20
-1.310780
  0
VERTEX
  8
PLAN_1
 62
     2
  6
CONTINUOUS
 10
-2.161256
 20
-1.342047
  0
VERTEX
  8
PLAN_1
 62
     2
  6
CONTINUOUS
 10
-2.220142
 20
-1.326413
  0
SEQEND
  8
0
  0
POLYLINE
  8
PLAN_1
 62
     2
  6
CONTINUOUS
 66
     1
 40
0.003000
 41
0.003000
  0
VERTEX
  8
PLAN_1
 62
     2
  6
CONTINUOUS
 10
-1.665697
 20
-1.261276
  0
VERTEX
  8
PLAN_1
 62
     2
  6
CONTINUOUS
 10
-1.665177
 20
-1.261276
  0
VERTEX
  8
PLAN_1
 62
     2
  6
CONTINUOUS
 10
-1.664654
 20
-1.261276
  0
VERTEX
  8
PLAN_1
 62
     2
  6
CONTINUOUS
 10
-1.664134
 20
-1.261276
  0
VERTEX
  8
PLAN_1
 62
     2
  6
CONTINUOUS
 10
-1.663614
 20
-1.261276
  0
VERTEX
  8
PLAN_1
 62
     2
  6
CONTINUOUS
 10
-1.662571
 20
-1.261276
  0
VERTEX
  8
PLAN_1
 62
     2
  6
CONTINUOUS
 10
-1.662051
 20
-1.261276
  0
VERTEX
  8
PLAN_1
 62
     2
  6
CONTINUOUS
 10
-1.661528
 20
-1.261799
  0
VERTEX
  8
PLAN_1
 62
     2
  6
CONTINUOUS
 10
-1.661008
 20
-1.261799
  0
VERTEX
  8
PLAN_1
 62
     2
  6
CONTINUOUS
 10
-1.658402
 20
-1.261276
  0
VERTEX
  8
PLAN_1
 62
     2
  6
CONTINUOUS
 10
-1.655795
 20
-1.260756
  0
VERTEX
  8
PLAN_1
 62
     2
  6
CONTINUOUS
 10
-1.653713
 20
-1.260236
  0
VERTEX
  8
PLAN_1
 62
     2
  6
CONTINUOUS
 10
-1.651630
 20
-1.259193
  0
VERTEX
  8
PLAN_1
 62
     2
  6
CONTINUOUS
 10
-1.649543
 20
-1.257630
  0
VERTEX
  8
PLAN_1
 62
     2
  6
CONTINUOUS
 10
-1.648500
 20
-1.255543
  0
VERTEX
  8
PLAN_1
 62
     2
  6
CONTINUOUS
 10
-1.647461
 20
-1.252941
  0
VERTEX
  8
PLAN_1
 62
     2
  6
CONTINUOUS
 10
-1.646937
 20
-1.249811
  0
VERTEX
  8
PLAN_1
 62
     2
  6
CONTINUOUS
 10
-1.647461
 20
-1.247728
  0
VERTEX
  8
PLAN_1
 62
     2
  6
CONTINUOUS
 10
-1.647461
 20
-1.246165
  0
VERTEX
  8
PLAN_1
 62
     2
  6
CONTINUOUS
 10
-1.648500
 20
-1.244079
  0
VERTEX
  8
PLAN_1
 62
     2
  6
CONTINUOUS
 10
-1.649543
 20
-1.241996
  0
VERTEX
  8
PLAN_1
 62
     2
  6
CONTINUOUS
 10
-1.651630
 20
-1.240433
  0
VERTEX
  8
PLAN_1
 62
     2
  6
CONTINUOUS
 10
-1.653713
 20
-1.239390
  0
VERTEX
  8
PLAN_1
 62
     2
  6
CONTINUOUS
 10
-1.656839
 20
-1.238350
  0
VERTEX
  8
PLAN_1
 62
     2
  6
CONTINUOUS
 10
-1.660488
 20
-1.237827
  0
VERTEX
  8
PLAN_1
 62
     2
  6
CONTINUOUS
 10
-1.665177
 20
-1.238350
  0
VERTEX
  8
PLAN_1
 62
     2
  6
CONTINUOUS
 10
-1.668303
 20
-1.239913
  0
VERTEX
  8
PLAN_1
 62
     2
  6
CONTINUOUS
 10
-1.670909
 20
-1.241476
  0
VERTEX
  8
PLAN_1
 62
     2
  6
CONTINUOUS
 10
-1.672472
 20
-1.244079
  0
VERTEX
  8
PLAN_1
 62
     2
  6
CONTINUOUS
 10
-1.673516
 20
-1.246685
  0
VERTEX
  8
PLAN_1
 62
     2
  6
CONTINUOUS
 10
-1.674035
 20
-1.249291
  0
VERTEX
  8
PLAN_1
 62
     2
  6
CONTINUOUS
 10
-1.674555
 20
-1.251374
  0
VERTEX
  8
PLAN_1
 62
     2
  6
CONTINUOUS
 10
-1.675079
 20
-1.253980
  0
VERTEX
  8
PLAN_1
 62
     2
  6
CONTINUOUS
 10
-1.683937
 20
-1.253980
  0
VERTEX
  8
PLAN_1
 62
     2
  6
CONTINUOUS
 10
-1.683413
 20
-1.249811
  0
VERTEX
  8
PLAN_1
 62
     2
  6
CONTINUOUS
 10
-1.682894
 20
-1.245646
  0
VERTEX
  8
PLAN_1
 62
     2
  6
CONTINUOUS
 10
-1.681331
 20
-1.241476
  0
VERTEX
  8
PLAN_1
 62
     2
  6
CONTINUOUS
 10
-1.679244
 20
-1.237827
  0
VERTEX
  8
PLAN_1
 62
     2
  6
CONTINUOUS
 10
-1.677681
 20
-1.236264
  0
VERTEX
  8
PLAN_1
 62
     2
  6
CONTINUOUS
 10
-1.676118
 20
-1.234701
  0
VERTEX
  8
PLAN_1
 62
     2
  6
CONTINUOUS
 10
-1.674035
 20
-1.233138
  0
VERTEX
  8
PLAN_1
 62
     2
  6
CONTINUOUS
 10
-1.671949
 20
-1.232094
  0
VERTEX
  8
PLAN_1
 62
     2
  6
CONTINUOUS
 10
-1.669346
 20
-1.231055
  0
VERTEX
  8
PLAN_1
 62
     2
  6
CONTINUOUS
 10
-1.666740
 20
-1.230531
  0
VERTEX
  8
PLAN_1
 62
     2
  6
CONTINUOUS
 10
-1.663614
 20
-1.230012
  0
VERTEX
  8
PLAN_1
 62
     2
  6
CONTINUOUS
 10
-1.659965
 20
-1.230012
  0
VERTEX
  8
PLAN_1
 62
     2
  6
CONTINUOUS
 10
-1.655276
 20
-1.230012
  0
VERTEX
  8
PLAN_1
 62
     2
  6
CONTINUOUS
 10
-1.650587
 20
-1.231055
  0
VERTEX
  8
PLAN_1
 62
     2
  6
CONTINUOUS
 10
-1.646937
 20
-1.233138
  0
VERTEX
  8
PLAN_1
 62
     2
  6
CONTINUOUS
 10
-1.643811
 20
-1.235220
  0
VERTEX
  8
PLAN_1
 62
     2
  6
CONTINUOUS
 10
-1.641205
 20
-1.238350
  0
VERTEX
  8
PLAN_1
 62
     2
  6
CONTINUOUS
 10
-1.639122
 20
-1.241476
  0
VERTEX
  8
PLAN_1
 62
     2
  6
CONTINUOUS
 10
-1.638079
 20
-1.245122
  0
VERTEX
  8
PLAN_1
 62
     2
  6
CONTINUOUS
 10
-1.637559
 20
-1.249291
  0
VERTEX
  8
PLAN_1
 62
     2
  6
CONTINUOUS
 10
-1.638079
 20
-1.252417
  0
VERTEX
  8
PLAN_1
 62
     2
  6
CONTINUOUS
 10
-1.638602
 20
-1.255024
  0
VERTEX
  8
PLAN_1
 62
     2
  6
CONTINUOUS
 10
-1.639642
 20
-1.257630
  0
VERTEX
  8
PLAN_1
 62
     2
  6
CONTINUOUS
 10
-1.640685
 20
-1.259713
  0
VERTEX
  8
PLAN_1
 62
     2
  6
CONTINUOUS
 10
-1.642248
 20
-1.261276
  0
VERTEX
  8
PLAN_1
 62
     2
  6
CONTINUOUS
 10
-1.643811
 20
-1.262319
  0
VERTEX
  8
PLAN_1
 62
     2
  6
CONTINUOUS
 10
-1.645374
 20
-1.263362
  0
VERTEX
  8
PLAN_1
 62
     2
  6
CONTINUOUS
 10
-1.646937
 20
-1.263882
  0
VERTEX
  8
PLAN_1
 62
     2
  6
CONTINUOUS
 10
-1.646937
 20
-1.264402
  0
VERTEX
  8
PLAN_1
 62
     2
  6
CONTINUOUS
 10
-1.644335
 20
-1.265445
  0
VERTEX
  8
PLAN_1
 62
     2
  6
CONTINUOUS
 10
-1.642248
 20
-1.266488
  0
VERTEX
  8
PLAN_1
 62
     2
  6
CONTINUOUS
 10
-1.640165
 20
-1.268051
  0
VERTEX
  8
PLAN_1
 62
     2
  6
CONTINUOUS
 10
-1.638079
 20
-1.270134
  0
VERTEX
  8
PLAN_1
 62
     2
  6
CONTINUOUS
 10
-1.637035
 20
-1.272220
  0
VERTEX
  8
PLAN_1
 62
     2
  6
CONTINUOUS
 10
-1.635472
 20
-1.274827
  0
VERTEX
  8
PLAN_1
 62
     2
  6
CONTINUOUS
 10
-1.634953
 20
-1.277953
  0
VERTEX
  8
PLAN_1
 62
     2
  6
CONTINUOUS
 10
-1.634953
 20
-1.281598
  0
VERTEX
  8
PLAN_1
 62
     2
  6
CONTINUOUS
 10
-1.634953
 20
-1.285768
  0
VERTEX
  8
PLAN_1
 62
     2
  6
CONTINUOUS
 10
-1.636516
 20
-1.289937
  0
VERTEX
  8
PLAN_1
 62
     2
  6
CONTINUOUS
 10
-1.638079
 20
-1.294106
  0
VERTEX
  8
PLAN_1
 62
     2
  6
CONTINUOUS
 10
-1.641205
 20
-1.297752
  0
VERTEX
  8
PLAN_1
 62
     2
  6
CONTINUOUS
 10
-1.642768
 20
-1.299315
  0
VERTEX
  8
PLAN_1
 62
     2
  6
CONTINUOUS
 10
-1.644854
 20
-1.300878
  0
VERTEX
  8
PLAN_1
 62
     2
  6
CONTINUOUS
 10
-1.646937
 20
-1.301921
  0
VERTEX
  8
PLAN_1
 62
     2
  6
CONTINUOUS
 10
-1.649024
 20
-1.302965
  0
VERTEX
  8
PLAN_1
 62
     2
  6
CONTINUOUS
 10
-1.651630
 20
-1.304008
  0
VERTEX
  8
PLAN_1
 62
     2
  6
CONTINUOUS
 10
-1.654756
 20
-1.304528
  0
VERTEX
  8
PLAN_1
 62
     2
  6
CONTINUOUS
 10
-1.657882
 20
-1.305047
  0
VERTEX
  8
PLAN_1
 62
     2
  6
CONTINUOUS
 10
-1.661008
 20
-1.305047
  0
VERTEX
  8
PLAN_1
 62
     2
  6
CONTINUOUS
 10
-1.663091
 20
-1.305047
  0
VERTEX
  8
PLAN_1
 62
     2
  6
CONTINUOUS
 10
-1.665177
 20
-1.304528
  0
VERTEX
  8
PLAN_1
 62
     2
  6
CONTINUOUS
 10
-1.666740
 20
-1.304528
  0
VERTEX
  8
PLAN_1
 62
     2
  6
CONTINUOUS
 10
-1.668823
 20
-1.304008
  0
VERTEX
  8
PLAN_1
 62
     2
  6
CONTINUOUS
 10
-1.670386
 20
-1.303484
  0
VERTEX
  8
PLAN_1
 62
     2
  6
CONTINUOUS
 10
-1.671949
 20
-1.302965
  0
VERTEX
  8
PLAN_1
 62
     2
  6
CONTINUOUS
 10
-1.673516
 20
-1.302445
  0
VERTEX
  8
PLAN_1
 62
     2
  6
CONTINUOUS
 10
-1.674555
 20
-1.301921
  0
VERTEX
  8
PLAN_1
 62
     2
  6
CONTINUOUS
 10
-1.677161
 20
-1.299839
  0
VERTEX
  8
PLAN_1
 62
     2
  6
CONTINUOUS
 10
-1.679768
 20
-1.297752
  0
VERTEX
  8
PLAN_1
 62
     2
  6
CONTINUOUS
 10
-1.681331
 20
-1.295150
  0
VERTEX
  8
PLAN_1
 62
     2
  6
CONTINUOUS
 10
-1.682894
 20
-1.292543
  0
VERTEX
  8
PLAN_1
 62
     2
  6
CONTINUOUS
 10
-1.683937
 20
-1.289937
  0
VERTEX
  8
PLAN_1
 62
     2
  6
CONTINUOUS
 10
-1.684976
 20
-1.286811
  0
VERTEX
  8
PLAN_1
 62
     2
  6
CONTINUOUS
 10
-1.685500
 20
-1.283685
  0
VERTEX
  8
PLAN_1
 62
     2
  6
CONTINUOUS
 10
-1.685500
 20
-1.280559
  0
VERTEX
  8
PLAN_1
 62
     2
  6
CONTINUOUS
 10
-1.676118
 20
-1.280559
  0
VERTEX
  8
PLAN_1
 62
     2
  6
CONTINUOUS
 10
-1.676118
 20
-1.283161
  0
VERTEX
  8
PLAN_1
 62
     2
  6
CONTINUOUS
 10
-1.675598
 20
-1.285768
  0
VERTEX
  8
PLAN_1
 62
     2
  6
CONTINUOUS
 10
-1.674555
 20
-1.288894
  0
VERTEX
  8
PLAN_1
 62
     2
  6
CONTINUOUS
 10
-1.673516
 20
-1.290980
  0
VERTEX
  8
PLAN_1
 62
     2
  6
CONTINUOUS
 10
-1.671429
 20
-1.293583
  0
VERTEX
  8
PLAN_1
 62
     2
  6
CONTINUOUS
 10
-1.668823
 20
-1.295150
  0
VERTEX
  8
PLAN_1
 62
     2
  6
CONTINUOUS
 10
-1.665177
 20
-1.296189
  0
VERTEX
  8
PLAN_1
 62
     2
  6
CONTINUOUS
 10
-1.660488
 20
-1.296713
  0
VERTEX
  8
PLAN_1
 62
     2
  6
CONTINUOUS
 10
-1.657358
 20
-1.296189
  0
VERTEX
  8
PLAN_1
 62
     2
  6
CONTINUOUS
 10
-1.654232
 20
-1.295669
  0
VERTEX
  8
PLAN_1
 62
     2
  6
CONTINUOUS
 10
-1.651106
 20
-1.294626
  0
VERTEX
  8
PLAN_1
 62
     2
  6
CONTINUOUS
 10
-1.649024
 20
-1.292543
  0
VERTEX
  8
PLAN_1
 62
     2
  6
CONTINUOUS
 10
-1.646937
 20
-1.290980
  0
VERTEX
  8
PLAN_1
 62
     2
  6
CONTINUOUS
 10
-1.645898
 20
-1.288374
  0
VERTEX
  8
PLAN_1
 62
     2
  6
CONTINUOUS
 10
-1.644854
 20
-1.285768
  0
VERTEX
  8
PLAN_1
 62
     2
  6
CONTINUOUS
 10
-1.644335
 20
-1.282642
  0
VERTEX
  8
PLAN_1
 62
     2
  6
CONTINUOUS
 10
-1.644854
 20
-1.278472
  0
VERTEX
  8
PLAN_1
 62
     2
  6
CONTINUOUS
 10
-1.646417
 20
-1.275346
  0
VERTEX
  8
PLAN_1
 62
     2
  6
CONTINUOUS
 10
-1.648500
 20
-1.272740
  0
VERTEX
  8
PLAN_1
 62
     2
  6
CONTINUOUS
 10
-1.650587
 20
-1.271177
  0
VERTEX
  8
PLAN_1
 62
     2
  6
CONTINUOUS
 10
-1.653713
 20
-1.270134
  0
VERTEX
  8
PLAN_1
 62
     2
  6
CONTINUOUS
 10
-1.656319
 20
-1.269614
  0
VERTEX
  8
PLAN_1
 62
     2
  6
CONTINUOUS
 10
-1.658925
 20
-1.269094
  0
VERTEX
  8
PLAN_1
 62
     2
  6
CONTINUOUS
 10
-1.661528
 20
-1.269094
  0
VERTEX
  8
PLAN_1
 62
     2
  6
CONTINUOUS
 10
-1.662051
 20
-1.269094
  0
VERTEX
  8
PLAN_1
 62
     2
  6
CONTINUOUS
 10
-1.662571
 20
-1.269094
  0
VERTEX
  8
PLAN_1
 62
     2
  6
CONTINUOUS
 10
-1.663091
 20
-1.269094
  0
VERTEX
  8
PLAN_1
 62
     2
  6
CONTINUOUS
 10
-1.663614
 20
-1.269094
  0
VERTEX
  8
PLAN_1
 62
     2
  6
CONTINUOUS
 10
-1.664134
 20
-1.269094
  0
VERTEX
  8
PLAN_1
 62
     2
  6
CONTINUOUS
 10
-1.664654
 20
-1.269094
  0
VERTEX
  8
PLAN_1
 62
     2
  6
CONTINUOUS
 10
-1.665177
 20
-1.269094
  0
VERTEX
  8
PLAN_1
 62
     2
  6
CONTINUOUS
 10
-1.665697
 20
-1.269094
  0
VERTEX
  8
PLAN_1
 62
     2
  6
CONTINUOUS
 10
-1.665697
 20
-1.261276
  0
SEQEND
  8
0
  0
POLYLINE
  8
PLAN_1
 62
     2
  6
CONTINUOUS
 66
     1
 40
0.003000
 41
0.003000
  0
VERTEX
  8
PLAN_1
 62
     2
  6
CONTINUOUS
 10
-1.602126
 20
-1.305047
  0
VERTEX
  8
PLAN_1
 62
     2
  6
CONTINUOUS
 10
-1.606291
 20
-1.304528
  0
VERTEX
  8
PLAN_1
 62
     2
  6
CONTINUOUS
 10
-1.609421
 20
-1.304008
  0
VERTEX
  8
PLAN_1
 62
     2
  6
CONTINUOUS
 10
-1.612547
 20
-1.302965
  0
VERTEX
  8
PLAN_1
 62
     2
  6
CONTINUOUS
 10
-1.615150
 20
-1.301402
  0
VERTEX
  8
PLAN_1
 62
     2
  6
CONTINUOUS
 10
-1.617236
 20
-1.299315
  0
VERTEX
  8
PLAN_1
 62
     2
  6
CONTINUOUS
 10
-1.619319
 20
-1.297232
  0
VERTEX
  8
PLAN_1
 62
     2
  6
CONTINUOUS
 10
-1.621406
 20
-1.294626
  0
VERTEX
  8
PLAN_1
 62
     2
  6
CONTINUOUS
 10
-1.622969
 20
-1.292020
  0
VERTEX
  8
PLAN_1
 62
     2
  6
CONTINUOUS
 10
-1.625051
 20
-1.285768
  0
VERTEX
  8
PLAN_1
 62
     2
  6
CONTINUOUS
 10
-1.626614
 20
-1.279516
  0
VERTEX
  8
PLAN_1
 62
     2
  6
CONTINUOUS
 10
-1.627138
 20
-1.273264
  0
VERTEX
  8
PLAN_1
 62
     2
  6
CONTINUOUS
 10
-1.627138
 20
-1.267531
  0
VERTEX
  8
PLAN_1
 62
     2
  6
CONTINUOUS
 10
-1.627138
 20
-1.261276
  0
VERTEX
  8
PLAN_1
 62
     2
  6
CONTINUOUS
 10
-1.626614
 20
-1.255024
  0
VERTEX
  8
PLAN_1
 62
     2
  6
CONTINUOUS
 10
-1.625051
 20
-1.248772
  0
VERTEX
  8
PLAN_1
 62
     2
  6
CONTINUOUS
 10
-1.622969
 20
-1.243039
  0
VERTEX
  8
PLAN_1
 62
     2
  6
CONTINUOUS
 10
-1.621406
 20
-1.240433
  0
VERTEX
  8
PLAN_1
 62
     2
  6
CONTINUOUS
 10
-1.619319
 20
-1.237827
  0
VERTEX
  8
PLAN_1
 62
     2
  6
CONTINUOUS
 10
-1.617236
 20
-1.235220
  0
VERTEX
  8
PLAN_1
 62
     2
  6
CONTINUOUS
 10
-1.615150
 20
-1.233657
  0
VERTEX
  8
PLAN_1
 62
     2
  6
CONTINUOUS
 10
-1.612547
 20
-1.232094
  0
VERTEX
  8
PLAN_1
 62
     2
  6
CONTINUOUS
 10
-1.609421
 20
-1.231055
  0
VERTEX
  8
PLAN_1
 62
     2
  6
CONTINUOUS
 10
-1.606291
 20
-1.230012
  0
VERTEX
  8
PLAN_1
 62
     2
  6
CONTINUOUS
 10
-1.602126
 20
-1.230012
  0
VERTEX
  8
PLAN_1
 62
     2
  6
CONTINUOUS
 10
-1.598476
 20
-1.230012
  0
VERTEX
  8
PLAN_1
 62
     2
  6
CONTINUOUS
 10
-1.595350
 20
-1.231055
  0
VERTEX
  8
PLAN_1
 62
     2
  6
CONTINUOUS
 10
-1.592224
 20
-1.232094
  0
VERTEX
  8
PLAN_1
 62
     2
  6
CONTINUOUS
 10
-1.589618
 20
-1.233657
  0
VERTEX
  8
PLAN_1
 62
     2
  6
CONTINUOUS
 10
-1.587012
 20
-1.235220
  0
VERTEX
  8
PLAN_1
 62
     2
  6
CONTINUOUS
 10
-1.584929
 20
-1.237827
  0
VERTEX
  8
PLAN_1
 62
     2
  6
CONTINUOUS
 10
-1.583366
 20
-1.240433
  0
VERTEX
  8
PLAN_1
 62
     2
  6
CONTINUOUS
 10
-1.581803
 20
-1.243039
  0
VERTEX
  8
PLAN_1
 62
     2
  6
CONTINUOUS
 10
-1.579717
 20
-1.248772
  0
VERTEX
  8
PLAN_1
 62
     2
  6
CONTINUOUS
 10
-1.578154
 20
-1.255024
  0
VERTEX
  8
PLAN_1
 62
     2
  6
CONTINUOUS
 10
-1.577634
 20
-1.261276
  0
VERTEX
  8
PLAN_1
 62
     2
  6
CONTINUOUS
 10
-1.577110
 20
-1.267531
  0
VERTEX
  8
PLAN_1
 62
     2
  6
CONTINUOUS
 10
-1.577634
 20
-1.273264
  0
VERTEX
  8
PLAN_1
 62
     2
  6
CONTINUOUS
 10
-1.578154
 20
-1.279516
  0
VERTEX
  8
PLAN_1
 62
     2
  6
CONTINUOUS
 10
-1.579717
 20
-1.285768
  0
VERTEX
  8
PLAN_1
 62
     2
  6
CONTINUOUS
 10
-1.581803
 20
-1.292020
  0
VERTEX
  8
PLAN_1
 62
     2
  6
CONTINUOUS
 10
-1.583366
 20
-1.294626
  0
VERTEX
  8
PLAN_1
 62
     2
  6
CONTINUOUS
 10
-1.584929
 20
-1.297232
  0
VERTEX
  8
PLAN_1
 62
     2
  6
CONTINUOUS
 10
-1.587012
 20
-1.299315
  0
VERTEX
  8
PLAN_1
 62
     2
  6
CONTINUOUS
 10
-1.589618
 20
-1.301402
  0
VERTEX
  8
PLAN_1
 62
     2
  6
CONTINUOUS
 10
-1.592224
 20
-1.302965
  0
VERTEX
  8
PLAN_1
 62
     2
  6
CONTINUOUS
 10
-1.595350
 20
-1.304008
  0
VERTEX
  8
PLAN_1
 62
     2
  6
CONTINUOUS
 10
-1.598476
 20
-1.304528
  0
VERTEX
  8
PLAN_1
 62
     2
  6
CONTINUOUS
 10
-1.602126
 20
-1.305047
  0
SEQEND
  8
0
  0
POLYLINE
  8
PLAN_1
 62
     2
  6
CONTINUOUS
 66
     1
 40
0.003000
 41
0.003000
  0
VERTEX
  8
PLAN_1
 62
     2
  6
CONTINUOUS
 10
-1.602126
 20
-1.237827
  0
VERTEX
  8
PLAN_1
 62
     2
  6
CONTINUOUS
 10
-1.604209
 20
-1.238350
  0
VERTEX
  8
PLAN_1
 62
     2
  6
CONTINUOUS
 10
-1.605772
 20
-1.238350
  0
VERTEX
  8
PLAN_1
 62
     2
  6
CONTINUOUS
 10
-1.607854
 20
-1.239390
  0
VERTEX
  8
PLAN_1
 62
     2
  6
CONTINUOUS
 10
-1.608898
 20
-1.239913
  0
VERTEX
  8
PLAN_1
 62
     2
  6
CONTINUOUS
 10
-1.611504
 20
-1.242516
  0
VERTEX
  8
PLAN_1
 62
     2
  6
CONTINUOUS
 10
-1.614110
 20
-1.245646
  0
VERTEX
  8
PLAN_1
 62
     2
  6
CONTINUOUS
 10
-1.615673
 20
-1.249811
  0
VERTEX
  8
PLAN_1
 62
     2
  6
CONTINUOUS
 10
-1.616717
 20
-1.255024
  0
VERTEX
  8
PLAN_1
 62
     2
  6
CONTINUOUS
 10
-1.617236
 20
-1.260756
  0
VERTEX
  8
PLAN_1
 62
     2
  6
CONTINUOUS
 10
-1.617756
 20
-1.267531
  0
VERTEX
  8
PLAN_1
 62
     2
  6
CONTINUOUS
 10
-1.617236
 20
-1.273783
  0
VERTEX
  8
PLAN_1
 62
     2
  6
CONTINUOUS
 10
-1.616717
 20
-1.279516
  0
VERTEX
  8
PLAN_1
 62
     2
  6
CONTINUOUS
 10
-1.615673
 20
-1.284724
  0
VERTEX
  8
PLAN_1
 62
     2
  6
CONTINUOUS
 10
-1.614110
 20
-1.288894
  0
VERTEX
  8
PLAN_1
 62
     2
  6
CONTINUOUS
 10
-1.611504
 20
-1.292020
  0
VERTEX
  8
PLAN_1
 62
     2
  6
CONTINUOUS
 10
-1.608898
 20
-1.294626
  0
VERTEX
  8
PLAN_1
 62
     2
  6
CONTINUOUS
 10
-1.607854
 20
-1.295669
  0
VERTEX
  8
PLAN_1
 62
     2
  6
CONTINUOUS
 10
-1.605772
 20
-1.296189
  0
VERTEX
  8
PLAN_1
 62
     2
  6
CONTINUOUS
 10
-1.604209
 20
-1.296713
  0
VERTEX
  8
PLAN_1
 62
     2
  6
CONTINUOUS
 10
-1.602126
 20
-1.296713
  0
VERTEX
  8
PLAN_1
 62
     2
  6
CONTINUOUS
 10
-1.600559
 20
-1.296713
  0
VERTEX
  8
PLAN_1
 62
     2
  6
CONTINUOUS
 10
-1.598476
 20
-1.296189
  0
VERTEX
  8
PLAN_1
 62
     2
  6
CONTINUOUS
 10
-1.596913
 20
-1.295669
  0
VERTEX
  8
PLAN_1
 62
     2
  6
CONTINUOUS
 10
-1.595350
 20
-1.294626
  0
VERTEX
  8
PLAN_1
 62
     2
  6
CONTINUOUS
 10
-1.592744
 20
-1.292020
  0
VERTEX
  8
PLAN_1
 62
     2
  6
CONTINUOUS
 10
-1.590661
 20
-1.288894
  0
VERTEX
  8
PLAN_1
 62
     2
  6
CONTINUOUS
 10
-1.589098
 20
-1.284724
  0
VERTEX
  8
PLAN_1
 62
     2
  6
CONTINUOUS
 10
-1.588055
 20
-1.279516
  0
VERTEX
  8
PLAN_1
 62
     2
  6
CONTINUOUS
 10
-1.587012
 20
-1.273783
  0
VERTEX
  8
PLAN_1
 62
     2
  6
CONTINUOUS
 10
-1.587012
 20
-1.267531
  0
VERTEX
  8
PLAN_1
 62
     2
  6
CONTINUOUS
 10
-1.587012
 20
-1.260756
  0
VERTEX
  8
PLAN_1
 62
     2
  6
CONTINUOUS
 10
-1.588055
 20
-1.255024
  0
VERTEX
  8
PLAN_1
 62
     2
  6
CONTINUOUS
 10
-1.589098
 20
-1.249811
  0
VERTEX
  8
PLAN_1
 62
     2
  6
CONTINUOUS
 10
-1.590661
 20
-1.245646
  0
VERTEX
  8
PLAN_1
 62
     2
  6
CONTINUOUS
 10
-1.592744
 20
-1.242516
  0
VERTEX
  8
PLAN_1
 62
     2
  6
CONTINUOUS
 10
-1.595350
 20
-1.239913
  0
VERTEX
  8
PLAN_1
 62
     2
  6
CONTINUOUS
 10
-1.596913
 20
-1.239390
  0
VERTEX
  8
PLAN_1
 62
     2
  6
CONTINUOUS
 10
-1.598476
 20
-1.238350
  0
VERTEX
  8
PLAN_1
 62
     2
  6
CONTINUOUS
 10
-1.600559
 20
-1.238350
  0
VERTEX
  8
PLAN_1
 62
     2
  6
CONTINUOUS
 10
-1.602126
 20
-1.237827
  0
SEQEND
  8
0
  0
POLYLINE
  8
PLAN_1
 62
     2
  6
CONTINUOUS
 66
     1
 40
0.004165
 41
0.004165
  0
VERTEX
  8
PLAN_1
 62
     2
  6
CONTINUOUS
 10
-1.042469
 20
-0.796980
  0
VERTEX
  8
PLAN_1
 62
     2
  6
CONTINUOUS
 10
-1.042469
 20
-1.144551
  0
SEQEND
  8
0
  0
POLYLINE
  8
PLAN_1
 62
     2
  6
CONTINUOUS
 66
     1
 40
0.004165
 41
0.004165
  0
VERTEX
  8
PLAN_1
 62
     2
  6
CONTINUOUS
 10
-1.042469
 20
-1.191972
  0
VERTEX
  8
PLAN_1
 62
     2
  6
CONTINUOUS
 10
-1.042469
 20
-1.350382
  0
SEQEND
  8
0
  0
POLYLINE
  8
PLAN_1
 62
     2
  6
CONTINUOUS
 66
     1
 40
0.004165
 41
0.004165
  0
VERTEX
  8
PLAN_1
 62
     2
  6
CONTINUOUS
 10
-2.220142
 20
-0.348843
  0
VERTEX
  8
PLAN_1
 62
     2
  6
CONTINUOUS
 10
-2.220142
 20
-1.350382
  0
SEQEND
  8
0
  0
POLYLINE
  8
PLAN_1
 62
     2
  6
CONTINUOUS
 66
     1
 40
0.004165
 41
0.004165
  0
VERTEX
  8
PLAN_1
 62
     2
  6
CONTINUOUS
 10
-0.884579
 20
-0.744350
  0
VERTEX
  8
PLAN_1
 62
     2
  6
CONTINUOUS
 10
-0.884579
 20
3.729760
  0
SEQEND
  8
0
  0
SOLID
  8
PLAN_1
 62
     2
 10
-0.884579
 20
3.758941
 11
-0.900732
 21
3.700059
 12
-0.884579
 22
3.758941
 13
-0.868945
 23
3.700059
  0
POLYLINE
  8
PLAN_1
 62
     2
  6
CONTINUOUS
 66
     1
 40
0.003000
 41
0.003000
  0
VERTEX
  8
PLAN_1
 62
     2
  6
CONTINUOUS
 10
-0.884579
 20
3.758941
  0
VERTEX
  8
PLAN_1
 62
     2
  6
CONTINUOUS
 10
-0.900732
 20
3.700059
  0
VERTEX
  8
PLAN_1
 62
     2
  6
CONTINUOUS
 10
-0.868945
 20
3.700059
  0
VERTEX
  8
PLAN_1
 62
     2
  6
CONTINUOUS
 10
-0.884579
 20
3.758941
  0
SEQEND
  8
0
  0
SOLID
  8
PLAN_1
 62
     2
 10
-0.884579
 20
-0.774055
 11
-0.900732
 21
-0.715169
 12
-0.884579
 22
-0.774055
 13
-0.868945
 23
-0.715169
  0
POLYLINE
  8
PLAN_1
 62
     2
  6
CONTINUOUS
 66
     1
 40
0.003000
 41
0.003000
  0
VERTEX
  8
PLAN_1
 62
     2
  6
CONTINUOUS
 10
-0.884579
 20
-0.774055
  0
VERTEX
  8
PLAN_1
 62
     2
  6
CONTINUOUS
 10
-0.900732
 20
-0.715169
  0
VERTEX
  8
PLAN_1
 62
     2
  6
CONTINUOUS
 10
-0.868945
 20
-0.715169
  0
VERTEX
  8
PLAN_1
 62
     2
  6
CONTINUOUS
 10
-0.884579
 20
-0.774055
  0
SEQEND
  8
0
  0
POLYLINE
  8
PLAN_1
 62
     2
  6
CONTINUOUS
 66
     1
 40
0.004165
 41
0.004165
  0
VERTEX
  8
PLAN_1
 62
     2
  6
CONTINUOUS
 10
-1.809000
 20
3.915791
  0
VERTEX
  8
PLAN_1
 62
     2
  6
CONTINUOUS
 10
-1.477583
 20
3.915791
  0
SEQEND
  8
0
  0
SOLID
  8
PLAN_1
 62
     2
 10
-1.644335
 20
3.915791
 11
-1.703217
 21
3.931425
 12
-1.644335
 22
3.915791
 13
-1.703217
 23
3.900157
  0
POLYLINE
  8
PLAN_1
 62
     2
  6
CONTINUOUS
 66
     1
 40
0.003000
 41
0.003000
  0
VERTEX
  8
PLAN_1
 62
     2
  6
CONTINUOUS
 10
-1.644335
 20
3.915791
  0
VERTEX
  8
PLAN_1
 62
     2
  6
CONTINUOUS
 10
-1.703217
 20
3.931425
  0
VERTEX
  8
PLAN_1
 62
     2
  6
CONTINUOUS
 10
-1.703217
 20
3.900157
  0
VERTEX
  8
PLAN_1
 62
     2
  6
CONTINUOUS
 10
-1.644335
 20
3.915791
  0
SEQEND
  8
0
  0
SOLID
  8
PLAN_1
 62
     2
 10
-1.502594
 20
3.915791
 11
-1.443713
 21
3.931425
 12
-1.502594
 22
3.915791
 13
-1.443713
 23
3.900157
  0
POLYLINE
  8
PLAN_1
 62
     2
  6
CONTINUOUS
 66
     1
 40
0.003000
 41
0.003000
  0
VERTEX
  8
PLAN_1
 62
     2
  6
CONTINUOUS
 10
-1.502594
 20
3.915791
  0
VERTEX
  8
PLAN_1
 62
     2
  6
CONTINUOUS
 10
-1.443713
 20
3.931425
  0
VERTEX
  8
PLAN_1
 62
     2
  6
CONTINUOUS
 10
-1.443713
 20
3.900157
  0
VERTEX
  8
PLAN_1
 62
     2
  6
CONTINUOUS
 10
-1.502594
 20
3.915791
  0
SEQEND
  8
0
  0
POLYLINE
  8
PLAN_1
 62
     2
  6
CONTINUOUS
 66
     1
 40
0.003000
 41
0.003000
  0
VERTEX
  8
PLAN_1
 62
     2
  6
CONTINUOUS
 10
-1.736043
 20
3.956957
  0
VERTEX
  8
PLAN_1
 62
     2
  6
CONTINUOUS
 10
-1.736043
 20
3.939240
  0
VERTEX
  8
PLAN_1
 62
     2
  6
CONTINUOUS
 10
-1.744906
 20
3.939240
  0
VERTEX
  8
PLAN_1
 62
     2
  6
CONTINUOUS
 10
-1.744906
 20
3.956957
  0
VERTEX
  8
PLAN_1
 62
     2
  6
CONTINUOUS
 10
-1.776689
 20
3.956957
  0
VERTEX
  8
PLAN_1
 62
     2
  6
CONTINUOUS
 10
-1.776689
 20
3.966339
  0
VERTEX
  8
PLAN_1
 62
     2
  6
CONTINUOUS
 10
-1.743339
 20
4.012713
  0
VERTEX
  8
PLAN_1
 62
     2
  6
CONTINUOUS
 10
-1.736043
 20
4.012713
  0
VERTEX
  8
PLAN_1
 62
     2
  6
CONTINUOUS
 10
-1.736043
 20
3.965295
  0
VERTEX
  8
PLAN_1
 62
     2
  6
CONTINUOUS
 10
-1.725102
 20
3.965295
  0
VERTEX
  8
PLAN_1
 62
     2
  6
CONTINUOUS
 10
-1.725102
 20
3.956957
  0
VERTEX
  8
PLAN_1
 62
     2
  6
CONTINUOUS
 10
-1.736043
 20
3.956957
  0
SEQEND
  8
0
  0
SOLID
  8
PLAN_1
 62
     2
 10
-1.768354
 20
3.965295
 11
-1.744906
 21
3.965295
 12
-1.745425
 22
3.998122
 13
-1.744906
 23
3.998122
  0
POLYLINE
  8
PLAN_1
 62
     2
  6
CONTINUOUS
 66
     1
 40
0.003000
 41
0.003000
  0
VERTEX
  8
PLAN_1
 62
     2
  6
CONTINUOUS
 10
-1.768354
 20
3.965295
  0
VERTEX
  8
PLAN_1
 62
     2
  6
CONTINUOUS
 10
-1.744906
 20
3.965295
  0
VERTEX
  8
PLAN_1
 62
     2
  6
CONTINUOUS
 10
-1.744906
 20
3.998122
  0
VERTEX
  8
PLAN_1
 62
     2
  6
CONTINUOUS
 10
-1.745425
 20
3.998122
  0
VERTEX
  8
PLAN_1
 62
     2
  6
CONTINUOUS
 10
-1.768354
 20
3.965295
  0
SEQEND
  8
0
  0
POLYLINE
  8
PLAN_1
 62
     2
  6
CONTINUOUS
 66
     1
 40
0.004165
 41
0.004165
  0
VERTEX
  8
PLAN_1
 62
     2
  6
CONTINUOUS
 10
-1.644335
 20
3.781870
  0
VERTEX
  8
PLAN_1
 62
     2
  6
CONTINUOUS
 10
-1.644335
 20
3.939240
  0
SEQEND
  8
0
  0
POLYLINE
  8
PLAN_1
 62
     2
  6
CONTINUOUS
 66
     1
 40
0.004165
 41
0.004165
  0
VERTEX
  8
PLAN_1
 62
     2
  6
CONTINUOUS
 10
-1.502594
 20
3.781870
  0
VERTEX
  8
PLAN_1
 62
     2
  6
CONTINUOUS
 10
-1.502594
 20
3.939240
  0
SEQEND
  8
0
  0
POLYLINE
  8
PLAN_1
 62
     2
  6
CONTINUOUS
 66
     1
 40
0.004165
 41
0.004165
  0
VERTEX
  8
PLAN_1
 62
     2
  6
CONTINUOUS
 10
-1.573984
 20
3.780827
  0
VERTEX
  8
PLAN_1
 62
     2
  6
CONTINUOUS
 10
-1.573984
 20
3.891819
  0
SEQEND
  8
0
  0
POLYLINE
  8
PLAN_1
 62
     2
  6
CONTINUOUS
 66
     1
 40
0.004165
 41
0.004165
  0
VERTEX
  8
PLAN_1
 62
     2
  6
CONTINUOUS
 10
-1.573984
 20
3.938720
  0
VERTEX
  8
PLAN_1
 62
     2
  6
CONTINUOUS
 10
-1.573984
 20
4.095047
  0
SEQEND
  8
0
  0
POLYLINE
  8
PLAN_1
 62
     2
  6
CONTINUOUS
 66
     1
 40
0.003000
 41
0.003000
  0
VERTEX
  8
PLAN_1
 62
     2
  6
CONTINUOUS
 10
-0.908547
 20
1.399429
  0
VERTEX
  8
PLAN_1
 62
     2
  6
CONTINUOUS
 10
-0.908547
 20
1.390047
  0
VERTEX
  8
PLAN_1
 62
     2
  6
CONTINUOUS
 10
-0.960138
 20
1.390047
  0
VERTEX
  8
PLAN_1
 62
     2
  6
CONTINUOUS
 10
-0.960138
 20
1.372854
  0
VERTEX
  8
PLAN_1
 62
     2
  6
CONTINUOUS
 10
-0.967433
 20
1.372854
  0
VERTEX
  8
PLAN_1
 62
     2
  6
CONTINUOUS
 10
-0.967953
 20
1.377020
  0
VERTEX
  8
PLAN_1
 62
     2
  6
CONTINUOUS
 10
-0.968472
 20
1.380669
  0
VERTEX
  8
PLAN_1
 62
     2
  6
CONTINUOUS
 10
-0.968996
 20
1.383276
  0
VERTEX
  8
PLAN_1
 62
     2
  6
CONTINUOUS
 10
-0.970559
 20
1.385882
  0
VERTEX
  8
PLAN_1
 62
     2
  6
CONTINUOUS
 10
-0.972122
 20
1.387965
  0
VERTEX
  8
PLAN_1
 62
     2
  6
CONTINUOUS
 10
-0.974205
 20
1.390047
  0
VERTEX
  8
PLAN_1
 62
     2
  6
CONTINUOUS
 10
-0.977331
 20
1.391091
  0
VERTEX
  8
PLAN_1
 62
     2
  6
CONTINUOUS
 10
-0.981500
 20
1.392654
  0
VERTEX
  8
PLAN_1
 62
     2
  6
CONTINUOUS
 10
-0.981500
 20
1.399429
  0
VERTEX
  8
PLAN_1
 62
     2
  6
CONTINUOUS
 10
-0.908547
 20
1.399429
  0
SEQEND
  8
0
  0
POLYLINE
  8
PLAN_1
 62
     2
  6
CONTINUOUS
 66
     1
 40
0.003000
 41
0.003000
  0
VERTEX
  8
PLAN_1
 62
     2
  6
CONTINUOUS
 10
-0.908547
 20
1.457791
  0
VERTEX
  8
PLAN_1
 62
     2
  6
CONTINUOUS
 10
-0.908547
 20
1.447890
  0
VERTEX
  8
PLAN_1
 62
     2
  6
CONTINUOUS
 10
-0.960138
 20
1.447890
  0
VERTEX
  8
PLAN_1
 62
     2
  6
CONTINUOUS
 10
-0.960138
 20
1.430693
  0
VERTEX
  8
PLAN_1
 62
     2
  6
CONTINUOUS
 10
-0.967433
 20
1.430693
  0
VERTEX
  8
PLAN_1
 62
     2
  6
CONTINUOUS
 10
-0.967953
 20
1.434862
  0
VERTEX
  8
PLAN_1
 62
     2
  6
CONTINUOUS
 10
-0.968472
 20
1.438512
  0
VERTEX
  8
PLAN_1
 62
     2
  6
CONTINUOUS
 10
-0.968996
 20
1.441114
  0
VERTEX
  8
PLAN_1
 62
     2
  6
CONTINUOUS
 10
-0.970559
 20
1.443720
  0
VERTEX
  8
PLAN_1
 62
     2
  6
CONTINUOUS
 10
-0.972122
 20
1.445807
  0
VERTEX
  8
PLAN_1
 62
     2
  6
CONTINUOUS
 10
-0.974205
 20
1.447890
  0
VERTEX
  8
PLAN_1
 62
     2
  6
CONTINUOUS
 10
-0.977331
 20
1.448933
  0
VERTEX
  8
PLAN_1
 62
     2
  6
CONTINUOUS
 10
-0.981500
 20
1.450496
  0
VERTEX
  8
PLAN_1
 62
     2
  6
CONTINUOUS
 10
-0.981500
 20
1.457791
  0
VERTEX
  8
PLAN_1
 62
     2
  6
CONTINUOUS
 10
-0.908547
 20
1.457791
  0
SEQEND
  8
0
  0
POLYLINE
  8
PLAN_1
 62
     2
  6
CONTINUOUS
 66
     1
 40
0.003000
 41
0.003000
  0
VERTEX
  8
PLAN_1
 62
     2
  6
CONTINUOUS
 10
-0.950756
 20
1.493224
  0
VERTEX
  8
PLAN_1
 62
     2
  6
CONTINUOUS
 10
-0.951799
 20
1.494787
  0
VERTEX
  8
PLAN_1
 62
     2
  6
CONTINUOUS
 10
-0.952843
 20
1.495831
  0
VERTEX
  8
PLAN_1
 62
     2
  6
CONTINUOUS
 10
-0.953362
 20
1.497394
  0
VERTEX
  8
PLAN_1
 62
     2
  6
CONTINUOUS
 10
-0.953882
 20
1.498957
  0
VERTEX
  8
PLAN_1
 62
     2
  6
CONTINUOUS
 10
-0.954925
 20
1.501043
  0
VERTEX
  8
PLAN_1
 62
     2
  6
CONTINUOUS
 10
-0.954925
 20
1.503126
  0
VERTEX
  8
PLAN_1
 62
     2
  6
CONTINUOUS
 10
-0.955445
 20
1.505209
  0
VERTEX
  8
PLAN_1
 62
     2
  6
CONTINUOUS
 10
-0.955445
 20
1.507295
  0
VERTEX
  8
PLAN_1
 62
     2
  6
CONTINUOUS
 10
-0.954925
 20
1.511984
  0
VERTEX
  8
PLAN_1
 62
     2
  6
CONTINUOUS
 10
-0.953882
 20
1.516154
  0
VERTEX
  8
PLAN_1
 62
     2
  6
CONTINUOUS
 10
-0.952319
 20
1.520323
  0
VERTEX
  8
PLAN_1
 62
     2
  6
CONTINUOUS
 10
-0.949717
 20
1.523969
  0
VERTEX
  8
PLAN_1
 62
     2
  6
CONTINUOUS
 10
-0.946067
 20
1.527094
  0
VERTEX
  8
PLAN_1
 62
     2
  6
CONTINUOUS
 10
-0.941898
 20
1.529701
  0
VERTEX
  8
PLAN_1
 62
     2
  6
CONTINUOUS
 10
-0.939815
 20
1.530224
  0
VERTEX
  8
PLAN_1
 62
     2
  6
CONTINUOUS
 10
-0.937209
 20
1.530744
  0
VERTEX
  8
PLAN_1
 62
     2
  6
CONTINUOUS
 10
-0.935122
 20
1.531264
  0
VERTEX
  8
PLAN_1
 62
     2
  6
CONTINUOUS
 10
-0.931996
 20
1.531787
  0
VERTEX
  8
PLAN_1
 62
     2
  6
CONTINUOUS
 10
-0.928870
 20
1.531264
  0
VERTEX
  8
PLAN_1
 62
     2
  6
CONTINUOUS
 10
-0.924701
 20
1.530744
  0
VERTEX
  8
PLAN_1
 62
     2
  6
CONTINUOUS
 10
-0.920531
 20
1.529181
  0
VERTEX
  8
PLAN_1
 62
     2
  6
CONTINUOUS
 10
-0.916366
 20
1.527094
  0
VERTEX
  8
PLAN_1
 62
     2
  6
CONTINUOUS
 10
-0.914280
 20
1.525531
  0
VERTEX
  8
PLAN_1
 62
     2
  6
CONTINUOUS
 10
-0.912197
 20
1.523449
  0
VERTEX
  8
PLAN_1
 62
     2
  6
CONTINUOUS
 10
-0.910634
 20
1.521366
  0
VERTEX
  8
PLAN_1
 62
     2
  6
CONTINUOUS
 10
-0.909071
 20
1.518760
  0
VERTEX
  8
PLAN_1
 62
     2
  6
CONTINUOUS
 10
-0.908028
 20
1.516154
  0
VERTEX
  8
PLAN_1
 62
     2
  6
CONTINUOUS
 10
-0.906984
 20
1.512504
  0
VERTEX
  8
PLAN_1
 62
     2
  6
CONTINUOUS
 10
-0.906465
 20
1.508858
  0
VERTEX
  8
PLAN_1
 62
     2
  6
CONTINUOUS
 10
-0.906465
 20
1.505209
  0
VERTEX
  8
PLAN_1
 62
     2
  6
CONTINUOUS
 10
-0.906465
 20
1.501563
  0
VERTEX
  8
PLAN_1
 62
     2
  6
CONTINUOUS
 10
-0.907508
 20
1.497394
  0
VERTEX
  8
PLAN_1
 62
     2
  6
CONTINUOUS
 10
-0.908547
 20
1.493748
  0
VERTEX
  8
PLAN_1
 62
     2
  6
CONTINUOUS
 10
-0.910634
 20
1.490098
  0
VERTEX
  8
PLAN_1
 62
     2
  6
CONTINUOUS
 10
-0.913236
 20
1.486972
  0
VERTEX
  8
PLAN_1
 62
     2
  6
CONTINUOUS
 10
-0.916366
 20
1.484366
  0
VERTEX
  8
PLAN_1
 62
     2
  6
CONTINUOUS
 10
-0.918449
 20
1.483323
  0
VERTEX
  8
PLAN_1
 62
     2
  6
CONTINUOUS
 10
-0.921055
 20
1.482283
  0
VERTEX
  8
PLAN_1
 62
     2
  6
CONTINUOUS
 10
-0.923661
 20
1.481760
  0
VERTEX
  8
PLAN_1
 62
     2
  6
CONTINUOUS
 10
-0.926787
 20
1.481240
  0
VERTEX
  8
PLAN_1
 62
     2
  6
CONTINUOUS
 10
-0.926787
 20
1.490618
  0
VERTEX
  8
PLAN_1
 62
     2
  6
CONTINUOUS
 10
-0.923661
 20
1.491661
  0
VERTEX
  8
PLAN_1
 62
     2
  6
CONTINUOUS
 10
-0.921055
 20
1.492705
  0
VERTEX
  8
PLAN_1
 62
     2
  6
CONTINUOUS
 10
-0.918969
 20
1.493748
  0
VERTEX
  8
PLAN_1
 62
     2
  6
CONTINUOUS
 10
-0.917406
 20
1.495831
  0
VERTEX
  8
PLAN_1
 62
     2
  6
CONTINUOUS
 10
-0.915843
 20
1.497913
  0
VERTEX
  8
PLAN_1
 62
     2
  6
CONTINUOUS
 10
-0.914803
 20
1.500520
  0
VERTEX
  8
PLAN_1
 62
     2
  6
CONTINUOUS
 10
-0.914280
 20
1.503126
  0
VERTEX
  8
PLAN_1
 62
     2
  6
CONTINUOUS
 10
-0.914280
 20
1.506252
  0
VERTEX
  8
PLAN_1
 62
     2
  6
CONTINUOUS
 10
-0.914803
 20
1.509902
  0
VERTEX
  8
PLAN_1
 62
     2
  6
CONTINUOUS
 10
-0.915843
 20
1.512504
  0
VERTEX
  8
PLAN_1
 62
     2
  6
CONTINUOUS
 10
-0.917406
 20
1.515634
  0
VERTEX
  8
PLAN_1
 62
     2
  6
CONTINUOUS
 10
-0.919492
 20
1.517717
  0
VERTEX
  8
PLAN_1
 62
     2
  6
CONTINUOUS
 10
-0.921575
 20
1.519280
  0
VERTEX
  8
PLAN_1
 62
     2
  6
CONTINUOUS
 10
-0.924701
 20
1.520843
  0
VERTEX
  8
PLAN_1
 62
     2
  6
CONTINUOUS
 10
-0.927827
 20
1.521366
  0
VERTEX
  8
PLAN_1
 62
     2
  6
CONTINUOUS
 10
-0.930957
 20
1.521886
  0
VERTEX
  8
PLAN_1
 62
     2
  6
CONTINUOUS
 10
-0.934602
 20
1.521366
  0
VERTEX
  8
PLAN_1
 62
     2
  6
CONTINUOUS
 10
-0.938252
 20
1.520323
  0
VERTEX
  8
PLAN_1
 62
     2
  6
CONTINUOUS
 10
-0.940854
 20
1.518760
  0
VERTEX
  8
PLAN_1
 62
     2
  6
CONTINUOUS
 10
-0.942941
 20
1.517197
  0
VERTEX
  8
PLAN_1
 62
     2
  6
CONTINUOUS
 10
-0.945024
 20
1.514591
  0
VERTEX
  8
PLAN_1
 62
     2
  6
CONTINUOUS
 10
-0.946067
 20
1.511984
  0
VERTEX
  8
PLAN_1
 62
     2
  6
CONTINUOUS
 10
-0.947110
 20
1.508858
  0
VERTEX
  8
PLAN_1
 62
     2
  6
CONTINUOUS
 10
-0.947110
 20
1.505732
  0
VERTEX
  8
PLAN_1
 62
     2
  6
CONTINUOUS
 10
-0.947110
 20
1.503646
  0
VERTEX
  8
PLAN_1
 62
     2
  6
CONTINUOUS
 10
-0.947110
 20
1.501563
  0
VERTEX
  8
PLAN_1
 62
     2
  6
CONTINUOUS
 10
-0.946067
 20
1.500000
  0
VERTEX
  8
PLAN_1
 62
     2
  6
CONTINUOUS
 10
-0.945547
 20
1.497913
  0
VERTEX
  8
PLAN_1
 62
     2
  6
CONTINUOUS
 10
-0.944504
 20
1.496350
  0
VERTEX
  8
PLAN_1
 62
     2
  6
CONTINUOUS
 10
-0.943461
 20
1.494787
  0
VERTEX
  8
PLAN_1
 62
     2
  6
CONTINUOUS
 10
-0.941898
 20
1.493224
  0
VERTEX
  8
PLAN_1
 62
     2
  6
CONTINUOUS
 10
-0.940335
 20
1.492185
  0
VERTEX
  8
PLAN_1
 62
     2
  6
CONTINUOUS
 10
-0.940854
 20
1.483846
  0
VERTEX
  8
PLAN_1
 62
     2
  6
CONTINUOUS
 10
-0.979937
 20
1.489579
  0
VERTEX
  8
PLAN_1
 62
     2
  6
CONTINUOUS
 10
-0.979937
 20
1.527618
  0
VERTEX
  8
PLAN_1
 62
     2
  6
CONTINUOUS
 10
-0.971079
 20
1.527618
  0
VERTEX
  8
PLAN_1
 62
     2
  6
CONTINUOUS
 10
-0.971079
 20
1.496350
  0
VERTEX
  8
PLAN_1
 62
     2
  6
CONTINUOUS
 10
-0.950756
 20
1.493224
  0
SEQEND
  8
0
  0
POLYLINE
  8
PLAN_1
 62
     2
  6
CONTINUOUS
 66
     1
 40
0.003000
 41
0.003000
  0
VERTEX
  8
PLAN_1
 62
     2
  6
CONTINUOUS
 10
-0.919492
 20
1.544815
  0
VERTEX
  8
PLAN_1
 62
     2
  6
CONTINUOUS
 10
-0.919492
 20
1.555756
  0
VERTEX
  8
PLAN_1
 62
     2
  6
CONTINUOUS
 10
-0.909071
 20
1.555756
  0
VERTEX
  8
PLAN_1
 62
     2
  6
CONTINUOUS
 10
-0.904378
 20
1.555236
  0
VERTEX
  8
PLAN_1
 62
     2
  6
CONTINUOUS
 10
-0.900732
 20
1.554193
  0
VERTEX
  8
PLAN_1
 62
     2
  6
CONTINUOUS
 10
-0.898126
 20
1.553150
  0
VERTEX
  8
PLAN_1
 62
     2
  6
CONTINUOUS
 10
-0.896043
 20
1.551067
  0
VERTEX
  8
PLAN_1
 62
     2
  6
CONTINUOUS
 10
-0.894480
 20
1.549504
  0
VERTEX
  8
PLAN_1
 62
     2
  6
CONTINUOUS
 10
-0.893957
 20
1.547417
  0
VERTEX
  8
PLAN_1
 62
     2
  6
CONTINUOUS
 10
-0.893437
 20
1.545854
  0
VERTEX
  8
PLAN_1
 62
     2
  6
CONTINUOUS
 10
-0.892917
 20
1.544815
  0
VERTEX
  8
PLAN_1
 62
     2
  6
CONTINUOUS
 10
-0.898126
 20
1.544815
  0
VERTEX
  8
PLAN_1
 62
     2
  6
CONTINUOUS
 10
-0.898126
 20
1.546378
  0
VERTEX
  8
PLAN_1
 62
     2
  6
CONTINUOUS
 10
-0.899169
 20
1.547941
  0
VERTEX
  8
PLAN_1
 62
     2
  6
CONTINUOUS
 10
-0.900213
 20
1.548461
  0
VERTEX
  8
PLAN_1
 62
     2
  6
CONTINUOUS
 10
-0.901252
 20
1.549504
  0
VERTEX
  8
PLAN_1
 62
     2
  6
CONTINUOUS
 10
-0.902815
 20
1.550024
  0
VERTEX
  8
PLAN_1
 62
     2
  6
CONTINUOUS
 10
-0.904902
 20
1.550024
  0
VERTEX
  8
PLAN_1
 62
     2
  6
CONTINUOUS
 10
-0.906465
 20
1.550547
  0
VERTEX
  8
PLAN_1
 62
     2
  6
CONTINUOUS
 10
-0.908547
 20
1.550547
  0
VERTEX
  8
PLAN_1
 62
     2
  6
CONTINUOUS
 10
-0.908547
 20
1.544815
  0
VERTEX
  8
PLAN_1
 62
     2
  6
CONTINUOUS
 10
-0.919492
 20
1.544815
  0
SEQEND
  8
0
  0
POLYLINE
  8
PLAN_1
 62
     2
  6
CONTINUOUS
 66
     1
 40
0.003000
 41
0.003000
  0
VERTEX
  8
PLAN_1
 62
     2
  6
CONTINUOUS
 10
-0.950756
 20
1.580248
  0
VERTEX
  8
PLAN_1
 62
     2
  6
CONTINUOUS
 10
-0.951799
 20
1.581291
  0
VERTEX
  8
PLAN_1
 62
     2
  6
CONTINUOUS
 10
-0.952843
 20
1.582854
  0
VERTEX
  8
PLAN_1
 62
     2
  6
CONTINUOUS
 10
-0.953362
 20
1.584417
  0
VERTEX
  8
PLAN_1
 62
     2
  6
CONTINUOUS
 10
-0.953882
 20
1.585980
  0
VERTEX
  8
PLAN_1
 62
     2
  6
CONTINUOUS
 10
-0.954925
 20
1.587543
  0
VERTEX
  8
PLAN_1
 62
     2
  6
CONTINUOUS
 10
-0.954925
 20
1.589626
  0
VERTEX
  8
PLAN_1
 62
     2
  6
CONTINUOUS
 10
-0.955445
 20
1.591713
  0
VERTEX
  8
PLAN_1
 62
     2
  6
CONTINUOUS
 10
-0.955445
 20
1.594319
  0
VERTEX
  8
PLAN_1
 62
     2
  6
CONTINUOUS
 10
-0.954925
 20
1.599008
  0
VERTEX
  8
PLAN_1
 62
     2
  6
CONTINUOUS
 10
-0.953882
 20
1.603177
  0
VERTEX
  8
PLAN_1
 62
     2
  6
CONTINUOUS
 10
-0.952319
 20
1.607346
  0
VERTEX
  8
PLAN_1
 62
     2
  6
CONTINUOUS
 10
-0.949717
 20
1.610992
  0
VERTEX
  8
PLAN_1
 62
     2
  6
CONTINUOUS
 10
-0.946067
 20
1.614118
  0
VERTEX
  8
PLAN_1
 62
     2
  6
CONTINUOUS
 10
-0.941898
 20
1.616205
  0
VERTEX
  8
PLAN_1
 62
     2
  6
CONTINUOUS
 10
-0.939815
 20
1.617244
  0
VERTEX
  8
PLAN_1
 62
     2
  6
CONTINUOUS
 10
-0.937209
 20
1.617768
  0
VERTEX
  8
PLAN_1
 62
     2
  6
CONTINUOUS
 10
-0.935122
 20
1.618287
  0
VERTEX
  8
PLAN_1
 62
     2
  6
CONTINUOUS
 10
-0.931996
 20
1.618287
  0
VERTEX
  8
PLAN_1
 62
     2
  6
CONTINUOUS
 10
-0.928870
 20
1.618287
  0
VERTEX
  8
PLAN_1
 62
     2
  6
CONTINUOUS
 10
-0.924701
 20
1.617244
  0
VERTEX
  8
PLAN_1
 62
     2
  6
CONTINUOUS
 10
-0.920531
 20
1.616205
  0
VERTEX
  8
PLAN_1
 62
     2
  6
CONTINUOUS
 10
-0.916366
 20
1.613598
  0
VERTEX
  8
PLAN_1
 62
     2
  6
CONTINUOUS
 10
-0.914280
 20
1.612035
  0
VERTEX
  8
PLAN_1
 62
     2
  6
CONTINUOUS
 10
-0.912197
 20
1.610472
  0
VERTEX
  8
PLAN_1
 62
     2
  6
CONTINUOUS
 10
-0.910634
 20
1.607866
  0
VERTEX
  8
PLAN_1
 62
     2
  6
CONTINUOUS
 10
-0.909071
 20
1.605783
  0
VERTEX
  8
PLAN_1
 62
     2
  6
CONTINUOUS
 10
-0.908028
 20
1.602654
  0
VERTEX
  8
PLAN_1
 62
     2
  6
CONTINUOUS
 10
-0.906984
 20
1.599528
  0
VERTEX
  8
PLAN_1
 62
     2
  6
CONTINUOUS
 10
-0.906465
 20
1.595882
  0
VERTEX
  8
PLAN_1
 62
     2
  6
CONTINUOUS
 10
-0.906465
 20
1.591713
  0
VERTEX
  8
PLAN_1
 62
     2
  6
CONTINUOUS
 10
-0.906465
 20
1.588063
  0
VERTEX
  8
PLAN_1
 62
     2
  6
CONTINUOUS
 10
-0.907508
 20
1.584417
  0
VERTEX
  8
PLAN_1
 62
     2
  6
CONTINUOUS
 10
-0.908547
 20
1.580768
  0
VERTEX
  8
PLAN_1
 62
     2
  6
CONTINUOUS
 10
-0.910634
 20
1.577122
  0
VERTEX
  8
PLAN_1
 62
     2
  6
CONTINUOUS
 10
-0.913236
 20
1.573996
  0
VERTEX
  8
PLAN_1
 62
     2
  6
CONTINUOUS
 10
-0.916366
 20
1.571390
  0
VERTEX
  8
PLAN_1
 62
     2
  6
CONTINUOUS
 10
-0.918449
 20
1.570346
  0
VERTEX
  8
PLAN_1
 62
     2
  6
CONTINUOUS
 10
-0.921055
 20
1.569303
  0
VERTEX
  8
PLAN_1
 62
     2
  6
CONTINUOUS
 10
-0.923661
 20
1.568783
  0
VERTEX
  8
PLAN_1
 62
     2
  6
CONTINUOUS
 10
-0.926787
 20
1.568264
  0
VERTEX
  8
PLAN_1
 62
     2
  6
CONTINUOUS
 10
-0.926787
 20
1.577642
  0
VERTEX
  8
PLAN_1
 62
     2
  6
CONTINUOUS
 10
-0.923661
 20
1.578165
  0
VERTEX
  8
PLAN_1
 62
     2
  6
CONTINUOUS
 10
-0.921055
 20
1.579205
  0
VERTEX
  8
PLAN_1
 62
     2
  6
CONTINUOUS
 10
-0.918969
 20
1.580768
  0
VERTEX
  8
PLAN_1
 62
     2
  6
CONTINUOUS
 10
-0.917406
 20
1.582854
  0
VERTEX
  8
PLAN_1
 62
     2
  6
CONTINUOUS
 10
-0.915843
 20
1.584937
  0
VERTEX
  8
PLAN_1
 62
     2
  6
CONTINUOUS
 10
-0.914803
 20
1.587543
  0
VERTEX
  8
PLAN_1
 62
     2
  6
CONTINUOUS
 10
-0.914280
 20
1.590150
  0
VERTEX
  8
PLAN_1
 62
     2
  6
CONTINUOUS
 10
-0.914280
 20
1.593276
  0
VERTEX
  8
PLAN_1
 62
     2
  6
CONTINUOUS
 10
-0.914803
 20
1.596402
  0
VERTEX
  8
PLAN_1
 62
     2
  6
CONTINUOUS
 10
-0.915843
 20
1.599528
  0
VERTEX
  8
PLAN_1
 62
     2
  6
CONTINUOUS
 10
-0.917406
 20
1.602134
  0
VERTEX
  8
PLAN_1
 62
     2
  6
CONTINUOUS
 10
-0.919492
 20
1.604217
  0
VERTEX
  8
PLAN_1
 62
     2
  6
CONTINUOUS
 10
-0.921575
 20
1.606303
  0
VERTEX
  8
PLAN_1
 62
     2
  6
CONTINUOUS
 10
-0.924701
 20
1.607346
  0
VERTEX
  8
PLAN_1
 62
     2
  6
CONTINUOUS
 10
-0.927827
 20
1.608386
  0
VERTEX
  8
PLAN_1
 62
     2
  6
CONTINUOUS
 10
-0.930957
 20
1.608386
  0
VERTEX
  8
PLAN_1
 62
     2
  6
CONTINUOUS
 10
-0.934602
 20
1.608386
  0
VERTEX
  8
PLAN_1
 62
     2
  6
CONTINUOUS
 10
-0.938252
 20
1.607346
  0
VERTEX
  8
PLAN_1
 62
     2
  6
CONTINUOUS
 10
-0.940854
 20
1.605783
  0
VERTEX
  8
PLAN_1
 62
     2
  6
CONTINUOUS
 10
-0.942941
 20
1.603697
  0
VERTEX
  8
PLAN_1
 62
     2
  6
CONTINUOUS
 10
-0.945024
 20
1.601614
  0
VERTEX
  8
PLAN_1
 62
     2
  6
CONTINUOUS
 10
-0.946067
 20
1.598488
  0
VERTEX
  8
PLAN_1
 62
     2
  6
CONTINUOUS
 10
-0.947110
 20
1.595882
  0
VERTEX
  8
PLAN_1
 62
     2
  6
CONTINUOUS
 10
-0.947110
 20
1.592232
  0
VERTEX
  8
PLAN_1
 62
     2
  6
CONTINUOUS
 10
-0.947110
 20
1.590150
  0
VERTEX
  8
PLAN_1
 62
     2
  6
CONTINUOUS
 10
-0.947110
 20
1.588587
  0
VERTEX
  8
PLAN_1
 62
     2
  6
CONTINUOUS
 10
-0.946067
 20
1.586500
  0
VERTEX
  8
PLAN_1
 62
     2
  6
CONTINUOUS
 10
-0.945547
 20
1.584937
  0
VERTEX
  8
PLAN_1
 62
     2
  6
CONTINUOUS
 10
-0.944504
 20
1.583374
  0
VERTEX
  8
PLAN_1
 62
     2
  6
CONTINUOUS
 10
-0.943461
 20
1.581811
  0
VERTEX
  8
PLAN_1
 62
     2
  6
CONTINUOUS
 10
-0.941898
 20
1.580248
  0
VERTEX
  8
PLAN_1
 62
     2
  6
CONTINUOUS
 10
-0.940335
 20
1.578685
  0
VERTEX
  8
PLAN_1
 62
     2
  6
CONTINUOUS
 10
-0.940854
 20
1.570870
  0
VERTEX
  8
PLAN_1
 62
     2
  6
CONTINUOUS
 10
-0.979937
 20
1.576598
  0
VERTEX
  8
PLAN_1
 62
     2
  6
CONTINUOUS
 10
-0.979937
 20
1.614118
  0
VERTEX
  8
PLAN_1
 62
     2
  6
CONTINUOUS
 10
-0.971079
 20
1.614118
  0
VERTEX
  8
PLAN_1
 62
     2
  6
CONTINUOUS
 10
-0.971079
 20
1.583374
  0
VERTEX
  8
PLAN_1
 62
     2
  6
CONTINUOUS
 10
-0.950756
 20
1.580248
  0
SEQEND
  8
0
  0
POLYLINE
  8
PLAN_1
 62
     2
  6
CONTINUOUS
 66
     1
 40
0.004165
 41
0.004165
  0
VERTEX
  8
PLAN_1
 62
     2
  6
CONTINUOUS
 10
-0.861130
 20
-0.774055
  0
VERTEX
  8
PLAN_1
 62
     2
  6
CONTINUOUS
 10
-1.018500
 20
-0.774055
  0
SEQEND
  8
0
  0
POLYLINE
  8
PLAN_1
 62
     2
  6
CONTINUOUS
 66
     1
 40
0.004165
 41
0.004165
  0
VERTEX
  8
PLAN_1
 62
     2
  6
CONTINUOUS
 10
-1.040906
 20
2.145114
  0
VERTEX
  8
PLAN_1
 62
     2
  6
CONTINUOUS
 10
-1.040906
 20
4.095047
  0
SEQEND
  8
0
  0
POLYLINE
  8
PLAN_1
 62
     2
  6
CONTINUOUS
 66
     1
 40
0.004165
 41
0.004165
  0
VERTEX
  8
PLAN_1
 62
     2
  6
CONTINUOUS
 10
-0.861130
 20
3.758941
  0
VERTEX
  8
PLAN_1
 62
     2
  6
CONTINUOUS
 10
-1.017976
 20
3.758941
  0
SEQEND
  8
0
  0
POLYLINE
  8
PLAN_1
 62
     2
  6
CONTINUOUS
 66
     1
 40
0.004165
 41
0.004165
  0
VERTEX
  8
PLAN_1
 62
     2
  6
CONTINUOUS
 10
-1.064878
 20
3.758941
  0
VERTEX
  8
PLAN_1
 62
     2
  6
CONTINUOUS
 10
-1.479146
 20
3.758941
  0
SEQEND
  8
0
  0
SOLID
  8
PLAN_1
 62
     2
 10
-1.543760
 20
-1.041374
 11
-1.490091
 21
-1.070555
 12
-1.543760
 22
-1.041374
 13
-1.482795
 23
-1.039811
  0
POLYLINE
  8
PLAN_1
 62
     2
  6
CONTINUOUS
 66
     1
 40
0.003000
 41
0.003000
  0
VERTEX
  8
PLAN_1
 62
     2
  6
CONTINUOUS
 10
-1.543760
 20
-1.041374
  0
VERTEX
  8
PLAN_1
 62
     2
  6
CONTINUOUS
 10
-1.490091
 20
-1.070555
  0
VERTEX
  8
PLAN_1
 62
     2
  6
CONTINUOUS
 10
-1.482795
 20
-1.039811
  0
VERTEX
  8
PLAN_1
 62
     2
  6
CONTINUOUS
 10
-1.543760
 20
-1.041374
  0
SEQEND
  8
0
  0
POLYLINE
  8
PLAN_1
 62
     2
  6
CONTINUOUS
 66
     1
 40
0.004165
 41
0.004165
  0
VERTEX
  8
PLAN_1
 62
     2
  6
CONTINUOUS
 10
-1.507807
 20
-1.050232
  0
VERTEX
  8
PLAN_1
 62
     2
  6
CONTINUOUS
 10
-0.868425
 20
-1.212815
  0
VERTEX
  8
PLAN_1
 62
     2
  6
CONTINUOUS
 10
0.045055
 20
-1.212815
  0
SEQEND
  8
0
  0
POLYLINE
  8
PLAN_1
 62
     2
  6
CONTINUOUS
 66
     1
 40
0.003000
 41
0.003000
  0
VERTEX
  8
PLAN_1
 62
     2
  6
CONTINUOUS
 10
-0.799118
 20
-1.188846
  0
VERTEX
  8
PLAN_1
 62
     2
  6
CONTINUOUS
 10
-0.809020
 20
-1.188846
  0
VERTEX
  8
PLAN_1
 62
     2
  6
CONTINUOUS
 10
-0.809020
 20
-1.137256
  0
VERTEX
  8
PLAN_1
 62
     2
  6
CONTINUOUS
 10
-0.825693
 20
-1.137256
  0
VERTEX
  8
PLAN_1
 62
     2
  6
CONTINUOUS
 10
-0.825693
 20
-1.129961
  0
VERTEX
  8
PLAN_1
 62
     2
  6
CONTINUOUS
 10
-0.821524
 20
-1.129441
  0
VERTEX
  8
PLAN_1
 62
     2
  6
CONTINUOUS
 10
-0.818398
 20
-1.128917
  0
VERTEX
  8
PLAN_1
 62
     2
  6
CONTINUOUS
 10
-0.815272
 20
-1.128398
  0
VERTEX
  8
PLAN_1
 62
     2
  6
CONTINUOUS
 10
-0.812665
 20
-1.127354
  0
VERTEX
  8
PLAN_1
 62
     2
  6
CONTINUOUS
 10
-0.810583
 20
-1.125272
  0
VERTEX
  8
PLAN_1
 62
     2
  6
CONTINUOUS
 10
-0.809020
 20
-1.123185
  0
VERTEX
  8
PLAN_1
 62
     2
  6
CONTINUOUS
 10
-0.807457
 20
-1.120059
  0
VERTEX
  8
PLAN_1
 62
     2
  6
CONTINUOUS
 10
-0.806413
 20
-1.115890
  0
VERTEX
  8
PLAN_1
 62
     2
  6
CONTINUOUS
 10
-0.799118
 20
-1.115890
  0
VERTEX
  8
PLAN_1
 62
     2
  6
CONTINUOUS
 10
-0.799118
 20
-1.188846
  0
SEQEND
  8
0
  0
POLYLINE
  8
PLAN_1
 62
     2
  6
CONTINUOUS
 66
     1
 40
0.003000
 41
0.003000
  0
VERTEX
  8
PLAN_1
 62
     2
  6
CONTINUOUS
 10
-0.731378
 20
-1.142469
  0
VERTEX
  8
PLAN_1
 62
     2
  6
CONTINUOUS
 10
-0.731378
 20
-1.177382
  0
VERTEX
  8
PLAN_1
 62
     2
  6
CONTINUOUS
 10
-0.731378
 20
-1.178945
  0
VERTEX
  8
PLAN_1
 62
     2
  6
CONTINUOUS
 10
-0.730854
 20
-1.179984
  0
VERTEX
  8
PLAN_1
 62
     2
  6
CONTINUOUS
 10
-0.730335
 20
-1.181028
  0
VERTEX
  8
PLAN_1
 62
     2
  6
CONTINUOUS
 10
-0.729291
 20
-1.181551
  0
VERTEX
  8
PLAN_1
 62
     2
  6
CONTINUOUS
 10
-0.728772
 20
-1.181551
  0
VERTEX
  8
PLAN_1
 62
     2
  6
CONTINUOUS
 10
-0.727728
 20
-1.182071
  0
VERTEX
  8
PLAN_1
 62
     2
  6
CONTINUOUS
 10
-0.726685
 20
-1.182071
  0
VERTEX
  8
PLAN_1
 62
     2
  6
CONTINUOUS
 10
-0.726165
 20
-1.182071
  0
VERTEX
  8
PLAN_1
 62
     2
  6
CONTINUOUS
 10
-0.723039
 20
-1.182071
  0
VERTEX
  8
PLAN_1
 62
     2
  6
CONTINUOUS
 10
-0.723039
 20
-1.188846
  0
VERTEX
  8
PLAN_1
 62
     2
  6
CONTINUOUS
 10
-0.724083
 20
-1.189366
  0
VERTEX
  8
PLAN_1
 62
     2
  6
CONTINUOUS
 10
-0.725122
 20
-1.189366
  0
VERTEX
  8
PLAN_1
 62
     2
  6
CONTINUOUS
 10
-0.726165
 20
-1.189366
  0
VERTEX
  8
PLAN_1
 62
     2
  6
CONTINUOUS
 10
-0.727209
 20
-1.189366
  0
VERTEX
  8
PLAN_1
 62
     2
  6
CONTINUOUS
 10
-0.728248
 20
-1.189886
  0
VERTEX
  8
PLAN_1
 62
     2
  6
CONTINUOUS
 10
-0.728772
 20
-1.189886
  0
VERTEX
  8
PLAN_1
 62
     2
  6
CONTINUOUS
 10
-0.729291
 20
-1.189886
  0
VERTEX
  8
PLAN_1
 62
     2
  6
CONTINUOUS
 10
-0.729815
 20
-1.189886
  0
VERTEX
  8
PLAN_1
 62
     2
  6
CONTINUOUS
 10
-0.732941
 20
-1.189366
  0
VERTEX
  8
PLAN_1
 62
     2
  6
CONTINUOUS
 10
-0.735024
 20
-1.188846
  0
VERTEX
  8
PLAN_1
 62
     2
  6
CONTINUOUS
 10
-0.737110
 20
-1.187803
  0
VERTEX
  8
PLAN_1
 62
     2
  6
CONTINUOUS
 10
-0.738673
 20
-1.186240
  0
VERTEX
  8
PLAN_1
 62
     2
  6
CONTINUOUS
 10
-0.739713
 20
-1.184677
  0
VERTEX
  8
PLAN_1
 62
     2
  6
CONTINUOUS
 10
-0.740236
 20
-1.182591
  0
VERTEX
  8
PLAN_1
 62
     2
  6
CONTINUOUS
 10
-0.740756
 20
-1.180508
  0
VERTEX
  8
PLAN_1
 62
     2
  6
CONTINUOUS
 10
-0.740756
 20
-1.177902
  0
VERTEX
  8
PLAN_1
 62
     2
  6
CONTINUOUS
 10
-0.740756
 20
-1.142469
  0
VERTEX
  8
PLAN_1
 62
     2
  6
CONTINUOUS
 10
-0.748051
 20
-1.142469
  0
VERTEX
  8
PLAN_1
 62
     2
  6
CONTINUOUS
 10
-0.748051
 20
-1.134650
  0
VERTEX
  8
PLAN_1
 62
     2
  6
CONTINUOUS
 10
-0.740756
 20
-1.134650
  0
VERTEX
  8
PLAN_1
 62
     2
  6
CONTINUOUS
 10
-0.740756
 20
-1.119539
  0
VERTEX
  8
PLAN_1
 62
     2
  6
CONTINUOUS
 10
-0.731378
 20
-1.119539
  0
VERTEX
  8
PLAN_1
 62
     2
  6
CONTINUOUS
 10
-0.731378
 20
-1.134650
  0
VERTEX
  8
PLAN_1
 62
     2
  6
CONTINUOUS
 10
-0.723039
 20
-1.134650
  0
VERTEX
  8
PLAN_1
 62
     2
  6
CONTINUOUS
 10
-0.723039
 20
-1.142469
  0
VERTEX
  8
PLAN_1
 62
     2
  6
CONTINUOUS
 10
-0.731378
 20
-1.142469
  0
SEQEND
  8
0
  0
POLYLINE
  8
PLAN_1
 62
     2
  6
CONTINUOUS
 66
     1
 40
0.003000
 41
0.003000
  0
VERTEX
  8
PLAN_1
 62
     2
  6
CONTINUOUS
 10
-0.703760
 20
-1.188846
  0
VERTEX
  8
PLAN_1
 62
     2
  6
CONTINUOUS
 10
-0.712618
 20
-1.188846
  0
VERTEX
  8
PLAN_1
 62
     2
  6
CONTINUOUS
 10
-0.712618
 20
-1.134650
  0
VERTEX
  8
PLAN_1
 62
     2
  6
CONTINUOUS
 10
-0.703760
 20
-1.134650
  0
VERTEX
  8
PLAN_1
 62
     2
  6
CONTINUOUS
 10
-0.703760
 20
-1.143508
  0
VERTEX
  8
PLAN_1
 62
     2
  6
CONTINUOUS
 10
-0.702197
 20
-1.141425
  0
VERTEX
  8
PLAN_1
 62
     2
  6
CONTINUOUS
 10
-0.700630
 20
-1.139343
  0
VERTEX
  8
PLAN_1
 62
     2
  6
CONTINUOUS
 10
-0.699067
 20
-1.137776
  0
VERTEX
  8
PLAN_1
 62
     2
  6
CONTINUOUS
 10
-0.697504
 20
-1.136213
  0
VERTEX
  8
PLAN_1
 62
     2
  6
CONTINUOUS
 10
-0.695421
 20
-1.134650
  0
VERTEX
  8
PLAN_1
 62
     2
  6
CONTINUOUS
 10
-0.693335
 20
-1.134130
  0
VERTEX
  8
PLAN_1
 62
     2
  6
CONTINUOUS
 10
-0.691252
 20
-1.133087
  0
VERTEX
  8
PLAN_1
 62
     2
  6
CONTINUOUS
 10
-0.688646
 20
-1.133087
  0
VERTEX
  8
PLAN_1
 62
     2
  6
CONTINUOUS
 10
-0.688126
 20
-1.133087
  0
VERTEX
  8
PLAN_1
 62
     2
  6
CONTINUOUS
 10
-0.687606
 20
-1.133087
  0
VERTEX
  8
PLAN_1
 62
     2
  6
CONTINUOUS
 10
-0.687083
 20
-1.133087
  0
VERTEX
  8
PLAN_1
 62
     2
  6
CONTINUOUS
 10
-0.686563
 20
-1.133087
  0
VERTEX
  8
PLAN_1
 62
     2
  6
CONTINUOUS
 10
-0.686563
 20
-1.133610
  0
VERTEX
  8
PLAN_1
 62
     2
  6
CONTINUOUS
 10
-0.686039
 20
-1.133610
  0
VERTEX
  8
PLAN_1
 62
     2
  6
CONTINUOUS
 10
-0.686039
 20
-1.142988
  0
VERTEX
  8
PLAN_1
 62
     2
  6
CONTINUOUS
 10
-0.689689
 20
-1.142988
  0
VERTEX
  8
PLAN_1
 62
     2
  6
CONTINUOUS
 10
-0.692815
 20
-1.142988
  0
VERTEX
  8
PLAN_1
 62
     2
  6
CONTINUOUS
 10
-0.695421
 20
-1.144031
  0
VERTEX
  8
PLAN_1
 62
     2
  6
CONTINUOUS
 10
-0.697504
 20
-1.145594
  0
VERTEX
  8
PLAN_1
 62
     2
  6
CONTINUOUS
 10
-0.699591
 20
-1.147157
  0
VERTEX
  8
PLAN_1
 62
     2
  6
CONTINUOUS
 10
-0.701154
 20
-1.149240
  0
VERTEX
  8
PLAN_1
 62
     2
  6
CONTINUOUS
 10
-0.702717
 20
-1.151846
  0
VERTEX
  8
PLAN_1
 62
     2
  6
CONTINUOUS
 10
-0.703236
 20
-1.154453
  0
VERTEX
  8
PLAN_1
 62
     2
  6
CONTINUOUS
 10
-0.703760
 20
-1.157579
  0
VERTEX
  8
PLAN_1
 62
     2
  6
CONTINUOUS
 10
-0.703760
 20
-1.188846
  0
SEQEND
  8
0
  0
POLYLINE
  8
PLAN_1
 62
     2
  6
CONTINUOUS
 66
     1
 40
0.003000
 41
0.003000
  0
VERTEX
  8
PLAN_1
 62
     2
  6
CONTINUOUS
 10
-0.656858
 20
-1.133087
  0
VERTEX
  8
PLAN_1
 62
     2
  6
CONTINUOUS
 10
-0.653732
 20
-1.133087
  0
VERTEX
  8
PLAN_1
 62
     2
  6
CONTINUOUS
 10
-0.651126
 20
-1.133610
  0
VERTEX
  8
PLAN_1
 62
     2
  6
CONTINUOUS
 10
-0.648524
 20
-1.134650
  0
VERTEX
  8
PLAN_1
 62
     2
  6
CONTINUOUS
 10
-0.645917
 20
-1.135693
  0
VERTEX
  8
PLAN_1
 62
     2
  6
CONTINUOUS
 10
-0.643311
 20
-1.136736
  0
VERTEX
  8
PLAN_1
 62
     2
  6
CONTINUOUS
 10
-0.641228
 20
-1.138299
  0
VERTEX
  8
PLAN_1
 62
     2
  6
CONTINUOUS
 10
-0.639665
 20
-1.140382
  0
VERTEX
  8
PLAN_1
 62
     2
  6
CONTINUOUS
 10
-0.638102
 20
-1.142469
  0
VERTEX
  8
PLAN_1
 62
     2
  6
CONTINUOUS
 10
-0.635496
 20
-1.146638
  0
VERTEX
  8
PLAN_1
 62
     2
  6
CONTINUOUS
 10
-0.633409
 20
-1.151327
  0
VERTEX
  8
PLAN_1
 62
     2
  6
CONTINUOUS
 10
-0.632370
 20
-1.156535
  0
VERTEX
  8
PLAN_1
 62
     2
  6
CONTINUOUS
 10
-0.631846
 20
-1.161748
  0
VERTEX
  8
PLAN_1
 62
     2
  6
CONTINUOUS
 10
-0.632370
 20
-1.166961
  0
VERTEX
  8
PLAN_1
 62
     2
  6
CONTINUOUS
 10
-0.633409
 20
-1.172169
  0
VERTEX
  8
PLAN_1
 62
     2
  6
CONTINUOUS
 10
-0.635496
 20
-1.176858
  0
VERTEX
  8
PLAN_1
 62
     2
  6
CONTINUOUS
 10
-0.638102
 20
-1.181551
  0
VERTEX
  8
PLAN_1
 62
     2
  6
CONTINUOUS
 10
-0.639665
 20
-1.183634
  0
VERTEX
  8
PLAN_1
 62
     2
  6
CONTINUOUS
 10
-0.641228
 20
-1.185197
  0
VERTEX
  8
PLAN_1
 62
     2
  6
CONTINUOUS
 10
-0.643311
 20
-1.186760
  0
VERTEX
  8
PLAN_1
 62
     2
  6
CONTINUOUS
 10
-0.645917
 20
-1.187803
  0
VERTEX
  8
PLAN_1
 62
     2
  6
CONTINUOUS
 10
-0.648524
 20
-1.188846
  0
VERTEX
  8
PLAN_1
 62
     2
  6
CONTINUOUS
 10
-0.651126
 20
-1.189886
  0
VERTEX
  8
PLAN_1
 62
     2
  6
CONTINUOUS
 10
-0.653732
 20
-1.190409
  0
VERTEX
  8
PLAN_1
 62
     2
  6
CONTINUOUS
 10
-0.656858
 20
-1.190409
  0
VERTEX
  8
PLAN_1
 62
     2
  6
CONTINUOUS
 10
-0.660508
 20
-1.190409
  0
VERTEX
  8
PLAN_1
 62
     2
  6
CONTINUOUS
 10
-0.663114
 20
-1.189886
  0
VERTEX
  8
PLAN_1
 62
     2
  6
CONTINUOUS
 10
-0.665717
 20
-1.188846
  0
VERTEX
  8
PLAN_1
 62
     2
  6
CONTINUOUS
 10
-0.668323
 20
-1.187803
  0
VERTEX
  8
PLAN_1
 62
     2
  6
CONTINUOUS
 10
-0.670409
 20
-1.186760
  0
VERTEX
  8
PLAN_1
 62
     2
  6
CONTINUOUS
 10
-0.672492
 20
-1.185197
  0
VERTEX
  8
PLAN_1
 62
     2
  6
CONTINUOUS
 10
-0.674579
 20
-1.183634
  0
VERTEX
  8
PLAN_1
 62
     2
  6
CONTINUOUS
 10
-0.676142
 20
-1.181551
  0
VERTEX
  8
PLAN_1
 62
     2
  6
CONTINUOUS
 10
-0.678744
 20
-1.176858
  0
VERTEX
  8
PLAN_1
 62
     2
  6
CONTINUOUS
 10
-0.680831
 20
-1.172169
  0
VERTEX
  8
PLAN_1
 62
     2
  6
CONTINUOUS
 10
-0.681874
 20
-1.166961
  0
VERTEX
  8
PLAN_1
 62
     2
  6
CONTINUOUS
 10
-0.682394
 20
-1.161748
  0
VERTEX
  8
PLAN_1
 62
     2
  6
CONTINUOUS
 10
-0.681874
 20
-1.156535
  0
VERTEX
  8
PLAN_1
 62
     2
  6
CONTINUOUS
 10
-0.680831
 20
-1.151327
  0
VERTEX
  8
PLAN_1
 62
     2
  6
CONTINUOUS
 10
-0.678744
 20
-1.146638
  0
VERTEX
  8
PLAN_1
 62
     2
  6
CONTINUOUS
 10
-0.676142
 20
-1.142469
  0
VERTEX
  8
PLAN_1
 62
     2
  6
CONTINUOUS
 10
-0.674579
 20
-1.140382
  0
VERTEX
  8
PLAN_1
 62
     2
  6
CONTINUOUS
 10
-0.672492
 20
-1.138299
  0
VERTEX
  8
PLAN_1
 62
     2
  6
CONTINUOUS
 10
-0.670409
 20
-1.136736
  0
VERTEX
  8
PLAN_1
 62
     2
  6
CONTINUOUS
 10
-0.668323
 20
-1.135693
  0
VERTEX
  8
PLAN_1
 62
     2
  6
CONTINUOUS
 10
-0.665717
 20
-1.134650
  0
VERTEX
  8
PLAN_1
 62
     2
  6
CONTINUOUS
 10
-0.663114
 20
-1.133610
  0
VERTEX
  8
PLAN_1
 62
     2
  6
CONTINUOUS
 10
-0.660508
 20
-1.133087
  0
VERTEX
  8
PLAN_1
 62
     2
  6
CONTINUOUS
 10
-0.656858
 20
-1.133087
  0
SEQEND
  8
0
  0
POLYLINE
  8
PLAN_1
 62
     2
  6
CONTINUOUS
 66
     1
 40
0.003000
 41
0.003000
  0
VERTEX
  8
PLAN_1
 62
     2
  6
CONTINUOUS
 10
-0.656858
 20
-1.182591
  0
VERTEX
  8
PLAN_1
 62
     2
  6
CONTINUOUS
 10
-0.654776
 20
-1.182591
  0
VERTEX
  8
PLAN_1
 62
     2
  6
CONTINUOUS
 10
-0.652693
 20
-1.182071
  0
VERTEX
  8
PLAN_1
 62
     2
  6
CONTINUOUS
 10
-0.650606
 20
-1.181551
  0
VERTEX
  8
PLAN_1
 62
     2
  6
CONTINUOUS
 10
-0.649043
 20
-1.180508
  0
VERTEX
  8
PLAN_1
 62
     2
  6
CONTINUOUS
 10
-0.646437
 20
-1.177902
  0
VERTEX
  8
PLAN_1
 62
     2
  6
CONTINUOUS
 10
-0.644354
 20
-1.174776
  0
VERTEX
  8
PLAN_1
 62
     2
  6
CONTINUOUS
 10
-0.642791
 20
-1.171650
  0
VERTEX
  8
PLAN_1
 62
     2
  6
CONTINUOUS
 10
-0.641748
 20
-1.168000
  0
VERTEX
  8
PLAN_1
 62
     2
  6
CONTINUOUS
 10
-0.641228
 20
-1.164874
  0
VERTEX
  8
PLAN_1
 62
     2
  6
CONTINUOUS
 10
-0.641228
 20
-1.161748
  0
VERTEX
  8
PLAN_1
 62
     2
  6
CONTINUOUS
 10
-0.641228
 20
-1.158622
  0
VERTEX
  8
PLAN_1
 62
     2
  6
CONTINUOUS
 10
-0.641748
 20
-1.155496
  0
VERTEX
  8
PLAN_1
 62
     2
  6
CONTINUOUS
 10
-0.642791
 20
-1.151846
  0
VERTEX
  8
PLAN_1
 62
     2
  6
CONTINUOUS
 10
-0.644354
 20
-1.148720
  0
VERTEX
  8
PLAN_1
 62
     2
  6
CONTINUOUS
 10
-0.646437
 20
-1.145594
  0
VERTEX
  8
PLAN_1
 62
     2
  6
CONTINUOUS
 10
-0.649043
 20
-1.143508
  0
VERTEX
  8
PLAN_1
 62
     2
  6
CONTINUOUS
 10
-0.650606
 20
-1.142469
  0
VERTEX
  8
PLAN_1
 62
     2
  6
CONTINUOUS
 10
-0.652693
 20
-1.141425
  0
VERTEX
  8
PLAN_1
 62
     2
  6
CONTINUOUS
 10
-0.654776
 20
-1.141425
  0
VERTEX
  8
PLAN_1
 62
     2
  6
CONTINUOUS
 10
-0.656858
 20
-1.140906
  0
VERTEX
  8
PLAN_1
 62
     2
  6
CONTINUOUS
 10
-0.659465
 20
-1.141425
  0
VERTEX
  8
PLAN_1
 62
     2
  6
CONTINUOUS
 10
-0.661551
 20
-1.141425
  0
VERTEX
  8
PLAN_1
 62
     2
  6
CONTINUOUS
 10
-0.663634
 20
-1.142469
  0
VERTEX
  8
PLAN_1
 62
     2
  6
CONTINUOUS
 10
-0.665197
 20
-1.143508
  0
VERTEX
  8
PLAN_1
 62
     2
  6
CONTINUOUS
 10
-0.667803
 20
-1.145594
  0
VERTEX
  8
PLAN_1
 62
     2
  6
CONTINUOUS
 10
-0.669886
 20
-1.148720
  0
VERTEX
  8
PLAN_1
 62
     2
  6
CONTINUOUS
 10
-0.671449
 20
-1.151846
  0
VERTEX
  8
PLAN_1
 62
     2
  6
CONTINUOUS
 10
-0.672492
 20
-1.155496
  0
VERTEX
  8
PLAN_1
 62
     2
  6
CONTINUOUS
 10
-0.673016
 20
-1.158622
  0
VERTEX
  8
PLAN_1
 62
     2
  6
CONTINUOUS
 10
-0.673016
 20
-1.161748
  0
VERTEX
  8
PLAN_1
 62
     2
  6
CONTINUOUS
 10
-0.673016
 20
-1.164874
  0
VERTEX
  8
PLAN_1
 62
     2
  6
CONTINUOUS
 10
-0.672492
 20
-1.168000
  0
VERTEX
  8
PLAN_1
 62
     2
  6
CONTINUOUS
 10
-0.671449
 20
-1.171650
  0
VERTEX
  8
PLAN_1
 62
     2
  6
CONTINUOUS
 10
-0.669886
 20
-1.174776
  0
VERTEX
  8
PLAN_1
 62
     2
  6
CONTINUOUS
 10
-0.667803
 20
-1.177902
  0
VERTEX
  8
PLAN_1
 62
     2
  6
CONTINUOUS
 10
-0.665197
 20
-1.180508
  0
VERTEX
  8
PLAN_1
 62
     2
  6
CONTINUOUS
 10
-0.663634
 20
-1.181551
  0
VERTEX
  8
PLAN_1
 62
     2
  6
CONTINUOUS
 10
-0.661551
 20
-1.182071
  0
VERTEX
  8
PLAN_1
 62
     2
  6
CONTINUOUS
 10
-0.659465
 20
-1.182591
  0
VERTEX
  8
PLAN_1
 62
     2
  6
CONTINUOUS
 10
-0.656858
 20
-1.182591
  0
SEQEND
  8
0
  0
POLYLINE
  8
PLAN_1
 62
     2
  6
CONTINUOUS
 66
     1
 40
0.003000
 41
0.003000
  0
VERTEX
  8
PLAN_1
 62
     2
  6
CONTINUOUS
 10
-0.585992
 20
-1.188846
  0
VERTEX
  8
PLAN_1
 62
     2
  6
CONTINUOUS
 10
-0.585992
 20
-1.181028
  0
VERTEX
  8
PLAN_1
 62
     2
  6
CONTINUOUS
 10
-0.587555
 20
-1.183114
  0
VERTEX
  8
PLAN_1
 62
     2
  6
CONTINUOUS
 10
-0.589118
 20
-1.185197
  0
VERTEX
  8
PLAN_1
 62
     2
  6
CONTINUOUS
 10
-0.591201
 20
-1.186760
  0
VERTEX
  8
PLAN_1
 62
     2
  6
CONTINUOUS
 10
-0.592764
 20
-1.188323
  0
VERTEX
  8
PLAN_1
 62
     2
  6
CONTINUOUS
 10
-0.594850
 20
-1.189366
  0
VERTEX
  8
PLAN_1
 62
     2
  6
CONTINUOUS
 10
-0.597457
 20
-1.189886
  0
VERTEX
  8
PLAN_1
 62
     2
  6
CONTINUOUS
 10
-0.600059
 20
-1.190409
  0
VERTEX
  8
PLAN_1
 62
     2
  6
CONTINUOUS
 10
-0.603189
 20
-1.190409
  0
VERTEX
  8
PLAN_1
 62
     2
  6
CONTINUOUS
 10
-0.606315
 20
-1.190409
  0
VERTEX
  8
PLAN_1
 62
     2
  6
CONTINUOUS
 10
-0.609441
 20
-1.189886
  0
VERTEX
  8
PLAN_1
 62
     2
  6
CONTINUOUS
 10
-0.612567
 20
-1.188846
  0
VERTEX
  8
PLAN_1
 62
     2
  6
CONTINUOUS
 10
-0.615173
 20
-1.187280
  0
VERTEX
  8
PLAN_1
 62
     2
  6
CONTINUOUS
 10
-0.617780
 20
-1.184677
  0
VERTEX
  8
PLAN_1
 62
     2
  6
CONTINUOUS
 10
-0.619343
 20
-1.182071
  0
VERTEX
  8
PLAN_1
 62
     2
  6
CONTINUOUS
 10
-0.620382
 20
-1.178421
  0
VERTEX
  8
PLAN_1
 62
     2
  6
CONTINUOUS
 10
-0.620906
 20
-1.173732
  0
VERTEX
  8
PLAN_1
 62
     2
  6
CONTINUOUS
 10
-0.620906
 20
-1.134650
  0
VERTEX
  8
PLAN_1
 62
     2
  6
CONTINUOUS
 10
-0.612047
 20
-1.134650
  0
VERTEX
  8
PLAN_1
 62
     2
  6
CONTINUOUS
 10
-0.612047
 20
-1.170606
  0
VERTEX
  8
PLAN_1
 62
     2
  6
CONTINUOUS
 10
-0.611524
 20
-1.173732
  0
VERTEX
  8
PLAN_1
 62
     2
  6
CONTINUOUS
 10
-0.611004
 20
-1.176339
  0
VERTEX
  8
PLAN_1
 62
     2
  6
CONTINUOUS
 10
-0.609961
 20
-1.178421
  0
VERTEX
  8
PLAN_1
 62
     2
  6
CONTINUOUS
 10
-0.608917
 20
-1.179984
  0
VERTEX
  8
PLAN_1
 62
     2
  6
CONTINUOUS
 10
-0.607354
 20
-1.181551
  0
VERTEX
  8
PLAN_1
 62
     2
  6
CONTINUOUS
 10
-0.605791
 20
-1.182071
  0
VERTEX
  8
PLAN_1
 62
     2
  6
CONTINUOUS
 10
-0.603709
 20
-1.182591
  0
VERTEX
  8
PLAN_1
 62
     2
  6
CONTINUOUS
 10
-0.601622
 20
-1.182591
  0
VERTEX
  8
PLAN_1
 62
     2
  6
CONTINUOUS
 10
-0.597457
 20
-1.182071
  0
VERTEX
  8
PLAN_1
 62
     2
  6
CONTINUOUS
 10
-0.594327
 20
-1.181028
  0
VERTEX
  8
PLAN_1
 62
     2
  6
CONTINUOUS
 10
-0.591724
 20
-1.178945
  0
VERTEX
  8
PLAN_1
 62
     2
  6
CONTINUOUS
 10
-0.589638
 20
-1.176858
  0
VERTEX
  8
PLAN_1
 62
     2
  6
CONTINUOUS
 10
-0.588075
 20
-1.173732
  0
VERTEX
  8
PLAN_1
 62
     2
  6
CONTINUOUS
 10
-0.587031
 20
-1.170606
  0
VERTEX
  8
PLAN_1
 62
     2
  6
CONTINUOUS
 10
-0.586512
 20
-1.167480
  0
VERTEX
  8
PLAN_1
 62
     2
  6
CONTINUOUS
 10
-0.586512
 20
-1.164874
  0
VERTEX
  8
PLAN_1
 62
     2
  6
CONTINUOUS
 10
-0.586512
 20
-1.134650
  0
VERTEX
  8
PLAN_1
 62
     2
  6
CONTINUOUS
 10
-0.577134
 20
-1.134650
  0
VERTEX
  8
PLAN_1
 62
     2
  6
CONTINUOUS
 10
-0.577134
 20
-1.188846
  0
VERTEX
  8
PLAN_1
 62
     2
  6
CONTINUOUS
 10
-0.585992
 20
-1.188846
  0
SEQEND
  8
0
  0
POLYLINE
  8
PLAN_1
 62
     2
  6
CONTINUOUS
 66
     1
 40
0.003000
 41
0.003000
  0
VERTEX
  8
PLAN_1
 62
     2
  6
CONTINUOUS
 10
-0.523461
 20
-1.142469
  0
VERTEX
  8
PLAN_1
 62
     2
  6
CONTINUOUS
 10
-0.523461
 20
-1.177382
  0
VERTEX
  8
PLAN_1
 62
     2
  6
CONTINUOUS
 10
-0.522937
 20
-1.178945
  0
VERTEX
  8
PLAN_1
 62
     2
  6
CONTINUOUS
 10
-0.522937
 20
-1.179984
  0
VERTEX
  8
PLAN_1
 62
     2
  6
CONTINUOUS
 10
-0.521898
 20
-1.181028
  0
VERTEX
  8
PLAN_1
 62
     2
  6
CONTINUOUS
 10
-0.521374
 20
-1.181551
  0
VERTEX
  8
PLAN_1
 62
     2
  6
CONTINUOUS
 10
-0.520335
 20
-1.181551
  0
VERTEX
  8
PLAN_1
 62
     2
  6
CONTINUOUS
 10
-0.519291
 20
-1.182071
  0
VERTEX
  8
PLAN_1
 62
     2
  6
CONTINUOUS
 10
-0.518772
 20
-1.182071
  0
VERTEX
  8
PLAN_1
 62
     2
  6
CONTINUOUS
 10
-0.517728
 20
-1.182071
  0
VERTEX
  8
PLAN_1
 62
     2
  6
CONTINUOUS
 10
-0.514602
 20
-1.182071
  0
VERTEX
  8
PLAN_1
 62
     2
  6
CONTINUOUS
 10
-0.514602
 20
-1.188846
  0
VERTEX
  8
PLAN_1
 62
     2
  6
CONTINUOUS
 10
-0.515642
 20
-1.189366
  0
VERTEX
  8
PLAN_1
 62
     2
  6
CONTINUOUS
 10
-0.516685
 20
-1.189366
  0
VERTEX
  8
PLAN_1
 62
     2
  6
CONTINUOUS
 10
-0.517728
 20
-1.189366
  0
VERTEX
  8
PLAN_1
 62
     2
  6
CONTINUOUS
 10
-0.518772
 20
-1.189366
  0
VERTEX
  8
PLAN_1
 62
     2
  6
CONTINUOUS
 10
-0.519811
 20
-1.189886
  0
VERTEX
  8
PLAN_1
 62
     2
  6
CONTINUOUS
 10
-0.520335
 20
-1.189886
  0
VERTEX
  8
PLAN_1
 62
     2
  6
CONTINUOUS
 10
-0.520854
 20
-1.189886
  0
VERTEX
  8
PLAN_1
 62
     2
  6
CONTINUOUS
 10
-0.521374
 20
-1.189886
  0
VERTEX
  8
PLAN_1
 62
     2
  6
CONTINUOUS
 10
-0.524504
 20
-1.189366
  0
VERTEX
  8
PLAN_1
 62
     2
  6
CONTINUOUS
 10
-0.527106
 20
-1.188846
  0
VERTEX
  8
PLAN_1
 62
     2
  6
CONTINUOUS
 10
-0.528669
 20
-1.187803
  0
VERTEX
  8
PLAN_1
 62
     2
  6
CONTINUOUS
 10
-0.530232
 20
-1.186240
  0
VERTEX
  8
PLAN_1
 62
     2
  6
CONTINUOUS
 10
-0.531276
 20
-1.184677
  0
VERTEX
  8
PLAN_1
 62
     2
  6
CONTINUOUS
 10
-0.531799
 20
-1.182591
  0
VERTEX
  8
PLAN_1
 62
     2
  6
CONTINUOUS
 10
-0.532319
 20
-1.180508
  0
VERTEX
  8
PLAN_1
 62
     2
  6
CONTINUOUS
 10
-0.532319
 20
-1.177902
  0
VERTEX
  8
PLAN_1
 62
     2
  6
CONTINUOUS
 10
-0.532319
 20
-1.142469
  0
VERTEX
  8
PLAN_1
 62
     2
  6
CONTINUOUS
 10
-0.539614
 20
-1.142469
  0
VERTEX
  8
PLAN_1
 62
     2
  6
CONTINUOUS
 10
-0.539614
 20
-1.134650
  0
VERTEX
  8
PLAN_1
 62
     2
  6
CONTINUOUS
 10
-0.532319
 20
-1.134650
  0
VERTEX
  8
PLAN_1
 62
     2
  6
CONTINUOUS
 10
-0.532319
 20
-1.119539
  0
VERTEX
  8
PLAN_1
 62
     2
  6
CONTINUOUS
 10
-0.523461
 20
-1.119539
  0
VERTEX
  8
PLAN_1
 62
     2
  6
CONTINUOUS
 10
-0.523461
 20
-1.134650
  0
VERTEX
  8
PLAN_1
 62
     2
  6
CONTINUOUS
 10
-0.514602
 20
-1.134650
  0
VERTEX
  8
PLAN_1
 62
     2
  6
CONTINUOUS
 10
-0.514602
 20
-1.142469
  0
VERTEX
  8
PLAN_1
 62
     2
  6
CONTINUOUS
 10
-0.523461
 20
-1.142469
  0
SEQEND
  8
0
  0
POLYLINE
  8
PLAN_1
 62
     2
  6
CONTINUOUS
 66
     1
 40
0.003000
 41
0.003000
  0
VERTEX
  8
PLAN_1
 62
     2
  6
CONTINUOUS
 10
-0.505744
 20
-1.151327
  0
VERTEX
  8
PLAN_1
 62
     2
  6
CONTINUOUS
 10
-0.505220
 20
-1.146638
  0
VERTEX
  8
PLAN_1
 62
     2
  6
CONTINUOUS
 10
-0.504181
 20
-1.142988
  0
VERTEX
  8
PLAN_1
 62
     2
  6
CONTINUOUS
 10
-0.502094
 20
-1.139862
  0
VERTEX
  8
PLAN_1
 62
     2
  6
CONTINUOUS
 10
-0.499488
 20
-1.137256
  0
VERTEX
  8
PLAN_1
 62
     2
  6
CONTINUOUS
 10
-0.496362
 20
-1.135173
  0
VERTEX
  8
PLAN_1
 62
     2
  6
CONTINUOUS
 10
-0.492717
 20
-1.134130
  0
VERTEX
  8
PLAN_1
 62
     2
  6
CONTINUOUS
 10
-0.488024
 20
-1.133610
  0
VERTEX
  8
PLAN_1
 62
     2
  6
CONTINUOUS
 10
-0.483335
 20
-1.133087
  0
VERTEX
  8
PLAN_1
 62
     2
  6
CONTINUOUS
 10
-0.481252
 20
-1.133087
  0
VERTEX
  8
PLAN_1
 62
     2
  6
CONTINUOUS
 10
-0.478646
 20
-1.133610
  0
VERTEX
  8
PLAN_1
 62
     2
  6
CONTINUOUS
 10
-0.475000
 20
-1.134130
  0
VERTEX
  8
PLAN_1
 62
     2
  6
CONTINUOUS
 10
-0.471870
 20
-1.135693
  0
VERTEX
  8
PLAN_1
 62
     2
  6
CONTINUOUS
 10
-0.468744
 20
-1.137256
  0
VERTEX
  8
PLAN_1
 62
     2
  6
CONTINUOUS
 10
-0.465618
 20
-1.139862
  0
VERTEX
  8
PLAN_1
 62
     2
  6
CONTINUOUS
 10
-0.464575
 20
-1.141945
  0
VERTEX
  8
PLAN_1
 62
     2
  6
CONTINUOUS
 10
-0.464055
 20
-1.143508
  0
VERTEX
  8
PLAN_1
 62
     2
  6
CONTINUOUS
 10
-0.463535
 20
-1.145594
  0
VERTEX
  8
PLAN_1
 62
     2
  6
CONTINUOUS
 10
-0.463535
 20
-1.148201
  0
VERTEX
  8
PLAN_1
 62
     2
  6
CONTINUOUS
 10
-0.463535
 20
-1.179465
  0
VERTEX
  8
PLAN_1
 62
     2
  6
CONTINUOUS
 10
-0.463012
 20
-1.180508
  0
VERTEX
  8
PLAN_1
 62
     2
  6
CONTINUOUS
 10
-0.463012
 20
-1.181028
  0
VERTEX
  8
PLAN_1
 62
     2
  6
CONTINUOUS
 10
-0.463012
 20
-1.181551
  0
VERTEX
  8
PLAN_1
 62
     2
  6
CONTINUOUS
 10
-0.462492
 20
-1.182071
  0
VERTEX
  8
PLAN_1
 62
     2
  6
CONTINUOUS
 10
-0.461972
 20
-1.182591
  0
VERTEX
  8
PLAN_1
 62
     2
  6
CONTINUOUS
 10
-0.461449
 20
-1.182591
  0
VERTEX
  8
PLAN_1
 62
     2
  6
CONTINUOUS
 10
-0.460929
 20
-1.182591
  0
VERTEX
  8
PLAN_1
 62
     2
  6
CONTINUOUS
 10
-0.460409
 20
-1.182591
  0
VERTEX
  8
PLAN_1
 62
     2
  6
CONTINUOUS
 10
-0.459886
 20
-1.182591
  0
VERTEX
  8
PLAN_1
 62
     2
  6
CONTINUOUS
 10
-0.459366
 20
-1.182591
  0
VERTEX
  8
PLAN_1
 62
     2
  6
CONTINUOUS
 10
-0.458843
 20
-1.182591
  0
VERTEX
  8
PLAN_1
 62
     2
  6
CONTINUOUS
 10
-0.458323
 20
-1.182591
  0
VERTEX
  8
PLAN_1
 62
     2
  6
CONTINUOUS
 10
-0.457803
 20
-1.182591
  0
VERTEX
  8
PLAN_1
 62
     2
  6
CONTINUOUS
 10
-0.457280
 20
-1.182591
  0
VERTEX
  8
PLAN_1
 62
     2
  6
CONTINUOUS
 10
-0.457280
 20
-1.188846
  0
VERTEX
  8
PLAN_1
 62
     2
  6
CONTINUOUS
 10
-0.457803
 20
-1.189366
  0
VERTEX
  8
PLAN_1
 62
     2
  6
CONTINUOUS
 10
-0.458323
 20
-1.189366
  0
VERTEX
  8
PLAN_1
 62
     2
  6
CONTINUOUS
 10
-0.458843
 20
-1.189366
  0
VERTEX
  8
PLAN_1
 62
     2
  6
CONTINUOUS
 10
-0.459366
 20
-1.189886
  0
VERTEX
  8
PLAN_1
 62
     2
  6
CONTINUOUS
 10
-0.460409
 20
-1.189886
  0
VERTEX
  8
PLAN_1
 62
     2
  6
CONTINUOUS
 10
-0.460929
 20
-1.189886
  0
VERTEX
  8
PLAN_1
 62
     2
  6
CONTINUOUS
 10
-0.461449
 20
-1.189886
  0
VERTEX
  8
PLAN_1
 62
     2
  6
CONTINUOUS
 10
-0.462492
 20
-1.189886
  0
VERTEX
  8
PLAN_1
 62
     2
  6
CONTINUOUS
 10
-0.465098
 20
-1.189886
  0
VERTEX
  8
PLAN_1
 62
     2
  6
CONTINUOUS
 10
-0.467181
 20
-1.189366
  0
VERTEX
  8
PLAN_1
 62
     2
  6
CONTINUOUS
 10
-0.468744
 20
-1.188323
  0
VERTEX
  8
PLAN_1
 62
     2
  6
CONTINUOUS
 10
-0.469787
 20
-1.187280
  0
VERTEX
  8
PLAN_1
 62
     2
  6
CONTINUOUS
 10
-0.470831
 20
-1.186240
  0
VERTEX
  8
PLAN_1
 62
     2
  6
CONTINUOUS
 10
-0.471350
 20
-1.184677
  0
VERTEX
  8
PLAN_1
 62
     2
  6
CONTINUOUS
 10
-0.471870
 20
-1.183114
  0
VERTEX
  8
PLAN_1
 62
     2
  6
CONTINUOUS
 10
-0.471870
 20
-1.181551
  0
VERTEX
  8
PLAN_1
 62
     2
  6
CONTINUOUS
 10
-0.473433
 20
-1.183114
  0
VERTEX
  8
PLAN_1
 62
     2
  6
CONTINUOUS
 10
-0.475000
 20
-1.184677
  0
VERTEX
  8
PLAN_1
 62
     2
  6
CONTINUOUS
 10
-0.477083
 20
-1.186240
  0
VERTEX
  8
PLAN_1
 62
     2
  6
CONTINUOUS
 10
-0.479165
 20
-1.187803
  0
VERTEX
  8
PLAN_1
 62
     2
  6
CONTINUOUS
 10
-0.481772
 20
-1.188846
  0
VERTEX
  8
PLAN_1
 62
     2
  6
CONTINUOUS
 10
-0.484378
 20
-1.189886
  0
VERTEX
  8
PLAN_1
 62
     2
  6
CONTINUOUS
 10
-0.488024
 20
-1.190409
  0
VERTEX
  8
PLAN_1
 62
     2
  6
CONTINUOUS
 10
-0.491673
 20
-1.190409
  0
VERTEX
  8
PLAN_1
 62
     2
  6
CONTINUOUS
 10
-0.495319
 20
-1.190409
  0
VERTEX
  8
PLAN_1
 62
     2
  6
CONTINUOUS
 10
-0.498449
 20
-1.189366
  0
VERTEX
  8
PLAN_1
 62
     2
  6
CONTINUOUS
 10
-0.501575
 20
-1.188323
  0
VERTEX
  8
PLAN_1
 62
     2
  6
CONTINUOUS
 10
-0.503657
 20
-1.186240
  0
VERTEX
  8
PLAN_1
 62
     2
  6
CONTINUOUS
 10
-0.505744
 20
-1.184154
  0
VERTEX
  8
PLAN_1
 62
     2
  6
CONTINUOUS
 10
-0.507307
 20
-1.181551
  0
VERTEX
  8
PLAN_1
 62
     2
  6
CONTINUOUS
 10
-0.508346
 20
-1.178421
  0
VERTEX
  8
PLAN_1
 62
     2
  6
CONTINUOUS
 10
-0.508870
 20
-1.174776
  0
VERTEX
  8
PLAN_1
 62
     2
  6
CONTINUOUS
 10
-0.508346
 20
-1.173213
  0
VERTEX
  8
PLAN_1
 62
     2
  6
CONTINUOUS
 10
-0.508346
 20
-1.170606
  0
VERTEX
  8
PLAN_1
 62
     2
  6
CONTINUOUS
 10
-0.507307
 20
-1.168000
  0
VERTEX
  8
PLAN_1
 62
     2
  6
CONTINUOUS
 10
-0.506264
 20
-1.165394
  0
VERTEX
  8
PLAN_1
 62
     2
  6
CONTINUOUS
 10
-0.504181
 20
-1.162791
  0
VERTEX
  8
PLAN_1
 62
     2
  6
CONTINUOUS
 10
-0.501051
 20
-1.160705
  0
VERTEX
  8
PLAN_1
 62
     2
  6
CONTINUOUS
 10
-0.497406
 20
-1.159142
  0
VERTEX
  8
PLAN_1
 62
     2
  6
CONTINUOUS
 10
-0.492193
 20
-1.158098
  0
VERTEX
  8
PLAN_1
 62
     2
  6
CONTINUOUS
 10
-0.477083
 20
-1.156016
  0
VERTEX
  8
PLAN_1
 62
     2
  6
CONTINUOUS
 10
-0.476039
 20
-1.156016
  0
VERTEX
  8
PLAN_1
 62
     2
  6
CONTINUOUS
 10
-0.475520
 20
-1.155496
  0
VERTEX
  8
PLAN_1
 62
     2
  6
CONTINUOUS
 10
-0.474476
 20
-1.155496
  0
VERTEX
  8
PLAN_1
 62
     2
  6
CONTINUOUS
 10
-0.473957
 20
-1.154972
  0
VERTEX
  8
PLAN_1
 62
     2
  6
CONTINUOUS
 10
-0.473433
 20
-1.153933
  0
VERTEX
  8
PLAN_1
 62
     2
  6
CONTINUOUS
 10
-0.472913
 20
-1.152890
  0
VERTEX
  8
PLAN_1
 62
     2
  6
CONTINUOUS
 10
-0.472394
 20
-1.151327
  0
VERTEX
  8
PLAN_1
 62
     2
  6
CONTINUOUS
 10
-0.472394
 20
-1.149764
  0
VERTEX
  8
PLAN_1
 62
     2
  6
CONTINUOUS
 10
-0.472394
 20
-1.147677
  0
VERTEX
  8
PLAN_1
 62
     2
  6
CONTINUOUS
 10
-0.472913
 20
-1.145594
  0
VERTEX
  8
PLAN_1
 62
     2
  6
CONTINUOUS
 10
-0.473957
 20
-1.144031
  0
VERTEX
  8
PLAN_1
 62
     2
  6
CONTINUOUS
 10
-0.475520
 20
-1.142988
  0
VERTEX
  8
PLAN_1
 62
     2
  6
CONTINUOUS
 10
-0.477083
 20
-1.141945
  0
VERTEX
  8
PLAN_1
 62
     2
  6
CONTINUOUS
 10
-0.479165
 20
-1.141425
  0
VERTEX
  8
PLAN_1
 62
     2
  6
CONTINUOUS
 10
-0.481772
 20
-1.140906
  0
VERTEX
  8
PLAN_1
 62
     2
  6
CONTINUOUS
 10
-0.484898
 20
-1.140906
  0
VERTEX
  8
PLAN_1
 62
     2
  6
CONTINUOUS
 10
-0.488547
 20
-1.140906
  0
VERTEX
  8
PLAN_1
 62
     2
  6
CONTINUOUS
 10
-0.491154
 20
-1.141945
  0
VERTEX
  8
PLAN_1
 62
     2
  6
CONTINUOUS
 10
-0.493236
 20
-1.142988
  0
VERTEX
  8
PLAN_1
 62
     2
  6
CONTINUOUS
 10
-0.494799
 20
-1.144551
  0
VERTEX
  8
PLAN_1
 62
     2
  6
CONTINUOUS
 10
-0.495843
 20
-1.146114
  0
VERTEX
  8
PLAN_1
 62
     2
  6
CONTINUOUS
 10
-0.496886
 20
-1.147677
  0
VERTEX
  8
PLAN_1
 62
     2
  6
CONTINUOUS
 10
-0.497406
 20
-1.149764
  0
VERTEX
  8
PLAN_1
 62
     2
  6
CONTINUOUS
 10
-0.497406
 20
-1.151327
  0
VERTEX
  8
PLAN_1
 62
     2
  6
CONTINUOUS
 10
-0.505744
 20
-1.151327
  0
SEQEND
  8
0
  0
POLYLINE
  8
PLAN_1
 62
     2
  6
CONTINUOUS
 66
     1
 40
0.003000
 41
0.003000
  0
VERTEX
  8
PLAN_1
 62
     2
  6
CONTINUOUS
 10
-0.472394
 20
-1.161228
  0
VERTEX
  8
PLAN_1
 62
     2
  6
CONTINUOUS
 10
-0.472913
 20
-1.161748
  0
VERTEX
  8
PLAN_1
 62
     2
  6
CONTINUOUS
 10
-0.473957
 20
-1.162268
  0
VERTEX
  8
PLAN_1
 62
     2
  6
CONTINUOUS
 10
-0.475000
 20
-1.162268
  0
VERTEX
  8
PLAN_1
 62
     2
  6
CONTINUOUS
 10
-0.476039
 20
-1.162791
  0
VERTEX
  8
PLAN_1
 62
     2
  6
CONTINUOUS
 10
-0.478126
 20
-1.163311
  0
VERTEX
  8
PLAN_1
 62
     2
  6
CONTINUOUS
 10
-0.480728
 20
-1.163831
  0
VERTEX
  8
PLAN_1
 62
     2
  6
CONTINUOUS
 10
-0.483858
 20
-1.164354
  0
VERTEX
  8
PLAN_1
 62
     2
  6
CONTINUOUS
 10
-0.487504
 20
-1.164874
  0
VERTEX
  8
PLAN_1
 62
     2
  6
CONTINUOUS
 10
-0.489067
 20
-1.164874
  0
VERTEX
  8
PLAN_1
 62
     2
  6
CONTINUOUS
 10
-0.491154
 20
-1.165394
  0
VERTEX
  8
PLAN_1
 62
     2
  6
CONTINUOUS
 10
-0.493236
 20
-1.165917
  0
VERTEX
  8
PLAN_1
 62
     2
  6
CONTINUOUS
 10
-0.494799
 20
-1.166961
  0
VERTEX
  8
PLAN_1
 62
     2
  6
CONTINUOUS
 10
-0.496886
 20
-1.168000
  0
VERTEX
  8
PLAN_1
 62
     2
  6
CONTINUOUS
 10
-0.497925
 20
-1.169563
  0
VERTEX
  8
PLAN_1
 62
     2
  6
CONTINUOUS
 10
-0.498969
 20
-1.171126
  0
VERTEX
  8
PLAN_1
 62
     2
  6
CONTINUOUS
 10
-0.498969
 20
-1.173732
  0
VERTEX
  8
PLAN_1
 62
     2
  6
CONTINUOUS
 10
-0.498969
 20
-1.175819
  0
VERTEX
  8
PLAN_1
 62
     2
  6
CONTINUOUS
 10
-0.498449
 20
-1.177382
  0
VERTEX
  8
PLAN_1
 62
     2
  6
CONTINUOUS
 10
-0.497925
 20
-1.178945
  0
VERTEX
  8
PLAN_1
 62
     2
  6
CONTINUOUS
 10
-0.496886
 20
-1.180508
  0
VERTEX
  8
PLAN_1
 62
     2
  6
CONTINUOUS
 10
-0.495319
 20
-1.181551
  0
VERTEX
  8
PLAN_1
 62
     2
  6
CONTINUOUS
 10
-0.493756
 20
-1.182591
  0
VERTEX
  8
PLAN_1
 62
     2
  6
CONTINUOUS
 10
-0.491673
 20
-1.183114
  0
VERTEX
  8
PLAN_1
 62
     2
  6
CONTINUOUS
 10
-0.489067
 20
-1.183114
  0
VERTEX
  8
PLAN_1
 62
     2
  6
CONTINUOUS
 10
-0.485941
 20
-1.182591
  0
VERTEX
  8
PLAN_1
 62
     2
  6
CONTINUOUS
 10
-0.482815
 20
-1.182071
  0
VERTEX
  8
PLAN_1
 62
     2
  6
CONTINUOUS
 10
-0.480209
 20
-1.181028
  0
VERTEX
  8
PLAN_1
 62
     2
  6
CONTINUOUS
 10
-0.477602
 20
-1.179465
  0
VERTEX
  8
PLAN_1
 62
     2
  6
CONTINUOUS
 10
-0.475520
 20
-1.177382
  0
VERTEX
  8
PLAN_1
 62
     2
  6
CONTINUOUS
 10
-0.473957
 20
-1.175295
  0
VERTEX
  8
PLAN_1
 62
     2
  6
CONTINUOUS
 10
-0.472913
 20
-1.172689
  0
VERTEX
  8
PLAN_1
 62
     2
  6
CONTINUOUS
 10
-0.472394
 20
-1.170087
  0
VERTEX
  8
PLAN_1
 62
     2
  6
CONTINUOUS
 10
-0.472394
 20
-1.161228
  0
SEQEND
  8
0
  0
POLYLINE
  8
PLAN_1
 62
     2
  6
CONTINUOUS
 66
     1
 40
0.003000
 41
0.003000
  0
VERTEX
  8
PLAN_1
 62
     2
  6
CONTINUOUS
 10
-0.437480
 20
-1.188846
  0
VERTEX
  8
PLAN_1
 62
     2
  6
CONTINUOUS
 10
-0.446339
 20
-1.188846
  0
VERTEX
  8
PLAN_1
 62
     2
  6
CONTINUOUS
 10
-0.446339
 20
-1.134650
  0
VERTEX
  8
PLAN_1
 62
     2
  6
CONTINUOUS
 10
-0.438000
 20
-1.134650
  0
VERTEX
  8
PLAN_1
 62
     2
  6
CONTINUOUS
 10
-0.438000
 20
-1.143508
  0
VERTEX
  8
PLAN_1
 62
     2
  6
CONTINUOUS
 10
-0.437480
 20
-1.143508
  0
VERTEX
  8
PLAN_1
 62
     2
  6
CONTINUOUS
 10
-0.436437
 20
-1.141425
  0
VERTEX
  8
PLAN_1
 62
     2
  6
CONTINUOUS
 10
-0.434874
 20
-1.139343
  0
VERTEX
  8
PLAN_1
 62
     2
  6
CONTINUOUS
 10
-0.432791
 20
-1.137776
  0
VERTEX
  8
PLAN_1
 62
     2
  6
CONTINUOUS
 10
-0.431224
 20
-1.136213
  0
VERTEX
  8
PLAN_1
 62
     2
  6
CONTINUOUS
 10
-0.429142
 20
-1.134650
  0
VERTEX
  8
PLAN_1
 62
     2
  6
CONTINUOUS
 10
-0.427059
 20
-1.134130
  0
VERTEX
  8
PLAN_1
 62
     2
  6
CONTINUOUS
 10
-0.424972
 20
-1.133087
  0
VERTEX
  8
PLAN_1
 62
     2
  6
CONTINUOUS
 10
-0.422366
 20
-1.133087
  0
VERTEX
  8
PLAN_1
 62
     2
  6
CONTINUOUS
 10
-0.421846
 20
-1.133087
  0
VERTEX
  8
PLAN_1
 62
     2
  6
CONTINUOUS
 10
-0.421327
 20
-1.133087
  0
VERTEX
  8
PLAN_1
 62
     2
  6
CONTINUOUS
 10
-0.420803
 20
-1.133087
  0
VERTEX
  8
PLAN_1
 62
     2
  6
CONTINUOUS
 10
-0.420283
 20
-1.133087
  0
VERTEX
  8
PLAN_1
 62
     2
  6
CONTINUOUS
 10
-0.420283
 20
-1.133610
  0
VERTEX
  8
PLAN_1
 62
     2
  6
CONTINUOUS
 10
-0.419764
 20
-1.133610
  0
VERTEX
  8
PLAN_1
 62
     2
  6
CONTINUOUS
 10
-0.419764
 20
-1.142988
  0
VERTEX
  8
PLAN_1
 62
     2
  6
CONTINUOUS
 10
-0.423409
 20
-1.142988
  0
VERTEX
  8
PLAN_1
 62
     2
  6
CONTINUOUS
 10
-0.426535
 20
-1.142988
  0
VERTEX
  8
PLAN_1
 62
     2
  6
CONTINUOUS
 10
-0.429142
 20
-1.144031
  0
VERTEX
  8
PLAN_1
 62
     2
  6
CONTINUOUS
 10
-0.431748
 20
-1.145594
  0
VERTEX
  8
PLAN_1
 62
     2
  6
CONTINUOUS
 10
-0.433311
 20
-1.147157
  0
VERTEX
  8
PLAN_1
 62
     2
  6
CONTINUOUS
 10
-0.435394
 20
-1.149240
  0
VERTEX
  8
PLAN_1
 62
     2
  6
CONTINUOUS
 10
-0.436437
 20
-1.151846
  0
VERTEX
  8
PLAN_1
 62
     2
  6
CONTINUOUS
 10
-0.436957
 20
-1.154453
  0
VERTEX
  8
PLAN_1
 62
     2
  6
CONTINUOUS
 10
-0.437480
 20
-1.157579
  0
VERTEX
  8
PLAN_1
 62
     2
  6
CONTINUOUS
 10
-0.437480
 20
-1.188846
  0
SEQEND
  8
0
  0
POLYLINE
  8
PLAN_1
 62
     2
  6
CONTINUOUS
 66
     1
 40
0.003000
 41
0.003000
  0
VERTEX
  8
PLAN_1
 62
     2
  6
CONTINUOUS
 10
-0.414551
 20
-1.151327
  0
VERTEX
  8
PLAN_1
 62
     2
  6
CONTINUOUS
 10
-0.414031
 20
-1.146638
  0
VERTEX
  8
PLAN_1
 62
     2
  6
CONTINUOUS
 10
-0.412469
 20
-1.142988
  0
VERTEX
  8
PLAN_1
 62
     2
  6
CONTINUOUS
 10
-0.410906
 20
-1.139862
  0
VERTEX
  8
PLAN_1
 62
     2
  6
CONTINUOUS
 10
-0.408299
 20
-1.137256
  0
VERTEX
  8
PLAN_1
 62
     2
  6
CONTINUOUS
 10
-0.404650
 20
-1.135173
  0
VERTEX
  8
PLAN_1
 62
     2
  6
CONTINUOUS
 10
-0.401004
 20
-1.134130
  0
VERTEX
  8
PLAN_1
 62
     2
  6
CONTINUOUS
 10
-0.396835
 20
-1.133610
  0
VERTEX
  8
PLAN_1
 62
     2
  6
CONTINUOUS
 10
-0.392146
 20
-1.133087
  0
VERTEX
  8
PLAN_1
 62
     2
  6
CONTINUOUS
 10
-0.390059
 20
-1.133087
  0
VERTEX
  8
PLAN_1
 62
     2
  6
CONTINUOUS
 10
-0.386933
 20
-1.133610
  0
VERTEX
  8
PLAN_1
 62
     2
  6
CONTINUOUS
 10
-0.383807
 20
-1.134130
  0
VERTEX
  8
PLAN_1
 62
     2
  6
CONTINUOUS
 10
-0.380157
 20
-1.135693
  0
VERTEX
  8
PLAN_1
 62
     2
  6
CONTINUOUS
 10
-0.377031
 20
-1.137256
  0
VERTEX
  8
PLAN_1
 62
     2
  6
CONTINUOUS
 10
-0.374425
 20
-1.139862
  0
VERTEX
  8
PLAN_1
 62
     2
  6
CONTINUOUS
 10
-0.373386
 20
-1.141945
  0
VERTEX
  8
PLAN_1
 62
     2
  6
CONTINUOUS
 10
-0.372343
 20
-1.143508
  0
VERTEX
  8
PLAN_1
 62
     2
  6
CONTINUOUS
 10
-0.371823
 20
-1.145594
  0
VERTEX
  8
PLAN_1
 62
     2
  6
CONTINUOUS
 10
-0.371823
 20
-1.148201
  0
VERTEX
  8
PLAN_1
 62
     2
  6
CONTINUOUS
 10
-0.371823
 20
-1.179465
  0
VERTEX
  8
PLAN_1
 62
     2
  6
CONTINUOUS
 10
-0.371823
 20
-1.180508
  0
VERTEX
  8
PLAN_1
 62
     2
  6
CONTINUOUS
 10
-0.371823
 20
-1.181028
  0
VERTEX
  8
PLAN_1
 62
     2
  6
CONTINUOUS
 10
-0.371299
 20
-1.181551
  0
VERTEX
  8
PLAN_1
 62
     2
  6
CONTINUOUS
 10
-0.370780
 20
-1.182071
  0
VERTEX
  8
PLAN_1
 62
     2
  6
CONTINUOUS
 10
-0.370780
 20
-1.182591
  0
VERTEX
  8
PLAN_1
 62
     2
  6
CONTINUOUS
 10
-0.370260
 20
-1.182591
  0
VERTEX
  8
PLAN_1
 62
     2
  6
CONTINUOUS
 10
-0.369217
 20
-1.182591
  0
VERTEX
  8
PLAN_1
 62
     2
  6
CONTINUOUS
 10
-0.368697
 20
-1.182591
  0
VERTEX
  8
PLAN_1
 62
     2
  6
CONTINUOUS
 10
-0.368173
 20
-1.182591
  0
VERTEX
  8
PLAN_1
 62
     2
  6
CONTINUOUS
 10
-0.367654
 20
-1.182591
  0
VERTEX
  8
PLAN_1
 62
     2
  6
CONTINUOUS
 10
-0.367130
 20
-1.182591
  0
VERTEX
  8
PLAN_1
 62
     2
  6
CONTINUOUS
 10
-0.366610
 20
-1.182591
  0
VERTEX
  8
PLAN_1
 62
     2
  6
CONTINUOUS
 10
-0.366091
 20
-1.182591
  0
VERTEX
  8
PLAN_1
 62
     2
  6
CONTINUOUS
 10
-0.365567
 20
-1.182591
  0
VERTEX
  8
PLAN_1
 62
     2
  6
CONTINUOUS
 10
-0.365567
 20
-1.188846
  0
VERTEX
  8
PLAN_1
 62
     2
  6
CONTINUOUS
 10
-0.366091
 20
-1.189366
  0
VERTEX
  8
PLAN_1
 62
     2
  6
CONTINUOUS
 10
-0.367130
 20
-1.189366
  0
VERTEX
  8
PLAN_1
 62
     2
  6
CONTINUOUS
 10
-0.367654
 20
-1.189366
  0
VERTEX
  8
PLAN_1
 62
     2
  6
CONTINUOUS
 10
-0.368173
 20
-1.189886
  0
VERTEX
  8
PLAN_1
 62
     2
  6
CONTINUOUS
 10
-0.368697
 20
-1.189886
  0
VERTEX
  8
PLAN_1
 62
     2
  6
CONTINUOUS
 10
-0.369217
 20
-1.189886
  0
VERTEX
  8
PLAN_1
 62
     2
  6
CONTINUOUS
 10
-0.369736
 20
-1.189886
  0
VERTEX
  8
PLAN_1
 62
     2
  6
CONTINUOUS
 10
-0.370780
 20
-1.189886
  0
VERTEX
  8
PLAN_1
 62
     2
  6
CONTINUOUS
 10
-0.373386
 20
-1.189886
  0
VERTEX
  8
PLAN_1
 62
     2
  6
CONTINUOUS
 10
-0.375469
 20
-1.189366
  0
VERTEX
  8
PLAN_1
 62
     2
  6
CONTINUOUS
 10
-0.377031
 20
-1.188323
  0
VERTEX
  8
PLAN_1
 62
     2
  6
CONTINUOUS
 10
-0.378594
 20
-1.187280
  0
VERTEX
  8
PLAN_1
 62
     2
  6
CONTINUOUS
 10
-0.379118
 20
-1.186240
  0
VERTEX
  8
PLAN_1
 62
     2
  6
CONTINUOUS
 10
-0.380157
 20
-1.184677
  0
VERTEX
  8
PLAN_1
 62
     2
  6
CONTINUOUS
 10
-0.380157
 20
-1.183114
  0
VERTEX
  8
PLAN_1
 62
     2
  6
CONTINUOUS
 10
-0.380157
 20
-1.181551
  0
VERTEX
  8
PLAN_1
 62
     2
  6
CONTINUOUS
 10
-0.381720
 20
-1.183114
  0
VERTEX
  8
PLAN_1
 62
     2
  6
CONTINUOUS
 10
-0.383287
 20
-1.184677
  0
VERTEX
  8
PLAN_1
 62
     2
  6
CONTINUOUS
 10
-0.385370
 20
-1.186240
  0
VERTEX
  8
PLAN_1
 62
     2
  6
CONTINUOUS
 10
-0.387453
 20
-1.187803
  0
VERTEX
  8
PLAN_1
 62
     2
  6
CONTINUOUS
 10
-0.390059
 20
-1.188846
  0
VERTEX
  8
PLAN_1
 62
     2
  6
CONTINUOUS
 10
-0.393185
 20
-1.189886
  0
VERTEX
  8
PLAN_1
 62
     2
  6
CONTINUOUS
 10
-0.396311
 20
-1.190409
  0
VERTEX
  8
PLAN_1
 62
     2
  6
CONTINUOUS
 10
-0.399961
 20
-1.190409
  0
VERTEX
  8
PLAN_1
 62
     2
  6
CONTINUOUS
 10
-0.403610
 20
-1.190409
  0
VERTEX
  8
PLAN_1
 62
     2
  6
CONTINUOUS
 10
-0.406736
 20
-1.189366
  0
VERTEX
  8
PLAN_1
 62
     2
  6
CONTINUOUS
 10
-0.409862
 20
-1.188323
  0
VERTEX
  8
PLAN_1
 62
     2
  6
CONTINUOUS
 10
-0.412469
 20
-1.186240
  0
VERTEX
  8
PLAN_1
 62
     2
  6
CONTINUOUS
 10
-0.414551
 20
-1.184154
  0
VERTEX
  8
PLAN_1
 62
     2
  6
CONTINUOUS
 10
-0.416114
 20
-1.181551
  0
VERTEX
  8
PLAN_1
 62
     2
  6
CONTINUOUS
 10
-0.416634
 20
-1.178421
  0
VERTEX
  8
PLAN_1
 62
     2
  6
CONTINUOUS
 10
-0.417157
 20
-1.174776
  0
VERTEX
  8
PLAN_1
 62
     2
  6
CONTINUOUS
 10
-0.417157
 20
-1.173213
  0
VERTEX
  8
PLAN_1
 62
     2
  6
CONTINUOUS
 10
-0.416634
 20
-1.170606
  0
VERTEX
  8
PLAN_1
 62
     2
  6
CONTINUOUS
 10
-0.416114
 20
-1.168000
  0
VERTEX
  8
PLAN_1
 62
     2
  6
CONTINUOUS
 10
-0.414551
 20
-1.165394
  0
VERTEX
  8
PLAN_1
 62
     2
  6
CONTINUOUS
 10
-0.412469
 20
-1.162791
  0
VERTEX
  8
PLAN_1
 62
     2
  6
CONTINUOUS
 10
-0.409339
 20
-1.160705
  0
VERTEX
  8
PLAN_1
 62
     2
  6
CONTINUOUS
 10
-0.405693
 20
-1.159142
  0
VERTEX
  8
PLAN_1
 62
     2
  6
CONTINUOUS
 10
-0.400480
 20
-1.158098
  0
VERTEX
  8
PLAN_1
 62
     2
  6
CONTINUOUS
 10
-0.385370
 20
-1.156016
  0
VERTEX
  8
PLAN_1
 62
     2
  6
CONTINUOUS
 10
-0.384850
 20
-1.156016
  0
VERTEX
  8
PLAN_1
 62
     2
  6
CONTINUOUS
 10
-0.383807
 20
-1.155496
  0
VERTEX
  8
PLAN_1
 62
     2
  6
CONTINUOUS
 10
-0.383287
 20
-1.155496
  0
VERTEX
  8
PLAN_1
 62
     2
  6
CONTINUOUS
 10
-0.382244
 20
-1.154972
  0
VERTEX
  8
PLAN_1
 62
     2
  6
CONTINUOUS
 10
-0.381720
 20
-1.153933
  0
VERTEX
  8
PLAN_1
 62
     2
  6
CONTINUOUS
 10
-0.381201
 20
-1.152890
  0
VERTEX
  8
PLAN_1
 62
     2
  6
CONTINUOUS
 10
-0.380681
 20
-1.151327
  0
VERTEX
  8
PLAN_1
 62
     2
  6
CONTINUOUS
 10
-0.380681
 20
-1.149764
  0
VERTEX
  8
PLAN_1
 62
     2
  6
CONTINUOUS
 10
-0.380681
 20
-1.147677
  0
VERTEX
  8
PLAN_1
 62
     2
  6
CONTINUOUS
 10
-0.381720
 20
-1.145594
  0
VERTEX
  8
PLAN_1
 62
     2
  6
CONTINUOUS
 10
-0.382244
 20
-1.144031
  0
VERTEX
  8
PLAN_1
 62
     2
  6
CONTINUOUS
 10
-0.383807
 20
-1.142988
  0
VERTEX
  8
PLAN_1
 62
     2
  6
CONTINUOUS
 10
-0.385890
 20
-1.141945
  0
VERTEX
  8
PLAN_1
 62
     2
  6
CONTINUOUS
 10
-0.387976
 20
-1.141425
  0
VERTEX
  8
PLAN_1
 62
     2
  6
CONTINUOUS
 10
-0.390583
 20
-1.140906
  0
VERTEX
  8
PLAN_1
 62
     2
  6
CONTINUOUS
 10
-0.393709
 20
-1.140906
  0
VERTEX
  8
PLAN_1
 62
     2
  6
CONTINUOUS
 10
-0.396835
 20
-1.140906
  0
VERTEX
  8
PLAN_1
 62
     2
  6
CONTINUOUS
 10
-0.399961
 20
-1.141945
  0
VERTEX
  8
PLAN_1
 62
     2
  6
CONTINUOUS
 10
-0.402043
 20
-1.142988
  0
VERTEX
  8
PLAN_1
 62
     2
  6
CONTINUOUS
 10
-0.403610
 20
-1.144551
  0
VERTEX
  8
PLAN_1
 62
     2
  6
CONTINUOUS
 10
-0.404650
 20
-1.146114
  0
VERTEX
  8
PLAN_1
 62
     2
  6
CONTINUOUS
 10
-0.405173
 20
-1.147677
  0
VERTEX
  8
PLAN_1
 62
     2
  6
CONTINUOUS
 10
-0.405693
 20
-1.149764
  0
VERTEX
  8
PLAN_1
 62
     2
  6
CONTINUOUS
 10
-0.406213
 20
-1.151327
  0
VERTEX
  8
PLAN_1
 62
     2
  6
CONTINUOUS
 10
-0.414551
 20
-1.151327
  0
SEQEND
  8
0
  0
POLYLINE
  8
PLAN_1
 62
     2
  6
CONTINUOUS
 66
     1
 40
0.003000
 41
0.003000
  0
VERTEX
  8
PLAN_1
 62
     2
  6
CONTINUOUS
 10
-0.380681
 20
-1.161228
  0
VERTEX
  8
PLAN_1
 62
     2
  6
CONTINUOUS
 10
-0.381720
 20
-1.161748
  0
VERTEX
  8
PLAN_1
 62
     2
  6
CONTINUOUS
 10
-0.382244
 20
-1.162268
  0
VERTEX
  8
PLAN_1
 62
     2
  6
CONTINUOUS
 10
-0.383287
 20
-1.162268
  0
VERTEX
  8
PLAN_1
 62
     2
  6
CONTINUOUS
 10
-0.384850
 20
-1.162791
  0
VERTEX
  8
PLAN_1
 62
     2
  6
CONTINUOUS
 10
-0.386413
 20
-1.163311
  0
VERTEX
  8
PLAN_1
 62
     2
  6
CONTINUOUS
 10
-0.389016
 20
-1.163831
  0
VERTEX
  8
PLAN_1
 62
     2
  6
CONTINUOUS
 10
-0.392146
 20
-1.164354
  0
VERTEX
  8
PLAN_1
 62
     2
  6
CONTINUOUS
 10
-0.395791
 20
-1.164874
  0
VERTEX
  8
PLAN_1
 62
     2
  6
CONTINUOUS
 10
-0.397878
 20
-1.164874
  0
VERTEX
  8
PLAN_1
 62
     2
  6
CONTINUOUS
 10
-0.399961
 20
-1.165394
  0
VERTEX
  8
PLAN_1
 62
     2
  6
CONTINUOUS
 10
-0.401524
 20
-1.165917
  0
VERTEX
  8
PLAN_1
 62
     2
  6
CONTINUOUS
 10
-0.403610
 20
-1.166961
  0
VERTEX
  8
PLAN_1
 62
     2
  6
CONTINUOUS
 10
-0.405173
 20
-1.168000
  0
VERTEX
  8
PLAN_1
 62
     2
  6
CONTINUOUS
 10
-0.406213
 20
-1.169563
  0
VERTEX
  8
PLAN_1
 62
     2
  6
CONTINUOUS
 10
-0.407256
 20
-1.171126
  0
VERTEX
  8
PLAN_1
 62
     2
  6
CONTINUOUS
 10
-0.407776
 20
-1.173732
  0
VERTEX
  8
PLAN_1
 62
     2
  6
CONTINUOUS
 10
-0.407776
 20
-1.175819
  0
VERTEX
  8
PLAN_1
 62
     2
  6
CONTINUOUS
 10
-0.407256
 20
-1.177382
  0
VERTEX
  8
PLAN_1
 62
     2
  6
CONTINUOUS
 10
-0.406213
 20
-1.178945
  0
VERTEX
  8
PLAN_1
 62
     2
  6
CONTINUOUS
 10
-0.405173
 20
-1.180508
  0
VERTEX
  8
PLAN_1
 62
     2
  6
CONTINUOUS
 10
-0.404130
 20
-1.181551
  0
VERTEX
  8
PLAN_1
 62
     2
  6
CONTINUOUS
 10
-0.402043
 20
-1.182591
  0
VERTEX
  8
PLAN_1
 62
     2
  6
CONTINUOUS
 10
-0.399961
 20
-1.183114
  0
VERTEX
  8
PLAN_1
 62
     2
  6
CONTINUOUS
 10
-0.397878
 20
-1.183114
  0
VERTEX
  8
PLAN_1
 62
     2
  6
CONTINUOUS
 10
-0.394748
 20
-1.182591
  0
VERTEX
  8
PLAN_1
 62
     2
  6
CONTINUOUS
 10
-0.391622
 20
-1.182071
  0
VERTEX
  8
PLAN_1
 62
     2
  6
CONTINUOUS
 10
-0.388496
 20
-1.181028
  0
VERTEX
  8
PLAN_1
 62
     2
  6
CONTINUOUS
 10
-0.386413
 20
-1.179465
  0
VERTEX
  8
PLAN_1
 62
     2
  6
CONTINUOUS
 10
-0.383807
 20
-1.177382
  0
VERTEX
  8
PLAN_1
 62
     2
  6
CONTINUOUS
 10
-0.382244
 20
-1.175295
  0
VERTEX
  8
PLAN_1
 62
     2
  6
CONTINUOUS
 10
-0.381201
 20
-1.172689
  0
VERTEX
  8
PLAN_1
 62
     2
  6
CONTINUOUS
 10
-0.380681
 20
-1.170087
  0
VERTEX
  8
PLAN_1
 62
     2
  6
CONTINUOUS
 10
-0.380681
 20
-1.161228
  0
SEQEND
  8
0
  0
POLYLINE
  8
PLAN_1
 62
     2
  6
CONTINUOUS
 66
     1
 40
0.003000
 41
0.003000
  0
VERTEX
  8
PLAN_1
 62
     2
  6
CONTINUOUS
 10
-0.320756
 20
-1.188846
  0
VERTEX
  8
PLAN_1
 62
     2
  6
CONTINUOUS
 10
-0.320756
 20
-1.181028
  0
VERTEX
  8
PLAN_1
 62
     2
  6
CONTINUOUS
 10
-0.322319
 20
-1.183114
  0
VERTEX
  8
PLAN_1
 62
     2
  6
CONTINUOUS
 10
-0.323882
 20
-1.185197
  0
VERTEX
  8
PLAN_1
 62
     2
  6
CONTINUOUS
 10
-0.325965
 20
-1.186760
  0
VERTEX
  8
PLAN_1
 62
     2
  6
CONTINUOUS
 10
-0.327528
 20
-1.188323
  0
VERTEX
  8
PLAN_1
 62
     2
  6
CONTINUOUS
 10
-0.330134
 20
-1.189366
  0
VERTEX
  8
PLAN_1
 62
     2
  6
CONTINUOUS
 10
-0.332217
 20
-1.189886
  0
VERTEX
  8
PLAN_1
 62
     2
  6
CONTINUOUS
 10
-0.335346
 20
-1.190409
  0
VERTEX
  8
PLAN_1
 62
     2
  6
CONTINUOUS
 10
-0.338472
 20
-1.190409
  0
VERTEX
  8
PLAN_1
 62
     2
  6
CONTINUOUS
 10
-0.341079
 20
-1.190409
  0
VERTEX
  8
PLAN_1
 62
     2
  6
CONTINUOUS
 10
-0.344205
 20
-1.189886
  0
VERTEX
  8
PLAN_1
 62
     2
  6
CONTINUOUS
 10
-0.347331
 20
-1.188846
  0
VERTEX
  8
PLAN_1
 62
     2
  6
CONTINUOUS
 10
-0.349937
 20
-1.187280
  0
VERTEX
  8
PLAN_1
 62
     2
  6
CONTINUOUS
 10
-0.352539
 20
-1.184677
  0
VERTEX
  8
PLAN_1
 62
     2
  6
CONTINUOUS
 10
-0.354106
 20
-1.182071
  0
VERTEX
  8
PLAN_1
 62
     2
  6
CONTINUOUS
 10
-0.355669
 20
-1.178421
  0
VERTEX
  8
PLAN_1
 62
     2
  6
CONTINUOUS
 10
-0.355669
 20
-1.173732
  0
VERTEX
  8
PLAN_1
 62
     2
  6
CONTINUOUS
 10
-0.355669
 20
-1.134650
  0
VERTEX
  8
PLAN_1
 62
     2
  6
CONTINUOUS
 10
-0.346807
 20
-1.134650
  0
VERTEX
  8
PLAN_1
 62
     2
  6
CONTINUOUS
 10
-0.346807
 20
-1.170606
  0
VERTEX
  8
PLAN_1
 62
     2
  6
CONTINUOUS
 10
-0.346807
 20
-1.173732
  0
VERTEX
  8
PLAN_1
 62
     2
  6
CONTINUOUS
 10
-0.345768
 20
-1.176339
  0
VERTEX
  8
PLAN_1
 62
     2
  6
CONTINUOUS
 10
-0.345244
 20
-1.178421
  0
VERTEX
  8
PLAN_1
 62
     2
  6
CONTINUOUS
 10
-0.343681
 20
-1.179984
  0
VERTEX
  8
PLAN_1
 62
     2
  6
CONTINUOUS
 10
-0.342118
 20
-1.181551
  0
VERTEX
  8
PLAN_1
 62
     2
  6
CONTINUOUS
 10
-0.340555
 20
-1.182071
  0
VERTEX
  8
PLAN_1
 62
     2
  6
CONTINUOUS
 10
-0.338472
 20
-1.182591
  0
VERTEX
  8
PLAN_1
 62
     2
  6
CONTINUOUS
 10
-0.336386
 20
-1.182591
  0
VERTEX
  8
PLAN_1
 62
     2
  6
CONTINUOUS
 10
-0.332217
 20
-1.182071
  0
VERTEX
  8
PLAN_1
 62
     2
  6
CONTINUOUS
 10
-0.329091
 20
-1.181028
  0
VERTEX
  8
PLAN_1
 62
     2
  6
CONTINUOUS
 10
-0.326488
 20
-1.178945
  0
VERTEX
  8
PLAN_1
 62
     2
  6
CONTINUOUS
 10
-0.324402
 20
-1.176858
  0
VERTEX
  8
PLAN_1
 62
     2
  6
CONTINUOUS
 10
-0.322839
 20
-1.173732
  0
VERTEX
  8
PLAN_1
 62
     2
  6
CONTINUOUS
 10
-0.321795
 20
-1.170606
  0
VERTEX
  8
PLAN_1
 62
     2
  6
CONTINUOUS
 10
-0.321276
 20
-1.167480
  0
VERTEX
  8
PLAN_1
 62
     2
  6
CONTINUOUS
 10
-0.321276
 20
-1.164874
  0
VERTEX
  8
PLAN_1
 62
     2
  6
CONTINUOUS
 10
-0.321276
 20
-1.134650
  0
VERTEX
  8
PLAN_1
 62
     2
  6
CONTINUOUS
 10
-0.311898
 20
-1.134650
  0
VERTEX
  8
PLAN_1
 62
     2
  6
CONTINUOUS
 10
-0.311898
 20
-1.188846
  0
VERTEX
  8
PLAN_1
 62
     2
  6
CONTINUOUS
 10
-0.320756
 20
-1.188846
  0
SEQEND
  8
0
  0
POLYLINE
  8
PLAN_1
 62
     2
  6
CONTINUOUS
 66
     1
 40
0.003000
 41
0.003000
  0
VERTEX
  8
PLAN_1
 62
     2
  6
CONTINUOUS
 10
-0.253012
 20
-1.188846
  0
VERTEX
  8
PLAN_1
 62
     2
  6
CONTINUOUS
 10
-0.261870
 20
-1.188846
  0
VERTEX
  8
PLAN_1
 62
     2
  6
CONTINUOUS
 10
-0.261870
 20
-1.181551
  0
VERTEX
  8
PLAN_1
 62
     2
  6
CONTINUOUS
 10
-0.263433
 20
-1.184154
  0
VERTEX
  8
PLAN_1
 62
     2
  6
CONTINUOUS
 10
-0.265520
 20
-1.186240
  0
VERTEX
  8
PLAN_1
 62
     2
  6
CONTINUOUS
 10
-0.267083
 20
-1.187803
  0
VERTEX
  8
PLAN_1
 62
     2
  6
CONTINUOUS
 10
-0.269165
 20
-1.188846
  0
VERTEX
  8
PLAN_1
 62
     2
  6
CONTINUOUS
 10
-0.271252
 20
-1.189886
  0
VERTEX
  8
PLAN_1
 62
     2
  6
CONTINUOUS
 10
-0.273335
 20
-1.190409
  0
VERTEX
  8
PLAN_1
 62
     2
  6
CONTINUOUS
 10
-0.275417
 20
-1.190409
  0
VERTEX
  8
PLAN_1
 62
     2
  6
CONTINUOUS
 10
-0.277504
 20
-1.190409
  0
VERTEX
  8
PLAN_1
 62
     2
  6
CONTINUOUS
 10
-0.280630
 20
-1.190409
  0
VERTEX
  8
PLAN_1
 62
     2
  6
CONTINUOUS
 10
-0.283756
 20
-1.189886
  0
VERTEX
  8
PLAN_1
 62
     2
  6
CONTINUOUS
 10
-0.286362
 20
-1.188846
  0
VERTEX
  8
PLAN_1
 62
     2
  6
CONTINUOUS
 10
-0.288969
 20
-1.187803
  0
VERTEX
  8
PLAN_1
 62
     2
  6
CONTINUOUS
 10
-0.291051
 20
-1.186240
  0
VERTEX
  8
PLAN_1
 62
     2
  6
CONTINUOUS
 10
-0.293138
 20
-1.184677
  0
VERTEX
  8
PLAN_1
 62
     2
  6
CONTINUOUS
 10
-0.294701
 20
-1.182591
  0
VERTEX
  8
PLAN_1
 62
     2
  6
CONTINUOUS
 10
-0.296264
 20
-1.180508
  0
VERTEX
  8
PLAN_1
 62
     2
  6
CONTINUOUS
 10
-0.298870
 20
-1.175819
  0
VERTEX
  8
PLAN_1
 62
     2
  6
CONTINUOUS
 10
-0.300433
 20
-1.170606
  0
VERTEX
  8
PLAN_1
 62
     2
  6
CONTINUOUS
 10
-0.300953
 20
-1.165394
  0
VERTEX
  8
PLAN_1
 62
     2
  6
CONTINUOUS
 10
-0.301472
 20
-1.160185
  0
VERTEX
  8
PLAN_1
 62
     2
  6
CONTINUOUS
 10
-0.300953
 20
-1.154972
  0
VERTEX
  8
PLAN_1
 62
     2
  6
CONTINUOUS
 10
-0.299909
 20
-1.149764
  0
VERTEX
  8
PLAN_1
 62
     2
  6
CONTINUOUS
 10
-0.298346
 20
-1.145071
  0
VERTEX
  8
PLAN_1
 62
     2
  6
CONTINUOUS
 10
-0.295740
 20
-1.140906
  0
VERTEX
  8
PLAN_1
 62
     2
  6
CONTINUOUS
 10
-0.294177
 20
-1.139343
  0
VERTEX
  8
PLAN_1
 62
     2
  6
CONTINUOUS
 10
-0.292094
 20
-1.137776
  0
VERTEX
  8
PLAN_1
 62
     2
  6
CONTINUOUS
 10
-0.290531
 20
-1.136213
  0
VERTEX
  8
PLAN_1
 62
     2
  6
CONTINUOUS
 10
-0.288445
 20
-1.135173
  0
VERTEX
  8
PLAN_1
 62
     2
  6
CONTINUOUS
 10
-0.286362
 20
-1.134130
  0
VERTEX
  8
PLAN_1
 62
     2
  6
CONTINUOUS
 10
-0.283756
 20
-1.133610
  0
VERTEX
  8
PLAN_1
 62
     2
  6
CONTINUOUS
 10
-0.281673
 20
-1.133087
  0
VERTEX
  8
PLAN_1
 62
     2
  6
CONTINUOUS
 10
-0.278547
 20
-1.133087
  0
VERTEX
  8
PLAN_1
 62
     2
  6
CONTINUOUS
 10
-0.275417
 20
-1.133610
  0
VERTEX
  8
PLAN_1
 62
     2
  6
CONTINUOUS
 10
-0.272291
 20
-1.134130
  0
VERTEX
  8
PLAN_1
 62
     2
  6
CONTINUOUS
 10
-0.269689
 20
-1.135173
  0
VERTEX
  8
PLAN_1
 62
     2
  6
CONTINUOUS
 10
-0.267602
 20
-1.136736
  0
VERTEX
  8
PLAN_1
 62
     2
  6
CONTINUOUS
 10
-0.266039
 20
-1.138299
  0
VERTEX
  8
PLAN_1
 62
     2
  6
CONTINUOUS
 10
-0.264476
 20
-1.139862
  0
VERTEX
  8
PLAN_1
 62
     2
  6
CONTINUOUS
 10
-0.263433
 20
-1.140906
  0
VERTEX
  8
PLAN_1
 62
     2
  6
CONTINUOUS
 10
-0.262394
 20
-1.142469
  0
VERTEX
  8
PLAN_1
 62
     2
  6
CONTINUOUS
 10
-0.262394
 20
-1.141425
  0
VERTEX
  8
PLAN_1
 62
     2
  6
CONTINUOUS
 10
-0.262394
 20
-1.114327
  0
VERTEX
  8
PLAN_1
 62
     2
  6
CONTINUOUS
 10
-0.253012
 20
-1.114327
  0
VERTEX
  8
PLAN_1
 62
     2
  6
CONTINUOUS
 10
-0.253012
 20
-1.188846
  0
SEQEND
  8
0
  0
POLYLINE
  8
PLAN_1
 62
     2
  6
CONTINUOUS
 66
     1
 40
0.003000
 41
0.003000
  0
VERTEX
  8
PLAN_1
 62
     2
  6
CONTINUOUS
 10
-0.277504
 20
-1.182591
  0
VERTEX
  8
PLAN_1
 62
     2
  6
CONTINUOUS
 10
-0.274898
 20
-1.182591
  0
VERTEX
  8
PLAN_1
 62
     2
  6
CONTINUOUS
 10
-0.272291
 20
-1.182071
  0
VERTEX
  8
PLAN_1
 62
     2
  6
CONTINUOUS
 10
-0.270209
 20
-1.180508
  0
VERTEX
  8
PLAN_1
 62
     2
  6
CONTINUOUS
 10
-0.267602
 20
-1.178945
  0
VERTEX
  8
PLAN_1
 62
     2
  6
CONTINUOUS
 10
-0.265520
 20
-1.176339
  0
VERTEX
  8
PLAN_1
 62
     2
  6
CONTINUOUS
 10
-0.263957
 20
-1.173213
  0
VERTEX
  8
PLAN_1
 62
     2
  6
CONTINUOUS
 10
-0.262913
 20
-1.169563
  0
VERTEX
  8
PLAN_1
 62
     2
  6
CONTINUOUS
 10
-0.262394
 20
-1.164354
  0
VERTEX
  8
PLAN_1
 62
     2
  6
CONTINUOUS
 10
-0.262394
 20
-1.160705
  0
VERTEX
  8
PLAN_1
 62
     2
  6
CONTINUOUS
 10
-0.262913
 20
-1.157059
  0
VERTEX
  8
PLAN_1
 62
     2
  6
CONTINUOUS
 10
-0.263433
 20
-1.153409
  0
VERTEX
  8
PLAN_1
 62
     2
  6
CONTINUOUS
 10
-0.264996
 20
-1.149764
  0
VERTEX
  8
PLAN_1
 62
     2
  6
CONTINUOUS
 10
-0.266559
 20
-1.146114
  0
VERTEX
  8
PLAN_1
 62
     2
  6
CONTINUOUS
 10
-0.269165
 20
-1.143508
  0
VERTEX
  8
PLAN_1
 62
     2
  6
CONTINUOUS
 10
-0.270728
 20
-1.142469
  0
VERTEX
  8
PLAN_1
 62
     2
  6
CONTINUOUS
 10
-0.272815
 20
-1.141945
  0
VERTEX
  8
PLAN_1
 62
     2
  6
CONTINUOUS
 10
-0.274898
 20
-1.141425
  0
VERTEX
  8
PLAN_1
 62
     2
  6
CONTINUOUS
 10
-0.276984
 20
-1.141425
  0
VERTEX
  8
PLAN_1
 62
     2
  6
CONTINUOUS
 10
-0.279587
 20
-1.141425
  0
VERTEX
  8
PLAN_1
 62
     2
  6
CONTINUOUS
 10
-0.281673
 20
-1.141945
  0
VERTEX
  8
PLAN_1
 62
     2
  6
CONTINUOUS
 10
-0.283756
 20
-1.142469
  0
VERTEX
  8
PLAN_1
 62
     2
  6
CONTINUOUS
 10
-0.285319
 20
-1.143508
  0
VERTEX
  8
PLAN_1
 62
     2
  6
CONTINUOUS
 10
-0.287925
 20
-1.146114
  0
VERTEX
  8
PLAN_1
 62
     2
  6
CONTINUOUS
 10
-0.290008
 20
-1.148720
  0
VERTEX
  8
PLAN_1
 62
     2
  6
CONTINUOUS
 10
-0.291051
 20
-1.152370
  0
VERTEX
  8
PLAN_1
 62
     2
  6
CONTINUOUS
 10
-0.291575
 20
-1.155496
  0
VERTEX
  8
PLAN_1
 62
     2
  6
CONTINUOUS
 10
-0.292094
 20
-1.158622
  0
VERTEX
  8
PLAN_1
 62
     2
  6
CONTINUOUS
 10
-0.292094
 20
-1.161748
  0
VERTEX
  8
PLAN_1
 62
     2
  6
CONTINUOUS
 10
-0.291575
 20
-1.165917
  0
VERTEX
  8
PLAN_1
 62
     2
  6
CONTINUOUS
 10
-0.291051
 20
-1.170087
  0
VERTEX
  8
PLAN_1
 62
     2
  6
CONTINUOUS
 10
-0.290008
 20
-1.173732
  0
VERTEX
  8
PLAN_1
 62
     2
  6
CONTINUOUS
 10
-0.288445
 20
-1.176858
  0
VERTEX
  8
PLAN_1
 62
     2
  6
CONTINUOUS
 10
-0.286362
 20
-1.179465
  0
VERTEX
  8
PLAN_1
 62
     2
  6
CONTINUOUS
 10
-0.283756
 20
-1.181028
  0
VERTEX
  8
PLAN_1
 62
     2
  6
CONTINUOUS
 10
-0.280630
 20
-1.182071
  0
VERTEX
  8
PLAN_1
 62
     2
  6
CONTINUOUS
 10
-0.277504
 20
-1.182591
  0
SEQEND
  8
0
  0
SOLID
  8
PLAN_1
 62
     2
 10
-0.216016
 20
-1.127354
 11
-0.222787
 21
-1.127354
 12
-0.202465
 22
-1.112764
 13
-0.213409
 23
-1.112764
  0
POLYLINE
  8
PLAN_1
 62
     2
  6
CONTINUOUS
 66
     1
 40
0.003000
 41
0.003000
  0
VERTEX
  8
PLAN_1
 62
     2
  6
CONTINUOUS
 10
-0.216016
 20
-1.127354
  0
VERTEX
  8
PLAN_1
 62
     2
  6
CONTINUOUS
 10
-0.222787
 20
-1.127354
  0
VERTEX
  8
PLAN_1
 62
     2
  6
CONTINUOUS
 10
-0.213409
 20
-1.112764
  0
VERTEX
  8
PLAN_1
 62
     2
  6
CONTINUOUS
 10
-0.202465
 20
-1.112764
  0
VERTEX
  8
PLAN_1
 62
     2
  6
CONTINUOUS
 10
-0.216016
 20
-1.127354
  0
SEQEND
  8
0
  0
POLYLINE
  8
PLAN_1
 62
     2
  6
CONTINUOUS
 66
     1
 40
0.003000
 41
0.003000
  0
VERTEX
  8
PLAN_1
 62
     2
  6
CONTINUOUS
 10
-0.194130
 20
-1.172169
  0
VERTEX
  8
PLAN_1
 62
     2
  6
CONTINUOUS
 10
-0.194650
 20
-1.173213
  0
VERTEX
  8
PLAN_1
 62
     2
  6
CONTINUOUS
 10
-0.195169
 20
-1.174776
  0
VERTEX
  8
PLAN_1
 62
     2
  6
CONTINUOUS
 10
-0.195693
 20
-1.176858
  0
VERTEX
  8
PLAN_1
 62
     2
  6
CONTINUOUS
 10
-0.196732
 20
-1.178945
  0
VERTEX
  8
PLAN_1
 62
     2
  6
CONTINUOUS
 10
-0.197776
 20
-1.181028
  0
VERTEX
  8
PLAN_1
 62
     2
  6
CONTINUOUS
 10
-0.199339
 20
-1.183114
  0
VERTEX
  8
PLAN_1
 62
     2
  6
CONTINUOUS
 10
-0.201425
 20
-1.185197
  0
VERTEX
  8
PLAN_1
 62
     2
  6
CONTINUOUS
 10
-0.204028
 20
-1.186760
  0
VERTEX
  8
PLAN_1
 62
     2
  6
CONTINUOUS
 10
-0.205071
 20
-1.187280
  0
VERTEX
  8
PLAN_1
 62
     2
  6
CONTINUOUS
 10
-0.206114
 20
-1.188323
  0
VERTEX
  8
PLAN_1
 62
     2
  6
CONTINUOUS
 10
-0.207157
 20
-1.188846
  0
VERTEX
  8
PLAN_1
 62
     2
  6
CONTINUOUS
 10
-0.209240
 20
-1.189366
  0
VERTEX
  8
PLAN_1
 62
     2
  6
CONTINUOUS
 10
-0.210803
 20
-1.189886
  0
VERTEX
  8
PLAN_1
 62
     2
  6
CONTINUOUS
 10
-0.212890
 20
-1.190409
  0
VERTEX
  8
PLAN_1
 62
     2
  6
CONTINUOUS
 10
-0.215492
 20
-1.190409
  0
VERTEX
  8
PLAN_1
 62
     2
  6
CONTINUOUS
 10
-0.218618
 20
-1.190409
  0
VERTEX
  8
PLAN_1
 62
     2
  6
CONTINUOUS
 10
-0.221748
 20
-1.190409
  0
VERTEX
  8
PLAN_1
 62
     2
  6
CONTINUOUS
 10
-0.224350
 20
-1.189886
  0
VERTEX
  8
PLAN_1
 62
     2
  6
CONTINUOUS
 10
-0.226437
 20
-1.189366
  0
VERTEX
  8
PLAN_1
 62
     2
  6
CONTINUOUS
 10
-0.229043
 20
-1.188846
  0
VERTEX
  8
PLAN_1
 62
     2
  6
CONTINUOUS
 10
-0.231126
 20
-1.187280
  0
VERTEX
  8
PLAN_1
 62
     2
  6
CONTINUOUS
 10
-0.233209
 20
-1.186240
  0
VERTEX
  8
PLAN_1
 62
     2
  6
CONTINUOUS
 10
-0.234776
 20
-1.184677
  0
VERTEX
  8
PLAN_1
 62
     2
  6
CONTINUOUS
 10
-0.236858
 20
-1.183114
  0
VERTEX
  8
PLAN_1
 62
     2
  6
CONTINUOUS
 10
-0.239465
 20
-1.178945
  0
VERTEX
  8
PLAN_1
 62
     2
  6
CONTINUOUS
 10
-0.241547
 20
-1.174256
  0
VERTEX
  8
PLAN_1
 62
     2
  6
CONTINUOUS
 10
-0.242591
 20
-1.169043
  0
VERTEX
  8
PLAN_1
 62
     2
  6
CONTINUOUS
 10
-0.243110
 20
-1.163311
  0
VERTEX
  8
PLAN_1
 62
     2
  6
CONTINUOUS
 10
-0.242591
 20
-1.157059
  0
VERTEX
  8
PLAN_1
 62
     2
  6
CONTINUOUS
 10
-0.241547
 20
-1.151327
  0
VERTEX
  8
PLAN_1
 62
     2
  6
CONTINUOUS
 10
-0.240504
 20
-1.148720
  0
VERTEX
  8
PLAN_1
 62
     2
  6
CONTINUOUS
 10
-0.239465
 20
-1.146638
  0
VERTEX
  8
PLAN_1
 62
     2
  6
CONTINUOUS
 10
-0.238421
 20
-1.144031
  0
VERTEX
  8
PLAN_1
 62
     2
  6
CONTINUOUS
 10
-0.236858
 20
-1.141945
  0
VERTEX
  8
PLAN_1
 62
     2
  6
CONTINUOUS
 10
-0.235295
 20
-1.139862
  0
VERTEX
  8
PLAN_1
 62
     2
  6
CONTINUOUS
 10
-0.233209
 20
-1.138299
  0
VERTEX
  8
PLAN_1
 62
     2
  6
CONTINUOUS
 10
-0.231126
 20
-1.136736
  0
VERTEX
  8
PLAN_1
 62
     2
  6
CONTINUOUS
 10
-0.228520
 20
-1.135693
  0
VERTEX
  8
PLAN_1
 62
     2
  6
CONTINUOUS
 10
-0.225913
 20
-1.134650
  0
VERTEX
  8
PLAN_1
 62
     2
  6
CONTINUOUS
 10
-0.223311
 20
-1.133610
  0
VERTEX
  8
PLAN_1
 62
     2
  6
CONTINUOUS
 10
-0.220185
 20
-1.133087
  0
VERTEX
  8
PLAN_1
 62
     2
  6
CONTINUOUS
 10
-0.217055
 20
-1.133087
  0
VERTEX
  8
PLAN_1
 62
     2
  6
CONTINUOUS
 10
-0.213929
 20
-1.133087
  0
VERTEX
  8
PLAN_1
 62
     2
  6
CONTINUOUS
 10
-0.211323
 20
-1.133610
  0
VERTEX
  8
PLAN_1
 62
     2
  6
CONTINUOUS
 10
-0.208720
 20
-1.134650
  0
VERTEX
  8
PLAN_1
 62
     2
  6
CONTINUOUS
 10
-0.206634
 20
-1.135173
  0
VERTEX
  8
PLAN_1
 62
     2
  6
CONTINUOUS
 10
-0.204551
 20
-1.136736
  0
VERTEX
  8
PLAN_1
 62
     2
  6
CONTINUOUS
 10
-0.202465
 20
-1.138299
  0
VERTEX
  8
PLAN_1
 62
     2
  6
CONTINUOUS
 10
-0.200902
 20
-1.139862
  0
VERTEX
  8
PLAN_1
 62
     2
  6
CONTINUOUS
 10
-0.199339
 20
-1.141945
  0
VERTEX
  8
PLAN_1
 62
     2
  6
CONTINUOUS
 10
-0.196732
 20
-1.146114
  0
VERTEX
  8
PLAN_1
 62
     2
  6
CONTINUOUS
 10
-0.195169
 20
-1.151846
  0
VERTEX
  8
PLAN_1
 62
     2
  6
CONTINUOUS
 10
-0.194130
 20
-1.158098
  0
VERTEX
  8
PLAN_1
 62
     2
  6
CONTINUOUS
 10
-0.193606
 20
-1.164874
  0
VERTEX
  8
PLAN_1
 62
     2
  6
CONTINUOUS
 10
-0.233209
 20
-1.164874
  0
VERTEX
  8
PLAN_1
 62
     2
  6
CONTINUOUS
 10
-0.233209
 20
-1.169043
  0
VERTEX
  8
PLAN_1
 62
     2
  6
CONTINUOUS
 10
-0.232169
 20
-1.172169
  0
VERTEX
  8
PLAN_1
 62
     2
  6
CONTINUOUS
 10
-0.231126
 20
-1.175295
  0
VERTEX
  8
PLAN_1
 62
     2
  6
CONTINUOUS
 10
-0.229563
 20
-1.177902
  0
VERTEX
  8
PLAN_1
 62
     2
  6
CONTINUOUS
 10
-0.226957
 20
-1.179984
  0
VERTEX
  8
PLAN_1
 62
     2
  6
CONTINUOUS
 10
-0.224350
 20
-1.181551
  0
VERTEX
  8
PLAN_1
 62
     2
  6
CONTINUOUS
 10
-0.221224
 20
-1.182591
  0
VERTEX
  8
PLAN_1
 62
     2
  6
CONTINUOUS
 10
-0.217579
 20
-1.182591
  0
VERTEX
  8
PLAN_1
 62
     2
  6
CONTINUOUS
 10
-0.214453
 20
-1.182591
  0
VERTEX
  8
PLAN_1
 62
     2
  6
CONTINUOUS
 10
-0.211846
 20
-1.181551
  0
VERTEX
  8
PLAN_1
 62
     2
  6
CONTINUOUS
 10
-0.209240
 20
-1.180508
  0
VERTEX
  8
PLAN_1
 62
     2
  6
CONTINUOUS
 10
-0.207157
 20
-1.178945
  0
VERTEX
  8
PLAN_1
 62
     2
  6
CONTINUOUS
 10
-0.205594
 20
-1.177382
  0
VERTEX
  8
PLAN_1
 62
     2
  6
CONTINUOUS
 10
-0.204551
 20
-1.175295
  0
VERTEX
  8
PLAN_1
 62
     2
  6
CONTINUOUS
 10
-0.203508
 20
-1.173732
  0
VERTEX
  8
PLAN_1
 62
     2
  6
CONTINUOUS
 10
-0.203508
 20
-1.172169
  0
VERTEX
  8
PLAN_1
 62
     2
  6
CONTINUOUS
 10
-0.194130
 20
-1.172169
  0
SEQEND
  8
0
  0
POLYLINE
  8
PLAN_1
 62
     2
  6
CONTINUOUS
 66
     1
 40
0.003000
 41
0.003000
  0
VERTEX
  8
PLAN_1
 62
     2
  6
CONTINUOUS
 10
-0.202988
 20
-1.157579
  0
VERTEX
  8
PLAN_1
 62
     2
  6
CONTINUOUS
 10
-0.203508
 20
-1.154453
  0
VERTEX
  8
PLAN_1
 62
     2
  6
CONTINUOUS
 10
-0.204028
 20
-1.151327
  0
VERTEX
  8
PLAN_1
 62
     2
  6
CONTINUOUS
 10
-0.205071
 20
-1.148720
  0
VERTEX
  8
PLAN_1
 62
     2
  6
CONTINUOUS
 10
-0.206634
 20
-1.146114
  0
VERTEX
  8
PLAN_1
 62
     2
  6
CONTINUOUS
 10
-0.208720
 20
-1.144031
  0
VERTEX
  8
PLAN_1
 62
     2
  6
CONTINUOUS
 10
-0.211323
 20
-1.142469
  0
VERTEX
  8
PLAN_1
 62
     2
  6
CONTINUOUS
 10
-0.214453
 20
-1.141945
  0
VERTEX
  8
PLAN_1
 62
     2
  6
CONTINUOUS
 10
-0.218098
 20
-1.141425
  0
VERTEX
  8
PLAN_1
 62
     2
  6
CONTINUOUS
 10
-0.221224
 20
-1.141945
  0
VERTEX
  8
PLAN_1
 62
     2
  6
CONTINUOUS
 10
-0.224350
 20
-1.142469
  0
VERTEX
  8
PLAN_1
 62
     2
  6
CONTINUOUS
 10
-0.226437
 20
-1.144031
  0
VERTEX
  8
PLAN_1
 62
     2
  6
CONTINUOUS
 10
-0.229043
 20
-1.146114
  0
VERTEX
  8
PLAN_1
 62
     2
  6
CONTINUOUS
 10
-0.230606
 20
-1.148720
  0
VERTEX
  8
PLAN_1
 62
     2
  6
CONTINUOUS
 10
-0.232169
 20
-1.151327
  0
VERTEX
  8
PLAN_1
 62
     2
  6
CONTINUOUS
 10
-0.233209
 20
-1.154453
  0
VERTEX
  8
PLAN_1
 62
     2
  6
CONTINUOUS
 10
-0.233209
 20
-1.157579
  0
VERTEX
  8
PLAN_1
 62
     2
  6
CONTINUOUS
 10
-0.202988
 20
-1.157579
  0
SEQEND
  8
0
  0
POLYLINE
  8
PLAN_1
 62
     2
  6
CONTINUOUS
 66
     1
 40
0.003000
 41
0.003000
  0
VERTEX
  8
PLAN_1
 62
     2
  6
CONTINUOUS
 10
-0.154524
 20
-1.134650
  0
VERTEX
  8
PLAN_1
 62
     2
  6
CONTINUOUS
 10
-0.145665
 20
-1.134650
  0
VERTEX
  8
PLAN_1
 62
     2
  6
CONTINUOUS
 10
-0.145665
 20
-1.142469
  0
VERTEX
  8
PLAN_1
 62
     2
  6
CONTINUOUS
 10
-0.144626
 20
-1.140906
  0
VERTEX
  8
PLAN_1
 62
     2
  6
CONTINUOUS
 10
-0.143583
 20
-1.139862
  0
VERTEX
  8
PLAN_1
 62
     2
  6
CONTINUOUS
 10
-0.142020
 20
-1.138299
  0
VERTEX
  8
PLAN_1
 62
     2
  6
CONTINUOUS
 10
-0.140457
 20
-1.136736
  0
VERTEX
  8
PLAN_1
 62
     2
  6
CONTINUOUS
 10
-0.138370
 20
-1.135173
  0
VERTEX
  8
PLAN_1
 62
     2
  6
CONTINUOUS
 10
-0.135768
 20
-1.134130
  0
VERTEX
  8
PLAN_1
 62
     2
  6
CONTINUOUS
 10
-0.132638
 20
-1.133610
  0
VERTEX
  8
PLAN_1
 62
     2
  6
CONTINUOUS
 10
-0.129512
 20
-1.133087
  0
VERTEX
  8
PLAN_1
 62
     2
  6
CONTINUOUS
 10
-0.126906
 20
-1.133087
  0
VERTEX
  8
PLAN_1
 62
     2
  6
CONTINUOUS
 10
-0.124303
 20
-1.133610
  0
VERTEX
  8
PLAN_1
 62
     2
  6
CONTINUOUS
 10
-0.121697
 20
-1.134130
  0
VERTEX
  8
PLAN_1
 62
     2
  6
CONTINUOUS
 10
-0.119610
 20
-1.135173
  0
VERTEX
  8
PLAN_1
 62
     2
  6
CONTINUOUS
 10
-0.115965
 20
-1.137776
  0
VERTEX
  8
PLAN_1
 62
     2
  6
CONTINUOUS
 10
-0.112315
 20
-1.140906
  0
VERTEX
  8
PLAN_1
 62
     2
  6
CONTINUOUS
 10
-0.110232
 20
-1.145071
  0
VERTEX
  8
PLAN_1
 62
     2
  6
CONTINUOUS
 10
-0.108150
 20
-1.149764
  0
VERTEX
  8
PLAN_1
 62
     2
  6
CONTINUOUS
 10
-0.107106
 20
-1.154972
  0
VERTEX
  8
PLAN_1
 62
     2
  6
CONTINUOUS
 10
-0.106587
 20
-1.160185
  0
VERTEX
  8
PLAN_1
 62
     2
  6
CONTINUOUS
 10
-0.107106
 20
-1.165394
  0
VERTEX
  8
PLAN_1
 62
     2
  6
CONTINUOUS
 10
-0.107626
 20
-1.170606
  0
VERTEX
  8
PLAN_1
 62
     2
  6
CONTINUOUS
 10
-0.109189
 20
-1.175819
  0
VERTEX
  8
PLAN_1
 62
     2
  6
CONTINUOUS
 10
-0.111795
 20
-1.180508
  0
VERTEX
  8
PLAN_1
 62
     2
  6
CONTINUOUS
 10
-0.113358
 20
-1.182591
  0
VERTEX
  8
PLAN_1
 62
     2
  6
CONTINUOUS
 10
-0.114921
 20
-1.184677
  0
VERTEX
  8
PLAN_1
 62
     2
  6
CONTINUOUS
 10
-0.117008
 20
-1.186240
  0
VERTEX
  8
PLAN_1
 62
     2
  6
CONTINUOUS
 10
-0.119091
 20
-1.187803
  0
VERTEX
  8
PLAN_1
 62
     2
  6
CONTINUOUS
 10
-0.121697
 20
-1.188846
  0
VERTEX
  8
PLAN_1
 62
     2
  6
CONTINUOUS
 10
-0.124303
 20
-1.189886
  0
VERTEX
  8
PLAN_1
 62
     2
  6
CONTINUOUS
 10
-0.127429
 20
-1.190409
  0
VERTEX
  8
PLAN_1
 62
     2
  6
CONTINUOUS
 10
-0.130555
 20
-1.190409
  0
VERTEX
  8
PLAN_1
 62
     2
  6
CONTINUOUS
 10
-0.133161
 20
-1.190409
  0
VERTEX
  8
PLAN_1
 62
     2
  6
CONTINUOUS
 10
-0.135768
 20
-1.189886
  0
VERTEX
  8
PLAN_1
 62
     2
  6
CONTINUOUS
 10
-0.137850
 20
-1.189366
  0
VERTEX
  8
PLAN_1
 62
     2
  6
CONTINUOUS
 10
-0.139413
 20
-1.188323
  0
VERTEX
  8
PLAN_1
 62
     2
  6
CONTINUOUS
 10
-0.141500
 20
-1.187280
  0
VERTEX
  8
PLAN_1
 62
     2
  6
CONTINUOUS
 10
-0.142539
 20
-1.186240
  0
VERTEX
  8
PLAN_1
 62
     2
  6
CONTINUOUS
 10
-0.144102
 20
-1.184677
  0
VERTEX
  8
PLAN_1
 62
     2
  6
CONTINUOUS
 10
-0.145146
 20
-1.183114
  0
VERTEX
  8
PLAN_1
 62
     2
  6
CONTINUOUS
 10
-0.145146
 20
-1.210732
  0
VERTEX
  8
PLAN_1
 62
     2
  6
CONTINUOUS
 10
-0.154524
 20
-1.210732
  0
VERTEX
  8
PLAN_1
 62
     2
  6
CONTINUOUS
 10
-0.154524
 20
-1.134650
  0
SEQEND
  8
0
  0
POLYLINE
  8
PLAN_1
 62
     2
  6
CONTINUOUS
 66
     1
 40
0.003000
 41
0.003000
  0
VERTEX
  8
PLAN_1
 62
     2
  6
CONTINUOUS
 10
-0.130555
 20
-1.182591
  0
VERTEX
  8
PLAN_1
 62
     2
  6
CONTINUOUS
 10
-0.127429
 20
-1.182071
  0
VERTEX
  8
PLAN_1
 62
     2
  6
CONTINUOUS
 10
-0.124303
 20
-1.181028
  0
VERTEX
  8
PLAN_1
 62
     2
  6
CONTINUOUS
 10
-0.121697
 20
-1.179465
  0
VERTEX
  8
PLAN_1
 62
     2
  6
CONTINUOUS
 10
-0.119610
 20
-1.176858
  0
VERTEX
  8
PLAN_1
 62
     2
  6
CONTINUOUS
 10
-0.118047
 20
-1.173732
  0
VERTEX
  8
PLAN_1
 62
     2
  6
CONTINUOUS
 10
-0.117008
 20
-1.170087
  0
VERTEX
  8
PLAN_1
 62
     2
  6
CONTINUOUS
 10
-0.116484
 20
-1.165917
  0
VERTEX
  8
PLAN_1
 62
     2
  6
CONTINUOUS
 10
-0.115965
 20
-1.161748
  0
VERTEX
  8
PLAN_1
 62
     2
  6
CONTINUOUS
 10
-0.115965
 20
-1.158622
  0
VERTEX
  8
PLAN_1
 62
     2
  6
CONTINUOUS
 10
-0.116484
 20
-1.155496
  0
VERTEX
  8
PLAN_1
 62
     2
  6
CONTINUOUS
 10
-0.117008
 20
-1.152370
  0
VERTEX
  8
PLAN_1
 62
     2
  6
CONTINUOUS
 10
-0.118047
 20
-1.148720
  0
VERTEX
  8
PLAN_1
 62
     2
  6
CONTINUOUS
 10
-0.120134
 20
-1.146114
  0
VERTEX
  8
PLAN_1
 62
     2
  6
CONTINUOUS
 10
-0.122740
 20
-1.143508
  0
VERTEX
  8
PLAN_1
 62
     2
  6
CONTINUOUS
 10
-0.124303
 20
-1.142469
  0
VERTEX
  8
PLAN_1
 62
     2
  6
CONTINUOUS
 10
-0.126386
 20
-1.141945
  0
VERTEX
  8
PLAN_1
 62
     2
  6
CONTINUOUS
 10
-0.128472
 20
-1.141425
  0
VERTEX
  8
PLAN_1
 62
     2
  6
CONTINUOUS
 10
-0.131075
 20
-1.141425
  0
VERTEX
  8
PLAN_1
 62
     2
  6
CONTINUOUS
 10
-0.133161
 20
-1.141425
  0
VERTEX
  8
PLAN_1
 62
     2
  6
CONTINUOUS
 10
-0.135244
 20
-1.141945
  0
VERTEX
  8
PLAN_1
 62
     2
  6
CONTINUOUS
 10
-0.137331
 20
-1.142469
  0
VERTEX
  8
PLAN_1
 62
     2
  6
CONTINUOUS
 10
-0.138894
 20
-1.143508
  0
VERTEX
  8
PLAN_1
 62
     2
  6
CONTINUOUS
 10
-0.141500
 20
-1.146114
  0
VERTEX
  8
PLAN_1
 62
     2
  6
CONTINUOUS
 10
-0.143063
 20
-1.149764
  0
VERTEX
  8
PLAN_1
 62
     2
  6
CONTINUOUS
 10
-0.144626
 20
-1.153409
  0
VERTEX
  8
PLAN_1
 62
     2
  6
CONTINUOUS
 10
-0.145146
 20
-1.157059
  0
VERTEX
  8
PLAN_1
 62
     2
  6
CONTINUOUS
 10
-0.145665
 20
-1.160705
  0
VERTEX
  8
PLAN_1
 62
     2
  6
CONTINUOUS
 10
-0.145665
 20
-1.164354
  0
VERTEX
  8
PLAN_1
 62
     2
  6
CONTINUOUS
 10
-0.145146
 20
-1.169563
  0
VERTEX
  8
PLAN_1
 62
     2
  6
CONTINUOUS
 10
-0.144102
 20
-1.173213
  0
VERTEX
  8
PLAN_1
 62
     2
  6
CONTINUOUS
 10
-0.142539
 20
-1.176339
  0
VERTEX
  8
PLAN_1
 62
     2
  6
CONTINUOUS
 10
-0.140457
 20
-1.178945
  0
VERTEX
  8
PLAN_1
 62
     2
  6
CONTINUOUS
 10
-0.137850
 20
-1.180508
  0
VERTEX
  8
PLAN_1
 62
     2
  6
CONTINUOUS
 10
-0.135768
 20
-1.182071
  0
VERTEX
  8
PLAN_1
 62
     2
  6
CONTINUOUS
 10
-0.133161
 20
-1.182591
  0
VERTEX
  8
PLAN_1
 62
     2
  6
CONTINUOUS
 10
-0.130555
 20
-1.182591
  0
SEQEND
  8
0
  0
POLYLINE
  8
PLAN_1
 62
     2
  6
CONTINUOUS
 66
     1
 40
0.003000
 41
0.003000
  0
VERTEX
  8
PLAN_1
 62
     2
  6
CONTINUOUS
 10
-0.073756
 20
-1.133087
  0
VERTEX
  8
PLAN_1
 62
     2
  6
CONTINUOUS
 10
-0.070630
 20
-1.133087
  0
VERTEX
  8
PLAN_1
 62
     2
  6
CONTINUOUS
 10
-0.067504
 20
-1.133610
  0
VERTEX
  8
PLAN_1
 62
     2
  6
CONTINUOUS
 10
-0.064898
 20
-1.134650
  0
VERTEX
  8
PLAN_1
 62
     2
  6
CONTINUOUS
 10
-0.062291
 20
-1.135693
  0
VERTEX
  8
PLAN_1
 62
     2
  6
CONTINUOUS
 10
-0.060209
 20
-1.136736
  0
VERTEX
  8
PLAN_1
 62
     2
  6
CONTINUOUS
 10
-0.058122
 20
-1.138299
  0
VERTEX
  8
PLAN_1
 62
     2
  6
CONTINUOUS
 10
-0.056039
 20
-1.140382
  0
VERTEX
  8
PLAN_1
 62
     2
  6
CONTINUOUS
 10
-0.054476
 20
-1.142469
  0
VERTEX
  8
PLAN_1
 62
     2
  6
CONTINUOUS
 10
-0.051870
 20
-1.146638
  0
VERTEX
  8
PLAN_1
 62
     2
  6
CONTINUOUS
 10
-0.049787
 20
-1.151327
  0
VERTEX
  8
PLAN_1
 62
     2
  6
CONTINUOUS
 10
-0.048744
 20
-1.156535
  0
VERTEX
  8
PLAN_1
 62
     2
  6
CONTINUOUS
 10
-0.048220
 20
-1.161748
  0
VERTEX
  8
PLAN_1
 62
     2
  6
CONTINUOUS
 10
-0.048744
 20
-1.166961
  0
VERTEX
  8
PLAN_1
 62
     2
  6
CONTINUOUS
 10
-0.049787
 20
-1.172169
  0
VERTEX
  8
PLAN_1
 62
     2
  6
CONTINUOUS
 10
-0.051870
 20
-1.176858
  0
VERTEX
  8
PLAN_1
 62
     2
  6
CONTINUOUS
 10
-0.054476
 20
-1.181551
  0
VERTEX
  8
PLAN_1
 62
     2
  6
CONTINUOUS
 10
-0.056039
 20
-1.183634
  0
VERTEX
  8
PLAN_1
 62
     2
  6
CONTINUOUS
 10
-0.058122
 20
-1.185197
  0
VERTEX
  8
PLAN_1
 62
     2
  6
CONTINUOUS
 10
-0.060209
 20
-1.186760
  0
VERTEX
  8
PLAN_1
 62
     2
  6
CONTINUOUS
 10
-0.062291
 20
-1.187803
  0
VERTEX
  8
PLAN_1
 62
     2
  6
CONTINUOUS
 10
-0.064898
 20
-1.188846
  0
VERTEX
  8
PLAN_1
 62
     2
  6
CONTINUOUS
 10
-0.067504
 20
-1.189886
  0
VERTEX
  8
PLAN_1
 62
     2
  6
CONTINUOUS
 10
-0.070630
 20
-1.190409
  0
VERTEX
  8
PLAN_1
 62
     2
  6
CONTINUOUS
 10
-0.073756
 20
-1.190409
  0
VERTEX
  8
PLAN_1
 62
     2
  6
CONTINUOUS
 10
-0.076882
 20
-1.190409
  0
VERTEX
  8
PLAN_1
 62
     2
  6
CONTINUOUS
 10
-0.079488
 20
-1.189886
  0
VERTEX
  8
PLAN_1
 62
     2
  6
CONTINUOUS
 10
-0.082614
 20
-1.188846
  0
VERTEX
  8
PLAN_1
 62
     2
  6
CONTINUOUS
 10
-0.084701
 20
-1.187803
  0
VERTEX
  8
PLAN_1
 62
     2
  6
CONTINUOUS
 10
-0.087303
 20
-1.186760
  0
VERTEX
  8
PLAN_1
 62
     2
  6
CONTINUOUS
 10
-0.089390
 20
-1.185197
  0
VERTEX
  8
PLAN_1
 62
     2
  6
CONTINUOUS
 10
-0.090953
 20
-1.183634
  0
VERTEX
  8
PLAN_1
 62
     2
  6
CONTINUOUS
 10
-0.092516
 20
-1.181551
  0
VERTEX
  8
PLAN_1
 62
     2
  6
CONTINUOUS
 10
-0.095642
 20
-1.176858
  0
VERTEX
  8
PLAN_1
 62
     2
  6
CONTINUOUS
 10
-0.097205
 20
-1.172169
  0
VERTEX
  8
PLAN_1
 62
     2
  6
CONTINUOUS
 10
-0.098248
 20
-1.166961
  0
VERTEX
  8
PLAN_1
 62
     2
  6
CONTINUOUS
 10
-0.098768
 20
-1.161748
  0
VERTEX
  8
PLAN_1
 62
     2
  6
CONTINUOUS
 10
-0.098248
 20
-1.156535
  0
VERTEX
  8
PLAN_1
 62
     2
  6
CONTINUOUS
 10
-0.097205
 20
-1.151327
  0
VERTEX
  8
PLAN_1
 62
     2
  6
CONTINUOUS
 10
-0.095642
 20
-1.146638
  0
VERTEX
  8
PLAN_1
 62
     2
  6
CONTINUOUS
 10
-0.092516
 20
-1.142469
  0
VERTEX
  8
PLAN_1
 62
     2
  6
CONTINUOUS
 10
-0.090953
 20
-1.140382
  0
VERTEX
  8
PLAN_1
 62
     2
  6
CONTINUOUS
 10
-0.089390
 20
-1.138299
  0
VERTEX
  8
PLAN_1
 62
     2
  6
CONTINUOUS
 10
-0.087303
 20
-1.136736
  0
VERTEX
  8
PLAN_1
 62
     2
  6
CONTINUOUS
 10
-0.084701
 20
-1.135693
  0
VERTEX
  8
PLAN_1
 62
     2
  6
CONTINUOUS
 10
-0.082614
 20
-1.134650
  0
VERTEX
  8
PLAN_1
 62
     2
  6
CONTINUOUS
 10
-0.079488
 20
-1.133610
  0
VERTEX
  8
PLAN_1
 62
     2
  6
CONTINUOUS
 10
-0.076882
 20
-1.133087
  0
VERTEX
  8
PLAN_1
 62
     2
  6
CONTINUOUS
 10
-0.073756
 20
-1.133087
  0
SEQEND
  8
0
  0
POLYLINE
  8
PLAN_1
 62
     2
  6
CONTINUOUS
 66
     1
 40
0.003000
 41
0.003000
  0
VERTEX
  8
PLAN_1
 62
     2
  6
CONTINUOUS
 10
-0.073756
 20
-1.182591
  0
VERTEX
  8
PLAN_1
 62
     2
  6
CONTINUOUS
 10
-0.071150
 20
-1.182591
  0
VERTEX
  8
PLAN_1
 62
     2
  6
CONTINUOUS
 10
-0.069067
 20
-1.182071
  0
VERTEX
  8
PLAN_1
 62
     2
  6
CONTINUOUS
 10
-0.067504
 20
-1.181551
  0
VERTEX
  8
PLAN_1
 62
     2
  6
CONTINUOUS
 10
-0.065417
 20
-1.180508
  0
VERTEX
  8
PLAN_1
 62
     2
  6
CONTINUOUS
 10
-0.062811
 20
-1.177902
  0
VERTEX
  8
PLAN_1
 62
     2
  6
CONTINUOUS
 10
-0.060728
 20
-1.174776
  0
VERTEX
  8
PLAN_1
 62
     2
  6
CONTINUOUS
 10
-0.059165
 20
-1.171650
  0
VERTEX
  8
PLAN_1
 62
     2
  6
CONTINUOUS
 10
-0.058646
 20
-1.168000
  0
VERTEX
  8
PLAN_1
 62
     2
  6
CONTINUOUS
 10
-0.058122
 20
-1.164874
  0
VERTEX
  8
PLAN_1
 62
     2
  6
CONTINUOUS
 10
-0.057602
 20
-1.161748
  0
VERTEX
  8
PLAN_1
 62
     2
  6
CONTINUOUS
 10
-0.058122
 20
-1.158622
  0
VERTEX
  8
PLAN_1
 62
     2
  6
CONTINUOUS
 10
-0.058646
 20
-1.155496
  0
VERTEX
  8
PLAN_1
 62
     2
  6
CONTINUOUS
 10
-0.059165
 20
-1.151846
  0
VERTEX
  8
PLAN_1
 62
     2
  6
CONTINUOUS
 10
-0.060728
 20
-1.148720
  0
VERTEX
  8
PLAN_1
 62
     2
  6
CONTINUOUS
 10
-0.062811
 20
-1.145594
  0
VERTEX
  8
PLAN_1
 62
     2
  6
CONTINUOUS
 10
-0.065417
 20
-1.143508
  0
VERTEX
  8
PLAN_1
 62
     2
  6
CONTINUOUS
 10
-0.067504
 20
-1.142469
  0
VERTEX
  8
PLAN_1
 62
     2
  6
CONTINUOUS
 10
-0.069067
 20
-1.141425
  0
VERTEX
  8
PLAN_1
 62
     2
  6
CONTINUOUS
 10
-0.071150
 20
-1.141425
  0
VERTEX
  8
PLAN_1
 62
     2
  6
CONTINUOUS
 10
-0.073756
 20
-1.140906
  0
VERTEX
  8
PLAN_1
 62
     2
  6
CONTINUOUS
 10
-0.075839
 20
-1.141425
  0
VERTEX
  8
PLAN_1
 62
     2
  6
CONTINUOUS
 10
-0.077925
 20
-1.141425
  0
VERTEX
  8
PLAN_1
 62
     2
  6
CONTINUOUS
 10
-0.080008
 20
-1.142469
  0
VERTEX
  8
PLAN_1
 62
     2
  6
CONTINUOUS
 10
-0.081571
 20
-1.143508
  0
VERTEX
  8
PLAN_1
 62
     2
  6
CONTINUOUS
 10
-0.084177
 20
-1.145594
  0
VERTEX
  8
PLAN_1
 62
     2
  6
CONTINUOUS
 10
-0.086264
 20
-1.148720
  0
VERTEX
  8
PLAN_1
 62
     2
  6
CONTINUOUS
 10
-0.087827
 20
-1.151846
  0
VERTEX
  8
PLAN_1
 62
     2
  6
CONTINUOUS
 10
-0.088866
 20
-1.155496
  0
VERTEX
  8
PLAN_1
 62
     2
  6
CONTINUOUS
 10
-0.089390
 20
-1.158622
  0
VERTEX
  8
PLAN_1
 62
     2
  6
CONTINUOUS
 10
-0.089390
 20
-1.161748
  0
VERTEX
  8
PLAN_1
 62
     2
  6
CONTINUOUS
 10
-0.089390
 20
-1.164874
  0
VERTEX
  8
PLAN_1
 62
     2
  6
CONTINUOUS
 10
-0.088866
 20
-1.168000
  0
VERTEX
  8
PLAN_1
 62
     2
  6
CONTINUOUS
 10
-0.087827
 20
-1.171650
  0
VERTEX
  8
PLAN_1
 62
     2
  6
CONTINUOUS
 10
-0.086264
 20
-1.174776
  0
VERTEX
  8
PLAN_1
 62
     2
  6
CONTINUOUS
 10
-0.084177
 20
-1.177902
  0
VERTEX
  8
PLAN_1
 62
     2
  6
CONTINUOUS
 10
-0.081571
 20
-1.180508
  0
VERTEX
  8
PLAN_1
 62
     2
  6
CONTINUOUS
 10
-0.080008
 20
-1.181551
  0
VERTEX
  8
PLAN_1
 62
     2
  6
CONTINUOUS
 10
-0.077925
 20
-1.182071
  0
VERTEX
  8
PLAN_1
 62
     2
  6
CONTINUOUS
 10
-0.075839
 20
-1.182591
  0
VERTEX
  8
PLAN_1
 62
     2
  6
CONTINUOUS
 10
-0.073756
 20
-1.182591
  0
SEQEND
  8
0
  0
POLYLINE
  8
PLAN_1
 62
     2
  6
CONTINUOUS
 66
     1
 40
0.003000
 41
0.003000
  0
VERTEX
  8
PLAN_1
 62
     2
  6
CONTINUOUS
 10
-0.002366
 20
-1.188846
  0
VERTEX
  8
PLAN_1
 62
     2
  6
CONTINUOUS
 10
-0.002366
 20
-1.181028
  0
VERTEX
  8
PLAN_1
 62
     2
  6
CONTINUOUS
 10
-0.003929
 20
-1.183114
  0
VERTEX
  8
PLAN_1
 62
     2
  6
CONTINUOUS
 10
-0.005492
 20
-1.185197
  0
VERTEX
  8
PLAN_1
 62
     2
  6
CONTINUOUS
 10
-0.007579
 20
-1.186760
  0
VERTEX
  8
PLAN_1
 62
     2
  6
CONTINUOUS
 10
-0.009661
 20
-1.188323
  0
VERTEX
  8
PLAN_1
 62
     2
  6
CONTINUOUS
 10
-0.011744
 20
-1.189366
  0
VERTEX
  8
PLAN_1
 62
     2
  6
CONTINUOUS
 10
-0.013831
 20
-1.189886
  0
VERTEX
  8
PLAN_1
 62
     2
  6
CONTINUOUS
 10
-0.016957
 20
-1.190409
  0
VERTEX
  8
PLAN_1
 62
     2
  6
CONTINUOUS
 10
-0.020083
 20
-1.190409
  0
VERTEX
  8
PLAN_1
 62
     2
  6
CONTINUOUS
 10
-0.022689
 20
-1.190409
  0
VERTEX
  8
PLAN_1
 62
     2
  6
CONTINUOUS
 10
-0.025815
 20
-1.189886
  0
VERTEX
  8
PLAN_1
 62
     2
  6
CONTINUOUS
 10
-0.028941
 20
-1.188846
  0
VERTEX
  8
PLAN_1
 62
     2
  6
CONTINUOUS
 10
-0.031547
 20
-1.187280
  0
VERTEX
  8
PLAN_1
 62
     2
  6
CONTINUOUS
 10
-0.034154
 20
-1.184677
  0
VERTEX
  8
PLAN_1
 62
     2
  6
CONTINUOUS
 10
-0.035717
 20
-1.182071
  0
VERTEX
  8
PLAN_1
 62
     2
  6
CONTINUOUS
 10
-0.037280
 20
-1.178421
  0
VERTEX
  8
PLAN_1
 62
     2
  6
CONTINUOUS
 10
-0.037799
 20
-1.173732
  0
VERTEX
  8
PLAN_1
 62
     2
  6
CONTINUOUS
 10
-0.037799
 20
-1.134650
  0
VERTEX
  8
PLAN_1
 62
     2
  6
CONTINUOUS
 10
-0.028421
 20
-1.134650
  0
VERTEX
  8
PLAN_1
 62
     2
  6
CONTINUOUS
 10
-0.028421
 20
-1.170606
  0
VERTEX
  8
PLAN_1
 62
     2
  6
CONTINUOUS
 10
-0.028421
 20
-1.173732
  0
VERTEX
  8
PLAN_1
 62
     2
  6
CONTINUOUS
 10
-0.027378
 20
-1.176339
  0
VERTEX
  8
PLAN_1
 62
     2
  6
CONTINUOUS
 10
-0.026858
 20
-1.178421
  0
VERTEX
  8
PLAN_1
 62
     2
  6
CONTINUOUS
 10
-0.025295
 20
-1.179984
  0
VERTEX
  8
PLAN_1
 62
     2
  6
CONTINUOUS
 10
-0.023732
 20
-1.181551
  0
VERTEX
  8
PLAN_1
 62
     2
  6
CONTINUOUS
 10
-0.022169
 20
-1.182071
  0
VERTEX
  8
PLAN_1
 62
     2
  6
CONTINUOUS
 10
-0.020083
 20
-1.182591
  0
VERTEX
  8
PLAN_1
 62
     2
  6
CONTINUOUS
 10
-0.018000
 20
-1.182591
  0
VERTEX
  8
PLAN_1
 62
     2
  6
CONTINUOUS
 10
-0.013831
 20
-1.182071
  0
VERTEX
  8
PLAN_1
 62
     2
  6
CONTINUOUS
 10
-0.010705
 20
-1.181028
  0
VERTEX
  8
PLAN_1
 62
     2
  6
CONTINUOUS
 10
-0.008098
 20
-1.178945
  0
VERTEX
  8
PLAN_1
 62
     2
  6
CONTINUOUS
 10
-0.006012
 20
-1.176858
  0
VERTEX
  8
PLAN_1
 62
     2
  6
CONTINUOUS
 10
-0.004449
 20
-1.173732
  0
VERTEX
  8
PLAN_1
 62
     2
  6
CONTINUOUS
 10
-0.003409
 20
-1.170606
  0
VERTEX
  8
PLAN_1
 62
     2
  6
CONTINUOUS
 10
-0.002886
 20
-1.167480
  0
VERTEX
  8
PLAN_1
 62
     2
  6
CONTINUOUS
 10
-0.002886
 20
-1.164874
  0
VERTEX
  8
PLAN_1
 62
     2
  6
CONTINUOUS
 10
-0.002886
 20
-1.134650
  0
VERTEX
  8
PLAN_1
 62
     2
  6
CONTINUOUS
 10
0.006492
 20
-1.134650
  0
VERTEX
  8
PLAN_1
 62
     2
  6
CONTINUOUS
 10
0.006492
 20
-1.188846
  0
VERTEX
  8
PLAN_1
 62
     2
  6
CONTINUOUS
 10
-0.002366
 20
-1.188846
  0
SEQEND
  8
0
  0
POLYLINE
  8
PLAN_1
 62
     2
  6
CONTINUOUS
 66
     1
 40
0.003000
 41
0.003000
  0
VERTEX
  8
PLAN_1
 62
     2
  6
CONTINUOUS
 10
0.030465
 20
-1.188846
  0
VERTEX
  8
PLAN_1
 62
     2
  6
CONTINUOUS
 10
0.021083
 20
-1.188846
  0
VERTEX
  8
PLAN_1
 62
     2
  6
CONTINUOUS
 10
0.021083
 20
-1.134650
  0
VERTEX
  8
PLAN_1
 62
     2
  6
CONTINUOUS
 10
0.029941
 20
-1.134650
  0
VERTEX
  8
PLAN_1
 62
     2
  6
CONTINUOUS
 10
0.029941
 20
-1.143508
  0
VERTEX
  8
PLAN_1
 62
     2
  6
CONTINUOUS
 10
0.031504
 20
-1.141425
  0
VERTEX
  8
PLAN_1
 62
     2
  6
CONTINUOUS
 10
0.033067
 20
-1.139343
  0
VERTEX
  8
PLAN_1
 62
     2
  6
CONTINUOUS
 10
0.034630
 20
-1.137776
  0
VERTEX
  8
PLAN_1
 62
     2
  6
CONTINUOUS
 10
0.036717
 20
-1.136213
  0
VERTEX
  8
PLAN_1
 62
     2
  6
CONTINUOUS
 10
0.038280
 20
-1.134650
  0
VERTEX
  8
PLAN_1
 62
     2
  6
CONTINUOUS
 10
0.040362
 20
-1.134130
  0
VERTEX
  8
PLAN_1
 62
     2
  6
CONTINUOUS
 10
0.042969
 20
-1.133087
  0
VERTEX
  8
PLAN_1
 62
     2
  6
CONTINUOUS
 10
0.045575
 20
-1.133087
  0
VERTEX
  8
PLAN_1
 62
     2
  6
CONTINUOUS
 10
0.046094
 20
-1.133087
  0
VERTEX
  8
PLAN_1
 62
     2
  6
CONTINUOUS
 10
0.046618
 20
-1.133087
  0
VERTEX
  8
PLAN_1
 62
     2
  6
CONTINUOUS
 10
0.047138
 20
-1.133087
  0
VERTEX
  8
PLAN_1
 62
     2
  6
CONTINUOUS
 10
0.047657
 20
-1.133610
  0
VERTEX
  8
PLAN_1
 62
     2
  6
CONTINUOUS
 10
0.047657
 20
-1.142988
  0
VERTEX
  8
PLAN_1
 62
     2
  6
CONTINUOUS
 10
0.044531
 20
-1.142988
  0
VERTEX
  8
PLAN_1
 62
     2
  6
CONTINUOUS
 10
0.041406
 20
-1.142988
  0
VERTEX
  8
PLAN_1
 62
     2
  6
CONTINUOUS
 10
0.038799
 20
-1.144031
  0
VERTEX
  8
PLAN_1
 62
     2
  6
CONTINUOUS
 10
0.036197
 20
-1.145594
  0
VERTEX
  8
PLAN_1
 62
     2
  6
CONTINUOUS
 10
0.034110
 20
-1.147157
  0
VERTEX
  8
PLAN_1
 62
     2
  6
CONTINUOUS
 10
0.032547
 20
-1.149240
  0
VERTEX
  8
PLAN_1
 62
     2
  6
CONTINUOUS
 10
0.031504
 20
-1.151846
  0
VERTEX
  8
PLAN_1
 62
     2
  6
CONTINUOUS
 10
0.030465
 20
-1.154453
  0
VERTEX
  8
PLAN_1
 62
     2
  6
CONTINUOUS
 10
0.030465
 20
-1.157579
  0
VERTEX
  8
PLAN_1
 62
     2
  6
CONTINUOUS
 10
0.030465
 20
-1.188846
  0
SEQEND
  8
0
  0
POLYLINE
  8
PLAN_1
 62
     2
  6
CONTINUOUS
 66
     1
 40
0.003000
 41
0.003000
  0
VERTEX
  8
PLAN_1
 62
     2
  6
CONTINUOUS
 10
-0.818398
 20
-1.267008
  0
VERTEX
  8
PLAN_1
 62
     2
  6
CONTINUOUS
 10
-0.818398
 20
-1.302445
  0
VERTEX
  8
PLAN_1
 62
     2
  6
CONTINUOUS
 10
-0.818398
 20
-1.304008
  0
VERTEX
  8
PLAN_1
 62
     2
  6
CONTINUOUS
 10
-0.817878
 20
-1.305047
  0
VERTEX
  8
PLAN_1
 62
     2
  6
CONTINUOUS
 10
-0.817358
 20
-1.305571
  0
VERTEX
  8
PLAN_1
 62
     2
  6
CONTINUOUS
 10
-0.816315
 20
-1.306091
  0
VERTEX
  8
PLAN_1
 62
     2
  6
CONTINUOUS
 10
-0.815272
 20
-1.306610
  0
VERTEX
  8
PLAN_1
 62
     2
  6
CONTINUOUS
 10
-0.814752
 20
-1.306610
  0
VERTEX
  8
PLAN_1
 62
     2
  6
CONTINUOUS
 10
-0.813709
 20
-1.306610
  0
VERTEX
  8
PLAN_1
 62
     2
  6
CONTINUOUS
 10
-0.812665
 20
-1.306610
  0
VERTEX
  8
PLAN_1
 62
     2
  6
CONTINUOUS
 10
-0.809539
 20
-1.306610
  0
VERTEX
  8
PLAN_1
 62
     2
  6
CONTINUOUS
 10
-0.809539
 20
-1.313906
  0
VERTEX
  8
PLAN_1
 62
     2
  6
CONTINUOUS
 10
-0.811102
 20
-1.313906
  0
VERTEX
  8
PLAN_1
 62
     2
  6
CONTINUOUS
 10
-0.812146
 20
-1.314429
  0
VERTEX
  8
PLAN_1
 62
     2
  6
CONTINUOUS
 10
-0.813189
 20
-1.314429
  0
VERTEX
  8
PLAN_1
 62
     2
  6
CONTINUOUS
 10
-0.814228
 20
-1.314429
  0
VERTEX
  8
PLAN_1
 62
     2
  6
CONTINUOUS
 10
-0.814752
 20
-1.314429
  0
VERTEX
  8
PLAN_1
 62
     2
  6
CONTINUOUS
 10
-0.815795
 20
-1.314949
  0
VERTEX
  8
PLAN_1
 62
     2
  6
CONTINUOUS
 10
-0.816315
 20
-1.314949
  0
VERTEX
  8
PLAN_1
 62
     2
  6
CONTINUOUS
 10
-0.819441
 20
-1.314429
  0
VERTEX
  8
PLAN_1
 62
     2
  6
CONTINUOUS
 10
-0.822047
 20
-1.313906
  0
VERTEX
  8
PLAN_1
 62
     2
  6
CONTINUOUS
 10
-0.824130
 20
-1.312866
  0
VERTEX
  8
PLAN_1
 62
     2
  6
CONTINUOUS
 10
-0.825693
 20
-1.311303
  0
VERTEX
  8
PLAN_1
 62
     2
  6
CONTINUOUS
 10
-0.826217
 20
-1.309740
  0
VERTEX
  8
PLAN_1
 62
     2
  6
CONTINUOUS
 10
-0.827256
 20
-1.307654
  0
VERTEX
  8
PLAN_1
 62
     2
  6
CONTINUOUS
 10
-0.827256
 20
-1.305571
  0
VERTEX
  8
PLAN_1
 62
     2
  6
CONTINUOUS
 10
-0.827780
 20
-1.302965
  0
VERTEX
  8
PLAN_1
 62
     2
  6
CONTINUOUS
 10
-0.827780
 20
-1.267008
  0
VERTEX
  8
PLAN_1
 62
     2
  6
CONTINUOUS
 10
-0.835075
 20
-1.267008
  0
VERTEX
  8
PLAN_1
 62
     2
  6
CONTINUOUS
 10
-0.835075
 20
-1.259713
  0
VERTEX
  8
PLAN_1
 62
     2
  6
CONTINUOUS
 10
-0.827780
 20
-1.259713
  0
VERTEX
  8
PLAN_1
 62
     2
  6
CONTINUOUS
 10
-0.827780
 20
-1.244602
  0
VERTEX
  8
PLAN_1
 62
     2
  6
CONTINUOUS
 10
-0.818398
 20
-1.244602
  0
VERTEX
  8
PLAN_1
 62
     2
  6
CONTINUOUS
 10
-0.818398
 20
-1.259713
  0
VERTEX
  8
PLAN_1
 62
     2
  6
CONTINUOUS
 10
-0.809539
 20
-1.259713
  0
VERTEX
  8
PLAN_1
 62
     2
  6
CONTINUOUS
 10
-0.809539
 20
-1.267008
  0
VERTEX
  8
PLAN_1
 62
     2
  6
CONTINUOUS
 10
-0.818398
 20
-1.267008
  0
SEQEND
  8
0
  0
POLYLINE
  8
PLAN_1
 62
     2
  6
CONTINUOUS
 66
     1
 40
0.003000
 41
0.003000
  0
VERTEX
  8
PLAN_1
 62
     2
  6
CONTINUOUS
 10
-0.765248
 20
-1.313906
  0
VERTEX
  8
PLAN_1
 62
     2
  6
CONTINUOUS
 10
-0.765248
 20
-1.306091
  0
VERTEX
  8
PLAN_1
 62
     2
  6
CONTINUOUS
 10
-0.766811
 20
-1.308173
  0
VERTEX
  8
PLAN_1
 62
     2
  6
CONTINUOUS
 10
-0.768374
 20
-1.310260
  0
VERTEX
  8
PLAN_1
 62
     2
  6
CONTINUOUS
 10
-0.770457
 20
-1.311823
  0
VERTEX
  8
PLAN_1
 62
     2
  6
CONTINUOUS
 10
-0.772020
 20
-1.313386
  0
VERTEX
  8
PLAN_1
 62
     2
  6
CONTINUOUS
 10
-0.774626
 20
-1.314429
  0
VERTEX
  8
PLAN_1
 62
     2
  6
CONTINUOUS
 10
-0.776713
 20
-1.314949
  0
VERTEX
  8
PLAN_1
 62
     2
  6
CONTINUOUS
 10
-0.779839
 20
-1.315472
  0
VERTEX
  8
PLAN_1
 62
     2
  6
CONTINUOUS
 10
-0.782965
 20
-1.315472
  0
VERTEX
  8
PLAN_1
 62
     2
  6
CONTINUOUS
 10
-0.785571
 20
-1.315472
  0
VERTEX
  8
PLAN_1
 62
     2
  6
CONTINUOUS
 10
-0.788697
 20
-1.314949
  0
VERTEX
  8
PLAN_1
 62
     2
  6
CONTINUOUS
 10
-0.791823
 20
-1.313906
  0
VERTEX
  8
PLAN_1
 62
     2
  6
CONTINUOUS
 10
-0.794429
 20
-1.311823
  0
VERTEX
  8
PLAN_1
 62
     2
  6
CONTINUOUS
 10
-0.797035
 20
-1.309740
  0
VERTEX
  8
PLAN_1
 62
     2
  6
CONTINUOUS
 10
-0.798598
 20
-1.306610
  0
VERTEX
  8
PLAN_1
 62
     2
  6
CONTINUOUS
 10
-0.800161
 20
-1.302965
  0
VERTEX
  8
PLAN_1
 62
     2
  6
CONTINUOUS
 10
-0.800161
 20
-1.298795
  0
VERTEX
  8
PLAN_1
 62
     2
  6
CONTINUOUS
 10
-0.800161
 20
-1.259713
  0
VERTEX
  8
PLAN_1
 62
     2
  6
CONTINUOUS
 10
-0.791303
 20
-1.259713
  0
VERTEX
  8
PLAN_1
 62
     2
  6
CONTINUOUS
 10
-0.791303
 20
-1.295669
  0
VERTEX
  8
PLAN_1
 62
     2
  6
CONTINUOUS
 10
-0.791303
 20
-1.298795
  0
VERTEX
  8
PLAN_1
 62
     2
  6
CONTINUOUS
 10
-0.790260
 20
-1.301402
  0
VERTEX
  8
PLAN_1
 62
     2
  6
CONTINUOUS
 10
-0.789740
 20
-1.303484
  0
VERTEX
  8
PLAN_1
 62
     2
  6
CONTINUOUS
 10
-0.788177
 20
-1.305047
  0
VERTEX
  8
PLAN_1
 62
     2
  6
CONTINUOUS
 10
-0.786614
 20
-1.306091
  0
VERTEX
  8
PLAN_1
 62
     2
  6
CONTINUOUS
 10
-0.785047
 20
-1.307134
  0
VERTEX
  8
PLAN_1
 62
     2
  6
CONTINUOUS
 10
-0.782965
 20
-1.307654
  0
VERTEX
  8
PLAN_1
 62
     2
  6
CONTINUOUS
 10
-0.780882
 20
-1.307654
  0
VERTEX
  8
PLAN_1
 62
     2
  6
CONTINUOUS
 10
-0.776713
 20
-1.307134
  0
VERTEX
  8
PLAN_1
 62
     2
  6
CONTINUOUS
 10
-0.773587
 20
-1.306091
  0
VERTEX
  8
PLAN_1
 62
     2
  6
CONTINUOUS
 10
-0.770980
 20
-1.304008
  0
VERTEX
  8
PLAN_1
 62
     2
  6
CONTINUOUS
 10
-0.768894
 20
-1.301402
  0
VERTEX
  8
PLAN_1
 62
     2
  6
CONTINUOUS
 10
-0.767331
 20
-1.298795
  0
VERTEX
  8
PLAN_1
 62
     2
  6
CONTINUOUS
 10
-0.766291
 20
-1.295669
  0
VERTEX
  8
PLAN_1
 62
     2
  6
CONTINUOUS
 10
-0.765768
 20
-1.292543
  0
VERTEX
  8
PLAN_1
 62
     2
  6
CONTINUOUS
 10
-0.765768
 20
-1.289417
  0
VERTEX
  8
PLAN_1
 62
     2
  6
CONTINUOUS
 10
-0.765768
 20
-1.259713
  0
VERTEX
  8
PLAN_1
 62
     2
  6
CONTINUOUS
 10
-0.756390
 20
-1.259713
  0
VERTEX
  8
PLAN_1
 62
     2
  6
CONTINUOUS
 10
-0.756390
 20
-1.313906
  0
VERTEX
  8
PLAN_1
 62
     2
  6
CONTINUOUS
 10
-0.765248
 20
-1.313906
  0
SEQEND
  8
0
  0
POLYLINE
  8
PLAN_1
 62
     2
  6
CONTINUOUS
 66
     1
 40
0.003000
 41
0.003000
  0
VERTEX
  8
PLAN_1
 62
     2
  6
CONTINUOUS
 10
-0.743362
 20
-1.313906
  0
VERTEX
  8
PLAN_1
 62
     2
  6
CONTINUOUS
 10
-0.743362
 20
-1.239390
  0
VERTEX
  8
PLAN_1
 62
     2
  6
CONTINUOUS
 10
-0.734504
 20
-1.239390
  0
VERTEX
  8
PLAN_1
 62
     2
  6
CONTINUOUS
 10
-0.734504
 20
-1.266488
  0
VERTEX
  8
PLAN_1
 62
     2
  6
CONTINUOUS
 10
-0.733980
 20
-1.266488
  0
VERTEX
  8
PLAN_1
 62
     2
  6
CONTINUOUS
 10
-0.732417
 20
-1.264402
  0
VERTEX
  8
PLAN_1
 62
     2
  6
CONTINUOUS
 10
-0.730854
 20
-1.262839
  0
VERTEX
  8
PLAN_1
 62
     2
  6
CONTINUOUS
 10
-0.729291
 20
-1.261276
  0
VERTEX
  8
PLAN_1
 62
     2
  6
CONTINUOUS
 10
-0.727209
 20
-1.260236
  0
VERTEX
  8
PLAN_1
 62
     2
  6
CONTINUOUS
 10
-0.725122
 20
-1.259193
  0
VERTEX
  8
PLAN_1
 62
     2
  6
CONTINUOUS
 10
-0.723039
 20
-1.258673
  0
VERTEX
  8
PLAN_1
 62
     2
  6
CONTINUOUS
 10
-0.720953
 20
-1.258150
  0
VERTEX
  8
PLAN_1
 62
     2
  6
CONTINUOUS
 10
-0.718350
 20
-1.258150
  0
VERTEX
  8
PLAN_1
 62
     2
  6
CONTINUOUS
 10
-0.715744
 20
-1.258150
  0
VERTEX
  8
PLAN_1
 62
     2
  6
CONTINUOUS
 10
-0.713138
 20
-1.258673
  0
VERTEX
  8
PLAN_1
 62
     2
  6
CONTINUOUS
 10
-0.711055
 20
-1.259193
  0
VERTEX
  8
PLAN_1
 62
     2
  6
CONTINUOUS
 10
-0.708969
 20
-1.260236
  0
VERTEX
  8
PLAN_1
 62
     2
  6
CONTINUOUS
 10
-0.704799
 20
-1.262839
  0
VERTEX
  8
PLAN_1
 62
     2
  6
CONTINUOUS
 10
-0.701673
 20
-1.265969
  0
VERTEX
  8
PLAN_1
 62
     2
  6
CONTINUOUS
 10
-0.699067
 20
-1.270134
  0
VERTEX
  8
PLAN_1
 62
     2
  6
CONTINUOUS
 10
-0.697504
 20
-1.274303
  0
VERTEX
  8
PLAN_1
 62
     2
  6
CONTINUOUS
 10
-0.695941
 20
-1.279516
  0
VERTEX
  8
PLAN_1
 62
     2
  6
CONTINUOUS
 10
-0.695941
 20
-1.285248
  0
VERTEX
  8
PLAN_1
 62
     2
  6
CONTINUOUS
 10
-0.695941
 20
-1.290457
  0
VERTEX
  8
PLAN_1
 62
     2
  6
CONTINUOUS
 10
-0.696984
 20
-1.295669
  0
VERTEX
  8
PLAN_1
 62
     2
  6
CONTINUOUS
 10
-0.698547
 20
-1.300358
  0
VERTEX
  8
PLAN_1
 62
     2
  6
CONTINUOUS
 10
-0.700630
 20
-1.305047
  0
VERTEX
  8
PLAN_1
 62
     2
  6
CONTINUOUS
 10
-0.702197
 20
-1.307654
  0
VERTEX
  8
PLAN_1
 62
     2
  6
CONTINUOUS
 10
-0.704280
 20
-1.309217
  0
VERTEX
  8
PLAN_1
 62
     2
  6
CONTINUOUS
 10
-0.705843
 20
-1.311303
  0
VERTEX
  8
PLAN_1
 62
     2
  6
CONTINUOUS
 10
-0.708449
 20
-1.312866
  0
VERTEX
  8
PLAN_1
 62
     2
  6
CONTINUOUS
 10
-0.710531
 20
-1.313906
  0
VERTEX
  8
PLAN_1
 62
     2
  6
CONTINUOUS
 10
-0.713657
 20
-1.314949
  0
VERTEX
  8
PLAN_1
 62
     2
  6
CONTINUOUS
 10
-0.716264
 20
-1.315472
  0
VERTEX
  8
PLAN_1
 62
     2
  6
CONTINUOUS
 10
-0.719913
 20
-1.315472
  0
VERTEX
  8
PLAN_1
 62
     2
  6
CONTINUOUS
 10
-0.723039
 20
-1.315472
  0
VERTEX
  8
PLAN_1
 62
     2
  6
CONTINUOUS
 10
-0.725646
 20
-1.314949
  0
VERTEX
  8
PLAN_1
 62
     2
  6
CONTINUOUS
 10
-0.728248
 20
-1.313906
  0
VERTEX
  8
PLAN_1
 62
     2
  6
CONTINUOUS
 10
-0.729815
 20
-1.312343
  0
VERTEX
  8
PLAN_1
 62
     2
  6
CONTINUOUS
 10
-0.731378
 20
-1.311303
  0
VERTEX
  8
PLAN_1
 62
     2
  6
CONTINUOUS
 10
-0.732941
 20
-1.309740
  0
VERTEX
  8
PLAN_1
 62
     2
  6
CONTINUOUS
 10
-0.733980
 20
-1.308697
  0
VERTEX
  8
PLAN_1
 62
     2
  6
CONTINUOUS
 10
-0.734504
 20
-1.307134
  0
VERTEX
  8
PLAN_1
 62
     2
  6
CONTINUOUS
 10
-0.735024
 20
-1.307134
  0
VERTEX
  8
PLAN_1
 62
     2
  6
CONTINUOUS
 10
-0.735024
 20
-1.313906
  0
VERTEX
  8
PLAN_1
 62
     2
  6
CONTINUOUS
 10
-0.743362
 20
-1.313906
  0
SEQEND
  8
0
  0
POLYLINE
  8
PLAN_1
 62
     2
  6
CONTINUOUS
 66
     1
 40
0.003000
 41
0.003000
  0
VERTEX
  8
PLAN_1
 62
     2
  6
CONTINUOUS
 10
-0.719913
 20
-1.266488
  0
VERTEX
  8
PLAN_1
 62
     2
  6
CONTINUOUS
 10
-0.722516
 20
-1.266488
  0
VERTEX
  8
PLAN_1
 62
     2
  6
CONTINUOUS
 10
-0.724602
 20
-1.267008
  0
VERTEX
  8
PLAN_1
 62
     2
  6
CONTINUOUS
 10
-0.726165
 20
-1.267531
  0
VERTEX
  8
PLAN_1
 62
     2
  6
CONTINUOUS
 10
-0.728248
 20
-1.268571
  0
VERTEX
  8
PLAN_1
 62
     2
  6
CONTINUOUS
 10
-0.730854
 20
-1.271177
  0
VERTEX
  8
PLAN_1
 62
     2
  6
CONTINUOUS
 10
-0.732417
 20
-1.274303
  0
VERTEX
  8
PLAN_1
 62
     2
  6
CONTINUOUS
 10
-0.733461
 20
-1.277953
  0
VERTEX
  8
PLAN_1
 62
     2
  6
CONTINUOUS
 10
-0.734504
 20
-1.282122
  0
VERTEX
  8
PLAN_1
 62
     2
  6
CONTINUOUS
 10
-0.734504
 20
-1.285768
  0
VERTEX
  8
PLAN_1
 62
     2
  6
CONTINUOUS
 10
-0.735024
 20
-1.289417
  0
VERTEX
  8
PLAN_1
 62
     2
  6
CONTINUOUS
 10
-0.734504
 20
-1.294106
  0
VERTEX
  8
PLAN_1
 62
     2
  6
CONTINUOUS
 10
-0.733461
 20
-1.298276
  0
VERTEX
  8
PLAN_1
 62
     2
  6
CONTINUOUS
 10
-0.731898
 20
-1.301402
  0
VERTEX
  8
PLAN_1
 62
     2
  6
CONTINUOUS
 10
-0.729815
 20
-1.304008
  0
VERTEX
  8
PLAN_1
 62
     2
  6
CONTINUOUS
 10
-0.727209
 20
-1.305571
  0
VERTEX
  8
PLAN_1
 62
     2
  6
CONTINUOUS
 10
-0.724602
 20
-1.306610
  0
VERTEX
  8
PLAN_1
 62
     2
  6
CONTINUOUS
 10
-0.722516
 20
-1.307654
  0
VERTEX
  8
PLAN_1
 62
     2
  6
CONTINUOUS
 10
-0.719913
 20
-1.307654
  0
VERTEX
  8
PLAN_1
 62
     2
  6
CONTINUOUS
 10
-0.716264
 20
-1.307134
  0
VERTEX
  8
PLAN_1
 62
     2
  6
CONTINUOUS
 10
-0.713657
 20
-1.306091
  0
VERTEX
  8
PLAN_1
 62
     2
  6
CONTINUOUS
 10
-0.711055
 20
-1.304008
  0
VERTEX
  8
PLAN_1
 62
     2
  6
CONTINUOUS
 10
-0.708969
 20
-1.301921
  0
VERTEX
  8
PLAN_1
 62
     2
  6
CONTINUOUS
 10
-0.707406
 20
-1.298795
  0
VERTEX
  8
PLAN_1
 62
     2
  6
CONTINUOUS
 10
-0.706362
 20
-1.295150
  0
VERTEX
  8
PLAN_1
 62
     2
  6
CONTINUOUS
 10
-0.705323
 20
-1.290980
  0
VERTEX
  8
PLAN_1
 62
     2
  6
CONTINUOUS
 10
-0.705323
 20
-1.286811
  0
VERTEX
  8
PLAN_1
 62
     2
  6
CONTINUOUS
 10
-0.705323
 20
-1.283685
  0
VERTEX
  8
PLAN_1
 62
     2
  6
CONTINUOUS
 10
-0.705843
 20
-1.280559
  0
VERTEX
  8
PLAN_1
 62
     2
  6
CONTINUOUS
 10
-0.706362
 20
-1.276909
  0
VERTEX
  8
PLAN_1
 62
     2
  6
CONTINUOUS
 10
-0.707406
 20
-1.273783
  0
VERTEX
  8
PLAN_1
 62
     2
  6
CONTINUOUS
 10
-0.709492
 20
-1.270657
  0
VERTEX
  8
PLAN_1
 62
     2
  6
CONTINUOUS
 10
-0.712094
 20
-1.268571
  0
VERTEX
  8
PLAN_1
 62
     2
  6
CONTINUOUS
 10
-0.713657
 20
-1.267531
  0
VERTEX
  8
PLAN_1
 62
     2
  6
CONTINUOUS
 10
-0.715220
 20
-1.267008
  0
VERTEX
  8
PLAN_1
 62
     2
  6
CONTINUOUS
 10
-0.717827
 20
-1.266488
  0
VERTEX
  8
PLAN_1
 62
     2
  6
CONTINUOUS
 10
-0.719913
 20
-1.266488
  0
SEQEND
  8
0
  0
POLYLINE
  8
PLAN_1
 62
     2
  6
CONTINUOUS
 66
     1
 40
0.003000
 41
0.003000
  0
VERTEX
  8
PLAN_1
 62
     2
  6
CONTINUOUS
 10
-0.638622
 20
-1.296713
  0
VERTEX
  8
PLAN_1
 62
     2
  6
CONTINUOUS
 10
-0.639142
 20
-1.298276
  0
VERTEX
  8
PLAN_1
 62
     2
  6
CONTINUOUS
 10
-0.639665
 20
-1.299839
  0
VERTEX
  8
PLAN_1
 62
     2
  6
CONTINUOUS
 10
-0.640185
 20
-1.301402
  0
VERTEX
  8
PLAN_1
 62
     2
  6
CONTINUOUS
 10
-0.641228
 20
-1.303484
  0
VERTEX
  8
PLAN_1
 62
     2
  6
CONTINUOUS
 10
-0.642268
 20
-1.305571
  0
VERTEX
  8
PLAN_1
 62
     2
  6
CONTINUOUS
 10
-0.643831
 20
-1.308173
  0
VERTEX
  8
PLAN_1
 62
     2
  6
CONTINUOUS
 10
-0.645917
 20
-1.310260
  0
VERTEX
  8
PLAN_1
 62
     2
  6
CONTINUOUS
 10
-0.648524
 20
-1.311823
  0
VERTEX
  8
PLAN_1
 62
     2
  6
CONTINUOUS
 10
-0.649563
 20
-1.312343
  0
VERTEX
  8
PLAN_1
 62
     2
  6
CONTINUOUS
 10
-0.650606
 20
-1.313386
  0
VERTEX
  8
PLAN_1
 62
     2
  6
CONTINUOUS
 10
-0.651650
 20
-1.313906
  0
VERTEX
  8
PLAN_1
 62
     2
  6
CONTINUOUS
 10
-0.653732
 20
-1.314429
  0
VERTEX
  8
PLAN_1
 62
     2
  6
CONTINUOUS
 10
-0.655295
 20
-1.314949
  0
VERTEX
  8
PLAN_1
 62
     2
  6
CONTINUOUS
 10
-0.657382
 20
-1.315472
  0
VERTEX
  8
PLAN_1
 62
     2
  6
CONTINUOUS
 10
-0.659988
 20
-1.315472
  0
VERTEX
  8
PLAN_1
 62
     2
  6
CONTINUOUS
 10
-0.663114
 20
-1.315472
  0
VERTEX
  8
PLAN_1
 62
     2
  6
CONTINUOUS
 10
-0.666240
 20
-1.315472
  0
VERTEX
  8
PLAN_1
 62
     2
  6
CONTINUOUS
 10
-0.668846
 20
-1.314949
  0
VERTEX
  8
PLAN_1
 62
     2
  6
CONTINUOUS
 10
-0.670929
 20
-1.314429
  0
VERTEX
  8
PLAN_1
 62
     2
  6
CONTINUOUS
 10
-0.673535
 20
-1.313386
  0
VERTEX
  8
PLAN_1
 62
     2
  6
CONTINUOUS
 10
-0.675618
 20
-1.312343
  0
VERTEX
  8
PLAN_1
 62
     2
  6
CONTINUOUS
 10
-0.677705
 20
-1.311303
  0
VERTEX
  8
PLAN_1
 62
     2
  6
CONTINUOUS
 10
-0.679268
 20
-1.309740
  0
VERTEX
  8
PLAN_1
 62
     2
  6
CONTINUOUS
 10
-0.681350
 20
-1.307654
  0
VERTEX
  8
PLAN_1
 62
     2
  6
CONTINUOUS
 10
-0.683957
 20
-1.304008
  0
VERTEX
  8
PLAN_1
 62
     2
  6
CONTINUOUS
 10
-0.686039
 20
-1.299315
  0
VERTEX
  8
PLAN_1
 62
     2
  6
CONTINUOUS
 10
-0.687083
 20
-1.294106
  0
VERTEX
  8
PLAN_1
 62
     2
  6
CONTINUOUS
 10
-0.687606
 20
-1.288374
  0
VERTEX
  8
PLAN_1
 62
     2
  6
CONTINUOUS
 10
-0.687083
 20
-1.282122
  0
VERTEX
  8
PLAN_1
 62
     2
  6
CONTINUOUS
 10
-0.686039
 20
-1.276390
  0
VERTEX
  8
PLAN_1
 62
     2
  6
CONTINUOUS
 10
-0.685000
 20
-1.273783
  0
VERTEX
  8
PLAN_1
 62
     2
  6
CONTINUOUS
 10
-0.683957
 20
-1.271177
  0
VERTEX
  8
PLAN_1
 62
     2
  6
CONTINUOUS
 10
-0.682913
 20
-1.269094
  0
VERTEX
  8
PLAN_1
 62
     2
  6
CONTINUOUS
 10
-0.681350
 20
-1.267008
  0
VERTEX
  8
PLAN_1
 62
     2
  6
CONTINUOUS
 10
-0.679787
 20
-1.264925
  0
VERTEX
  8
PLAN_1
 62
     2
  6
CONTINUOUS
 10
-0.677705
 20
-1.263362
  0
VERTEX
  8
PLAN_1
 62
     2
  6
CONTINUOUS
 10
-0.675618
 20
-1.261799
  0
VERTEX
  8
PLAN_1
 62
     2
  6
CONTINUOUS
 10
-0.673016
 20
-1.260236
  0
VERTEX
  8
PLAN_1
 62
     2
  6
CONTINUOUS
 10
-0.670409
 20
-1.259193
  0
VERTEX
  8
PLAN_1
 62
     2
  6
CONTINUOUS
 10
-0.667803
 20
-1.258673
  0
VERTEX
  8
PLAN_1
 62
     2
  6
CONTINUOUS
 10
-0.664677
 20
-1.258150
  0
VERTEX
  8
PLAN_1
 62
     2
  6
CONTINUOUS
 10
-0.661551
 20
-1.258150
  0
VERTEX
  8
PLAN_1
 62
     2
  6
CONTINUOUS
 10
-0.658421
 20
-1.258150
  0
VERTEX
  8
PLAN_1
 62
     2
  6
CONTINUOUS
 10
-0.655819
 20
-1.258673
  0
VERTEX
  8
PLAN_1
 62
     2
  6
CONTINUOUS
 10
-0.653213
 20
-1.259193
  0
VERTEX
  8
PLAN_1
 62
     2
  6
CONTINUOUS
 10
-0.651126
 20
-1.260236
  0
VERTEX
  8
PLAN_1
 62
     2
  6
CONTINUOUS
 10
-0.649043
 20
-1.261799
  0
VERTEX
  8
PLAN_1
 62
     2
  6
CONTINUOUS
 10
-0.646961
 20
-1.262839
  0
VERTEX
  8
PLAN_1
 62
     2
  6
CONTINUOUS
 10
-0.645398
 20
-1.264925
  0
VERTEX
  8
PLAN_1
 62
     2
  6
CONTINUOUS
 10
-0.643831
 20
-1.266488
  0
VERTEX
  8
PLAN_1
 62
     2
  6
CONTINUOUS
 10
-0.641228
 20
-1.271177
  0
VERTEX
  8
PLAN_1
 62
     2
  6
CONTINUOUS
 10
-0.639665
 20
-1.276909
  0
VERTEX
  8
PLAN_1
 62
     2
  6
CONTINUOUS
 10
-0.638622
 20
-1.283161
  0
VERTEX
  8
PLAN_1
 62
     2
  6
CONTINUOUS
 10
-0.638102
 20
-1.289937
  0
VERTEX
  8
PLAN_1
 62
     2
  6
CONTINUOUS
 10
-0.677705
 20
-1.289937
  0
VERTEX
  8
PLAN_1
 62
     2
  6
CONTINUOUS
 10
-0.677705
 20
-1.293583
  0
VERTEX
  8
PLAN_1
 62
     2
  6
CONTINUOUS
 10
-0.676661
 20
-1.297232
  0
VERTEX
  8
PLAN_1
 62
     2
  6
CONTINUOUS
 10
-0.675618
 20
-1.300358
  0
VERTEX
  8
PLAN_1
 62
     2
  6
CONTINUOUS
 10
-0.674055
 20
-1.302965
  0
VERTEX
  8
PLAN_1
 62
     2
  6
CONTINUOUS
 10
-0.671449
 20
-1.305047
  0
VERTEX
  8
PLAN_1
 62
     2
  6
CONTINUOUS
 10
-0.668846
 20
-1.306610
  0
VERTEX
  8
PLAN_1
 62
     2
  6
CONTINUOUS
 10
-0.665717
 20
-1.307134
  0
VERTEX
  8
PLAN_1
 62
     2
  6
CONTINUOUS
 10
-0.662071
 20
-1.307654
  0
VERTEX
  8
PLAN_1
 62
     2
  6
CONTINUOUS
 10
-0.658945
 20
-1.307654
  0
VERTEX
  8
PLAN_1
 62
     2
  6
CONTINUOUS
 10
-0.656339
 20
-1.306610
  0
VERTEX
  8
PLAN_1
 62
     2
  6
CONTINUOUS
 10
-0.653732
 20
-1.305571
  0
VERTEX
  8
PLAN_1
 62
     2
  6
CONTINUOUS
 10
-0.651650
 20
-1.304008
  0
VERTEX
  8
PLAN_1
 62
     2
  6
CONTINUOUS
 10
-0.650087
 20
-1.301921
  0
VERTEX
  8
PLAN_1
 62
     2
  6
CONTINUOUS
 10
-0.649043
 20
-1.300358
  0
VERTEX
  8
PLAN_1
 62
     2
  6
CONTINUOUS
 10
-0.648000
 20
-1.298795
  0
VERTEX
  8
PLAN_1
 62
     2
  6
CONTINUOUS
 10
-0.648000
 20
-1.296713
  0
VERTEX
  8
PLAN_1
 62
     2
  6
CONTINUOUS
 10
-0.638622
 20
-1.296713
  0
SEQEND
  8
0
  0
POLYLINE
  8
PLAN_1
 62
     2
  6
CONTINUOUS
 66
     1
 40
0.003000
 41
0.003000
  0
VERTEX
  8
PLAN_1
 62
     2
  6
CONTINUOUS
 10
-0.647480
 20
-1.282642
  0
VERTEX
  8
PLAN_1
 62
     2
  6
CONTINUOUS
 10
-0.648000
 20
-1.279516
  0
VERTEX
  8
PLAN_1
 62
     2
  6
CONTINUOUS
 10
-0.648524
 20
-1.276390
  0
VERTEX
  8
PLAN_1
 62
     2
  6
CONTINUOUS
 10
-0.649563
 20
-1.273783
  0
VERTEX
  8
PLAN_1
 62
     2
  6
CONTINUOUS
 10
-0.651126
 20
-1.271177
  0
VERTEX
  8
PLAN_1
 62
     2
  6
CONTINUOUS
 10
-0.653213
 20
-1.269094
  0
VERTEX
  8
PLAN_1
 62
     2
  6
CONTINUOUS
 10
-0.655819
 20
-1.267531
  0
VERTEX
  8
PLAN_1
 62
     2
  6
CONTINUOUS
 10
-0.658945
 20
-1.266488
  0
VERTEX
  8
PLAN_1
 62
     2
  6
CONTINUOUS
 10
-0.662591
 20
-1.266488
  0
VERTEX
  8
PLAN_1
 62
     2
  6
CONTINUOUS
 10
-0.665717
 20
-1.266488
  0
VERTEX
  8
PLAN_1
 62
     2
  6
CONTINUOUS
 10
-0.668846
 20
-1.267531
  0
VERTEX
  8
PLAN_1
 62
     2
  6
CONTINUOUS
 10
-0.670929
 20
-1.269094
  0
VERTEX
  8
PLAN_1
 62
     2
  6
CONTINUOUS
 10
-0.673535
 20
-1.271177
  0
VERTEX
  8
PLAN_1
 62
     2
  6
CONTINUOUS
 10
-0.675098
 20
-1.273783
  0
VERTEX
  8
PLAN_1
 62
     2
  6
CONTINUOUS
 10
-0.676661
 20
-1.276390
  0
VERTEX
  8
PLAN_1
 62
     2
  6
CONTINUOUS
 10
-0.677705
 20
-1.279516
  0
VERTEX
  8
PLAN_1
 62
     2
  6
CONTINUOUS
 10
-0.677705
 20
-1.282642
  0
VERTEX
  8
PLAN_1
 62
     2
  6
CONTINUOUS
 10
-0.647480
 20
-1.282642
  0
SEQEND
  8
0
  0
POLYLINE
  8
PLAN_1
 62
     2
  6
CONTINUOUS
 66
     1
 40
0.003000
 41
0.003000
  0
VERTEX
  8
PLAN_1
 62
     2
  6
CONTINUOUS
 10
-0.567752
 20
-1.313906
  0
VERTEX
  8
PLAN_1
 62
     2
  6
CONTINUOUS
 10
-0.577134
 20
-1.313906
  0
VERTEX
  8
PLAN_1
 62
     2
  6
CONTINUOUS
 10
-0.577134
 20
-1.262319
  0
VERTEX
  8
PLAN_1
 62
     2
  6
CONTINUOUS
 10
-0.594327
 20
-1.262319
  0
VERTEX
  8
PLAN_1
 62
     2
  6
CONTINUOUS
 10
-0.594327
 20
-1.255024
  0
VERTEX
  8
PLAN_1
 62
     2
  6
CONTINUOUS
 10
-0.590161
 20
-1.254504
  0
VERTEX
  8
PLAN_1
 62
     2
  6
CONTINUOUS
 10
-0.586512
 20
-1.253980
  0
VERTEX
  8
PLAN_1
 62
     2
  6
CONTINUOUS
 10
-0.583906
 20
-1.253461
  0
VERTEX
  8
PLAN_1
 62
     2
  6
CONTINUOUS
 10
-0.581303
 20
-1.251898
  0
VERTEX
  8
PLAN_1
 62
     2
  6
CONTINUOUS
 10
-0.579217
 20
-1.250335
  0
VERTEX
  8
PLAN_1
 62
     2
  6
CONTINUOUS
 10
-0.577134
 20
-1.248248
  0
VERTEX
  8
PLAN_1
 62
     2
  6
CONTINUOUS
 10
-0.576091
 20
-1.245122
  0
VERTEX
  8
PLAN_1
 62
     2
  6
CONTINUOUS
 10
-0.574528
 20
-1.240953
  0
VERTEX
  8
PLAN_1
 62
     2
  6
CONTINUOUS
 10
-0.567752
 20
-1.240953
  0
VERTEX
  8
PLAN_1
 62
     2
  6
CONTINUOUS
 10
-0.567752
 20
-1.313906
  0
SEQEND
  8
0
  0
SOLID
  8
PLAN_1
 62
     2
 10
-0.541697
 20
-1.315992
 11
-0.548992
 21
-1.315992
 12
-0.516165
 22
-1.237307
 13
-0.522937
 23
-1.237307
  0
POLYLINE
  8
PLAN_1
 62
     2
  6
CONTINUOUS
 66
     1
 40
0.003000
 41
0.003000
  0
VERTEX
  8
PLAN_1
 62
     2
  6
CONTINUOUS
 10
-0.541697
 20
-1.315992
  0
VERTEX
  8
PLAN_1
 62
     2
  6
CONTINUOUS
 10
-0.548992
 20
-1.315992
  0
VERTEX
  8
PLAN_1
 62
     2
  6
CONTINUOUS
 10
-0.522937
 20
-1.237307
  0
VERTEX
  8
PLAN_1
 62
     2
  6
CONTINUOUS
 10
-0.516165
 20
-1.237307
  0
VERTEX
  8
PLAN_1
 62
     2
  6
CONTINUOUS
 10
-0.541697
 20
-1.315992
  0
SEQEND
  8
0
  0
POLYLINE
  8
PLAN_1
 62
     2
  6
CONTINUOUS
 66
     1
 40
0.003000
 41
0.003000
  0
VERTEX
  8
PLAN_1
 62
     2
  6
CONTINUOUS
 10
-0.513559
 20
-1.267008
  0
VERTEX
  8
PLAN_1
 62
     2
  6
CONTINUOUS
 10
-0.513559
 20
-1.262839
  0
VERTEX
  8
PLAN_1
 62
     2
  6
CONTINUOUS
 10
-0.512516
 20
-1.259193
  0
VERTEX
  8
PLAN_1
 62
     2
  6
CONTINUOUS
 10
-0.511996
 20
-1.256067
  0
VERTEX
  8
PLAN_1
 62
     2
  6
CONTINUOUS
 10
-0.510433
 20
-1.252941
  0
VERTEX
  8
PLAN_1
 62
     2
  6
CONTINUOUS
 10
-0.509390
 20
-1.250335
  0
VERTEX
  8
PLAN_1
 62
     2
  6
CONTINUOUS
 10
-0.507827
 20
-1.248248
  0
VERTEX
  8
PLAN_1
 62
     2
  6
CONTINUOUS
 10
-0.505744
 20
-1.246685
  0
VERTEX
  8
PLAN_1
 62
     2
  6
CONTINUOUS
 10
-0.503657
 20
-1.245122
  0
VERTEX
  8
PLAN_1
 62
     2
  6
CONTINUOUS
 10
-0.499488
 20
-1.243039
  0
VERTEX
  8
PLAN_1
 62
     2
  6
CONTINUOUS
 10
-0.495319
 20
-1.241476
  0
VERTEX
  8
PLAN_1
 62
     2
  6
CONTINUOUS
 10
-0.491673
 20
-1.240953
  0
VERTEX
  8
PLAN_1
 62
     2
  6
CONTINUOUS
 10
-0.488024
 20
-1.240953
  0
VERTEX
  8
PLAN_1
 62
     2
  6
CONTINUOUS
 10
-0.483858
 20
-1.241476
  0
VERTEX
  8
PLAN_1
 62
     2
  6
CONTINUOUS
 10
-0.479165
 20
-1.242516
  0
VERTEX
  8
PLAN_1
 62
     2
  6
CONTINUOUS
 10
-0.475520
 20
-1.244079
  0
VERTEX
  8
PLAN_1
 62
     2
  6
CONTINUOUS
 10
-0.471870
 20
-1.246685
  0
VERTEX
  8
PLAN_1
 62
     2
  6
CONTINUOUS
 10
-0.469268
 20
-1.249811
  0
VERTEX
  8
PLAN_1
 62
     2
  6
CONTINUOUS
 10
-0.467181
 20
-1.253461
  0
VERTEX
  8
PLAN_1
 62
     2
  6
CONTINUOUS
 10
-0.465618
 20
-1.258150
  0
VERTEX
  8
PLAN_1
 62
     2
  6
CONTINUOUS
 10
-0.465098
 20
-1.262839
  0
VERTEX
  8
PLAN_1
 62
     2
  6
CONTINUOUS
 10
-0.465618
 20
-1.267531
  0
VERTEX
  8
PLAN_1
 62
     2
  6
CONTINUOUS
 10
-0.466661
 20
-1.271177
  0
VERTEX
  8
PLAN_1
 62
     2
  6
CONTINUOUS
 10
-0.468744
 20
-1.274827
  0
VERTEX
  8
PLAN_1
 62
     2
  6
CONTINUOUS
 10
-0.470831
 20
-1.277953
  0
VERTEX
  8
PLAN_1
 62
     2
  6
CONTINUOUS
 10
-0.473957
 20
-1.280559
  0
VERTEX
  8
PLAN_1
 62
     2
  6
CONTINUOUS
 10
-0.477083
 20
-1.282642
  0
VERTEX
  8
PLAN_1
 62
     2
  6
CONTINUOUS
 10
-0.480728
 20
-1.285248
  0
VERTEX
  8
PLAN_1
 62
     2
  6
CONTINUOUS
 10
-0.484898
 20
-1.287331
  0
VERTEX
  8
PLAN_1
 62
     2
  6
CONTINUOUS
 10
-0.492717
 20
-1.291500
  0
VERTEX
  8
PLAN_1
 62
     2
  6
CONTINUOUS
 10
-0.495843
 20
-1.293583
  0
VERTEX
  8
PLAN_1
 62
     2
  6
CONTINUOUS
 10
-0.498449
 20
-1.295669
  0
VERTEX
  8
PLAN_1
 62
     2
  6
CONTINUOUS
 10
-0.500531
 20
-1.297232
  0
VERTEX
  8
PLAN_1
 62
     2
  6
CONTINUOUS
 10
-0.502614
 20
-1.299315
  0
VERTEX
  8
PLAN_1
 62
     2
  6
CONTINUOUS
 10
-0.503657
 20
-1.301402
  0
VERTEX
  8
PLAN_1
 62
     2
  6
CONTINUOUS
 10
-0.504181
 20
-1.302965
  0
VERTEX
  8
PLAN_1
 62
     2
  6
CONTINUOUS
 10
-0.504701
 20
-1.304008
  0
VERTEX
  8
PLAN_1
 62
     2
  6
CONTINUOUS
 10
-0.505220
 20
-1.305571
  0
VERTEX
  8
PLAN_1
 62
     2
  6
CONTINUOUS
 10
-0.465098
 20
-1.305571
  0
VERTEX
  8
PLAN_1
 62
     2
  6
CONTINUOUS
 10
-0.465098
 20
-1.313906
  0
VERTEX
  8
PLAN_1
 62
     2
  6
CONTINUOUS
 10
-0.515122
 20
-1.313906
  0
VERTEX
  8
PLAN_1
 62
     2
  6
CONTINUOUS
 10
-0.515122
 20
-1.308697
  0
VERTEX
  8
PLAN_1
 62
     2
  6
CONTINUOUS
 10
-0.514079
 20
-1.304008
  0
VERTEX
  8
PLAN_1
 62
     2
  6
CONTINUOUS
 10
-0.512516
 20
-1.299839
  0
VERTEX
  8
PLAN_1
 62
     2
  6
CONTINUOUS
 10
-0.510433
 20
-1.296189
  0
VERTEX
  8
PLAN_1
 62
     2
  6
CONTINUOUS
 10
-0.507827
 20
-1.292543
  0
VERTEX
  8
PLAN_1
 62
     2
  6
CONTINUOUS
 10
-0.504701
 20
-1.289937
  0
VERTEX
  8
PLAN_1
 62
     2
  6
CONTINUOUS
 10
-0.501575
 20
-1.287331
  0
VERTEX
  8
PLAN_1
 62
     2
  6
CONTINUOUS
 10
-0.498449
 20
-1.285248
  0
VERTEX
  8
PLAN_1
 62
     2
  6
CONTINUOUS
 10
-0.488547
 20
-1.279516
  0
VERTEX
  8
PLAN_1
 62
     2
  6
CONTINUOUS
 10
-0.485941
 20
-1.277953
  0
VERTEX
  8
PLAN_1
 62
     2
  6
CONTINUOUS
 10
-0.483335
 20
-1.276390
  0
VERTEX
  8
PLAN_1
 62
     2
  6
CONTINUOUS
 10
-0.480728
 20
-1.274303
  0
VERTEX
  8
PLAN_1
 62
     2
  6
CONTINUOUS
 10
-0.479165
 20
-1.272740
  0
VERTEX
  8
PLAN_1
 62
     2
  6
CONTINUOUS
 10
-0.477083
 20
-1.270657
  0
VERTEX
  8
PLAN_1
 62
     2
  6
CONTINUOUS
 10
-0.476039
 20
-1.268571
  0
VERTEX
  8
PLAN_1
 62
     2
  6
CONTINUOUS
 10
-0.475520
 20
-1.265445
  0
VERTEX
  8
PLAN_1
 62
     2
  6
CONTINUOUS
 10
-0.475000
 20
-1.262319
  0
VERTEX
  8
PLAN_1
 62
     2
  6
CONTINUOUS
 10
-0.475520
 20
-1.260236
  0
VERTEX
  8
PLAN_1
 62
     2
  6
CONTINUOUS
 10
-0.476039
 20
-1.257630
  0
VERTEX
  8
PLAN_1
 62
     2
  6
CONTINUOUS
 10
-0.477083
 20
-1.255543
  0
VERTEX
  8
PLAN_1
 62
     2
  6
CONTINUOUS
 10
-0.478126
 20
-1.253461
  0
VERTEX
  8
PLAN_1
 62
     2
  6
CONTINUOUS
 10
-0.480209
 20
-1.251898
  0
VERTEX
  8
PLAN_1
 62
     2
  6
CONTINUOUS
 10
-0.482815
 20
-1.250335
  0
VERTEX
  8
PLAN_1
 62
     2
  6
CONTINUOUS
 10
-0.485941
 20
-1.249291
  0
VERTEX
  8
PLAN_1
 62
     2
  6
CONTINUOUS
 10
-0.489591
 20
-1.249291
  0
VERTEX
  8
PLAN_1
 62
     2
  6
CONTINUOUS
 10
-0.492193
 20
-1.249291
  0
VERTEX
  8
PLAN_1
 62
     2
  6
CONTINUOUS
 10
-0.494280
 20
-1.249811
  0
VERTEX
  8
PLAN_1
 62
     2
  6
CONTINUOUS
 10
-0.495843
 20
-1.250335
  0
VERTEX
  8
PLAN_1
 62
     2
  6
CONTINUOUS
 10
-0.497925
 20
-1.251374
  0
VERTEX
  8
PLAN_1
 62
     2
  6
CONTINUOUS
 10
-0.500012
 20
-1.253461
  0
VERTEX
  8
PLAN_1
 62
     2
  6
CONTINUOUS
 10
-0.502094
 20
-1.256067
  0
VERTEX
  8
PLAN_1
 62
     2
  6
CONTINUOUS
 10
-0.503138
 20
-1.259193
  0
VERTEX
  8
PLAN_1
 62
     2
  6
CONTINUOUS
 10
-0.503657
 20
-1.262319
  0
VERTEX
  8
PLAN_1
 62
     2
  6
CONTINUOUS
 10
-0.504181
 20
-1.264925
  0
VERTEX
  8
PLAN_1
 62
     2
  6
CONTINUOUS
 10
-0.504181
 20
-1.267008
  0
VERTEX
  8
PLAN_1
 62
     2
  6
CONTINUOUS
 10
-0.513559
 20
-1.267008
  0
SEQEND
  8
0
  0
SOLID
  8
PLAN_1
 62
     2
 10
-0.453110
 20
-1.239390
 11
-0.445295
 21
-1.239390
 12
-0.453110
 22
-1.265969
 13
-0.445295
 23
-1.265969
  0
POLYLINE
  8
PLAN_1
 62
     2
  6
CONTINUOUS
 66
     1
 40
0.003000
 41
0.003000
  0
VERTEX
  8
PLAN_1
 62
     2
  6
CONTINUOUS
 10
-0.453110
 20
-1.239390
  0
VERTEX
  8
PLAN_1
 62
     2
  6
CONTINUOUS
 10
-0.445295
 20
-1.239390
  0
VERTEX
  8
PLAN_1
 62
     2
  6
CONTINUOUS
 10
-0.445295
 20
-1.265969
  0
VERTEX
  8
PLAN_1
 62
     2
  6
CONTINUOUS
 10
-0.453110
 20
-1.265969
  0
VERTEX
  8
PLAN_1
 62
     2
  6
CONTINUOUS
 10
-0.453110
 20
-1.239390
  0
SEQEND
  8
0
  0
SOLID
  8
PLAN_1
 62
     2
 10
-0.438000
 20
-1.239390
 11
-0.430705
 21
-1.239390
 12
-0.438000
 22
-1.265969
 13
-0.430705
 23
-1.265969
  0
POLYLINE
  8
PLAN_1
 62
     2
  6
CONTINUOUS
 66
     1
 40
0.003000
 41
0.003000
  0
VERTEX
  8
PLAN_1
 62
     2
  6
CONTINUOUS
 10
-0.438000
 20
-1.239390
  0
VERTEX
  8
PLAN_1
 62
     2
  6
CONTINUOUS
 10
-0.430705
 20
-1.239390
  0
VERTEX
  8
PLAN_1
 62
     2
  6
CONTINUOUS
 10
-0.430705
 20
-1.265969
  0
VERTEX
  8
PLAN_1
 62
     2
  6
CONTINUOUS
 10
-0.438000
 20
-1.265969
  0
VERTEX
  8
PLAN_1
 62
     2
  6
CONTINUOUS
 10
-0.438000
 20
-1.239390
  0
SEQEND
  8
0
  0
POLYLINE
  8
PLAN_1
 62
     2
  6
CONTINUOUS
 66
     1
 40
0.003000
 41
0.003000
  0
VERTEX
  8
PLAN_1
 62
     2
  6
CONTINUOUS
 10
-0.336909
 20
-1.239390
  0
VERTEX
  8
PLAN_1
 62
     2
  6
CONTINUOUS
 10
-0.327008
 20
-1.239390
  0
VERTEX
  8
PLAN_1
 62
     2
  6
CONTINUOUS
 10
-0.327008
 20
-1.313906
  0
VERTEX
  8
PLAN_1
 62
     2
  6
CONTINUOUS
 10
-0.338472
 20
-1.313906
  0
VERTEX
  8
PLAN_1
 62
     2
  6
CONTINUOUS
 10
-0.376512
 20
-1.253461
  0
VERTEX
  8
PLAN_1
 62
     2
  6
CONTINUOUS
 10
-0.376512
 20
-1.313906
  0
VERTEX
  8
PLAN_1
 62
     2
  6
CONTINUOUS
 10
-0.386413
 20
-1.313906
  0
VERTEX
  8
PLAN_1
 62
     2
  6
CONTINUOUS
 10
-0.386413
 20
-1.239390
  0
VERTEX
  8
PLAN_1
 62
     2
  6
CONTINUOUS
 10
-0.374425
 20
-1.239390
  0
VERTEX
  8
PLAN_1
 62
     2
  6
CONTINUOUS
 10
-0.336909
 20
-1.299839
  0
VERTEX
  8
PLAN_1
 62
     2
  6
CONTINUOUS
 10
-0.336909
 20
-1.239390
  0
SEQEND
  8
0
  0
POLYLINE
  8
PLAN_1
 62
     2
  6
CONTINUOUS
 66
     1
 40
0.003000
 41
0.003000
  0
VERTEX
  8
PLAN_1
 62
     2
  6
CONTINUOUS
 10
-0.299909
 20
-1.313906
  0
VERTEX
  8
PLAN_1
 62
     2
  6
CONTINUOUS
 10
-0.310331
 20
-1.313906
  0
VERTEX
  8
PLAN_1
 62
     2
  6
CONTINUOUS
 10
-0.310331
 20
-1.239390
  0
VERTEX
  8
PLAN_1
 62
     2
  6
CONTINUOUS
 10
-0.276461
 20
-1.239390
  0
VERTEX
  8
PLAN_1
 62
     2
  6
CONTINUOUS
 10
-0.271772
 20
-1.239913
  0
VERTEX
  8
PLAN_1
 62
     2
  6
CONTINUOUS
 10
-0.267083
 20
-1.240953
  0
VERTEX
  8
PLAN_1
 62
     2
  6
CONTINUOUS
 10
-0.263433
 20
-1.243039
  0
VERTEX
  8
PLAN_1
 62
     2
  6
CONTINUOUS
 10
-0.260307
 20
-1.245122
  0
VERTEX
  8
PLAN_1
 62
     2
  6
CONTINUOUS
 10
-0.257701
 20
-1.248248
  0
VERTEX
  8
PLAN_1
 62
     2
  6
CONTINUOUS
 10
-0.256138
 20
-1.251898
  0
VERTEX
  8
PLAN_1
 62
     2
  6
CONTINUOUS
 10
-0.254575
 20
-1.256067
  0
VERTEX
  8
PLAN_1
 62
     2
  6
CONTINUOUS
 10
-0.254575
 20
-1.260236
  0
VERTEX
  8
PLAN_1
 62
     2
  6
CONTINUOUS
 10
-0.254575
 20
-1.264402
  0
VERTEX
  8
PLAN_1
 62
     2
  6
CONTINUOUS
 10
-0.255618
 20
-1.268051
  0
VERTEX
  8
PLAN_1
 62
     2
  6
CONTINUOUS
 10
-0.257181
 20
-1.271697
  0
VERTEX
  8
PLAN_1
 62
     2
  6
CONTINUOUS
 10
-0.259264
 20
-1.275346
  0
VERTEX
  8
PLAN_1
 62
     2
  6
CONTINUOUS
 10
-0.262394
 20
-1.278472
  0
VERTEX
  8
PLAN_1
 62
     2
  6
CONTINUOUS
 10
-0.266039
 20
-1.280559
  0
VERTEX
  8
PLAN_1
 62
     2
  6
CONTINUOUS
 10
-0.268646
 20
-1.281598
  0
VERTEX
  8
PLAN_1
 62
     2
  6
CONTINUOUS
 10
-0.270728
 20
-1.282122
  0
VERTEX
  8
PLAN_1
 62
     2
  6
CONTINUOUS
 10
-0.273854
 20
-1.282642
  0
VERTEX
  8
PLAN_1
 62
     2
  6
CONTINUOUS
 10
-0.276461
 20
-1.282642
  0
VERTEX
  8
PLAN_1
 62
     2
  6
CONTINUOUS
 10
-0.299909
 20
-1.282642
  0
VERTEX
  8
PLAN_1
 62
     2
  6
CONTINUOUS
 10
-0.299909
 20
-1.313906
  0
SEQEND
  8
0
  0
POLYLINE
  8
PLAN_1
 62
     2
  6
CONTINUOUS
 66
     1
 40
0.003000
 41
0.003000
  0
VERTEX
  8
PLAN_1
 62
     2
  6
CONTINUOUS
 10
-0.299909
 20
-1.273783
  0
VERTEX
  8
PLAN_1
 62
     2
  6
CONTINUOUS
 10
-0.280110
 20
-1.273783
  0
VERTEX
  8
PLAN_1
 62
     2
  6
CONTINUOUS
 10
-0.276984
 20
-1.273783
  0
VERTEX
  8
PLAN_1
 62
     2
  6
CONTINUOUS
 10
-0.273854
 20
-1.273264
  0
VERTEX
  8
PLAN_1
 62
     2
  6
CONTINUOUS
 10
-0.271252
 20
-1.272220
  0
VERTEX
  8
PLAN_1
 62
     2
  6
CONTINUOUS
 10
-0.269165
 20
-1.271177
  0
VERTEX
  8
PLAN_1
 62
     2
  6
CONTINUOUS
 10
-0.267083
 20
-1.269094
  0
VERTEX
  8
PLAN_1
 62
     2
  6
CONTINUOUS
 10
-0.266039
 20
-1.267008
  0
VERTEX
  8
PLAN_1
 62
     2
  6
CONTINUOUS
 10
-0.264996
 20
-1.263882
  0
VERTEX
  8
PLAN_1
 62
     2
  6
CONTINUOUS
 10
-0.264996
 20
-1.260236
  0
VERTEX
  8
PLAN_1
 62
     2
  6
CONTINUOUS
 10
-0.264996
 20
-1.257106
  0
VERTEX
  8
PLAN_1
 62
     2
  6
CONTINUOUS
 10
-0.266039
 20
-1.254504
  0
VERTEX
  8
PLAN_1
 62
     2
  6
CONTINUOUS
 10
-0.267083
 20
-1.252417
  0
VERTEX
  8
PLAN_1
 62
     2
  6
CONTINUOUS
 10
-0.269165
 20
-1.250854
  0
VERTEX
  8
PLAN_1
 62
     2
  6
CONTINUOUS
 10
-0.271252
 20
-1.249291
  0
VERTEX
  8
PLAN_1
 62
     2
  6
CONTINUOUS
 10
-0.273854
 20
-1.248772
  0
VERTEX
  8
PLAN_1
 62
     2
  6
CONTINUOUS
 10
-0.276461
 20
-1.248248
  0
VERTEX
  8
PLAN_1
 62
     2
  6
CONTINUOUS
 10
-0.279587
 20
-1.247728
  0
VERTEX
  8
PLAN_1
 62
     2
  6
CONTINUOUS
 10
-0.299909
 20
-1.247728
  0
VERTEX
  8
PLAN_1
 62
     2
  6
CONTINUOUS
 10
-0.299909
 20
-1.273783
  0
SEQEND
  8
0
  0
POLYLINE
  8
PLAN_1
 62
     2
  6
CONTINUOUS
 66
     1
 40
0.003000
 41
0.003000
  0
VERTEX
  8
PLAN_1
 62
     2
  6
CONTINUOUS
 10
-0.248323
 20
-1.239390
  0
VERTEX
  8
PLAN_1
 62
     2
  6
CONTINUOUS
 10
-0.187354
 20
-1.239390
  0
VERTEX
  8
PLAN_1
 62
     2
  6
CONTINUOUS
 10
-0.187354
 20
-1.248248
  0
VERTEX
  8
PLAN_1
 62
     2
  6
CONTINUOUS
 10
-0.212890
 20
-1.248248
  0
VERTEX
  8
PLAN_1
 62
     2
  6
CONTINUOUS
 10
-0.212890
 20
-1.313906
  0
VERTEX
  8
PLAN_1
 62
     2
  6
CONTINUOUS
 10
-0.222787
 20
-1.313906
  0
VERTEX
  8
PLAN_1
 62
     2
  6
CONTINUOUS
 10
-0.222787
 20
-1.248248
  0
VERTEX
  8
PLAN_1
 62
     2
  6
CONTINUOUS
 10
-0.248323
 20
-1.248248
  0
VERTEX
  8
PLAN_1
 62
     2
  6
CONTINUOUS
 10
-0.248323
 20
-1.239390
  0
SEQEND
  8
0
  0
SOLID
  8
PLAN_1
 62
     2
 10
-0.135244
 20
-1.239390
 11
-0.127429
 21
-1.239390
 12
-0.135244
 22
-1.265969
 13
-0.127429
 23
-1.265969
  0
POLYLINE
  8
PLAN_1
 62
     2
  6
CONTINUOUS
 66
     1
 40
0.003000
 41
0.003000
  0
VERTEX
  8
PLAN_1
 62
     2
  6
CONTINUOUS
 10
-0.135244
 20
-1.239390
  0
VERTEX
  8
PLAN_1
 62
     2
  6
CONTINUOUS
 10
-0.127429
 20
-1.239390
  0
VERTEX
  8
PLAN_1
 62
     2
  6
CONTINUOUS
 10
-0.127429
 20
-1.265969
  0
VERTEX
  8
PLAN_1
 62
     2
  6
CONTINUOUS
 10
-0.135244
 20
-1.265969
  0
VERTEX
  8
PLAN_1
 62
     2
  6
CONTINUOUS
 10
-0.135244
 20
-1.239390
  0
SEQEND
  8
0
  0
SOLID
  8
PLAN_1
 62
     2
 10
-0.149835
 20
-1.239390
 11
-0.142020
 21
-1.239390
 12
-0.149835
 22
-1.265969
 13
-0.142020
 23
-1.265969
  0
POLYLINE
  8
PLAN_1
 62
     2
  6
CONTINUOUS
 66
     1
 40
0.003000
 41
0.003000
  0
VERTEX
  8
PLAN_1
 62
     2
  6
CONTINUOUS
 10
-0.149835
 20
-1.239390
  0
VERTEX
  8
PLAN_1
 62
     2
  6
CONTINUOUS
 10
-0.142020
 20
-1.239390
  0
VERTEX
  8
PLAN_1
 62
     2
  6
CONTINUOUS
 10
-0.142020
 20
-1.265969
  0
VERTEX
  8
PLAN_1
 62
     2
  6
CONTINUOUS
 10
-0.149835
 20
-1.265969
  0
VERTEX
  8
PLAN_1
 62
     2
  6
CONTINUOUS
 10
-0.149835
 20
-1.239390
  0
SEQEND
  8
0
  0
ENDSEC
  0
EOF
