  0
SECTION
  2
HEADER
  9
$ACADVER
  1
AC1006
  9
$EXTMIN
 10
-2.280000
 20
-3.672835
  9
$EXTMAX
 10
2.286000
 20
3.668000
  9
$LTSCALE
 40
0.000394
  9
$PDMODE
 70
    35
  9
$PDSIZE
 40
0.000315
  0
ENDSEC
  0
SECTION
  2
TABLES
  0
TABLE
  2
LTYPE
 70
     9
  0
LTYPE
  2
CONTINUOUS
 70
    64
  3
Solid line
 72
    65
 73
     0
 40
0.000000
  0
LTYPE
  2
DASHED
 70
    64
  3
__ __ __ __ __ __ __ __ __ __ __ __ __ __ __
 72
    65
 73
     2
 40
0.000003
 49
0.000002
 49
-0.000001
  0
LTYPE
  2
HIDDEN
 70
    64
  3
 _ _ _ _ _ _ _ _ _ _ _ _ _ _ _ _ _ _ _ _ _ _
 72
    65
 73
     2
 40
0.000001
 49
0.000001
 49
-0.000000
  0
LTYPE
  2
CENTER
 70
    64
  3
____ _ ____ _ ____ _ ____ _ ____ _ ____ _ ____
 72
    65
 73
     4
 40
0.000008
 49
0.000005
 49
-0.000001
 49
0.000001
 49
-0.000001
  0
LTYPE
  2
PHANTOM
 70
    64
  3
_____ _ _ _____ _ _ _____ _ _ _____ _ _ ____
 72
    65
 73
     6
 40
0.000010
 49
0.000005
 49
-0.000001
 49
0.000001
 49
-0.000001
 49
0.000001
 49
-0.000001
  0
LTYPE
  2
DOT
 70
    64
  3
...............................................
 72
    65
 73
     2
 40
0.000001
 49
0.000000
 49
-0.000001
  0
LTYPE
  2
DASHDOT
 70
    64
  3
__ . __ . __ . __ . __ . __ . __ . __ . __ . __
 72
    65
 73
     4
 40
0.000004
 49
0.000002
 49
-0.000001
 49
0.000000
 49
-0.000001
  0
LTYPE
  2
BORDER
 70
    64
  3
__ __ . __ __ . __ __ . __ __ . __ __ . __ __
 72
    65
 73
     6
 40
0.000007
 49
0.000002
 49
-0.000001
 49
0.000002
 49
-0.000001
 49
0.000000
 49
-0.000001
  0
LTYPE
  2
DIVIDE
 70
    64
  3
__ . . __ . . __ . . __ . . __ . . __ . . __
 72
    65
 73
     6
 40
0.000005
 49
0.000002
 49
-0.000001
 49
0.000000
 49
-0.000001
 49
0.000000
 49
-0.000001
  0
LTYPE
  2
DOTDOT
 70
    64
  3
 . .  . .  . .  . .  . .  . . 
 72
    65
 73
     5
 40
0.000002
 49
-0.000001
 49
0.000000
 49
-0.000001
 49
0.000000
 49
-0.000001
  0
ENDTAB
  0
TABLE
  2
STYLE
 70
     0
  0
ENDTAB
  0
TABLE
  2
LAYER
 70
     3
  0
LAYER
  2
FOREGROUND
 70
    64
 62
     7
  6
CONTINUOUS
  0
LAYER
  2
BACKGROUND
 70
    65
 62
    -7
  6
CONTINUOUS
  0
LAYER
  2
PLAN_1
 70
    64
 62
     7
  6
CONTINUOUS
  0
ENDTAB
  0
ENDSEC
  0
SECTION
  2
ENTITIES
  0
POLYLINE
  8
PLAN_1
  6
CONTINUOUS
 66
     1
 40
0.003000
 41
0.003000
  0
VERTEX
  8
PLAN_1
  6
CONTINUOUS
 10
0.282409
 20
-3.637969
  0
VERTEX
  8
PLAN_1
  6
CONTINUOUS
 10
0.125500
 20
-3.637969
  0
VERTEX
  8
PLAN_1
  6
CONTINUOUS
 10
0.125500
 20
-3.615484
  0
VERTEX
  8
PLAN_1
  6
CONTINUOUS
 10
0.247543
 20
-3.462705
  0
VERTEX
  8
PLAN_1
  6
CONTINUOUS
 10
0.134677
 20
-3.462705
  0
VERTEX
  8
PLAN_1
  6
CONTINUOUS
 10
0.134677
 20
-3.438846
  0
VERTEX
  8
PLAN_1
  6
CONTINUOUS
 10
0.282409
 20
-3.438846
  0
VERTEX
  8
PLAN_1
  6
CONTINUOUS
 10
0.282409
 20
-3.462244
  0
VERTEX
  8
PLAN_1
  6
CONTINUOUS
 10
0.159453
 20
-3.614110
  0
VERTEX
  8
PLAN_1
  6
CONTINUOUS
 10
0.282409
 20
-3.614110
  0
VERTEX
  8
PLAN_1
  6
CONTINUOUS
 10
0.282409
 20
-3.637969
  0
SEQEND
  8
0
  0
POLYLINE
  8
PLAN_1
  6
CONTINUOUS
 66
     1
 40
0.003000
 41
0.003000
  0
VERTEX
  8
PLAN_1
  6
CONTINUOUS
 10
0.449874
 20
-3.498949
  0
VERTEX
  8
PLAN_1
  6
CONTINUOUS
 10
0.448039
 20
-3.492528
  0
VERTEX
  8
PLAN_1
  6
CONTINUOUS
 10
0.446205
 20
-3.487020
  0
VERTEX
  8
PLAN_1
  6
CONTINUOUS
 10
0.443449
 20
-3.481972
  0
VERTEX
  8
PLAN_1
  6
CONTINUOUS
 10
0.440697
 20
-3.477386
  0
VERTEX
  8
PLAN_1
  6
CONTINUOUS
 10
0.437484
 20
-3.473717
  0
VERTEX
  8
PLAN_1
  6
CONTINUOUS
 10
0.433815
 20
-3.470504
  0
VERTEX
  8
PLAN_1
  6
CONTINUOUS
 10
0.430146
 20
-3.467291
  0
VERTEX
  8
PLAN_1
  6
CONTINUOUS
 10
0.426476
 20
-3.465000
  0
VERTEX
  8
PLAN_1
  6
CONTINUOUS
 10
0.422346
 20
-3.463161
  0
VERTEX
  8
PLAN_1
  6
CONTINUOUS
 10
0.418217
 20
-3.461327
  0
VERTEX
  8
PLAN_1
  6
CONTINUOUS
 10
0.414087
 20
-3.459953
  0
VERTEX
  8
PLAN_1
  6
CONTINUOUS
 10
0.409957
 20
-3.459035
  0
VERTEX
  8
PLAN_1
  6
CONTINUOUS
 10
0.401701
 20
-3.457657
  0
VERTEX
  8
PLAN_1
  6
CONTINUOUS
 10
0.393898
 20
-3.457657
  0
VERTEX
  8
PLAN_1
  6
CONTINUOUS
 10
0.387476
 20
-3.457657
  0
VERTEX
  8
PLAN_1
  6
CONTINUOUS
 10
0.381051
 20
-3.458575
  0
VERTEX
  8
PLAN_1
  6
CONTINUOUS
 10
0.374630
 20
-3.460409
  0
VERTEX
  8
PLAN_1
  6
CONTINUOUS
 10
0.368665
 20
-3.462244
  0
VERTEX
  8
PLAN_1
  6
CONTINUOUS
 10
0.362701
 20
-3.465457
  0
VERTEX
  8
PLAN_1
  6
CONTINUOUS
 10
0.357654
 20
-3.468669
  0
VERTEX
  8
PLAN_1
  6
CONTINUOUS
 10
0.352606
 20
-3.472799
  0
VERTEX
  8
PLAN_1
  6
CONTINUOUS
 10
0.348020
 20
-3.477386
  0
VERTEX
  8
PLAN_1
  6
CONTINUOUS
 10
0.343433
 20
-3.482433
  0
VERTEX
  8
PLAN_1
  6
CONTINUOUS
 10
0.339760
 20
-3.488398
  0
VERTEX
  8
PLAN_1
  6
CONTINUOUS
 10
0.336551
 20
-3.494819
  0
VERTEX
  8
PLAN_1
  6
CONTINUOUS
 10
0.333795
 20
-3.502161
  0
VERTEX
  8
PLAN_1
  6
CONTINUOUS
 10
0.331504
 20
-3.509961
  0
VERTEX
  8
PLAN_1
  6
CONTINUOUS
 10
0.330126
 20
-3.518220
  0
VERTEX
  8
PLAN_1
  6
CONTINUOUS
 10
0.329209
 20
-3.526937
  0
VERTEX
  8
PLAN_1
  6
CONTINUOUS
 10
0.328748
 20
-3.536571
  0
VERTEX
  8
PLAN_1
  6
CONTINUOUS
 10
0.328748
 20
-3.545287
  0
VERTEX
  8
PLAN_1
  6
CONTINUOUS
 10
0.329665
 20
-3.553547
  0
VERTEX
  8
PLAN_1
  6
CONTINUOUS
 10
0.330587
 20
-3.561807
  0
VERTEX
  8
PLAN_1
  6
CONTINUOUS
 10
0.331961
 20
-3.569146
  0
VERTEX
  8
PLAN_1
  6
CONTINUOUS
 10
0.334256
 20
-3.576488
  0
VERTEX
  8
PLAN_1
  6
CONTINUOUS
 10
0.336551
 20
-3.583370
  0
VERTEX
  8
PLAN_1
  6
CONTINUOUS
 10
0.339760
 20
-3.589791
  0
VERTEX
  8
PLAN_1
  6
CONTINUOUS
 10
0.343433
 20
-3.595756
  0
VERTEX
  8
PLAN_1
  6
CONTINUOUS
 10
0.347559
 20
-3.600803
  0
VERTEX
  8
PLAN_1
  6
CONTINUOUS
 10
0.352150
 20
-3.605850
  0
VERTEX
  8
PLAN_1
  6
CONTINUOUS
 10
0.357654
 20
-3.609520
  0
VERTEX
  8
PLAN_1
  6
CONTINUOUS
 10
0.363618
 20
-3.613193
  0
VERTEX
  8
PLAN_1
  6
CONTINUOUS
 10
0.366831
 20
-3.614567
  0
VERTEX
  8
PLAN_1
  6
CONTINUOUS
 10
0.370500
 20
-3.615945
  0
VERTEX
  8
PLAN_1
  6
CONTINUOUS
 10
0.374169
 20
-3.616862
  0
VERTEX
  8
PLAN_1
  6
CONTINUOUS
 10
0.377843
 20
-3.617780
  0
VERTEX
  8
PLAN_1
  6
CONTINUOUS
 10
0.386098
 20
-3.619157
  0
VERTEX
  8
PLAN_1
  6
CONTINUOUS
 10
0.394819
 20
-3.619614
  0
VERTEX
  8
PLAN_1
  6
CONTINUOUS
 10
0.398028
 20
-3.619614
  0
VERTEX
  8
PLAN_1
  6
CONTINUOUS
 10
0.401701
 20
-3.619157
  0
VERTEX
  8
PLAN_1
  6
CONTINUOUS
 10
0.405827
 20
-3.618697
  0
VERTEX
  8
PLAN_1
  6
CONTINUOUS
 10
0.409957
 20
-3.617323
  0
VERTEX
  8
PLAN_1
  6
CONTINUOUS
 10
0.414087
 20
-3.616402
  0
VERTEX
  8
PLAN_1
  6
CONTINUOUS
 10
0.418217
 20
-3.614567
  0
VERTEX
  8
PLAN_1
  6
CONTINUOUS
 10
0.422346
 20
-3.612276
  0
VERTEX
  8
PLAN_1
  6
CONTINUOUS
 10
0.426476
 20
-3.609520
  0
VERTEX
  8
PLAN_1
  6
CONTINUOUS
 10
0.430602
 20
-3.606311
  0
VERTEX
  8
PLAN_1
  6
CONTINUOUS
 10
0.434276
 20
-3.602638
  0
VERTEX
  8
PLAN_1
  6
CONTINUOUS
 10
0.437945
 20
-3.598051
  0
VERTEX
  8
PLAN_1
  6
CONTINUOUS
 10
0.441614
 20
-3.593004
  0
VERTEX
  8
PLAN_1
  6
CONTINUOUS
 10
0.444366
 20
-3.587039
  0
VERTEX
  8
PLAN_1
  6
CONTINUOUS
 10
0.447579
 20
-3.580618
  0
VERTEX
  8
PLAN_1
  6
CONTINUOUS
 10
0.449874
 20
-3.573276
  0
VERTEX
  8
PLAN_1
  6
CONTINUOUS
 10
0.451709
 20
-3.565016
  0
VERTEX
  8
PLAN_1
  6
CONTINUOUS
 10
0.477862
 20
-3.565016
  0
VERTEX
  8
PLAN_1
  6
CONTINUOUS
 10
0.476484
 20
-3.571898
  0
VERTEX
  8
PLAN_1
  6
CONTINUOUS
 10
0.475106
 20
-3.578323
  0
VERTEX
  8
PLAN_1
  6
CONTINUOUS
 10
0.473272
 20
-3.584287
  0
VERTEX
  8
PLAN_1
  6
CONTINUOUS
 10
0.471437
 20
-3.589791
  0
VERTEX
  8
PLAN_1
  6
CONTINUOUS
 10
0.469142
 20
-3.595299
  0
VERTEX
  8
PLAN_1
  6
CONTINUOUS
 10
0.466850
 20
-3.599886
  0
VERTEX
  8
PLAN_1
  6
CONTINUOUS
 10
0.464555
 20
-3.604476
  0
VERTEX
  8
PLAN_1
  6
CONTINUOUS
 10
0.461803
 20
-3.609063
  0
VERTEX
  8
PLAN_1
  6
CONTINUOUS
 10
0.458591
 20
-3.612732
  0
VERTEX
  8
PLAN_1
  6
CONTINUOUS
 10
0.455839
 20
-3.616402
  0
VERTEX
  8
PLAN_1
  6
CONTINUOUS
 10
0.452626
 20
-3.619614
  0
VERTEX
  8
PLAN_1
  6
CONTINUOUS
 10
0.449413
 20
-3.622827
  0
VERTEX
  8
PLAN_1
  6
CONTINUOUS
 10
0.442531
 20
-3.627874
  0
VERTEX
  8
PLAN_1
  6
CONTINUOUS
 10
0.435650
 20
-3.632461
  0
VERTEX
  8
PLAN_1
  6
CONTINUOUS
 10
0.428768
 20
-3.635673
  0
VERTEX
  8
PLAN_1
  6
CONTINUOUS
 10
0.421886
 20
-3.638425
  0
VERTEX
  8
PLAN_1
  6
CONTINUOUS
 10
0.415465
 20
-3.640260
  0
VERTEX
  8
PLAN_1
  6
CONTINUOUS
 10
0.409039
 20
-3.641638
  0
VERTEX
  8
PLAN_1
  6
CONTINUOUS
 10
0.398488
 20
-3.643016
  0
VERTEX
  8
PLAN_1
  6
CONTINUOUS
 10
0.390689
 20
-3.643472
  0
VERTEX
  8
PLAN_1
  6
CONTINUOUS
 10
0.382429
 20
-3.643016
  0
VERTEX
  8
PLAN_1
  6
CONTINUOUS
 10
0.373713
 20
-3.642094
  0
VERTEX
  8
PLAN_1
  6
CONTINUOUS
 10
0.365453
 20
-3.640260
  0
VERTEX
  8
PLAN_1
  6
CONTINUOUS
 10
0.357654
 20
-3.637508
  0
VERTEX
  8
PLAN_1
  6
CONTINUOUS
 10
0.349854
 20
-3.634295
  0
VERTEX
  8
PLAN_1
  6
CONTINUOUS
 10
0.342512
 20
-3.630169
  0
VERTEX
  8
PLAN_1
  6
CONTINUOUS
 10
0.338843
 20
-3.627874
  0
VERTEX
  8
PLAN_1
  6
CONTINUOUS
 10
0.335630
 20
-3.625122
  0
VERTEX
  8
PLAN_1
  6
CONTINUOUS
 10
0.331961
 20
-3.622366
  0
VERTEX
  8
PLAN_1
  6
CONTINUOUS
 10
0.328748
 20
-3.619157
  0
VERTEX
  8
PLAN_1
  6
CONTINUOUS
 10
0.325996
 20
-3.615945
  0
VERTEX
  8
PLAN_1
  6
CONTINUOUS
 10
0.322783
 20
-3.612276
  0
VERTEX
  8
PLAN_1
  6
CONTINUOUS
 10
0.320031
 20
-3.608602
  0
VERTEX
  8
PLAN_1
  6
CONTINUOUS
 10
0.317280
 20
-3.604476
  0
VERTEX
  8
PLAN_1
  6
CONTINUOUS
 10
0.314984
 20
-3.600346
  0
VERTEX
  8
PLAN_1
  6
CONTINUOUS
 10
0.312693
 20
-3.595756
  0
VERTEX
  8
PLAN_1
  6
CONTINUOUS
 10
0.310398
 20
-3.591169
  0
VERTEX
  8
PLAN_1
  6
CONTINUOUS
 10
0.308563
 20
-3.586122
  0
VERTEX
  8
PLAN_1
  6
CONTINUOUS
 10
0.306728
 20
-3.581075
  0
VERTEX
  8
PLAN_1
  6
CONTINUOUS
 10
0.305350
 20
-3.575571
  0
VERTEX
  8
PLAN_1
  6
CONTINUOUS
 10
0.303972
 20
-3.570063
  0
VERTEX
  8
PLAN_1
  6
CONTINUOUS
 10
0.303055
 20
-3.564098
  0
VERTEX
  8
PLAN_1
  6
CONTINUOUS
 10
0.302138
 20
-3.557677
  0
VERTEX
  8
PLAN_1
  6
CONTINUOUS
 10
0.301681
 20
-3.551252
  0
VERTEX
  8
PLAN_1
  6
CONTINUOUS
 10
0.301220
 20
-3.544370
  0
VERTEX
  8
PLAN_1
  6
CONTINUOUS
 10
0.301220
 20
-3.537488
  0
VERTEX
  8
PLAN_1
  6
CONTINUOUS
 10
0.301220
 20
-3.526020
  0
VERTEX
  8
PLAN_1
  6
CONTINUOUS
 10
0.302598
 20
-3.515469
  0
VERTEX
  8
PLAN_1
  6
CONTINUOUS
 10
0.304433
 20
-3.504913
  0
VERTEX
  8
PLAN_1
  6
CONTINUOUS
 10
0.307185
 20
-3.495280
  0
VERTEX
  8
PLAN_1
  6
CONTINUOUS
 10
0.309020
 20
-3.490693
  0
VERTEX
  8
PLAN_1
  6
CONTINUOUS
 10
0.310858
 20
-3.486102
  0
VERTEX
  8
PLAN_1
  6
CONTINUOUS
 10
0.312693
 20
-3.481972
  0
VERTEX
  8
PLAN_1
  6
CONTINUOUS
 10
0.314984
 20
-3.477386
  0
VERTEX
  8
PLAN_1
  6
CONTINUOUS
 10
0.317740
 20
-3.473717
  0
VERTEX
  8
PLAN_1
  6
CONTINUOUS
 10
0.320031
 20
-3.469587
  0
VERTEX
  8
PLAN_1
  6
CONTINUOUS
 10
0.322783
 20
-3.465917
  0
VERTEX
  8
PLAN_1
  6
CONTINUOUS
 10
0.325539
 20
-3.462705
  0
VERTEX
  8
PLAN_1
  6
CONTINUOUS
 10
0.328748
 20
-3.459035
  0
VERTEX
  8
PLAN_1
  6
CONTINUOUS
 10
0.331961
 20
-3.455823
  0
VERTEX
  8
PLAN_1
  6
CONTINUOUS
 10
0.335630
 20
-3.453071
  0
VERTEX
  8
PLAN_1
  6
CONTINUOUS
 10
0.339303
 20
-3.450315
  0
VERTEX
  8
PLAN_1
  6
CONTINUOUS
 10
0.342972
 20
-3.447563
  0
VERTEX
  8
PLAN_1
  6
CONTINUOUS
 10
0.346642
 20
-3.445272
  0
VERTEX
  8
PLAN_1
  6
CONTINUOUS
 10
0.350772
 20
-3.442976
  0
VERTEX
  8
PLAN_1
  6
CONTINUOUS
 10
0.354902
 20
-3.441142
  0
VERTEX
  8
PLAN_1
  6
CONTINUOUS
 10
0.359488
 20
-3.439307
  0
VERTEX
  8
PLAN_1
  6
CONTINUOUS
 10
0.364079
 20
-3.437929
  0
VERTEX
  8
PLAN_1
  6
CONTINUOUS
 10
0.368665
 20
-3.436551
  0
VERTEX
  8
PLAN_1
  6
CONTINUOUS
 10
0.373252
 20
-3.435634
  0
VERTEX
  8
PLAN_1
  6
CONTINUOUS
 10
0.378299
 20
-3.434717
  0
VERTEX
  8
PLAN_1
  6
CONTINUOUS
 10
0.383346
 20
-3.434260
  0
VERTEX
  8
PLAN_1
  6
CONTINUOUS
 10
0.388854
 20
-3.433799
  0
VERTEX
  8
PLAN_1
  6
CONTINUOUS
 10
0.393898
 20
-3.433343
  0
VERTEX
  8
PLAN_1
  6
CONTINUOUS
 10
0.403535
 20
-3.433799
  0
VERTEX
  8
PLAN_1
  6
CONTINUOUS
 10
0.412252
 20
-3.435177
  0
VERTEX
  8
PLAN_1
  6
CONTINUOUS
 10
0.420512
 20
-3.436551
  0
VERTEX
  8
PLAN_1
  6
CONTINUOUS
 10
0.427850
 20
-3.439307
  0
VERTEX
  8
PLAN_1
  6
CONTINUOUS
 10
0.435193
 20
-3.442059
  0
VERTEX
  8
PLAN_1
  6
CONTINUOUS
 10
0.441614
 20
-3.445272
  0
VERTEX
  8
PLAN_1
  6
CONTINUOUS
 10
0.447579
 20
-3.449398
  0
VERTEX
  8
PLAN_1
  6
CONTINUOUS
 10
0.452626
 20
-3.453528
  0
VERTEX
  8
PLAN_1
  6
CONTINUOUS
 10
0.457673
 20
-3.458575
  0
VERTEX
  8
PLAN_1
  6
CONTINUOUS
 10
0.461803
 20
-3.463622
  0
VERTEX
  8
PLAN_1
  6
CONTINUOUS
 10
0.465472
 20
-3.469126
  0
VERTEX
  8
PLAN_1
  6
CONTINUOUS
 10
0.468685
 20
-3.474634
  0
VERTEX
  8
PLAN_1
  6
CONTINUOUS
 10
0.471437
 20
-3.480598
  0
VERTEX
  8
PLAN_1
  6
CONTINUOUS
 10
0.473272
 20
-3.486563
  0
VERTEX
  8
PLAN_1
  6
CONTINUOUS
 10
0.475106
 20
-3.492528
  0
VERTEX
  8
PLAN_1
  6
CONTINUOUS
 10
0.476024
 20
-3.498949
  0
VERTEX
  8
PLAN_1
  6
CONTINUOUS
 10
0.449874
 20
-3.498949
  0
SEQEND
  8
0
  0
POLYLINE
  8
PLAN_1
  6
CONTINUOUS
 66
     1
 40
0.003000
 41
0.003000
  0
VERTEX
  8
PLAN_1
  6
CONTINUOUS
 10
0.537504
 20
-3.637969
  0
VERTEX
  8
PLAN_1
  6
CONTINUOUS
 10
0.510437
 20
-3.637969
  0
VERTEX
  8
PLAN_1
  6
CONTINUOUS
 10
0.510437
 20
-3.438846
  0
VERTEX
  8
PLAN_1
  6
CONTINUOUS
 10
0.537504
 20
-3.438846
  0
VERTEX
  8
PLAN_1
  6
CONTINUOUS
 10
0.537504
 20
-3.535654
  0
VERTEX
  8
PLAN_1
  6
CONTINUOUS
 10
0.633854
 20
-3.438846
  0
VERTEX
  8
PLAN_1
  6
CONTINUOUS
 10
0.671016
 20
-3.438846
  0
VERTEX
  8
PLAN_1
  6
CONTINUOUS
 10
0.587972
 20
-3.519138
  0
VERTEX
  8
PLAN_1
  6
CONTINUOUS
 10
0.673311
 20
-3.637969
  0
VERTEX
  8
PLAN_1
  6
CONTINUOUS
 10
0.638441
 20
-3.637969
  0
VERTEX
  8
PLAN_1
  6
CONTINUOUS
 10
0.568705
 20
-3.538406
  0
VERTEX
  8
PLAN_1
  6
CONTINUOUS
 10
0.537504
 20
-3.568228
  0
VERTEX
  8
PLAN_1
  6
CONTINUOUS
 10
0.537504
 20
-3.637969
  0
SEQEND
  8
0
  0
POLYLINE
  8
PLAN_1
  6
CONTINUOUS
 66
     1
 40
0.003000
 41
0.003000
  0
VERTEX
  8
PLAN_1
  6
CONTINUOUS
 10
0.697169
 20
-3.438846
  0
VERTEX
  8
PLAN_1
  6
CONTINUOUS
 10
0.777917
 20
-3.438846
  0
VERTEX
  8
PLAN_1
  6
CONTINUOUS
 10
0.782504
 20
-3.438846
  0
VERTEX
  8
PLAN_1
  6
CONTINUOUS
 10
0.787094
 20
-3.439307
  0
VERTEX
  8
PLAN_1
  6
CONTINUOUS
 10
0.791681
 20
-3.439764
  0
VERTEX
  8
PLAN_1
  6
CONTINUOUS
 10
0.796268
 20
-3.440681
  0
VERTEX
  8
PLAN_1
  6
CONTINUOUS
 10
0.800858
 20
-3.441598
  0
VERTEX
  8
PLAN_1
  6
CONTINUOUS
 10
0.804988
 20
-3.442976
  0
VERTEX
  8
PLAN_1
  6
CONTINUOUS
 10
0.808657
 20
-3.444354
  0
VERTEX
  8
PLAN_1
  6
CONTINUOUS
 10
0.812787
 20
-3.445728
  0
VERTEX
  8
PLAN_1
  6
CONTINUOUS
 10
0.816457
 20
-3.447563
  0
VERTEX
  8
PLAN_1
  6
CONTINUOUS
 10
0.820126
 20
-3.449858
  0
VERTEX
  8
PLAN_1
  6
CONTINUOUS
 10
0.823795
 20
-3.452154
  0
VERTEX
  8
PLAN_1
  6
CONTINUOUS
 10
0.827008
 20
-3.454445
  0
VERTEX
  8
PLAN_1
  6
CONTINUOUS
 10
0.833433
 20
-3.459492
  0
VERTEX
  8
PLAN_1
  6
CONTINUOUS
 10
0.839398
 20
-3.465917
  0
VERTEX
  8
PLAN_1
  6
CONTINUOUS
 10
0.844445
 20
-3.472339
  0
VERTEX
  8
PLAN_1
  6
CONTINUOUS
 10
0.849031
 20
-3.479681
  0
VERTEX
  8
PLAN_1
  6
CONTINUOUS
 10
0.852701
 20
-3.487937
  0
VERTEX
  8
PLAN_1
  6
CONTINUOUS
 10
0.855913
 20
-3.496197
  0
VERTEX
  8
PLAN_1
  6
CONTINUOUS
 10
0.858209
 20
-3.505374
  0
VERTEX
  8
PLAN_1
  6
CONTINUOUS
 10
0.860043
 20
-3.515008
  0
VERTEX
  8
PLAN_1
  6
CONTINUOUS
 10
0.861417
 20
-3.525102
  0
VERTEX
  8
PLAN_1
  6
CONTINUOUS
 10
0.861878
 20
-3.535654
  0
VERTEX
  8
PLAN_1
  6
CONTINUOUS
 10
0.861417
 20
-3.544370
  0
VERTEX
  8
PLAN_1
  6
CONTINUOUS
 10
0.860500
 20
-3.553091
  0
VERTEX
  8
PLAN_1
  6
CONTINUOUS
 10
0.859583
 20
-3.561807
  0
VERTEX
  8
PLAN_1
  6
CONTINUOUS
 10
0.857748
 20
-3.570524
  0
VERTEX
  8
PLAN_1
  6
CONTINUOUS
 10
0.854996
 20
-3.579240
  0
VERTEX
  8
PLAN_1
  6
CONTINUOUS
 10
0.852244
 20
-3.587957
  0
VERTEX
  8
PLAN_1
  6
CONTINUOUS
 10
0.848114
 20
-3.595756
  0
VERTEX
  8
PLAN_1
  6
CONTINUOUS
 10
0.843528
 20
-3.603555
  0
VERTEX
  8
PLAN_1
  6
CONTINUOUS
 10
0.841232
 20
-3.607228
  0
VERTEX
  8
PLAN_1
  6
CONTINUOUS
 10
0.838480
 20
-3.610898
  0
VERTEX
  8
PLAN_1
  6
CONTINUOUS
 10
0.835724
 20
-3.614110
  0
VERTEX
  8
PLAN_1
  6
CONTINUOUS
 10
0.832516
 20
-3.617323
  0
VERTEX
  8
PLAN_1
  6
CONTINUOUS
 10
0.828843
 20
-3.620531
  0
VERTEX
  8
PLAN_1
  6
CONTINUOUS
 10
0.825634
 20
-3.623283
  0
VERTEX
  8
PLAN_1
  6
CONTINUOUS
 10
0.821504
 20
-3.626039
  0
VERTEX
  8
PLAN_1
  6
CONTINUOUS
 10
0.817835
 20
-3.628331
  0
VERTEX
  8
PLAN_1
  6
CONTINUOUS
 10
0.813244
 20
-3.630626
  0
VERTEX
  8
PLAN_1
  6
CONTINUOUS
 10
0.808657
 20
-3.632461
  0
VERTEX
  8
PLAN_1
  6
CONTINUOUS
 10
0.804067
 20
-3.634295
  0
VERTEX
  8
PLAN_1
  6
CONTINUOUS
 10
0.799024
 20
-3.635673
  0
VERTEX
  8
PLAN_1
  6
CONTINUOUS
 10
0.793976
 20
-3.636591
  0
VERTEX
  8
PLAN_1
  6
CONTINUOUS
 10
0.788469
 20
-3.637508
  0
VERTEX
  8
PLAN_1
  6
CONTINUOUS
 10
0.782504
 20
-3.637969
  0
VERTEX
  8
PLAN_1
  6
CONTINUOUS
 10
0.776539
 20
-3.637969
  0
VERTEX
  8
PLAN_1
  6
CONTINUOUS
 10
0.697169
 20
-3.637969
  0
VERTEX
  8
PLAN_1
  6
CONTINUOUS
 10
0.697169
 20
-3.438846
  0
SEQEND
  8
0
  0
POLYLINE
  8
PLAN_1
  6
CONTINUOUS
 66
     1
 40
0.003000
 41
0.003000
  0
VERTEX
  8
PLAN_1
  6
CONTINUOUS
 10
0.723780
 20
-3.615028
  0
VERTEX
  8
PLAN_1
  6
CONTINUOUS
 10
0.776083
 20
-3.615028
  0
VERTEX
  8
PLAN_1
  6
CONTINUOUS
 10
0.782504
 20
-3.614567
  0
VERTEX
  8
PLAN_1
  6
CONTINUOUS
 10
0.788469
 20
-3.613650
  0
VERTEX
  8
PLAN_1
  6
CONTINUOUS
 10
0.794433
 20
-3.612276
  0
VERTEX
  8
PLAN_1
  6
CONTINUOUS
 10
0.799941
 20
-3.609980
  0
VERTEX
  8
PLAN_1
  6
CONTINUOUS
 10
0.804988
 20
-3.607228
  0
VERTEX
  8
PLAN_1
  6
CONTINUOUS
 10
0.809575
 20
-3.603555
  0
VERTEX
  8
PLAN_1
  6
CONTINUOUS
 10
0.814161
 20
-3.599886
  0
VERTEX
  8
PLAN_1
  6
CONTINUOUS
 10
0.818291
 20
-3.595299
  0
VERTEX
  8
PLAN_1
  6
CONTINUOUS
 10
0.821504
 20
-3.589791
  0
VERTEX
  8
PLAN_1
  6
CONTINUOUS
 10
0.824717
 20
-3.584287
  0
VERTEX
  8
PLAN_1
  6
CONTINUOUS
 10
0.827469
 20
-3.577862
  0
VERTEX
  8
PLAN_1
  6
CONTINUOUS
 10
0.829760
 20
-3.570524
  0
VERTEX
  8
PLAN_1
  6
CONTINUOUS
 10
0.831598
 20
-3.563181
  0
VERTEX
  8
PLAN_1
  6
CONTINUOUS
 10
0.832972
 20
-3.555382
  0
VERTEX
  8
PLAN_1
  6
CONTINUOUS
 10
0.833433
 20
-3.546665
  0
VERTEX
  8
PLAN_1
  6
CONTINUOUS
 10
0.833890
 20
-3.537488
  0
VERTEX
  8
PLAN_1
  6
CONTINUOUS
 10
0.833433
 20
-3.528315
  0
VERTEX
  8
PLAN_1
  6
CONTINUOUS
 10
0.832972
 20
-3.519594
  0
VERTEX
  8
PLAN_1
  6
CONTINUOUS
 10
0.831598
 20
-3.511795
  0
VERTEX
  8
PLAN_1
  6
CONTINUOUS
 10
0.829760
 20
-3.504457
  0
VERTEX
  8
PLAN_1
  6
CONTINUOUS
 10
0.827469
 20
-3.497575
  0
VERTEX
  8
PLAN_1
  6
CONTINUOUS
 10
0.824717
 20
-3.491610
  0
VERTEX
  8
PLAN_1
  6
CONTINUOUS
 10
0.821504
 20
-3.485646
  0
VERTEX
  8
PLAN_1
  6
CONTINUOUS
 10
0.817835
 20
-3.480598
  0
VERTEX
  8
PLAN_1
  6
CONTINUOUS
 10
0.813705
 20
-3.476469
  0
VERTEX
  8
PLAN_1
  6
CONTINUOUS
 10
0.809114
 20
-3.472339
  0
VERTEX
  8
PLAN_1
  6
CONTINUOUS
 10
0.804067
 20
-3.469126
  0
VERTEX
  8
PLAN_1
  6
CONTINUOUS
 10
0.799024
 20
-3.466835
  0
VERTEX
  8
PLAN_1
  6
CONTINUOUS
 10
0.793516
 20
-3.464539
  0
VERTEX
  8
PLAN_1
  6
CONTINUOUS
 10
0.787094
 20
-3.463161
  0
VERTEX
  8
PLAN_1
  6
CONTINUOUS
 10
0.781130
 20
-3.462244
  0
VERTEX
  8
PLAN_1
  6
CONTINUOUS
 10
0.774248
 20
-3.461787
  0
VERTEX
  8
PLAN_1
  6
CONTINUOUS
 10
0.723780
 20
-3.461787
  0
VERTEX
  8
PLAN_1
  6
CONTINUOUS
 10
0.723780
 20
-3.615028
  0
SEQEND
  8
0
  0
POLYLINE
  8
PLAN_1
  6
CONTINUOUS
 66
     1
 40
0.003000
 41
0.003000
  0
VERTEX
  8
PLAN_1
  6
CONTINUOUS
 10
0.937122
 20
-3.526937
  0
VERTEX
  8
PLAN_1
  6
CONTINUOUS
 10
0.938957
 20
-3.527398
  0
VERTEX
  8
PLAN_1
  6
CONTINUOUS
 10
0.940335
 20
-3.527398
  0
VERTEX
  8
PLAN_1
  6
CONTINUOUS
 10
0.942169
 20
-3.527398
  0
VERTEX
  8
PLAN_1
  6
CONTINUOUS
 10
0.943543
 20
-3.527398
  0
VERTEX
  8
PLAN_1
  6
CONTINUOUS
 10
0.945378
 20
-3.527398
  0
VERTEX
  8
PLAN_1
  6
CONTINUOUS
 10
0.946756
 20
-3.527854
  0
VERTEX
  8
PLAN_1
  6
CONTINUOUS
 10
0.948591
 20
-3.527854
  0
VERTEX
  8
PLAN_1
  6
CONTINUOUS
 10
0.949969
 20
-3.527854
  0
VERTEX
  8
PLAN_1
  6
CONTINUOUS
 10
0.956850
 20
-3.527398
  0
VERTEX
  8
PLAN_1
  6
CONTINUOUS
 10
0.963732
 20
-3.526020
  0
VERTEX
  8
PLAN_1
  6
CONTINUOUS
 10
0.966945
 20
-3.525102
  0
VERTEX
  8
PLAN_1
  6
CONTINUOUS
 10
0.970154
 20
-3.524185
  0
VERTEX
  8
PLAN_1
  6
CONTINUOUS
 10
0.972909
 20
-3.522807
  0
VERTEX
  8
PLAN_1
  6
CONTINUOUS
 10
0.975661
 20
-3.520972
  0
VERTEX
  8
PLAN_1
  6
CONTINUOUS
 10
0.977957
 20
-3.518677
  0
VERTEX
  8
PLAN_1
  6
CONTINUOUS
 10
0.980248
 20
-3.516386
  0
VERTEX
  8
PLAN_1
  6
CONTINUOUS
 10
0.982543
 20
-3.514091
  0
VERTEX
  8
PLAN_1
  6
CONTINUOUS
 10
0.983917
 20
-3.510878
  0
VERTEX
  8
PLAN_1
  6
CONTINUOUS
 10
0.985295
 20
-3.507665
  0
VERTEX
  8
PLAN_1
  6
CONTINUOUS
 10
0.986213
 20
-3.503996
  0
VERTEX
  8
PLAN_1
  6
CONTINUOUS
 10
0.987130
 20
-3.500327
  0
VERTEX
  8
PLAN_1
  6
CONTINUOUS
 10
0.987130
 20
-3.495740
  0
VERTEX
  8
PLAN_1
  6
CONTINUOUS
 10
0.986673
 20
-3.491150
  0
VERTEX
  8
PLAN_1
  6
CONTINUOUS
 10
0.985756
 20
-3.486102
  0
VERTEX
  8
PLAN_1
  6
CONTINUOUS
 10
0.984839
 20
-3.483350
  0
VERTEX
  8
PLAN_1
  6
CONTINUOUS
 10
0.983461
 20
-3.481055
  0
VERTEX
  8
PLAN_1
  6
CONTINUOUS
 10
0.982083
 20
-3.478303
  0
VERTEX
  8
PLAN_1
  6
CONTINUOUS
 10
0.980248
 20
-3.476012
  0
VERTEX
  8
PLAN_1
  6
CONTINUOUS
 10
0.977957
 20
-3.473717
  0
VERTEX
  8
PLAN_1
  6
CONTINUOUS
 10
0.975201
 20
-3.471421
  0
VERTEX
  8
PLAN_1
  6
CONTINUOUS
 10
0.972449
 20
-3.469587
  0
VERTEX
  8
PLAN_1
  6
CONTINUOUS
 10
0.969236
 20
-3.468209
  0
VERTEX
  8
PLAN_1
  6
CONTINUOUS
 10
0.965110
 20
-3.466835
  0
VERTEX
  8
PLAN_1
  6
CONTINUOUS
 10
0.960980
 20
-3.465917
  0
VERTEX
  8
PLAN_1
  6
CONTINUOUS
 10
0.956390
 20
-3.465000
  0
VERTEX
  8
PLAN_1
  6
CONTINUOUS
 10
0.951343
 20
-3.465000
  0
VERTEX
  8
PLAN_1
  6
CONTINUOUS
 10
0.944921
 20
-3.465457
  0
VERTEX
  8
PLAN_1
  6
CONTINUOUS
 10
0.939417
 20
-3.466374
  0
VERTEX
  8
PLAN_1
  6
CONTINUOUS
 10
0.934827
 20
-3.467752
  0
VERTEX
  8
PLAN_1
  6
CONTINUOUS
 10
0.930697
 20
-3.469587
  0
VERTEX
  8
PLAN_1
  6
CONTINUOUS
 10
0.927028
 20
-3.471882
  0
VERTEX
  8
PLAN_1
  6
CONTINUOUS
 10
0.924276
 20
-3.474634
  0
VERTEX
  8
PLAN_1
  6
CONTINUOUS
 10
0.921524
 20
-3.477386
  0
VERTEX
  8
PLAN_1
  6
CONTINUOUS
 10
0.919685
 20
-3.480598
  0
VERTEX
  8
PLAN_1
  6
CONTINUOUS
 10
0.917850
 20
-3.484268
  0
VERTEX
  8
PLAN_1
  6
CONTINUOUS
 10
0.916476
 20
-3.487480
  0
VERTEX
  8
PLAN_1
  6
CONTINUOUS
 10
0.915559
 20
-3.491150
  0
VERTEX
  8
PLAN_1
  6
CONTINUOUS
 10
0.914642
 20
-3.494362
  0
VERTEX
  8
PLAN_1
  6
CONTINUOUS
 10
0.913724
 20
-3.501244
  0
VERTEX
  8
PLAN_1
  6
CONTINUOUS
 10
0.913264
 20
-3.506748
  0
VERTEX
  8
PLAN_1
  6
CONTINUOUS
 10
0.889406
 20
-3.506748
  0
VERTEX
  8
PLAN_1
  6
CONTINUOUS
 10
0.889406
 20
-3.501244
  0
VERTEX
  8
PLAN_1
  6
CONTINUOUS
 10
0.889866
 20
-3.495740
  0
VERTEX
  8
PLAN_1
  6
CONTINUOUS
 10
0.890783
 20
-3.490232
  0
VERTEX
  8
PLAN_1
  6
CONTINUOUS
 10
0.891701
 20
-3.484728
  0
VERTEX
  8
PLAN_1
  6
CONTINUOUS
 10
0.893535
 20
-3.479220
  0
VERTEX
  8
PLAN_1
  6
CONTINUOUS
 10
0.895831
 20
-3.474173
  0
VERTEX
  8
PLAN_1
  6
CONTINUOUS
 10
0.898122
 20
-3.469126
  0
VERTEX
  8
PLAN_1
  6
CONTINUOUS
 10
0.901335
 20
-3.464083
  0
VERTEX
  8
PLAN_1
  6
CONTINUOUS
 10
0.905465
 20
-3.459953
  0
VERTEX
  8
PLAN_1
  6
CONTINUOUS
 10
0.909594
 20
-3.455823
  0
VERTEX
  8
PLAN_1
  6
CONTINUOUS
 10
0.914642
 20
-3.452154
  0
VERTEX
  8
PLAN_1
  6
CONTINUOUS
 10
0.920606
 20
-3.448941
  0
VERTEX
  8
PLAN_1
  6
CONTINUOUS
 10
0.927488
 20
-3.446646
  0
VERTEX
  8
PLAN_1
  6
CONTINUOUS
 10
0.934827
 20
-3.444811
  0
VERTEX
  8
PLAN_1
  6
CONTINUOUS
 10
0.943087
 20
-3.443433
  0
VERTEX
  8
PLAN_1
  6
CONTINUOUS
 10
0.952264
 20
-3.442976
  0
VERTEX
  8
PLAN_1
  6
CONTINUOUS
 10
0.959146
 20
-3.443433
  0
VERTEX
  8
PLAN_1
  6
CONTINUOUS
 10
0.965567
 20
-3.443894
  0
VERTEX
  8
PLAN_1
  6
CONTINUOUS
 10
0.971992
 20
-3.445272
  0
VERTEX
  8
PLAN_1
  6
CONTINUOUS
 10
0.977496
 20
-3.446646
  0
VERTEX
  8
PLAN_1
  6
CONTINUOUS
 10
0.983000
 20
-3.448941
  0
VERTEX
  8
PLAN_1
  6
CONTINUOUS
 10
0.988047
 20
-3.451236
  0
VERTEX
  8
PLAN_1
  6
CONTINUOUS
 10
0.992177
 20
-3.454445
  0
VERTEX
  8
PLAN_1
  6
CONTINUOUS
 10
0.996307
 20
-3.457657
  0
VERTEX
  8
PLAN_1
  6
CONTINUOUS
 10
0.999976
 20
-3.461327
  0
VERTEX
  8
PLAN_1
  6
CONTINUOUS
 10
1.003189
 20
-3.465000
  0
VERTEX
  8
PLAN_1
  6
CONTINUOUS
 10
1.005941
 20
-3.469126
  0
VERTEX
  8
PLAN_1
  6
CONTINUOUS
 10
1.008236
 20
-3.473717
  0
VERTEX
  8
PLAN_1
  6
CONTINUOUS
 10
1.010071
 20
-3.478764
  0
VERTEX
  8
PLAN_1
  6
CONTINUOUS
 10
1.011449
 20
-3.483811
  0
VERTEX
  8
PLAN_1
  6
CONTINUOUS
 10
1.012366
 20
-3.488858
  0
VERTEX
  8
PLAN_1
  6
CONTINUOUS
 10
1.012366
 20
-3.494362
  0
VERTEX
  8
PLAN_1
  6
CONTINUOUS
 10
1.012366
 20
-3.498949
  0
VERTEX
  8
PLAN_1
  6
CONTINUOUS
 10
1.011906
 20
-3.503079
  0
VERTEX
  8
PLAN_1
  6
CONTINUOUS
 10
1.010988
 20
-3.507209
  0
VERTEX
  8
PLAN_1
  6
CONTINUOUS
 10
1.010071
 20
-3.510878
  0
VERTEX
  8
PLAN_1
  6
CONTINUOUS
 10
1.008693
 20
-3.514091
  0
VERTEX
  8
PLAN_1
  6
CONTINUOUS
 10
1.007319
 20
-3.517303
  0
VERTEX
  8
PLAN_1
  6
CONTINUOUS
 10
1.005484
 20
-3.520055
  0
VERTEX
  8
PLAN_1
  6
CONTINUOUS
 10
1.004106
 20
-3.522807
  0
VERTEX
  8
PLAN_1
  6
CONTINUOUS
 10
0.999976
 20
-3.526937
  0
VERTEX
  8
PLAN_1
  6
CONTINUOUS
 10
0.995846
 20
-3.530606
  0
VERTEX
  8
PLAN_1
  6
CONTINUOUS
 10
0.991720
 20
-3.532902
  0
VERTEX
  8
PLAN_1
  6
CONTINUOUS
 10
0.987591
 20
-3.534736
  0
VERTEX
  8
PLAN_1
  6
CONTINUOUS
 10
0.987591
 20
-3.535197
  0
VERTEX
  8
PLAN_1
  6
CONTINUOUS
 10
0.994472
 20
-3.537949
  0
VERTEX
  8
PLAN_1
  6
CONTINUOUS
 10
1.000437
 20
-3.541161
  0
VERTEX
  8
PLAN_1
  6
CONTINUOUS
 10
1.003189
 20
-3.542996
  0
VERTEX
  8
PLAN_1
  6
CONTINUOUS
 10
1.005941
 20
-3.545287
  0
VERTEX
  8
PLAN_1
  6
CONTINUOUS
 10
1.008693
 20
-3.547583
  0
VERTEX
  8
PLAN_1
  6
CONTINUOUS
 10
1.010988
 20
-3.550335
  0
VERTEX
  8
PLAN_1
  6
CONTINUOUS
 10
1.012823
 20
-3.553091
  0
VERTEX
  8
PLAN_1
  6
CONTINUOUS
 10
1.014657
 20
-3.556299
  0
VERTEX
  8
PLAN_1
  6
CONTINUOUS
 10
1.016035
 20
-3.559972
  0
VERTEX
  8
PLAN_1
  6
CONTINUOUS
 10
1.017413
 20
-3.563642
  0
VERTEX
  8
PLAN_1
  6
CONTINUOUS
 10
1.018787
 20
-3.567311
  0
VERTEX
  8
PLAN_1
  6
CONTINUOUS
 10
1.019248
 20
-3.571441
  0
VERTEX
  8
PLAN_1
  6
CONTINUOUS
 10
1.019705
 20
-3.576028
  0
VERTEX
  8
PLAN_1
  6
CONTINUOUS
 10
1.020165
 20
-3.580618
  0
VERTEX
  8
PLAN_1
  6
CONTINUOUS
 10
1.019705
 20
-3.586583
  0
VERTEX
  8
PLAN_1
  6
CONTINUOUS
 10
1.018787
 20
-3.592547
  0
VERTEX
  8
PLAN_1
  6
CONTINUOUS
 10
1.017870
 20
-3.598512
  0
VERTEX
  8
PLAN_1
  6
CONTINUOUS
 10
1.016035
 20
-3.604016
  0
VERTEX
  8
PLAN_1
  6
CONTINUOUS
 10
1.013740
 20
-3.609520
  0
VERTEX
  8
PLAN_1
  6
CONTINUOUS
 10
1.010988
 20
-3.614567
  0
VERTEX
  8
PLAN_1
  6
CONTINUOUS
 10
1.007319
 20
-3.619614
  0
VERTEX
  8
PLAN_1
  6
CONTINUOUS
 10
1.003650
 20
-3.624205
  0
VERTEX
  8
PLAN_1
  6
CONTINUOUS
 10
0.999059
 20
-3.628331
  0
VERTEX
  8
PLAN_1
  6
CONTINUOUS
 10
0.993555
 20
-3.632004
  0
VERTEX
  8
PLAN_1
  6
CONTINUOUS
 10
0.988047
 20
-3.635213
  0
VERTEX
  8
PLAN_1
  6
CONTINUOUS
 10
0.981626
 20
-3.637969
  0
VERTEX
  8
PLAN_1
  6
CONTINUOUS
 10
0.974744
 20
-3.640260
  0
VERTEX
  8
PLAN_1
  6
CONTINUOUS
 10
0.966945
 20
-3.642094
  0
VERTEX
  8
PLAN_1
  6
CONTINUOUS
 10
0.958685
 20
-3.643016
  0
VERTEX
  8
PLAN_1
  6
CONTINUOUS
 10
0.949508
 20
-3.643472
  0
VERTEX
  8
PLAN_1
  6
CONTINUOUS
 10
0.944461
 20
-3.643472
  0
VERTEX
  8
PLAN_1
  6
CONTINUOUS
 10
0.939417
 20
-3.642555
  0
VERTEX
  8
PLAN_1
  6
CONTINUOUS
 10
0.934370
 20
-3.642094
  0
VERTEX
  8
PLAN_1
  6
CONTINUOUS
 10
0.929780
 20
-3.641177
  0
VERTEX
  8
PLAN_1
  6
CONTINUOUS
 10
0.925193
 20
-3.639803
  0
VERTEX
  8
PLAN_1
  6
CONTINUOUS
 10
0.921063
 20
-3.638425
  0
VERTEX
  8
PLAN_1
  6
CONTINUOUS
 10
0.917394
 20
-3.636591
  0
VERTEX
  8
PLAN_1
  6
CONTINUOUS
 10
0.913724
 20
-3.634756
  0
VERTEX
  8
PLAN_1
  6
CONTINUOUS
 10
0.909594
 20
-3.632461
  0
VERTEX
  8
PLAN_1
  6
CONTINUOUS
 10
0.906382
 20
-3.630169
  0
VERTEX
  8
PLAN_1
  6
CONTINUOUS
 10
0.903169
 20
-3.627413
  0
VERTEX
  8
PLAN_1
  6
CONTINUOUS
 10
0.900417
 20
-3.624205
  0
VERTEX
  8
PLAN_1
  6
CONTINUOUS
 10
0.897665
 20
-3.621449
  0
VERTEX
  8
PLAN_1
  6
CONTINUOUS
 10
0.895370
 20
-3.617780
  0
VERTEX
  8
PLAN_1
  6
CONTINUOUS
 10
0.893535
 20
-3.614567
  0
VERTEX
  8
PLAN_1
  6
CONTINUOUS
 10
0.891701
 20
-3.610898
  0
VERTEX
  8
PLAN_1
  6
CONTINUOUS
 10
0.888949
 20
-3.603098
  0
VERTEX
  8
PLAN_1
  6
CONTINUOUS
 10
0.886654
 20
-3.595299
  0
VERTEX
  8
PLAN_1
  6
CONTINUOUS
 10
0.885276
 20
-3.587039
  0
VERTEX
  8
PLAN_1
  6
CONTINUOUS
 10
0.884358
 20
-3.578323
  0
VERTEX
  8
PLAN_1
  6
CONTINUOUS
 10
0.909594
 20
-3.578323
  0
VERTEX
  8
PLAN_1
  6
CONTINUOUS
 10
0.910512
 20
-3.585665
  0
VERTEX
  8
PLAN_1
  6
CONTINUOUS
 10
0.911429
 20
-3.593004
  0
VERTEX
  8
PLAN_1
  6
CONTINUOUS
 10
0.912346
 20
-3.596673
  0
VERTEX
  8
PLAN_1
  6
CONTINUOUS
 10
0.913724
 20
-3.600346
  0
VERTEX
  8
PLAN_1
  6
CONTINUOUS
 10
0.915098
 20
-3.603555
  0
VERTEX
  8
PLAN_1
  6
CONTINUOUS
 10
0.917394
 20
-3.606768
  0
VERTEX
  8
PLAN_1
  6
CONTINUOUS
 10
0.919685
 20
-3.609980
  0
VERTEX
  8
PLAN_1
  6
CONTINUOUS
 10
0.922441
 20
-3.612732
  0
VERTEX
  8
PLAN_1
  6
CONTINUOUS
 10
0.925650
 20
-3.615028
  0
VERTEX
  8
PLAN_1
  6
CONTINUOUS
 10
0.929780
 20
-3.617323
  0
VERTEX
  8
PLAN_1
  6
CONTINUOUS
 10
0.933909
 20
-3.619157
  0
VERTEX
  8
PLAN_1
  6
CONTINUOUS
 10
0.939417
 20
-3.620531
  0
VERTEX
  8
PLAN_1
  6
CONTINUOUS
 10
0.944921
 20
-3.620992
  0
VERTEX
  8
PLAN_1
  6
CONTINUOUS
 10
0.951343
 20
-3.621449
  0
VERTEX
  8
PLAN_1
  6
CONTINUOUS
 10
0.955933
 20
-3.621449
  0
VERTEX
  8
PLAN_1
  6
CONTINUOUS
 10
0.960520
 20
-3.620992
  0
VERTEX
  8
PLAN_1
  6
CONTINUOUS
 10
0.964650
 20
-3.620075
  0
VERTEX
  8
PLAN_1
  6
CONTINUOUS
 10
0.968780
 20
-3.618697
  0
VERTEX
  8
PLAN_1
  6
CONTINUOUS
 10
0.972449
 20
-3.617323
  0
VERTEX
  8
PLAN_1
  6
CONTINUOUS
 10
0.975661
 20
-3.615484
  0
VERTEX
  8
PLAN_1
  6
CONTINUOUS
 10
0.978874
 20
-3.613193
  0
VERTEX
  8
PLAN_1
  6
CONTINUOUS
 10
0.982083
 20
-3.610898
  0
VERTEX
  8
PLAN_1
  6
CONTINUOUS
 10
0.984839
 20
-3.608602
  0
VERTEX
  8
PLAN_1
  6
CONTINUOUS
 10
0.987130
 20
-3.605394
  0
VERTEX
  8
PLAN_1
  6
CONTINUOUS
 10
0.988965
 20
-3.602638
  0
VERTEX
  8
PLAN_1
  6
CONTINUOUS
 10
0.990803
 20
-3.598969
  0
VERTEX
  8
PLAN_1
  6
CONTINUOUS
 10
0.992177
 20
-3.595756
  0
VERTEX
  8
PLAN_1
  6
CONTINUOUS
 10
0.993094
 20
-3.591630
  0
VERTEX
  8
PLAN_1
  6
CONTINUOUS
 10
0.993555
 20
-3.587957
  0
VERTEX
  8
PLAN_1
  6
CONTINUOUS
 10
0.994012
 20
-3.583827
  0
VERTEX
  8
PLAN_1
  6
CONTINUOUS
 10
0.993555
 20
-3.577862
  0
VERTEX
  8
PLAN_1
  6
CONTINUOUS
 10
0.992638
 20
-3.572819
  0
VERTEX
  8
PLAN_1
  6
CONTINUOUS
 10
0.991260
 20
-3.568228
  0
VERTEX
  8
PLAN_1
  6
CONTINUOUS
 10
0.988965
 20
-3.564098
  0
VERTEX
  8
PLAN_1
  6
CONTINUOUS
 10
0.986673
 20
-3.560890
  0
VERTEX
  8
PLAN_1
  6
CONTINUOUS
 10
0.983917
 20
-3.558134
  0
VERTEX
  8
PLAN_1
  6
CONTINUOUS
 10
0.980709
 20
-3.555382
  0
VERTEX
  8
PLAN_1
  6
CONTINUOUS
 10
0.977496
 20
-3.553547
  0
VERTEX
  8
PLAN_1
  6
CONTINUOUS
 10
0.973827
 20
-3.551713
  0
VERTEX
  8
PLAN_1
  6
CONTINUOUS
 10
0.970154
 20
-3.550795
  0
VERTEX
  8
PLAN_1
  6
CONTINUOUS
 10
0.966484
 20
-3.549417
  0
VERTEX
  8
PLAN_1
  6
CONTINUOUS
 10
0.962354
 20
-3.548961
  0
VERTEX
  8
PLAN_1
  6
CONTINUOUS
 10
0.955016
 20
-3.548043
  0
VERTEX
  8
PLAN_1
  6
CONTINUOUS
 10
0.948134
 20
-3.548043
  0
VERTEX
  8
PLAN_1
  6
CONTINUOUS
 10
0.946756
 20
-3.548043
  0
VERTEX
  8
PLAN_1
  6
CONTINUOUS
 10
0.945378
 20
-3.548043
  0
VERTEX
  8
PLAN_1
  6
CONTINUOUS
 10
0.944004
 20
-3.548043
  0
VERTEX
  8
PLAN_1
  6
CONTINUOUS
 10
0.942626
 20
-3.548043
  0
VERTEX
  8
PLAN_1
  6
CONTINUOUS
 10
0.941252
 20
-3.548043
  0
VERTEX
  8
PLAN_1
  6
CONTINUOUS
 10
0.939874
 20
-3.548043
  0
VERTEX
  8
PLAN_1
  6
CONTINUOUS
 10
0.938496
 20
-3.548043
  0
VERTEX
  8
PLAN_1
  6
CONTINUOUS
 10
0.937122
 20
-3.548043
  0
VERTEX
  8
PLAN_1
  6
CONTINUOUS
 10
0.937122
 20
-3.526937
  0
SEQEND
  8
0
  0
POLYLINE
  8
PLAN_1
  6
CONTINUOUS
 66
     1
 40
0.003000
 41
0.003000
  0
VERTEX
  8
PLAN_1
  6
CONTINUOUS
 10
1.213319
 20
-3.483811
  0
VERTEX
  8
PLAN_1
  6
CONTINUOUS
 10
1.232130
 20
-3.483811
  0
VERTEX
  8
PLAN_1
  6
CONTINUOUS
 10
1.228004
 20
-3.498492
  0
VERTEX
  8
PLAN_1
  6
CONTINUOUS
 10
1.223874
 20
-3.513173
  0
VERTEX
  8
PLAN_1
  6
CONTINUOUS
 10
1.219744
 20
-3.527398
  0
VERTEX
  8
PLAN_1
  6
CONTINUOUS
 10
1.215614
 20
-3.540701
  0
VERTEX
  8
PLAN_1
  6
CONTINUOUS
 10
1.212402
 20
-3.552630
  0
VERTEX
  8
PLAN_1
  6
CONTINUOUS
 10
1.209650
 20
-3.562264
  0
VERTEX
  8
PLAN_1
  6
CONTINUOUS
 10
1.207815
 20
-3.570063
  0
VERTEX
  8
PLAN_1
  6
CONTINUOUS
 10
1.206898
 20
-3.574193
  0
VERTEX
  8
PLAN_1
  6
CONTINUOUS
 10
1.207354
 20
-3.576028
  0
VERTEX
  8
PLAN_1
  6
CONTINUOUS
 10
1.207354
 20
-3.577862
  0
VERTEX
  8
PLAN_1
  6
CONTINUOUS
 10
1.207815
 20
-3.579240
  0
VERTEX
  8
PLAN_1
  6
CONTINUOUS
 10
1.208272
 20
-3.580157
  0
VERTEX
  8
PLAN_1
  6
CONTINUOUS
 10
1.209193
 20
-3.581075
  0
VERTEX
  8
PLAN_1
  6
CONTINUOUS
 10
1.210110
 20
-3.581992
  0
VERTEX
  8
PLAN_1
  6
CONTINUOUS
 10
1.211484
 20
-3.582453
  0
VERTEX
  8
PLAN_1
  6
CONTINUOUS
 10
1.212862
 20
-3.582453
  0
VERTEX
  8
PLAN_1
  6
CONTINUOUS
 10
1.216531
 20
-3.581992
  0
VERTEX
  8
PLAN_1
  6
CONTINUOUS
 10
1.220201
 20
-3.581075
  0
VERTEX
  8
PLAN_1
  6
CONTINUOUS
 10
1.223413
 20
-3.579240
  0
VERTEX
  8
PLAN_1
  6
CONTINUOUS
 10
1.227083
 20
-3.576945
  0
VERTEX
  8
PLAN_1
  6
CONTINUOUS
 10
1.230295
 20
-3.574654
  0
VERTEX
  8
PLAN_1
  6
CONTINUOUS
 10
1.233508
 20
-3.571441
  0
VERTEX
  8
PLAN_1
  6
CONTINUOUS
 10
1.236720
 20
-3.567772
  0
VERTEX
  8
PLAN_1
  6
CONTINUOUS
 10
1.239929
 20
-3.563642
  0
VERTEX
  8
PLAN_1
  6
CONTINUOUS
 10
1.242224
 20
-3.559051
  0
VERTEX
  8
PLAN_1
  6
CONTINUOUS
 10
1.244976
 20
-3.554465
  0
VERTEX
  8
PLAN_1
  6
CONTINUOUS
 10
1.246811
 20
-3.549417
  0
VERTEX
  8
PLAN_1
  6
CONTINUOUS
 10
1.248650
 20
-3.544370
  0
VERTEX
  8
PLAN_1
  6
CONTINUOUS
 10
1.250484
 20
-3.538866
  0
VERTEX
  8
PLAN_1
  6
CONTINUOUS
 10
1.251402
 20
-3.533358
  0
VERTEX
  8
PLAN_1
  6
CONTINUOUS
 10
1.252319
 20
-3.527854
  0
VERTEX
  8
PLAN_1
  6
CONTINUOUS
 10
1.252319
 20
-3.522350
  0
VERTEX
  8
PLAN_1
  6
CONTINUOUS
 10
1.251858
 20
-3.514091
  0
VERTEX
  8
PLAN_1
  6
CONTINUOUS
 10
1.250941
 20
-3.506748
  0
VERTEX
  8
PLAN_1
  6
CONTINUOUS
 10
1.248650
 20
-3.499409
  0
VERTEX
  8
PLAN_1
  6
CONTINUOUS
 10
1.246354
 20
-3.492528
  0
VERTEX
  8
PLAN_1
  6
CONTINUOUS
 10
1.242685
 20
-3.486102
  0
VERTEX
  8
PLAN_1
  6
CONTINUOUS
 10
1.239012
 20
-3.480138
  0
VERTEX
  8
PLAN_1
  6
CONTINUOUS
 10
1.234425
 20
-3.474634
  0
VERTEX
  8
PLAN_1
  6
CONTINUOUS
 10
1.229378
 20
-3.470047
  0
VERTEX
  8
PLAN_1
  6
CONTINUOUS
 10
1.223874
 20
-3.465457
  0
VERTEX
  8
PLAN_1
  6
CONTINUOUS
 10
1.217909
 20
-3.461787
  0
VERTEX
  8
PLAN_1
  6
CONTINUOUS
 10
1.211484
 20
-3.458575
  0
VERTEX
  8
PLAN_1
  6
CONTINUOUS
 10
1.204602
 20
-3.455823
  0
VERTEX
  8
PLAN_1
  6
CONTINUOUS
 10
1.197720
 20
-3.453528
  0
VERTEX
  8
PLAN_1
  6
CONTINUOUS
 10
1.190382
 20
-3.452154
  0
VERTEX
  8
PLAN_1
  6
CONTINUOUS
 10
1.182579
 20
-3.451236
  0
VERTEX
  8
PLAN_1
  6
CONTINUOUS
 10
1.174780
 20
-3.450776
  0
VERTEX
  8
PLAN_1
  6
CONTINUOUS
 10
1.165606
 20
-3.451236
  0
VERTEX
  8
PLAN_1
  6
CONTINUOUS
 10
1.156886
 20
-3.452610
  0
VERTEX
  8
PLAN_1
  6
CONTINUOUS
 10
1.148630
 20
-3.454906
  0
VERTEX
  8
PLAN_1
  6
CONTINUOUS
 10
1.140831
 20
-3.457657
  0
VERTEX
  8
PLAN_1
  6
CONTINUOUS
 10
1.133488
 20
-3.461327
  0
VERTEX
  8
PLAN_1
  6
CONTINUOUS
 10
1.126606
 20
-3.465917
  0
VERTEX
  8
PLAN_1
  6
CONTINUOUS
 10
1.120185
 20
-3.470965
  0
VERTEX
  8
PLAN_1
  6
CONTINUOUS
 10
1.114220
 20
-3.476929
  0
VERTEX
  8
PLAN_1
  6
CONTINUOUS
 10
1.108713
 20
-3.482894
  0
VERTEX
  8
PLAN_1
  6
CONTINUOUS
 10
1.104126
 20
-3.489776
  0
VERTEX
  8
PLAN_1
  6
CONTINUOUS
 10
1.099996
 20
-3.497114
  0
VERTEX
  8
PLAN_1
  6
CONTINUOUS
 10
1.096783
 20
-3.504913
  0
VERTEX
  8
PLAN_1
  6
CONTINUOUS
 10
1.094031
 20
-3.513173
  0
VERTEX
  8
PLAN_1
  6
CONTINUOUS
 10
1.092197
 20
-3.521890
  0
VERTEX
  8
PLAN_1
  6
CONTINUOUS
 10
1.090819
 20
-3.530606
  0
VERTEX
  8
PLAN_1
  6
CONTINUOUS
 10
1.090362
 20
-3.539783
  0
VERTEX
  8
PLAN_1
  6
CONTINUOUS
 10
1.090819
 20
-3.548500
  0
VERTEX
  8
PLAN_1
  6
CONTINUOUS
 10
1.092197
 20
-3.557217
  0
VERTEX
  8
PLAN_1
  6
CONTINUOUS
 10
1.094492
 20
-3.565937
  0
VERTEX
  8
PLAN_1
  6
CONTINUOUS
 10
1.097244
 20
-3.573736
  0
VERTEX
  8
PLAN_1
  6
CONTINUOUS
 10
1.100913
 20
-3.581535
  0
VERTEX
  8
PLAN_1
  6
CONTINUOUS
 10
1.105043
 20
-3.588417
  0
VERTEX
  8
PLAN_1
  6
CONTINUOUS
 10
1.110091
 20
-3.595299
  0
VERTEX
  8
PLAN_1
  6
CONTINUOUS
 10
1.115594
 20
-3.601264
  0
VERTEX
  8
PLAN_1
  6
CONTINUOUS
 10
1.121559
 20
-3.606768
  0
VERTEX
  8
PLAN_1
  6
CONTINUOUS
 10
1.127984
 20
-3.611815
  0
VERTEX
  8
PLAN_1
  6
CONTINUOUS
 10
1.135323
 20
-3.615945
  0
VERTEX
  8
PLAN_1
  6
CONTINUOUS
 10
1.142665
 20
-3.619614
  0
VERTEX
  8
PLAN_1
  6
CONTINUOUS
 10
1.150925
 20
-3.622366
  0
VERTEX
  8
PLAN_1
  6
CONTINUOUS
 10
1.159181
 20
-3.624661
  0
VERTEX
  8
PLAN_1
  6
CONTINUOUS
 10
1.167898
 20
-3.625579
  0
VERTEX
  8
PLAN_1
  6
CONTINUOUS
 10
1.177075
 20
-3.626039
  0
VERTEX
  8
PLAN_1
  6
CONTINUOUS
 10
1.181661
 20
-3.626039
  0
VERTEX
  8
PLAN_1
  6
CONTINUOUS
 10
1.186709
 20
-3.625579
  0
VERTEX
  8
PLAN_1
  6
CONTINUOUS
 10
1.191299
 20
-3.625122
  0
VERTEX
  8
PLAN_1
  6
CONTINUOUS
 10
1.195886
 20
-3.624205
  0
VERTEX
  8
PLAN_1
  6
CONTINUOUS
 10
1.200933
 20
-3.622827
  0
VERTEX
  8
PLAN_1
  6
CONTINUOUS
 10
1.205520
 20
-3.621449
  0
VERTEX
  8
PLAN_1
  6
CONTINUOUS
 10
1.210110
 20
-3.619614
  0
VERTEX
  8
PLAN_1
  6
CONTINUOUS
 10
1.214236
 20
-3.617780
  0
VERTEX
  8
PLAN_1
  6
CONTINUOUS
 10
1.218827
 20
-3.615484
  0
VERTEX
  8
PLAN_1
  6
CONTINUOUS
 10
1.222957
 20
-3.613193
  0
VERTEX
  8
PLAN_1
  6
CONTINUOUS
 10
1.226626
 20
-3.610437
  0
VERTEX
  8
PLAN_1
  6
CONTINUOUS
 10
1.230756
 20
-3.607685
  0
VERTEX
  8
PLAN_1
  6
CONTINUOUS
 10
1.234425
 20
-3.604933
  0
VERTEX
  8
PLAN_1
  6
CONTINUOUS
 10
1.238094
 20
-3.601720
  0
VERTEX
  8
PLAN_1
  6
CONTINUOUS
 10
1.241307
 20
-3.598051
  0
VERTEX
  8
PLAN_1
  6
CONTINUOUS
 10
1.244520
 20
-3.594382
  0
VERTEX
  8
PLAN_1
  6
CONTINUOUS
 10
1.262870
 20
-3.594382
  0
VERTEX
  8
PLAN_1
  6
CONTINUOUS
 10
1.259201
 20
-3.599886
  0
VERTEX
  8
PLAN_1
  6
CONTINUOUS
 10
1.255531
 20
-3.605394
  0
VERTEX
  8
PLAN_1
  6
CONTINUOUS
 10
1.251402
 20
-3.610437
  0
VERTEX
  8
PLAN_1
  6
CONTINUOUS
 10
1.246811
 20
-3.615028
  0
VERTEX
  8
PLAN_1
  6
CONTINUOUS
 10
1.241768
 20
-3.619157
  0
VERTEX
  8
PLAN_1
  6
CONTINUOUS
 10
1.236720
 20
-3.623283
  0
VERTEX
  8
PLAN_1
  6
CONTINUOUS
 10
1.231673
 20
-3.626957
  0
VERTEX
  8
PLAN_1
  6
CONTINUOUS
 10
1.226165
 20
-3.630169
  0
VERTEX
  8
PLAN_1
  6
CONTINUOUS
 10
1.220661
 20
-3.633378
  0
VERTEX
  8
PLAN_1
  6
CONTINUOUS
 10
1.214697
 20
-3.636130
  0
VERTEX
  8
PLAN_1
  6
CONTINUOUS
 10
1.208272
 20
-3.637969
  0
VERTEX
  8
PLAN_1
  6
CONTINUOUS
 10
1.202311
 20
-3.640260
  0
VERTEX
  8
PLAN_1
  6
CONTINUOUS
 10
1.195886
 20
-3.641638
  0
VERTEX
  8
PLAN_1
  6
CONTINUOUS
 10
1.189465
 20
-3.642555
  0
VERTEX
  8
PLAN_1
  6
CONTINUOUS
 10
1.183039
 20
-3.643016
  0
VERTEX
  8
PLAN_1
  6
CONTINUOUS
 10
1.176157
 20
-3.643472
  0
VERTEX
  8
PLAN_1
  6
CONTINUOUS
 10
1.170654
 20
-3.643472
  0
VERTEX
  8
PLAN_1
  6
CONTINUOUS
 10
1.165146
 20
-3.643016
  0
VERTEX
  8
PLAN_1
  6
CONTINUOUS
 10
1.160098
 20
-3.642094
  0
VERTEX
  8
PLAN_1
  6
CONTINUOUS
 10
1.154594
 20
-3.641177
  0
VERTEX
  8
PLAN_1
  6
CONTINUOUS
 10
1.149547
 20
-3.640260
  0
VERTEX
  8
PLAN_1
  6
CONTINUOUS
 10
1.144500
 20
-3.638886
  0
VERTEX
  8
PLAN_1
  6
CONTINUOUS
 10
1.139453
 20
-3.637051
  0
VERTEX
  8
PLAN_1
  6
CONTINUOUS
 10
1.134866
 20
-3.635213
  0
VERTEX
  8
PLAN_1
  6
CONTINUOUS
 10
1.129819
 20
-3.633378
  0
VERTEX
  8
PLAN_1
  6
CONTINUOUS
 10
1.125228
 20
-3.631087
  0
VERTEX
  8
PLAN_1
  6
CONTINUOUS
 10
1.121102
 20
-3.628331
  0
VERTEX
  8
PLAN_1
  6
CONTINUOUS
 10
1.116512
 20
-3.625579
  0
VERTEX
  8
PLAN_1
  6
CONTINUOUS
 10
1.112382
 20
-3.622827
  0
VERTEX
  8
PLAN_1
  6
CONTINUOUS
 10
1.108713
 20
-3.619614
  0
VERTEX
  8
PLAN_1
  6
CONTINUOUS
 10
1.104583
 20
-3.616402
  0
VERTEX
  8
PLAN_1
  6
CONTINUOUS
 10
1.100913
 20
-3.612732
  0
VERTEX
  8
PLAN_1
  6
CONTINUOUS
 10
1.097701
 20
-3.609063
  0
VERTEX
  8
PLAN_1
  6
CONTINUOUS
 10
1.094031
 20
-3.605394
  0
VERTEX
  8
PLAN_1
  6
CONTINUOUS
 10
1.091280
 20
-3.601264
  0
VERTEX
  8
PLAN_1
  6
CONTINUOUS
 10
1.088067
 20
-3.597134
  0
VERTEX
  8
PLAN_1
  6
CONTINUOUS
 10
1.085315
 20
-3.593004
  0
VERTEX
  8
PLAN_1
  6
CONTINUOUS
 10
1.083020
 20
-3.588417
  0
VERTEX
  8
PLAN_1
  6
CONTINUOUS
 10
1.080728
 20
-3.583827
  0
VERTEX
  8
PLAN_1
  6
CONTINUOUS
 10
1.078433
 20
-3.579240
  0
VERTEX
  8
PLAN_1
  6
CONTINUOUS
 10
1.076598
 20
-3.574654
  0
VERTEX
  8
PLAN_1
  6
CONTINUOUS
 10
1.074764
 20
-3.569606
  0
VERTEX
  8
PLAN_1
  6
CONTINUOUS
 10
1.073386
 20
-3.564559
  0
VERTEX
  8
PLAN_1
  6
CONTINUOUS
 10
1.072469
 20
-3.559512
  0
VERTEX
  8
PLAN_1
  6
CONTINUOUS
 10
1.071551
 20
-3.554008
  0
VERTEX
  8
PLAN_1
  6
CONTINUOUS
 10
1.070634
 20
-3.548961
  0
VERTEX
  8
PLAN_1
  6
CONTINUOUS
 10
1.070173
 20
-3.543453
  0
VERTEX
  8
PLAN_1
  6
CONTINUOUS
 10
1.070173
 20
-3.537949
  0
VERTEX
  8
PLAN_1
  6
CONTINUOUS
 10
1.070173
 20
-3.532441
  0
VERTEX
  8
PLAN_1
  6
CONTINUOUS
 10
1.070634
 20
-3.527398
  0
VERTEX
  8
PLAN_1
  6
CONTINUOUS
 10
1.071551
 20
-3.521890
  0
VERTEX
  8
PLAN_1
  6
CONTINUOUS
 10
1.072469
 20
-3.516843
  0
VERTEX
  8
PLAN_1
  6
CONTINUOUS
 10
1.073386
 20
-3.511795
  0
VERTEX
  8
PLAN_1
  6
CONTINUOUS
 10
1.075220
 20
-3.506748
  0
VERTEX
  8
PLAN_1
  6
CONTINUOUS
 10
1.076598
 20
-3.501705
  0
VERTEX
  8
PLAN_1
  6
CONTINUOUS
 10
1.078433
 20
-3.497114
  0
VERTEX
  8
PLAN_1
  6
CONTINUOUS
 10
1.080728
 20
-3.492528
  0
VERTEX
  8
PLAN_1
  6
CONTINUOUS
 10
1.083020
 20
-3.487937
  0
VERTEX
  8
PLAN_1
  6
CONTINUOUS
 10
1.085772
 20
-3.483811
  0
VERTEX
  8
PLAN_1
  6
CONTINUOUS
 10
1.088067
 20
-3.479220
  0
VERTEX
  8
PLAN_1
  6
CONTINUOUS
 10
1.091280
 20
-3.475551
  0
VERTEX
  8
PLAN_1
  6
CONTINUOUS
 10
1.094492
 20
-3.471421
  0
VERTEX
  8
PLAN_1
  6
CONTINUOUS
 10
1.097701
 20
-3.467752
  0
VERTEX
  8
PLAN_1
  6
CONTINUOUS
 10
1.100913
 20
-3.464083
  0
VERTEX
  8
PLAN_1
  6
CONTINUOUS
 10
1.104583
 20
-3.460409
  0
VERTEX
  8
PLAN_1
  6
CONTINUOUS
 10
1.108713
 20
-3.457201
  0
VERTEX
  8
PLAN_1
  6
CONTINUOUS
 10
1.112382
 20
-3.453988
  0
VERTEX
  8
PLAN_1
  6
CONTINUOUS
 10
1.116512
 20
-3.451236
  0
VERTEX
  8
PLAN_1
  6
CONTINUOUS
 10
1.121102
 20
-3.448480
  0
VERTEX
  8
PLAN_1
  6
CONTINUOUS
 10
1.125228
 20
-3.446189
  0
VERTEX
  8
PLAN_1
  6
CONTINUOUS
 10
1.129819
 20
-3.443894
  0
VERTEX
  8
PLAN_1
  6
CONTINUOUS
 10
1.134406
 20
-3.441598
  0
VERTEX
  8
PLAN_1
  6
CONTINUOUS
 10
1.138996
 20
-3.439764
  0
VERTEX
  8
PLAN_1
  6
CONTINUOUS
 10
1.144039
 20
-3.438390
  0
VERTEX
  8
PLAN_1
  6
CONTINUOUS
 10
1.149087
 20
-3.437012
  0
VERTEX
  8
PLAN_1
  6
CONTINUOUS
 10
1.154134
 20
-3.435634
  0
VERTEX
  8
PLAN_1
  6
CONTINUOUS
 10
1.159181
 20
-3.434717
  0
VERTEX
  8
PLAN_1
  6
CONTINUOUS
 10
1.164228
 20
-3.434260
  0
VERTEX
  8
PLAN_1
  6
CONTINUOUS
 10
1.169732
 20
-3.433799
  0
VERTEX
  8
PLAN_1
  6
CONTINUOUS
 10
1.174780
 20
-3.433343
  0
VERTEX
  8
PLAN_1
  6
CONTINUOUS
 10
1.184417
 20
-3.433799
  0
VERTEX
  8
PLAN_1
  6
CONTINUOUS
 10
1.193591
 20
-3.435177
  0
VERTEX
  8
PLAN_1
  6
CONTINUOUS
 10
1.202768
 20
-3.437012
  0
VERTEX
  8
PLAN_1
  6
CONTINUOUS
 10
1.211484
 20
-3.440224
  0
VERTEX
  8
PLAN_1
  6
CONTINUOUS
 10
1.219744
 20
-3.443433
  0
VERTEX
  8
PLAN_1
  6
CONTINUOUS
 10
1.227543
 20
-3.447563
  0
VERTEX
  8
PLAN_1
  6
CONTINUOUS
 10
1.234886
 20
-3.452610
  0
VERTEX
  8
PLAN_1
  6
CONTINUOUS
 10
1.241768
 20
-3.458118
  0
VERTEX
  8
PLAN_1
  6
CONTINUOUS
 10
1.248189
 20
-3.464083
  0
VERTEX
  8
PLAN_1
  6
CONTINUOUS
 10
1.253697
 20
-3.470504
  0
VERTEX
  8
PLAN_1
  6
CONTINUOUS
 10
1.258740
 20
-3.477846
  0
VERTEX
  8
PLAN_1
  6
CONTINUOUS
 10
1.262870
 20
-3.485185
  0
VERTEX
  8
PLAN_1
  6
CONTINUOUS
 10
1.264248
 20
-3.489315
  0
VERTEX
  8
PLAN_1
  6
CONTINUOUS
 10
1.266083
 20
-3.493445
  0
VERTEX
  8
PLAN_1
  6
CONTINUOUS
 10
1.267461
 20
-3.497575
  0
VERTEX
  8
PLAN_1
  6
CONTINUOUS
 10
1.268378
 20
-3.502161
  0
VERTEX
  8
PLAN_1
  6
CONTINUOUS
 10
1.269295
 20
-3.506291
  0
VERTEX
  8
PLAN_1
  6
CONTINUOUS
 10
1.269752
 20
-3.510878
  0
VERTEX
  8
PLAN_1
  6
CONTINUOUS
 10
1.270213
 20
-3.515469
  0
VERTEX
  8
PLAN_1
  6
CONTINUOUS
 10
1.270213
 20
-3.520055
  0
VERTEX
  8
PLAN_1
  6
CONTINUOUS
 10
1.270213
 20
-3.524642
  0
VERTEX
  8
PLAN_1
  6
CONTINUOUS
 10
1.269752
 20
-3.529232
  0
VERTEX
  8
PLAN_1
  6
CONTINUOUS
 10
1.269295
 20
-3.533819
  0
VERTEX
  8
PLAN_1
  6
CONTINUOUS
 10
1.268378
 20
-3.537949
  0
VERTEX
  8
PLAN_1
  6
CONTINUOUS
 10
1.266543
 20
-3.546205
  0
VERTEX
  8
PLAN_1
  6
CONTINUOUS
 10
1.263331
 20
-3.554008
  0
VERTEX
  8
PLAN_1
  6
CONTINUOUS
 10
1.260118
 20
-3.560890
  0
VERTEX
  8
PLAN_1
  6
CONTINUOUS
 10
1.255988
 20
-3.567772
  0
VERTEX
  8
PLAN_1
  6
CONTINUOUS
 10
1.251402
 20
-3.573736
  0
VERTEX
  8
PLAN_1
  6
CONTINUOUS
 10
1.246354
 20
-3.579240
  0
VERTEX
  8
PLAN_1
  6
CONTINUOUS
 10
1.241307
 20
-3.583827
  0
VERTEX
  8
PLAN_1
  6
CONTINUOUS
 10
1.235803
 20
-3.588417
  0
VERTEX
  8
PLAN_1
  6
CONTINUOUS
 10
1.230295
 20
-3.592087
  0
VERTEX
  8
PLAN_1
  6
CONTINUOUS
 10
1.224791
 20
-3.594839
  0
VERTEX
  8
PLAN_1
  6
CONTINUOUS
 10
1.219283
 20
-3.597134
  0
VERTEX
  8
PLAN_1
  6
CONTINUOUS
 10
1.213780
 20
-3.598969
  0
VERTEX
  8
PLAN_1
  6
CONTINUOUS
 10
1.208732
 20
-3.599886
  0
VERTEX
  8
PLAN_1
  6
CONTINUOUS
 10
1.204146
 20
-3.600346
  0
VERTEX
  8
PLAN_1
  6
CONTINUOUS
 10
1.200472
 20
-3.600346
  0
VERTEX
  8
PLAN_1
  6
CONTINUOUS
 10
1.197264
 20
-3.599429
  0
VERTEX
  8
PLAN_1
  6
CONTINUOUS
 10
1.194508
 20
-3.598051
  0
VERTEX
  8
PLAN_1
  6
CONTINUOUS
 10
1.191756
 20
-3.596217
  0
VERTEX
  8
PLAN_1
  6
CONTINUOUS
 10
1.189465
 20
-3.593921
  0
VERTEX
  8
PLAN_1
  6
CONTINUOUS
 10
1.188087
 20
-3.590709
  0
VERTEX
  8
PLAN_1
  6
CONTINUOUS
 10
1.186709
 20
-3.587039
  0
VERTEX
  8
PLAN_1
  6
CONTINUOUS
 10
1.186252
 20
-3.582909
  0
VERTEX
  8
PLAN_1
  6
CONTINUOUS
 10
1.185791
 20
-3.583370
  0
VERTEX
  8
PLAN_1
  6
CONTINUOUS
 10
1.182579
 20
-3.586583
  0
VERTEX
  8
PLAN_1
  6
CONTINUOUS
 10
1.178909
 20
-3.589335
  0
VERTEX
  8
PLAN_1
  6
CONTINUOUS
 10
1.175240
 20
-3.592547
  0
VERTEX
  8
PLAN_1
  6
CONTINUOUS
 10
1.171110
 20
-3.594839
  0
VERTEX
  8
PLAN_1
  6
CONTINUOUS
 10
1.166524
 20
-3.597134
  0
VERTEX
  8
PLAN_1
  6
CONTINUOUS
 10
1.161933
 20
-3.598969
  0
VERTEX
  8
PLAN_1
  6
CONTINUOUS
 10
1.157346
 20
-3.599886
  0
VERTEX
  8
PLAN_1
  6
CONTINUOUS
 10
1.152299
 20
-3.600346
  0
VERTEX
  8
PLAN_1
  6
CONTINUOUS
 10
1.148169
 20
-3.600346
  0
VERTEX
  8
PLAN_1
  6
CONTINUOUS
 10
1.144039
 20
-3.599429
  0
VERTEX
  8
PLAN_1
  6
CONTINUOUS
 10
1.139913
 20
-3.598512
  0
VERTEX
  8
PLAN_1
  6
CONTINUOUS
 10
1.135783
 20
-3.596673
  0
VERTEX
  8
PLAN_1
  6
CONTINUOUS
 10
1.132571
 20
-3.594839
  0
VERTEX
  8
PLAN_1
  6
CONTINUOUS
 10
1.128902
 20
-3.592547
  0
VERTEX
  8
PLAN_1
  6
CONTINUOUS
 10
1.125689
 20
-3.590252
  0
VERTEX
  8
PLAN_1
  6
CONTINUOUS
 10
1.122937
 20
-3.587039
  0
VERTEX
  8
PLAN_1
  6
CONTINUOUS
 10
1.120642
 20
-3.584287
  0
VERTEX
  8
PLAN_1
  6
CONTINUOUS
 10
1.118346
 20
-3.580618
  0
VERTEX
  8
PLAN_1
  6
CONTINUOUS
 10
1.116055
 20
-3.576945
  0
VERTEX
  8
PLAN_1
  6
CONTINUOUS
 10
1.114677
 20
-3.573276
  0
VERTEX
  8
PLAN_1
  6
CONTINUOUS
 10
1.113303
 20
-3.569146
  0
VERTEX
  8
PLAN_1
  6
CONTINUOUS
 10
1.112382
 20
-3.565016
  0
VERTEX
  8
PLAN_1
  6
CONTINUOUS
 10
1.111925
 20
-3.560429
  0
VERTEX
  8
PLAN_1
  6
CONTINUOUS
 10
1.111465
 20
-3.555843
  0
VERTEX
  8
PLAN_1
  6
CONTINUOUS
 10
1.111925
 20
-3.548961
  0
VERTEX
  8
PLAN_1
  6
CONTINUOUS
 10
1.112843
 20
-3.542079
  0
VERTEX
  8
PLAN_1
  6
CONTINUOUS
 10
1.114220
 20
-3.535197
  0
VERTEX
  8
PLAN_1
  6
CONTINUOUS
 10
1.116055
 20
-3.528315
  0
VERTEX
  8
PLAN_1
  6
CONTINUOUS
 10
1.118807
 20
-3.521433
  0
VERTEX
  8
PLAN_1
  6
CONTINUOUS
 10
1.121559
 20
-3.515469
  0
VERTEX
  8
PLAN_1
  6
CONTINUOUS
 10
1.125228
 20
-3.509043
  0
VERTEX
  8
PLAN_1
  6
CONTINUOUS
 10
1.129358
 20
-3.503539
  0
VERTEX
  8
PLAN_1
  6
CONTINUOUS
 10
1.133488
 20
-3.498492
  0
VERTEX
  8
PLAN_1
  6
CONTINUOUS
 10
1.138535
 20
-3.493902
  0
VERTEX
  8
PLAN_1
  6
CONTINUOUS
 10
1.143583
 20
-3.489776
  0
VERTEX
  8
PLAN_1
  6
CONTINUOUS
 10
1.149547
 20
-3.486102
  0
VERTEX
  8
PLAN_1
  6
CONTINUOUS
 10
1.155512
 20
-3.483350
  0
VERTEX
  8
PLAN_1
  6
CONTINUOUS
 10
1.161933
 20
-3.481055
  0
VERTEX
  8
PLAN_1
  6
CONTINUOUS
 10
1.168815
 20
-3.479681
  0
VERTEX
  8
PLAN_1
  6
CONTINUOUS
 10
1.175697
 20
-3.479220
  0
VERTEX
  8
PLAN_1
  6
CONTINUOUS
 10
1.180744
 20
-3.479681
  0
VERTEX
  8
PLAN_1
  6
CONTINUOUS
 10
1.185335
 20
-3.480598
  0
VERTEX
  8
PLAN_1
  6
CONTINUOUS
 10
1.189921
 20
-3.481972
  0
VERTEX
  8
PLAN_1
  6
CONTINUOUS
 10
1.194051
 20
-3.484268
  0
VERTEX
  8
PLAN_1
  6
CONTINUOUS
 10
1.197720
 20
-3.487480
  0
VERTEX
  8
PLAN_1
  6
CONTINUOUS
 10
1.201390
 20
-3.491150
  0
VERTEX
  8
PLAN_1
  6
CONTINUOUS
 10
1.204602
 20
-3.495740
  0
VERTEX
  8
PLAN_1
  6
CONTINUOUS
 10
1.207815
 20
-3.501244
  0
VERTEX
  8
PLAN_1
  6
CONTINUOUS
 10
1.213319
 20
-3.483811
  0
SEQEND
  8
0
  0
POLYLINE
  8
PLAN_1
  6
CONTINUOUS
 66
     1
 40
0.003000
 41
0.003000
  0
VERTEX
  8
PLAN_1
  6
CONTINUOUS
 10
1.176157
 20
-3.499409
  0
VERTEX
  8
PLAN_1
  6
CONTINUOUS
 10
1.171571
 20
-3.499866
  0
VERTEX
  8
PLAN_1
  6
CONTINUOUS
 10
1.167441
 20
-3.500783
  0
VERTEX
  8
PLAN_1
  6
CONTINUOUS
 10
1.163311
 20
-3.502161
  0
VERTEX
  8
PLAN_1
  6
CONTINUOUS
 10
1.159181
 20
-3.504457
  0
VERTEX
  8
PLAN_1
  6
CONTINUOUS
 10
1.155512
 20
-3.507209
  0
VERTEX
  8
PLAN_1
  6
CONTINUOUS
 10
1.152299
 20
-3.510421
  0
VERTEX
  8
PLAN_1
  6
CONTINUOUS
 10
1.149087
 20
-3.514091
  0
VERTEX
  8
PLAN_1
  6
CONTINUOUS
 10
1.145878
 20
-3.517760
  0
VERTEX
  8
PLAN_1
  6
CONTINUOUS
 10
1.143583
 20
-3.521890
  0
VERTEX
  8
PLAN_1
  6
CONTINUOUS
 10
1.141287
 20
-3.526020
  0
VERTEX
  8
PLAN_1
  6
CONTINUOUS
 10
1.138996
 20
-3.530606
  0
VERTEX
  8
PLAN_1
  6
CONTINUOUS
 10
1.137618
 20
-3.535197
  0
VERTEX
  8
PLAN_1
  6
CONTINUOUS
 10
1.136240
 20
-3.539783
  0
VERTEX
  8
PLAN_1
  6
CONTINUOUS
 10
1.135323
 20
-3.544370
  0
VERTEX
  8
PLAN_1
  6
CONTINUOUS
 10
1.134406
 20
-3.548961
  0
VERTEX
  8
PLAN_1
  6
CONTINUOUS
 10
1.134406
 20
-3.553547
  0
VERTEX
  8
PLAN_1
  6
CONTINUOUS
 10
1.134866
 20
-3.559051
  0
VERTEX
  8
PLAN_1
  6
CONTINUOUS
 10
1.136240
 20
-3.564559
  0
VERTEX
  8
PLAN_1
  6
CONTINUOUS
 10
1.137157
 20
-3.566854
  0
VERTEX
  8
PLAN_1
  6
CONTINUOUS
 10
1.138075
 20
-3.569146
  0
VERTEX
  8
PLAN_1
  6
CONTINUOUS
 10
1.139453
 20
-3.570980
  0
VERTEX
  8
PLAN_1
  6
CONTINUOUS
 10
1.140831
 20
-3.572819
  0
VERTEX
  8
PLAN_1
  6
CONTINUOUS
 10
1.142665
 20
-3.574654
  0
VERTEX
  8
PLAN_1
  6
CONTINUOUS
 10
1.144039
 20
-3.576028
  0
VERTEX
  8
PLAN_1
  6
CONTINUOUS
 10
1.146335
 20
-3.577406
  0
VERTEX
  8
PLAN_1
  6
CONTINUOUS
 10
1.148169
 20
-3.578323
  0
VERTEX
  8
PLAN_1
  6
CONTINUOUS
 10
1.150465
 20
-3.579240
  0
VERTEX
  8
PLAN_1
  6
CONTINUOUS
 10
1.152760
 20
-3.579701
  0
VERTEX
  8
PLAN_1
  6
CONTINUOUS
 10
1.155051
 20
-3.580157
  0
VERTEX
  8
PLAN_1
  6
CONTINUOUS
 10
1.157807
 20
-3.580618
  0
VERTEX
  8
PLAN_1
  6
CONTINUOUS
 10
1.161933
 20
-3.580157
  0
VERTEX
  8
PLAN_1
  6
CONTINUOUS
 10
1.166063
 20
-3.578783
  0
VERTEX
  8
PLAN_1
  6
CONTINUOUS
 10
1.170193
 20
-3.577406
  0
VERTEX
  8
PLAN_1
  6
CONTINUOUS
 10
1.174323
 20
-3.574654
  0
VERTEX
  8
PLAN_1
  6
CONTINUOUS
 10
1.177535
 20
-3.571898
  0
VERTEX
  8
PLAN_1
  6
CONTINUOUS
 10
1.181205
 20
-3.568689
  0
VERTEX
  8
PLAN_1
  6
CONTINUOUS
 10
1.184417
 20
-3.565016
  0
VERTEX
  8
PLAN_1
  6
CONTINUOUS
 10
1.187169
 20
-3.560890
  0
VERTEX
  8
PLAN_1
  6
CONTINUOUS
 10
1.189921
 20
-3.556760
  0
VERTEX
  8
PLAN_1
  6
CONTINUOUS
 10
1.192217
 20
-3.552169
  0
VERTEX
  8
PLAN_1
  6
CONTINUOUS
 10
1.194051
 20
-3.547583
  0
VERTEX
  8
PLAN_1
  6
CONTINUOUS
 10
1.195886
 20
-3.542996
  0
VERTEX
  8
PLAN_1
  6
CONTINUOUS
 10
1.197264
 20
-3.538406
  0
VERTEX
  8
PLAN_1
  6
CONTINUOUS
 10
1.198181
 20
-3.533819
  0
VERTEX
  8
PLAN_1
  6
CONTINUOUS
 10
1.198638
 20
-3.529232
  0
VERTEX
  8
PLAN_1
  6
CONTINUOUS
 10
1.199098
 20
-3.525102
  0
VERTEX
  8
PLAN_1
  6
CONTINUOUS
 10
1.198638
 20
-3.520055
  0
VERTEX
  8
PLAN_1
  6
CONTINUOUS
 10
1.197264
 20
-3.515008
  0
VERTEX
  8
PLAN_1
  6
CONTINUOUS
 10
1.194969
 20
-3.510878
  0
VERTEX
  8
PLAN_1
  6
CONTINUOUS
 10
1.192217
 20
-3.507209
  0
VERTEX
  8
PLAN_1
  6
CONTINUOUS
 10
1.189004
 20
-3.503996
  0
VERTEX
  8
PLAN_1
  6
CONTINUOUS
 10
1.184874
 20
-3.501244
  0
VERTEX
  8
PLAN_1
  6
CONTINUOUS
 10
1.183039
 20
-3.500783
  0
VERTEX
  8
PLAN_1
  6
CONTINUOUS
 10
1.180744
 20
-3.499866
  0
VERTEX
  8
PLAN_1
  6
CONTINUOUS
 10
1.178453
 20
-3.499409
  0
VERTEX
  8
PLAN_1
  6
CONTINUOUS
 10
1.176157
 20
-3.499409
  0
SEQEND
  8
0
  0
SOLID
  8
PLAN_1
 10
1.311504
 20
-3.672835
 11
1.311504
 21
-3.659071
 12
1.465661
 22
-3.672835
 13
1.465661
 23
-3.659071
  0
POLYLINE
  8
PLAN_1
  6
CONTINUOUS
 66
     1
 40
0.003000
 41
0.003000
  0
VERTEX
  8
PLAN_1
  6
CONTINUOUS
 10
1.311504
 20
-3.672835
  0
VERTEX
  8
PLAN_1
  6
CONTINUOUS
 10
1.311504
 20
-3.659071
  0
VERTEX
  8
PLAN_1
  6
CONTINUOUS
 10
1.465661
 20
-3.659071
  0
VERTEX
  8
PLAN_1
  6
CONTINUOUS
 10
1.465661
 20
-3.672835
  0
VERTEX
  8
PLAN_1
  6
CONTINUOUS
 10
1.311504
 20
-3.672835
  0
SEQEND
  8
0
  0
POLYLINE
  8
PLAN_1
  6
CONTINUOUS
 66
     1
 40
0.003000
 41
0.003000
  0
VERTEX
  8
PLAN_1
  6
CONTINUOUS
 10
1.517047
 20
-3.637969
  0
VERTEX
  8
PLAN_1
  6
CONTINUOUS
 10
1.489976
 20
-3.637969
  0
VERTEX
  8
PLAN_1
  6
CONTINUOUS
 10
1.489976
 20
-3.438846
  0
VERTEX
  8
PLAN_1
  6
CONTINUOUS
 10
1.582197
 20
-3.438846
  0
VERTEX
  8
PLAN_1
  6
CONTINUOUS
 10
1.588622
 20
-3.438846
  0
VERTEX
  8
PLAN_1
  6
CONTINUOUS
 10
1.594587
 20
-3.439307
  0
VERTEX
  8
PLAN_1
  6
CONTINUOUS
 10
1.600551
 20
-3.440224
  0
VERTEX
  8
PLAN_1
  6
CONTINUOUS
 10
1.606516
 20
-3.441142
  0
VERTEX
  8
PLAN_1
  6
CONTINUOUS
 10
1.612020
 20
-3.442976
  0
VERTEX
  8
PLAN_1
  6
CONTINUOUS
 10
1.617524
 20
-3.444811
  0
VERTEX
  8
PLAN_1
  6
CONTINUOUS
 10
1.622571
 20
-3.447106
  0
VERTEX
  8
PLAN_1
  6
CONTINUOUS
 10
1.627161
 20
-3.449858
  0
VERTEX
  8
PLAN_1
  6
CONTINUOUS
 10
1.631748
 20
-3.453071
  0
VERTEX
  8
PLAN_1
  6
CONTINUOUS
 10
1.635878
 20
-3.456740
  0
VERTEX
  8
PLAN_1
  6
CONTINUOUS
 10
1.639091
 20
-3.461327
  0
VERTEX
  8
PLAN_1
  6
CONTINUOUS
 10
1.642299
 20
-3.466374
  0
VERTEX
  8
PLAN_1
  6
CONTINUOUS
 10
1.644594
 20
-3.471882
  0
VERTEX
  8
PLAN_1
  6
CONTINUOUS
 10
1.646429
 20
-3.477846
  0
VERTEX
  8
PLAN_1
  6
CONTINUOUS
 10
1.647346
 20
-3.484728
  0
VERTEX
  8
PLAN_1
  6
CONTINUOUS
 10
1.647807
 20
-3.492528
  0
VERTEX
  8
PLAN_1
  6
CONTINUOUS
 10
1.647807
 20
-3.497575
  0
VERTEX
  8
PLAN_1
  6
CONTINUOUS
 10
1.647346
 20
-3.502622
  0
VERTEX
  8
PLAN_1
  6
CONTINUOUS
 10
1.646429
 20
-3.507209
  0
VERTEX
  8
PLAN_1
  6
CONTINUOUS
 10
1.645055
 20
-3.511339
  0
VERTEX
  8
PLAN_1
  6
CONTINUOUS
 10
1.644134
 20
-3.515008
  0
VERTEX
  8
PLAN_1
  6
CONTINUOUS
 10
1.642299
 20
-3.518677
  0
VERTEX
  8
PLAN_1
  6
CONTINUOUS
 10
1.640465
 20
-3.521433
  0
VERTEX
  8
PLAN_1
  6
CONTINUOUS
 10
1.638630
 20
-3.524642
  0
VERTEX
  8
PLAN_1
  6
CONTINUOUS
 10
1.634500
 20
-3.529689
  0
VERTEX
  8
PLAN_1
  6
CONTINUOUS
 10
1.629913
 20
-3.533819
  0
VERTEX
  8
PLAN_1
  6
CONTINUOUS
 10
1.624866
 20
-3.537031
  0
VERTEX
  8
PLAN_1
  6
CONTINUOUS
 10
1.620280
 20
-3.540244
  0
VERTEX
  8
PLAN_1
  6
CONTINUOUS
 10
1.624406
 20
-3.542079
  0
VERTEX
  8
PLAN_1
  6
CONTINUOUS
 10
1.628535
 20
-3.543913
  0
VERTEX
  8
PLAN_1
  6
CONTINUOUS
 10
1.632209
 20
-3.546665
  0
VERTEX
  8
PLAN_1
  6
CONTINUOUS
 10
1.635878
 20
-3.550335
  0
VERTEX
  8
PLAN_1
  6
CONTINUOUS
 10
1.637252
 20
-3.552169
  0
VERTEX
  8
PLAN_1
  6
CONTINUOUS
 10
1.639091
 20
-3.554925
  0
VERTEX
  8
PLAN_1
  6
CONTINUOUS
 10
1.640008
 20
-3.557677
  0
VERTEX
  8
PLAN_1
  6
CONTINUOUS
 10
1.641382
 20
-3.560890
  0
VERTEX
  8
PLAN_1
  6
CONTINUOUS
 10
1.642299
 20
-3.564098
  0
VERTEX
  8
PLAN_1
  6
CONTINUOUS
 10
1.643217
 20
-3.568228
  0
VERTEX
  8
PLAN_1
  6
CONTINUOUS
 10
1.643677
 20
-3.572819
  0
VERTEX
  8
PLAN_1
  6
CONTINUOUS
 10
1.644134
 20
-3.577406
  0
VERTEX
  8
PLAN_1
  6
CONTINUOUS
 10
1.645512
 20
-3.613650
  0
VERTEX
  8
PLAN_1
  6
CONTINUOUS
 10
1.645972
 20
-3.617780
  0
VERTEX
  8
PLAN_1
  6
CONTINUOUS
 10
1.645972
 20
-3.620992
  0
VERTEX
  8
PLAN_1
  6
CONTINUOUS
 10
1.646890
 20
-3.623744
  0
VERTEX
  8
PLAN_1
  6
CONTINUOUS
 10
1.647807
 20
-3.626039
  0
VERTEX
  8
PLAN_1
  6
CONTINUOUS
 10
1.648724
 20
-3.628331
  0
VERTEX
  8
PLAN_1
  6
CONTINUOUS
 10
1.650559
 20
-3.630169
  0
VERTEX
  8
PLAN_1
  6
CONTINUOUS
 10
1.652854
 20
-3.632004
  0
VERTEX
  8
PLAN_1
  6
CONTINUOUS
 10
1.655606
 20
-3.633839
  0
VERTEX
  8
PLAN_1
  6
CONTINUOUS
 10
1.655606
 20
-3.637969
  0
VERTEX
  8
PLAN_1
  6
CONTINUOUS
 10
1.622571
 20
-3.637969
  0
VERTEX
  8
PLAN_1
  6
CONTINUOUS
 10
1.621197
 20
-3.632921
  0
VERTEX
  8
PLAN_1
  6
CONTINUOUS
 10
1.620280
 20
-3.626039
  0
VERTEX
  8
PLAN_1
  6
CONTINUOUS
 10
1.619362
 20
-3.619157
  0
VERTEX
  8
PLAN_1
  6
CONTINUOUS
 10
1.618902
 20
-3.611358
  0
VERTEX
  8
PLAN_1
  6
CONTINUOUS
 10
1.618441
 20
-3.604016
  0
VERTEX
  8
PLAN_1
  6
CONTINUOUS
 10
1.617984
 20
-3.597591
  0
VERTEX
  8
PLAN_1
  6
CONTINUOUS
 10
1.617984
 20
-3.592087
  0
VERTEX
  8
PLAN_1
  6
CONTINUOUS
 10
1.617984
 20
-3.587957
  0
VERTEX
  8
PLAN_1
  6
CONTINUOUS
 10
1.617524
 20
-3.581992
  0
VERTEX
  8
PLAN_1
  6
CONTINUOUS
 10
1.616606
 20
-3.575571
  0
VERTEX
  8
PLAN_1
  6
CONTINUOUS
 10
1.616150
 20
-3.572819
  0
VERTEX
  8
PLAN_1
  6
CONTINUOUS
 10
1.615232
 20
-3.569606
  0
VERTEX
  8
PLAN_1
  6
CONTINUOUS
 10
1.613854
 20
-3.566854
  0
VERTEX
  8
PLAN_1
  6
CONTINUOUS
 10
1.612020
 20
-3.564098
  0
VERTEX
  8
PLAN_1
  6
CONTINUOUS
 10
1.610185
 20
-3.561807
  0
VERTEX
  8
PLAN_1
  6
CONTINUOUS
 10
1.607890
 20
-3.559512
  0
VERTEX
  8
PLAN_1
  6
CONTINUOUS
 10
1.604677
 20
-3.557677
  0
VERTEX
  8
PLAN_1
  6
CONTINUOUS
 10
1.601469
 20
-3.555843
  0
VERTEX
  8
PLAN_1
  6
CONTINUOUS
 10
1.597339
 20
-3.554465
  0
VERTEX
  8
PLAN_1
  6
CONTINUOUS
 10
1.593209
 20
-3.553547
  0
VERTEX
  8
PLAN_1
  6
CONTINUOUS
 10
1.588161
 20
-3.553091
  0
VERTEX
  8
PLAN_1
  6
CONTINUOUS
 10
1.582197
 20
-3.552630
  0
VERTEX
  8
PLAN_1
  6
CONTINUOUS
 10
1.517047
 20
-3.552630
  0
VERTEX
  8
PLAN_1
  6
CONTINUOUS
 10
1.517047
 20
-3.637969
  0
SEQEND
  8
0
  0
POLYLINE
  8
PLAN_1
  6
CONTINUOUS
 66
     1
 40
0.003000
 41
0.003000
  0
VERTEX
  8
PLAN_1
  6
CONTINUOUS
 10
1.517047
 20
-3.529689
  0
VERTEX
  8
PLAN_1
  6
CONTINUOUS
 10
1.579445
 20
-3.529689
  0
VERTEX
  8
PLAN_1
  6
CONTINUOUS
 10
1.586783
 20
-3.529232
  0
VERTEX
  8
PLAN_1
  6
CONTINUOUS
 10
1.594126
 20
-3.528315
  0
VERTEX
  8
PLAN_1
  6
CONTINUOUS
 10
1.597795
 20
-3.527398
  0
VERTEX
  8
PLAN_1
  6
CONTINUOUS
 10
1.601008
 20
-3.526476
  0
VERTEX
  8
PLAN_1
  6
CONTINUOUS
 10
1.604220
 20
-3.525102
  0
VERTEX
  8
PLAN_1
  6
CONTINUOUS
 10
1.606972
 20
-3.523268
  0
VERTEX
  8
PLAN_1
  6
CONTINUOUS
 10
1.609724
 20
-3.521433
  0
VERTEX
  8
PLAN_1
  6
CONTINUOUS
 10
1.612476
 20
-3.519138
  0
VERTEX
  8
PLAN_1
  6
CONTINUOUS
 10
1.614772
 20
-3.516386
  0
VERTEX
  8
PLAN_1
  6
CONTINUOUS
 10
1.616606
 20
-3.513173
  0
VERTEX
  8
PLAN_1
  6
CONTINUOUS
 10
1.617984
 20
-3.509504
  0
VERTEX
  8
PLAN_1
  6
CONTINUOUS
 10
1.618902
 20
-3.504913
  0
VERTEX
  8
PLAN_1
  6
CONTINUOUS
 10
1.619819
 20
-3.500327
  0
VERTEX
  8
PLAN_1
  6
CONTINUOUS
 10
1.620280
 20
-3.495280
  0
VERTEX
  8
PLAN_1
  6
CONTINUOUS
 10
1.619819
 20
-3.489776
  0
VERTEX
  8
PLAN_1
  6
CONTINUOUS
 10
1.618902
 20
-3.484728
  0
VERTEX
  8
PLAN_1
  6
CONTINUOUS
 10
1.617984
 20
-3.480598
  0
VERTEX
  8
PLAN_1
  6
CONTINUOUS
 10
1.616150
 20
-3.476929
  0
VERTEX
  8
PLAN_1
  6
CONTINUOUS
 10
1.614315
 20
-3.473717
  0
VERTEX
  8
PLAN_1
  6
CONTINUOUS
 10
1.612020
 20
-3.470965
  0
VERTEX
  8
PLAN_1
  6
CONTINUOUS
 10
1.609724
 20
-3.468669
  0
VERTEX
  8
PLAN_1
  6
CONTINUOUS
 10
1.606972
 20
-3.466835
  0
VERTEX
  8
PLAN_1
  6
CONTINUOUS
 10
1.604220
 20
-3.465457
  0
VERTEX
  8
PLAN_1
  6
CONTINUOUS
 10
1.601469
 20
-3.464083
  0
VERTEX
  8
PLAN_1
  6
CONTINUOUS
 10
1.598256
 20
-3.463622
  0
VERTEX
  8
PLAN_1
  6
CONTINUOUS
 10
1.595504
 20
-3.462705
  0
VERTEX
  8
PLAN_1
  6
CONTINUOUS
 10
1.589539
 20
-3.462244
  0
VERTEX
  8
PLAN_1
  6
CONTINUOUS
 10
1.584031
 20
-3.461787
  0
VERTEX
  8
PLAN_1
  6
CONTINUOUS
 10
1.517047
 20
-3.461787
  0
VERTEX
  8
PLAN_1
  6
CONTINUOUS
 10
1.517047
 20
-3.529689
  0
SEQEND
  8
0
  0
SOLID
  8
PLAN_1
 10
1.719378
 20
-3.637969
 11
1.690476
 21
-3.637969
 12
1.719378
 22
-3.608602
 13
1.690476
 23
-3.608602
  0
POLYLINE
  8
PLAN_1
  6
CONTINUOUS
 66
     1
 40
0.003000
 41
0.003000
  0
VERTEX
  8
PLAN_1
  6
CONTINUOUS
 10
1.719378
 20
-3.637969
  0
VERTEX
  8
PLAN_1
  6
CONTINUOUS
 10
1.690476
 20
-3.637969
  0
VERTEX
  8
PLAN_1
  6
CONTINUOUS
 10
1.690476
 20
-3.608602
  0
VERTEX
  8
PLAN_1
  6
CONTINUOUS
 10
1.719378
 20
-3.608602
  0
VERTEX
  8
PLAN_1
  6
CONTINUOUS
 10
1.719378
 20
-3.637969
  0
SEQEND
  8
0
  0
POLYLINE
  8
PLAN_1
  6
CONTINUOUS
 66
     1
 40
0.003000
 41
0.003000
  0
VERTEX
  8
PLAN_1
  6
CONTINUOUS
 10
1.914370
 20
-3.637969
  0
VERTEX
  8
PLAN_1
  6
CONTINUOUS
 10
1.767094
 20
-3.637969
  0
VERTEX
  8
PLAN_1
  6
CONTINUOUS
 10
1.767094
 20
-3.438846
  0
VERTEX
  8
PLAN_1
  6
CONTINUOUS
 10
1.912535
 20
-3.438846
  0
VERTEX
  8
PLAN_1
  6
CONTINUOUS
 10
1.912535
 20
-3.462705
  0
VERTEX
  8
PLAN_1
  6
CONTINUOUS
 10
1.794165
 20
-3.462705
  0
VERTEX
  8
PLAN_1
  6
CONTINUOUS
 10
1.794165
 20
-3.523724
  0
VERTEX
  8
PLAN_1
  6
CONTINUOUS
 10
1.903358
 20
-3.523724
  0
VERTEX
  8
PLAN_1
  6
CONTINUOUS
 10
1.903358
 20
-3.547583
  0
VERTEX
  8
PLAN_1
  6
CONTINUOUS
 10
1.794165
 20
-3.547583
  0
VERTEX
  8
PLAN_1
  6
CONTINUOUS
 10
1.794165
 20
-3.614110
  0
VERTEX
  8
PLAN_1
  6
CONTINUOUS
 10
1.914370
 20
-3.614110
  0
VERTEX
  8
PLAN_1
  6
CONTINUOUS
 10
1.914370
 20
-3.637969
  0
SEQEND
  8
0
  0
POLYLINE
  8
PLAN_1
  6
CONTINUOUS
 66
     1
 40
0.003000
 41
0.003000
  0
VERTEX
  8
PLAN_1
  6
CONTINUOUS
 10
1.979520
 20
-3.637969
  0
VERTEX
  8
PLAN_1
  6
CONTINUOUS
 10
1.952449
 20
-3.637969
  0
VERTEX
  8
PLAN_1
  6
CONTINUOUS
 10
1.952449
 20
-3.438846
  0
VERTEX
  8
PLAN_1
  6
CONTINUOUS
 10
2.042378
 20
-3.438846
  0
VERTEX
  8
PLAN_1
  6
CONTINUOUS
 10
2.048799
 20
-3.439307
  0
VERTEX
  8
PLAN_1
  6
CONTINUOUS
 10
2.055224
 20
-3.439764
  0
VERTEX
  8
PLAN_1
  6
CONTINUOUS
 10
2.061185
 20
-3.441142
  0
VERTEX
  8
PLAN_1
  6
CONTINUOUS
 10
2.067150
 20
-3.442976
  0
VERTEX
  8
PLAN_1
  6
CONTINUOUS
 10
2.072197
 20
-3.445272
  0
VERTEX
  8
PLAN_1
  6
CONTINUOUS
 10
2.077244
 20
-3.448024
  0
VERTEX
  8
PLAN_1
  6
CONTINUOUS
 10
2.081374
 20
-3.451236
  0
VERTEX
  8
PLAN_1
  6
CONTINUOUS
 10
2.085504
 20
-3.454906
  0
VERTEX
  8
PLAN_1
  6
CONTINUOUS
 10
2.089173
 20
-3.458575
  0
VERTEX
  8
PLAN_1
  6
CONTINUOUS
 10
2.092386
 20
-3.463161
  0
VERTEX
  8
PLAN_1
  6
CONTINUOUS
 10
2.095138
 20
-3.467752
  0
VERTEX
  8
PLAN_1
  6
CONTINUOUS
 10
2.097433
 20
-3.472799
  0
VERTEX
  8
PLAN_1
  6
CONTINUOUS
 10
2.098807
 20
-3.477846
  0
VERTEX
  8
PLAN_1
  6
CONTINUOUS
 10
2.100185
 20
-3.483350
  0
VERTEX
  8
PLAN_1
  6
CONTINUOUS
 10
2.101102
 20
-3.488858
  0
VERTEX
  8
PLAN_1
  6
CONTINUOUS
 10
2.101102
 20
-3.494819
  0
VERTEX
  8
PLAN_1
  6
CONTINUOUS
 10
2.101102
 20
-3.500327
  0
VERTEX
  8
PLAN_1
  6
CONTINUOUS
 10
2.100646
 20
-3.505374
  0
VERTEX
  8
PLAN_1
  6
CONTINUOUS
 10
2.099724
 20
-3.510878
  0
VERTEX
  8
PLAN_1
  6
CONTINUOUS
 10
2.098350
 20
-3.515925
  0
VERTEX
  8
PLAN_1
  6
CONTINUOUS
 10
2.096516
 20
-3.520972
  0
VERTEX
  8
PLAN_1
  6
CONTINUOUS
 10
2.094220
 20
-3.526020
  0
VERTEX
  8
PLAN_1
  6
CONTINUOUS
 10
2.091469
 20
-3.530606
  0
VERTEX
  8
PLAN_1
  6
CONTINUOUS
 10
2.087799
 20
-3.534736
  0
VERTEX
  8
PLAN_1
  6
CONTINUOUS
 10
2.084126
 20
-3.538866
  0
VERTEX
  8
PLAN_1
  6
CONTINUOUS
 10
2.079996
 20
-3.542535
  0
VERTEX
  8
PLAN_1
  6
CONTINUOUS
 10
2.074953
 20
-3.545748
  0
VERTEX
  8
PLAN_1
  6
CONTINUOUS
 10
2.069906
 20
-3.548500
  0
VERTEX
  8
PLAN_1
  6
CONTINUOUS
 10
2.063480
 20
-3.550795
  0
VERTEX
  8
PLAN_1
  6
CONTINUOUS
 10
2.057059
 20
-3.552630
  0
VERTEX
  8
PLAN_1
  6
CONTINUOUS
 10
2.050177
 20
-3.553547
  0
VERTEX
  8
PLAN_1
  6
CONTINUOUS
 10
2.042378
 20
-3.554008
  0
VERTEX
  8
PLAN_1
  6
CONTINUOUS
 10
1.979520
 20
-3.554008
  0
VERTEX
  8
PLAN_1
  6
CONTINUOUS
 10
1.979520
 20
-3.637969
  0
SEQEND
  8
0
  0
POLYLINE
  8
PLAN_1
  6
CONTINUOUS
 66
     1
 40
0.003000
 41
0.003000
  0
VERTEX
  8
PLAN_1
  6
CONTINUOUS
 10
1.979520
 20
-3.531067
  0
VERTEX
  8
PLAN_1
  6
CONTINUOUS
 10
2.033201
 20
-3.531067
  0
VERTEX
  8
PLAN_1
  6
CONTINUOUS
 10
2.037331
 20
-3.531067
  0
VERTEX
  8
PLAN_1
  6
CONTINUOUS
 10
2.041917
 20
-3.530606
  0
VERTEX
  8
PLAN_1
  6
CONTINUOUS
 10
2.045587
 20
-3.530150
  0
VERTEX
  8
PLAN_1
  6
CONTINUOUS
 10
2.049717
 20
-3.529232
  0
VERTEX
  8
PLAN_1
  6
CONTINUOUS
 10
2.052929
 20
-3.528315
  0
VERTEX
  8
PLAN_1
  6
CONTINUOUS
 10
2.056598
 20
-3.526937
  0
VERTEX
  8
PLAN_1
  6
CONTINUOUS
 10
2.059350
 20
-3.525102
  0
VERTEX
  8
PLAN_1
  6
CONTINUOUS
 10
2.062563
 20
-3.523268
  0
VERTEX
  8
PLAN_1
  6
CONTINUOUS
 10
2.064858
 20
-3.520972
  0
VERTEX
  8
PLAN_1
  6
CONTINUOUS
 10
2.067150
 20
-3.518220
  0
VERTEX
  8
PLAN_1
  6
CONTINUOUS
 10
2.068988
 20
-3.515469
  0
VERTEX
  8
PLAN_1
  6
CONTINUOUS
 10
2.070823
 20
-3.512256
  0
VERTEX
  8
PLAN_1
  6
CONTINUOUS
 10
2.071740
 20
-3.508587
  0
VERTEX
  8
PLAN_1
  6
CONTINUOUS
 10
2.072657
 20
-3.504457
  0
VERTEX
  8
PLAN_1
  6
CONTINUOUS
 10
2.073575
 20
-3.499866
  0
VERTEX
  8
PLAN_1
  6
CONTINUOUS
 10
2.073575
 20
-3.495280
  0
VERTEX
  8
PLAN_1
  6
CONTINUOUS
 10
2.073114
 20
-3.490693
  0
VERTEX
  8
PLAN_1
  6
CONTINUOUS
 10
2.072657
 20
-3.486563
  0
VERTEX
  8
PLAN_1
  6
CONTINUOUS
 10
2.071740
 20
-3.482894
  0
VERTEX
  8
PLAN_1
  6
CONTINUOUS
 10
2.070362
 20
-3.479220
  0
VERTEX
  8
PLAN_1
  6
CONTINUOUS
 10
2.068988
 20
-3.476469
  0
VERTEX
  8
PLAN_1
  6
CONTINUOUS
 10
2.067150
 20
-3.473717
  0
VERTEX
  8
PLAN_1
  6
CONTINUOUS
 10
2.064858
 20
-3.470965
  0
VERTEX
  8
PLAN_1
  6
CONTINUOUS
 10
2.062106
 20
-3.469126
  0
VERTEX
  8
PLAN_1
  6
CONTINUOUS
 10
2.059350
 20
-3.467291
  0
VERTEX
  8
PLAN_1
  6
CONTINUOUS
 10
2.056142
 20
-3.465917
  0
VERTEX
  8
PLAN_1
  6
CONTINUOUS
 10
2.052929
 20
-3.464539
  0
VERTEX
  8
PLAN_1
  6
CONTINUOUS
 10
2.049717
 20
-3.463622
  0
VERTEX
  8
PLAN_1
  6
CONTINUOUS
 10
2.042378
 20
-3.462244
  0
VERTEX
  8
PLAN_1
  6
CONTINUOUS
 10
2.034118
 20
-3.461787
  0
VERTEX
  8
PLAN_1
  6
CONTINUOUS
 10
1.979520
 20
-3.461787
  0
VERTEX
  8
PLAN_1
  6
CONTINUOUS
 10
1.979520
 20
-3.531067
  0
SEQEND
  8
0
  0
POLYLINE
  8
PLAN_1
  6
CONTINUOUS
 66
     1
 40
0.003000
 41
0.003000
  0
VERTEX
  8
PLAN_1
  6
CONTINUOUS
 10
2.255260
 20
-3.497114
  0
VERTEX
  8
PLAN_1
  6
CONTINUOUS
 10
2.254803
 20
-3.491610
  0
VERTEX
  8
PLAN_1
  6
CONTINUOUS
 10
2.253425
 20
-3.486563
  0
VERTEX
  8
PLAN_1
  6
CONTINUOUS
 10
2.252047
 20
-3.481972
  0
VERTEX
  8
PLAN_1
  6
CONTINUOUS
 10
2.250213
 20
-3.477846
  0
VERTEX
  8
PLAN_1
  6
CONTINUOUS
 10
2.247461
 20
-3.474173
  0
VERTEX
  8
PLAN_1
  6
CONTINUOUS
 10
2.244709
 20
-3.470965
  0
VERTEX
  8
PLAN_1
  6
CONTINUOUS
 10
2.241957
 20
-3.467752
  0
VERTEX
  8
PLAN_1
  6
CONTINUOUS
 10
2.238283
 20
-3.465457
  0
VERTEX
  8
PLAN_1
  6
CONTINUOUS
 10
2.234614
 20
-3.463161
  0
VERTEX
  8
PLAN_1
  6
CONTINUOUS
 10
2.230945
 20
-3.461327
  0
VERTEX
  8
PLAN_1
  6
CONTINUOUS
 10
2.226815
 20
-3.459953
  0
VERTEX
  8
PLAN_1
  6
CONTINUOUS
 10
2.222685
 20
-3.458575
  0
VERTEX
  8
PLAN_1
  6
CONTINUOUS
 10
2.218555
 20
-3.457657
  0
VERTEX
  8
PLAN_1
  6
CONTINUOUS
 10
2.214425
 20
-3.457201
  0
VERTEX
  8
PLAN_1
  6
CONTINUOUS
 10
2.209839
 20
-3.456740
  0
VERTEX
  8
PLAN_1
  6
CONTINUOUS
 10
2.205709
 20
-3.456740
  0
VERTEX
  8
PLAN_1
  6
CONTINUOUS
 10
2.198827
 20
-3.456740
  0
VERTEX
  8
PLAN_1
  6
CONTINUOUS
 10
2.191488
 20
-3.457657
  0
VERTEX
  8
PLAN_1
  6
CONTINUOUS
 10
2.187815
 20
-3.458575
  0
VERTEX
  8
PLAN_1
  6
CONTINUOUS
 10
2.184146
 20
-3.459492
  0
VERTEX
  8
PLAN_1
  6
CONTINUOUS
 10
2.180016
 20
-3.460870
  0
VERTEX
  8
PLAN_1
  6
CONTINUOUS
 10
2.176803
 20
-3.462705
  0
VERTEX
  8
PLAN_1
  6
CONTINUOUS
 10
2.173134
 20
-3.465000
  0
VERTEX
  8
PLAN_1
  6
CONTINUOUS
 10
2.170382
 20
-3.467291
  0
VERTEX
  8
PLAN_1
  6
CONTINUOUS
 10
2.167169
 20
-3.470047
  0
VERTEX
  8
PLAN_1
  6
CONTINUOUS
 10
2.164878
 20
-3.473256
  0
VERTEX
  8
PLAN_1
  6
CONTINUOUS
 10
2.163039
 20
-3.476929
  0
VERTEX
  8
PLAN_1
  6
CONTINUOUS
 10
2.161665
 20
-3.481516
  0
VERTEX
  8
PLAN_1
  6
CONTINUOUS
 10
2.160748
 20
-3.486102
  0
VERTEX
  8
PLAN_1
  6
CONTINUOUS
 10
2.160287
 20
-3.491610
  0
VERTEX
  8
PLAN_1
  6
CONTINUOUS
 10
2.160287
 20
-3.494819
  0
VERTEX
  8
PLAN_1
  6
CONTINUOUS
 10
2.160748
 20
-3.497575
  0
VERTEX
  8
PLAN_1
  6
CONTINUOUS
 10
2.161205
 20
-3.499866
  0
VERTEX
  8
PLAN_1
  6
CONTINUOUS
 10
2.162122
 20
-3.502161
  0
VERTEX
  8
PLAN_1
  6
CONTINUOUS
 10
2.163500
 20
-3.504457
  0
VERTEX
  8
PLAN_1
  6
CONTINUOUS
 10
2.164417
 20
-3.506291
  0
VERTEX
  8
PLAN_1
  6
CONTINUOUS
 10
2.166252
 20
-3.508126
  0
VERTEX
  8
PLAN_1
  6
CONTINUOUS
 10
2.167630
 20
-3.509504
  0
VERTEX
  8
PLAN_1
  6
CONTINUOUS
 10
2.171299
 20
-3.512256
  0
VERTEX
  8
PLAN_1
  6
CONTINUOUS
 10
2.175429
 20
-3.514091
  0
VERTEX
  8
PLAN_1
  6
CONTINUOUS
 10
2.179559
 20
-3.515469
  0
VERTEX
  8
PLAN_1
  6
CONTINUOUS
 10
2.183689
 20
-3.516843
  0
VERTEX
  8
PLAN_1
  6
CONTINUOUS
 10
2.240579
 20
-3.529689
  0
VERTEX
  8
PLAN_1
  6
CONTINUOUS
 10
2.245626
 20
-3.531067
  0
VERTEX
  8
PLAN_1
  6
CONTINUOUS
 10
2.250213
 20
-3.532441
  0
VERTEX
  8
PLAN_1
  6
CONTINUOUS
 10
2.254343
 20
-3.534280
  0
VERTEX
  8
PLAN_1
  6
CONTINUOUS
 10
2.258929
 20
-3.536114
  0
VERTEX
  8
PLAN_1
  6
CONTINUOUS
 10
2.262602
 20
-3.538406
  0
VERTEX
  8
PLAN_1
  6
CONTINUOUS
 10
2.266272
 20
-3.541161
  0
VERTEX
  8
PLAN_1
  6
CONTINUOUS
 10
2.269941
 20
-3.543913
  0
VERTEX
  8
PLAN_1
  6
CONTINUOUS
 10
2.273154
 20
-3.547126
  0
VERTEX
  8
PLAN_1
  6
CONTINUOUS
 10
2.275906
 20
-3.550335
  0
VERTEX
  8
PLAN_1
  6
CONTINUOUS
 10
2.278657
 20
-3.554008
  0
VERTEX
  8
PLAN_1
  6
CONTINUOUS
 10
2.280496
 20
-3.558134
  0
VERTEX
  8
PLAN_1
  6
CONTINUOUS
 10
2.282787
 20
-3.562264
  0
VERTEX
  8
PLAN_1
  6
CONTINUOUS
 10
2.284165
 20
-3.566854
  0
VERTEX
  8
PLAN_1
  6
CONTINUOUS
 10
2.285083
 20
-3.571898
  0
VERTEX
  8
PLAN_1
  6
CONTINUOUS
 10
2.286000
 20
-3.577406
  0
VERTEX
  8
PLAN_1
  6
CONTINUOUS
 10
2.286000
 20
-3.583370
  0
VERTEX
  8
PLAN_1
  6
CONTINUOUS
 10
2.286000
 20
-3.587500
  0
VERTEX
  8
PLAN_1
  6
CONTINUOUS
 10
2.285539
 20
-3.591630
  0
VERTEX
  8
PLAN_1
  6
CONTINUOUS
 10
2.285083
 20
-3.595756
  0
VERTEX
  8
PLAN_1
  6
CONTINUOUS
 10
2.284165
 20
-3.599429
  0
VERTEX
  8
PLAN_1
  6
CONTINUOUS
 10
2.282787
 20
-3.603098
  0
VERTEX
  8
PLAN_1
  6
CONTINUOUS
 10
2.281870
 20
-3.606311
  0
VERTEX
  8
PLAN_1
  6
CONTINUOUS
 10
2.280035
 20
-3.609520
  0
VERTEX
  8
PLAN_1
  6
CONTINUOUS
 10
2.278657
 20
-3.612732
  0
VERTEX
  8
PLAN_1
  6
CONTINUOUS
 10
2.274988
 20
-3.618240
  0
VERTEX
  8
PLAN_1
  6
CONTINUOUS
 10
2.270402
 20
-3.622827
  0
VERTEX
  8
PLAN_1
  6
CONTINUOUS
 10
2.265354
 20
-3.627413
  0
VERTEX
  8
PLAN_1
  6
CONTINUOUS
 10
2.259846
 20
-3.631087
  0
VERTEX
  8
PLAN_1
  6
CONTINUOUS
 10
2.253882
 20
-3.634295
  0
VERTEX
  8
PLAN_1
  6
CONTINUOUS
 10
2.247461
 20
-3.636591
  0
VERTEX
  8
PLAN_1
  6
CONTINUOUS
 10
2.241035
 20
-3.638886
  0
VERTEX
  8
PLAN_1
  6
CONTINUOUS
 10
2.234614
 20
-3.640720
  0
VERTEX
  8
PLAN_1
  6
CONTINUOUS
 10
2.227732
 20
-3.642094
  0
VERTEX
  8
PLAN_1
  6
CONTINUOUS
 10
2.221307
 20
-3.642555
  0
VERTEX
  8
PLAN_1
  6
CONTINUOUS
 10
2.214425
 20
-3.643472
  0
VERTEX
  8
PLAN_1
  6
CONTINUOUS
 10
2.208004
 20
-3.643472
  0
VERTEX
  8
PLAN_1
  6
CONTINUOUS
 10
2.201122
 20
-3.643472
  0
VERTEX
  8
PLAN_1
  6
CONTINUOUS
 10
2.195157
 20
-3.643016
  0
VERTEX
  8
PLAN_1
  6
CONTINUOUS
 10
2.189650
 20
-3.642555
  0
VERTEX
  8
PLAN_1
  6
CONTINUOUS
 10
2.184146
 20
-3.641638
  0
VERTEX
  8
PLAN_1
  6
CONTINUOUS
 10
2.179559
 20
-3.640720
  0
VERTEX
  8
PLAN_1
  6
CONTINUOUS
 10
2.174969
 20
-3.639343
  0
VERTEX
  8
PLAN_1
  6
CONTINUOUS
 10
2.170843
 20
-3.638425
  0
VERTEX
  8
PLAN_1
  6
CONTINUOUS
 10
2.167169
 20
-3.637051
  0
VERTEX
  8
PLAN_1
  6
CONTINUOUS
 10
2.161205
 20
-3.633839
  0
VERTEX
  8
PLAN_1
  6
CONTINUOUS
 10
2.155701
 20
-3.630626
  0
VERTEX
  8
PLAN_1
  6
CONTINUOUS
 10
2.151571
 20
-3.627413
  0
VERTEX
  8
PLAN_1
  6
CONTINUOUS
 10
2.147902
 20
-3.624205
  0
VERTEX
  8
PLAN_1
  6
CONTINUOUS
 10
2.144689
 20
-3.621449
  0
VERTEX
  8
PLAN_1
  6
CONTINUOUS
 10
2.141937
 20
-3.618697
  0
VERTEX
  8
PLAN_1
  6
CONTINUOUS
 10
2.139642
 20
-3.615484
  0
VERTEX
  8
PLAN_1
  6
CONTINUOUS
 10
2.137346
 20
-3.612732
  0
VERTEX
  8
PLAN_1
  6
CONTINUOUS
 10
2.133677
 20
-3.606311
  0
VERTEX
  8
PLAN_1
  6
CONTINUOUS
 10
2.131382
 20
-3.600346
  0
VERTEX
  8
PLAN_1
  6
CONTINUOUS
 10
2.129547
 20
-3.593921
  0
VERTEX
  8
PLAN_1
  6
CONTINUOUS
 10
2.128173
 20
-3.587500
  0
VERTEX
  8
PLAN_1
  6
CONTINUOUS
 10
2.127713
 20
-3.580618
  0
VERTEX
  8
PLAN_1
  6
CONTINUOUS
 10
2.127713
 20
-3.573736
  0
VERTEX
  8
PLAN_1
  6
CONTINUOUS
 10
2.152949
 20
-3.573736
  0
VERTEX
  8
PLAN_1
  6
CONTINUOUS
 10
2.152949
 20
-3.580157
  0
VERTEX
  8
PLAN_1
  6
CONTINUOUS
 10
2.153866
 20
-3.586122
  0
VERTEX
  8
PLAN_1
  6
CONTINUOUS
 10
2.155701
 20
-3.591630
  0
VERTEX
  8
PLAN_1
  6
CONTINUOUS
 10
2.157535
 20
-3.596217
  0
VERTEX
  8
PLAN_1
  6
CONTINUOUS
 10
2.160287
 20
-3.600346
  0
VERTEX
  8
PLAN_1
  6
CONTINUOUS
 10
2.163500
 20
-3.604476
  0
VERTEX
  8
PLAN_1
  6
CONTINUOUS
 10
2.166713
 20
-3.607685
  0
VERTEX
  8
PLAN_1
  6
CONTINUOUS
 10
2.170843
 20
-3.610437
  0
VERTEX
  8
PLAN_1
  6
CONTINUOUS
 10
2.174969
 20
-3.613193
  0
VERTEX
  8
PLAN_1
  6
CONTINUOUS
 10
2.179098
 20
-3.615028
  0
VERTEX
  8
PLAN_1
  6
CONTINUOUS
 10
2.183689
 20
-3.616862
  0
VERTEX
  8
PLAN_1
  6
CONTINUOUS
 10
2.188276
 20
-3.618240
  0
VERTEX
  8
PLAN_1
  6
CONTINUOUS
 10
2.193323
 20
-3.619157
  0
VERTEX
  8
PLAN_1
  6
CONTINUOUS
 10
2.197909
 20
-3.620075
  0
VERTEX
  8
PLAN_1
  6
CONTINUOUS
 10
2.202957
 20
-3.620075
  0
VERTEX
  8
PLAN_1
  6
CONTINUOUS
 10
2.207543
 20
-3.620531
  0
VERTEX
  8
PLAN_1
  6
CONTINUOUS
 10
2.215343
 20
-3.620075
  0
VERTEX
  8
PLAN_1
  6
CONTINUOUS
 10
2.224063
 20
-3.619157
  0
VERTEX
  8
PLAN_1
  6
CONTINUOUS
 10
2.228650
 20
-3.618240
  0
VERTEX
  8
PLAN_1
  6
CONTINUOUS
 10
2.232780
 20
-3.617323
  0
VERTEX
  8
PLAN_1
  6
CONTINUOUS
 10
2.236909
 20
-3.615945
  0
VERTEX
  8
PLAN_1
  6
CONTINUOUS
 10
2.241035
 20
-3.614110
  0
VERTEX
  8
PLAN_1
  6
CONTINUOUS
 10
2.245165
 20
-3.612276
  0
VERTEX
  8
PLAN_1
  6
CONTINUOUS
 10
2.248378
 20
-3.609980
  0
VERTEX
  8
PLAN_1
  6
CONTINUOUS
 10
2.251591
 20
-3.607228
  0
VERTEX
  8
PLAN_1
  6
CONTINUOUS
 10
2.254343
 20
-3.604016
  0
VERTEX
  8
PLAN_1
  6
CONTINUOUS
 10
2.256638
 20
-3.600346
  0
VERTEX
  8
PLAN_1
  6
CONTINUOUS
 10
2.258472
 20
-3.596217
  0
VERTEX
  8
PLAN_1
  6
CONTINUOUS
 10
2.259390
 20
-3.592087
  0
VERTEX
  8
PLAN_1
  6
CONTINUOUS
 10
2.259846
 20
-3.586583
  0
VERTEX
  8
PLAN_1
  6
CONTINUOUS
 10
2.259846
 20
-3.582909
  0
VERTEX
  8
PLAN_1
  6
CONTINUOUS
 10
2.259390
 20
-3.579701
  0
VERTEX
  8
PLAN_1
  6
CONTINUOUS
 10
2.258929
 20
-3.576488
  0
VERTEX
  8
PLAN_1
  6
CONTINUOUS
 10
2.258012
 20
-3.573736
  0
VERTEX
  8
PLAN_1
  6
CONTINUOUS
 10
2.256638
 20
-3.570980
  0
VERTEX
  8
PLAN_1
  6
CONTINUOUS
 10
2.255260
 20
-3.568689
  0
VERTEX
  8
PLAN_1
  6
CONTINUOUS
 10
2.253425
 20
-3.566394
  0
VERTEX
  8
PLAN_1
  6
CONTINUOUS
 10
2.251130
 20
-3.564098
  0
VERTEX
  8
PLAN_1
  6
CONTINUOUS
 10
2.248378
 20
-3.562264
  0
VERTEX
  8
PLAN_1
  6
CONTINUOUS
 10
2.245165
 20
-3.560429
  0
VERTEX
  8
PLAN_1
  6
CONTINUOUS
 10
2.241957
 20
-3.559051
  0
VERTEX
  8
PLAN_1
  6
CONTINUOUS
 10
2.237827
 20
-3.557217
  0
VERTEX
  8
PLAN_1
  6
CONTINUOUS
 10
2.228650
 20
-3.554465
  0
VERTEX
  8
PLAN_1
  6
CONTINUOUS
 10
2.217638
 20
-3.551713
  0
VERTEX
  8
PLAN_1
  6
CONTINUOUS
 10
2.176803
 20
-3.542079
  0
VERTEX
  8
PLAN_1
  6
CONTINUOUS
 10
2.170843
 20
-3.540701
  0
VERTEX
  8
PLAN_1
  6
CONTINUOUS
 10
2.164417
 20
-3.538406
  0
VERTEX
  8
PLAN_1
  6
CONTINUOUS
 10
2.161205
 20
-3.537031
  0
VERTEX
  8
PLAN_1
  6
CONTINUOUS
 10
2.157535
 20
-3.535197
  0
VERTEX
  8
PLAN_1
  6
CONTINUOUS
 10
2.153866
 20
-3.532902
  0
VERTEX
  8
PLAN_1
  6
CONTINUOUS
 10
2.150654
 20
-3.530606
  0
VERTEX
  8
PLAN_1
  6
CONTINUOUS
 10
2.147441
 20
-3.527854
  0
VERTEX
  8
PLAN_1
  6
CONTINUOUS
 10
2.144228
 20
-3.524642
  0
VERTEX
  8
PLAN_1
  6
CONTINUOUS
 10
2.141476
 20
-3.520972
  0
VERTEX
  8
PLAN_1
  6
CONTINUOUS
 10
2.139185
 20
-3.516843
  0
VERTEX
  8
PLAN_1
  6
CONTINUOUS
 10
2.136890
 20
-3.512256
  0
VERTEX
  8
PLAN_1
  6
CONTINUOUS
 10
2.135512
 20
-3.507209
  0
VERTEX
  8
PLAN_1
  6
CONTINUOUS
 10
2.134594
 20
-3.501244
  0
VERTEX
  8
PLAN_1
  6
CONTINUOUS
 10
2.134138
 20
-3.495280
  0
VERTEX
  8
PLAN_1
  6
CONTINUOUS
 10
2.134594
 20
-3.489315
  0
VERTEX
  8
PLAN_1
  6
CONTINUOUS
 10
2.135055
 20
-3.483811
  0
VERTEX
  8
PLAN_1
  6
CONTINUOUS
 10
2.136429
 20
-3.477846
  0
VERTEX
  8
PLAN_1
  6
CONTINUOUS
 10
2.138264
 20
-3.472339
  0
VERTEX
  8
PLAN_1
  6
CONTINUOUS
 10
2.140102
 20
-3.467291
  0
VERTEX
  8
PLAN_1
  6
CONTINUOUS
 10
2.143311
 20
-3.462244
  0
VERTEX
  8
PLAN_1
  6
CONTINUOUS
 10
2.146524
 20
-3.457201
  0
VERTEX
  8
PLAN_1
  6
CONTINUOUS
 10
2.150193
 20
-3.452610
  0
VERTEX
  8
PLAN_1
  6
CONTINUOUS
 10
2.154783
 20
-3.448480
  0
VERTEX
  8
PLAN_1
  6
CONTINUOUS
 10
2.159831
 20
-3.444811
  0
VERTEX
  8
PLAN_1
  6
CONTINUOUS
 10
2.165335
 20
-3.441598
  0
VERTEX
  8
PLAN_1
  6
CONTINUOUS
 10
2.171760
 20
-3.438846
  0
VERTEX
  8
PLAN_1
  6
CONTINUOUS
 10
2.178642
 20
-3.436551
  0
VERTEX
  8
PLAN_1
  6
CONTINUOUS
 10
2.185980
 20
-3.435177
  0
VERTEX
  8
PLAN_1
  6
CONTINUOUS
 10
2.193780
 20
-3.433799
  0
VERTEX
  8
PLAN_1
  6
CONTINUOUS
 10
2.202957
 20
-3.433343
  0
VERTEX
  8
PLAN_1
  6
CONTINUOUS
 10
2.208921
 20
-3.433799
  0
VERTEX
  8
PLAN_1
  6
CONTINUOUS
 10
2.214886
 20
-3.434260
  0
VERTEX
  8
PLAN_1
  6
CONTINUOUS
 10
2.220850
 20
-3.434717
  0
VERTEX
  8
PLAN_1
  6
CONTINUOUS
 10
2.225898
 20
-3.435634
  0
VERTEX
  8
PLAN_1
  6
CONTINUOUS
 10
2.230945
 20
-3.436551
  0
VERTEX
  8
PLAN_1
  6
CONTINUOUS
 10
2.235531
 20
-3.437469
  0
VERTEX
  8
PLAN_1
  6
CONTINUOUS
 10
2.240118
 20
-3.438846
  0
VERTEX
  8
PLAN_1
  6
CONTINUOUS
 10
2.244248
 20
-3.440224
  0
VERTEX
  8
PLAN_1
  6
CONTINUOUS
 10
2.247921
 20
-3.442059
  0
VERTEX
  8
PLAN_1
  6
CONTINUOUS
 10
2.251591
 20
-3.443894
  0
VERTEX
  8
PLAN_1
  6
CONTINUOUS
 10
2.254803
 20
-3.445728
  0
VERTEX
  8
PLAN_1
  6
CONTINUOUS
 10
2.257555
 20
-3.448024
  0
VERTEX
  8
PLAN_1
  6
CONTINUOUS
 10
2.263059
 20
-3.452154
  0
VERTEX
  8
PLAN_1
  6
CONTINUOUS
 10
2.267189
 20
-3.457201
  0
VERTEX
  8
PLAN_1
  6
CONTINUOUS
 10
2.270858
 20
-3.462244
  0
VERTEX
  8
PLAN_1
  6
CONTINUOUS
 10
2.273614
 20
-3.467291
  0
VERTEX
  8
PLAN_1
  6
CONTINUOUS
 10
2.275906
 20
-3.472799
  0
VERTEX
  8
PLAN_1
  6
CONTINUOUS
 10
2.277740
 20
-3.477846
  0
VERTEX
  8
PLAN_1
  6
CONTINUOUS
 10
2.278657
 20
-3.483350
  0
VERTEX
  8
PLAN_1
  6
CONTINUOUS
 10
2.279575
 20
-3.487937
  0
VERTEX
  8
PLAN_1
  6
CONTINUOUS
 10
2.280035
 20
-3.492984
  0
VERTEX
  8
PLAN_1
  6
CONTINUOUS
 10
2.280496
 20
-3.497114
  0
VERTEX
  8
PLAN_1
  6
CONTINUOUS
 10
2.255260
 20
-3.497114
  0
SEQEND
  8
0
  0
POLYLINE
  8
PLAN_1
  6
CONTINUOUS
 66
     1
 40
0.005504
 41
0.005504
  0
VERTEX
  8
PLAN_1
  6
CONTINUOUS
 10
-0.879276
 20
0.718819
  0
VERTEX
  8
PLAN_1
  6
CONTINUOUS
 10
-1.003154
 20
0.697256
  0
VERTEX
  8
PLAN_1
  6
CONTINUOUS
 10
-1.010953
 20
0.695878
  0
SEQEND
  8
0
  0
POLYLINE
  8
PLAN_1
  6
CONTINUOUS
 66
     1
 40
0.005504
 41
0.005504
  0
VERTEX
  8
PLAN_1
  6
CONTINUOUS
 10
-1.010953
 20
0.695878
  0
VERTEX
  8
PLAN_1
  6
CONTINUOUS
 10
-1.015083
 20
0.694504
  0
VERTEX
  8
PLAN_1
  6
CONTINUOUS
 10
-1.018295
 20
0.692669
  0
VERTEX
  8
PLAN_1
  6
CONTINUOUS
 10
-1.021504
 20
0.690374
  0
VERTEX
  8
PLAN_1
  6
CONTINUOUS
 10
-1.023799
 20
0.687622
  0
VERTEX
  8
PLAN_1
  6
CONTINUOUS
 10
-1.025634
 20
0.683949
  0
VERTEX
  8
PLAN_1
  6
CONTINUOUS
 10
-1.027012
 20
0.680280
  0
VERTEX
  8
PLAN_1
  6
CONTINUOUS
 10
-1.027469
 20
0.676610
  0
VERTEX
  8
PLAN_1
  6
CONTINUOUS
 10
-1.027012
 20
0.672480
  0
VERTEX
  8
PLAN_1
  6
CONTINUOUS
 10
-1.026094
 20
0.668811
  0
VERTEX
  8
PLAN_1
  6
CONTINUOUS
 10
-1.024260
 20
0.665138
  0
VERTEX
  8
PLAN_1
  6
CONTINUOUS
 10
-1.021965
 20
0.662386
  0
VERTEX
  8
PLAN_1
  6
CONTINUOUS
 10
-1.019213
 20
0.659634
  0
VERTEX
  8
PLAN_1
  6
CONTINUOUS
 10
-1.015539
 20
0.657799
  0
VERTEX
  8
PLAN_1
  6
CONTINUOUS
 10
-1.011870
 20
0.656421
  0
VERTEX
  8
PLAN_1
  6
CONTINUOUS
 10
-1.008201
 20
0.655965
  0
VERTEX
  8
PLAN_1
  6
CONTINUOUS
 10
-1.004071
 20
0.656421
  0
SEQEND
  8
0
  0
POLYLINE
  8
PLAN_1
  6
CONTINUOUS
 66
     1
 40
0.005504
 41
0.005504
  0
VERTEX
  8
PLAN_1
  6
CONTINUOUS
 10
-1.004071
 20
0.656421
  0
VERTEX
  8
PLAN_1
  6
CONTINUOUS
 10
-0.996272
 20
0.657799
  0
VERTEX
  8
PLAN_1
  6
CONTINUOUS
 10
-0.651252
 20
0.718819
  0
VERTEX
  8
PLAN_1
  6
CONTINUOUS
 10
-0.879276
 20
0.718819
  0
SEQEND
  8
0
  0
POLYLINE
  8
PLAN_1
  6
CONTINUOUS
 66
     1
 40
0.005504
 41
0.005504
  0
VERTEX
  8
PLAN_1
  6
CONTINUOUS
 10
-0.515445
 20
0.569248
  0
VERTEX
  8
PLAN_1
  6
CONTINUOUS
 10
-0.511319
 20
0.570626
  0
VERTEX
  8
PLAN_1
  6
CONTINUOUS
 10
-0.508106
 20
0.572461
  0
VERTEX
  8
PLAN_1
  6
CONTINUOUS
 10
-0.504894
 20
0.574756
  0
VERTEX
  8
PLAN_1
  6
CONTINUOUS
 10
-0.502598
 20
0.577508
  0
VERTEX
  8
PLAN_1
  6
CONTINUOUS
 10
-0.500764
 20
0.580720
  0
VERTEX
  8
PLAN_1
  6
CONTINUOUS
 10
-0.499390
 20
0.584390
  0
VERTEX
  8
PLAN_1
  6
CONTINUOUS
 10
-0.498929
 20
0.588520
  0
VERTEX
  8
PLAN_1
  6
CONTINUOUS
 10
-0.499390
 20
0.592650
  0
VERTEX
  8
PLAN_1
  6
CONTINUOUS
 10
-0.500307
 20
0.596319
  0
VERTEX
  8
PLAN_1
  6
CONTINUOUS
 10
-0.502142
 20
0.599988
  0
VERTEX
  8
PLAN_1
  6
CONTINUOUS
 10
-0.504437
 20
0.602744
  0
VERTEX
  8
PLAN_1
  6
CONTINUOUS
 10
-0.507189
 20
0.605496
  0
VERTEX
  8
PLAN_1
  6
CONTINUOUS
 10
-0.510858
 20
0.607331
  0
VERTEX
  8
PLAN_1
  6
CONTINUOUS
 10
-0.514528
 20
0.608248
  0
VERTEX
  8
PLAN_1
  6
CONTINUOUS
 10
-0.518201
 20
0.608705
  0
VERTEX
  8
PLAN_1
  6
CONTINUOUS
 10
-0.522327
 20
0.608705
  0
SEQEND
  8
0
  0
POLYLINE
  8
PLAN_1
  6
CONTINUOUS
 66
     1
 40
0.005504
 41
0.005504
  0
VERTEX
  8
PLAN_1
  6
CONTINUOUS
 10
-0.522327
 20
0.608705
  0
VERTEX
  8
PLAN_1
  6
CONTINUOUS
 10
-0.534717
 20
0.606413
  0
VERTEX
  8
PLAN_1
  6
CONTINUOUS
 10
-1.002693
 20
0.523827
  0
VERTEX
  8
PLAN_1
  6
CONTINUOUS
 10
-1.010953
 20
0.522453
  0
SEQEND
  8
0
  0
POLYLINE
  8
PLAN_1
  6
CONTINUOUS
 66
     1
 40
0.005504
 41
0.005504
  0
VERTEX
  8
PLAN_1
  6
CONTINUOUS
 10
-1.010953
 20
0.522453
  0
VERTEX
  8
PLAN_1
  6
CONTINUOUS
 10
-1.014622
 20
0.521075
  0
VERTEX
  8
PLAN_1
  6
CONTINUOUS
 10
-1.018295
 20
0.519240
  0
VERTEX
  8
PLAN_1
  6
CONTINUOUS
 10
-1.021047
 20
0.516945
  0
VERTEX
  8
PLAN_1
  6
CONTINUOUS
 10
-1.023799
 20
0.514193
  0
VERTEX
  8
PLAN_1
  6
CONTINUOUS
 10
-1.025634
 20
0.510524
  0
VERTEX
  8
PLAN_1
  6
CONTINUOUS
 10
-1.027012
 20
0.507311
  0
VERTEX
  8
PLAN_1
  6
CONTINUOUS
 10
-1.027469
 20
0.503181
  0
VERTEX
  8
PLAN_1
  6
CONTINUOUS
 10
-1.027012
 20
0.499051
  0
VERTEX
  8
PLAN_1
  6
CONTINUOUS
 10
-1.026094
 20
0.495382
  0
VERTEX
  8
PLAN_1
  6
CONTINUOUS
 10
-1.024260
 20
0.491713
  0
VERTEX
  8
PLAN_1
  6
CONTINUOUS
 10
-1.021965
 20
0.488961
  0
VERTEX
  8
PLAN_1
  6
CONTINUOUS
 10
-1.018752
 20
0.486205
  0
VERTEX
  8
PLAN_1
  6
CONTINUOUS
 10
-1.015539
 20
0.484370
  0
VERTEX
  8
PLAN_1
  6
CONTINUOUS
 10
-1.011870
 20
0.483453
  0
VERTEX
  8
PLAN_1
  6
CONTINUOUS
 10
-1.008201
 20
0.482535
  0
VERTEX
  8
PLAN_1
  6
CONTINUOUS
 10
-1.004071
 20
0.482996
  0
SEQEND
  8
0
  0
POLYLINE
  8
PLAN_1
  6
CONTINUOUS
 66
     1
 40
0.005504
 41
0.005504
  0
VERTEX
  8
PLAN_1
  6
CONTINUOUS
 10
-1.004071
 20
0.482996
  0
VERTEX
  8
PLAN_1
  6
CONTINUOUS
 10
-0.995811
 20
0.484370
  0
VERTEX
  8
PLAN_1
  6
CONTINUOUS
 10
-0.527835
 20
0.567413
  0
VERTEX
  8
PLAN_1
  6
CONTINUOUS
 10
-0.515445
 20
0.569248
  0
SEQEND
  8
0
  0
POLYLINE
  8
PLAN_1
  6
CONTINUOUS
 66
     1
 40
0.005504
 41
0.005504
  0
VERTEX
  8
PLAN_1
  6
CONTINUOUS
 10
-0.510858
 20
0.309567
  0
VERTEX
  8
PLAN_1
  6
CONTINUOUS
 10
-0.506728
 20
0.310028
  0
VERTEX
  8
PLAN_1
  6
CONTINUOUS
 10
-0.503059
 20
0.311402
  0
VERTEX
  8
PLAN_1
  6
CONTINUOUS
 10
-0.499846
 20
0.313236
  0
VERTEX
  8
PLAN_1
  6
CONTINUOUS
 10
-0.496634
 20
0.315531
  0
VERTEX
  8
PLAN_1
  6
CONTINUOUS
 10
-0.494343
 20
0.318283
  0
VERTEX
  8
PLAN_1
  6
CONTINUOUS
 10
-0.492508
 20
0.321957
  0
VERTEX
  8
PLAN_1
  6
CONTINUOUS
 10
-0.491591
 20
0.325626
  0
VERTEX
  8
PLAN_1
  6
CONTINUOUS
 10
-0.491130
 20
0.329756
  0
VERTEX
  8
PLAN_1
  6
CONTINUOUS
 10
-0.491591
 20
0.333425
  0
VERTEX
  8
PLAN_1
  6
CONTINUOUS
 10
-0.492508
 20
0.337555
  0
VERTEX
  8
PLAN_1
  6
CONTINUOUS
 10
-0.494343
 20
0.340768
  0
VERTEX
  8
PLAN_1
  6
CONTINUOUS
 10
-0.496634
 20
0.343520
  0
VERTEX
  8
PLAN_1
  6
CONTINUOUS
 10
-0.499846
 20
0.346272
  0
VERTEX
  8
PLAN_1
  6
CONTINUOUS
 10
-0.503059
 20
0.348106
  0
VERTEX
  8
PLAN_1
  6
CONTINUOUS
 10
-0.506728
 20
0.349024
  0
VERTEX
  8
PLAN_1
  6
CONTINUOUS
 10
-0.510858
 20
0.349484
  0
SEQEND
  8
0
  0
POLYLINE
  8
PLAN_1
  6
CONTINUOUS
 66
     1
 40
0.005504
 41
0.005504
  0
VERTEX
  8
PLAN_1
  6
CONTINUOUS
 10
-0.510858
 20
0.349484
  0
VERTEX
  8
PLAN_1
  6
CONTINUOUS
 10
-0.523248
 20
0.349484
  0
VERTEX
  8
PLAN_1
  6
CONTINUOUS
 10
-0.999024
 20
0.349484
  0
VERTEX
  8
PLAN_1
  6
CONTINUOUS
 10
-1.007283
 20
0.349484
  0
SEQEND
  8
0
  0
POLYLINE
  8
PLAN_1
  6
CONTINUOUS
 66
     1
 40
0.005504
 41
0.005504
  0
VERTEX
  8
PLAN_1
  6
CONTINUOUS
 10
-1.007283
 20
0.349484
  0
VERTEX
  8
PLAN_1
  6
CONTINUOUS
 10
-1.010953
 20
0.349024
  0
VERTEX
  8
PLAN_1
  6
CONTINUOUS
 10
-1.015083
 20
0.347650
  0
VERTEX
  8
PLAN_1
  6
CONTINUOUS
 10
-1.018295
 20
0.345811
  0
VERTEX
  8
PLAN_1
  6
CONTINUOUS
 10
-1.021047
 20
0.343520
  0
VERTEX
  8
PLAN_1
  6
CONTINUOUS
 10
-1.023799
 20
0.340768
  0
VERTEX
  8
PLAN_1
  6
CONTINUOUS
 10
-1.025634
 20
0.337094
  0
VERTEX
  8
PLAN_1
  6
CONTINUOUS
 10
-1.026551
 20
0.333425
  0
VERTEX
  8
PLAN_1
  6
CONTINUOUS
 10
-1.027012
 20
0.329295
  0
VERTEX
  8
PLAN_1
  6
CONTINUOUS
 10
-1.026551
 20
0.325626
  0
VERTEX
  8
PLAN_1
  6
CONTINUOUS
 10
-1.025634
 20
0.321496
  0
VERTEX
  8
PLAN_1
  6
CONTINUOUS
 10
-1.023799
 20
0.318283
  0
VERTEX
  8
PLAN_1
  6
CONTINUOUS
 10
-1.021047
 20
0.315531
  0
VERTEX
  8
PLAN_1
  6
CONTINUOUS
 10
-1.018295
 20
0.312780
  0
VERTEX
  8
PLAN_1
  6
CONTINUOUS
 10
-1.015083
 20
0.310945
  0
VERTEX
  8
PLAN_1
  6
CONTINUOUS
 10
-1.010953
 20
0.310028
  0
VERTEX
  8
PLAN_1
  6
CONTINUOUS
 10
-1.007283
 20
0.309567
  0
SEQEND
  8
0
  0
POLYLINE
  8
PLAN_1
  6
CONTINUOUS
 66
     1
 40
0.005504
 41
0.005504
  0
VERTEX
  8
PLAN_1
  6
CONTINUOUS
 10
-1.007283
 20
0.309567
  0
VERTEX
  8
PLAN_1
  6
CONTINUOUS
 10
-0.999024
 20
0.309567
  0
VERTEX
  8
PLAN_1
  6
CONTINUOUS
 10
-0.523248
 20
0.309567
  0
VERTEX
  8
PLAN_1
  6
CONTINUOUS
 10
-0.510858
 20
0.309567
  0
SEQEND
  8
0
  0
POLYLINE
  8
PLAN_1
  6
CONTINUOUS
 66
     1
 40
0.005504
 41
0.005504
  0
VERTEX
  8
PLAN_1
  6
CONTINUOUS
 10
-1.704205
 20
1.458409
  0
VERTEX
  8
PLAN_1
  6
CONTINUOUS
 10
-1.704205
 20
1.856650
  0
VERTEX
  8
PLAN_1
  6
CONTINUOUS
 10
-1.747331
 20
1.856650
  0
VERTEX
  8
PLAN_1
  6
CONTINUOUS
 10
-1.747331
 20
1.458409
  0
VERTEX
  8
PLAN_1
  6
CONTINUOUS
 10
-1.704205
 20
1.458409
  0
SEQEND
  8
0
  0
POLYLINE
  8
PLAN_1
  6
CONTINUOUS
 66
     1
 40
0.006882
 41
0.006882
  0
VERTEX
  8
PLAN_1
  6
CONTINUOUS
 10
-1.892772
 20
1.497866
  0
VERTEX
  8
PLAN_1
  6
CONTINUOUS
 10
-1.762012
 20
1.497866
  0
SEQEND
  8
0
  0
POLYLINE
  8
PLAN_1
  6
CONTINUOUS
 66
     1
 40
0.006882
 41
0.006882
  0
VERTEX
  8
PLAN_1
  6
CONTINUOUS
 10
-1.762012
 20
1.497866
  0
VERTEX
  8
PLAN_1
  6
CONTINUOUS
 10
-1.758799
 20
1.512087
  0
VERTEX
  8
PLAN_1
  6
CONTINUOUS
 10
-1.756508
 20
1.526311
  0
VERTEX
  8
PLAN_1
  6
CONTINUOUS
 10
-1.755130
 20
1.540535
  0
VERTEX
  8
PLAN_1
  6
CONTINUOUS
 10
-1.754213
 20
1.554756
  0
VERTEX
  8
PLAN_1
  6
CONTINUOUS
 10
-1.753752
 20
1.568063
  0
VERTEX
  8
PLAN_1
  6
CONTINUOUS
 10
-1.753752
 20
1.581366
  0
VERTEX
  8
PLAN_1
  6
CONTINUOUS
 10
-1.754213
 20
1.593756
  0
VERTEX
  8
PLAN_1
  6
CONTINUOUS
 10
-1.755130
 20
1.605224
  0
VERTEX
  8
PLAN_1
  6
CONTINUOUS
 10
-1.756965
 20
1.625870
  0
VERTEX
  8
PLAN_1
  6
CONTINUOUS
 10
-1.759260
 20
1.641929
  0
VERTEX
  8
PLAN_1
  6
CONTINUOUS
 10
-1.761094
 20
1.652024
  0
VERTEX
  8
PLAN_1
  6
CONTINUOUS
 10
-1.762012
 20
1.655693
  0
VERTEX
  8
PLAN_1
  6
CONTINUOUS
 10
-1.758799
 20
1.669917
  0
VERTEX
  8
PLAN_1
  6
CONTINUOUS
 10
-1.756508
 20
1.684598
  0
VERTEX
  8
PLAN_1
  6
CONTINUOUS
 10
-1.755130
 20
1.698819
  0
VERTEX
  8
PLAN_1
  6
CONTINUOUS
 10
-1.754213
 20
1.713043
  0
VERTEX
  8
PLAN_1
  6
CONTINUOUS
 10
-1.753752
 20
1.726350
  0
VERTEX
  8
PLAN_1
  6
CONTINUOUS
 10
-1.754213
 20
1.739654
  0
VERTEX
  8
PLAN_1
  6
CONTINUOUS
 10
-1.754673
 20
1.752500
  0
VERTEX
  8
PLAN_1
  6
CONTINUOUS
 10
-1.755591
 20
1.763972
  0
VERTEX
  8
PLAN_1
  6
CONTINUOUS
 10
-1.757425
 20
1.785075
  0
VERTEX
  8
PLAN_1
  6
CONTINUOUS
 10
-1.760177
 20
1.801134
  0
VERTEX
  8
PLAN_1
  6
CONTINUOUS
 10
-1.762012
 20
1.811685
  0
VERTEX
  8
PLAN_1
  6
CONTINUOUS
 10
-1.762929
 20
1.815358
  0
SEQEND
  8
0
  0
POLYLINE
  8
PLAN_1
  6
CONTINUOUS
 66
     1
 40
0.006882
 41
0.006882
  0
VERTEX
  8
PLAN_1
  6
CONTINUOUS
 10
-1.762929
 20
1.815358
  0
VERTEX
  8
PLAN_1
  6
CONTINUOUS
 10
-1.892772
 20
1.815358
  0
SEQEND
  8
0
  0
POLYLINE
  8
PLAN_1
  6
CONTINUOUS
 66
     1
 40
0.006882
 41
0.006882
  0
VERTEX
  8
PLAN_1
  6
CONTINUOUS
 10
-1.892772
 20
1.815358
  0
VERTEX
  8
PLAN_1
  6
CONTINUOUS
 10
-1.893689
 20
1.811685
  0
VERTEX
  8
PLAN_1
  6
CONTINUOUS
 10
-1.895524
 20
1.801134
  0
VERTEX
  8
PLAN_1
  6
CONTINUOUS
 10
-1.897358
 20
1.785075
  0
VERTEX
  8
PLAN_1
  6
CONTINUOUS
 10
-1.899654
 20
1.763972
  0
VERTEX
  8
PLAN_1
  6
CONTINUOUS
 10
-1.900571
 20
1.752500
  0
VERTEX
  8
PLAN_1
  6
CONTINUOUS
 10
-1.901028
 20
1.739654
  0
VERTEX
  8
PLAN_1
  6
CONTINUOUS
 10
-1.901028
 20
1.726350
  0
VERTEX
  8
PLAN_1
  6
CONTINUOUS
 10
-1.900571
 20
1.713043
  0
VERTEX
  8
PLAN_1
  6
CONTINUOUS
 10
-1.899654
 20
1.698819
  0
VERTEX
  8
PLAN_1
  6
CONTINUOUS
 10
-1.897819
 20
1.684598
  0
VERTEX
  8
PLAN_1
  6
CONTINUOUS
 10
-1.895984
 20
1.669917
  0
VERTEX
  8
PLAN_1
  6
CONTINUOUS
 10
-1.892772
 20
1.655693
  0
VERTEX
  8
PLAN_1
  6
CONTINUOUS
 10
-1.893689
 20
1.652024
  0
VERTEX
  8
PLAN_1
  6
CONTINUOUS
 10
-1.895524
 20
1.641929
  0
VERTEX
  8
PLAN_1
  6
CONTINUOUS
 10
-1.897358
 20
1.625870
  0
VERTEX
  8
PLAN_1
  6
CONTINUOUS
 10
-1.899654
 20
1.605224
  0
VERTEX
  8
PLAN_1
  6
CONTINUOUS
 10
-1.900571
 20
1.593756
  0
VERTEX
  8
PLAN_1
  6
CONTINUOUS
 10
-1.901028
 20
1.581366
  0
VERTEX
  8
PLAN_1
  6
CONTINUOUS
 10
-1.901028
 20
1.568063
  0
VERTEX
  8
PLAN_1
  6
CONTINUOUS
 10
-1.900571
 20
1.554756
  0
VERTEX
  8
PLAN_1
  6
CONTINUOUS
 10
-1.899654
 20
1.540535
  0
VERTEX
  8
PLAN_1
  6
CONTINUOUS
 10
-1.897819
 20
1.526311
  0
VERTEX
  8
PLAN_1
  6
CONTINUOUS
 10
-1.895984
 20
1.512087
  0
VERTEX
  8
PLAN_1
  6
CONTINUOUS
 10
-1.892772
 20
1.497866
  0
SEQEND
  8
0
  0
POLYLINE
  8
PLAN_1
  6
CONTINUOUS
 66
     1
 40
0.006882
 41
0.006882
  0
VERTEX
  8
PLAN_1
  6
CONTINUOUS
 10
-1.957921
 20
1.559346
  0
VERTEX
  8
PLAN_1
  6
CONTINUOUS
 10
-1.958839
 20
1.559803
  0
VERTEX
  8
PLAN_1
  6
CONTINUOUS
 10
-1.960673
 20
1.562098
  0
VERTEX
  8
PLAN_1
  6
CONTINUOUS
 10
-1.963425
 20
1.564850
  0
VERTEX
  8
PLAN_1
  6
CONTINUOUS
 10
-1.966638
 20
1.568063
  0
VERTEX
  8
PLAN_1
  6
CONTINUOUS
 10
-1.969850
 20
1.571732
  0
VERTEX
  8
PLAN_1
  6
CONTINUOUS
 10
-1.973063
 20
1.574484
  0
VERTEX
  8
PLAN_1
  6
CONTINUOUS
 10
-1.975354
 20
1.576780
  0
VERTEX
  8
PLAN_1
  6
CONTINUOUS
 10
-1.976272
 20
1.577236
  0
VERTEX
  8
PLAN_1
  6
CONTINUOUS
 10
-1.976272
 20
1.584122
  0
VERTEX
  8
PLAN_1
  6
CONTINUOUS
 10
-1.976732
 20
1.602472
  0
VERTEX
  8
PLAN_1
  6
CONTINUOUS
 10
-1.976732
 20
1.628165
  0
VERTEX
  8
PLAN_1
  6
CONTINUOUS
 10
-1.976732
 20
1.657988
  0
VERTEX
  8
PLAN_1
  6
CONTINUOUS
 10
-1.976272
 20
1.687350
  0
VERTEX
  8
PLAN_1
  6
CONTINUOUS
 10
-1.976272
 20
1.713504
  0
VERTEX
  8
PLAN_1
  6
CONTINUOUS
 10
-1.976272
 20
1.731398
  0
VERTEX
  8
PLAN_1
  6
CONTINUOUS
 10
-1.976272
 20
1.738736
  0
SEQEND
  8
0
  0
POLYLINE
  8
PLAN_1
  6
CONTINUOUS
 66
     1
 40
0.006882
 41
0.006882
  0
VERTEX
  8
PLAN_1
  6
CONTINUOUS
 10
-1.976272
 20
1.738736
  0
VERTEX
  8
PLAN_1
  6
CONTINUOUS
 10
-1.957921
 20
1.756630
  0
VERTEX
  8
PLAN_1
  6
CONTINUOUS
 10
-1.910205
 20
1.758008
  0
VERTEX
  8
PLAN_1
  6
CONTINUOUS
 10
-1.910205
 20
1.558886
  0
VERTEX
  8
PLAN_1
  6
CONTINUOUS
 10
-1.957921
 20
1.559346
  0
SEQEND
  8
0
  0
POLYLINE
  8
PLAN_1
  6
CONTINUOUS
 66
     1
 40
0.008256
 41
0.008256
  0
VERTEX
  8
PLAN_1
  6
CONTINUOUS
 10
-1.665665
 20
1.691937
  0
VERTEX
  8
PLAN_1
  6
CONTINUOUS
 10
-1.626665
 20
1.691937
  0
VERTEX
  8
PLAN_1
  6
CONTINUOUS
 10
-1.626665
 20
1.925012
  0
VERTEX
  8
PLAN_1
  6
CONTINUOUS
 10
-1.550504
 20
1.925012
  0
VERTEX
  8
PLAN_1
  6
CONTINUOUS
 10
-1.550504
 20
1.346000
  0
VERTEX
  8
PLAN_1
  6
CONTINUOUS
 10
-1.626665
 20
1.346000
  0
VERTEX
  8
PLAN_1
  6
CONTINUOUS
 10
-1.626665
 20
1.615319
  0
VERTEX
  8
PLAN_1
  6
CONTINUOUS
 10
-1.665665
 20
1.615319
  0
SEQEND
  8
0
  0
POLYLINE
  8
PLAN_1
  6
CONTINUOUS
 66
     1
 40
0.008256
 41
0.008256
  0
VERTEX
  8
PLAN_1
  6
CONTINUOUS
 10
-1.665665
 20
1.615319
  0
VERTEX
  8
PLAN_1
  6
CONTINUOUS
 10
-1.665665
 20
1.691937
  0
VERTEX
  8
PLAN_1
  6
CONTINUOUS
 10
-1.626665
 20
1.691937
  0
VERTEX
  8
PLAN_1
  6
CONTINUOUS
 10
-1.626665
 20
2.226445
  0
VERTEX
  8
PLAN_1
  6
CONTINUOUS
 10
-1.802846
 20
2.542098
  0
VERTEX
  8
PLAN_1
  6
CONTINUOUS
 10
-1.802846
 20
3.005031
  0
VERTEX
  8
PLAN_1
  6
CONTINUOUS
 10
-1.884512
 20
3.005031
  0
VERTEX
  8
PLAN_1
  6
CONTINUOUS
 10
-1.884512
 20
2.542098
  0
SEQEND
  8
0
  0
POLYLINE
  8
PLAN_1
  6
CONTINUOUS
 66
     1
 40
0.008256
 41
0.008256
  0
VERTEX
  8
PLAN_1
  6
CONTINUOUS
 10
-1.884512
 20
2.542098
  0
VERTEX
  8
PLAN_1
  6
CONTINUOUS
 10
-1.876713
 20
2.528795
  0
VERTEX
  8
PLAN_1
  6
CONTINUOUS
 10
-1.856524
 20
2.493008
  0
VERTEX
  8
PLAN_1
  6
CONTINUOUS
 10
-1.827622
 20
2.442539
  0
VERTEX
  8
PLAN_1
  6
CONTINUOUS
 10
-1.794130
 20
2.384728
  0
VERTEX
  8
PLAN_1
  6
CONTINUOUS
 10
-1.761094
 20
2.326461
  0
VERTEX
  8
PLAN_1
  6
CONTINUOUS
 10
-1.732189
 20
2.275992
  0
VERTEX
  8
PLAN_1
  6
CONTINUOUS
 10
-1.711543
 20
2.240209
  0
VERTEX
  8
PLAN_1
  6
CONTINUOUS
 10
-1.704205
 20
2.226445
  0
SEQEND
  8
0
  0
POLYLINE
  8
PLAN_1
  6
CONTINUOUS
 66
     1
 40
0.008256
 41
0.008256
  0
VERTEX
  8
PLAN_1
  6
CONTINUOUS
 10
-1.704205
 20
2.226445
  0
VERTEX
  8
PLAN_1
  6
CONTINUOUS
 10
-1.704205
 20
1.296909
  0
VERTEX
  8
PLAN_1
  6
CONTINUOUS
 10
-1.626665
 20
1.296909
  0
VERTEX
  8
PLAN_1
  6
CONTINUOUS
 10
-1.626665
 20
1.615319
  0
VERTEX
  8
PLAN_1
  6
CONTINUOUS
 10
-1.665665
 20
1.615319
  0
SEQEND
  8
0
  0
POLYLINE
  8
PLAN_1
  6
CONTINUOUS
 66
     1
 40
0.008256
 41
0.008256
  0
VERTEX
  8
PLAN_1
  6
CONTINUOUS
 10
-1.884512
 20
2.381976
  0
VERTEX
  8
PLAN_1
  6
CONTINUOUS
 10
-1.884512
 20
3.257831
  0
VERTEX
  8
PLAN_1
  6
CONTINUOUS
 10
-2.121256
 20
3.257831
  0
VERTEX
  8
PLAN_1
  6
CONTINUOUS
 10
-2.121256
 20
2.381976
  0
VERTEX
  8
PLAN_1
  6
CONTINUOUS
 10
-1.884512
 20
2.381976
  0
SEQEND
  8
0
  0
POLYLINE
  8
PLAN_1
  6
CONTINUOUS
 66
     1
 40
0.008256
 41
0.008256
  0
VERTEX
  8
PLAN_1
  6
CONTINUOUS
 10
-2.121256
 20
2.583390
  0
VERTEX
  8
PLAN_1
  6
CONTINUOUS
 10
-2.121256
 20
3.061465
  0
VERTEX
  8
PLAN_1
  6
CONTINUOUS
 10
-2.184110
 20
3.061465
  0
VERTEX
  8
PLAN_1
  6
CONTINUOUS
 10
-2.184110
 20
2.583390
  0
VERTEX
  8
PLAN_1
  6
CONTINUOUS
 10
-2.121256
 20
2.583390
  0
SEQEND
  8
0
  0
POLYLINE
  8
PLAN_1
  6
CONTINUOUS
 66
     1
 40
0.008256
 41
0.008256
  0
VERTEX
  8
PLAN_1
  6
CONTINUOUS
 10
-1.747791
 20
2.738469
  0
VERTEX
  8
PLAN_1
  6
CONTINUOUS
 10
-1.747791
 20
2.892626
  0
VERTEX
  8
PLAN_1
  6
CONTINUOUS
 10
-1.802846
 20
2.892626
  0
VERTEX
  8
PLAN_1
  6
CONTINUOUS
 10
-1.802846
 20
2.738469
  0
VERTEX
  8
PLAN_1
  6
CONTINUOUS
 10
-1.747791
 20
2.738469
  0
SEQEND
  8
0
  0
POLYLINE
  8
PLAN_1
 62
     5
  6
CONTINUOUS
 66
     1
 40
0.003000
 41
0.003000
  0
VERTEX
  8
PLAN_1
 62
     5
  6
CONTINUOUS
 10
-1.580327
 20
3.263335
  0
VERTEX
  8
PLAN_1
 62
     5
  6
CONTINUOUS
 10
-1.572067
 20
3.263335
  0
SEQEND
  8
0
  0
POLYLINE
  8
PLAN_1
 62
     5
  6
CONTINUOUS
 66
     1
 40
0.003000
 41
0.003000
  0
VERTEX
  8
PLAN_1
 62
     5
  6
CONTINUOUS
 10
-1.563811
 20
3.263335
  0
VERTEX
  8
PLAN_1
 62
     5
  6
CONTINUOUS
 10
-1.555551
 20
3.263335
  0
SEQEND
  8
0
  0
POLYLINE
  8
PLAN_1
 62
     5
  6
CONTINUOUS
 66
     1
 40
0.003000
 41
0.003000
  0
VERTEX
  8
PLAN_1
 62
     5
  6
CONTINUOUS
 10
-1.546835
 20
3.263335
  0
VERTEX
  8
PLAN_1
 62
     5
  6
CONTINUOUS
 10
-1.538575
 20
3.263335
  0
SEQEND
  8
0
  0
POLYLINE
  8
PLAN_1
 62
     5
  6
CONTINUOUS
 66
     1
 40
0.003000
 41
0.003000
  0
VERTEX
  8
PLAN_1
 62
     5
  6
CONTINUOUS
 10
-1.530319
 20
3.263335
  0
VERTEX
  8
PLAN_1
 62
     5
  6
CONTINUOUS
 10
-1.522059
 20
3.263335
  0
SEQEND
  8
0
  0
POLYLINE
  8
PLAN_1
 62
     5
  6
CONTINUOUS
 66
     1
 40
0.003000
 41
0.003000
  0
VERTEX
  8
PLAN_1
 62
     5
  6
CONTINUOUS
 10
-1.513799
 20
3.263335
  0
VERTEX
  8
PLAN_1
 62
     5
  6
CONTINUOUS
 10
-1.505543
 20
3.263335
  0
SEQEND
  8
0
  0
POLYLINE
  8
PLAN_1
 62
     5
  6
CONTINUOUS
 66
     1
 40
0.003000
 41
0.003000
  0
VERTEX
  8
PLAN_1
 62
     5
  6
CONTINUOUS
 10
-1.497283
 20
3.263335
  0
VERTEX
  8
PLAN_1
 62
     5
  6
CONTINUOUS
 10
-1.488567
 20
3.263335
  0
SEQEND
  8
0
  0
POLYLINE
  8
PLAN_1
 62
     5
  6
CONTINUOUS
 66
     1
 40
0.003000
 41
0.003000
  0
VERTEX
  8
PLAN_1
 62
     5
  6
CONTINUOUS
 10
-1.480307
 20
3.263335
  0
VERTEX
  8
PLAN_1
 62
     5
  6
CONTINUOUS
 10
-1.472051
 20
3.263335
  0
SEQEND
  8
0
  0
POLYLINE
  8
PLAN_1
 62
     5
  6
CONTINUOUS
 66
     1
 40
0.003000
 41
0.003000
  0
VERTEX
  8
PLAN_1
 62
     5
  6
CONTINUOUS
 10
-1.463791
 20
3.263335
  0
VERTEX
  8
PLAN_1
 62
     5
  6
CONTINUOUS
 10
-1.455531
 20
3.263335
  0
SEQEND
  8
0
  0
POLYLINE
  8
PLAN_1
 62
     5
  6
CONTINUOUS
 66
     1
 40
0.003000
 41
0.003000
  0
VERTEX
  8
PLAN_1
 62
     5
  6
CONTINUOUS
 10
-1.447276
 20
3.263335
  0
VERTEX
  8
PLAN_1
 62
     5
  6
CONTINUOUS
 10
-1.438555
 20
3.263335
  0
SEQEND
  8
0
  0
POLYLINE
  8
PLAN_1
 62
     5
  6
CONTINUOUS
 66
     1
 40
0.003000
 41
0.003000
  0
VERTEX
  8
PLAN_1
 62
     5
  6
CONTINUOUS
 10
-1.430299
 20
3.263335
  0
VERTEX
  8
PLAN_1
 62
     5
  6
CONTINUOUS
 10
-1.422039
 20
3.263335
  0
SEQEND
  8
0
  0
POLYLINE
  8
PLAN_1
 62
     5
  6
CONTINUOUS
 66
     1
 40
0.003000
 41
0.003000
  0
VERTEX
  8
PLAN_1
 62
     5
  6
CONTINUOUS
 10
-1.413780
 20
3.263335
  0
VERTEX
  8
PLAN_1
 62
     5
  6
CONTINUOUS
 10
-1.405524
 20
3.263335
  0
SEQEND
  8
0
  0
POLYLINE
  8
PLAN_1
 62
     5
  6
CONTINUOUS
 66
     1
 40
0.003000
 41
0.003000
  0
VERTEX
  8
PLAN_1
 62
     5
  6
CONTINUOUS
 10
-1.397264
 20
3.263335
  0
VERTEX
  8
PLAN_1
 62
     5
  6
CONTINUOUS
 10
-1.389008
 20
3.263335
  0
SEQEND
  8
0
  0
POLYLINE
  8
PLAN_1
 62
     5
  6
CONTINUOUS
 66
     1
 40
0.003000
 41
0.003000
  0
VERTEX
  8
PLAN_1
 62
     5
  6
CONTINUOUS
 10
-1.380287
 20
3.263335
  0
VERTEX
  8
PLAN_1
 62
     5
  6
CONTINUOUS
 10
-1.372031
 20
3.263335
  0
SEQEND
  8
0
  0
POLYLINE
  8
PLAN_1
 62
     5
  6
CONTINUOUS
 66
     1
 40
0.003000
 41
0.003000
  0
VERTEX
  8
PLAN_1
 62
     5
  6
CONTINUOUS
 10
-1.363772
 20
3.263335
  0
VERTEX
  8
PLAN_1
 62
     5
  6
CONTINUOUS
 10
-1.355512
 20
3.263335
  0
SEQEND
  8
0
  0
POLYLINE
  8
PLAN_1
 62
     5
  6
CONTINUOUS
 66
     1
 40
0.003000
 41
0.003000
  0
VERTEX
  8
PLAN_1
 62
     5
  6
CONTINUOUS
 10
-1.347256
 20
3.263335
  0
VERTEX
  8
PLAN_1
 62
     5
  6
CONTINUOUS
 10
-1.338996
 20
3.263335
  0
SEQEND
  8
0
  0
POLYLINE
  8
PLAN_1
 62
     5
  6
CONTINUOUS
 66
     1
 40
0.003000
 41
0.003000
  0
VERTEX
  8
PLAN_1
 62
     5
  6
CONTINUOUS
 10
-1.338079
 20
3.255535
  0
VERTEX
  8
PLAN_1
 62
     5
  6
CONTINUOUS
 10
-1.338079
 20
3.247280
  0
SEQEND
  8
0
  0
POLYLINE
  8
PLAN_1
 62
     5
  6
CONTINUOUS
 66
     1
 40
0.003000
 41
0.003000
  0
VERTEX
  8
PLAN_1
 62
     5
  6
CONTINUOUS
 10
-1.338079
 20
3.239020
  0
VERTEX
  8
PLAN_1
 62
     5
  6
CONTINUOUS
 10
-1.338079
 20
3.230760
  0
SEQEND
  8
0
  0
POLYLINE
  8
PLAN_1
 62
     5
  6
CONTINUOUS
 66
     1
 40
0.003000
 41
0.003000
  0
VERTEX
  8
PLAN_1
 62
     5
  6
CONTINUOUS
 10
-1.338079
 20
3.222043
  0
VERTEX
  8
PLAN_1
 62
     5
  6
CONTINUOUS
 10
-1.338079
 20
3.213787
  0
SEQEND
  8
0
  0
POLYLINE
  8
PLAN_1
 62
     5
  6
CONTINUOUS
 66
     1
 40
0.003000
 41
0.003000
  0
VERTEX
  8
PLAN_1
 62
     5
  6
CONTINUOUS
 10
-1.338079
 20
3.205528
  0
VERTEX
  8
PLAN_1
 62
     5
  6
CONTINUOUS
 10
-1.338079
 20
3.197268
  0
SEQEND
  8
0
  0
POLYLINE
  8
PLAN_1
 62
     5
  6
CONTINUOUS
 66
     1
 40
0.003000
 41
0.003000
  0
VERTEX
  8
PLAN_1
 62
     5
  6
CONTINUOUS
 10
-1.338079
 20
3.189012
  0
VERTEX
  8
PLAN_1
 62
     5
  6
CONTINUOUS
 10
-1.338079
 20
3.180752
  0
SEQEND
  8
0
  0
POLYLINE
  8
PLAN_1
 62
     5
  6
CONTINUOUS
 66
     1
 40
0.003000
 41
0.003000
  0
VERTEX
  8
PLAN_1
 62
     5
  6
CONTINUOUS
 10
-1.338079
 20
3.172492
  0
VERTEX
  8
PLAN_1
 62
     5
  6
CONTINUOUS
 10
-1.338079
 20
3.163776
  0
SEQEND
  8
0
  0
POLYLINE
  8
PLAN_1
 62
     5
  6
CONTINUOUS
 66
     1
 40
0.003000
 41
0.003000
  0
VERTEX
  8
PLAN_1
 62
     5
  6
CONTINUOUS
 10
-1.338079
 20
3.155520
  0
VERTEX
  8
PLAN_1
 62
     5
  6
CONTINUOUS
 10
-1.338079
 20
3.147260
  0
SEQEND
  8
0
  0
POLYLINE
  8
PLAN_1
 62
     5
  6
CONTINUOUS
 66
     1
 40
0.003000
 41
0.003000
  0
VERTEX
  8
PLAN_1
 62
     5
  6
CONTINUOUS
 10
-1.338079
 20
3.139000
  0
VERTEX
  8
PLAN_1
 62
     5
  6
CONTINUOUS
 10
-1.338079
 20
3.130744
  0
SEQEND
  8
0
  0
POLYLINE
  8
PLAN_1
 62
     5
  6
CONTINUOUS
 66
     1
 40
0.003000
 41
0.003000
  0
VERTEX
  8
PLAN_1
 62
     5
  6
CONTINUOUS
 10
-1.338079
 20
3.122484
  0
VERTEX
  8
PLAN_1
 62
     5
  6
CONTINUOUS
 10
-1.338079
 20
3.113768
  0
SEQEND
  8
0
  0
POLYLINE
  8
PLAN_1
 62
     5
  6
CONTINUOUS
 66
     1
 40
0.003000
 41
0.003000
  0
VERTEX
  8
PLAN_1
 62
     5
  6
CONTINUOUS
 10
-1.338079
 20
3.105508
  0
VERTEX
  8
PLAN_1
 62
     5
  6
CONTINUOUS
 10
-1.338079
 20
3.097252
  0
SEQEND
  8
0
  0
POLYLINE
  8
PLAN_1
 62
     5
  6
CONTINUOUS
 66
     1
 40
0.003000
 41
0.003000
  0
VERTEX
  8
PLAN_1
 62
     5
  6
CONTINUOUS
 10
-1.338079
 20
3.088992
  0
VERTEX
  8
PLAN_1
 62
     5
  6
CONTINUOUS
 10
-1.338079
 20
3.080732
  0
SEQEND
  8
0
  0
POLYLINE
  8
PLAN_1
 62
     5
  6
CONTINUOUS
 66
     1
 40
0.003000
 41
0.003000
  0
VERTEX
  8
PLAN_1
 62
     5
  6
CONTINUOUS
 10
-1.338079
 20
3.072476
  0
VERTEX
  8
PLAN_1
 62
     5
  6
CONTINUOUS
 10
-1.338079
 20
3.066512
  0
VERTEX
  8
PLAN_1
 62
     5
  6
CONTINUOUS
 10
-1.335327
 20
3.066512
  0
SEQEND
  8
0
  0
POLYLINE
  8
PLAN_1
 62
     5
  6
CONTINUOUS
 66
     1
 40
0.003000
 41
0.003000
  0
VERTEX
  8
PLAN_1
 62
     5
  6
CONTINUOUS
 10
-1.327067
 20
3.066512
  0
VERTEX
  8
PLAN_1
 62
     5
  6
CONTINUOUS
 10
-1.318811
 20
3.066512
  0
SEQEND
  8
0
  0
POLYLINE
  8
PLAN_1
 62
     5
  6
CONTINUOUS
 66
     1
 40
0.003000
 41
0.003000
  0
VERTEX
  8
PLAN_1
 62
     5
  6
CONTINUOUS
 10
-1.310551
 20
3.066512
  0
VERTEX
  8
PLAN_1
 62
     5
  6
CONTINUOUS
 10
-1.302291
 20
3.066512
  0
SEQEND
  8
0
  0
POLYLINE
  8
PLAN_1
 62
     5
  6
CONTINUOUS
 66
     1
 40
0.003000
 41
0.003000
  0
VERTEX
  8
PLAN_1
 62
     5
  6
CONTINUOUS
 10
-1.294035
 20
3.066512
  0
VERTEX
  8
PLAN_1
 62
     5
  6
CONTINUOUS
 10
-1.285776
 20
3.066512
  0
SEQEND
  8
0
  0
POLYLINE
  8
PLAN_1
 62
     5
  6
CONTINUOUS
 66
     1
 40
0.003000
 41
0.003000
  0
VERTEX
  8
PLAN_1
 62
     5
  6
CONTINUOUS
 10
-1.278433
 20
3.065594
  0
VERTEX
  8
PLAN_1
 62
     5
  6
CONTINUOUS
 10
-1.278433
 20
3.056874
  0
SEQEND
  8
0
  0
POLYLINE
  8
PLAN_1
 62
     5
  6
CONTINUOUS
 66
     1
 40
0.003000
 41
0.003000
  0
VERTEX
  8
PLAN_1
 62
     5
  6
CONTINUOUS
 10
-1.278433
 20
3.048618
  0
VERTEX
  8
PLAN_1
 62
     5
  6
CONTINUOUS
 10
-1.278433
 20
3.040358
  0
SEQEND
  8
0
  0
POLYLINE
  8
PLAN_1
 62
     5
  6
CONTINUOUS
 66
     1
 40
0.003000
 41
0.003000
  0
VERTEX
  8
PLAN_1
 62
     5
  6
CONTINUOUS
 10
-1.278433
 20
3.032098
  0
VERTEX
  8
PLAN_1
 62
     5
  6
CONTINUOUS
 10
-1.278433
 20
3.023843
  0
SEQEND
  8
0
  0
POLYLINE
  8
PLAN_1
 62
     5
  6
CONTINUOUS
 66
     1
 40
0.003000
 41
0.003000
  0
VERTEX
  8
PLAN_1
 62
     5
  6
CONTINUOUS
 10
-1.278433
 20
3.015583
  0
VERTEX
  8
PLAN_1
 62
     5
  6
CONTINUOUS
 10
-1.278433
 20
3.006866
  0
SEQEND
  8
0
  0
POLYLINE
  8
PLAN_1
 62
     5
  6
CONTINUOUS
 66
     1
 40
0.003000
 41
0.003000
  0
VERTEX
  8
PLAN_1
 62
     5
  6
CONTINUOUS
 10
-1.278433
 20
2.998606
  0
VERTEX
  8
PLAN_1
 62
     5
  6
CONTINUOUS
 10
-1.278433
 20
2.990350
  0
SEQEND
  8
0
  0
POLYLINE
  8
PLAN_1
 62
     5
  6
CONTINUOUS
 66
     1
 40
0.003000
 41
0.003000
  0
VERTEX
  8
PLAN_1
 62
     5
  6
CONTINUOUS
 10
-1.278433
 20
2.982091
  0
VERTEX
  8
PLAN_1
 62
     5
  6
CONTINUOUS
 10
-1.278433
 20
2.973831
  0
SEQEND
  8
0
  0
POLYLINE
  8
PLAN_1
 62
     5
  6
CONTINUOUS
 66
     1
 40
0.003000
 41
0.003000
  0
VERTEX
  8
PLAN_1
 62
     5
  6
CONTINUOUS
 10
-1.278433
 20
2.965575
  0
VERTEX
  8
PLAN_1
 62
     5
  6
CONTINUOUS
 10
-1.278433
 20
2.957315
  0
SEQEND
  8
0
  0
POLYLINE
  8
PLAN_1
 62
     5
  6
CONTINUOUS
 66
     1
 40
0.003000
 41
0.003000
  0
VERTEX
  8
PLAN_1
 62
     5
  6
CONTINUOUS
 10
-1.278433
 20
2.948598
  0
VERTEX
  8
PLAN_1
 62
     5
  6
CONTINUOUS
 10
-1.278433
 20
2.940339
  0
SEQEND
  8
0
  0
POLYLINE
  8
PLAN_1
 62
     5
  6
CONTINUOUS
 66
     1
 40
0.003000
 41
0.003000
  0
VERTEX
  8
PLAN_1
 62
     5
  6
CONTINUOUS
 10
-1.278433
 20
2.932083
  0
VERTEX
  8
PLAN_1
 62
     5
  6
CONTINUOUS
 10
-1.278433
 20
2.923823
  0
SEQEND
  8
0
  0
POLYLINE
  8
PLAN_1
 62
     5
  6
CONTINUOUS
 66
     1
 40
0.003000
 41
0.003000
  0
VERTEX
  8
PLAN_1
 62
     5
  6
CONTINUOUS
 10
-1.278433
 20
2.915563
  0
VERTEX
  8
PLAN_1
 62
     5
  6
CONTINUOUS
 10
-1.278433
 20
2.907307
  0
SEQEND
  8
0
  0
POLYLINE
  8
PLAN_1
 62
     5
  6
CONTINUOUS
 66
     1
 40
0.003000
 41
0.003000
  0
VERTEX
  8
PLAN_1
 62
     5
  6
CONTINUOUS
 10
-1.278433
 20
2.898591
  0
VERTEX
  8
PLAN_1
 62
     5
  6
CONTINUOUS
 10
-1.278433
 20
2.890331
  0
SEQEND
  8
0
  0
POLYLINE
  8
PLAN_1
 62
     5
  6
CONTINUOUS
 66
     1
 40
0.003000
 41
0.003000
  0
VERTEX
  8
PLAN_1
 62
     5
  6
CONTINUOUS
 10
-1.278433
 20
2.882071
  0
VERTEX
  8
PLAN_1
 62
     5
  6
CONTINUOUS
 10
-1.278433
 20
2.873815
  0
SEQEND
  8
0
  0
POLYLINE
  8
PLAN_1
 62
     5
  6
CONTINUOUS
 66
     1
 40
0.003000
 41
0.003000
  0
VERTEX
  8
PLAN_1
 62
     5
  6
CONTINUOUS
 10
-1.278433
 20
2.865555
  0
VERTEX
  8
PLAN_1
 62
     5
  6
CONTINUOUS
 10
-1.278433
 20
2.857295
  0
SEQEND
  8
0
  0
POLYLINE
  8
PLAN_1
 62
     5
  6
CONTINUOUS
 66
     1
 40
0.003000
 41
0.003000
  0
VERTEX
  8
PLAN_1
 62
     5
  6
CONTINUOUS
 10
-1.278433
 20
2.849039
  0
VERTEX
  8
PLAN_1
 62
     5
  6
CONTINUOUS
 10
-1.278433
 20
2.840319
  0
SEQEND
  8
0
  0
POLYLINE
  8
PLAN_1
 62
     5
  6
CONTINUOUS
 66
     1
 40
0.003000
 41
0.003000
  0
VERTEX
  8
PLAN_1
 62
     5
  6
CONTINUOUS
 10
-1.278433
 20
2.832063
  0
VERTEX
  8
PLAN_1
 62
     5
  6
CONTINUOUS
 10
-1.278433
 20
2.823803
  0
SEQEND
  8
0
  0
POLYLINE
  8
PLAN_1
 62
     5
  6
CONTINUOUS
 66
     1
 40
0.003000
 41
0.003000
  0
VERTEX
  8
PLAN_1
 62
     5
  6
CONTINUOUS
 10
-1.278433
 20
2.815547
  0
VERTEX
  8
PLAN_1
 62
     5
  6
CONTINUOUS
 10
-1.278433
 20
2.807287
  0
SEQEND
  8
0
  0
POLYLINE
  8
PLAN_1
 62
     5
  6
CONTINUOUS
 66
     1
 40
0.003000
 41
0.003000
  0
VERTEX
  8
PLAN_1
 62
     5
  6
CONTINUOUS
 10
-1.278433
 20
2.799028
  0
VERTEX
  8
PLAN_1
 62
     5
  6
CONTINUOUS
 10
-1.278433
 20
2.790311
  0
SEQEND
  8
0
  0
POLYLINE
  8
PLAN_1
 62
     5
  6
CONTINUOUS
 66
     1
 40
0.003000
 41
0.003000
  0
VERTEX
  8
PLAN_1
 62
     5
  6
CONTINUOUS
 10
-1.278433
 20
2.782051
  0
VERTEX
  8
PLAN_1
 62
     5
  6
CONTINUOUS
 10
-1.278433
 20
2.773795
  0
SEQEND
  8
0
  0
POLYLINE
  8
PLAN_1
 62
     5
  6
CONTINUOUS
 66
     1
 40
0.003000
 41
0.003000
  0
VERTEX
  8
PLAN_1
 62
     5
  6
CONTINUOUS
 10
-1.278433
 20
2.765535
  0
VERTEX
  8
PLAN_1
 62
     5
  6
CONTINUOUS
 10
-1.278433
 20
2.757276
  0
SEQEND
  8
0
  0
POLYLINE
  8
PLAN_1
 62
     5
  6
CONTINUOUS
 66
     1
 40
0.003000
 41
0.003000
  0
VERTEX
  8
PLAN_1
 62
     5
  6
CONTINUOUS
 10
-1.278433
 20
2.749020
  0
VERTEX
  8
PLAN_1
 62
     5
  6
CONTINUOUS
 10
-1.278433
 20
2.740760
  0
SEQEND
  8
0
  0
POLYLINE
  8
PLAN_1
 62
     5
  6
CONTINUOUS
 66
     1
 40
0.003000
 41
0.003000
  0
VERTEX
  8
PLAN_1
 62
     5
  6
CONTINUOUS
 10
-1.278433
 20
2.732043
  0
VERTEX
  8
PLAN_1
 62
     5
  6
CONTINUOUS
 10
-1.278433
 20
2.723783
  0
SEQEND
  8
0
  0
POLYLINE
  8
PLAN_1
 62
     5
  6
CONTINUOUS
 66
     1
 40
0.003000
 41
0.003000
  0
VERTEX
  8
PLAN_1
 62
     5
  6
CONTINUOUS
 10
-1.278433
 20
2.715528
  0
VERTEX
  8
PLAN_1
 62
     5
  6
CONTINUOUS
 10
-1.278433
 20
2.707268
  0
SEQEND
  8
0
  0
POLYLINE
  8
PLAN_1
 62
     5
  6
CONTINUOUS
 66
     1
 40
0.003000
 41
0.003000
  0
VERTEX
  8
PLAN_1
 62
     5
  6
CONTINUOUS
 10
-1.278433
 20
2.699008
  0
VERTEX
  8
PLAN_1
 62
     5
  6
CONTINUOUS
 10
-1.278433
 20
2.690752
  0
SEQEND
  8
0
  0
POLYLINE
  8
PLAN_1
 62
     5
  6
CONTINUOUS
 66
     1
 40
0.003000
 41
0.003000
  0
VERTEX
  8
PLAN_1
 62
     5
  6
CONTINUOUS
 10
-1.278433
 20
2.682035
  0
VERTEX
  8
PLAN_1
 62
     5
  6
CONTINUOUS
 10
-1.278433
 20
2.673776
  0
SEQEND
  8
0
  0
POLYLINE
  8
PLAN_1
 62
     5
  6
CONTINUOUS
 66
     1
 40
0.003000
 41
0.003000
  0
VERTEX
  8
PLAN_1
 62
     5
  6
CONTINUOUS
 10
-1.278433
 20
2.665516
  0
VERTEX
  8
PLAN_1
 62
     5
  6
CONTINUOUS
 10
-1.278433
 20
2.657260
  0
SEQEND
  8
0
  0
POLYLINE
  8
PLAN_1
 62
     5
  6
CONTINUOUS
 66
     1
 40
0.003000
 41
0.003000
  0
VERTEX
  8
PLAN_1
 62
     5
  6
CONTINUOUS
 10
-1.278433
 20
2.649000
  0
VERTEX
  8
PLAN_1
 62
     5
  6
CONTINUOUS
 10
-1.278433
 20
2.640740
  0
SEQEND
  8
0
  0
POLYLINE
  8
PLAN_1
 62
     5
  6
CONTINUOUS
 66
     1
 40
0.003000
 41
0.003000
  0
VERTEX
  8
PLAN_1
 62
     5
  6
CONTINUOUS
 10
-1.278433
 20
2.632484
  0
VERTEX
  8
PLAN_1
 62
     5
  6
CONTINUOUS
 10
-1.278433
 20
2.623768
  0
SEQEND
  8
0
  0
POLYLINE
  8
PLAN_1
 62
     5
  6
CONTINUOUS
 66
     1
 40
0.003000
 41
0.003000
  0
VERTEX
  8
PLAN_1
 62
     5
  6
CONTINUOUS
 10
-1.278433
 20
2.615508
  0
VERTEX
  8
PLAN_1
 62
     5
  6
CONTINUOUS
 10
-1.278433
 20
2.607248
  0
SEQEND
  8
0
  0
POLYLINE
  8
PLAN_1
 62
     5
  6
CONTINUOUS
 66
     1
 40
0.003000
 41
0.003000
  0
VERTEX
  8
PLAN_1
 62
     5
  6
CONTINUOUS
 10
-1.278433
 20
2.598992
  0
VERTEX
  8
PLAN_1
 62
     5
  6
CONTINUOUS
 10
-1.278433
 20
2.590732
  0
SEQEND
  8
0
  0
POLYLINE
  8
PLAN_1
 62
     5
  6
CONTINUOUS
 66
     1
 40
0.003000
 41
0.003000
  0
VERTEX
  8
PLAN_1
 62
     5
  6
CONTINUOUS
 10
-1.285315
 20
2.588898
  0
VERTEX
  8
PLAN_1
 62
     5
  6
CONTINUOUS
 10
-1.293575
 20
2.588898
  0
SEQEND
  8
0
  0
POLYLINE
  8
PLAN_1
 62
     5
  6
CONTINUOUS
 66
     1
 40
0.003000
 41
0.003000
  0
VERTEX
  8
PLAN_1
 62
     5
  6
CONTINUOUS
 10
-1.301835
 20
2.588898
  0
VERTEX
  8
PLAN_1
 62
     5
  6
CONTINUOUS
 10
-1.310091
 20
2.588898
  0
SEQEND
  8
0
  0
POLYLINE
  8
PLAN_1
 62
     5
  6
CONTINUOUS
 66
     1
 40
0.003000
 41
0.003000
  0
VERTEX
  8
PLAN_1
 62
     5
  6
CONTINUOUS
 10
-1.318350
 20
2.588898
  0
VERTEX
  8
PLAN_1
 62
     5
  6
CONTINUOUS
 10
-1.326610
 20
2.588898
  0
SEQEND
  8
0
  0
POLYLINE
  8
PLAN_1
 62
     5
  6
CONTINUOUS
 66
     1
 40
0.003000
 41
0.003000
  0
VERTEX
  8
PLAN_1
 62
     5
  6
CONTINUOUS
 10
-1.335327
 20
2.588898
  0
VERTEX
  8
PLAN_1
 62
     5
  6
CONTINUOUS
 10
-1.338079
 20
2.588898
  0
VERTEX
  8
PLAN_1
 62
     5
  6
CONTINUOUS
 10
-1.338079
 20
2.583850
  0
SEQEND
  8
0
  0
POLYLINE
  8
PLAN_1
 62
     5
  6
CONTINUOUS
 66
     1
 40
0.003000
 41
0.003000
  0
VERTEX
  8
PLAN_1
 62
     5
  6
CONTINUOUS
 10
-1.338079
 20
2.575134
  0
VERTEX
  8
PLAN_1
 62
     5
  6
CONTINUOUS
 10
-1.338079
 20
2.566874
  0
SEQEND
  8
0
  0
POLYLINE
  8
PLAN_1
 62
     5
  6
CONTINUOUS
 66
     1
 40
0.003000
 41
0.003000
  0
VERTEX
  8
PLAN_1
 62
     5
  6
CONTINUOUS
 10
-1.338079
 20
2.558618
  0
VERTEX
  8
PLAN_1
 62
     5
  6
CONTINUOUS
 10
-1.338079
 20
2.550358
  0
SEQEND
  8
0
  0
POLYLINE
  8
PLAN_1
 62
     5
  6
CONTINUOUS
 66
     1
 40
0.003000
 41
0.003000
  0
VERTEX
  8
PLAN_1
 62
     5
  6
CONTINUOUS
 10
-1.338079
 20
2.542098
  0
VERTEX
  8
PLAN_1
 62
     5
  6
CONTINUOUS
 10
-1.338079
 20
2.533843
  0
SEQEND
  8
0
  0
POLYLINE
  8
PLAN_1
 62
     5
  6
CONTINUOUS
 66
     1
 40
0.003000
 41
0.003000
  0
VERTEX
  8
PLAN_1
 62
     5
  6
CONTINUOUS
 10
-1.338079
 20
2.525583
  0
VERTEX
  8
PLAN_1
 62
     5
  6
CONTINUOUS
 10
-1.338079
 20
2.516866
  0
SEQEND
  8
0
  0
POLYLINE
  8
PLAN_1
 62
     5
  6
CONTINUOUS
 66
     1
 40
0.003000
 41
0.003000
  0
VERTEX
  8
PLAN_1
 62
     5
  6
CONTINUOUS
 10
-1.338079
 20
2.508606
  0
VERTEX
  8
PLAN_1
 62
     5
  6
CONTINUOUS
 10
-1.338079
 20
2.500346
  0
SEQEND
  8
0
  0
POLYLINE
  8
PLAN_1
 62
     5
  6
CONTINUOUS
 66
     1
 40
0.003000
 41
0.003000
  0
VERTEX
  8
PLAN_1
 62
     5
  6
CONTINUOUS
 10
-1.338079
 20
2.492091
  0
VERTEX
  8
PLAN_1
 62
     5
  6
CONTINUOUS
 10
-1.338079
 20
2.483831
  0
SEQEND
  8
0
  0
POLYLINE
  8
PLAN_1
 62
     5
  6
CONTINUOUS
 66
     1
 40
0.003000
 41
0.003000
  0
VERTEX
  8
PLAN_1
 62
     5
  6
CONTINUOUS
 10
-1.338079
 20
2.475575
  0
VERTEX
  8
PLAN_1
 62
     5
  6
CONTINUOUS
 10
-1.338079
 20
2.466854
  0
SEQEND
  8
0
  0
POLYLINE
  8
PLAN_1
 62
     5
  6
CONTINUOUS
 66
     1
 40
0.003000
 41
0.003000
  0
VERTEX
  8
PLAN_1
 62
     5
  6
CONTINUOUS
 10
-1.338079
 20
2.458598
  0
VERTEX
  8
PLAN_1
 62
     5
  6
CONTINUOUS
 10
-1.338079
 20
2.450339
  0
SEQEND
  8
0
  0
POLYLINE
  8
PLAN_1
 62
     5
  6
CONTINUOUS
 66
     1
 40
0.003000
 41
0.003000
  0
VERTEX
  8
PLAN_1
 62
     5
  6
CONTINUOUS
 10
-1.338079
 20
2.442079
  0
VERTEX
  8
PLAN_1
 62
     5
  6
CONTINUOUS
 10
-1.338079
 20
2.433823
  0
SEQEND
  8
0
  0
POLYLINE
  8
PLAN_1
 62
     5
  6
CONTINUOUS
 66
     1
 40
0.003000
 41
0.003000
  0
VERTEX
  8
PLAN_1
 62
     5
  6
CONTINUOUS
 10
-1.338079
 20
2.425563
  0
VERTEX
  8
PLAN_1
 62
     5
  6
CONTINUOUS
 10
-1.338079
 20
2.417303
  0
SEQEND
  8
0
  0
POLYLINE
  8
PLAN_1
 62
     5
  6
CONTINUOUS
 66
     1
 40
0.003000
 41
0.003000
  0
VERTEX
  8
PLAN_1
 62
     5
  6
CONTINUOUS
 10
-1.338079
 20
2.408587
  0
VERTEX
  8
PLAN_1
 62
     5
  6
CONTINUOUS
 10
-1.338079
 20
2.400331
  0
SEQEND
  8
0
  0
POLYLINE
  8
PLAN_1
 62
     5
  6
CONTINUOUS
 66
     1
 40
0.003000
 41
0.003000
  0
VERTEX
  8
PLAN_1
 62
     5
  6
CONTINUOUS
 10
-1.338079
 20
2.392071
  0
VERTEX
  8
PLAN_1
 62
     5
  6
CONTINUOUS
 10
-1.338079
 20
2.388858
  0
VERTEX
  8
PLAN_1
 62
     5
  6
CONTINUOUS
 10
-1.343126
 20
2.388858
  0
SEQEND
  8
0
  0
POLYLINE
  8
PLAN_1
 62
     5
  6
CONTINUOUS
 66
     1
 40
0.003000
 41
0.003000
  0
VERTEX
  8
PLAN_1
 62
     5
  6
CONTINUOUS
 10
-1.351386
 20
2.388858
  0
VERTEX
  8
PLAN_1
 62
     5
  6
CONTINUOUS
 10
-1.359642
 20
2.388858
  0
SEQEND
  8
0
  0
POLYLINE
  8
PLAN_1
 62
     5
  6
CONTINUOUS
 66
     1
 40
0.003000
 41
0.003000
  0
VERTEX
  8
PLAN_1
 62
     5
  6
CONTINUOUS
 10
-1.368358
 20
2.388858
  0
VERTEX
  8
PLAN_1
 62
     5
  6
CONTINUOUS
 10
-1.376618
 20
2.388858
  0
SEQEND
  8
0
  0
POLYLINE
  8
PLAN_1
 62
     5
  6
CONTINUOUS
 66
     1
 40
0.003000
 41
0.003000
  0
VERTEX
  8
PLAN_1
 62
     5
  6
CONTINUOUS
 10
-1.384878
 20
2.388858
  0
VERTEX
  8
PLAN_1
 62
     5
  6
CONTINUOUS
 10
-1.393134
 20
2.388858
  0
SEQEND
  8
0
  0
POLYLINE
  8
PLAN_1
 62
     5
  6
CONTINUOUS
 66
     1
 40
0.003000
 41
0.003000
  0
VERTEX
  8
PLAN_1
 62
     5
  6
CONTINUOUS
 10
-1.401394
 20
2.388858
  0
VERTEX
  8
PLAN_1
 62
     5
  6
CONTINUOUS
 10
-1.409654
 20
2.388858
  0
SEQEND
  8
0
  0
POLYLINE
  8
PLAN_1
 62
     5
  6
CONTINUOUS
 66
     1
 40
0.003000
 41
0.003000
  0
VERTEX
  8
PLAN_1
 62
     5
  6
CONTINUOUS
 10
-1.418370
 20
2.388858
  0
VERTEX
  8
PLAN_1
 62
     5
  6
CONTINUOUS
 10
-1.426626
 20
2.388858
  0
SEQEND
  8
0
  0
POLYLINE
  8
PLAN_1
 62
     5
  6
CONTINUOUS
 66
     1
 40
0.003000
 41
0.003000
  0
VERTEX
  8
PLAN_1
 62
     5
  6
CONTINUOUS
 10
-1.434886
 20
2.388858
  0
VERTEX
  8
PLAN_1
 62
     5
  6
CONTINUOUS
 10
-1.443146
 20
2.388858
  0
SEQEND
  8
0
  0
POLYLINE
  8
PLAN_1
 62
     5
  6
CONTINUOUS
 66
     1
 40
0.003000
 41
0.003000
  0
VERTEX
  8
PLAN_1
 62
     5
  6
CONTINUOUS
 10
-1.451402
 20
2.388858
  0
VERTEX
  8
PLAN_1
 62
     5
  6
CONTINUOUS
 10
-1.459661
 20
2.388858
  0
SEQEND
  8
0
  0
POLYLINE
  8
PLAN_1
 62
     5
  6
CONTINUOUS
 66
     1
 40
0.003000
 41
0.003000
  0
VERTEX
  8
PLAN_1
 62
     5
  6
CONTINUOUS
 10
-1.468378
 20
2.388858
  0
VERTEX
  8
PLAN_1
 62
     5
  6
CONTINUOUS
 10
-1.476638
 20
2.388858
  0
SEQEND
  8
0
  0
POLYLINE
  8
PLAN_1
 62
     5
  6
CONTINUOUS
 66
     1
 40
0.003000
 41
0.003000
  0
VERTEX
  8
PLAN_1
 62
     5
  6
CONTINUOUS
 10
-1.484898
 20
2.388858
  0
VERTEX
  8
PLAN_1
 62
     5
  6
CONTINUOUS
 10
-1.493154
 20
2.388858
  0
SEQEND
  8
0
  0
POLYLINE
  8
PLAN_1
 62
     5
  6
CONTINUOUS
 66
     1
 40
0.003000
 41
0.003000
  0
VERTEX
  8
PLAN_1
 62
     5
  6
CONTINUOUS
 10
-1.501413
 20
2.388858
  0
VERTEX
  8
PLAN_1
 62
     5
  6
CONTINUOUS
 10
-1.509669
 20
2.388858
  0
SEQEND
  8
0
  0
POLYLINE
  8
PLAN_1
 62
     5
  6
CONTINUOUS
 66
     1
 40
0.003000
 41
0.003000
  0
VERTEX
  8
PLAN_1
 62
     5
  6
CONTINUOUS
 10
-1.517929
 20
2.388858
  0
VERTEX
  8
PLAN_1
 62
     5
  6
CONTINUOUS
 10
-1.526646
 20
2.388858
  0
SEQEND
  8
0
  0
POLYLINE
  8
PLAN_1
 62
     5
  6
CONTINUOUS
 66
     1
 40
0.003000
 41
0.003000
  0
VERTEX
  8
PLAN_1
 62
     5
  6
CONTINUOUS
 10
-1.534906
 20
2.388858
  0
VERTEX
  8
PLAN_1
 62
     5
  6
CONTINUOUS
 10
-1.543165
 20
2.388858
  0
SEQEND
  8
0
  0
POLYLINE
  8
PLAN_1
 62
     5
  6
CONTINUOUS
 66
     1
 40
0.003000
 41
0.003000
  0
VERTEX
  8
PLAN_1
 62
     5
  6
CONTINUOUS
 10
-1.551421
 20
2.388858
  0
VERTEX
  8
PLAN_1
 62
     5
  6
CONTINUOUS
 10
-1.559681
 20
2.388858
  0
SEQEND
  8
0
  0
POLYLINE
  8
PLAN_1
 62
     5
  6
CONTINUOUS
 66
     1
 40
0.003000
 41
0.003000
  0
VERTEX
  8
PLAN_1
 62
     5
  6
CONTINUOUS
 10
-1.567937
 20
2.388858
  0
VERTEX
  8
PLAN_1
 62
     5
  6
CONTINUOUS
 10
-1.576657
 20
2.388858
  0
SEQEND
  8
0
  0
POLYLINE
  8
PLAN_1
 62
     5
  6
CONTINUOUS
 66
     1
 40
0.003000
 41
0.003000
  0
VERTEX
  8
PLAN_1
 62
     5
  6
CONTINUOUS
 10
-1.580327
 20
2.393449
  0
VERTEX
  8
PLAN_1
 62
     5
  6
CONTINUOUS
 10
-1.580327
 20
2.401705
  0
SEQEND
  8
0
  0
POLYLINE
  8
PLAN_1
 62
     5
  6
CONTINUOUS
 66
     1
 40
0.003000
 41
0.003000
  0
VERTEX
  8
PLAN_1
 62
     5
  6
CONTINUOUS
 10
-1.580327
 20
2.409965
  0
VERTEX
  8
PLAN_1
 62
     5
  6
CONTINUOUS
 10
-1.580327
 20
2.418224
  0
SEQEND
  8
0
  0
POLYLINE
  8
PLAN_1
 62
     5
  6
CONTINUOUS
 66
     1
 40
0.003000
 41
0.003000
  0
VERTEX
  8
PLAN_1
 62
     5
  6
CONTINUOUS
 10
-1.580327
 20
2.426480
  0
VERTEX
  8
PLAN_1
 62
     5
  6
CONTINUOUS
 10
-1.580327
 20
2.434740
  0
SEQEND
  8
0
  0
POLYLINE
  8
PLAN_1
 62
     5
  6
CONTINUOUS
 66
     1
 40
0.003000
 41
0.003000
  0
VERTEX
  8
PLAN_1
 62
     5
  6
CONTINUOUS
 10
-1.580327
 20
2.443457
  0
VERTEX
  8
PLAN_1
 62
     5
  6
CONTINUOUS
 10
-1.580327
 20
2.451717
  0
SEQEND
  8
0
  0
POLYLINE
  8
PLAN_1
 62
     5
  6
CONTINUOUS
 66
     1
 40
0.003000
 41
0.003000
  0
VERTEX
  8
PLAN_1
 62
     5
  6
CONTINUOUS
 10
-1.580327
 20
2.459972
  0
VERTEX
  8
PLAN_1
 62
     5
  6
CONTINUOUS
 10
-1.580327
 20
2.468232
  0
SEQEND
  8
0
  0
POLYLINE
  8
PLAN_1
 62
     5
  6
CONTINUOUS
 66
     1
 40
0.003000
 41
0.003000
  0
VERTEX
  8
PLAN_1
 62
     5
  6
CONTINUOUS
 10
-1.580327
 20
2.476492
  0
VERTEX
  8
PLAN_1
 62
     5
  6
CONTINUOUS
 10
-1.580327
 20
2.484748
  0
SEQEND
  8
0
  0
POLYLINE
  8
PLAN_1
 62
     5
  6
CONTINUOUS
 66
     1
 40
0.003000
 41
0.003000
  0
VERTEX
  8
PLAN_1
 62
     5
  6
CONTINUOUS
 10
-1.580327
 20
2.493465
  0
VERTEX
  8
PLAN_1
 62
     5
  6
CONTINUOUS
 10
-1.580327
 20
2.501724
  0
SEQEND
  8
0
  0
POLYLINE
  8
PLAN_1
 62
     5
  6
CONTINUOUS
 66
     1
 40
0.003000
 41
0.003000
  0
VERTEX
  8
PLAN_1
 62
     5
  6
CONTINUOUS
 10
-1.580327
 20
2.509984
  0
VERTEX
  8
PLAN_1
 62
     5
  6
CONTINUOUS
 10
-1.580327
 20
2.518240
  0
SEQEND
  8
0
  0
POLYLINE
  8
PLAN_1
 62
     5
  6
CONTINUOUS
 66
     1
 40
0.003000
 41
0.003000
  0
VERTEX
  8
PLAN_1
 62
     5
  6
CONTINUOUS
 10
-1.580327
 20
2.526500
  0
VERTEX
  8
PLAN_1
 62
     5
  6
CONTINUOUS
 10
-1.580327
 20
2.534760
  0
SEQEND
  8
0
  0
POLYLINE
  8
PLAN_1
 62
     5
  6
CONTINUOUS
 66
     1
 40
0.003000
 41
0.003000
  0
VERTEX
  8
PLAN_1
 62
     5
  6
CONTINUOUS
 10
-1.580327
 20
2.543016
  0
VERTEX
  8
PLAN_1
 62
     5
  6
CONTINUOUS
 10
-1.580327
 20
2.551732
  0
SEQEND
  8
0
  0
POLYLINE
  8
PLAN_1
 62
     5
  6
CONTINUOUS
 66
     1
 40
0.003000
 41
0.003000
  0
VERTEX
  8
PLAN_1
 62
     5
  6
CONTINUOUS
 10
-1.580327
 20
2.559992
  0
VERTEX
  8
PLAN_1
 62
     5
  6
CONTINUOUS
 10
-1.580327
 20
2.568252
  0
SEQEND
  8
0
  0
POLYLINE
  8
PLAN_1
 62
     5
  6
CONTINUOUS
 66
     1
 40
0.003000
 41
0.003000
  0
VERTEX
  8
PLAN_1
 62
     5
  6
CONTINUOUS
 10
-1.580327
 20
2.576508
  0
VERTEX
  8
PLAN_1
 62
     5
  6
CONTINUOUS
 10
-1.580327
 20
2.584768
  0
SEQEND
  8
0
  0
POLYLINE
  8
PLAN_1
 62
     5
  6
CONTINUOUS
 66
     1
 40
0.003000
 41
0.003000
  0
VERTEX
  8
PLAN_1
 62
     5
  6
CONTINUOUS
 10
-1.580327
 20
2.593028
  0
VERTEX
  8
PLAN_1
 62
     5
  6
CONTINUOUS
 10
-1.580327
 20
2.601744
  0
SEQEND
  8
0
  0
POLYLINE
  8
PLAN_1
 62
     5
  6
CONTINUOUS
 66
     1
 40
0.003000
 41
0.003000
  0
VERTEX
  8
PLAN_1
 62
     5
  6
CONTINUOUS
 10
-1.580327
 20
2.610004
  0
VERTEX
  8
PLAN_1
 62
     5
  6
CONTINUOUS
 10
-1.580327
 20
2.618260
  0
SEQEND
  8
0
  0
POLYLINE
  8
PLAN_1
 62
     5
  6
CONTINUOUS
 66
     1
 40
0.003000
 41
0.003000
  0
VERTEX
  8
PLAN_1
 62
     5
  6
CONTINUOUS
 10
-1.580327
 20
2.626520
  0
VERTEX
  8
PLAN_1
 62
     5
  6
CONTINUOUS
 10
-1.580327
 20
2.634776
  0
SEQEND
  8
0
  0
POLYLINE
  8
PLAN_1
 62
     5
  6
CONTINUOUS
 66
     1
 40
0.003000
 41
0.003000
  0
VERTEX
  8
PLAN_1
 62
     5
  6
CONTINUOUS
 10
-1.580327
 20
2.643035
  0
VERTEX
  8
PLAN_1
 62
     5
  6
CONTINUOUS
 10
-1.580327
 20
2.651295
  0
SEQEND
  8
0
  0
POLYLINE
  8
PLAN_1
 62
     5
  6
CONTINUOUS
 66
     1
 40
0.003000
 41
0.003000
  0
VERTEX
  8
PLAN_1
 62
     5
  6
CONTINUOUS
 10
-1.580327
 20
2.660012
  0
VERTEX
  8
PLAN_1
 62
     5
  6
CONTINUOUS
 10
-1.580327
 20
2.668272
  0
SEQEND
  8
0
  0
POLYLINE
  8
PLAN_1
 62
     5
  6
CONTINUOUS
 66
     1
 40
0.003000
 41
0.003000
  0
VERTEX
  8
PLAN_1
 62
     5
  6
CONTINUOUS
 10
-1.580327
 20
2.676528
  0
VERTEX
  8
PLAN_1
 62
     5
  6
CONTINUOUS
 10
-1.580327
 20
2.684787
  0
SEQEND
  8
0
  0
POLYLINE
  8
PLAN_1
 62
     5
  6
CONTINUOUS
 66
     1
 40
0.003000
 41
0.003000
  0
VERTEX
  8
PLAN_1
 62
     5
  6
CONTINUOUS
 10
-1.580327
 20
2.693043
  0
VERTEX
  8
PLAN_1
 62
     5
  6
CONTINUOUS
 10
-1.580327
 20
2.701303
  0
SEQEND
  8
0
  0
POLYLINE
  8
PLAN_1
 62
     5
  6
CONTINUOUS
 66
     1
 40
0.003000
 41
0.003000
  0
VERTEX
  8
PLAN_1
 62
     5
  6
CONTINUOUS
 10
-1.580327
 20
2.710020
  0
VERTEX
  8
PLAN_1
 62
     5
  6
CONTINUOUS
 10
-1.580327
 20
2.718280
  0
SEQEND
  8
0
  0
POLYLINE
  8
PLAN_1
 62
     5
  6
CONTINUOUS
 66
     1
 40
0.003000
 41
0.003000
  0
VERTEX
  8
PLAN_1
 62
     5
  6
CONTINUOUS
 10
-1.580327
 20
2.726539
  0
VERTEX
  8
PLAN_1
 62
     5
  6
CONTINUOUS
 10
-1.580327
 20
2.734795
  0
SEQEND
  8
0
  0
POLYLINE
  8
PLAN_1
 62
     5
  6
CONTINUOUS
 66
     1
 40
0.003000
 41
0.003000
  0
VERTEX
  8
PLAN_1
 62
     5
  6
CONTINUOUS
 10
-1.580327
 20
2.743055
  0
VERTEX
  8
PLAN_1
 62
     5
  6
CONTINUOUS
 10
-1.580327
 20
2.751315
  0
SEQEND
  8
0
  0
POLYLINE
  8
PLAN_1
 62
     5
  6
CONTINUOUS
 66
     1
 40
0.003000
 41
0.003000
  0
VERTEX
  8
PLAN_1
 62
     5
  6
CONTINUOUS
 10
-1.580327
 20
2.759571
  0
VERTEX
  8
PLAN_1
 62
     5
  6
CONTINUOUS
 10
-1.580327
 20
2.768287
  0
SEQEND
  8
0
  0
POLYLINE
  8
PLAN_1
 62
     5
  6
CONTINUOUS
 66
     1
 40
0.003000
 41
0.003000
  0
VERTEX
  8
PLAN_1
 62
     5
  6
CONTINUOUS
 10
-1.580327
 20
2.776547
  0
VERTEX
  8
PLAN_1
 62
     5
  6
CONTINUOUS
 10
-1.580327
 20
2.784807
  0
SEQEND
  8
0
  0
POLYLINE
  8
PLAN_1
 62
     5
  6
CONTINUOUS
 66
     1
 40
0.003000
 41
0.003000
  0
VERTEX
  8
PLAN_1
 62
     5
  6
CONTINUOUS
 10
-1.580327
 20
2.793063
  0
VERTEX
  8
PLAN_1
 62
     5
  6
CONTINUOUS
 10
-1.580327
 20
2.801323
  0
SEQEND
  8
0
  0
POLYLINE
  8
PLAN_1
 62
     5
  6
CONTINUOUS
 66
     1
 40
0.003000
 41
0.003000
  0
VERTEX
  8
PLAN_1
 62
     5
  6
CONTINUOUS
 10
-1.580327
 20
2.809583
  0
VERTEX
  8
PLAN_1
 62
     5
  6
CONTINUOUS
 10
-1.580327
 20
2.818299
  0
SEQEND
  8
0
  0
POLYLINE
  8
PLAN_1
 62
     5
  6
CONTINUOUS
 66
     1
 40
0.003000
 41
0.003000
  0
VERTEX
  8
PLAN_1
 62
     5
  6
CONTINUOUS
 10
-1.580327
 20
2.826555
  0
VERTEX
  8
PLAN_1
 62
     5
  6
CONTINUOUS
 10
-1.580327
 20
2.834815
  0
SEQEND
  8
0
  0
POLYLINE
  8
PLAN_1
 62
     5
  6
CONTINUOUS
 66
     1
 40
0.003000
 41
0.003000
  0
VERTEX
  8
PLAN_1
 62
     5
  6
CONTINUOUS
 10
-1.580327
 20
2.843075
  0
VERTEX
  8
PLAN_1
 62
     5
  6
CONTINUOUS
 10
-1.580327
 20
2.851331
  0
SEQEND
  8
0
  0
POLYLINE
  8
PLAN_1
 62
     5
  6
CONTINUOUS
 66
     1
 40
0.003000
 41
0.003000
  0
VERTEX
  8
PLAN_1
 62
     5
  6
CONTINUOUS
 10
-1.580327
 20
2.859591
  0
VERTEX
  8
PLAN_1
 62
     5
  6
CONTINUOUS
 10
-1.580327
 20
2.867850
  0
SEQEND
  8
0
  0
POLYLINE
  8
PLAN_1
 62
     5
  6
CONTINUOUS
 66
     1
 40
0.003000
 41
0.003000
  0
VERTEX
  8
PLAN_1
 62
     5
  6
CONTINUOUS
 10
-1.580327
 20
2.876567
  0
VERTEX
  8
PLAN_1
 62
     5
  6
CONTINUOUS
 10
-1.580327
 20
2.884823
  0
SEQEND
  8
0
  0
POLYLINE
  8
PLAN_1
 62
     5
  6
CONTINUOUS
 66
     1
 40
0.003000
 41
0.003000
  0
VERTEX
  8
PLAN_1
 62
     5
  6
CONTINUOUS
 10
-1.580327
 20
2.893083
  0
VERTEX
  8
PLAN_1
 62
     5
  6
CONTINUOUS
 10
-1.580327
 20
2.901343
  0
SEQEND
  8
0
  0
POLYLINE
  8
PLAN_1
 62
     5
  6
CONTINUOUS
 66
     1
 40
0.003000
 41
0.003000
  0
VERTEX
  8
PLAN_1
 62
     5
  6
CONTINUOUS
 10
-1.580327
 20
2.909598
  0
VERTEX
  8
PLAN_1
 62
     5
  6
CONTINUOUS
 10
-1.580327
 20
2.917858
  0
SEQEND
  8
0
  0
POLYLINE
  8
PLAN_1
 62
     5
  6
CONTINUOUS
 66
     1
 40
0.003000
 41
0.003000
  0
VERTEX
  8
PLAN_1
 62
     5
  6
CONTINUOUS
 10
-1.580327
 20
2.926575
  0
VERTEX
  8
PLAN_1
 62
     5
  6
CONTINUOUS
 10
-1.580327
 20
2.934835
  0
SEQEND
  8
0
  0
POLYLINE
  8
PLAN_1
 62
     5
  6
CONTINUOUS
 66
     1
 40
0.003000
 41
0.003000
  0
VERTEX
  8
PLAN_1
 62
     5
  6
CONTINUOUS
 10
-1.580327
 20
2.943091
  0
VERTEX
  8
PLAN_1
 62
     5
  6
CONTINUOUS
 10
-1.580327
 20
2.951350
  0
SEQEND
  8
0
  0
POLYLINE
  8
PLAN_1
 62
     5
  6
CONTINUOUS
 66
     1
 40
0.003000
 41
0.003000
  0
VERTEX
  8
PLAN_1
 62
     5
  6
CONTINUOUS
 10
-1.580327
 20
2.959610
  0
VERTEX
  8
PLAN_1
 62
     5
  6
CONTINUOUS
 10
-1.580327
 20
2.967866
  0
SEQEND
  8
0
  0
POLYLINE
  8
PLAN_1
 62
     5
  6
CONTINUOUS
 66
     1
 40
0.003000
 41
0.003000
  0
VERTEX
  8
PLAN_1
 62
     5
  6
CONTINUOUS
 10
-1.580327
 20
2.976126
  0
VERTEX
  8
PLAN_1
 62
     5
  6
CONTINUOUS
 10
-1.580327
 20
2.984843
  0
SEQEND
  8
0
  0
POLYLINE
  8
PLAN_1
 62
     5
  6
CONTINUOUS
 66
     1
 40
0.003000
 41
0.003000
  0
VERTEX
  8
PLAN_1
 62
     5
  6
CONTINUOUS
 10
-1.580327
 20
2.993102
  0
VERTEX
  8
PLAN_1
 62
     5
  6
CONTINUOUS
 10
-1.580327
 20
3.001362
  0
SEQEND
  8
0
  0
POLYLINE
  8
PLAN_1
 62
     5
  6
CONTINUOUS
 66
     1
 40
0.003000
 41
0.003000
  0
VERTEX
  8
PLAN_1
 62
     5
  6
CONTINUOUS
 10
-1.580327
 20
3.009618
  0
VERTEX
  8
PLAN_1
 62
     5
  6
CONTINUOUS
 10
-1.580327
 20
3.017878
  0
SEQEND
  8
0
  0
POLYLINE
  8
PLAN_1
 62
     5
  6
CONTINUOUS
 66
     1
 40
0.003000
 41
0.003000
  0
VERTEX
  8
PLAN_1
 62
     5
  6
CONTINUOUS
 10
-1.580327
 20
3.026134
  0
VERTEX
  8
PLAN_1
 62
     5
  6
CONTINUOUS
 10
-1.580327
 20
3.034854
  0
SEQEND
  8
0
  0
POLYLINE
  8
PLAN_1
 62
     5
  6
CONTINUOUS
 66
     1
 40
0.003000
 41
0.003000
  0
VERTEX
  8
PLAN_1
 62
     5
  6
CONTINUOUS
 10
-1.580327
 20
3.043110
  0
VERTEX
  8
PLAN_1
 62
     5
  6
CONTINUOUS
 10
-1.580327
 20
3.051370
  0
SEQEND
  8
0
  0
POLYLINE
  8
PLAN_1
 62
     5
  6
CONTINUOUS
 66
     1
 40
0.003000
 41
0.003000
  0
VERTEX
  8
PLAN_1
 62
     5
  6
CONTINUOUS
 10
-1.580327
 20
3.059630
  0
VERTEX
  8
PLAN_1
 62
     5
  6
CONTINUOUS
 10
-1.580327
 20
3.067886
  0
SEQEND
  8
0
  0
POLYLINE
  8
PLAN_1
 62
     5
  6
CONTINUOUS
 66
     1
 40
0.003000
 41
0.003000
  0
VERTEX
  8
PLAN_1
 62
     5
  6
CONTINUOUS
 10
-1.580327
 20
3.076146
  0
VERTEX
  8
PLAN_1
 62
     5
  6
CONTINUOUS
 10
-1.580327
 20
3.084402
  0
SEQEND
  8
0
  0
POLYLINE
  8
PLAN_1
 62
     5
  6
CONTINUOUS
 66
     1
 40
0.003000
 41
0.003000
  0
VERTEX
  8
PLAN_1
 62
     5
  6
CONTINUOUS
 10
-1.580327
 20
3.093122
  0
VERTEX
  8
PLAN_1
 62
     5
  6
CONTINUOUS
 10
-1.580327
 20
3.101378
  0
SEQEND
  8
0
  0
POLYLINE
  8
PLAN_1
 62
     5
  6
CONTINUOUS
 66
     1
 40
0.003000
 41
0.003000
  0
VERTEX
  8
PLAN_1
 62
     5
  6
CONTINUOUS
 10
-1.580327
 20
3.109638
  0
VERTEX
  8
PLAN_1
 62
     5
  6
CONTINUOUS
 10
-1.580327
 20
3.117898
  0
SEQEND
  8
0
  0
POLYLINE
  8
PLAN_1
 62
     5
  6
CONTINUOUS
 66
     1
 40
0.003000
 41
0.003000
  0
VERTEX
  8
PLAN_1
 62
     5
  6
CONTINUOUS
 10
-1.580327
 20
3.126154
  0
VERTEX
  8
PLAN_1
 62
     5
  6
CONTINUOUS
 10
-1.580327
 20
3.134413
  0
SEQEND
  8
0
  0
POLYLINE
  8
PLAN_1
 62
     5
  6
CONTINUOUS
 66
     1
 40
0.003000
 41
0.003000
  0
VERTEX
  8
PLAN_1
 62
     5
  6
CONTINUOUS
 10
-1.580327
 20
3.143130
  0
VERTEX
  8
PLAN_1
 62
     5
  6
CONTINUOUS
 10
-1.580327
 20
3.151390
  0
SEQEND
  8
0
  0
POLYLINE
  8
PLAN_1
 62
     5
  6
CONTINUOUS
 66
     1
 40
0.003000
 41
0.003000
  0
VERTEX
  8
PLAN_1
 62
     5
  6
CONTINUOUS
 10
-1.580327
 20
3.159646
  0
VERTEX
  8
PLAN_1
 62
     5
  6
CONTINUOUS
 10
-1.580327
 20
3.167906
  0
SEQEND
  8
0
  0
POLYLINE
  8
PLAN_1
 62
     5
  6
CONTINUOUS
 66
     1
 40
0.003000
 41
0.003000
  0
VERTEX
  8
PLAN_1
 62
     5
  6
CONTINUOUS
 10
-1.580327
 20
3.176165
  0
VERTEX
  8
PLAN_1
 62
     5
  6
CONTINUOUS
 10
-1.580327
 20
3.184421
  0
SEQEND
  8
0
  0
POLYLINE
  8
PLAN_1
 62
     5
  6
CONTINUOUS
 66
     1
 40
0.003000
 41
0.003000
  0
VERTEX
  8
PLAN_1
 62
     5
  6
CONTINUOUS
 10
-1.580327
 20
3.192681
  0
VERTEX
  8
PLAN_1
 62
     5
  6
CONTINUOUS
 10
-1.580327
 20
3.201398
  0
SEQEND
  8
0
  0
POLYLINE
  8
PLAN_1
 62
     5
  6
CONTINUOUS
 66
     1
 40
0.003000
 41
0.003000
  0
VERTEX
  8
PLAN_1
 62
     5
  6
CONTINUOUS
 10
-1.580327
 20
3.209657
  0
VERTEX
  8
PLAN_1
 62
     5
  6
CONTINUOUS
 10
-1.580327
 20
3.217913
  0
SEQEND
  8
0
  0
POLYLINE
  8
PLAN_1
 62
     5
  6
CONTINUOUS
 66
     1
 40
0.003000
 41
0.003000
  0
VERTEX
  8
PLAN_1
 62
     5
  6
CONTINUOUS
 10
-1.580327
 20
3.226173
  0
VERTEX
  8
PLAN_1
 62
     5
  6
CONTINUOUS
 10
-1.580327
 20
3.234433
  0
SEQEND
  8
0
  0
POLYLINE
  8
PLAN_1
 62
     5
  6
CONTINUOUS
 66
     1
 40
0.003000
 41
0.003000
  0
VERTEX
  8
PLAN_1
 62
     5
  6
CONTINUOUS
 10
-1.580327
 20
3.242689
  0
VERTEX
  8
PLAN_1
 62
     5
  6
CONTINUOUS
 10
-1.580327
 20
3.251409
  0
SEQEND
  8
0
  0
POLYLINE
  8
PLAN_1
 62
     5
  6
CONTINUOUS
 66
     1
 40
0.003000
 41
0.003000
  0
VERTEX
  8
PLAN_1
 62
     5
  6
CONTINUOUS
 10
-1.580327
 20
3.259665
  0
VERTEX
  8
PLAN_1
 62
     5
  6
CONTINUOUS
 10
-1.580327
 20
3.263335
  0
SEQEND
  8
0
  0
POLYLINE
  8
PLAN_1
 62
     5
  6
CONTINUOUS
 66
     1
 40
0.003000
 41
0.003000
  0
VERTEX
  8
PLAN_1
 62
     5
  6
CONTINUOUS
 10
-1.580327
 20
3.259665
  0
VERTEX
  8
PLAN_1
 62
     5
  6
CONTINUOUS
 10
-1.580327
 20
3.263335
  0
SEQEND
  8
0
  0
POLYLINE
  8
PLAN_1
  6
CONTINUOUS
 66
     1
 40
0.008256
 41
0.008256
  0
VERTEX
  8
PLAN_1
  6
CONTINUOUS
 10
-1.549587
 20
1.246902
  0
VERTEX
  8
PLAN_1
  6
CONTINUOUS
 10
-1.549587
 20
1.997043
  0
VERTEX
  8
PLAN_1
  6
CONTINUOUS
 10
-1.302291
 20
2.039252
  0
VERTEX
  8
PLAN_1
  6
CONTINUOUS
 10
-1.302291
 20
1.217996
  0
VERTEX
  8
PLAN_1
  6
CONTINUOUS
 10
-1.549587
 20
1.246902
  0
SEQEND
  8
0
  0
POLYLINE
  8
PLAN_1
  6
CONTINUOUS
 66
     1
 40
0.004126
 41
0.004126
  0
VERTEX
  8
PLAN_1
  6
CONTINUOUS
 10
-1.950122
 20
1.758008
  0
VERTEX
  8
PLAN_1
  6
CONTINUOUS
 10
-1.950122
 20
1.558886
  0
SEQEND
  8
0
  0
POLYLINE
  8
PLAN_1
  6
CONTINUOUS
 66
     1
 40
0.004126
 41
0.004126
  0
VERTEX
  8
PLAN_1
  6
CONTINUOUS
 10
-1.760638
 20
1.656154
  0
VERTEX
  8
PLAN_1
  6
CONTINUOUS
 10
-1.881299
 20
1.656154
  0
SEQEND
  8
0
  0
POLYLINE
  8
PLAN_1
  6
CONTINUOUS
 66
     1
 40
0.008256
 41
0.008256
  0
VERTEX
  8
PLAN_1
  6
CONTINUOUS
 10
-0.227776
 20
2.145693
  0
VERTEX
  8
PLAN_1
  6
CONTINUOUS
 10
-0.227319
 20
1.098709
  0
VERTEX
  8
PLAN_1
  6
CONTINUOUS
 10
-1.302291
 20
1.098709
  0
VERTEX
  8
PLAN_1
  6
CONTINUOUS
 10
-1.302291
 20
2.145693
  0
VERTEX
  8
PLAN_1
  6
CONTINUOUS
 10
-0.227776
 20
2.145693
  0
SEQEND
  8
0
  0
POLYLINE
  8
PLAN_1
  6
CONTINUOUS
 66
     1
 40
0.005504
 41
0.005504
  0
VERTEX
  8
PLAN_1
  6
CONTINUOUS
 10
-0.227319
 20
2.027323
  0
VERTEX
  8
PLAN_1
  6
CONTINUOUS
 10
-0.524165
 20
2.027323
  0
VERTEX
  8
PLAN_1
  6
CONTINUOUS
 10
-0.524165
 20
2.145693
  0
VERTEX
  8
PLAN_1
  6
CONTINUOUS
 10
-1.001776
 20
2.145693
  0
VERTEX
  8
PLAN_1
  6
CONTINUOUS
 10
-1.001776
 20
2.027323
  0
VERTEX
  8
PLAN_1
  6
CONTINUOUS
 10
-1.302291
 20
2.027323
  0
SEQEND
  8
0
  0
POLYLINE
  8
PLAN_1
  6
CONTINUOUS
 66
     1
 40
0.006882
 41
0.006882
  0
VERTEX
  8
PLAN_1
  6
CONTINUOUS
 10
-1.138961
 20
2.056228
  0
VERTEX
  8
PLAN_1
  6
CONTINUOUS
 10
-1.201354
 20
2.056228
  0
VERTEX
  8
PLAN_1
  6
CONTINUOUS
 10
-1.201354
 20
2.086508
  0
VERTEX
  8
PLAN_1
  6
CONTINUOUS
 10
-1.296327
 20
2.086508
  0
VERTEX
  8
PLAN_1
  6
CONTINUOUS
 10
-1.296327
 20
2.026866
  0
VERTEX
  8
PLAN_1
  6
CONTINUOUS
 10
-1.041232
 20
2.026866
  0
VERTEX
  8
PLAN_1
  6
CONTINUOUS
 10
-1.041232
 20
2.086508
  0
VERTEX
  8
PLAN_1
  6
CONTINUOUS
 10
-1.138961
 20
2.086508
  0
VERTEX
  8
PLAN_1
  6
CONTINUOUS
 10
-1.138961
 20
2.056228
  0
SEQEND
  8
0
  0
POLYLINE
  8
PLAN_1
  6
CONTINUOUS
 66
     1
 40
0.006882
 41
0.006882
  0
VERTEX
  8
PLAN_1
  6
CONTINUOUS
 10
-0.331925
 20
2.056228
  0
VERTEX
  8
PLAN_1
  6
CONTINUOUS
 10
-0.394323
 20
2.056228
  0
VERTEX
  8
PLAN_1
  6
CONTINUOUS
 10
-0.394323
 20
2.086508
  0
VERTEX
  8
PLAN_1
  6
CONTINUOUS
 10
-0.489295
 20
2.086508
  0
VERTEX
  8
PLAN_1
  6
CONTINUOUS
 10
-0.489295
 20
2.026866
  0
VERTEX
  8
PLAN_1
  6
CONTINUOUS
 10
-0.234201
 20
2.026866
  0
VERTEX
  8
PLAN_1
  6
CONTINUOUS
 10
-0.234201
 20
2.086508
  0
VERTEX
  8
PLAN_1
  6
CONTINUOUS
 10
-0.331925
 20
2.086508
  0
VERTEX
  8
PLAN_1
  6
CONTINUOUS
 10
-0.331925
 20
2.056228
  0
SEQEND
  8
0
  0
POLYLINE
  8
PLAN_1
  6
CONTINUOUS
 66
     1
 40
0.008256
 41
0.008256
  0
VERTEX
  8
PLAN_1
  6
CONTINUOUS
 10
-0.321374
 20
1.036768
  0
VERTEX
  8
PLAN_1
  6
CONTINUOUS
 10
-0.317244
 20
1.036768
  0
VERTEX
  8
PLAN_1
  6
CONTINUOUS
 10
-0.313114
 20
1.037685
  0
VERTEX
  8
PLAN_1
  6
CONTINUOUS
 10
-0.309445
 20
1.038146
  0
VERTEX
  8
PLAN_1
  6
CONTINUOUS
 10
-0.305776
 20
1.039524
  0
VERTEX
  8
PLAN_1
  6
CONTINUOUS
 10
-0.303020
 20
1.040898
  0
VERTEX
  8
PLAN_1
  6
CONTINUOUS
 10
-0.299811
 20
1.042732
  0
VERTEX
  8
PLAN_1
  6
CONTINUOUS
 10
-0.297516
 20
1.044567
  0
VERTEX
  8
PLAN_1
  6
CONTINUOUS
 10
-0.295220
 20
1.046406
  0
VERTEX
  8
PLAN_1
  6
CONTINUOUS
 10
-0.292929
 20
1.048697
  0
VERTEX
  8
PLAN_1
  6
CONTINUOUS
 10
-0.291091
 20
1.050992
  0
VERTEX
  8
PLAN_1
  6
CONTINUOUS
 10
-0.289717
 20
1.053744
  0
VERTEX
  8
PLAN_1
  6
CONTINUOUS
 10
-0.287882
 20
1.056496
  0
VERTEX
  8
PLAN_1
  6
CONTINUOUS
 10
-0.285587
 20
1.062004
  0
VERTEX
  8
PLAN_1
  6
CONTINUOUS
 10
-0.284209
 20
1.067969
  0
VERTEX
  8
PLAN_1
  6
CONTINUOUS
 10
-0.282835
 20
1.073472
  0
VERTEX
  8
PLAN_1
  6
CONTINUOUS
 10
-0.282374
 20
1.078980
  0
VERTEX
  8
PLAN_1
  6
CONTINUOUS
 10
-0.281917
 20
1.084484
  0
VERTEX
  8
PLAN_1
  6
CONTINUOUS
 10
-0.281917
 20
1.089071
  0
VERTEX
  8
PLAN_1
  6
CONTINUOUS
 10
-0.282374
 20
1.095953
  0
VERTEX
  8
PLAN_1
  6
CONTINUOUS
 10
-0.282835
 20
1.098709
  0
SEQEND
  8
0
  0
POLYLINE
  8
PLAN_1
  6
CONTINUOUS
 66
     1
 40
0.008256
 41
0.008256
  0
VERTEX
  8
PLAN_1
  6
CONTINUOUS
 10
-0.282835
 20
1.098709
  0
VERTEX
  8
PLAN_1
  6
CONTINUOUS
 10
-1.238059
 20
1.098709
  0
SEQEND
  8
0
  0
POLYLINE
  8
PLAN_1
  6
CONTINUOUS
 66
     1
 40
0.008256
 41
0.008256
  0
VERTEX
  8
PLAN_1
  6
CONTINUOUS
 10
-1.238059
 20
1.098709
  0
VERTEX
  8
PLAN_1
  6
CONTINUOUS
 10
-1.238976
 20
1.095953
  0
VERTEX
  8
PLAN_1
  6
CONTINUOUS
 10
-1.240811
 20
1.089071
  0
VERTEX
  8
PLAN_1
  6
CONTINUOUS
 10
-1.241732
 20
1.084484
  0
VERTEX
  8
PLAN_1
  6
CONTINUOUS
 10
-1.242650
 20
1.078980
  0
VERTEX
  8
PLAN_1
  6
CONTINUOUS
 10
-1.243106
 20
1.073472
  0
VERTEX
  8
PLAN_1
  6
CONTINUOUS
 10
-1.242650
 20
1.067969
  0
VERTEX
  8
PLAN_1
  6
CONTINUOUS
 10
-1.242189
 20
1.062004
  0
VERTEX
  8
PLAN_1
  6
CONTINUOUS
 10
-1.240811
 20
1.056496
  0
VERTEX
  8
PLAN_1
  6
CONTINUOUS
 10
-1.239894
 20
1.053744
  0
VERTEX
  8
PLAN_1
  6
CONTINUOUS
 10
-1.238520
 20
1.050992
  0
VERTEX
  8
PLAN_1
  6
CONTINUOUS
 10
-1.236685
 20
1.048697
  0
VERTEX
  8
PLAN_1
  6
CONTINUOUS
 10
-1.234850
 20
1.046406
  0
VERTEX
  8
PLAN_1
  6
CONTINUOUS
 10
-1.233012
 20
1.044567
  0
VERTEX
  8
PLAN_1
  6
CONTINUOUS
 10
-1.230720
 20
1.042276
  0
VERTEX
  8
PLAN_1
  6
CONTINUOUS
 10
-1.227965
 20
1.040898
  0
VERTEX
  8
PLAN_1
  6
CONTINUOUS
 10
-1.224756
 20
1.039524
  0
VERTEX
  8
PLAN_1
  6
CONTINUOUS
 10
-1.221083
 20
1.038146
  0
VERTEX
  8
PLAN_1
  6
CONTINUOUS
 10
-1.217413
 20
1.037685
  0
VERTEX
  8
PLAN_1
  6
CONTINUOUS
 10
-1.213283
 20
1.036768
  0
VERTEX
  8
PLAN_1
  6
CONTINUOUS
 10
-1.208236
 20
1.036768
  0
VERTEX
  8
PLAN_1
  6
CONTINUOUS
 10
-1.163276
 20
1.036768
  0
VERTEX
  8
PLAN_1
  6
CONTINUOUS
 10
-1.064634
 20
1.036768
  0
VERTEX
  8
PLAN_1
  6
CONTINUOUS
 10
-0.929744
 20
1.036768
  0
VERTEX
  8
PLAN_1
  6
CONTINUOUS
 10
-0.776504
 20
1.036768
  0
VERTEX
  8
PLAN_1
  6
CONTINUOUS
 10
-0.621429
 20
1.036768
  0
VERTEX
  8
PLAN_1
  6
CONTINUOUS
 10
-0.482413
 20
1.036768
  0
VERTEX
  8
PLAN_1
  6
CONTINUOUS
 10
-0.376890
 20
1.036768
  0
VERTEX
  8
PLAN_1
  6
CONTINUOUS
 10
-0.321374
 20
1.036768
  0
SEQEND
  8
0
  0
POLYLINE
  8
PLAN_1
  6
CONTINUOUS
 66
     1
 40
0.008256
 41
0.008256
  0
VERTEX
  8
PLAN_1
  6
CONTINUOUS
 10
-1.161898
 20
1.036768
  0
VERTEX
  8
PLAN_1
  6
CONTINUOUS
 10
-1.161898
 20
0.718362
  0
VERTEX
  8
PLAN_1
  6
CONTINUOUS
 10
-1.119689
 20
0.718362
  0
VERTEX
  8
PLAN_1
  6
CONTINUOUS
 10
-1.119689
 20
0.674315
  0
VERTEX
  8
PLAN_1
  6
CONTINUOUS
 10
-1.065551
 20
0.674315
  0
VERTEX
  8
PLAN_1
  6
CONTINUOUS
 10
-1.065551
 20
0.718362
  0
VERTEX
  8
PLAN_1
  6
CONTINUOUS
 10
-0.471402
 20
0.718362
  0
VERTEX
  8
PLAN_1
  6
CONTINUOUS
 10
-0.471402
 20
0.674315
  0
VERTEX
  8
PLAN_1
  6
CONTINUOUS
 10
-0.417720
 20
0.674315
  0
VERTEX
  8
PLAN_1
  6
CONTINUOUS
 10
-0.417720
 20
0.718362
  0
VERTEX
  8
PLAN_1
  6
CONTINUOUS
 10
-0.365417
 20
0.718362
  0
VERTEX
  8
PLAN_1
  6
CONTINUOUS
 10
-0.365417
 20
1.036768
  0
VERTEX
  8
PLAN_1
  6
CONTINUOUS
 10
-1.161898
 20
1.036768
  0
SEQEND
  8
0
  0
POLYLINE
  8
PLAN_1
  6
CONTINUOUS
 66
     1
 40
0.004126
 41
0.004126
  0
VERTEX
  8
PLAN_1
  6
CONTINUOUS
 10
-0.230988
 20
0.904634
  0
VERTEX
  8
PLAN_1
  6
CONTINUOUS
 10
0.014929
 20
0.904634
  0
SEQEND
  8
0
  0
POLYLINE
  8
PLAN_1
  6
CONTINUOUS
 66
     1
 40
0.004126
 41
0.004126
  0
VERTEX
  8
PLAN_1
  6
CONTINUOUS
 10
-1.416535
 20
0.906469
  0
VERTEX
  8
PLAN_1
  6
CONTINUOUS
 10
-1.170618
 20
0.906469
  0
SEQEND
  8
0
  0
POLYLINE
  8
PLAN_1
 62
     5
  6
CONTINUOUS
 66
     1
 40
0.003000
 41
0.003000
  0
VERTEX
  8
PLAN_1
 62
     5
  6
CONTINUOUS
 10
-1.555091
 20
0.434819
  0
VERTEX
  8
PLAN_1
 62
     5
  6
CONTINUOUS
 10
-1.555091
 20
0.443079
  0
SEQEND
  8
0
  0
POLYLINE
  8
PLAN_1
 62
     5
  6
CONTINUOUS
 66
     1
 40
0.003000
 41
0.003000
  0
VERTEX
  8
PLAN_1
 62
     5
  6
CONTINUOUS
 10
-1.555091
 20
0.451339
  0
VERTEX
  8
PLAN_1
 62
     5
  6
CONTINUOUS
 10
-1.555091
 20
0.460055
  0
SEQEND
  8
0
  0
POLYLINE
  8
PLAN_1
 62
     5
  6
CONTINUOUS
 66
     1
 40
0.003000
 41
0.003000
  0
VERTEX
  8
PLAN_1
 62
     5
  6
CONTINUOUS
 10
-1.555091
 20
0.468315
  0
VERTEX
  8
PLAN_1
 62
     5
  6
CONTINUOUS
 10
-1.555091
 20
0.476571
  0
SEQEND
  8
0
  0
POLYLINE
  8
PLAN_1
 62
     5
  6
CONTINUOUS
 66
     1
 40
0.003000
 41
0.003000
  0
VERTEX
  8
PLAN_1
 62
     5
  6
CONTINUOUS
 10
-1.555091
 20
0.484831
  0
VERTEX
  8
PLAN_1
 62
     5
  6
CONTINUOUS
 10
-1.555091
 20
0.493087
  0
SEQEND
  8
0
  0
POLYLINE
  8
PLAN_1
 62
     5
  6
CONTINUOUS
 66
     1
 40
0.003000
 41
0.003000
  0
VERTEX
  8
PLAN_1
 62
     5
  6
CONTINUOUS
 10
-1.555091
 20
0.501346
  0
VERTEX
  8
PLAN_1
 62
     5
  6
CONTINUOUS
 10
-1.555091
 20
0.510063
  0
SEQEND
  8
0
  0
POLYLINE
  8
PLAN_1
 62
     5
  6
CONTINUOUS
 66
     1
 40
0.003000
 41
0.003000
  0
VERTEX
  8
PLAN_1
 62
     5
  6
CONTINUOUS
 10
-1.555091
 20
0.518323
  0
VERTEX
  8
PLAN_1
 62
     5
  6
CONTINUOUS
 10
-1.555091
 20
0.526583
  0
SEQEND
  8
0
  0
POLYLINE
  8
PLAN_1
 62
     5
  6
CONTINUOUS
 66
     1
 40
0.003000
 41
0.003000
  0
VERTEX
  8
PLAN_1
 62
     5
  6
CONTINUOUS
 10
-1.555091
 20
0.534839
  0
VERTEX
  8
PLAN_1
 62
     5
  6
CONTINUOUS
 10
-1.555091
 20
0.543098
  0
SEQEND
  8
0
  0
POLYLINE
  8
PLAN_1
 62
     5
  6
CONTINUOUS
 66
     1
 40
0.003000
 41
0.003000
  0
VERTEX
  8
PLAN_1
 62
     5
  6
CONTINUOUS
 10
-1.555091
 20
0.551358
  0
VERTEX
  8
PLAN_1
 62
     5
  6
CONTINUOUS
 10
-1.555091
 20
0.559614
  0
SEQEND
  8
0
  0
POLYLINE
  8
PLAN_1
 62
     5
  6
CONTINUOUS
 66
     1
 40
0.003000
 41
0.003000
  0
VERTEX
  8
PLAN_1
 62
     5
  6
CONTINUOUS
 10
-1.555091
 20
0.568331
  0
VERTEX
  8
PLAN_1
 62
     5
  6
CONTINUOUS
 10
-1.555091
 20
0.576591
  0
SEQEND
  8
0
  0
POLYLINE
  8
PLAN_1
 62
     5
  6
CONTINUOUS
 66
     1
 40
0.003000
 41
0.003000
  0
VERTEX
  8
PLAN_1
 62
     5
  6
CONTINUOUS
 10
-1.555091
 20
0.584850
  0
VERTEX
  8
PLAN_1
 62
     5
  6
CONTINUOUS
 10
-1.555091
 20
0.593106
  0
SEQEND
  8
0
  0
POLYLINE
  8
PLAN_1
 62
     5
  6
CONTINUOUS
 66
     1
 40
0.003000
 41
0.003000
  0
VERTEX
  8
PLAN_1
 62
     5
  6
CONTINUOUS
 10
-1.555091
 20
0.601366
  0
VERTEX
  8
PLAN_1
 62
     5
  6
CONTINUOUS
 10
-1.555091
 20
0.609626
  0
SEQEND
  8
0
  0
POLYLINE
  8
PLAN_1
 62
     5
  6
CONTINUOUS
 66
     1
 40
0.003000
 41
0.003000
  0
VERTEX
  8
PLAN_1
 62
     5
  6
CONTINUOUS
 10
-1.555091
 20
0.618343
  0
VERTEX
  8
PLAN_1
 62
     5
  6
CONTINUOUS
 10
-1.555091
 20
0.626598
  0
SEQEND
  8
0
  0
POLYLINE
  8
PLAN_1
 62
     5
  6
CONTINUOUS
 66
     1
 40
0.003000
 41
0.003000
  0
VERTEX
  8
PLAN_1
 62
     5
  6
CONTINUOUS
 10
-1.555091
 20
0.634858
  0
VERTEX
  8
PLAN_1
 62
     5
  6
CONTINUOUS
 10
-1.555091
 20
0.643118
  0
SEQEND
  8
0
  0
POLYLINE
  8
PLAN_1
 62
     5
  6
CONTINUOUS
 66
     1
 40
0.003000
 41
0.003000
  0
VERTEX
  8
PLAN_1
 62
     5
  6
CONTINUOUS
 10
-1.555091
 20
0.651374
  0
VERTEX
  8
PLAN_1
 62
     5
  6
CONTINUOUS
 10
-1.555091
 20
0.659634
  0
SEQEND
  8
0
  0
POLYLINE
  8
PLAN_1
 62
     5
  6
CONTINUOUS
 66
     1
 40
0.003000
 41
0.003000
  0
VERTEX
  8
PLAN_1
 62
     5
  6
CONTINUOUS
 10
-1.555091
 20
0.667894
  0
VERTEX
  8
PLAN_1
 62
     5
  6
CONTINUOUS
 10
-1.555091
 20
0.676610
  0
SEQEND
  8
0
  0
POLYLINE
  8
PLAN_1
 62
     5
  6
CONTINUOUS
 66
     1
 40
0.003000
 41
0.003000
  0
VERTEX
  8
PLAN_1
 62
     5
  6
CONTINUOUS
 10
-1.555091
 20
0.684866
  0
VERTEX
  8
PLAN_1
 62
     5
  6
CONTINUOUS
 10
-1.555091
 20
0.693126
  0
SEQEND
  8
0
  0
POLYLINE
  8
PLAN_1
 62
     5
  6
CONTINUOUS
 66
     1
 40
0.003000
 41
0.003000
  0
VERTEX
  8
PLAN_1
 62
     5
  6
CONTINUOUS
 10
-1.555091
 20
0.701386
  0
VERTEX
  8
PLAN_1
 62
     5
  6
CONTINUOUS
 10
-1.555091
 20
0.708724
  0
VERTEX
  8
PLAN_1
 62
     5
  6
CONTINUOUS
 10
-1.554173
 20
0.708724
  0
SEQEND
  8
0
  0
POLYLINE
  8
PLAN_1
 62
     5
  6
CONTINUOUS
 66
     1
 40
0.003000
 41
0.003000
  0
VERTEX
  8
PLAN_1
 62
     5
  6
CONTINUOUS
 10
-1.545917
 20
0.708724
  0
VERTEX
  8
PLAN_1
 62
     5
  6
CONTINUOUS
 10
-1.537657
 20
0.708724
  0
SEQEND
  8
0
  0
POLYLINE
  8
PLAN_1
 62
     5
  6
CONTINUOUS
 66
     1
 40
0.003000
 41
0.003000
  0
VERTEX
  8
PLAN_1
 62
     5
  6
CONTINUOUS
 10
-1.529398
 20
0.708724
  0
VERTEX
  8
PLAN_1
 62
     5
  6
CONTINUOUS
 10
-1.521142
 20
0.708724
  0
SEQEND
  8
0
  0
POLYLINE
  8
PLAN_1
 62
     5
  6
CONTINUOUS
 66
     1
 40
0.003000
 41
0.003000
  0
VERTEX
  8
PLAN_1
 62
     5
  6
CONTINUOUS
 10
-1.512882
 20
0.708724
  0
VERTEX
  8
PLAN_1
 62
     5
  6
CONTINUOUS
 10
-1.504165
 20
0.708724
  0
SEQEND
  8
0
  0
POLYLINE
  8
PLAN_1
 62
     5
  6
CONTINUOUS
 66
     1
 40
0.003000
 41
0.003000
  0
VERTEX
  8
PLAN_1
 62
     5
  6
CONTINUOUS
 10
-1.495906
 20
0.708724
  0
VERTEX
  8
PLAN_1
 62
     5
  6
CONTINUOUS
 10
-1.487650
 20
0.708724
  0
SEQEND
  8
0
  0
POLYLINE
  8
PLAN_1
 62
     5
  6
CONTINUOUS
 66
     1
 40
0.003000
 41
0.003000
  0
VERTEX
  8
PLAN_1
 62
     5
  6
CONTINUOUS
 10
-1.479390
 20
0.708724
  0
VERTEX
  8
PLAN_1
 62
     5
  6
CONTINUOUS
 10
-1.471130
 20
0.708724
  0
SEQEND
  8
0
  0
POLYLINE
  8
PLAN_1
 62
     5
  6
CONTINUOUS
 66
     1
 40
0.003000
 41
0.003000
  0
VERTEX
  8
PLAN_1
 62
     5
  6
CONTINUOUS
 10
-1.462874
 20
0.708724
  0
VERTEX
  8
PLAN_1
 62
     5
  6
CONTINUOUS
 10
-1.454157
 20
0.708724
  0
SEQEND
  8
0
  0
POLYLINE
  8
PLAN_1
 62
     5
  6
CONTINUOUS
 66
     1
 40
0.003000
 41
0.003000
  0
VERTEX
  8
PLAN_1
 62
     5
  6
CONTINUOUS
 10
-1.445898
 20
0.708724
  0
VERTEX
  8
PLAN_1
 62
     5
  6
CONTINUOUS
 10
-1.437638
 20
0.708724
  0
SEQEND
  8
0
  0
POLYLINE
  8
PLAN_1
 62
     5
  6
CONTINUOUS
 66
     1
 40
0.003000
 41
0.003000
  0
VERTEX
  8
PLAN_1
 62
     5
  6
CONTINUOUS
 10
-1.429382
 20
0.708724
  0
VERTEX
  8
PLAN_1
 62
     5
  6
CONTINUOUS
 10
-1.421122
 20
0.708724
  0
SEQEND
  8
0
  0
POLYLINE
  8
PLAN_1
 62
     5
  6
CONTINUOUS
 66
     1
 40
0.003000
 41
0.003000
  0
VERTEX
  8
PLAN_1
 62
     5
  6
CONTINUOUS
 10
-1.412862
 20
0.708724
  0
VERTEX
  8
PLAN_1
 62
     5
  6
CONTINUOUS
 10
-1.404606
 20
0.708724
  0
SEQEND
  8
0
  0
POLYLINE
  8
PLAN_1
 62
     5
  6
CONTINUOUS
 66
     1
 40
0.003000
 41
0.003000
  0
VERTEX
  8
PLAN_1
 62
     5
  6
CONTINUOUS
 10
-1.395890
 20
0.708724
  0
VERTEX
  8
PLAN_1
 62
     5
  6
CONTINUOUS
 10
-1.387630
 20
0.708724
  0
SEQEND
  8
0
  0
POLYLINE
  8
PLAN_1
 62
     5
  6
CONTINUOUS
 66
     1
 40
0.003000
 41
0.003000
  0
VERTEX
  8
PLAN_1
 62
     5
  6
CONTINUOUS
 10
-1.379370
 20
0.708724
  0
VERTEX
  8
PLAN_1
 62
     5
  6
CONTINUOUS
 10
-1.371114
 20
0.708724
  0
SEQEND
  8
0
  0
POLYLINE
  8
PLAN_1
 62
     5
  6
CONTINUOUS
 66
     1
 40
0.003000
 41
0.003000
  0
VERTEX
  8
PLAN_1
 62
     5
  6
CONTINUOUS
 10
-1.362854
 20
0.708724
  0
VERTEX
  8
PLAN_1
 62
     5
  6
CONTINUOUS
 10
-1.354594
 20
0.708724
  0
SEQEND
  8
0
  0
POLYLINE
  8
PLAN_1
 62
     5
  6
CONTINUOUS
 66
     1
 40
0.003000
 41
0.003000
  0
VERTEX
  8
PLAN_1
 62
     5
  6
CONTINUOUS
 10
-1.345878
 20
0.708724
  0
VERTEX
  8
PLAN_1
 62
     5
  6
CONTINUOUS
 10
-1.337622
 20
0.708724
  0
SEQEND
  8
0
  0
POLYLINE
  8
PLAN_1
 62
     5
  6
CONTINUOUS
 66
     1
 40
0.003000
 41
0.003000
  0
VERTEX
  8
PLAN_1
 62
     5
  6
CONTINUOUS
 10
-1.329362
 20
0.708724
  0
VERTEX
  8
PLAN_1
 62
     5
  6
CONTINUOUS
 10
-1.321102
 20
0.708724
  0
SEQEND
  8
0
  0
POLYLINE
  8
PLAN_1
 62
     5
  6
CONTINUOUS
 66
     1
 40
0.003000
 41
0.003000
  0
VERTEX
  8
PLAN_1
 62
     5
  6
CONTINUOUS
 10
-1.312846
 20
0.708724
  0
VERTEX
  8
PLAN_1
 62
     5
  6
CONTINUOUS
 10
-1.305043
 20
0.708724
  0
VERTEX
  8
PLAN_1
 62
     5
  6
CONTINUOUS
 10
-1.305043
 20
0.709642
  0
SEQEND
  8
0
  0
POLYLINE
  8
PLAN_1
 62
     5
  6
CONTINUOUS
 66
     1
 40
0.003000
 41
0.003000
  0
VERTEX
  8
PLAN_1
 62
     5
  6
CONTINUOUS
 10
-1.305043
 20
0.717902
  0
VERTEX
  8
PLAN_1
 62
     5
  6
CONTINUOUS
 10
-1.305043
 20
0.726161
  0
SEQEND
  8
0
  0
POLYLINE
  8
PLAN_1
 62
     5
  6
CONTINUOUS
 66
     1
 40
0.003000
 41
0.003000
  0
VERTEX
  8
PLAN_1
 62
     5
  6
CONTINUOUS
 10
-1.305043
 20
0.734878
  0
VERTEX
  8
PLAN_1
 62
     5
  6
CONTINUOUS
 10
-1.305043
 20
0.743134
  0
SEQEND
  8
0
  0
POLYLINE
  8
PLAN_1
 62
     5
  6
CONTINUOUS
 66
     1
 40
0.003000
 41
0.003000
  0
VERTEX
  8
PLAN_1
 62
     5
  6
CONTINUOUS
 10
-1.305043
 20
0.751394
  0
VERTEX
  8
PLAN_1
 62
     5
  6
CONTINUOUS
 10
-1.305043
 20
0.759654
  0
SEQEND
  8
0
  0
POLYLINE
  8
PLAN_1
 62
     5
  6
CONTINUOUS
 66
     1
 40
0.003000
 41
0.003000
  0
VERTEX
  8
PLAN_1
 62
     5
  6
CONTINUOUS
 10
-1.305043
 20
0.767909
  0
VERTEX
  8
PLAN_1
 62
     5
  6
CONTINUOUS
 10
-1.305043
 20
0.776169
  0
SEQEND
  8
0
  0
POLYLINE
  8
PLAN_1
 62
     5
  6
CONTINUOUS
 66
     1
 40
0.003000
 41
0.003000
  0
VERTEX
  8
PLAN_1
 62
     5
  6
CONTINUOUS
 10
-1.305043
 20
0.784429
  0
VERTEX
  8
PLAN_1
 62
     5
  6
CONTINUOUS
 10
-1.305043
 20
0.793146
  0
SEQEND
  8
0
  0
POLYLINE
  8
PLAN_1
 62
     5
  6
CONTINUOUS
 66
     1
 40
0.003000
 41
0.003000
  0
VERTEX
  8
PLAN_1
 62
     5
  6
CONTINUOUS
 10
-1.305043
 20
0.801402
  0
VERTEX
  8
PLAN_1
 62
     5
  6
CONTINUOUS
 10
-1.305043
 20
0.809661
  0
SEQEND
  8
0
  0
POLYLINE
  8
PLAN_1
 62
     5
  6
CONTINUOUS
 66
     1
 40
0.003000
 41
0.003000
  0
VERTEX
  8
PLAN_1
 62
     5
  6
CONTINUOUS
 10
-1.305043
 20
0.817921
  0
VERTEX
  8
PLAN_1
 62
     5
  6
CONTINUOUS
 10
-1.305043
 20
0.826177
  0
SEQEND
  8
0
  0
POLYLINE
  8
PLAN_1
 62
     5
  6
CONTINUOUS
 66
     1
 40
0.003000
 41
0.003000
  0
VERTEX
  8
PLAN_1
 62
     5
  6
CONTINUOUS
 10
-1.305043
 20
0.834437
  0
VERTEX
  8
PLAN_1
 62
     5
  6
CONTINUOUS
 10
-1.305043
 20
0.843154
  0
SEQEND
  8
0
  0
POLYLINE
  8
PLAN_1
 62
     5
  6
CONTINUOUS
 66
     1
 40
0.003000
 41
0.003000
  0
VERTEX
  8
PLAN_1
 62
     5
  6
CONTINUOUS
 10
-1.305043
 20
0.851413
  0
VERTEX
  8
PLAN_1
 62
     5
  6
CONTINUOUS
 10
-1.305043
 20
0.859673
  0
SEQEND
  8
0
  0
POLYLINE
  8
PLAN_1
 62
     5
  6
CONTINUOUS
 66
     1
 40
0.003000
 41
0.003000
  0
VERTEX
  8
PLAN_1
 62
     5
  6
CONTINUOUS
 10
-1.305043
 20
0.867929
  0
VERTEX
  8
PLAN_1
 62
     5
  6
CONTINUOUS
 10
-1.305043
 20
0.876189
  0
SEQEND
  8
0
  0
POLYLINE
  8
PLAN_1
 62
     5
  6
CONTINUOUS
 66
     1
 40
0.003000
 41
0.003000
  0
VERTEX
  8
PLAN_1
 62
     5
  6
CONTINUOUS
 10
-1.305043
 20
0.884445
  0
VERTEX
  8
PLAN_1
 62
     5
  6
CONTINUOUS
 10
-1.305043
 20
0.892705
  0
SEQEND
  8
0
  0
POLYLINE
  8
PLAN_1
 62
     5
  6
CONTINUOUS
 66
     1
 40
0.003000
 41
0.003000
  0
VERTEX
  8
PLAN_1
 62
     5
  6
CONTINUOUS
 10
-1.305043
 20
0.901421
  0
VERTEX
  8
PLAN_1
 62
     5
  6
CONTINUOUS
 10
-1.305043
 20
0.909681
  0
SEQEND
  8
0
  0
POLYLINE
  8
PLAN_1
 62
     5
  6
CONTINUOUS
 66
     1
 40
0.003000
 41
0.003000
  0
VERTEX
  8
PLAN_1
 62
     5
  6
CONTINUOUS
 10
-1.305043
 20
0.917941
  0
VERTEX
  8
PLAN_1
 62
     5
  6
CONTINUOUS
 10
-1.305043
 20
0.926197
  0
SEQEND
  8
0
  0
POLYLINE
  8
PLAN_1
 62
     5
  6
CONTINUOUS
 66
     1
 40
0.003000
 41
0.003000
  0
VERTEX
  8
PLAN_1
 62
     5
  6
CONTINUOUS
 10
-1.305043
 20
0.934457
  0
VERTEX
  8
PLAN_1
 62
     5
  6
CONTINUOUS
 10
-1.305043
 20
0.942717
  0
SEQEND
  8
0
  0
POLYLINE
  8
PLAN_1
 62
     5
  6
CONTINUOUS
 66
     1
 40
0.003000
 41
0.003000
  0
VERTEX
  8
PLAN_1
 62
     5
  6
CONTINUOUS
 10
-1.305043
 20
0.951433
  0
VERTEX
  8
PLAN_1
 62
     5
  6
CONTINUOUS
 10
-1.305043
 20
0.959689
  0
SEQEND
  8
0
  0
POLYLINE
  8
PLAN_1
 62
     5
  6
CONTINUOUS
 66
     1
 40
0.003000
 41
0.003000
  0
VERTEX
  8
PLAN_1
 62
     5
  6
CONTINUOUS
 10
-1.305043
 20
0.967949
  0
VERTEX
  8
PLAN_1
 62
     5
  6
CONTINUOUS
 10
-1.305043
 20
0.976209
  0
SEQEND
  8
0
  0
POLYLINE
  8
PLAN_1
 62
     5
  6
CONTINUOUS
 66
     1
 40
0.003000
 41
0.003000
  0
VERTEX
  8
PLAN_1
 62
     5
  6
CONTINUOUS
 10
-1.305043
 20
0.984465
  0
VERTEX
  8
PLAN_1
 62
     5
  6
CONTINUOUS
 10
-1.305043
 20
0.992724
  0
SEQEND
  8
0
  0
POLYLINE
  8
PLAN_1
 62
     5
  6
CONTINUOUS
 66
     1
 40
0.003000
 41
0.003000
  0
VERTEX
  8
PLAN_1
 62
     5
  6
CONTINUOUS
 10
-1.305043
 20
1.000984
  0
VERTEX
  8
PLAN_1
 62
     5
  6
CONTINUOUS
 10
-1.305043
 20
1.009701
  0
SEQEND
  8
0
  0
POLYLINE
  8
PLAN_1
 62
     5
  6
CONTINUOUS
 66
     1
 40
0.003000
 41
0.003000
  0
VERTEX
  8
PLAN_1
 62
     5
  6
CONTINUOUS
 10
-1.305043
 20
1.017957
  0
VERTEX
  8
PLAN_1
 62
     5
  6
CONTINUOUS
 10
-1.305043
 20
1.026217
  0
SEQEND
  8
0
  0
POLYLINE
  8
PLAN_1
 62
     5
  6
CONTINUOUS
 66
     1
 40
0.003000
 41
0.003000
  0
VERTEX
  8
PLAN_1
 62
     5
  6
CONTINUOUS
 10
-1.305043
 20
1.034476
  0
VERTEX
  8
PLAN_1
 62
     5
  6
CONTINUOUS
 10
-1.305043
 20
1.042732
  0
SEQEND
  8
0
  0
POLYLINE
  8
PLAN_1
 62
     5
  6
CONTINUOUS
 66
     1
 40
0.003000
 41
0.003000
  0
VERTEX
  8
PLAN_1
 62
     5
  6
CONTINUOUS
 10
-1.305043
 20
1.050992
  0
VERTEX
  8
PLAN_1
 62
     5
  6
CONTINUOUS
 10
-1.305043
 20
1.059709
  0
SEQEND
  8
0
  0
POLYLINE
  8
PLAN_1
 62
     5
  6
CONTINUOUS
 66
     1
 40
0.003000
 41
0.003000
  0
VERTEX
  8
PLAN_1
 62
     5
  6
CONTINUOUS
 10
-1.305043
 20
1.067969
  0
VERTEX
  8
PLAN_1
 62
     5
  6
CONTINUOUS
 10
-1.305043
 20
1.076224
  0
SEQEND
  8
0
  0
POLYLINE
  8
PLAN_1
 62
     5
  6
CONTINUOUS
 66
     1
 40
0.003000
 41
0.003000
  0
VERTEX
  8
PLAN_1
 62
     5
  6
CONTINUOUS
 10
-1.305043
 20
1.084484
  0
VERTEX
  8
PLAN_1
 62
     5
  6
CONTINUOUS
 10
-1.305043
 20
1.092744
  0
SEQEND
  8
0
  0
POLYLINE
  8
PLAN_1
 62
     5
  6
CONTINUOUS
 66
     1
 40
0.003000
 41
0.003000
  0
VERTEX
  8
PLAN_1
 62
     5
  6
CONTINUOUS
 10
-1.302291
 20
1.098248
  0
VERTEX
  8
PLAN_1
 62
     5
  6
CONTINUOUS
 10
-1.294035
 20
1.098248
  0
SEQEND
  8
0
  0
POLYLINE
  8
PLAN_1
 62
     5
  6
CONTINUOUS
 66
     1
 40
0.003000
 41
0.003000
  0
VERTEX
  8
PLAN_1
 62
     5
  6
CONTINUOUS
 10
-1.285776
 20
1.098248
  0
VERTEX
  8
PLAN_1
 62
     5
  6
CONTINUOUS
 10
-1.277516
 20
1.098248
  0
SEQEND
  8
0
  0
POLYLINE
  8
PLAN_1
 62
     5
  6
CONTINUOUS
 66
     1
 40
0.003000
 41
0.003000
  0
VERTEX
  8
PLAN_1
 62
     5
  6
CONTINUOUS
 10
-1.269260
 20
1.098248
  0
VERTEX
  8
PLAN_1
 62
     5
  6
CONTINUOUS
 10
-1.261000
 20
1.098248
  0
SEQEND
  8
0
  0
POLYLINE
  8
PLAN_1
 62
     5
  6
CONTINUOUS
 66
     1
 40
0.003000
 41
0.003000
  0
VERTEX
  8
PLAN_1
 62
     5
  6
CONTINUOUS
 10
-1.252740
 20
1.098248
  0
VERTEX
  8
PLAN_1
 62
     5
  6
CONTINUOUS
 10
-1.244024
 20
1.098248
  0
SEQEND
  8
0
  0
POLYLINE
  8
PLAN_1
 62
     5
  6
CONTINUOUS
 66
     1
 40
0.003000
 41
0.003000
  0
VERTEX
  8
PLAN_1
 62
     5
  6
CONTINUOUS
 10
-1.235768
 20
1.098248
  0
VERTEX
  8
PLAN_1
 62
     5
  6
CONTINUOUS
 10
-1.227508
 20
1.098248
  0
SEQEND
  8
0
  0
POLYLINE
  8
PLAN_1
 62
     5
  6
CONTINUOUS
 66
     1
 40
0.003000
 41
0.003000
  0
VERTEX
  8
PLAN_1
 62
     5
  6
CONTINUOUS
 10
-1.219248
 20
1.098248
  0
VERTEX
  8
PLAN_1
 62
     5
  6
CONTINUOUS
 10
-1.210992
 20
1.098248
  0
SEQEND
  8
0
  0
POLYLINE
  8
PLAN_1
 62
     5
  6
CONTINUOUS
 66
     1
 40
0.003000
 41
0.003000
  0
VERTEX
  8
PLAN_1
 62
     5
  6
CONTINUOUS
 10
-1.202732
 20
1.098248
  0
VERTEX
  8
PLAN_1
 62
     5
  6
CONTINUOUS
 10
-1.194016
 20
1.098248
  0
SEQEND
  8
0
  0
POLYLINE
  8
PLAN_1
 62
     5
  6
CONTINUOUS
 66
     1
 40
0.003000
 41
0.003000
  0
VERTEX
  8
PLAN_1
 62
     5
  6
CONTINUOUS
 10
-1.185756
 20
1.098248
  0
VERTEX
  8
PLAN_1
 62
     5
  6
CONTINUOUS
 10
-1.177500
 20
1.098248
  0
SEQEND
  8
0
  0
POLYLINE
  8
PLAN_1
 62
     5
  6
CONTINUOUS
 66
     1
 40
0.003000
 41
0.003000
  0
VERTEX
  8
PLAN_1
 62
     5
  6
CONTINUOUS
 10
-1.169240
 20
1.098248
  0
VERTEX
  8
PLAN_1
 62
     5
  6
CONTINUOUS
 10
-1.160980
 20
1.098248
  0
SEQEND
  8
0
  0
POLYLINE
  8
PLAN_1
 62
     5
  6
CONTINUOUS
 66
     1
 40
0.003000
 41
0.003000
  0
VERTEX
  8
PLAN_1
 62
     5
  6
CONTINUOUS
 10
-1.152724
 20
1.098248
  0
VERTEX
  8
PLAN_1
 62
     5
  6
CONTINUOUS
 10
-1.144465
 20
1.098248
  0
SEQEND
  8
0
  0
POLYLINE
  8
PLAN_1
 62
     5
  6
CONTINUOUS
 66
     1
 40
0.003000
 41
0.003000
  0
VERTEX
  8
PLAN_1
 62
     5
  6
CONTINUOUS
 10
-1.135748
 20
1.098248
  0
VERTEX
  8
PLAN_1
 62
     5
  6
CONTINUOUS
 10
-1.127488
 20
1.098248
  0
SEQEND
  8
0
  0
POLYLINE
  8
PLAN_1
 62
     5
  6
CONTINUOUS
 66
     1
 40
0.003000
 41
0.003000
  0
VERTEX
  8
PLAN_1
 62
     5
  6
CONTINUOUS
 10
-1.119228
 20
1.098248
  0
VERTEX
  8
PLAN_1
 62
     5
  6
CONTINUOUS
 10
-1.110972
 20
1.098248
  0
SEQEND
  8
0
  0
POLYLINE
  8
PLAN_1
 62
     5
  6
CONTINUOUS
 66
     1
 40
0.003000
 41
0.003000
  0
VERTEX
  8
PLAN_1
 62
     5
  6
CONTINUOUS
 10
-1.102713
 20
1.098248
  0
VERTEX
  8
PLAN_1
 62
     5
  6
CONTINUOUS
 10
-1.094457
 20
1.098248
  0
SEQEND
  8
0
  0
POLYLINE
  8
PLAN_1
 62
     5
  6
CONTINUOUS
 66
     1
 40
0.003000
 41
0.003000
  0
VERTEX
  8
PLAN_1
 62
     5
  6
CONTINUOUS
 10
-1.085736
 20
1.098248
  0
VERTEX
  8
PLAN_1
 62
     5
  6
CONTINUOUS
 10
-1.077480
 20
1.098248
  0
SEQEND
  8
0
  0
POLYLINE
  8
PLAN_1
 62
     5
  6
CONTINUOUS
 66
     1
 40
0.003000
 41
0.003000
  0
VERTEX
  8
PLAN_1
 62
     5
  6
CONTINUOUS
 10
-1.069220
 20
1.098248
  0
VERTEX
  8
PLAN_1
 62
     5
  6
CONTINUOUS
 10
-1.060961
 20
1.098248
  0
SEQEND
  8
0
  0
POLYLINE
  8
PLAN_1
 62
     5
  6
CONTINUOUS
 66
     1
 40
0.003000
 41
0.003000
  0
VERTEX
  8
PLAN_1
 62
     5
  6
CONTINUOUS
 10
-1.052705
 20
1.098248
  0
VERTEX
  8
PLAN_1
 62
     5
  6
CONTINUOUS
 10
-1.044445
 20
1.098248
  0
SEQEND
  8
0
  0
POLYLINE
  8
PLAN_1
 62
     5
  6
CONTINUOUS
 66
     1
 40
0.003000
 41
0.003000
  0
VERTEX
  8
PLAN_1
 62
     5
  6
CONTINUOUS
 10
-1.036189
 20
1.098248
  0
VERTEX
  8
PLAN_1
 62
     5
  6
CONTINUOUS
 10
-1.027469
 20
1.098248
  0
SEQEND
  8
0
  0
POLYLINE
  8
PLAN_1
 62
     5
  6
CONTINUOUS
 66
     1
 40
0.003000
 41
0.003000
  0
VERTEX
  8
PLAN_1
 62
     5
  6
CONTINUOUS
 10
-1.019213
 20
1.098248
  0
VERTEX
  8
PLAN_1
 62
     5
  6
CONTINUOUS
 10
-1.010953
 20
1.098248
  0
SEQEND
  8
0
  0
POLYLINE
  8
PLAN_1
 62
     5
  6
CONTINUOUS
 66
     1
 40
0.003000
 41
0.003000
  0
VERTEX
  8
PLAN_1
 62
     5
  6
CONTINUOUS
 10
-1.002693
 20
1.098248
  0
VERTEX
  8
PLAN_1
 62
     5
  6
CONTINUOUS
 10
-0.994437
 20
1.098248
  0
SEQEND
  8
0
  0
POLYLINE
  8
PLAN_1
 62
     5
  6
CONTINUOUS
 66
     1
 40
0.003000
 41
0.003000
  0
VERTEX
  8
PLAN_1
 62
     5
  6
CONTINUOUS
 10
-0.986177
 20
1.098248
  0
VERTEX
  8
PLAN_1
 62
     5
  6
CONTINUOUS
 10
-0.977461
 20
1.098248
  0
SEQEND
  8
0
  0
POLYLINE
  8
PLAN_1
 62
     5
  6
CONTINUOUS
 66
     1
 40
0.003000
 41
0.003000
  0
VERTEX
  8
PLAN_1
 62
     5
  6
CONTINUOUS
 10
-0.969201
 20
1.098248
  0
VERTEX
  8
PLAN_1
 62
     5
  6
CONTINUOUS
 10
-0.960945
 20
1.098248
  0
SEQEND
  8
0
  0
POLYLINE
  8
PLAN_1
 62
     5
  6
CONTINUOUS
 66
     1
 40
0.003000
 41
0.003000
  0
VERTEX
  8
PLAN_1
 62
     5
  6
CONTINUOUS
 10
-0.952685
 20
1.098248
  0
VERTEX
  8
PLAN_1
 62
     5
  6
CONTINUOUS
 10
-0.944425
 20
1.098248
  0
SEQEND
  8
0
  0
POLYLINE
  8
PLAN_1
 62
     5
  6
CONTINUOUS
 66
     1
 40
0.003000
 41
0.003000
  0
VERTEX
  8
PLAN_1
 62
     5
  6
CONTINUOUS
 10
-0.936169
 20
1.098248
  0
VERTEX
  8
PLAN_1
 62
     5
  6
CONTINUOUS
 10
-0.927453
 20
1.098248
  0
SEQEND
  8
0
  0
POLYLINE
  8
PLAN_1
 62
     5
  6
CONTINUOUS
 66
     1
 40
0.003000
 41
0.003000
  0
VERTEX
  8
PLAN_1
 62
     5
  6
CONTINUOUS
 10
-0.919193
 20
1.098248
  0
VERTEX
  8
PLAN_1
 62
     5
  6
CONTINUOUS
 10
-0.910933
 20
1.098248
  0
SEQEND
  8
0
  0
POLYLINE
  8
PLAN_1
 62
     5
  6
CONTINUOUS
 66
     1
 40
0.003000
 41
0.003000
  0
VERTEX
  8
PLAN_1
 62
     5
  6
CONTINUOUS
 10
-0.902677
 20
1.098248
  0
VERTEX
  8
PLAN_1
 62
     5
  6
CONTINUOUS
 10
-0.894417
 20
1.098248
  0
SEQEND
  8
0
  0
POLYLINE
  8
PLAN_1
 62
     5
  6
CONTINUOUS
 66
     1
 40
0.003000
 41
0.003000
  0
VERTEX
  8
PLAN_1
 62
     5
  6
CONTINUOUS
 10
-0.886157
 20
1.098248
  0
VERTEX
  8
PLAN_1
 62
     5
  6
CONTINUOUS
 10
-0.877902
 20
1.098248
  0
SEQEND
  8
0
  0
POLYLINE
  8
PLAN_1
 62
     5
  6
CONTINUOUS
 66
     1
 40
0.003000
 41
0.003000
  0
VERTEX
  8
PLAN_1
 62
     5
  6
CONTINUOUS
 10
-0.869185
 20
1.098248
  0
VERTEX
  8
PLAN_1
 62
     5
  6
CONTINUOUS
 10
-0.860925
 20
1.098248
  0
SEQEND
  8
0
  0
POLYLINE
  8
PLAN_1
 62
     5
  6
CONTINUOUS
 66
     1
 40
0.003000
 41
0.003000
  0
VERTEX
  8
PLAN_1
 62
     5
  6
CONTINUOUS
 10
-0.852665
 20
1.098248
  0
VERTEX
  8
PLAN_1
 62
     5
  6
CONTINUOUS
 10
-0.844409
 20
1.098248
  0
SEQEND
  8
0
  0
POLYLINE
  8
PLAN_1
 62
     5
  6
CONTINUOUS
 66
     1
 40
0.003000
 41
0.003000
  0
VERTEX
  8
PLAN_1
 62
     5
  6
CONTINUOUS
 10
-0.836150
 20
1.098248
  0
VERTEX
  8
PLAN_1
 62
     5
  6
CONTINUOUS
 10
-0.827890
 20
1.098248
  0
SEQEND
  8
0
  0
POLYLINE
  8
PLAN_1
 62
     5
  6
CONTINUOUS
 66
     1
 40
0.003000
 41
0.003000
  0
VERTEX
  8
PLAN_1
 62
     5
  6
CONTINUOUS
 10
-0.819173
 20
1.098248
  0
VERTEX
  8
PLAN_1
 62
     5
  6
CONTINUOUS
 10
-0.810913
 20
1.098248
  0
SEQEND
  8
0
  0
POLYLINE
  8
PLAN_1
 62
     5
  6
CONTINUOUS
 66
     1
 40
0.003000
 41
0.003000
  0
VERTEX
  8
PLAN_1
 62
     5
  6
CONTINUOUS
 10
-0.802657
 20
1.098248
  0
VERTEX
  8
PLAN_1
 62
     5
  6
CONTINUOUS
 10
-0.794398
 20
1.098248
  0
SEQEND
  8
0
  0
POLYLINE
  8
PLAN_1
 62
     5
  6
CONTINUOUS
 66
     1
 40
0.003000
 41
0.003000
  0
VERTEX
  8
PLAN_1
 62
     5
  6
CONTINUOUS
 10
-0.786142
 20
1.098248
  0
VERTEX
  8
PLAN_1
 62
     5
  6
CONTINUOUS
 10
-0.777882
 20
1.098248
  0
SEQEND
  8
0
  0
POLYLINE
  8
PLAN_1
 62
     5
  6
CONTINUOUS
 66
     1
 40
0.003000
 41
0.003000
  0
VERTEX
  8
PLAN_1
 62
     5
  6
CONTINUOUS
 10
-0.769622
 20
1.098248
  0
VERTEX
  8
PLAN_1
 62
     5
  6
CONTINUOUS
 10
-0.760906
 20
1.098248
  0
SEQEND
  8
0
  0
POLYLINE
  8
PLAN_1
 62
     5
  6
CONTINUOUS
 66
     1
 40
0.003000
 41
0.003000
  0
VERTEX
  8
PLAN_1
 62
     5
  6
CONTINUOUS
 10
-0.752646
 20
1.098248
  0
VERTEX
  8
PLAN_1
 62
     5
  6
CONTINUOUS
 10
-0.744390
 20
1.098248
  0
SEQEND
  8
0
  0
POLYLINE
  8
PLAN_1
 62
     5
  6
CONTINUOUS
 66
     1
 40
0.003000
 41
0.003000
  0
VERTEX
  8
PLAN_1
 62
     5
  6
CONTINUOUS
 10
-0.736130
 20
1.098248
  0
VERTEX
  8
PLAN_1
 62
     5
  6
CONTINUOUS
 10
-0.727870
 20
1.098248
  0
SEQEND
  8
0
  0
POLYLINE
  8
PLAN_1
 62
     5
  6
CONTINUOUS
 66
     1
 40
0.003000
 41
0.003000
  0
VERTEX
  8
PLAN_1
 62
     5
  6
CONTINUOUS
 10
-0.719614
 20
1.098248
  0
VERTEX
  8
PLAN_1
 62
     5
  6
CONTINUOUS
 10
-0.710898
 20
1.098709
  0
SEQEND
  8
0
  0
POLYLINE
  8
PLAN_1
 62
     5
  6
CONTINUOUS
 66
     1
 40
0.003000
 41
0.003000
  0
VERTEX
  8
PLAN_1
 62
     5
  6
CONTINUOUS
 10
-0.702638
 20
1.098709
  0
VERTEX
  8
PLAN_1
 62
     5
  6
CONTINUOUS
 10
-0.694378
 20
1.098709
  0
SEQEND
  8
0
  0
POLYLINE
  8
PLAN_1
 62
     5
  6
CONTINUOUS
 66
     1
 40
0.003000
 41
0.003000
  0
VERTEX
  8
PLAN_1
 62
     5
  6
CONTINUOUS
 10
-0.686122
 20
1.098709
  0
VERTEX
  8
PLAN_1
 62
     5
  6
CONTINUOUS
 10
-0.677862
 20
1.098709
  0
SEQEND
  8
0
  0
POLYLINE
  8
PLAN_1
 62
     5
  6
CONTINUOUS
 66
     1
 40
0.003000
 41
0.003000
  0
VERTEX
  8
PLAN_1
 62
     5
  6
CONTINUOUS
 10
-0.669602
 20
1.098709
  0
VERTEX
  8
PLAN_1
 62
     5
  6
CONTINUOUS
 10
-0.661346
 20
1.098709
  0
SEQEND
  8
0
  0
POLYLINE
  8
PLAN_1
 62
     5
  6
CONTINUOUS
 66
     1
 40
0.003000
 41
0.003000
  0
VERTEX
  8
PLAN_1
 62
     5
  6
CONTINUOUS
 10
-0.652630
 20
1.098709
  0
VERTEX
  8
PLAN_1
 62
     5
  6
CONTINUOUS
 10
-0.644370
 20
1.098709
  0
SEQEND
  8
0
  0
POLYLINE
  8
PLAN_1
 62
     5
  6
CONTINUOUS
 66
     1
 40
0.003000
 41
0.003000
  0
VERTEX
  8
PLAN_1
 62
     5
  6
CONTINUOUS
 10
-0.636110
 20
1.098709
  0
VERTEX
  8
PLAN_1
 62
     5
  6
CONTINUOUS
 10
-0.627854
 20
1.098709
  0
SEQEND
  8
0
  0
POLYLINE
  8
PLAN_1
 62
     5
  6
CONTINUOUS
 66
     1
 40
0.003000
 41
0.003000
  0
VERTEX
  8
PLAN_1
 62
     5
  6
CONTINUOUS
 10
-0.619594
 20
1.098709
  0
VERTEX
  8
PLAN_1
 62
     5
  6
CONTINUOUS
 10
-0.611335
 20
1.098709
  0
SEQEND
  8
0
  0
POLYLINE
  8
PLAN_1
 62
     5
  6
CONTINUOUS
 66
     1
 40
0.003000
 41
0.003000
  0
VERTEX
  8
PLAN_1
 62
     5
  6
CONTINUOUS
 10
-0.602618
 20
1.098709
  0
VERTEX
  8
PLAN_1
 62
     5
  6
CONTINUOUS
 10
-0.594362
 20
1.098709
  0
SEQEND
  8
0
  0
POLYLINE
  8
PLAN_1
 62
     5
  6
CONTINUOUS
 66
     1
 40
0.003000
 41
0.003000
  0
VERTEX
  8
PLAN_1
 62
     5
  6
CONTINUOUS
 10
-0.586102
 20
1.098709
  0
VERTEX
  8
PLAN_1
 62
     5
  6
CONTINUOUS
 10
-0.577843
 20
1.098709
  0
SEQEND
  8
0
  0
POLYLINE
  8
PLAN_1
 62
     5
  6
CONTINUOUS
 66
     1
 40
0.003000
 41
0.003000
  0
VERTEX
  8
PLAN_1
 62
     5
  6
CONTINUOUS
 10
-0.569587
 20
1.098709
  0
VERTEX
  8
PLAN_1
 62
     5
  6
CONTINUOUS
 10
-0.561327
 20
1.098709
  0
SEQEND
  8
0
  0
POLYLINE
  8
PLAN_1
 62
     5
  6
CONTINUOUS
 66
     1
 40
0.003000
 41
0.003000
  0
VERTEX
  8
PLAN_1
 62
     5
  6
CONTINUOUS
 10
-0.553067
 20
1.098709
  0
VERTEX
  8
PLAN_1
 62
     5
  6
CONTINUOUS
 10
-0.544350
 20
1.098709
  0
SEQEND
  8
0
  0
POLYLINE
  8
PLAN_1
 62
     5
  6
CONTINUOUS
 66
     1
 40
0.003000
 41
0.003000
  0
VERTEX
  8
PLAN_1
 62
     5
  6
CONTINUOUS
 10
-0.536094
 20
1.098709
  0
VERTEX
  8
PLAN_1
 62
     5
  6
CONTINUOUS
 10
-0.527835
 20
1.098709
  0
SEQEND
  8
0
  0
POLYLINE
  8
PLAN_1
 62
     5
  6
CONTINUOUS
 66
     1
 40
0.003000
 41
0.003000
  0
VERTEX
  8
PLAN_1
 62
     5
  6
CONTINUOUS
 10
-0.519575
 20
1.098709
  0
VERTEX
  8
PLAN_1
 62
     5
  6
CONTINUOUS
 10
-0.511319
 20
1.098709
  0
SEQEND
  8
0
  0
POLYLINE
  8
PLAN_1
 62
     5
  6
CONTINUOUS
 66
     1
 40
0.003000
 41
0.003000
  0
VERTEX
  8
PLAN_1
 62
     5
  6
CONTINUOUS
 10
-0.503059
 20
1.098709
  0
VERTEX
  8
PLAN_1
 62
     5
  6
CONTINUOUS
 10
-0.494343
 20
1.098709
  0
SEQEND
  8
0
  0
POLYLINE
  8
PLAN_1
 62
     5
  6
CONTINUOUS
 66
     1
 40
0.003000
 41
0.003000
  0
VERTEX
  8
PLAN_1
 62
     5
  6
CONTINUOUS
 10
-0.486083
 20
1.098709
  0
VERTEX
  8
PLAN_1
 62
     5
  6
CONTINUOUS
 10
-0.477823
 20
1.098709
  0
SEQEND
  8
0
  0
POLYLINE
  8
PLAN_1
 62
     5
  6
CONTINUOUS
 66
     1
 40
0.003000
 41
0.003000
  0
VERTEX
  8
PLAN_1
 62
     5
  6
CONTINUOUS
 10
-0.469567
 20
1.098709
  0
VERTEX
  8
PLAN_1
 62
     5
  6
CONTINUOUS
 10
-0.461307
 20
1.098709
  0
SEQEND
  8
0
  0
POLYLINE
  8
PLAN_1
 62
     5
  6
CONTINUOUS
 66
     1
 40
0.003000
 41
0.003000
  0
VERTEX
  8
PLAN_1
 62
     5
  6
CONTINUOUS
 10
-0.453051
 20
1.098709
  0
VERTEX
  8
PLAN_1
 62
     5
  6
CONTINUOUS
 10
-0.444791
 20
1.098709
  0
SEQEND
  8
0
  0
POLYLINE
  8
PLAN_1
 62
     5
  6
CONTINUOUS
 66
     1
 40
0.003000
 41
0.003000
  0
VERTEX
  8
PLAN_1
 62
     5
  6
CONTINUOUS
 10
-0.436075
 20
1.098709
  0
VERTEX
  8
PLAN_1
 62
     5
  6
CONTINUOUS
 10
-0.427815
 20
1.098709
  0
SEQEND
  8
0
  0
POLYLINE
  8
PLAN_1
 62
     5
  6
CONTINUOUS
 66
     1
 40
0.003000
 41
0.003000
  0
VERTEX
  8
PLAN_1
 62
     5
  6
CONTINUOUS
 10
-0.419555
 20
1.098709
  0
VERTEX
  8
PLAN_1
 62
     5
  6
CONTINUOUS
 10
-0.411299
 20
1.098709
  0
SEQEND
  8
0
  0
POLYLINE
  8
PLAN_1
 62
     5
  6
CONTINUOUS
 66
     1
 40
0.003000
 41
0.003000
  0
VERTEX
  8
PLAN_1
 62
     5
  6
CONTINUOUS
 10
-0.403039
 20
1.098709
  0
VERTEX
  8
PLAN_1
 62
     5
  6
CONTINUOUS
 10
-0.394783
 20
1.098709
  0
SEQEND
  8
0
  0
POLYLINE
  8
PLAN_1
 62
     5
  6
CONTINUOUS
 66
     1
 40
0.003000
 41
0.003000
  0
VERTEX
  8
PLAN_1
 62
     5
  6
CONTINUOUS
 10
-0.386063
 20
1.098709
  0
VERTEX
  8
PLAN_1
 62
     5
  6
CONTINUOUS
 10
-0.377807
 20
1.098709
  0
SEQEND
  8
0
  0
POLYLINE
  8
PLAN_1
 62
     5
  6
CONTINUOUS
 66
     1
 40
0.003000
 41
0.003000
  0
VERTEX
  8
PLAN_1
 62
     5
  6
CONTINUOUS
 10
-0.369547
 20
1.098709
  0
VERTEX
  8
PLAN_1
 62
     5
  6
CONTINUOUS
 10
-0.361287
 20
1.098709
  0
SEQEND
  8
0
  0
POLYLINE
  8
PLAN_1
 62
     5
  6
CONTINUOUS
 66
     1
 40
0.003000
 41
0.003000
  0
VERTEX
  8
PLAN_1
 62
     5
  6
CONTINUOUS
 10
-0.353031
 20
1.098709
  0
VERTEX
  8
PLAN_1
 62
     5
  6
CONTINUOUS
 10
-0.344772
 20
1.098709
  0
SEQEND
  8
0
  0
POLYLINE
  8
PLAN_1
 62
     5
  6
CONTINUOUS
 66
     1
 40
0.003000
 41
0.003000
  0
VERTEX
  8
PLAN_1
 62
     5
  6
CONTINUOUS
 10
-0.336055
 20
1.098709
  0
VERTEX
  8
PLAN_1
 62
     5
  6
CONTINUOUS
 10
-0.327795
 20
1.098709
  0
SEQEND
  8
0
  0
POLYLINE
  8
PLAN_1
 62
     5
  6
CONTINUOUS
 66
     1
 40
0.003000
 41
0.003000
  0
VERTEX
  8
PLAN_1
 62
     5
  6
CONTINUOUS
 10
-0.319539
 20
1.098709
  0
VERTEX
  8
PLAN_1
 62
     5
  6
CONTINUOUS
 10
-0.311280
 20
1.098709
  0
SEQEND
  8
0
  0
POLYLINE
  8
PLAN_1
 62
     5
  6
CONTINUOUS
 66
     1
 40
0.003000
 41
0.003000
  0
VERTEX
  8
PLAN_1
 62
     5
  6
CONTINUOUS
 10
-0.303020
 20
1.098709
  0
VERTEX
  8
PLAN_1
 62
     5
  6
CONTINUOUS
 10
-0.294764
 20
1.098709
  0
SEQEND
  8
0
  0
POLYLINE
  8
PLAN_1
 62
     5
  6
CONTINUOUS
 66
     1
 40
0.003000
 41
0.003000
  0
VERTEX
  8
PLAN_1
 62
     5
  6
CONTINUOUS
 10
-0.286504
 20
1.098709
  0
VERTEX
  8
PLAN_1
 62
     5
  6
CONTINUOUS
 10
-0.277787
 20
1.098709
  0
SEQEND
  8
0
  0
POLYLINE
  8
PLAN_1
 62
     5
  6
CONTINUOUS
 66
     1
 40
0.003000
 41
0.003000
  0
VERTEX
  8
PLAN_1
 62
     5
  6
CONTINUOUS
 10
-0.269528
 20
1.098709
  0
VERTEX
  8
PLAN_1
 62
     5
  6
CONTINUOUS
 10
-0.261272
 20
1.098709
  0
SEQEND
  8
0
  0
POLYLINE
  8
PLAN_1
 62
     5
  6
CONTINUOUS
 66
     1
 40
0.003000
 41
0.003000
  0
VERTEX
  8
PLAN_1
 62
     5
  6
CONTINUOUS
 10
-0.253012
 20
1.098709
  0
VERTEX
  8
PLAN_1
 62
     5
  6
CONTINUOUS
 10
-0.244752
 20
1.098709
  0
SEQEND
  8
0
  0
POLYLINE
  8
PLAN_1
 62
     5
  6
CONTINUOUS
 66
     1
 40
0.003000
 41
0.003000
  0
VERTEX
  8
PLAN_1
 62
     5
  6
CONTINUOUS
 10
-0.236496
 20
1.098709
  0
VERTEX
  8
PLAN_1
 62
     5
  6
CONTINUOUS
 10
-0.227776
 20
1.098709
  0
SEQEND
  8
0
  0
POLYLINE
  8
PLAN_1
 62
     5
  6
CONTINUOUS
 66
     1
 40
0.003000
 41
0.003000
  0
VERTEX
  8
PLAN_1
 62
     5
  6
CONTINUOUS
 10
-0.219520
 20
1.098709
  0
VERTEX
  8
PLAN_1
 62
     5
  6
CONTINUOUS
 10
-0.211260
 20
1.098709
  0
SEQEND
  8
0
  0
POLYLINE
  8
PLAN_1
 62
     5
  6
CONTINUOUS
 66
     1
 40
0.003000
 41
0.003000
  0
VERTEX
  8
PLAN_1
 62
     5
  6
CONTINUOUS
 10
-0.203004
 20
1.098709
  0
VERTEX
  8
PLAN_1
 62
     5
  6
CONTINUOUS
 10
-0.194744
 20
1.098709
  0
SEQEND
  8
0
  0
POLYLINE
  8
PLAN_1
 62
     5
  6
CONTINUOUS
 66
     1
 40
0.003000
 41
0.003000
  0
VERTEX
  8
PLAN_1
 62
     5
  6
CONTINUOUS
 10
-0.186484
 20
1.098709
  0
VERTEX
  8
PLAN_1
 62
     5
  6
CONTINUOUS
 10
-0.178228
 20
1.098709
  0
SEQEND
  8
0
  0
POLYLINE
  8
PLAN_1
 62
     5
  6
CONTINUOUS
 66
     1
 40
0.003000
 41
0.003000
  0
VERTEX
  8
PLAN_1
 62
     5
  6
CONTINUOUS
 10
-0.169508
 20
1.098709
  0
VERTEX
  8
PLAN_1
 62
     5
  6
CONTINUOUS
 10
-0.161252
 20
1.098709
  0
SEQEND
  8
0
  0
POLYLINE
  8
PLAN_1
 62
     5
  6
CONTINUOUS
 66
     1
 40
0.003000
 41
0.003000
  0
VERTEX
  8
PLAN_1
 62
     5
  6
CONTINUOUS
 10
-0.152992
 20
1.098709
  0
VERTEX
  8
PLAN_1
 62
     5
  6
CONTINUOUS
 10
-0.144736
 20
1.098709
  0
SEQEND
  8
0
  0
POLYLINE
  8
PLAN_1
 62
     5
  6
CONTINUOUS
 66
     1
 40
0.003000
 41
0.003000
  0
VERTEX
  8
PLAN_1
 62
     5
  6
CONTINUOUS
 10
-0.136476
 20
1.098709
  0
VERTEX
  8
PLAN_1
 62
     5
  6
CONTINUOUS
 10
-0.128217
 20
1.098709
  0
SEQEND
  8
0
  0
POLYLINE
  8
PLAN_1
 62
     5
  6
CONTINUOUS
 66
     1
 40
0.003000
 41
0.003000
  0
VERTEX
  8
PLAN_1
 62
     5
  6
CONTINUOUS
 10
-0.122252
 20
1.096413
  0
VERTEX
  8
PLAN_1
 62
     5
  6
CONTINUOUS
 10
-0.122252
 20
1.088154
  0
SEQEND
  8
0
  0
POLYLINE
  8
PLAN_1
 62
     5
  6
CONTINUOUS
 66
     1
 40
0.003000
 41
0.003000
  0
VERTEX
  8
PLAN_1
 62
     5
  6
CONTINUOUS
 10
-0.122252
 20
1.079898
  0
VERTEX
  8
PLAN_1
 62
     5
  6
CONTINUOUS
 10
-0.122252
 20
1.071638
  0
SEQEND
  8
0
  0
POLYLINE
  8
PLAN_1
 62
     5
  6
CONTINUOUS
 66
     1
 40
0.003000
 41
0.003000
  0
VERTEX
  8
PLAN_1
 62
     5
  6
CONTINUOUS
 10
-0.122252
 20
1.062921
  0
VERTEX
  8
PLAN_1
 62
     5
  6
CONTINUOUS
 10
-0.122252
 20
1.054661
  0
SEQEND
  8
0
  0
POLYLINE
  8
PLAN_1
 62
     5
  6
CONTINUOUS
 66
     1
 40
0.003000
 41
0.003000
  0
VERTEX
  8
PLAN_1
 62
     5
  6
CONTINUOUS
 10
-0.122252
 20
1.046406
  0
VERTEX
  8
PLAN_1
 62
     5
  6
CONTINUOUS
 10
-0.122252
 20
1.038146
  0
SEQEND
  8
0
  0
POLYLINE
  8
PLAN_1
 62
     5
  6
CONTINUOUS
 66
     1
 40
0.003000
 41
0.003000
  0
VERTEX
  8
PLAN_1
 62
     5
  6
CONTINUOUS
 10
-0.122252
 20
1.029886
  0
VERTEX
  8
PLAN_1
 62
     5
  6
CONTINUOUS
 10
-0.122252
 20
1.021630
  0
SEQEND
  8
0
  0
POLYLINE
  8
PLAN_1
 62
     5
  6
CONTINUOUS
 66
     1
 40
0.003000
 41
0.003000
  0
VERTEX
  8
PLAN_1
 62
     5
  6
CONTINUOUS
 10
-0.122252
 20
1.013370
  0
VERTEX
  8
PLAN_1
 62
     5
  6
CONTINUOUS
 10
-0.122252
 20
1.004654
  0
SEQEND
  8
0
  0
POLYLINE
  8
PLAN_1
 62
     5
  6
CONTINUOUS
 66
     1
 40
0.003000
 41
0.003000
  0
VERTEX
  8
PLAN_1
 62
     5
  6
CONTINUOUS
 10
-0.122252
 20
0.996394
  0
VERTEX
  8
PLAN_1
 62
     5
  6
CONTINUOUS
 10
-0.122252
 20
0.988138
  0
SEQEND
  8
0
  0
POLYLINE
  8
PLAN_1
 62
     5
  6
CONTINUOUS
 66
     1
 40
0.003000
 41
0.003000
  0
VERTEX
  8
PLAN_1
 62
     5
  6
CONTINUOUS
 10
-0.122252
 20
0.979878
  0
VERTEX
  8
PLAN_1
 62
     5
  6
CONTINUOUS
 10
-0.122252
 20
0.971618
  0
SEQEND
  8
0
  0
POLYLINE
  8
PLAN_1
 62
     5
  6
CONTINUOUS
 66
     1
 40
0.003000
 41
0.003000
  0
VERTEX
  8
PLAN_1
 62
     5
  6
CONTINUOUS
 10
-0.122252
 20
0.963362
  0
VERTEX
  8
PLAN_1
 62
     5
  6
CONTINUOUS
 10
-0.122252
 20
0.954642
  0
SEQEND
  8
0
  0
POLYLINE
  8
PLAN_1
 62
     5
  6
CONTINUOUS
 66
     1
 40
0.003000
 41
0.003000
  0
VERTEX
  8
PLAN_1
 62
     5
  6
CONTINUOUS
 10
-0.122252
 20
0.946386
  0
VERTEX
  8
PLAN_1
 62
     5
  6
CONTINUOUS
 10
-0.122252
 20
0.938126
  0
SEQEND
  8
0
  0
POLYLINE
  8
PLAN_1
 62
     5
  6
CONTINUOUS
 66
     1
 40
0.003000
 41
0.003000
  0
VERTEX
  8
PLAN_1
 62
     5
  6
CONTINUOUS
 10
-0.122252
 20
0.929870
  0
VERTEX
  8
PLAN_1
 62
     5
  6
CONTINUOUS
 10
-0.122252
 20
0.921610
  0
SEQEND
  8
0
  0
POLYLINE
  8
PLAN_1
 62
     5
  6
CONTINUOUS
 66
     1
 40
0.003000
 41
0.003000
  0
VERTEX
  8
PLAN_1
 62
     5
  6
CONTINUOUS
 10
-0.122252
 20
0.913350
  0
VERTEX
  8
PLAN_1
 62
     5
  6
CONTINUOUS
 10
-0.122252
 20
0.905094
  0
SEQEND
  8
0
  0
POLYLINE
  8
PLAN_1
 62
     5
  6
CONTINUOUS
 66
     1
 40
0.003000
 41
0.003000
  0
VERTEX
  8
PLAN_1
 62
     5
  6
CONTINUOUS
 10
-0.122252
 20
0.896374
  0
VERTEX
  8
PLAN_1
 62
     5
  6
CONTINUOUS
 10
-0.122252
 20
0.888118
  0
SEQEND
  8
0
  0
POLYLINE
  8
PLAN_1
 62
     5
  6
CONTINUOUS
 66
     1
 40
0.003000
 41
0.003000
  0
VERTEX
  8
PLAN_1
 62
     5
  6
CONTINUOUS
 10
-0.122252
 20
0.879858
  0
VERTEX
  8
PLAN_1
 62
     5
  6
CONTINUOUS
 10
-0.122252
 20
0.871598
  0
SEQEND
  8
0
  0
POLYLINE
  8
PLAN_1
 62
     5
  6
CONTINUOUS
 66
     1
 40
0.003000
 41
0.003000
  0
VERTEX
  8
PLAN_1
 62
     5
  6
CONTINUOUS
 10
-0.122252
 20
0.863343
  0
VERTEX
  8
PLAN_1
 62
     5
  6
CONTINUOUS
 10
-0.122252
 20
0.855083
  0
SEQEND
  8
0
  0
POLYLINE
  8
PLAN_1
 62
     5
  6
CONTINUOUS
 66
     1
 40
0.003000
 41
0.003000
  0
VERTEX
  8
PLAN_1
 62
     5
  6
CONTINUOUS
 10
-0.122252
 20
0.846366
  0
VERTEX
  8
PLAN_1
 62
     5
  6
CONTINUOUS
 10
-0.122252
 20
0.838106
  0
SEQEND
  8
0
  0
POLYLINE
  8
PLAN_1
 62
     5
  6
CONTINUOUS
 66
     1
 40
0.003000
 41
0.003000
  0
VERTEX
  8
PLAN_1
 62
     5
  6
CONTINUOUS
 10
-0.122252
 20
0.829850
  0
VERTEX
  8
PLAN_1
 62
     5
  6
CONTINUOUS
 10
-0.122252
 20
0.821591
  0
SEQEND
  8
0
  0
POLYLINE
  8
PLAN_1
 62
     5
  6
CONTINUOUS
 66
     1
 40
0.003000
 41
0.003000
  0
VERTEX
  8
PLAN_1
 62
     5
  6
CONTINUOUS
 10
-0.122252
 20
0.813331
  0
VERTEX
  8
PLAN_1
 62
     5
  6
CONTINUOUS
 10
-0.122252
 20
0.805075
  0
SEQEND
  8
0
  0
POLYLINE
  8
PLAN_1
 62
     5
  6
CONTINUOUS
 66
     1
 40
0.003000
 41
0.003000
  0
VERTEX
  8
PLAN_1
 62
     5
  6
CONTINUOUS
 10
-0.122252
 20
0.796815
  0
VERTEX
  8
PLAN_1
 62
     5
  6
CONTINUOUS
 10
-0.122252
 20
0.788098
  0
SEQEND
  8
0
  0
POLYLINE
  8
PLAN_1
 62
     5
  6
CONTINUOUS
 66
     1
 40
0.003000
 41
0.003000
  0
VERTEX
  8
PLAN_1
 62
     5
  6
CONTINUOUS
 10
-0.122252
 20
0.779839
  0
VERTEX
  8
PLAN_1
 62
     5
  6
CONTINUOUS
 10
-0.122252
 20
0.771583
  0
SEQEND
  8
0
  0
POLYLINE
  8
PLAN_1
 62
     5
  6
CONTINUOUS
 66
     1
 40
0.003000
 41
0.003000
  0
VERTEX
  8
PLAN_1
 62
     5
  6
CONTINUOUS
 10
-0.122252
 20
0.763323
  0
VERTEX
  8
PLAN_1
 62
     5
  6
CONTINUOUS
 10
-0.122252
 20
0.755063
  0
SEQEND
  8
0
  0
POLYLINE
  8
PLAN_1
 62
     5
  6
CONTINUOUS
 66
     1
 40
0.003000
 41
0.003000
  0
VERTEX
  8
PLAN_1
 62
     5
  6
CONTINUOUS
 10
-0.122252
 20
0.746807
  0
VERTEX
  8
PLAN_1
 62
     5
  6
CONTINUOUS
 10
-0.122252
 20
0.738091
  0
SEQEND
  8
0
  0
POLYLINE
  8
PLAN_1
 62
     5
  6
CONTINUOUS
 66
     1
 40
0.003000
 41
0.003000
  0
VERTEX
  8
PLAN_1
 62
     5
  6
CONTINUOUS
 10
-0.122252
 20
0.729831
  0
VERTEX
  8
PLAN_1
 62
     5
  6
CONTINUOUS
 10
-0.122252
 20
0.721571
  0
SEQEND
  8
0
  0
POLYLINE
  8
PLAN_1
 62
     5
  6
CONTINUOUS
 66
     1
 40
0.003000
 41
0.003000
  0
VERTEX
  8
PLAN_1
 62
     5
  6
CONTINUOUS
 10
-0.122252
 20
0.713315
  0
VERTEX
  8
PLAN_1
 62
     5
  6
CONTINUOUS
 10
-0.122252
 20
0.705055
  0
SEQEND
  8
0
  0
POLYLINE
  8
PLAN_1
 62
     5
  6
CONTINUOUS
 66
     1
 40
0.003000
 41
0.003000
  0
VERTEX
  8
PLAN_1
 62
     5
  6
CONTINUOUS
 10
-0.122252
 20
0.696795
  0
VERTEX
  8
PLAN_1
 62
     5
  6
CONTINUOUS
 10
-0.122252
 20
0.688539
  0
SEQEND
  8
0
  0
POLYLINE
  8
PLAN_1
 62
     5
  6
CONTINUOUS
 66
     1
 40
0.003000
 41
0.003000
  0
VERTEX
  8
PLAN_1
 62
     5
  6
CONTINUOUS
 10
-0.122252
 20
0.679823
  0
VERTEX
  8
PLAN_1
 62
     5
  6
CONTINUOUS
 10
-0.122252
 20
0.671563
  0
SEQEND
  8
0
  0
POLYLINE
  8
PLAN_1
 62
     5
  6
CONTINUOUS
 66
     1
 40
0.003000
 41
0.003000
  0
VERTEX
  8
PLAN_1
 62
     5
  6
CONTINUOUS
 10
-0.122252
 20
0.663303
  0
VERTEX
  8
PLAN_1
 62
     5
  6
CONTINUOUS
 10
-0.122252
 20
0.655047
  0
SEQEND
  8
0
  0
POLYLINE
  8
PLAN_1
 62
     5
  6
CONTINUOUS
 66
     1
 40
0.003000
 41
0.003000
  0
VERTEX
  8
PLAN_1
 62
     5
  6
CONTINUOUS
 10
-0.122252
 20
0.646787
  0
VERTEX
  8
PLAN_1
 62
     5
  6
CONTINUOUS
 10
-0.122252
 20
0.638528
  0
SEQEND
  8
0
  0
POLYLINE
  8
PLAN_1
 62
     5
  6
CONTINUOUS
 66
     1
 40
0.003000
 41
0.003000
  0
VERTEX
  8
PLAN_1
 62
     5
  6
CONTINUOUS
 10
-0.122252
 20
0.629811
  0
VERTEX
  8
PLAN_1
 62
     5
  6
CONTINUOUS
 10
-0.122252
 20
0.621551
  0
SEQEND
  8
0
  0
POLYLINE
  8
PLAN_1
 62
     5
  6
CONTINUOUS
 66
     1
 40
0.003000
 41
0.003000
  0
VERTEX
  8
PLAN_1
 62
     5
  6
CONTINUOUS
 10
-0.122252
 20
0.613295
  0
VERTEX
  8
PLAN_1
 62
     5
  6
CONTINUOUS
 10
-0.122252
 20
0.605035
  0
SEQEND
  8
0
  0
POLYLINE
  8
PLAN_1
 62
     5
  6
CONTINUOUS
 66
     1
 40
0.003000
 41
0.003000
  0
VERTEX
  8
PLAN_1
 62
     5
  6
CONTINUOUS
 10
-0.122252
 20
0.596780
  0
VERTEX
  8
PLAN_1
 62
     5
  6
CONTINUOUS
 10
-0.122252
 20
0.588520
  0
SEQEND
  8
0
  0
POLYLINE
  8
PLAN_1
 62
     5
  6
CONTINUOUS
 66
     1
 40
0.003000
 41
0.003000
  0
VERTEX
  8
PLAN_1
 62
     5
  6
CONTINUOUS
 10
-0.122252
 20
0.580260
  0
VERTEX
  8
PLAN_1
 62
     5
  6
CONTINUOUS
 10
-0.122252
 20
0.571543
  0
SEQEND
  8
0
  0
POLYLINE
  8
PLAN_1
 62
     5
  6
CONTINUOUS
 66
     1
 40
0.003000
 41
0.003000
  0
VERTEX
  8
PLAN_1
 62
     5
  6
CONTINUOUS
 10
-0.122252
 20
0.563283
  0
VERTEX
  8
PLAN_1
 62
     5
  6
CONTINUOUS
 10
-0.122252
 20
0.555028
  0
SEQEND
  8
0
  0
POLYLINE
  8
PLAN_1
 62
     5
  6
CONTINUOUS
 66
     1
 40
0.003000
 41
0.003000
  0
VERTEX
  8
PLAN_1
 62
     5
  6
CONTINUOUS
 10
-0.122252
 20
0.546768
  0
VERTEX
  8
PLAN_1
 62
     5
  6
CONTINUOUS
 10
-0.122252
 20
0.538512
  0
SEQEND
  8
0
  0
POLYLINE
  8
PLAN_1
 62
     5
  6
CONTINUOUS
 66
     1
 40
0.003000
 41
0.003000
  0
VERTEX
  8
PLAN_1
 62
     5
  6
CONTINUOUS
 10
-0.122252
 20
0.530252
  0
VERTEX
  8
PLAN_1
 62
     5
  6
CONTINUOUS
 10
-0.122252
 20
0.521535
  0
SEQEND
  8
0
  0
POLYLINE
  8
PLAN_1
 62
     5
  6
CONTINUOUS
 66
     1
 40
0.003000
 41
0.003000
  0
VERTEX
  8
PLAN_1
 62
     5
  6
CONTINUOUS
 10
-0.122252
 20
0.513276
  0
VERTEX
  8
PLAN_1
 62
     5
  6
CONTINUOUS
 10
-0.122252
 20
0.505016
  0
SEQEND
  8
0
  0
POLYLINE
  8
PLAN_1
 62
     5
  6
CONTINUOUS
 66
     1
 40
0.003000
 41
0.003000
  0
VERTEX
  8
PLAN_1
 62
     5
  6
CONTINUOUS
 10
-0.122252
 20
0.496760
  0
VERTEX
  8
PLAN_1
 62
     5
  6
CONTINUOUS
 10
-0.122252
 20
0.488500
  0
SEQEND
  8
0
  0
POLYLINE
  8
PLAN_1
 62
     5
  6
CONTINUOUS
 66
     1
 40
0.003000
 41
0.003000
  0
VERTEX
  8
PLAN_1
 62
     5
  6
CONTINUOUS
 10
-0.122252
 20
0.480240
  0
VERTEX
  8
PLAN_1
 62
     5
  6
CONTINUOUS
 10
-0.122252
 20
0.471984
  0
SEQEND
  8
0
  0
POLYLINE
  8
PLAN_1
 62
     5
  6
CONTINUOUS
 66
     1
 40
0.003000
 41
0.003000
  0
VERTEX
  8
PLAN_1
 62
     5
  6
CONTINUOUS
 10
-0.122252
 20
0.463268
  0
VERTEX
  8
PLAN_1
 62
     5
  6
CONTINUOUS
 10
-0.122252
 20
0.455008
  0
SEQEND
  8
0
  0
POLYLINE
  8
PLAN_1
 62
     5
  6
CONTINUOUS
 66
     1
 40
0.003000
 41
0.003000
  0
VERTEX
  8
PLAN_1
 62
     5
  6
CONTINUOUS
 10
-0.122252
 20
0.446748
  0
VERTEX
  8
PLAN_1
 62
     5
  6
CONTINUOUS
 10
-0.122252
 20
0.438492
  0
SEQEND
  8
0
  0
POLYLINE
  8
PLAN_1
  6
CONTINUOUS
 66
     1
 40
0.005504
 41
0.005504
  0
VERTEX
  8
PLAN_1
  6
CONTINUOUS
 10
-0.776047
 20
0.349941
  0
VERTEX
  8
PLAN_1
  6
CONTINUOUS
 10
-0.527374
 20
0.393988
  0
VERTEX
  8
PLAN_1
  6
CONTINUOUS
 10
-0.515445
 20
0.396280
  0
SEQEND
  8
0
  0
POLYLINE
  8
PLAN_1
  6
CONTINUOUS
 66
     1
 40
0.005504
 41
0.005504
  0
VERTEX
  8
PLAN_1
  6
CONTINUOUS
 10
-0.515445
 20
0.396280
  0
VERTEX
  8
PLAN_1
  6
CONTINUOUS
 10
-0.511319
 20
0.397197
  0
VERTEX
  8
PLAN_1
  6
CONTINUOUS
 10
-0.508106
 20
0.399035
  0
VERTEX
  8
PLAN_1
  6
CONTINUOUS
 10
-0.504894
 20
0.401327
  0
VERTEX
  8
PLAN_1
  6
CONTINUOUS
 10
-0.502598
 20
0.404539
  0
VERTEX
  8
PLAN_1
  6
CONTINUOUS
 10
-0.500307
 20
0.407752
  0
VERTEX
  8
PLAN_1
  6
CONTINUOUS
 10
-0.499390
 20
0.411421
  0
VERTEX
  8
PLAN_1
  6
CONTINUOUS
 10
-0.498929
 20
0.415091
  0
VERTEX
  8
PLAN_1
  6
CONTINUOUS
 10
-0.498929
 20
0.419220
  0
VERTEX
  8
PLAN_1
  6
CONTINUOUS
 10
-0.500307
 20
0.422890
  0
VERTEX
  8
PLAN_1
  6
CONTINUOUS
 10
-0.502142
 20
0.426563
  0
VERTEX
  8
PLAN_1
  6
CONTINUOUS
 10
-0.504437
 20
0.429776
  0
VERTEX
  8
PLAN_1
  6
CONTINUOUS
 10
-0.507189
 20
0.432067
  0
VERTEX
  8
PLAN_1
  6
CONTINUOUS
 10
-0.510402
 20
0.433902
  0
VERTEX
  8
PLAN_1
  6
CONTINUOUS
 10
-0.514071
 20
0.435280
  0
VERTEX
  8
PLAN_1
  6
CONTINUOUS
 10
-0.518201
 20
0.435736
  0
VERTEX
  8
PLAN_1
  6
CONTINUOUS
 10
-0.522327
 20
0.435280
  0
SEQEND
  8
0
  0
POLYLINE
  8
PLAN_1
  6
CONTINUOUS
 66
     1
 40
0.005504
 41
0.005504
  0
VERTEX
  8
PLAN_1
  6
CONTINUOUS
 10
-0.522327
 20
0.435280
  0
VERTEX
  8
PLAN_1
  6
CONTINUOUS
 10
-0.534256
 20
0.432984
  0
VERTEX
  8
PLAN_1
  6
CONTINUOUS
 10
-1.002693
 20
0.350402
  0
VERTEX
  8
PLAN_1
  6
CONTINUOUS
 10
-1.010953
 20
0.349024
  0
SEQEND
  8
0
  0
POLYLINE
  8
PLAN_1
  6
CONTINUOUS
 66
     1
 40
0.005504
 41
0.005504
  0
VERTEX
  8
PLAN_1
  6
CONTINUOUS
 10
-1.010953
 20
0.349024
  0
VERTEX
  8
PLAN_1
  6
CONTINUOUS
 10
-1.014622
 20
0.348106
  0
VERTEX
  8
PLAN_1
  6
CONTINUOUS
 10
-1.018295
 20
0.346272
  0
VERTEX
  8
PLAN_1
  6
CONTINUOUS
 10
-1.021047
 20
0.343520
  0
VERTEX
  8
PLAN_1
  6
CONTINUOUS
 10
-1.023799
 20
0.340768
  0
VERTEX
  8
PLAN_1
  6
CONTINUOUS
 10
-1.025634
 20
0.337555
  0
VERTEX
  8
PLAN_1
  6
CONTINUOUS
 10
-1.027012
 20
0.333886
  0
VERTEX
  8
PLAN_1
  6
CONTINUOUS
 10
-1.027469
 20
0.329756
  0
VERTEX
  8
PLAN_1
  6
CONTINUOUS
 10
-1.027012
 20
0.326083
  0
VERTEX
  8
PLAN_1
  6
CONTINUOUS
 10
-1.026094
 20
0.321957
  0
VERTEX
  8
PLAN_1
  6
CONTINUOUS
 10
-1.024260
 20
0.318744
  0
VERTEX
  8
PLAN_1
  6
CONTINUOUS
 10
-1.021504
 20
0.315531
  0
VERTEX
  8
PLAN_1
  6
CONTINUOUS
 10
-1.018752
 20
0.313236
  0
VERTEX
  8
PLAN_1
  6
CONTINUOUS
 10
-1.015539
 20
0.311402
  0
VERTEX
  8
PLAN_1
  6
CONTINUOUS
 10
-1.011870
 20
0.310028
  0
VERTEX
  8
PLAN_1
  6
CONTINUOUS
 10
-1.007740
 20
0.309567
  0
VERTEX
  8
PLAN_1
  6
CONTINUOUS
 10
-1.004071
 20
0.309567
  0
SEQEND
  8
0
  0
POLYLINE
  8
PLAN_1
  6
CONTINUOUS
 66
     1
 40
0.005504
 41
0.005504
  0
VERTEX
  8
PLAN_1
  6
CONTINUOUS
 10
-0.634276
 20
0.416008
  0
VERTEX
  8
PLAN_1
  6
CONTINUOUS
 10
-1.002693
 20
0.481161
  0
VERTEX
  8
PLAN_1
  6
CONTINUOUS
 10
-1.010496
 20
0.482535
  0
SEQEND
  8
0
  0
POLYLINE
  8
PLAN_1
  6
CONTINUOUS
 66
     1
 40
0.005504
 41
0.005504
  0
VERTEX
  8
PLAN_1
  6
CONTINUOUS
 10
-1.010496
 20
0.482535
  0
VERTEX
  8
PLAN_1
  6
CONTINUOUS
 10
-1.014622
 20
0.483453
  0
VERTEX
  8
PLAN_1
  6
CONTINUOUS
 10
-1.017835
 20
0.485287
  0
VERTEX
  8
PLAN_1
  6
CONTINUOUS
 10
-1.021047
 20
0.488043
  0
VERTEX
  8
PLAN_1
  6
CONTINUOUS
 10
-1.023343
 20
0.490795
  0
VERTEX
  8
PLAN_1
  6
CONTINUOUS
 10
-1.025634
 20
0.494008
  0
VERTEX
  8
PLAN_1
  6
CONTINUOUS
 10
-1.026551
 20
0.497677
  0
VERTEX
  8
PLAN_1
  6
CONTINUOUS
 10
-1.027012
 20
0.501807
  0
VERTEX
  8
PLAN_1
  6
CONTINUOUS
 10
-1.027012
 20
0.505476
  0
VERTEX
  8
PLAN_1
  6
CONTINUOUS
 10
-1.025634
 20
0.509606
  0
VERTEX
  8
PLAN_1
  6
CONTINUOUS
 10
-1.023799
 20
0.512815
  0
VERTEX
  8
PLAN_1
  6
CONTINUOUS
 10
-1.021504
 20
0.516028
  0
VERTEX
  8
PLAN_1
  6
CONTINUOUS
 10
-1.018752
 20
0.518323
  0
VERTEX
  8
PLAN_1
  6
CONTINUOUS
 10
-1.015539
 20
0.520157
  0
VERTEX
  8
PLAN_1
  6
CONTINUOUS
 10
-1.011870
 20
0.521535
  0
VERTEX
  8
PLAN_1
  6
CONTINUOUS
 10
-1.007740
 20
0.521992
  0
VERTEX
  8
PLAN_1
  6
CONTINUOUS
 10
-1.003610
 20
0.521992
  0
SEQEND
  8
0
  0
POLYLINE
  8
PLAN_1
  6
CONTINUOUS
 66
     1
 40
0.005504
 41
0.005504
  0
VERTEX
  8
PLAN_1
  6
CONTINUOUS
 10
-0.893500
 20
0.502264
  0
VERTEX
  8
PLAN_1
  6
CONTINUOUS
 10
-0.527374
 20
0.437575
  0
VERTEX
  8
PLAN_1
  6
CONTINUOUS
 10
-0.514988
 20
0.435280
  0
SEQEND
  8
0
  0
POLYLINE
  8
PLAN_1
  6
CONTINUOUS
 66
     1
 40
0.005504
 41
0.005504
  0
VERTEX
  8
PLAN_1
  6
CONTINUOUS
 10
-0.514988
 20
0.435280
  0
VERTEX
  8
PLAN_1
  6
CONTINUOUS
 10
-0.511319
 20
0.434362
  0
VERTEX
  8
PLAN_1
  6
CONTINUOUS
 10
-0.507646
 20
0.432528
  0
VERTEX
  8
PLAN_1
  6
CONTINUOUS
 10
-0.504894
 20
0.430232
  0
VERTEX
  8
PLAN_1
  6
CONTINUOUS
 10
-0.502142
 20
0.427020
  0
VERTEX
  8
PLAN_1
  6
CONTINUOUS
 10
-0.500307
 20
0.423811
  0
VERTEX
  8
PLAN_1
  6
CONTINUOUS
 10
-0.499390
 20
0.420138
  0
VERTEX
  8
PLAN_1
  6
CONTINUOUS
 10
-0.498472
 20
0.416469
  0
VERTEX
  8
PLAN_1
  6
CONTINUOUS
 10
-0.498929
 20
0.412339
  0
VERTEX
  8
PLAN_1
  6
CONTINUOUS
 10
-0.499846
 20
0.408669
  0
VERTEX
  8
PLAN_1
  6
CONTINUOUS
 10
-0.501681
 20
0.405000
  0
VERTEX
  8
PLAN_1
  6
CONTINUOUS
 10
-0.504437
 20
0.401787
  0
VERTEX
  8
PLAN_1
  6
CONTINUOUS
 10
-0.507189
 20
0.399492
  0
VERTEX
  8
PLAN_1
  6
CONTINUOUS
 10
-0.510402
 20
0.397657
  0
VERTEX
  8
PLAN_1
  6
CONTINUOUS
 10
-0.514071
 20
0.396280
  0
VERTEX
  8
PLAN_1
  6
CONTINUOUS
 10
-0.518201
 20
0.395823
  0
VERTEX
  8
PLAN_1
  6
CONTINUOUS
 10
-0.521870
 20
0.396280
  0
SEQEND
  8
0
  0
POLYLINE
  8
PLAN_1
  6
CONTINUOUS
 66
     1
 40
0.005504
 41
0.005504
  0
VERTEX
  8
PLAN_1
  6
CONTINUOUS
 10
-0.635193
 20
0.589898
  0
VERTEX
  8
PLAN_1
  6
CONTINUOUS
 10
-1.002693
 20
0.654587
  0
VERTEX
  8
PLAN_1
  6
CONTINUOUS
 10
-1.010496
 20
0.655965
  0
SEQEND
  8
0
  0
POLYLINE
  8
PLAN_1
  6
CONTINUOUS
 66
     1
 40
0.005504
 41
0.005504
  0
VERTEX
  8
PLAN_1
  6
CONTINUOUS
 10
-1.010496
 20
0.655965
  0
VERTEX
  8
PLAN_1
  6
CONTINUOUS
 10
-1.014622
 20
0.657339
  0
VERTEX
  8
PLAN_1
  6
CONTINUOUS
 10
-1.017835
 20
0.659173
  0
VERTEX
  8
PLAN_1
  6
CONTINUOUS
 10
-1.021047
 20
0.661469
  0
VERTEX
  8
PLAN_1
  6
CONTINUOUS
 10
-1.023343
 20
0.664220
  0
VERTEX
  8
PLAN_1
  6
CONTINUOUS
 10
-1.025177
 20
0.667433
  0
VERTEX
  8
PLAN_1
  6
CONTINUOUS
 10
-1.026551
 20
0.671102
  0
VERTEX
  8
PLAN_1
  6
CONTINUOUS
 10
-1.027012
 20
0.675232
  0
VERTEX
  8
PLAN_1
  6
CONTINUOUS
 10
-1.027012
 20
0.679362
  0
VERTEX
  8
PLAN_1
  6
CONTINUOUS
 10
-1.025634
 20
0.683031
  0
VERTEX
  8
PLAN_1
  6
CONTINUOUS
 10
-1.023799
 20
0.686705
  0
VERTEX
  8
PLAN_1
  6
CONTINUOUS
 10
-1.021504
 20
0.689457
  0
VERTEX
  8
PLAN_1
  6
CONTINUOUS
 10
-1.018752
 20
0.692209
  0
VERTEX
  8
PLAN_1
  6
CONTINUOUS
 10
-1.015083
 20
0.694043
  0
VERTEX
  8
PLAN_1
  6
CONTINUOUS
 10
-1.011870
 20
0.694961
  0
VERTEX
  8
PLAN_1
  6
CONTINUOUS
 10
-1.007740
 20
0.695878
  0
VERTEX
  8
PLAN_1
  6
CONTINUOUS
 10
-1.003610
 20
0.695421
  0
SEQEND
  8
0
  0
POLYLINE
  8
PLAN_1
  6
CONTINUOUS
 66
     1
 40
0.005504
 41
0.005504
  0
VERTEX
  8
PLAN_1
  6
CONTINUOUS
 10
-0.892122
 20
0.675693
  0
VERTEX
  8
PLAN_1
  6
CONTINUOUS
 10
-0.527374
 20
0.611000
  0
VERTEX
  8
PLAN_1
  6
CONTINUOUS
 10
-0.514988
 20
0.609165
  0
SEQEND
  8
0
  0
POLYLINE
  8
PLAN_1
  6
CONTINUOUS
 66
     1
 40
0.005504
 41
0.005504
  0
VERTEX
  8
PLAN_1
  6
CONTINUOUS
 10
-0.514988
 20
0.609165
  0
VERTEX
  8
PLAN_1
  6
CONTINUOUS
 10
-0.511319
 20
0.607787
  0
VERTEX
  8
PLAN_1
  6
CONTINUOUS
 10
-0.507646
 20
0.605953
  0
VERTEX
  8
PLAN_1
  6
CONTINUOUS
 10
-0.504894
 20
0.603661
  0
VERTEX
  8
PLAN_1
  6
CONTINUOUS
 10
-0.502142
 20
0.600906
  0
VERTEX
  8
PLAN_1
  6
CONTINUOUS
 10
-0.500307
 20
0.597697
  0
VERTEX
  8
PLAN_1
  6
CONTINUOUS
 10
-0.498929
 20
0.594024
  0
VERTEX
  8
PLAN_1
  6
CONTINUOUS
 10
-0.498472
 20
0.589898
  0
VERTEX
  8
PLAN_1
  6
CONTINUOUS
 10
-0.498929
 20
0.585768
  0
VERTEX
  8
PLAN_1
  6
CONTINUOUS
 10
-0.499846
 20
0.582094
  0
VERTEX
  8
PLAN_1
  6
CONTINUOUS
 10
-0.501681
 20
0.578425
  0
VERTEX
  8
PLAN_1
  6
CONTINUOUS
 10
-0.504437
 20
0.575673
  0
VERTEX
  8
PLAN_1
  6
CONTINUOUS
 10
-0.507189
 20
0.572921
  0
VERTEX
  8
PLAN_1
  6
CONTINUOUS
 10
-0.510402
 20
0.571087
  0
VERTEX
  8
PLAN_1
  6
CONTINUOUS
 10
-0.514071
 20
0.570165
  0
VERTEX
  8
PLAN_1
  6
CONTINUOUS
 10
-0.518201
 20
0.569709
  0
VERTEX
  8
PLAN_1
  6
CONTINUOUS
 10
-0.521870
 20
0.569709
  0
SEQEND
  8
0
  0
POLYLINE
  8
PLAN_1
 62
     2
  6
CONTINUOUS
 66
     1
 40
0.004126
 41
0.004126
  0
VERTEX
  8
PLAN_1
 62
     2
  6
CONTINUOUS
 10
-1.977189
 20
3.573028
  0
VERTEX
  8
PLAN_1
 62
     2
  6
CONTINUOUS
 10
-0.148406
 20
3.573028
  0
SEQEND
  8
0
  0
SOLID
  8
PLAN_1
 62
     2
 10
-0.118583
 20
3.573028
 11
-0.177768
 21
3.588626
 12
-0.118583
 22
3.573028
 13
-0.177768
 23
3.556969
  0
POLYLINE
  8
PLAN_1
 62
     2
  6
CONTINUOUS
 66
     1
 40
0.003000
 41
0.003000
  0
VERTEX
  8
PLAN_1
 62
     2
  6
CONTINUOUS
 10
-0.118583
 20
3.573028
  0
VERTEX
  8
PLAN_1
 62
     2
  6
CONTINUOUS
 10
-0.177768
 20
3.588626
  0
VERTEX
  8
PLAN_1
 62
     2
  6
CONTINUOUS
 10
-0.177768
 20
3.556969
  0
VERTEX
  8
PLAN_1
 62
     2
  6
CONTINUOUS
 10
-0.118583
 20
3.573028
  0
SEQEND
  8
0
  0
SOLID
  8
PLAN_1
 62
     2
 10
-2.007012
 20
3.573028
 11
-1.947827
 21
3.588626
 12
-2.007012
 22
3.573028
 13
-1.947827
 23
3.556969
  0
POLYLINE
  8
PLAN_1
 62
     2
  6
CONTINUOUS
 66
     1
 40
0.003000
 41
0.003000
  0
VERTEX
  8
PLAN_1
 62
     2
  6
CONTINUOUS
 10
-2.007012
 20
3.573028
  0
VERTEX
  8
PLAN_1
 62
     2
  6
CONTINUOUS
 10
-1.947827
 20
3.588626
  0
VERTEX
  8
PLAN_1
 62
     2
  6
CONTINUOUS
 10
-1.947827
 20
3.556969
  0
VERTEX
  8
PLAN_1
 62
     2
  6
CONTINUOUS
 10
-2.007012
 20
3.573028
  0
SEQEND
  8
0
  0
POLYLINE
  8
PLAN_1
 62
     2
  6
CONTINUOUS
 66
     1
 40
0.003000
 41
0.003000
  0
VERTEX
  8
PLAN_1
 62
     2
  6
CONTINUOUS
 10
-1.105465
 20
3.639094
  0
VERTEX
  8
PLAN_1
 62
     2
  6
CONTINUOUS
 10
-1.104091
 20
3.640012
  0
VERTEX
  8
PLAN_1
 62
     2
  6
CONTINUOUS
 10
-1.102713
 20
3.640472
  0
VERTEX
  8
PLAN_1
 62
     2
  6
CONTINUOUS
 10
-1.101339
 20
3.641390
  0
VERTEX
  8
PLAN_1
 62
     2
  6
CONTINUOUS
 10
-1.099500
 20
3.642307
  0
VERTEX
  8
PLAN_1
 62
     2
  6
CONTINUOUS
 10
-1.097665
 20
3.642768
  0
VERTEX
  8
PLAN_1
 62
     2
  6
CONTINUOUS
 10
-1.095831
 20
3.643224
  0
VERTEX
  8
PLAN_1
 62
     2
  6
CONTINUOUS
 10
-1.093535
 20
3.643224
  0
VERTEX
  8
PLAN_1
 62
     2
  6
CONTINUOUS
 10
-1.091244
 20
3.643685
  0
VERTEX
  8
PLAN_1
 62
     2
  6
CONTINUOUS
 10
-1.086654
 20
3.643224
  0
VERTEX
  8
PLAN_1
 62
     2
  6
CONTINUOUS
 10
-1.082528
 20
3.641846
  0
VERTEX
  8
PLAN_1
 62
     2
  6
CONTINUOUS
 10
-1.078398
 20
3.640012
  0
VERTEX
  8
PLAN_1
 62
     2
  6
CONTINUOUS
 10
-1.074728
 20
3.637720
  0
VERTEX
  8
PLAN_1
 62
     2
  6
CONTINUOUS
 10
-1.073350
 20
3.635882
  0
VERTEX
  8
PLAN_1
 62
     2
  6
CONTINUOUS
 10
-1.071516
 20
3.634047
  0
VERTEX
  8
PLAN_1
 62
     2
  6
CONTINUOUS
 10
-1.070598
 20
3.632213
  0
VERTEX
  8
PLAN_1
 62
     2
  6
CONTINUOUS
 10
-1.069220
 20
3.630378
  0
VERTEX
  8
PLAN_1
 62
     2
  6
CONTINUOUS
 10
-1.068303
 20
3.628083
  0
VERTEX
  8
PLAN_1
 62
     2
  6
CONTINUOUS
 10
-1.067843
 20
3.625331
  0
VERTEX
  8
PLAN_1
 62
     2
  6
CONTINUOUS
 10
-1.067386
 20
3.623035
  0
VERTEX
  8
PLAN_1
 62
     2
  6
CONTINUOUS
 10
-1.067386
 20
3.620283
  0
VERTEX
  8
PLAN_1
 62
     2
  6
CONTINUOUS
 10
-1.067386
 20
3.616614
  0
VERTEX
  8
PLAN_1
 62
     2
  6
CONTINUOUS
 10
-1.068303
 20
3.612484
  0
VERTEX
  8
PLAN_1
 62
     2
  6
CONTINUOUS
 10
-1.069681
 20
3.608354
  0
VERTEX
  8
PLAN_1
 62
     2
  6
CONTINUOUS
 10
-1.071972
 20
3.604228
  0
VERTEX
  8
PLAN_1
 62
     2
  6
CONTINUOUS
 10
-1.073350
 20
3.602390
  0
VERTEX
  8
PLAN_1
 62
     2
  6
CONTINUOUS
 10
-1.075185
 20
3.600555
  0
VERTEX
  8
PLAN_1
 62
     2
  6
CONTINUOUS
 10
-1.077480
 20
3.598720
  0
VERTEX
  8
PLAN_1
 62
     2
  6
CONTINUOUS
 10
-1.079772
 20
3.597343
  0
VERTEX
  8
PLAN_1
 62
     2
  6
CONTINUOUS
 10
-1.082984
 20
3.595969
  0
VERTEX
  8
PLAN_1
 62
     2
  6
CONTINUOUS
 10
-1.086197
 20
3.595051
  0
VERTEX
  8
PLAN_1
 62
     2
  6
CONTINUOUS
 10
-1.089866
 20
3.594591
  0
VERTEX
  8
PLAN_1
 62
     2
  6
CONTINUOUS
 10
-1.093535
 20
3.594591
  0
VERTEX
  8
PLAN_1
 62
     2
  6
CONTINUOUS
 10
-1.097665
 20
3.594591
  0
VERTEX
  8
PLAN_1
 62
     2
  6
CONTINUOUS
 10
-1.101339
 20
3.595508
  0
VERTEX
  8
PLAN_1
 62
     2
  6
CONTINUOUS
 10
-1.105008
 20
3.596425
  0
VERTEX
  8
PLAN_1
 62
     2
  6
CONTINUOUS
 10
-1.108677
 20
3.598264
  0
VERTEX
  8
PLAN_1
 62
     2
  6
CONTINUOUS
 10
-1.110055
 20
3.599638
  0
VERTEX
  8
PLAN_1
 62
     2
  6
CONTINUOUS
 10
-1.111429
 20
3.601016
  0
VERTEX
  8
PLAN_1
 62
     2
  6
CONTINUOUS
 10
-1.113268
 20
3.602850
  0
VERTEX
  8
PLAN_1
 62
     2
  6
CONTINUOUS
 10
-1.114185
 20
3.604685
  0
VERTEX
  8
PLAN_1
 62
     2
  6
CONTINUOUS
 10
-1.115559
 20
3.606520
  0
VERTEX
  8
PLAN_1
 62
     2
  6
CONTINUOUS
 10
-1.116020
 20
3.609272
  0
VERTEX
  8
PLAN_1
 62
     2
  6
CONTINUOUS
 10
-1.116937
 20
3.611567
  0
VERTEX
  8
PLAN_1
 62
     2
  6
CONTINUOUS
 10
-1.117394
 20
3.614780
  0
VERTEX
  8
PLAN_1
 62
     2
  6
CONTINUOUS
 10
-1.107760
 20
3.614780
  0
VERTEX
  8
PLAN_1
 62
     2
  6
CONTINUOUS
 10
-1.107303
 20
3.611567
  0
VERTEX
  8
PLAN_1
 62
     2
  6
CONTINUOUS
 10
-1.106382
 20
3.609272
  0
VERTEX
  8
PLAN_1
 62
     2
  6
CONTINUOUS
 10
-1.104547
 20
3.606980
  0
VERTEX
  8
PLAN_1
 62
     2
  6
CONTINUOUS
 10
-1.102713
 20
3.605146
  0
VERTEX
  8
PLAN_1
 62
     2
  6
CONTINUOUS
 10
-1.100878
 20
3.603768
  0
VERTEX
  8
PLAN_1
 62
     2
  6
CONTINUOUS
 10
-1.098126
 20
3.602850
  0
VERTEX
  8
PLAN_1
 62
     2
  6
CONTINUOUS
 10
-1.095374
 20
3.602390
  0
VERTEX
  8
PLAN_1
 62
     2
  6
CONTINUOUS
 10
-1.092618
 20
3.602390
  0
VERTEX
  8
PLAN_1
 62
     2
  6
CONTINUOUS
 10
-1.088949
 20
3.602850
  0
VERTEX
  8
PLAN_1
 62
     2
  6
CONTINUOUS
 10
-1.086197
 20
3.603768
  0
VERTEX
  8
PLAN_1
 62
     2
  6
CONTINUOUS
 10
-1.083445
 20
3.605146
  0
VERTEX
  8
PLAN_1
 62
     2
  6
CONTINUOUS
 10
-1.081150
 20
3.607437
  0
VERTEX
  8
PLAN_1
 62
     2
  6
CONTINUOUS
 10
-1.079315
 20
3.609732
  0
VERTEX
  8
PLAN_1
 62
     2
  6
CONTINUOUS
 10
-1.077937
 20
3.612484
  0
VERTEX
  8
PLAN_1
 62
     2
  6
CONTINUOUS
 10
-1.077480
 20
3.615697
  0
VERTEX
  8
PLAN_1
 62
     2
  6
CONTINUOUS
 10
-1.077020
 20
3.618909
  0
VERTEX
  8
PLAN_1
 62
     2
  6
CONTINUOUS
 10
-1.077480
 20
3.622579
  0
VERTEX
  8
PLAN_1
 62
     2
  6
CONTINUOUS
 10
-1.078398
 20
3.626248
  0
VERTEX
  8
PLAN_1
 62
     2
  6
CONTINUOUS
 10
-1.079772
 20
3.629000
  0
VERTEX
  8
PLAN_1
 62
     2
  6
CONTINUOUS
 10
-1.081610
 20
3.631295
  0
VERTEX
  8
PLAN_1
 62
     2
  6
CONTINUOUS
 10
-1.083902
 20
3.633130
  0
VERTEX
  8
PLAN_1
 62
     2
  6
CONTINUOUS
 10
-1.086654
 20
3.634047
  0
VERTEX
  8
PLAN_1
 62
     2
  6
CONTINUOUS
 10
-1.089866
 20
3.634965
  0
VERTEX
  8
PLAN_1
 62
     2
  6
CONTINUOUS
 10
-1.093079
 20
3.635425
  0
VERTEX
  8
PLAN_1
 62
     2
  6
CONTINUOUS
 10
-1.095374
 20
3.635425
  0
VERTEX
  8
PLAN_1
 62
     2
  6
CONTINUOUS
 10
-1.097209
 20
3.634965
  0
VERTEX
  8
PLAN_1
 62
     2
  6
CONTINUOUS
 10
-1.099043
 20
3.634508
  0
VERTEX
  8
PLAN_1
 62
     2
  6
CONTINUOUS
 10
-1.100878
 20
3.633591
  0
VERTEX
  8
PLAN_1
 62
     2
  6
CONTINUOUS
 10
-1.102256
 20
3.632673
  0
VERTEX
  8
PLAN_1
 62
     2
  6
CONTINUOUS
 10
-1.104091
 20
3.631295
  0
VERTEX
  8
PLAN_1
 62
     2
  6
CONTINUOUS
 10
-1.105465
 20
3.629921
  0
VERTEX
  8
PLAN_1
 62
     2
  6
CONTINUOUS
 10
-1.106843
 20
3.628543
  0
VERTEX
  8
PLAN_1
 62
     2
  6
CONTINUOUS
 10
-1.114642
 20
3.629000
  0
VERTEX
  8
PLAN_1
 62
     2
  6
CONTINUOUS
 10
-1.109138
 20
3.668000
  0
VERTEX
  8
PLAN_1
 62
     2
  6
CONTINUOUS
 10
-1.071055
 20
3.668000
  0
VERTEX
  8
PLAN_1
 62
     2
  6
CONTINUOUS
 10
-1.071055
 20
3.658823
  0
VERTEX
  8
PLAN_1
 62
     2
  6
CONTINUOUS
 10
-1.102256
 20
3.658823
  0
VERTEX
  8
PLAN_1
 62
     2
  6
CONTINUOUS
 10
-1.105465
 20
3.639094
  0
SEQEND
  8
0
  0
POLYLINE
  8
PLAN_1
 62
     2
  6
CONTINUOUS
 66
     1
 40
0.003000
 41
0.003000
  0
VERTEX
  8
PLAN_1
 62
     2
  6
CONTINUOUS
 10
-1.047657
 20
3.639094
  0
VERTEX
  8
PLAN_1
 62
     2
  6
CONTINUOUS
 10
-1.046280
 20
3.640012
  0
VERTEX
  8
PLAN_1
 62
     2
  6
CONTINUOUS
 10
-1.044906
 20
3.640472
  0
VERTEX
  8
PLAN_1
 62
     2
  6
CONTINUOUS
 10
-1.043528
 20
3.641390
  0
VERTEX
  8
PLAN_1
 62
     2
  6
CONTINUOUS
 10
-1.041693
 20
3.642307
  0
VERTEX
  8
PLAN_1
 62
     2
  6
CONTINUOUS
 10
-1.039858
 20
3.642768
  0
VERTEX
  8
PLAN_1
 62
     2
  6
CONTINUOUS
 10
-1.038024
 20
3.643224
  0
VERTEX
  8
PLAN_1
 62
     2
  6
CONTINUOUS
 10
-1.035728
 20
3.643224
  0
VERTEX
  8
PLAN_1
 62
     2
  6
CONTINUOUS
 10
-1.033433
 20
3.643685
  0
VERTEX
  8
PLAN_1
 62
     2
  6
CONTINUOUS
 10
-1.028846
 20
3.643224
  0
VERTEX
  8
PLAN_1
 62
     2
  6
CONTINUOUS
 10
-1.024717
 20
3.641846
  0
VERTEX
  8
PLAN_1
 62
     2
  6
CONTINUOUS
 10
-1.020587
 20
3.640012
  0
VERTEX
  8
PLAN_1
 62
     2
  6
CONTINUOUS
 10
-1.016917
 20
3.637720
  0
VERTEX
  8
PLAN_1
 62
     2
  6
CONTINUOUS
 10
-1.015083
 20
3.635882
  0
VERTEX
  8
PLAN_1
 62
     2
  6
CONTINUOUS
 10
-1.013705
 20
3.634047
  0
VERTEX
  8
PLAN_1
 62
     2
  6
CONTINUOUS
 10
-1.012331
 20
3.632213
  0
VERTEX
  8
PLAN_1
 62
     2
  6
CONTINUOUS
 10
-1.011413
 20
3.630378
  0
VERTEX
  8
PLAN_1
 62
     2
  6
CONTINUOUS
 10
-1.010496
 20
3.628083
  0
VERTEX
  8
PLAN_1
 62
     2
  6
CONTINUOUS
 10
-1.010035
 20
3.625331
  0
VERTEX
  8
PLAN_1
 62
     2
  6
CONTINUOUS
 10
-1.009575
 20
3.623035
  0
VERTEX
  8
PLAN_1
 62
     2
  6
CONTINUOUS
 10
-1.009118
 20
3.620283
  0
VERTEX
  8
PLAN_1
 62
     2
  6
CONTINUOUS
 10
-1.009575
 20
3.616614
  0
VERTEX
  8
PLAN_1
 62
     2
  6
CONTINUOUS
 10
-1.010035
 20
3.612484
  0
VERTEX
  8
PLAN_1
 62
     2
  6
CONTINUOUS
 10
-1.011870
 20
3.608354
  0
VERTEX
  8
PLAN_1
 62
     2
  6
CONTINUOUS
 10
-1.014165
 20
3.604228
  0
VERTEX
  8
PLAN_1
 62
     2
  6
CONTINUOUS
 10
-1.015539
 20
3.602390
  0
VERTEX
  8
PLAN_1
 62
     2
  6
CONTINUOUS
 10
-1.017378
 20
3.600555
  0
VERTEX
  8
PLAN_1
 62
     2
  6
CONTINUOUS
 10
-1.019669
 20
3.598720
  0
VERTEX
  8
PLAN_1
 62
     2
  6
CONTINUOUS
 10
-1.021965
 20
3.597343
  0
VERTEX
  8
PLAN_1
 62
     2
  6
CONTINUOUS
 10
-1.024717
 20
3.595969
  0
VERTEX
  8
PLAN_1
 62
     2
  6
CONTINUOUS
 10
-1.027929
 20
3.595051
  0
VERTEX
  8
PLAN_1
 62
     2
  6
CONTINUOUS
 10
-1.031598
 20
3.594591
  0
VERTEX
  8
PLAN_1
 62
     2
  6
CONTINUOUS
 10
-1.035728
 20
3.594591
  0
VERTEX
  8
PLAN_1
 62
     2
  6
CONTINUOUS
 10
-1.039398
 20
3.594591
  0
VERTEX
  8
PLAN_1
 62
     2
  6
CONTINUOUS
 10
-1.043528
 20
3.595508
  0
VERTEX
  8
PLAN_1
 62
     2
  6
CONTINUOUS
 10
-1.047197
 20
3.596425
  0
VERTEX
  8
PLAN_1
 62
     2
  6
CONTINUOUS
 10
-1.050409
 20
3.598264
  0
VERTEX
  8
PLAN_1
 62
     2
  6
CONTINUOUS
 10
-1.052244
 20
3.599638
  0
VERTEX
  8
PLAN_1
 62
     2
  6
CONTINUOUS
 10
-1.053622
 20
3.601016
  0
VERTEX
  8
PLAN_1
 62
     2
  6
CONTINUOUS
 10
-1.054996
 20
3.602850
  0
VERTEX
  8
PLAN_1
 62
     2
  6
CONTINUOUS
 10
-1.056374
 20
3.604685
  0
VERTEX
  8
PLAN_1
 62
     2
  6
CONTINUOUS
 10
-1.057291
 20
3.606520
  0
VERTEX
  8
PLAN_1
 62
     2
  6
CONTINUOUS
 10
-1.058209
 20
3.609272
  0
VERTEX
  8
PLAN_1
 62
     2
  6
CONTINUOUS
 10
-1.059126
 20
3.611567
  0
VERTEX
  8
PLAN_1
 62
     2
  6
CONTINUOUS
 10
-1.059587
 20
3.614780
  0
VERTEX
  8
PLAN_1
 62
     2
  6
CONTINUOUS
 10
-1.049953
 20
3.614780
  0
VERTEX
  8
PLAN_1
 62
     2
  6
CONTINUOUS
 10
-1.049492
 20
3.611567
  0
VERTEX
  8
PLAN_1
 62
     2
  6
CONTINUOUS
 10
-1.048114
 20
3.609272
  0
VERTEX
  8
PLAN_1
 62
     2
  6
CONTINUOUS
 10
-1.046740
 20
3.606980
  0
VERTEX
  8
PLAN_1
 62
     2
  6
CONTINUOUS
 10
-1.044906
 20
3.605146
  0
VERTEX
  8
PLAN_1
 62
     2
  6
CONTINUOUS
 10
-1.042610
 20
3.603768
  0
VERTEX
  8
PLAN_1
 62
     2
  6
CONTINUOUS
 10
-1.040315
 20
3.602850
  0
VERTEX
  8
PLAN_1
 62
     2
  6
CONTINUOUS
 10
-1.037563
 20
3.602390
  0
VERTEX
  8
PLAN_1
 62
     2
  6
CONTINUOUS
 10
-1.034350
 20
3.602390
  0
VERTEX
  8
PLAN_1
 62
     2
  6
CONTINUOUS
 10
-1.031142
 20
3.602850
  0
VERTEX
  8
PLAN_1
 62
     2
  6
CONTINUOUS
 10
-1.027929
 20
3.603768
  0
VERTEX
  8
PLAN_1
 62
     2
  6
CONTINUOUS
 10
-1.025634
 20
3.605146
  0
VERTEX
  8
PLAN_1
 62
     2
  6
CONTINUOUS
 10
-1.023343
 20
3.607437
  0
VERTEX
  8
PLAN_1
 62
     2
  6
CONTINUOUS
 10
-1.021504
 20
3.609732
  0
VERTEX
  8
PLAN_1
 62
     2
  6
CONTINUOUS
 10
-1.020130
 20
3.612484
  0
VERTEX
  8
PLAN_1
 62
     2
  6
CONTINUOUS
 10
-1.019213
 20
3.615697
  0
VERTEX
  8
PLAN_1
 62
     2
  6
CONTINUOUS
 10
-1.019213
 20
3.618909
  0
VERTEX
  8
PLAN_1
 62
     2
  6
CONTINUOUS
 10
-1.019213
 20
3.622579
  0
VERTEX
  8
PLAN_1
 62
     2
  6
CONTINUOUS
 10
-1.020587
 20
3.626248
  0
VERTEX
  8
PLAN_1
 62
     2
  6
CONTINUOUS
 10
-1.021965
 20
3.629000
  0
VERTEX
  8
PLAN_1
 62
     2
  6
CONTINUOUS
 10
-1.023799
 20
3.631295
  0
VERTEX
  8
PLAN_1
 62
     2
  6
CONTINUOUS
 10
-1.026094
 20
3.633130
  0
VERTEX
  8
PLAN_1
 62
     2
  6
CONTINUOUS
 10
-1.028846
 20
3.634047
  0
VERTEX
  8
PLAN_1
 62
     2
  6
CONTINUOUS
 10
-1.032059
 20
3.634965
  0
VERTEX
  8
PLAN_1
 62
     2
  6
CONTINUOUS
 10
-1.035268
 20
3.635425
  0
VERTEX
  8
PLAN_1
 62
     2
  6
CONTINUOUS
 10
-1.037106
 20
3.635425
  0
VERTEX
  8
PLAN_1
 62
     2
  6
CONTINUOUS
 10
-1.039398
 20
3.634965
  0
VERTEX
  8
PLAN_1
 62
     2
  6
CONTINUOUS
 10
-1.041232
 20
3.634508
  0
VERTEX
  8
PLAN_1
 62
     2
  6
CONTINUOUS
 10
-1.042610
 20
3.633591
  0
VERTEX
  8
PLAN_1
 62
     2
  6
CONTINUOUS
 10
-1.044445
 20
3.632673
  0
VERTEX
  8
PLAN_1
 62
     2
  6
CONTINUOUS
 10
-1.045823
 20
3.631295
  0
VERTEX
  8
PLAN_1
 62
     2
  6
CONTINUOUS
 10
-1.047657
 20
3.629921
  0
VERTEX
  8
PLAN_1
 62
     2
  6
CONTINUOUS
 10
-1.049035
 20
3.628543
  0
VERTEX
  8
PLAN_1
 62
     2
  6
CONTINUOUS
 10
-1.056835
 20
3.629000
  0
VERTEX
  8
PLAN_1
 62
     2
  6
CONTINUOUS
 10
-1.051327
 20
3.668000
  0
VERTEX
  8
PLAN_1
 62
     2
  6
CONTINUOUS
 10
-1.013248
 20
3.668000
  0
VERTEX
  8
PLAN_1
 62
     2
  6
CONTINUOUS
 10
-1.013248
 20
3.658823
  0
VERTEX
  8
PLAN_1
 62
     2
  6
CONTINUOUS
 10
-1.044445
 20
3.658823
  0
VERTEX
  8
PLAN_1
 62
     2
  6
CONTINUOUS
 10
-1.047657
 20
3.639094
  0
SEQEND
  8
0
  0
POLYLINE
  8
PLAN_1
 62
     2
  6
CONTINUOUS
 66
     1
 40
0.004126
 41
0.004126
  0
VERTEX
  8
PLAN_1
 62
     2
  6
CONTINUOUS
 10
-1.431217
 20
3.415201
  0
VERTEX
  8
PLAN_1
 62
     2
  6
CONTINUOUS
 10
-0.148406
 20
3.415201
  0
SEQEND
  8
0
  0
SOLID
  8
PLAN_1
 62
     2
 10
-0.119043
 20
3.415201
 11
-0.177768
 21
3.431260
 12
-0.119043
 22
3.415201
 13
-0.177768
 23
3.399602
  0
POLYLINE
  8
PLAN_1
 62
     2
  6
CONTINUOUS
 66
     1
 40
0.003000
 41
0.003000
  0
VERTEX
  8
PLAN_1
 62
     2
  6
CONTINUOUS
 10
-0.119043
 20
3.415201
  0
VERTEX
  8
PLAN_1
 62
     2
  6
CONTINUOUS
 10
-0.177768
 20
3.431260
  0
VERTEX
  8
PLAN_1
 62
     2
  6
CONTINUOUS
 10
-0.177768
 20
3.399602
  0
VERTEX
  8
PLAN_1
 62
     2
  6
CONTINUOUS
 10
-0.119043
 20
3.415201
  0
SEQEND
  8
0
  0
SOLID
  8
PLAN_1
 62
     2
 10
-1.460579
 20
3.415201
 11
-1.401394
 21
3.431260
 12
-1.460579
 22
3.415201
 13
-1.401394
 23
3.399602
  0
POLYLINE
  8
PLAN_1
 62
     2
  6
CONTINUOUS
 66
     1
 40
0.003000
 41
0.003000
  0
VERTEX
  8
PLAN_1
 62
     2
  6
CONTINUOUS
 10
-1.460579
 20
3.415201
  0
VERTEX
  8
PLAN_1
 62
     2
  6
CONTINUOUS
 10
-1.401394
 20
3.431260
  0
VERTEX
  8
PLAN_1
 62
     2
  6
CONTINUOUS
 10
-1.401394
 20
3.399602
  0
VERTEX
  8
PLAN_1
 62
     2
  6
CONTINUOUS
 10
-1.460579
 20
3.415201
  0
SEQEND
  8
0
  0
POLYLINE
  8
PLAN_1
 62
     2
  6
CONTINUOUS
 66
     1
 40
0.003000
 41
0.003000
  0
VERTEX
  8
PLAN_1
 62
     2
  6
CONTINUOUS
 10
-0.824220
 20
3.480807
  0
VERTEX
  8
PLAN_1
 62
     2
  6
CONTINUOUS
 10
-0.823760
 20
3.480350
  0
VERTEX
  8
PLAN_1
 62
     2
  6
CONTINUOUS
 10
-0.823303
 20
3.480350
  0
VERTEX
  8
PLAN_1
 62
     2
  6
CONTINUOUS
 10
-0.822386
 20
3.480350
  0
VERTEX
  8
PLAN_1
 62
     2
  6
CONTINUOUS
 10
-0.821925
 20
3.480350
  0
VERTEX
  8
PLAN_1
 62
     2
  6
CONTINUOUS
 10
-0.821469
 20
3.480350
  0
VERTEX
  8
PLAN_1
 62
     2
  6
CONTINUOUS
 10
-0.820551
 20
3.480350
  0
VERTEX
  8
PLAN_1
 62
     2
  6
CONTINUOUS
 10
-0.820091
 20
3.480350
  0
VERTEX
  8
PLAN_1
 62
     2
  6
CONTINUOUS
 10
-0.819634
 20
3.480350
  0
VERTEX
  8
PLAN_1
 62
     2
  6
CONTINUOUS
 10
-0.816878
 20
3.480350
  0
VERTEX
  8
PLAN_1
 62
     2
  6
CONTINUOUS
 10
-0.814587
 20
3.480807
  0
VERTEX
  8
PLAN_1
 62
     2
  6
CONTINUOUS
 10
-0.811835
 20
3.481724
  0
VERTEX
  8
PLAN_1
 62
     2
  6
CONTINUOUS
 10
-0.809996
 20
3.483102
  0
VERTEX
  8
PLAN_1
 62
     2
  6
CONTINUOUS
 10
-0.808161
 20
3.484480
  0
VERTEX
  8
PLAN_1
 62
     2
  6
CONTINUOUS
 10
-0.806787
 20
3.486772
  0
VERTEX
  8
PLAN_1
 62
     2
  6
CONTINUOUS
 10
-0.805870
 20
3.489067
  0
VERTEX
  8
PLAN_1
 62
     2
  6
CONTINUOUS
 10
-0.805409
 20
3.492280
  0
VERTEX
  8
PLAN_1
 62
     2
  6
CONTINUOUS
 10
-0.805870
 20
3.494114
  0
VERTEX
  8
PLAN_1
 62
     2
  6
CONTINUOUS
 10
-0.806327
 20
3.495949
  0
VERTEX
  8
PLAN_1
 62
     2
  6
CONTINUOUS
 10
-0.806787
 20
3.497783
  0
VERTEX
  8
PLAN_1
 62
     2
  6
CONTINUOUS
 10
-0.808161
 20
3.499618
  0
VERTEX
  8
PLAN_1
 62
     2
  6
CONTINUOUS
 10
-0.809996
 20
3.501457
  0
VERTEX
  8
PLAN_1
 62
     2
  6
CONTINUOUS
 10
-0.812291
 20
3.502831
  0
VERTEX
  8
PLAN_1
 62
     2
  6
CONTINUOUS
 10
-0.815504
 20
3.503748
  0
VERTEX
  8
PLAN_1
 62
     2
  6
CONTINUOUS
 10
-0.819173
 20
3.503748
  0
VERTEX
  8
PLAN_1
 62
     2
  6
CONTINUOUS
 10
-0.821469
 20
3.503748
  0
VERTEX
  8
PLAN_1
 62
     2
  6
CONTINUOUS
 10
-0.823303
 20
3.503291
  0
VERTEX
  8
PLAN_1
 62
     2
  6
CONTINUOUS
 10
-0.825138
 20
3.502831
  0
VERTEX
  8
PLAN_1
 62
     2
  6
CONTINUOUS
 10
-0.826972
 20
3.502374
  0
VERTEX
  8
PLAN_1
 62
     2
  6
CONTINUOUS
 10
-0.829268
 20
3.500079
  0
VERTEX
  8
PLAN_1
 62
     2
  6
CONTINUOUS
 10
-0.831102
 20
3.497783
  0
VERTEX
  8
PLAN_1
 62
     2
  6
CONTINUOUS
 10
-0.832020
 20
3.495492
  0
VERTEX
  8
PLAN_1
 62
     2
  6
CONTINUOUS
 10
-0.832937
 20
3.492736
  0
VERTEX
  8
PLAN_1
 62
     2
  6
CONTINUOUS
 10
-0.833398
 20
3.490445
  0
VERTEX
  8
PLAN_1
 62
     2
  6
CONTINUOUS
 10
-0.833398
 20
3.488150
  0
VERTEX
  8
PLAN_1
 62
     2
  6
CONTINUOUS
 10
-0.842114
 20
3.488150
  0
VERTEX
  8
PLAN_1
 62
     2
  6
CONTINUOUS
 10
-0.842114
 20
3.492280
  0
VERTEX
  8
PLAN_1
 62
     2
  6
CONTINUOUS
 10
-0.841197
 20
3.496409
  0
VERTEX
  8
PLAN_1
 62
     2
  6
CONTINUOUS
 10
-0.839819
 20
3.500535
  0
VERTEX
  8
PLAN_1
 62
     2
  6
CONTINUOUS
 10
-0.837528
 20
3.504209
  0
VERTEX
  8
PLAN_1
 62
     2
  6
CONTINUOUS
 10
-0.836150
 20
3.506043
  0
VERTEX
  8
PLAN_1
 62
     2
  6
CONTINUOUS
 10
-0.834772
 20
3.507417
  0
VERTEX
  8
PLAN_1
 62
     2
  6
CONTINUOUS
 10
-0.832937
 20
3.508795
  0
VERTEX
  8
PLAN_1
 62
     2
  6
CONTINUOUS
 10
-0.830642
 20
3.509713
  0
VERTEX
  8
PLAN_1
 62
     2
  6
CONTINUOUS
 10
-0.827890
 20
3.510630
  0
VERTEX
  8
PLAN_1
 62
     2
  6
CONTINUOUS
 10
-0.825138
 20
3.511547
  0
VERTEX
  8
PLAN_1
 62
     2
  6
CONTINUOUS
 10
-0.821925
 20
3.512008
  0
VERTEX
  8
PLAN_1
 62
     2
  6
CONTINUOUS
 10
-0.818717
 20
3.512008
  0
VERTEX
  8
PLAN_1
 62
     2
  6
CONTINUOUS
 10
-0.813669
 20
3.511547
  0
VERTEX
  8
PLAN_1
 62
     2
  6
CONTINUOUS
 10
-0.809079
 20
3.510630
  0
VERTEX
  8
PLAN_1
 62
     2
  6
CONTINUOUS
 10
-0.805409
 20
3.508795
  0
VERTEX
  8
PLAN_1
 62
     2
  6
CONTINUOUS
 10
-0.802197
 20
3.506500
  0
VERTEX
  8
PLAN_1
 62
     2
  6
CONTINUOUS
 10
-0.799445
 20
3.503748
  0
VERTEX
  8
PLAN_1
 62
     2
  6
CONTINUOUS
 10
-0.797610
 20
3.500535
  0
VERTEX
  8
PLAN_1
 62
     2
  6
CONTINUOUS
 10
-0.796693
 20
3.496866
  0
VERTEX
  8
PLAN_1
 62
     2
  6
CONTINUOUS
 10
-0.796232
 20
3.492736
  0
VERTEX
  8
PLAN_1
 62
     2
  6
CONTINUOUS
 10
-0.796232
 20
3.489528
  0
VERTEX
  8
PLAN_1
 62
     2
  6
CONTINUOUS
 10
-0.797150
 20
3.486772
  0
VERTEX
  8
PLAN_1
 62
     2
  6
CONTINUOUS
 10
-0.798067
 20
3.484480
  0
VERTEX
  8
PLAN_1
 62
     2
  6
CONTINUOUS
 10
-0.799445
 20
3.482185
  0
VERTEX
  8
PLAN_1
 62
     2
  6
CONTINUOUS
 10
-0.800823
 20
3.480807
  0
VERTEX
  8
PLAN_1
 62
     2
  6
CONTINUOUS
 10
-0.802197
 20
3.479433
  0
VERTEX
  8
PLAN_1
 62
     2
  6
CONTINUOUS
 10
-0.804031
 20
3.478516
  0
VERTEX
  8
PLAN_1
 62
     2
  6
CONTINUOUS
 10
-0.805409
 20
3.477598
  0
VERTEX
  8
PLAN_1
 62
     2
  6
CONTINUOUS
 10
-0.803114
 20
3.476681
  0
VERTEX
  8
PLAN_1
 62
     2
  6
CONTINUOUS
 10
-0.800823
 20
3.475303
  0
VERTEX
  8
PLAN_1
 62
     2
  6
CONTINUOUS
 10
-0.798528
 20
3.473925
  0
VERTEX
  8
PLAN_1
 62
     2
  6
CONTINUOUS
 10
-0.796693
 20
3.471634
  0
VERTEX
  8
PLAN_1
 62
     2
  6
CONTINUOUS
 10
-0.795315
 20
3.469799
  0
VERTEX
  8
PLAN_1
 62
     2
  6
CONTINUOUS
 10
-0.794398
 20
3.467043
  0
VERTEX
  8
PLAN_1
 62
     2
  6
CONTINUOUS
 10
-0.793480
 20
3.463835
  0
VERTEX
  8
PLAN_1
 62
     2
  6
CONTINUOUS
 10
-0.793480
 20
3.460622
  0
VERTEX
  8
PLAN_1
 62
     2
  6
CONTINUOUS
 10
-0.793480
 20
3.456031
  0
VERTEX
  8
PLAN_1
 62
     2
  6
CONTINUOUS
 10
-0.794858
 20
3.451906
  0
VERTEX
  8
PLAN_1
 62
     2
  6
CONTINUOUS
 10
-0.795776
 20
3.449610
  0
VERTEX
  8
PLAN_1
 62
     2
  6
CONTINUOUS
 10
-0.796693
 20
3.447776
  0
VERTEX
  8
PLAN_1
 62
     2
  6
CONTINUOUS
 10
-0.798067
 20
3.445941
  0
VERTEX
  8
PLAN_1
 62
     2
  6
CONTINUOUS
 10
-0.799445
 20
3.444106
  0
VERTEX
  8
PLAN_1
 62
     2
  6
CONTINUOUS
 10
-0.801280
 20
3.442728
  0
VERTEX
  8
PLAN_1
 62
     2
  6
CONTINUOUS
 10
-0.803114
 20
3.441350
  0
VERTEX
  8
PLAN_1
 62
     2
  6
CONTINUOUS
 10
-0.805409
 20
3.439976
  0
VERTEX
  8
PLAN_1
 62
     2
  6
CONTINUOUS
 10
-0.807705
 20
3.439059
  0
VERTEX
  8
PLAN_1
 62
     2
  6
CONTINUOUS
 10
-0.810457
 20
3.438142
  0
VERTEX
  8
PLAN_1
 62
     2
  6
CONTINUOUS
 10
-0.813209
 20
3.437681
  0
VERTEX
  8
PLAN_1
 62
     2
  6
CONTINUOUS
 10
-0.816421
 20
3.437224
  0
VERTEX
  8
PLAN_1
 62
     2
  6
CONTINUOUS
 10
-0.819634
 20
3.436764
  0
VERTEX
  8
PLAN_1
 62
     2
  6
CONTINUOUS
 10
-0.821469
 20
3.437224
  0
VERTEX
  8
PLAN_1
 62
     2
  6
CONTINUOUS
 10
-0.823760
 20
3.437224
  0
VERTEX
  8
PLAN_1
 62
     2
  6
CONTINUOUS
 10
-0.825598
 20
3.437681
  0
VERTEX
  8
PLAN_1
 62
     2
  6
CONTINUOUS
 10
-0.826972
 20
3.437681
  0
VERTEX
  8
PLAN_1
 62
     2
  6
CONTINUOUS
 10
-0.828807
 20
3.438142
  0
VERTEX
  8
PLAN_1
 62
     2
  6
CONTINUOUS
 10
-0.830185
 20
3.439059
  0
VERTEX
  8
PLAN_1
 62
     2
  6
CONTINUOUS
 10
-0.832020
 20
3.439516
  0
VERTEX
  8
PLAN_1
 62
     2
  6
CONTINUOUS
 10
-0.833398
 20
3.440433
  0
VERTEX
  8
PLAN_1
 62
     2
  6
CONTINUOUS
 10
-0.836150
 20
3.441811
  0
VERTEX
  8
PLAN_1
 62
     2
  6
CONTINUOUS
 10
-0.838445
 20
3.444106
  0
VERTEX
  8
PLAN_1
 62
     2
  6
CONTINUOUS
 10
-0.839819
 20
3.446398
  0
VERTEX
  8
PLAN_1
 62
     2
  6
CONTINUOUS
 10
-0.841654
 20
3.449150
  0
VERTEX
  8
PLAN_1
 62
     2
  6
CONTINUOUS
 10
-0.842571
 20
3.451906
  0
VERTEX
  8
PLAN_1
 62
     2
  6
CONTINUOUS
 10
-0.843488
 20
3.455114
  0
VERTEX
  8
PLAN_1
 62
     2
  6
CONTINUOUS
 10
-0.843949
 20
3.458327
  0
VERTEX
  8
PLAN_1
 62
     2
  6
CONTINUOUS
 10
-0.843949
 20
3.461539
  0
VERTEX
  8
PLAN_1
 62
     2
  6
CONTINUOUS
 10
-0.834772
 20
3.461539
  0
VERTEX
  8
PLAN_1
 62
     2
  6
CONTINUOUS
 10
-0.834315
 20
3.458787
  0
VERTEX
  8
PLAN_1
 62
     2
  6
CONTINUOUS
 10
-0.833854
 20
3.456031
  0
VERTEX
  8
PLAN_1
 62
     2
  6
CONTINUOUS
 10
-0.832937
 20
3.453280
  0
VERTEX
  8
PLAN_1
 62
     2
  6
CONTINUOUS
 10
-0.832020
 20
3.450528
  0
VERTEX
  8
PLAN_1
 62
     2
  6
CONTINUOUS
 10
-0.829724
 20
3.448693
  0
VERTEX
  8
PLAN_1
 62
     2
  6
CONTINUOUS
 10
-0.826972
 20
3.446858
  0
VERTEX
  8
PLAN_1
 62
     2
  6
CONTINUOUS
 10
-0.823760
 20
3.445480
  0
VERTEX
  8
PLAN_1
 62
     2
  6
CONTINUOUS
 10
-0.819173
 20
3.445024
  0
VERTEX
  8
PLAN_1
 62
     2
  6
CONTINUOUS
 10
-0.815504
 20
3.445480
  0
VERTEX
  8
PLAN_1
 62
     2
  6
CONTINUOUS
 10
-0.812752
 20
3.446398
  0
VERTEX
  8
PLAN_1
 62
     2
  6
CONTINUOUS
 10
-0.809996
 20
3.447315
  0
VERTEX
  8
PLAN_1
 62
     2
  6
CONTINUOUS
 10
-0.807705
 20
3.449150
  0
VERTEX
  8
PLAN_1
 62
     2
  6
CONTINUOUS
 10
-0.805870
 20
3.450988
  0
VERTEX
  8
PLAN_1
 62
     2
  6
CONTINUOUS
 10
-0.804492
 20
3.453740
  0
VERTEX
  8
PLAN_1
 62
     2
  6
CONTINUOUS
 10
-0.803575
 20
3.456492
  0
VERTEX
  8
PLAN_1
 62
     2
  6
CONTINUOUS
 10
-0.803114
 20
3.459244
  0
VERTEX
  8
PLAN_1
 62
     2
  6
CONTINUOUS
 10
-0.803114
 20
3.461539
  0
VERTEX
  8
PLAN_1
 62
     2
  6
CONTINUOUS
 10
-0.803575
 20
3.463374
  0
VERTEX
  8
PLAN_1
 62
     2
  6
CONTINUOUS
 10
-0.804031
 20
3.465209
  0
VERTEX
  8
PLAN_1
 62
     2
  6
CONTINUOUS
 10
-0.804949
 20
3.466587
  0
VERTEX
  8
PLAN_1
 62
     2
  6
CONTINUOUS
 10
-0.806787
 20
3.468878
  0
VERTEX
  8
PLAN_1
 62
     2
  6
CONTINUOUS
 10
-0.809079
 20
3.470717
  0
VERTEX
  8
PLAN_1
 62
     2
  6
CONTINUOUS
 10
-0.811835
 20
3.471634
  0
VERTEX
  8
PLAN_1
 62
     2
  6
CONTINUOUS
 10
-0.815043
 20
3.472551
  0
VERTEX
  8
PLAN_1
 62
     2
  6
CONTINUOUS
 10
-0.817795
 20
3.472551
  0
VERTEX
  8
PLAN_1
 62
     2
  6
CONTINUOUS
 10
-0.820091
 20
3.472551
  0
VERTEX
  8
PLAN_1
 62
     2
  6
CONTINUOUS
 10
-0.820551
 20
3.472551
  0
VERTEX
  8
PLAN_1
 62
     2
  6
CONTINUOUS
 10
-0.821008
 20
3.472551
  0
VERTEX
  8
PLAN_1
 62
     2
  6
CONTINUOUS
 10
-0.821925
 20
3.472551
  0
VERTEX
  8
PLAN_1
 62
     2
  6
CONTINUOUS
 10
-0.822386
 20
3.472551
  0
VERTEX
  8
PLAN_1
 62
     2
  6
CONTINUOUS
 10
-0.822843
 20
3.472551
  0
VERTEX
  8
PLAN_1
 62
     2
  6
CONTINUOUS
 10
-0.823303
 20
3.472551
  0
VERTEX
  8
PLAN_1
 62
     2
  6
CONTINUOUS
 10
-0.823760
 20
3.472551
  0
VERTEX
  8
PLAN_1
 62
     2
  6
CONTINUOUS
 10
-0.824220
 20
3.472551
  0
VERTEX
  8
PLAN_1
 62
     2
  6
CONTINUOUS
 10
-0.824220
 20
3.480807
  0
SEQEND
  8
0
  0
POLYLINE
  8
PLAN_1
 62
     2
  6
CONTINUOUS
 66
     1
 40
0.003000
 41
0.003000
  0
VERTEX
  8
PLAN_1
 62
     2
  6
CONTINUOUS
 10
-0.785220
 20
3.487232
  0
VERTEX
  8
PLAN_1
 62
     2
  6
CONTINUOUS
 10
-0.784764
 20
3.491819
  0
VERTEX
  8
PLAN_1
 62
     2
  6
CONTINUOUS
 10
-0.783846
 20
3.496409
  0
VERTEX
  8
PLAN_1
 62
     2
  6
CONTINUOUS
 10
-0.782012
 20
3.500996
  0
VERTEX
  8
PLAN_1
 62
     2
  6
CONTINUOUS
 10
-0.779256
 20
3.504665
  0
VERTEX
  8
PLAN_1
 62
     2
  6
CONTINUOUS
 10
-0.777882
 20
3.506043
  0
VERTEX
  8
PLAN_1
 62
     2
  6
CONTINUOUS
 10
-0.776047
 20
3.507878
  0
VERTEX
  8
PLAN_1
 62
     2
  6
CONTINUOUS
 10
-0.774213
 20
3.508795
  0
VERTEX
  8
PLAN_1
 62
     2
  6
CONTINUOUS
 10
-0.771917
 20
3.510173
  0
VERTEX
  8
PLAN_1
 62
     2
  6
CONTINUOUS
 10
-0.769622
 20
3.511091
  0
VERTEX
  8
PLAN_1
 62
     2
  6
CONTINUOUS
 10
-0.767331
 20
3.511547
  0
VERTEX
  8
PLAN_1
 62
     2
  6
CONTINUOUS
 10
-0.764575
 20
3.512008
  0
VERTEX
  8
PLAN_1
 62
     2
  6
CONTINUOUS
 10
-0.761823
 20
3.512008
  0
VERTEX
  8
PLAN_1
 62
     2
  6
CONTINUOUS
 10
-0.757693
 20
3.512008
  0
VERTEX
  8
PLAN_1
 62
     2
  6
CONTINUOUS
 10
-0.754024
 20
3.511091
  0
VERTEX
  8
PLAN_1
 62
     2
  6
CONTINUOUS
 10
-0.750811
 20
3.510173
  0
VERTEX
  8
PLAN_1
 62
     2
  6
CONTINUOUS
 10
-0.748059
 20
3.508339
  0
VERTEX
  8
PLAN_1
 62
     2
  6
CONTINUOUS
 10
-0.745764
 20
3.506500
  0
VERTEX
  8
PLAN_1
 62
     2
  6
CONTINUOUS
 10
-0.743472
 20
3.504665
  0
VERTEX
  8
PLAN_1
 62
     2
  6
CONTINUOUS
 10
-0.741638
 20
3.501913
  0
VERTEX
  8
PLAN_1
 62
     2
  6
CONTINUOUS
 10
-0.740260
 20
3.499618
  0
VERTEX
  8
PLAN_1
 62
     2
  6
CONTINUOUS
 10
-0.738425
 20
3.494114
  0
VERTEX
  8
PLAN_1
 62
     2
  6
CONTINUOUS
 10
-0.737047
 20
3.488610
  0
VERTEX
  8
PLAN_1
 62
     2
  6
CONTINUOUS
 10
-0.736591
 20
3.483102
  0
VERTEX
  8
PLAN_1
 62
     2
  6
CONTINUOUS
 10
-0.736130
 20
3.478055
  0
VERTEX
  8
PLAN_1
 62
     2
  6
CONTINUOUS
 10
-0.736591
 20
3.474386
  0
VERTEX
  8
PLAN_1
 62
     2
  6
CONTINUOUS
 10
-0.737047
 20
3.468421
  0
VERTEX
  8
PLAN_1
 62
     2
  6
CONTINUOUS
 10
-0.737965
 20
3.461539
  0
VERTEX
  8
PLAN_1
 62
     2
  6
CONTINUOUS
 10
-0.740260
 20
3.454657
  0
VERTEX
  8
PLAN_1
 62
     2
  6
CONTINUOUS
 10
-0.741638
 20
3.451445
  0
VERTEX
  8
PLAN_1
 62
     2
  6
CONTINUOUS
 10
-0.743472
 20
3.447776
  0
VERTEX
  8
PLAN_1
 62
     2
  6
CONTINUOUS
 10
-0.745307
 20
3.445024
  0
VERTEX
  8
PLAN_1
 62
     2
  6
CONTINUOUS
 10
-0.748059
 20
3.442268
  0
VERTEX
  8
PLAN_1
 62
     2
  6
CONTINUOUS
 10
-0.750811
 20
3.439976
  0
VERTEX
  8
PLAN_1
 62
     2
  6
CONTINUOUS
 10
-0.754484
 20
3.438598
  0
VERTEX
  8
PLAN_1
 62
     2
  6
CONTINUOUS
 10
-0.758154
 20
3.437224
  0
VERTEX
  8
PLAN_1
 62
     2
  6
CONTINUOUS
 10
-0.762740
 20
3.436764
  0
VERTEX
  8
PLAN_1
 62
     2
  6
CONTINUOUS
 10
-0.765953
 20
3.437224
  0
VERTEX
  8
PLAN_1
 62
     2
  6
CONTINUOUS
 10
-0.768705
 20
3.437681
  0
VERTEX
  8
PLAN_1
 62
     2
  6
CONTINUOUS
 10
-0.771000
 20
3.438142
  0
VERTEX
  8
PLAN_1
 62
     2
  6
CONTINUOUS
 10
-0.773295
 20
3.439059
  0
VERTEX
  8
PLAN_1
 62
     2
  6
CONTINUOUS
 10
-0.775587
 20
3.439976
  0
VERTEX
  8
PLAN_1
 62
     2
  6
CONTINUOUS
 10
-0.777421
 20
3.441350
  0
VERTEX
  8
PLAN_1
 62
     2
  6
CONTINUOUS
 10
-0.778799
 20
3.442728
  0
VERTEX
  8
PLAN_1
 62
     2
  6
CONTINUOUS
 10
-0.780177
 20
3.444106
  0
VERTEX
  8
PLAN_1
 62
     2
  6
CONTINUOUS
 10
-0.782012
 20
3.447315
  0
VERTEX
  8
PLAN_1
 62
     2
  6
CONTINUOUS
 10
-0.783386
 20
3.450528
  0
VERTEX
  8
PLAN_1
 62
     2
  6
CONTINUOUS
 10
-0.784303
 20
3.453740
  0
VERTEX
  8
PLAN_1
 62
     2
  6
CONTINUOUS
 10
-0.784303
 20
3.456492
  0
VERTEX
  8
PLAN_1
 62
     2
  6
CONTINUOUS
 10
-0.775587
 20
3.456492
  0
VERTEX
  8
PLAN_1
 62
     2
  6
CONTINUOUS
 10
-0.775130
 20
3.453740
  0
VERTEX
  8
PLAN_1
 62
     2
  6
CONTINUOUS
 10
-0.774213
 20
3.451445
  0
VERTEX
  8
PLAN_1
 62
     2
  6
CONTINUOUS
 10
-0.773295
 20
3.449610
  0
VERTEX
  8
PLAN_1
 62
     2
  6
CONTINUOUS
 10
-0.771917
 20
3.447776
  0
VERTEX
  8
PLAN_1
 62
     2
  6
CONTINUOUS
 10
-0.770083
 20
3.446398
  0
VERTEX
  8
PLAN_1
 62
     2
  6
CONTINUOUS
 10
-0.767787
 20
3.445480
  0
VERTEX
  8
PLAN_1
 62
     2
  6
CONTINUOUS
 10
-0.765492
 20
3.445024
  0
VERTEX
  8
PLAN_1
 62
     2
  6
CONTINUOUS
 10
-0.763201
 20
3.444563
  0
VERTEX
  8
PLAN_1
 62
     2
  6
CONTINUOUS
 10
-0.759528
 20
3.445024
  0
VERTEX
  8
PLAN_1
 62
     2
  6
CONTINUOUS
 10
-0.756319
 20
3.446398
  0
VERTEX
  8
PLAN_1
 62
     2
  6
CONTINUOUS
 10
-0.753563
 20
3.448232
  0
VERTEX
  8
PLAN_1
 62
     2
  6
CONTINUOUS
 10
-0.751272
 20
3.450988
  0
VERTEX
  8
PLAN_1
 62
     2
  6
CONTINUOUS
 10
-0.749437
 20
3.455114
  0
VERTEX
  8
PLAN_1
 62
     2
  6
CONTINUOUS
 10
-0.747602
 20
3.459705
  0
VERTEX
  8
PLAN_1
 62
     2
  6
CONTINUOUS
 10
-0.746224
 20
3.465209
  0
VERTEX
  8
PLAN_1
 62
     2
  6
CONTINUOUS
 10
-0.745307
 20
3.472091
  0
VERTEX
  8
PLAN_1
 62
     2
  6
CONTINUOUS
 10
-0.745764
 20
3.472091
  0
VERTEX
  8
PLAN_1
 62
     2
  6
CONTINUOUS
 10
-0.746681
 20
3.470256
  0
VERTEX
  8
PLAN_1
 62
     2
  6
CONTINUOUS
 10
-0.748520
 20
3.468421
  0
VERTEX
  8
PLAN_1
 62
     2
  6
CONTINUOUS
 10
-0.750354
 20
3.467043
  0
VERTEX
  8
PLAN_1
 62
     2
  6
CONTINUOUS
 10
-0.752646
 20
3.465669
  0
VERTEX
  8
PLAN_1
 62
     2
  6
CONTINUOUS
 10
-0.754941
 20
3.464752
  0
VERTEX
  8
PLAN_1
 62
     2
  6
CONTINUOUS
 10
-0.757236
 20
3.463835
  0
VERTEX
  8
PLAN_1
 62
     2
  6
CONTINUOUS
 10
-0.759988
 20
3.463374
  0
VERTEX
  8
PLAN_1
 62
     2
  6
CONTINUOUS
 10
-0.762283
 20
3.463374
  0
VERTEX
  8
PLAN_1
 62
     2
  6
CONTINUOUS
 10
-0.767331
 20
3.463835
  0
VERTEX
  8
PLAN_1
 62
     2
  6
CONTINUOUS
 10
-0.771457
 20
3.465209
  0
VERTEX
  8
PLAN_1
 62
     2
  6
CONTINUOUS
 10
-0.773752
 20
3.466126
  0
VERTEX
  8
PLAN_1
 62
     2
  6
CONTINUOUS
 10
-0.775587
 20
3.467043
  0
VERTEX
  8
PLAN_1
 62
     2
  6
CONTINUOUS
 10
-0.777421
 20
3.468421
  0
VERTEX
  8
PLAN_1
 62
     2
  6
CONTINUOUS
 10
-0.778799
 20
3.469799
  0
VERTEX
  8
PLAN_1
 62
     2
  6
CONTINUOUS
 10
-0.780177
 20
3.471173
  0
VERTEX
  8
PLAN_1
 62
     2
  6
CONTINUOUS
 10
-0.781551
 20
3.473008
  0
VERTEX
  8
PLAN_1
 62
     2
  6
CONTINUOUS
 10
-0.782929
 20
3.475303
  0
VERTEX
  8
PLAN_1
 62
     2
  6
CONTINUOUS
 10
-0.783846
 20
3.477138
  0
VERTEX
  8
PLAN_1
 62
     2
  6
CONTINUOUS
 10
-0.784764
 20
3.481724
  0
VERTEX
  8
PLAN_1
 62
     2
  6
CONTINUOUS
 10
-0.785220
 20
3.487232
  0
SEQEND
  8
0
  0
POLYLINE
  8
PLAN_1
 62
     2
  6
CONTINUOUS
 66
     1
 40
0.003000
 41
0.003000
  0
VERTEX
  8
PLAN_1
 62
     2
  6
CONTINUOUS
 10
-0.747142
 20
3.488150
  0
VERTEX
  8
PLAN_1
 62
     2
  6
CONTINUOUS
 10
-0.747142
 20
3.491362
  0
VERTEX
  8
PLAN_1
 62
     2
  6
CONTINUOUS
 10
-0.747602
 20
3.494114
  0
VERTEX
  8
PLAN_1
 62
     2
  6
CONTINUOUS
 10
-0.748976
 20
3.496866
  0
VERTEX
  8
PLAN_1
 62
     2
  6
CONTINUOUS
 10
-0.750354
 20
3.499161
  0
VERTEX
  8
PLAN_1
 62
     2
  6
CONTINUOUS
 10
-0.752646
 20
3.500996
  0
VERTEX
  8
PLAN_1
 62
     2
  6
CONTINUOUS
 10
-0.754941
 20
3.502831
  0
VERTEX
  8
PLAN_1
 62
     2
  6
CONTINUOUS
 10
-0.758154
 20
3.503748
  0
VERTEX
  8
PLAN_1
 62
     2
  6
CONTINUOUS
 10
-0.761823
 20
3.503748
  0
VERTEX
  8
PLAN_1
 62
     2
  6
CONTINUOUS
 10
-0.765035
 20
3.503748
  0
VERTEX
  8
PLAN_1
 62
     2
  6
CONTINUOUS
 10
-0.767787
 20
3.502831
  0
VERTEX
  8
PLAN_1
 62
     2
  6
CONTINUOUS
 10
-0.770083
 20
3.501457
  0
VERTEX
  8
PLAN_1
 62
     2
  6
CONTINUOUS
 10
-0.771917
 20
3.499161
  0
VERTEX
  8
PLAN_1
 62
     2
  6
CONTINUOUS
 10
-0.773752
 20
3.496866
  0
VERTEX
  8
PLAN_1
 62
     2
  6
CONTINUOUS
 10
-0.774669
 20
3.494114
  0
VERTEX
  8
PLAN_1
 62
     2
  6
CONTINUOUS
 10
-0.775587
 20
3.490902
  0
VERTEX
  8
PLAN_1
 62
     2
  6
CONTINUOUS
 10
-0.776047
 20
3.487232
  0
VERTEX
  8
PLAN_1
 62
     2
  6
CONTINUOUS
 10
-0.775587
 20
3.482646
  0
VERTEX
  8
PLAN_1
 62
     2
  6
CONTINUOUS
 10
-0.774213
 20
3.478972
  0
VERTEX
  8
PLAN_1
 62
     2
  6
CONTINUOUS
 10
-0.772835
 20
3.476220
  0
VERTEX
  8
PLAN_1
 62
     2
  6
CONTINUOUS
 10
-0.770539
 20
3.474386
  0
VERTEX
  8
PLAN_1
 62
     2
  6
CONTINUOUS
 10
-0.768248
 20
3.473008
  0
VERTEX
  8
PLAN_1
 62
     2
  6
CONTINUOUS
 10
-0.765953
 20
3.472091
  0
VERTEX
  8
PLAN_1
 62
     2
  6
CONTINUOUS
 10
-0.763201
 20
3.471634
  0
VERTEX
  8
PLAN_1
 62
     2
  6
CONTINUOUS
 10
-0.760906
 20
3.471634
  0
VERTEX
  8
PLAN_1
 62
     2
  6
CONTINUOUS
 10
-0.759071
 20
3.471634
  0
VERTEX
  8
PLAN_1
 62
     2
  6
CONTINUOUS
 10
-0.756776
 20
3.472091
  0
VERTEX
  8
PLAN_1
 62
     2
  6
CONTINUOUS
 10
-0.754484
 20
3.473008
  0
VERTEX
  8
PLAN_1
 62
     2
  6
CONTINUOUS
 10
-0.752189
 20
3.474386
  0
VERTEX
  8
PLAN_1
 62
     2
  6
CONTINUOUS
 10
-0.750354
 20
3.476681
  0
VERTEX
  8
PLAN_1
 62
     2
  6
CONTINUOUS
 10
-0.748520
 20
3.479433
  0
VERTEX
  8
PLAN_1
 62
     2
  6
CONTINUOUS
 10
-0.747602
 20
3.483563
  0
VERTEX
  8
PLAN_1
 62
     2
  6
CONTINUOUS
 10
-0.747142
 20
3.488150
  0
SEQEND
  8
0
  0
POLYLINE
  8
PLAN_1
 62
     2
  6
CONTINUOUS
 66
     1
 40
0.004126
 41
0.004126
  0
VERTEX
  8
PLAN_1
 62
     2
  6
CONTINUOUS
 10
-2.280000
 20
3.415201
  0
VERTEX
  8
PLAN_1
 62
     2
  6
CONTINUOUS
 10
-1.856067
 20
3.415201
  0
SEQEND
  8
0
  0
SOLID
  8
PLAN_1
 62
     2
 10
-2.124465
 20
3.415201
 11
-2.183650
 21
3.431260
 12
-2.124465
 22
3.415201
 13
-2.183650
 23
3.399602
  0
POLYLINE
  8
PLAN_1
 62
     2
  6
CONTINUOUS
 66
     1
 40
0.003000
 41
0.003000
  0
VERTEX
  8
PLAN_1
 62
     2
  6
CONTINUOUS
 10
-2.124465
 20
3.415201
  0
VERTEX
  8
PLAN_1
 62
     2
  6
CONTINUOUS
 10
-2.183650
 20
3.431260
  0
VERTEX
  8
PLAN_1
 62
     2
  6
CONTINUOUS
 10
-2.183650
 20
3.399602
  0
VERTEX
  8
PLAN_1
 62
     2
  6
CONTINUOUS
 10
-2.124465
 20
3.415201
  0
SEQEND
  8
0
  0
SOLID
  8
PLAN_1
 62
     2
 10
-1.885429
 20
3.415201
 11
-1.826705
 21
3.431260
 12
-1.885429
 22
3.415201
 13
-1.826705
 23
3.399602
  0
POLYLINE
  8
PLAN_1
 62
     2
  6
CONTINUOUS
 66
     1
 40
0.003000
 41
0.003000
  0
VERTEX
  8
PLAN_1
 62
     2
  6
CONTINUOUS
 10
-1.885429
 20
3.415201
  0
VERTEX
  8
PLAN_1
 62
     2
  6
CONTINUOUS
 10
-1.826705
 20
3.431260
  0
VERTEX
  8
PLAN_1
 62
     2
  6
CONTINUOUS
 10
-1.826705
 20
3.399602
  0
VERTEX
  8
PLAN_1
 62
     2
  6
CONTINUOUS
 10
-1.885429
 20
3.415201
  0
SEQEND
  8
0
  0
POLYLINE
  8
PLAN_1
 62
     2
  6
CONTINUOUS
 66
     1
 40
0.003000
 41
0.003000
  0
VERTEX
  8
PLAN_1
 62
     2
  6
CONTINUOUS
 10
-2.215307
 20
3.492736
  0
VERTEX
  8
PLAN_1
 62
     2
  6
CONTINUOUS
 10
-2.215768
 20
3.495031
  0
VERTEX
  8
PLAN_1
 62
     2
  6
CONTINUOUS
 10
-2.216685
 20
3.497327
  0
VERTEX
  8
PLAN_1
 62
     2
  6
CONTINUOUS
 10
-2.217602
 20
3.499161
  0
VERTEX
  8
PLAN_1
 62
     2
  6
CONTINUOUS
 10
-2.218980
 20
3.500535
  0
VERTEX
  8
PLAN_1
 62
     2
  6
CONTINUOUS
 10
-2.220815
 20
3.501913
  0
VERTEX
  8
PLAN_1
 62
     2
  6
CONTINUOUS
 10
-2.222650
 20
3.502831
  0
VERTEX
  8
PLAN_1
 62
     2
  6
CONTINUOUS
 10
-2.224945
 20
3.503748
  0
VERTEX
  8
PLAN_1
 62
     2
  6
CONTINUOUS
 10
-2.227697
 20
3.503748
  0
VERTEX
  8
PLAN_1
 62
     2
  6
CONTINUOUS
 10
-2.230449
 20
3.503748
  0
VERTEX
  8
PLAN_1
 62
     2
  6
CONTINUOUS
 10
-2.232744
 20
3.502831
  0
VERTEX
  8
PLAN_1
 62
     2
  6
CONTINUOUS
 10
-2.234579
 20
3.501913
  0
VERTEX
  8
PLAN_1
 62
     2
  6
CONTINUOUS
 10
-2.236413
 20
3.500535
  0
VERTEX
  8
PLAN_1
 62
     2
  6
CONTINUOUS
 10
-2.238248
 20
3.499161
  0
VERTEX
  8
PLAN_1
 62
     2
  6
CONTINUOUS
 10
-2.239626
 20
3.497327
  0
VERTEX
  8
PLAN_1
 62
     2
  6
CONTINUOUS
 10
-2.241000
 20
3.495492
  0
VERTEX
  8
PLAN_1
 62
     2
  6
CONTINUOUS
 10
-2.241921
 20
3.493197
  0
VERTEX
  8
PLAN_1
 62
     2
  6
CONTINUOUS
 10
-2.243295
 20
3.488610
  0
VERTEX
  8
PLAN_1
 62
     2
  6
CONTINUOUS
 10
-2.244673
 20
3.484480
  0
VERTEX
  8
PLAN_1
 62
     2
  6
CONTINUOUS
 10
-2.245130
 20
3.480350
  0
VERTEX
  8
PLAN_1
 62
     2
  6
CONTINUOUS
 10
-2.245130
 20
3.476681
  0
VERTEX
  8
PLAN_1
 62
     2
  6
CONTINUOUS
 10
-2.244213
 20
3.478055
  0
VERTEX
  8
PLAN_1
 62
     2
  6
CONTINUOUS
 10
-2.242839
 20
3.479890
  0
VERTEX
  8
PLAN_1
 62
     2
  6
CONTINUOUS
 10
-2.241000
 20
3.481268
  0
VERTEX
  8
PLAN_1
 62
     2
  6
CONTINUOUS
 10
-2.239165
 20
3.482646
  0
VERTEX
  8
PLAN_1
 62
     2
  6
CONTINUOUS
 10
-2.236874
 20
3.483563
  0
VERTEX
  8
PLAN_1
 62
     2
  6
CONTINUOUS
 10
-2.234118
 20
3.484937
  0
VERTEX
  8
PLAN_1
 62
     2
  6
CONTINUOUS
 10
-2.230909
 20
3.485398
  0
VERTEX
  8
PLAN_1
 62
     2
  6
CONTINUOUS
 10
-2.227697
 20
3.485398
  0
VERTEX
  8
PLAN_1
 62
     2
  6
CONTINUOUS
 10
-2.224028
 20
3.485398
  0
VERTEX
  8
PLAN_1
 62
     2
  6
CONTINUOUS
 10
-2.220354
 20
3.484480
  0
VERTEX
  8
PLAN_1
 62
     2
  6
CONTINUOUS
 10
-2.216228
 20
3.482646
  0
VERTEX
  8
PLAN_1
 62
     2
  6
CONTINUOUS
 10
-2.213016
 20
3.480350
  0
VERTEX
  8
PLAN_1
 62
     2
  6
CONTINUOUS
 10
-2.211181
 20
3.478972
  0
VERTEX
  8
PLAN_1
 62
     2
  6
CONTINUOUS
 10
-2.209803
 20
3.477598
  0
VERTEX
  8
PLAN_1
 62
     2
  6
CONTINUOUS
 10
-2.208425
 20
3.475303
  0
VERTEX
  8
PLAN_1
 62
     2
  6
CONTINUOUS
 10
-2.207051
 20
3.473469
  0
VERTEX
  8
PLAN_1
 62
     2
  6
CONTINUOUS
 10
-2.206134
 20
3.471173
  0
VERTEX
  8
PLAN_1
 62
     2
  6
CONTINUOUS
 10
-2.205217
 20
3.468421
  0
VERTEX
  8
PLAN_1
 62
     2
  6
CONTINUOUS
 10
-2.204756
 20
3.465669
  0
VERTEX
  8
PLAN_1
 62
     2
  6
CONTINUOUS
 10
-2.204756
 20
3.462457
  0
VERTEX
  8
PLAN_1
 62
     2
  6
CONTINUOUS
 10
-2.204756
 20
3.459705
  0
VERTEX
  8
PLAN_1
 62
     2
  6
CONTINUOUS
 10
-2.205217
 20
3.456953
  0
VERTEX
  8
PLAN_1
 62
     2
  6
CONTINUOUS
 10
-2.205673
 20
3.454657
  0
VERTEX
  8
PLAN_1
 62
     2
  6
CONTINUOUS
 10
-2.206134
 20
3.452362
  0
VERTEX
  8
PLAN_1
 62
     2
  6
CONTINUOUS
 10
-2.207508
 20
3.450071
  0
VERTEX
  8
PLAN_1
 62
     2
  6
CONTINUOUS
 10
-2.208425
 20
3.448232
  0
VERTEX
  8
PLAN_1
 62
     2
  6
CONTINUOUS
 10
-2.209803
 20
3.445941
  0
VERTEX
  8
PLAN_1
 62
     2
  6
CONTINUOUS
 10
-2.211638
 20
3.444106
  0
VERTEX
  8
PLAN_1
 62
     2
  6
CONTINUOUS
 10
-2.213016
 20
3.442728
  0
VERTEX
  8
PLAN_1
 62
     2
  6
CONTINUOUS
 10
-2.214850
 20
3.441350
  0
VERTEX
  8
PLAN_1
 62
     2
  6
CONTINUOUS
 10
-2.216685
 20
3.439976
  0
VERTEX
  8
PLAN_1
 62
     2
  6
CONTINUOUS
 10
-2.218520
 20
3.439059
  0
VERTEX
  8
PLAN_1
 62
     2
  6
CONTINUOUS
 10
-2.220815
 20
3.438142
  0
VERTEX
  8
PLAN_1
 62
     2
  6
CONTINUOUS
 10
-2.223567
 20
3.437681
  0
VERTEX
  8
PLAN_1
 62
     2
  6
CONTINUOUS
 10
-2.226780
 20
3.437224
  0
VERTEX
  8
PLAN_1
 62
     2
  6
CONTINUOUS
 10
-2.229992
 20
3.436764
  0
VERTEX
  8
PLAN_1
 62
     2
  6
CONTINUOUS
 10
-2.232283
 20
3.437224
  0
VERTEX
  8
PLAN_1
 62
     2
  6
CONTINUOUS
 10
-2.234579
 20
3.437681
  0
VERTEX
  8
PLAN_1
 62
     2
  6
CONTINUOUS
 10
-2.237331
 20
3.438142
  0
VERTEX
  8
PLAN_1
 62
     2
  6
CONTINUOUS
 10
-2.239626
 20
3.439059
  0
VERTEX
  8
PLAN_1
 62
     2
  6
CONTINUOUS
 10
-2.242378
 20
3.440894
  0
VERTEX
  8
PLAN_1
 62
     2
  6
CONTINUOUS
 10
-2.244673
 20
3.442728
  0
VERTEX
  8
PLAN_1
 62
     2
  6
CONTINUOUS
 10
-2.246965
 20
3.445024
  0
VERTEX
  8
PLAN_1
 62
     2
  6
CONTINUOUS
 10
-2.249260
 20
3.447776
  0
VERTEX
  8
PLAN_1
 62
     2
  6
CONTINUOUS
 10
-2.250638
 20
3.450071
  0
VERTEX
  8
PLAN_1
 62
     2
  6
CONTINUOUS
 10
-2.251555
 20
3.453280
  0
VERTEX
  8
PLAN_1
 62
     2
  6
CONTINUOUS
 10
-2.252929
 20
3.456031
  0
VERTEX
  8
PLAN_1
 62
     2
  6
CONTINUOUS
 10
-2.253390
 20
3.459244
  0
VERTEX
  8
PLAN_1
 62
     2
  6
CONTINUOUS
 10
-2.253846
 20
3.462457
  0
VERTEX
  8
PLAN_1
 62
     2
  6
CONTINUOUS
 10
-2.254307
 20
3.466126
  0
VERTEX
  8
PLAN_1
 62
     2
  6
CONTINUOUS
 10
-2.254768
 20
3.469339
  0
VERTEX
  8
PLAN_1
 62
     2
  6
CONTINUOUS
 10
-2.254768
 20
3.473008
  0
VERTEX
  8
PLAN_1
 62
     2
  6
CONTINUOUS
 10
-2.254307
 20
3.479433
  0
VERTEX
  8
PLAN_1
 62
     2
  6
CONTINUOUS
 10
-2.253390
 20
3.485854
  0
VERTEX
  8
PLAN_1
 62
     2
  6
CONTINUOUS
 10
-2.252929
 20
3.489067
  0
VERTEX
  8
PLAN_1
 62
     2
  6
CONTINUOUS
 10
-2.252012
 20
3.492280
  0
VERTEX
  8
PLAN_1
 62
     2
  6
CONTINUOUS
 10
-2.250638
 20
3.495492
  0
VERTEX
  8
PLAN_1
 62
     2
  6
CONTINUOUS
 10
-2.249260
 20
3.498701
  0
VERTEX
  8
PLAN_1
 62
     2
  6
CONTINUOUS
 10
-2.247882
 20
3.501457
  0
VERTEX
  8
PLAN_1
 62
     2
  6
CONTINUOUS
 10
-2.245591
 20
3.503748
  0
VERTEX
  8
PLAN_1
 62
     2
  6
CONTINUOUS
 10
-2.243756
 20
3.506043
  0
VERTEX
  8
PLAN_1
 62
     2
  6
CONTINUOUS
 10
-2.241000
 20
3.508339
  0
VERTEX
  8
PLAN_1
 62
     2
  6
CONTINUOUS
 10
-2.238248
 20
3.509713
  0
VERTEX
  8
PLAN_1
 62
     2
  6
CONTINUOUS
 10
-2.235035
 20
3.511091
  0
VERTEX
  8
PLAN_1
 62
     2
  6
CONTINUOUS
 10
-2.231366
 20
3.512008
  0
VERTEX
  8
PLAN_1
 62
     2
  6
CONTINUOUS
 10
-2.227697
 20
3.512008
  0
VERTEX
  8
PLAN_1
 62
     2
  6
CONTINUOUS
 10
-2.224484
 20
3.512008
  0
VERTEX
  8
PLAN_1
 62
     2
  6
CONTINUOUS
 10
-2.220815
 20
3.511091
  0
VERTEX
  8
PLAN_1
 62
     2
  6
CONTINUOUS
 10
-2.217602
 20
3.509713
  0
VERTEX
  8
PLAN_1
 62
     2
  6
CONTINUOUS
 10
-2.213933
 20
3.507878
  0
VERTEX
  8
PLAN_1
 62
     2
  6
CONTINUOUS
 10
-2.211181
 20
3.505126
  0
VERTEX
  8
PLAN_1
 62
     2
  6
CONTINUOUS
 10
-2.208886
 20
3.501913
  0
VERTEX
  8
PLAN_1
 62
     2
  6
CONTINUOUS
 10
-2.207969
 20
3.500079
  0
VERTEX
  8
PLAN_1
 62
     2
  6
CONTINUOUS
 10
-2.207051
 20
3.497783
  0
VERTEX
  8
PLAN_1
 62
     2
  6
CONTINUOUS
 10
-2.206591
 20
3.495492
  0
VERTEX
  8
PLAN_1
 62
     2
  6
CONTINUOUS
 10
-2.206134
 20
3.492736
  0
VERTEX
  8
PLAN_1
 62
     2
  6
CONTINUOUS
 10
-2.215307
 20
3.492736
  0
SEQEND
  8
0
  0
POLYLINE
  8
PLAN_1
 62
     2
  6
CONTINUOUS
 66
     1
 40
0.003000
 41
0.003000
  0
VERTEX
  8
PLAN_1
 62
     2
  6
CONTINUOUS
 10
-2.228614
 20
3.445024
  0
VERTEX
  8
PLAN_1
 62
     2
  6
CONTINUOUS
 10
-2.225402
 20
3.445480
  0
VERTEX
  8
PLAN_1
 62
     2
  6
CONTINUOUS
 10
-2.222650
 20
3.446398
  0
VERTEX
  8
PLAN_1
 62
     2
  6
CONTINUOUS
 10
-2.220354
 20
3.447776
  0
VERTEX
  8
PLAN_1
 62
     2
  6
CONTINUOUS
 10
-2.218063
 20
3.450071
  0
VERTEX
  8
PLAN_1
 62
     2
  6
CONTINUOUS
 10
-2.216228
 20
3.452362
  0
VERTEX
  8
PLAN_1
 62
     2
  6
CONTINUOUS
 10
-2.215307
 20
3.455114
  0
VERTEX
  8
PLAN_1
 62
     2
  6
CONTINUOUS
 10
-2.214390
 20
3.458327
  0
VERTEX
  8
PLAN_1
 62
     2
  6
CONTINUOUS
 10
-2.214390
 20
3.461996
  0
VERTEX
  8
PLAN_1
 62
     2
  6
CONTINUOUS
 10
-2.214390
 20
3.464291
  0
VERTEX
  8
PLAN_1
 62
     2
  6
CONTINUOUS
 10
-2.214850
 20
3.467043
  0
VERTEX
  8
PLAN_1
 62
     2
  6
CONTINUOUS
 10
-2.215768
 20
3.469799
  0
VERTEX
  8
PLAN_1
 62
     2
  6
CONTINUOUS
 10
-2.217146
 20
3.472091
  0
VERTEX
  8
PLAN_1
 62
     2
  6
CONTINUOUS
 10
-2.219437
 20
3.474386
  0
VERTEX
  8
PLAN_1
 62
     2
  6
CONTINUOUS
 10
-2.221732
 20
3.475764
  0
VERTEX
  8
PLAN_1
 62
     2
  6
CONTINUOUS
 10
-2.224945
 20
3.477138
  0
VERTEX
  8
PLAN_1
 62
     2
  6
CONTINUOUS
 10
-2.229075
 20
3.477138
  0
VERTEX
  8
PLAN_1
 62
     2
  6
CONTINUOUS
 10
-2.232283
 20
3.477138
  0
VERTEX
  8
PLAN_1
 62
     2
  6
CONTINUOUS
 10
-2.235496
 20
3.476220
  0
VERTEX
  8
PLAN_1
 62
     2
  6
CONTINUOUS
 10
-2.238248
 20
3.474386
  0
VERTEX
  8
PLAN_1
 62
     2
  6
CONTINUOUS
 10
-2.240083
 20
3.472551
  0
VERTEX
  8
PLAN_1
 62
     2
  6
CONTINUOUS
 10
-2.241921
 20
3.470256
  0
VERTEX
  8
PLAN_1
 62
     2
  6
CONTINUOUS
 10
-2.242839
 20
3.467504
  0
VERTEX
  8
PLAN_1
 62
     2
  6
CONTINUOUS
 10
-2.243756
 20
3.464752
  0
VERTEX
  8
PLAN_1
 62
     2
  6
CONTINUOUS
 10
-2.243756
 20
3.461539
  0
VERTEX
  8
PLAN_1
 62
     2
  6
CONTINUOUS
 10
-2.243756
 20
3.458327
  0
VERTEX
  8
PLAN_1
 62
     2
  6
CONTINUOUS
 10
-2.242839
 20
3.455575
  0
VERTEX
  8
PLAN_1
 62
     2
  6
CONTINUOUS
 10
-2.241921
 20
3.452823
  0
VERTEX
  8
PLAN_1
 62
     2
  6
CONTINUOUS
 10
-2.240083
 20
3.450528
  0
VERTEX
  8
PLAN_1
 62
     2
  6
CONTINUOUS
 10
-2.238248
 20
3.448232
  0
VERTEX
  8
PLAN_1
 62
     2
  6
CONTINUOUS
 10
-2.235496
 20
3.446858
  0
VERTEX
  8
PLAN_1
 62
     2
  6
CONTINUOUS
 10
-2.232283
 20
3.445480
  0
VERTEX
  8
PLAN_1
 62
     2
  6
CONTINUOUS
 10
-2.228614
 20
3.445024
  0
SEQEND
  8
0
  0
POLYLINE
  8
PLAN_1
 62
     2
  6
CONTINUOUS
 66
     1
 40
0.004126
 41
0.004126
  0
VERTEX
  8
PLAN_1
 62
     2
  6
CONTINUOUS
 10
-2.124465
 20
3.281689
  0
VERTEX
  8
PLAN_1
 62
     2
  6
CONTINUOUS
 10
-2.124465
 20
3.439059
  0
SEQEND
  8
0
  0
POLYLINE
  8
PLAN_1
 62
     2
  6
CONTINUOUS
 66
     1
 40
0.004126
 41
0.004126
  0
VERTEX
  8
PLAN_1
 62
     2
  6
CONTINUOUS
 10
-1.885429
 20
3.281689
  0
VERTEX
  8
PLAN_1
 62
     2
  6
CONTINUOUS
 10
-1.885429
 20
3.439059
  0
SEQEND
  8
0
  0
POLYLINE
  8
PLAN_1
 62
     2
  6
CONTINUOUS
 66
     1
 40
0.004126
 41
0.004126
  0
VERTEX
  8
PLAN_1
 62
     2
  6
CONTINUOUS
 10
-1.460579
 20
3.287654
  0
VERTEX
  8
PLAN_1
 62
     2
  6
CONTINUOUS
 10
-1.460579
 20
3.439059
  0
SEQEND
  8
0
  0
POLYLINE
  8
PLAN_1
 62
     2
  6
CONTINUOUS
 66
     1
 40
0.004126
 41
0.004126
  0
VERTEX
  8
PLAN_1
 62
     2
  6
CONTINUOUS
 10
-2.007012
 20
3.281689
  0
VERTEX
  8
PLAN_1
 62
     2
  6
CONTINUOUS
 10
-2.007012
 20
3.391343
  0
SEQEND
  8
0
  0
POLYLINE
  8
PLAN_1
 62
     2
  6
CONTINUOUS
 66
     1
 40
0.004126
 41
0.004126
  0
VERTEX
  8
PLAN_1
 62
     2
  6
CONTINUOUS
 10
-2.007012
 20
3.438598
  0
VERTEX
  8
PLAN_1
 62
     2
  6
CONTINUOUS
 10
-2.007012
 20
3.596425
  0
SEQEND
  8
0
  0
POLYLINE
  8
PLAN_1
 62
     2
  6
CONTINUOUS
 66
     1
 40
0.004126
 41
0.004126
  0
VERTEX
  8
PLAN_1
 62
     2
  6
CONTINUOUS
 10
-0.118583
 20
1.122567
  0
VERTEX
  8
PLAN_1
 62
     2
  6
CONTINUOUS
 10
-0.118583
 20
3.597343
  0
SEQEND
  8
0
  0
POLYLINE
  8
PLAN_1
 62
     2
  6
CONTINUOUS
 66
     1
 40
0.004126
 41
0.004126
  0
VERTEX
  8
PLAN_1
 62
     2
  6
CONTINUOUS
 10
-2.152913
 20
0.153114
  0
VERTEX
  8
PLAN_1
 62
     2
  6
CONTINUOUS
 10
-0.146571
 20
0.153114
  0
SEQEND
  8
0
  0
SOLID
  8
PLAN_1
 62
     2
 10
-0.117205
 20
0.153114
 11
-0.175933
 21
0.168717
 12
-0.117205
 22
0.153114
 13
-0.175933
 23
0.137059
  0
POLYLINE
  8
PLAN_1
 62
     2
  6
CONTINUOUS
 66
     1
 40
0.003000
 41
0.003000
  0
VERTEX
  8
PLAN_1
 62
     2
  6
CONTINUOUS
 10
-0.117205
 20
0.153114
  0
VERTEX
  8
PLAN_1
 62
     2
  6
CONTINUOUS
 10
-0.175933
 20
0.168717
  0
VERTEX
  8
PLAN_1
 62
     2
  6
CONTINUOUS
 10
-0.175933
 20
0.137059
  0
VERTEX
  8
PLAN_1
 62
     2
  6
CONTINUOUS
 10
-0.117205
 20
0.153114
  0
SEQEND
  8
0
  0
SOLID
  8
PLAN_1
 62
     2
 10
-2.182276
 20
0.153114
 11
-2.123547
 21
0.168717
 12
-2.182276
 22
0.153114
 13
-2.123547
 23
0.137059
  0
POLYLINE
  8
PLAN_1
 62
     2
  6
CONTINUOUS
 66
     1
 40
0.003000
 41
0.003000
  0
VERTEX
  8
PLAN_1
 62
     2
  6
CONTINUOUS
 10
-2.182276
 20
0.153114
  0
VERTEX
  8
PLAN_1
 62
     2
  6
CONTINUOUS
 10
-2.123547
 20
0.168717
  0
VERTEX
  8
PLAN_1
 62
     2
  6
CONTINUOUS
 10
-2.123547
 20
0.137059
  0
VERTEX
  8
PLAN_1
 62
     2
  6
CONTINUOUS
 10
-2.182276
 20
0.153114
  0
SEQEND
  8
0
  0
POLYLINE
  8
PLAN_1
 62
     2
  6
CONTINUOUS
 66
     1
 40
0.003000
 41
0.003000
  0
VERTEX
  8
PLAN_1
 62
     2
  6
CONTINUOUS
 10
-1.164193
 20
0.230193
  0
VERTEX
  8
PLAN_1
 62
     2
  6
CONTINUOUS
 10
-1.164654
 20
0.232488
  0
VERTEX
  8
PLAN_1
 62
     2
  6
CONTINUOUS
 10
-1.165571
 20
0.234783
  0
VERTEX
  8
PLAN_1
 62
     2
  6
CONTINUOUS
 10
-1.166488
 20
0.236618
  0
VERTEX
  8
PLAN_1
 62
     2
  6
CONTINUOUS
 10
-1.167862
 20
0.238453
  0
VERTEX
  8
PLAN_1
 62
     2
  6
CONTINUOUS
 10
-1.169697
 20
0.239831
  0
VERTEX
  8
PLAN_1
 62
     2
  6
CONTINUOUS
 10
-1.171535
 20
0.240748
  0
VERTEX
  8
PLAN_1
 62
     2
  6
CONTINUOUS
 10
-1.174287
 20
0.241205
  0
VERTEX
  8
PLAN_1
 62
     2
  6
CONTINUOUS
 10
-1.177039
 20
0.241665
  0
VERTEX
  8
PLAN_1
 62
     2
  6
CONTINUOUS
 10
-1.179335
 20
0.241205
  0
VERTEX
  8
PLAN_1
 62
     2
  6
CONTINUOUS
 10
-1.181626
 20
0.240748
  0
VERTEX
  8
PLAN_1
 62
     2
  6
CONTINUOUS
 10
-1.183921
 20
0.239831
  0
VERTEX
  8
PLAN_1
 62
     2
  6
CONTINUOUS
 10
-1.185756
 20
0.238453
  0
VERTEX
  8
PLAN_1
 62
     2
  6
CONTINUOUS
 10
-1.187134
 20
0.236618
  0
VERTEX
  8
PLAN_1
 62
     2
  6
CONTINUOUS
 10
-1.188508
 20
0.235240
  0
VERTEX
  8
PLAN_1
 62
     2
  6
CONTINUOUS
 10
-1.189886
 20
0.232949
  0
VERTEX
  8
PLAN_1
 62
     2
  6
CONTINUOUS
 10
-1.190803
 20
0.231114
  0
VERTEX
  8
PLAN_1
 62
     2
  6
CONTINUOUS
 10
-1.192638
 20
0.226524
  0
VERTEX
  8
PLAN_1
 62
     2
  6
CONTINUOUS
 10
-1.193555
 20
0.221937
  0
VERTEX
  8
PLAN_1
 62
     2
  6
CONTINUOUS
 10
-1.194016
 20
0.217807
  0
VERTEX
  8
PLAN_1
 62
     2
  6
CONTINUOUS
 10
-1.194016
 20
0.214594
  0
VERTEX
  8
PLAN_1
 62
     2
  6
CONTINUOUS
 10
-1.194016
 20
0.214138
  0
VERTEX
  8
PLAN_1
 62
     2
  6
CONTINUOUS
 10
-1.193098
 20
0.215972
  0
VERTEX
  8
PLAN_1
 62
     2
  6
CONTINUOUS
 10
-1.191720
 20
0.217346
  0
VERTEX
  8
PLAN_1
 62
     2
  6
CONTINUOUS
 10
-1.190346
 20
0.218724
  0
VERTEX
  8
PLAN_1
 62
     2
  6
CONTINUOUS
 10
-1.188051
 20
0.220102
  0
VERTEX
  8
PLAN_1
 62
     2
  6
CONTINUOUS
 10
-1.185756
 20
0.221476
  0
VERTEX
  8
PLAN_1
 62
     2
  6
CONTINUOUS
 10
-1.183465
 20
0.222394
  0
VERTEX
  8
PLAN_1
 62
     2
  6
CONTINUOUS
 10
-1.180252
 20
0.222854
  0
VERTEX
  8
PLAN_1
 62
     2
  6
CONTINUOUS
 10
-1.176579
 20
0.223311
  0
VERTEX
  8
PLAN_1
 62
     2
  6
CONTINUOUS
 10
-1.172909
 20
0.222854
  0
VERTEX
  8
PLAN_1
 62
     2
  6
CONTINUOUS
 10
-1.169240
 20
0.221937
  0
VERTEX
  8
PLAN_1
 62
     2
  6
CONTINUOUS
 10
-1.165571
 20
0.220559
  0
VERTEX
  8
PLAN_1
 62
     2
  6
CONTINUOUS
 10
-1.161898
 20
0.218268
  0
VERTEX
  8
PLAN_1
 62
     2
  6
CONTINUOUS
 10
-1.160063
 20
0.216890
  0
VERTEX
  8
PLAN_1
 62
     2
  6
CONTINUOUS
 10
-1.158689
 20
0.215055
  0
VERTEX
  8
PLAN_1
 62
     2
  6
CONTINUOUS
 10
-1.157311
 20
0.213220
  0
VERTEX
  8
PLAN_1
 62
     2
  6
CONTINUOUS
 10
-1.155933
 20
0.210925
  0
VERTEX
  8
PLAN_1
 62
     2
  6
CONTINUOUS
 10
-1.155016
 20
0.208630
  0
VERTEX
  8
PLAN_1
 62
     2
  6
CONTINUOUS
 10
-1.154559
 20
0.205878
  0
VERTEX
  8
PLAN_1
 62
     2
  6
CONTINUOUS
 10
-1.154098
 20
0.203126
  0
VERTEX
  8
PLAN_1
 62
     2
  6
CONTINUOUS
 10
-1.153642
 20
0.199913
  0
VERTEX
  8
PLAN_1
 62
     2
  6
CONTINUOUS
 10
-1.153642
 20
0.197161
  0
VERTEX
  8
PLAN_1
 62
     2
  6
CONTINUOUS
 10
-1.154098
 20
0.194866
  0
VERTEX
  8
PLAN_1
 62
     2
  6
CONTINUOUS
 10
-1.154559
 20
0.192575
  0
VERTEX
  8
PLAN_1
 62
     2
  6
CONTINUOUS
 10
-1.155476
 20
0.190280
  0
VERTEX
  8
PLAN_1
 62
     2
  6
CONTINUOUS
 10
-1.156394
 20
0.187984
  0
VERTEX
  8
PLAN_1
 62
     2
  6
CONTINUOUS
 10
-1.157311
 20
0.185689
  0
VERTEX
  8
PLAN_1
 62
     2
  6
CONTINUOUS
 10
-1.159146
 20
0.183854
  0
VERTEX
  8
PLAN_1
 62
     2
  6
CONTINUOUS
 10
-1.160524
 20
0.181563
  0
VERTEX
  8
PLAN_1
 62
     2
  6
CONTINUOUS
 10
-1.162358
 20
0.180185
  0
VERTEX
  8
PLAN_1
 62
     2
  6
CONTINUOUS
 10
-1.163732
 20
0.178807
  0
VERTEX
  8
PLAN_1
 62
     2
  6
CONTINUOUS
 10
-1.165571
 20
0.177433
  0
VERTEX
  8
PLAN_1
 62
     2
  6
CONTINUOUS
 10
-1.167406
 20
0.176516
  0
VERTEX
  8
PLAN_1
 62
     2
  6
CONTINUOUS
 10
-1.169697
 20
0.175598
  0
VERTEX
  8
PLAN_1
 62
     2
  6
CONTINUOUS
 10
-1.172453
 20
0.175138
  0
VERTEX
  8
PLAN_1
 62
     2
  6
CONTINUOUS
 10
-1.175661
 20
0.174681
  0
VERTEX
  8
PLAN_1
 62
     2
  6
CONTINUOUS
 10
-1.179335
 20
0.174681
  0
VERTEX
  8
PLAN_1
 62
     2
  6
CONTINUOUS
 10
-1.181626
 20
0.174681
  0
VERTEX
  8
PLAN_1
 62
     2
  6
CONTINUOUS
 10
-1.183921
 20
0.175138
  0
VERTEX
  8
PLAN_1
 62
     2
  6
CONTINUOUS
 10
-1.186217
 20
0.176055
  0
VERTEX
  8
PLAN_1
 62
     2
  6
CONTINUOUS
 10
-1.188969
 20
0.176972
  0
VERTEX
  8
PLAN_1
 62
     2
  6
CONTINUOUS
 10
-1.191264
 20
0.178350
  0
VERTEX
  8
PLAN_1
 62
     2
  6
CONTINUOUS
 10
-1.193555
 20
0.180185
  0
VERTEX
  8
PLAN_1
 62
     2
  6
CONTINUOUS
 10
-1.195850
 20
0.182480
  0
VERTEX
  8
PLAN_1
 62
     2
  6
CONTINUOUS
 10
-1.198146
 20
0.185232
  0
VERTEX
  8
PLAN_1
 62
     2
  6
CONTINUOUS
 10
-1.199520
 20
0.187984
  0
VERTEX
  8
PLAN_1
 62
     2
  6
CONTINUOUS
 10
-1.200898
 20
0.190736
  0
VERTEX
  8
PLAN_1
 62
     2
  6
CONTINUOUS
 10
-1.201815
 20
0.193949
  0
VERTEX
  8
PLAN_1
 62
     2
  6
CONTINUOUS
 10
-1.202732
 20
0.197161
  0
VERTEX
  8
PLAN_1
 62
     2
  6
CONTINUOUS
 10
-1.203193
 20
0.200374
  0
VERTEX
  8
PLAN_1
 62
     2
  6
CONTINUOUS
 10
-1.203650
 20
0.203583
  0
VERTEX
  8
PLAN_1
 62
     2
  6
CONTINUOUS
 10
-1.203650
 20
0.207256
  0
VERTEX
  8
PLAN_1
 62
     2
  6
CONTINUOUS
 10
-1.203650
 20
0.210465
  0
VERTEX
  8
PLAN_1
 62
     2
  6
CONTINUOUS
 10
-1.203193
 20
0.216890
  0
VERTEX
  8
PLAN_1
 62
     2
  6
CONTINUOUS
 10
-1.202732
 20
0.223311
  0
VERTEX
  8
PLAN_1
 62
     2
  6
CONTINUOUS
 10
-1.201815
 20
0.226984
  0
VERTEX
  8
PLAN_1
 62
     2
  6
CONTINUOUS
 10
-1.200898
 20
0.230193
  0
VERTEX
  8
PLAN_1
 62
     2
  6
CONTINUOUS
 10
-1.199520
 20
0.233406
  0
VERTEX
  8
PLAN_1
 62
     2
  6
CONTINUOUS
 10
-1.198146
 20
0.236157
  0
VERTEX
  8
PLAN_1
 62
     2
  6
CONTINUOUS
 10
-1.196768
 20
0.238913
  0
VERTEX
  8
PLAN_1
 62
     2
  6
CONTINUOUS
 10
-1.194933
 20
0.241665
  0
VERTEX
  8
PLAN_1
 62
     2
  6
CONTINUOUS
 10
-1.192638
 20
0.243961
  0
VERTEX
  8
PLAN_1
 62
     2
  6
CONTINUOUS
 10
-1.189886
 20
0.245795
  0
VERTEX
  8
PLAN_1
 62
     2
  6
CONTINUOUS
 10
-1.187134
 20
0.247630
  0
VERTEX
  8
PLAN_1
 62
     2
  6
CONTINUOUS
 10
-1.183921
 20
0.248547
  0
VERTEX
  8
PLAN_1
 62
     2
  6
CONTINUOUS
 10
-1.180709
 20
0.249465
  0
VERTEX
  8
PLAN_1
 62
     2
  6
CONTINUOUS
 10
-1.176579
 20
0.249925
  0
VERTEX
  8
PLAN_1
 62
     2
  6
CONTINUOUS
 10
-1.173370
 20
0.249465
  0
VERTEX
  8
PLAN_1
 62
     2
  6
CONTINUOUS
 10
-1.169697
 20
0.249004
  0
VERTEX
  8
PLAN_1
 62
     2
  6
CONTINUOUS
 10
-1.166488
 20
0.247630
  0
VERTEX
  8
PLAN_1
 62
     2
  6
CONTINUOUS
 10
-1.163276
 20
0.245795
  0
VERTEX
  8
PLAN_1
 62
     2
  6
CONTINUOUS
 10
-1.160063
 20
0.243039
  0
VERTEX
  8
PLAN_1
 62
     2
  6
CONTINUOUS
 10
-1.157772
 20
0.239831
  0
VERTEX
  8
PLAN_1
 62
     2
  6
CONTINUOUS
 10
-1.156850
 20
0.237535
  0
VERTEX
  8
PLAN_1
 62
     2
  6
CONTINUOUS
 10
-1.155933
 20
0.235240
  0
VERTEX
  8
PLAN_1
 62
     2
  6
CONTINUOUS
 10
-1.155476
 20
0.232949
  0
VERTEX
  8
PLAN_1
 62
     2
  6
CONTINUOUS
 10
-1.155476
 20
0.230193
  0
VERTEX
  8
PLAN_1
 62
     2
  6
CONTINUOUS
 10
-1.164193
 20
0.230193
  0
SEQEND
  8
0
  0
POLYLINE
  8
PLAN_1
 62
     2
  6
CONTINUOUS
 66
     1
 40
0.003000
 41
0.003000
  0
VERTEX
  8
PLAN_1
 62
     2
  6
CONTINUOUS
 10
-1.177500
 20
0.182937
  0
VERTEX
  8
PLAN_1
 62
     2
  6
CONTINUOUS
 10
-1.174287
 20
0.183398
  0
VERTEX
  8
PLAN_1
 62
     2
  6
CONTINUOUS
 10
-1.171535
 20
0.184315
  0
VERTEX
  8
PLAN_1
 62
     2
  6
CONTINUOUS
 10
-1.169240
 20
0.185689
  0
VERTEX
  8
PLAN_1
 62
     2
  6
CONTINUOUS
 10
-1.166945
 20
0.187528
  0
VERTEX
  8
PLAN_1
 62
     2
  6
CONTINUOUS
 10
-1.165571
 20
0.189819
  0
VERTEX
  8
PLAN_1
 62
     2
  6
CONTINUOUS
 10
-1.164193
 20
0.193031
  0
VERTEX
  8
PLAN_1
 62
     2
  6
CONTINUOUS
 10
-1.163276
 20
0.196244
  0
VERTEX
  8
PLAN_1
 62
     2
  6
CONTINUOUS
 10
-1.163276
 20
0.199457
  0
VERTEX
  8
PLAN_1
 62
     2
  6
CONTINUOUS
 10
-1.163276
 20
0.202209
  0
VERTEX
  8
PLAN_1
 62
     2
  6
CONTINUOUS
 10
-1.163732
 20
0.204961
  0
VERTEX
  8
PLAN_1
 62
     2
  6
CONTINUOUS
 10
-1.165110
 20
0.207256
  0
VERTEX
  8
PLAN_1
 62
     2
  6
CONTINUOUS
 10
-1.166488
 20
0.209547
  0
VERTEX
  8
PLAN_1
 62
     2
  6
CONTINUOUS
 10
-1.168323
 20
0.211843
  0
VERTEX
  8
PLAN_1
 62
     2
  6
CONTINUOUS
 10
-1.171075
 20
0.213677
  0
VERTEX
  8
PLAN_1
 62
     2
  6
CONTINUOUS
 10
-1.174287
 20
0.214594
  0
VERTEX
  8
PLAN_1
 62
     2
  6
CONTINUOUS
 10
-1.177957
 20
0.215055
  0
VERTEX
  8
PLAN_1
 62
     2
  6
CONTINUOUS
 10
-1.181626
 20
0.214594
  0
VERTEX
  8
PLAN_1
 62
     2
  6
CONTINUOUS
 10
-1.184382
 20
0.213677
  0
VERTEX
  8
PLAN_1
 62
     2
  6
CONTINUOUS
 10
-1.187134
 20
0.212303
  0
VERTEX
  8
PLAN_1
 62
     2
  6
CONTINUOUS
 10
-1.189425
 20
0.210465
  0
VERTEX
  8
PLAN_1
 62
     2
  6
CONTINUOUS
 10
-1.190803
 20
0.207713
  0
VERTEX
  8
PLAN_1
 62
     2
  6
CONTINUOUS
 10
-1.192181
 20
0.205421
  0
VERTEX
  8
PLAN_1
 62
     2
  6
CONTINUOUS
 10
-1.192638
 20
0.202209
  0
VERTEX
  8
PLAN_1
 62
     2
  6
CONTINUOUS
 10
-1.193098
 20
0.198996
  0
VERTEX
  8
PLAN_1
 62
     2
  6
CONTINUOUS
 10
-1.192638
 20
0.196244
  0
VERTEX
  8
PLAN_1
 62
     2
  6
CONTINUOUS
 10
-1.192181
 20
0.193492
  0
VERTEX
  8
PLAN_1
 62
     2
  6
CONTINUOUS
 10
-1.190803
 20
0.190736
  0
VERTEX
  8
PLAN_1
 62
     2
  6
CONTINUOUS
 10
-1.189425
 20
0.187984
  0
VERTEX
  8
PLAN_1
 62
     2
  6
CONTINUOUS
 10
-1.187134
 20
0.186150
  0
VERTEX
  8
PLAN_1
 62
     2
  6
CONTINUOUS
 10
-1.184382
 20
0.184315
  0
VERTEX
  8
PLAN_1
 62
     2
  6
CONTINUOUS
 10
-1.181169
 20
0.183398
  0
VERTEX
  8
PLAN_1
 62
     2
  6
CONTINUOUS
 10
-1.177500
 20
0.182937
  0
SEQEND
  8
0
  0
POLYLINE
  8
PLAN_1
 62
     2
  6
CONTINUOUS
 66
     1
 40
0.003000
 41
0.003000
  0
VERTEX
  8
PLAN_1
 62
     2
  6
CONTINUOUS
 10
-1.120606
 20
0.174681
  0
VERTEX
  8
PLAN_1
 62
     2
  6
CONTINUOUS
 10
-1.124736
 20
0.174681
  0
VERTEX
  8
PLAN_1
 62
     2
  6
CONTINUOUS
 10
-1.127949
 20
0.175598
  0
VERTEX
  8
PLAN_1
 62
     2
  6
CONTINUOUS
 10
-1.131157
 20
0.176972
  0
VERTEX
  8
PLAN_1
 62
     2
  6
CONTINUOUS
 10
-1.133453
 20
0.178350
  0
VERTEX
  8
PLAN_1
 62
     2
  6
CONTINUOUS
 10
-1.135748
 20
0.180185
  0
VERTEX
  8
PLAN_1
 62
     2
  6
CONTINUOUS
 10
-1.138039
 20
0.182480
  0
VERTEX
  8
PLAN_1
 62
     2
  6
CONTINUOUS
 10
-1.139878
 20
0.185232
  0
VERTEX
  8
PLAN_1
 62
     2
  6
CONTINUOUS
 10
-1.141252
 20
0.187528
  0
VERTEX
  8
PLAN_1
 62
     2
  6
CONTINUOUS
 10
-1.143547
 20
0.193492
  0
VERTEX
  8
PLAN_1
 62
     2
  6
CONTINUOUS
 10
-1.144925
 20
0.199913
  0
VERTEX
  8
PLAN_1
 62
     2
  6
CONTINUOUS
 10
-1.145843
 20
0.206339
  0
VERTEX
  8
PLAN_1
 62
     2
  6
CONTINUOUS
 10
-1.145843
 20
0.212303
  0
VERTEX
  8
PLAN_1
 62
     2
  6
CONTINUOUS
 10
-1.145843
 20
0.218268
  0
VERTEX
  8
PLAN_1
 62
     2
  6
CONTINUOUS
 10
-1.144925
 20
0.224689
  0
VERTEX
  8
PLAN_1
 62
     2
  6
CONTINUOUS
 10
-1.143547
 20
0.230654
  0
VERTEX
  8
PLAN_1
 62
     2
  6
CONTINUOUS
 10
-1.141252
 20
0.236618
  0
VERTEX
  8
PLAN_1
 62
     2
  6
CONTINUOUS
 10
-1.139878
 20
0.239370
  0
VERTEX
  8
PLAN_1
 62
     2
  6
CONTINUOUS
 10
-1.138039
 20
0.242122
  0
VERTEX
  8
PLAN_1
 62
     2
  6
CONTINUOUS
 10
-1.135748
 20
0.243961
  0
VERTEX
  8
PLAN_1
 62
     2
  6
CONTINUOUS
 10
-1.133453
 20
0.246252
  0
VERTEX
  8
PLAN_1
 62
     2
  6
CONTINUOUS
 10
-1.131157
 20
0.247630
  0
VERTEX
  8
PLAN_1
 62
     2
  6
CONTINUOUS
 10
-1.127949
 20
0.249004
  0
VERTEX
  8
PLAN_1
 62
     2
  6
CONTINUOUS
 10
-1.124736
 20
0.249465
  0
VERTEX
  8
PLAN_1
 62
     2
  6
CONTINUOUS
 10
-1.120606
 20
0.249925
  0
VERTEX
  8
PLAN_1
 62
     2
  6
CONTINUOUS
 10
-1.116937
 20
0.249465
  0
VERTEX
  8
PLAN_1
 62
     2
  6
CONTINUOUS
 10
-1.113724
 20
0.249004
  0
VERTEX
  8
PLAN_1
 62
     2
  6
CONTINUOUS
 10
-1.110512
 20
0.247630
  0
VERTEX
  8
PLAN_1
 62
     2
  6
CONTINUOUS
 10
-1.108220
 20
0.246252
  0
VERTEX
  8
PLAN_1
 62
     2
  6
CONTINUOUS
 10
-1.105465
 20
0.243961
  0
VERTEX
  8
PLAN_1
 62
     2
  6
CONTINUOUS
 10
-1.103630
 20
0.242122
  0
VERTEX
  8
PLAN_1
 62
     2
  6
CONTINUOUS
 10
-1.101795
 20
0.239370
  0
VERTEX
  8
PLAN_1
 62
     2
  6
CONTINUOUS
 10
-1.100421
 20
0.236618
  0
VERTEX
  8
PLAN_1
 62
     2
  6
CONTINUOUS
 10
-1.098126
 20
0.230654
  0
VERTEX
  8
PLAN_1
 62
     2
  6
CONTINUOUS
 10
-1.096748
 20
0.224689
  0
VERTEX
  8
PLAN_1
 62
     2
  6
CONTINUOUS
 10
-1.095831
 20
0.218268
  0
VERTEX
  8
PLAN_1
 62
     2
  6
CONTINUOUS
 10
-1.095831
 20
0.212303
  0
VERTEX
  8
PLAN_1
 62
     2
  6
CONTINUOUS
 10
-1.095831
 20
0.206339
  0
VERTEX
  8
PLAN_1
 62
     2
  6
CONTINUOUS
 10
-1.096748
 20
0.199913
  0
VERTEX
  8
PLAN_1
 62
     2
  6
CONTINUOUS
 10
-1.098126
 20
0.193492
  0
VERTEX
  8
PLAN_1
 62
     2
  6
CONTINUOUS
 10
-1.100421
 20
0.187528
  0
VERTEX
  8
PLAN_1
 62
     2
  6
CONTINUOUS
 10
-1.101795
 20
0.185232
  0
VERTEX
  8
PLAN_1
 62
     2
  6
CONTINUOUS
 10
-1.103630
 20
0.182480
  0
VERTEX
  8
PLAN_1
 62
     2
  6
CONTINUOUS
 10
-1.105465
 20
0.180185
  0
VERTEX
  8
PLAN_1
 62
     2
  6
CONTINUOUS
 10
-1.108220
 20
0.178350
  0
VERTEX
  8
PLAN_1
 62
     2
  6
CONTINUOUS
 10
-1.110512
 20
0.176972
  0
VERTEX
  8
PLAN_1
 62
     2
  6
CONTINUOUS
 10
-1.113724
 20
0.175598
  0
VERTEX
  8
PLAN_1
 62
     2
  6
CONTINUOUS
 10
-1.116937
 20
0.174681
  0
VERTEX
  8
PLAN_1
 62
     2
  6
CONTINUOUS
 10
-1.120606
 20
0.174681
  0
SEQEND
  8
0
  0
POLYLINE
  8
PLAN_1
 62
     2
  6
CONTINUOUS
 66
     1
 40
0.003000
 41
0.003000
  0
VERTEX
  8
PLAN_1
 62
     2
  6
CONTINUOUS
 10
-1.120606
 20
0.241665
  0
VERTEX
  8
PLAN_1
 62
     2
  6
CONTINUOUS
 10
-1.122902
 20
0.241205
  0
VERTEX
  8
PLAN_1
 62
     2
  6
CONTINUOUS
 10
-1.124276
 20
0.241205
  0
VERTEX
  8
PLAN_1
 62
     2
  6
CONTINUOUS
 10
-1.126114
 20
0.240287
  0
VERTEX
  8
PLAN_1
 62
     2
  6
CONTINUOUS
 10
-1.127488
 20
0.239370
  0
VERTEX
  8
PLAN_1
 62
     2
  6
CONTINUOUS
 10
-1.128866
 20
0.238453
  0
VERTEX
  8
PLAN_1
 62
     2
  6
CONTINUOUS
 10
-1.130240
 20
0.237075
  0
VERTEX
  8
PLAN_1
 62
     2
  6
CONTINUOUS
 10
-1.131618
 20
0.235701
  0
VERTEX
  8
PLAN_1
 62
     2
  6
CONTINUOUS
 10
-1.132535
 20
0.233866
  0
VERTEX
  8
PLAN_1
 62
     2
  6
CONTINUOUS
 10
-1.133913
 20
0.229736
  0
VERTEX
  8
PLAN_1
 62
     2
  6
CONTINUOUS
 10
-1.135287
 20
0.224689
  0
VERTEX
  8
PLAN_1
 62
     2
  6
CONTINUOUS
 10
-1.135748
 20
0.218724
  0
VERTEX
  8
PLAN_1
 62
     2
  6
CONTINUOUS
 10
-1.136205
 20
0.212303
  0
VERTEX
  8
PLAN_1
 62
     2
  6
CONTINUOUS
 10
-1.135748
 20
0.205878
  0
VERTEX
  8
PLAN_1
 62
     2
  6
CONTINUOUS
 10
-1.135287
 20
0.199913
  0
VERTEX
  8
PLAN_1
 62
     2
  6
CONTINUOUS
 10
-1.133913
 20
0.194866
  0
VERTEX
  8
PLAN_1
 62
     2
  6
CONTINUOUS
 10
-1.132535
 20
0.190736
  0
VERTEX
  8
PLAN_1
 62
     2
  6
CONTINUOUS
 10
-1.131618
 20
0.188902
  0
VERTEX
  8
PLAN_1
 62
     2
  6
CONTINUOUS
 10
-1.130240
 20
0.187528
  0
VERTEX
  8
PLAN_1
 62
     2
  6
CONTINUOUS
 10
-1.128866
 20
0.186150
  0
VERTEX
  8
PLAN_1
 62
     2
  6
CONTINUOUS
 10
-1.127488
 20
0.184772
  0
VERTEX
  8
PLAN_1
 62
     2
  6
CONTINUOUS
 10
-1.126114
 20
0.183854
  0
VERTEX
  8
PLAN_1
 62
     2
  6
CONTINUOUS
 10
-1.124276
 20
0.183398
  0
VERTEX
  8
PLAN_1
 62
     2
  6
CONTINUOUS
 10
-1.122902
 20
0.182937
  0
VERTEX
  8
PLAN_1
 62
     2
  6
CONTINUOUS
 10
-1.120606
 20
0.182937
  0
VERTEX
  8
PLAN_1
 62
     2
  6
CONTINUOUS
 10
-1.118772
 20
0.182937
  0
VERTEX
  8
PLAN_1
 62
     2
  6
CONTINUOUS
 10
-1.116937
 20
0.183398
  0
VERTEX
  8
PLAN_1
 62
     2
  6
CONTINUOUS
 10
-1.115559
 20
0.183854
  0
VERTEX
  8
PLAN_1
 62
     2
  6
CONTINUOUS
 10
-1.114185
 20
0.184772
  0
VERTEX
  8
PLAN_1
 62
     2
  6
CONTINUOUS
 10
-1.112807
 20
0.186150
  0
VERTEX
  8
PLAN_1
 62
     2
  6
CONTINUOUS
 10
-1.111429
 20
0.187528
  0
VERTEX
  8
PLAN_1
 62
     2
  6
CONTINUOUS
 10
-1.110055
 20
0.188902
  0
VERTEX
  8
PLAN_1
 62
     2
  6
CONTINUOUS
 10
-1.109138
 20
0.190736
  0
VERTEX
  8
PLAN_1
 62
     2
  6
CONTINUOUS
 10
-1.107760
 20
0.194866
  0
VERTEX
  8
PLAN_1
 62
     2
  6
CONTINUOUS
 10
-1.106382
 20
0.199913
  0
VERTEX
  8
PLAN_1
 62
     2
  6
CONTINUOUS
 10
-1.105925
 20
0.205878
  0
VERTEX
  8
PLAN_1
 62
     2
  6
CONTINUOUS
 10
-1.105465
 20
0.212303
  0
VERTEX
  8
PLAN_1
 62
     2
  6
CONTINUOUS
 10
-1.105925
 20
0.218724
  0
VERTEX
  8
PLAN_1
 62
     2
  6
CONTINUOUS
 10
-1.106382
 20
0.224689
  0
VERTEX
  8
PLAN_1
 62
     2
  6
CONTINUOUS
 10
-1.107760
 20
0.229736
  0
VERTEX
  8
PLAN_1
 62
     2
  6
CONTINUOUS
 10
-1.109138
 20
0.233866
  0
VERTEX
  8
PLAN_1
 62
     2
  6
CONTINUOUS
 10
-1.110055
 20
0.235701
  0
VERTEX
  8
PLAN_1
 62
     2
  6
CONTINUOUS
 10
-1.111429
 20
0.237075
  0
VERTEX
  8
PLAN_1
 62
     2
  6
CONTINUOUS
 10
-1.112807
 20
0.238453
  0
VERTEX
  8
PLAN_1
 62
     2
  6
CONTINUOUS
 10
-1.114185
 20
0.239370
  0
VERTEX
  8
PLAN_1
 62
     2
  6
CONTINUOUS
 10
-1.115559
 20
0.240287
  0
VERTEX
  8
PLAN_1
 62
     2
  6
CONTINUOUS
 10
-1.116937
 20
0.241205
  0
VERTEX
  8
PLAN_1
 62
     2
  6
CONTINUOUS
 10
-1.118772
 20
0.241205
  0
VERTEX
  8
PLAN_1
 62
     2
  6
CONTINUOUS
 10
-1.120606
 20
0.241665
  0
SEQEND
  8
0
  0
POLYLINE
  8
PLAN_1
 62
     2
  6
CONTINUOUS
 66
     1
 40
0.004126
 41
0.004126
  0
VERTEX
  8
PLAN_1
 62
     2
  6
CONTINUOUS
 10
-0.117205
 20
0.412799
  0
VERTEX
  8
PLAN_1
 62
     2
  6
CONTINUOUS
 10
-0.117205
 20
0.129260
  0
SEQEND
  8
0
  0
POLYLINE
  8
PLAN_1
 62
     2
  6
CONTINUOUS
 66
     1
 40
0.004126
 41
0.004126
  0
VERTEX
  8
PLAN_1
 62
     2
  6
CONTINUOUS
 10
-2.182276
 20
2.559992
  0
VERTEX
  8
PLAN_1
 62
     2
  6
CONTINUOUS
 10
-2.182276
 20
0.129260
  0
SEQEND
  8
0
  0
ENDSEC
  0
EOF
