  0
SECTION
  2
HEADER
  9
$ACADVER
  1
AC1006
  9
$EXTMIN
 10
-2.182512
 20
-3.976150
  9
$EXTMAX
 10
2.181000
 20
3.981248
  9
$LTSCALE
 40
0.000394
  9
$PDMODE
 70
    35
  9
$PDSIZE
 40
0.000315
  0
ENDSEC
  0
SECTION
  2
TABLES
  0
TABLE
  2
LTYPE
 70
     9
  0
LTYPE
  2
CONTINUOUS
 70
    64
  3
Solid line
 72
    65
 73
     0
 40
0.000000
  0
LTYPE
  2
DASHED
 70
    64
  3
__ __ __ __ __ __ __ __ __ __ __ __ __ __ __
 72
    65
 73
     2
 40
0.000003
 49
0.000002
 49
-0.000001
  0
LTYPE
  2
HIDDEN
 70
    64
  3
 _ _ _ _ _ _ _ _ _ _ _ _ _ _ _ _ _ _ _ _ _ _
 72
    65
 73
     2
 40
0.000001
 49
0.000001
 49
-0.000000
  0
LTYPE
  2
CENTER
 70
    64
  3
____ _ ____ _ ____ _ ____ _ ____ _ ____ _ ____
 72
    65
 73
     4
 40
0.000008
 49
0.000005
 49
-0.000001
 49
0.000001
 49
-0.000001
  0
LTYPE
  2
PHANTOM
 70
    64
  3
_____ _ _ _____ _ _ _____ _ _ _____ _ _ ____
 72
    65
 73
     6
 40
0.000010
 49
0.000005
 49
-0.000001
 49
0.000001
 49
-0.000001
 49
0.000001
 49
-0.000001
  0
LTYPE
  2
DOT
 70
    64
  3
...............................................
 72
    65
 73
     2
 40
0.000001
 49
0.000000
 49
-0.000001
  0
LTYPE
  2
DASHDOT
 70
    64
  3
__ . __ . __ . __ . __ . __ . __ . __ . __ . __
 72
    65
 73
     4
 40
0.000004
 49
0.000002
 49
-0.000001
 49
0.000000
 49
-0.000001
  0
LTYPE
  2
BORDER
 70
    64
  3
__ __ . __ __ . __ __ . __ __ . __ __ . __ __
 72
    65
 73
     6
 40
0.000007
 49
0.000002
 49
-0.000001
 49
0.000002
 49
-0.000001
 49
0.000000
 49
-0.000001
  0
LTYPE
  2
DIVIDE
 70
    64
  3
__ . . __ . . __ . . __ . . __ . . __ . . __
 72
    65
 73
     6
 40
0.000005
 49
0.000002
 49
-0.000001
 49
0.000000
 49
-0.000001
 49
0.000000
 49
-0.000001
  0
LTYPE
  2
DOTDOT
 70
    64
  3
 . .  . .  . .  . .  . .  . . 
 72
    65
 73
     5
 40
0.000002
 49
-0.000001
 49
0.000000
 49
-0.000001
 49
0.000000
 49
-0.000001
  0
ENDTAB
  0
TABLE
  2
STYLE
 70
     0
  0
ENDTAB
  0
TABLE
  2
LAYER
 70
     3
  0
LAYER
  2
FOREGROUND
 70
    64
 62
     7
  6
CONTINUOUS
  0
LAYER
  2
BACKGROUND
 70
    65
 62
    -7
  6
CONTINUOUS
  0
LAYER
  2
PLAN_1
 70
    64
 62
     7
  6
CONTINUOUS
  0
ENDTAB
  0
ENDSEC
  0
SECTION
  2
ENTITIES
  0
POLYLINE
  8
PLAN_1
  6
CONTINUOUS
 66
     1
 40
0.003000
 41
0.003000
  0
VERTEX
  8
PLAN_1
  6
CONTINUOUS
 10
0.393126
 20
-3.941339
  0
VERTEX
  8
PLAN_1
  6
CONTINUOUS
 10
0.236472
 20
-3.941339
  0
VERTEX
  8
PLAN_1
  6
CONTINUOUS
 10
0.236472
 20
-3.918961
  0
VERTEX
  8
PLAN_1
  6
CONTINUOUS
 10
0.358315
 20
-3.766280
  0
VERTEX
  8
PLAN_1
  6
CONTINUOUS
 10
0.245421
 20
-3.766280
  0
VERTEX
  8
PLAN_1
  6
CONTINUOUS
 10
0.245421
 20
-3.742409
  0
VERTEX
  8
PLAN_1
  6
CONTINUOUS
 10
0.393126
 20
-3.742409
  0
VERTEX
  8
PLAN_1
  6
CONTINUOUS
 10
0.393126
 20
-3.765287
  0
VERTEX
  8
PLAN_1
  6
CONTINUOUS
 10
0.270287
 20
-3.917469
  0
VERTEX
  8
PLAN_1
  6
CONTINUOUS
 10
0.393126
 20
-3.917469
  0
VERTEX
  8
PLAN_1
  6
CONTINUOUS
 10
0.393126
 20
-3.941339
  0
SEQEND
  8
0
  0
POLYLINE
  8
PLAN_1
  6
CONTINUOUS
 66
     1
 40
0.003000
 41
0.003000
  0
VERTEX
  8
PLAN_1
  6
CONTINUOUS
 10
0.560228
 20
-3.802087
  0
VERTEX
  8
PLAN_1
  6
CONTINUOUS
 10
0.558736
 20
-3.796122
  0
VERTEX
  8
PLAN_1
  6
CONTINUOUS
 10
0.556748
 20
-3.790154
  0
VERTEX
  8
PLAN_1
  6
CONTINUOUS
 10
0.554260
 20
-3.785181
  0
VERTEX
  8
PLAN_1
  6
CONTINUOUS
 10
0.551276
 20
-3.780705
  0
VERTEX
  8
PLAN_1
  6
CONTINUOUS
 10
0.547795
 20
-3.777220
  0
VERTEX
  8
PLAN_1
  6
CONTINUOUS
 10
0.544315
 20
-3.773740
  0
VERTEX
  8
PLAN_1
  6
CONTINUOUS
 10
0.540831
 20
-3.770756
  0
VERTEX
  8
PLAN_1
  6
CONTINUOUS
 10
0.536854
 20
-3.768272
  0
VERTEX
  8
PLAN_1
  6
CONTINUOUS
 10
0.532874
 20
-3.766280
  0
VERTEX
  8
PLAN_1
  6
CONTINUOUS
 10
0.528898
 20
-3.764787
  0
VERTEX
  8
PLAN_1
  6
CONTINUOUS
 10
0.524421
 20
-3.763295
  0
VERTEX
  8
PLAN_1
  6
CONTINUOUS
 10
0.520441
 20
-3.762303
  0
VERTEX
  8
PLAN_1
  6
CONTINUOUS
 10
0.511988
 20
-3.761307
  0
VERTEX
  8
PLAN_1
  6
CONTINUOUS
 10
0.504528
 20
-3.760811
  0
VERTEX
  8
PLAN_1
  6
CONTINUOUS
 10
0.498063
 20
-3.761307
  0
VERTEX
  8
PLAN_1
  6
CONTINUOUS
 10
0.491598
 20
-3.761807
  0
VERTEX
  8
PLAN_1
  6
CONTINUOUS
 10
0.485134
 20
-3.763795
  0
VERTEX
  8
PLAN_1
  6
CONTINUOUS
 10
0.479165
 20
-3.765783
  0
VERTEX
  8
PLAN_1
  6
CONTINUOUS
 10
0.473693
 20
-3.768768
  0
VERTEX
  8
PLAN_1
  6
CONTINUOUS
 10
0.468224
 20
-3.772248
  0
VERTEX
  8
PLAN_1
  6
CONTINUOUS
 10
0.463252
 20
-3.776228
  0
VERTEX
  8
PLAN_1
  6
CONTINUOUS
 10
0.458276
 20
-3.780705
  0
VERTEX
  8
PLAN_1
  6
CONTINUOUS
 10
0.454299
 20
-3.786173
  0
VERTEX
  8
PLAN_1
  6
CONTINUOUS
 10
0.450319
 20
-3.791646
  0
VERTEX
  8
PLAN_1
  6
CONTINUOUS
 10
0.447335
 20
-3.798110
  0
VERTEX
  8
PLAN_1
  6
CONTINUOUS
 10
0.444350
 20
-3.805571
  0
VERTEX
  8
PLAN_1
  6
CONTINUOUS
 10
0.442362
 20
-3.813028
  0
VERTEX
  8
PLAN_1
  6
CONTINUOUS
 10
0.440870
 20
-3.821484
  0
VERTEX
  8
PLAN_1
  6
CONTINUOUS
 10
0.439874
 20
-3.830437
  0
VERTEX
  8
PLAN_1
  6
CONTINUOUS
 10
0.439378
 20
-3.839886
  0
VERTEX
  8
PLAN_1
  6
CONTINUOUS
 10
0.439378
 20
-3.848339
  0
VERTEX
  8
PLAN_1
  6
CONTINUOUS
 10
0.440374
 20
-3.856795
  0
VERTEX
  8
PLAN_1
  6
CONTINUOUS
 10
0.441366
 20
-3.864752
  0
VERTEX
  8
PLAN_1
  6
CONTINUOUS
 10
0.442858
 20
-3.872709
  0
VERTEX
  8
PLAN_1
  6
CONTINUOUS
 10
0.444850
 20
-3.880169
  0
VERTEX
  8
PLAN_1
  6
CONTINUOUS
 10
0.447335
 20
-3.886634
  0
VERTEX
  8
PLAN_1
  6
CONTINUOUS
 10
0.450319
 20
-3.893098
  0
VERTEX
  8
PLAN_1
  6
CONTINUOUS
 10
0.453799
 20
-3.899067
  0
VERTEX
  8
PLAN_1
  6
CONTINUOUS
 10
0.458276
 20
-3.904039
  0
VERTEX
  8
PLAN_1
  6
CONTINUOUS
 10
0.462752
 20
-3.909012
  0
VERTEX
  8
PLAN_1
  6
CONTINUOUS
 10
0.468224
 20
-3.912992
  0
VERTEX
  8
PLAN_1
  6
CONTINUOUS
 10
0.474193
 20
-3.916472
  0
VERTEX
  8
PLAN_1
  6
CONTINUOUS
 10
0.481154
 20
-3.919457
  0
VERTEX
  8
PLAN_1
  6
CONTINUOUS
 10
0.488614
 20
-3.921445
  0
VERTEX
  8
PLAN_1
  6
CONTINUOUS
 10
0.496571
 20
-3.922441
  0
VERTEX
  8
PLAN_1
  6
CONTINUOUS
 10
0.505524
 20
-3.922937
  0
VERTEX
  8
PLAN_1
  6
CONTINUOUS
 10
0.509004
 20
-3.922937
  0
VERTEX
  8
PLAN_1
  6
CONTINUOUS
 10
0.512484
 20
-3.922441
  0
VERTEX
  8
PLAN_1
  6
CONTINUOUS
 10
0.516465
 20
-3.921941
  0
VERTEX
  8
PLAN_1
  6
CONTINUOUS
 10
0.520441
 20
-3.920949
  0
VERTEX
  8
PLAN_1
  6
CONTINUOUS
 10
0.524421
 20
-3.919457
  0
VERTEX
  8
PLAN_1
  6
CONTINUOUS
 10
0.528898
 20
-3.917965
  0
VERTEX
  8
PLAN_1
  6
CONTINUOUS
 10
0.532874
 20
-3.915476
  0
VERTEX
  8
PLAN_1
  6
CONTINUOUS
 10
0.536854
 20
-3.912992
  0
VERTEX
  8
PLAN_1
  6
CONTINUOUS
 10
0.540831
 20
-3.909512
  0
VERTEX
  8
PLAN_1
  6
CONTINUOUS
 10
0.544811
 20
-3.906028
  0
VERTEX
  8
PLAN_1
  6
CONTINUOUS
 10
0.548791
 20
-3.901551
  0
VERTEX
  8
PLAN_1
  6
CONTINUOUS
 10
0.552272
 20
-3.896083
  0
VERTEX
  8
PLAN_1
  6
CONTINUOUS
 10
0.555256
 20
-3.890610
  0
VERTEX
  8
PLAN_1
  6
CONTINUOUS
 10
0.558240
 20
-3.883650
  0
VERTEX
  8
PLAN_1
  6
CONTINUOUS
 10
0.560228
 20
-3.876685
  0
VERTEX
  8
PLAN_1
  6
CONTINUOUS
 10
0.562217
 20
-3.868232
  0
VERTEX
  8
PLAN_1
  6
CONTINUOUS
 10
0.588575
 20
-3.868232
  0
VERTEX
  8
PLAN_1
  6
CONTINUOUS
 10
0.587083
 20
-3.875193
  0
VERTEX
  8
PLAN_1
  6
CONTINUOUS
 10
0.585591
 20
-3.881661
  0
VERTEX
  8
PLAN_1
  6
CONTINUOUS
 10
0.584098
 20
-3.887626
  0
VERTEX
  8
PLAN_1
  6
CONTINUOUS
 10
0.582110
 20
-3.893098
  0
VERTEX
  8
PLAN_1
  6
CONTINUOUS
 10
0.580122
 20
-3.898567
  0
VERTEX
  8
PLAN_1
  6
CONTINUOUS
 10
0.577634
 20
-3.903543
  0
VERTEX
  8
PLAN_1
  6
CONTINUOUS
 10
0.575146
 20
-3.908020
  0
VERTEX
  8
PLAN_1
  6
CONTINUOUS
 10
0.572165
 20
-3.911996
  0
VERTEX
  8
PLAN_1
  6
CONTINUOUS
 10
0.569181
 20
-3.915976
  0
VERTEX
  8
PLAN_1
  6
CONTINUOUS
 10
0.566197
 20
-3.919953
  0
VERTEX
  8
PLAN_1
  6
CONTINUOUS
 10
0.563213
 20
-3.922937
  0
VERTEX
  8
PLAN_1
  6
CONTINUOUS
 10
0.559732
 20
-3.925921
  0
VERTEX
  8
PLAN_1
  6
CONTINUOUS
 10
0.553264
 20
-3.931394
  0
VERTEX
  8
PLAN_1
  6
CONTINUOUS
 10
0.546303
 20
-3.935866
  0
VERTEX
  8
PLAN_1
  6
CONTINUOUS
 10
0.539339
 20
-3.938850
  0
VERTEX
  8
PLAN_1
  6
CONTINUOUS
 10
0.532378
 20
-3.941835
  0
VERTEX
  8
PLAN_1
  6
CONTINUOUS
 10
0.525913
 20
-3.943827
  0
VERTEX
  8
PLAN_1
  6
CONTINUOUS
 10
0.519449
 20
-3.944819
  0
VERTEX
  8
PLAN_1
  6
CONTINUOUS
 10
0.509004
 20
-3.946311
  0
VERTEX
  8
PLAN_1
  6
CONTINUOUS
 10
0.501543
 20
-3.946807
  0
VERTEX
  8
PLAN_1
  6
CONTINUOUS
 10
0.493091
 20
-3.946311
  0
VERTEX
  8
PLAN_1
  6
CONTINUOUS
 10
0.484634
 20
-3.945319
  0
VERTEX
  8
PLAN_1
  6
CONTINUOUS
 10
0.476181
 20
-3.943327
  0
VERTEX
  8
PLAN_1
  6
CONTINUOUS
 10
0.468224
 20
-3.940843
  0
VERTEX
  8
PLAN_1
  6
CONTINUOUS
 10
0.460268
 20
-3.937358
  0
VERTEX
  8
PLAN_1
  6
CONTINUOUS
 10
0.453303
 20
-3.933382
  0
VERTEX
  8
PLAN_1
  6
CONTINUOUS
 10
0.445843
 20
-3.928409
  0
VERTEX
  8
PLAN_1
  6
CONTINUOUS
 10
0.439378
 20
-3.922441
  0
VERTEX
  8
PLAN_1
  6
CONTINUOUS
 10
0.436394
 20
-3.918961
  0
VERTEX
  8
PLAN_1
  6
CONTINUOUS
 10
0.433409
 20
-3.915476
  0
VERTEX
  8
PLAN_1
  6
CONTINUOUS
 10
0.430925
 20
-3.911996
  0
VERTEX
  8
PLAN_1
  6
CONTINUOUS
 10
0.427941
 20
-3.908020
  0
VERTEX
  8
PLAN_1
  6
CONTINUOUS
 10
0.425453
 20
-3.903543
  0
VERTEX
  8
PLAN_1
  6
CONTINUOUS
 10
0.423465
 20
-3.899067
  0
VERTEX
  8
PLAN_1
  6
CONTINUOUS
 10
0.421476
 20
-3.894591
  0
VERTEX
  8
PLAN_1
  6
CONTINUOUS
 10
0.419484
 20
-3.889618
  0
VERTEX
  8
PLAN_1
  6
CONTINUOUS
 10
0.417496
 20
-3.884646
  0
VERTEX
  8
PLAN_1
  6
CONTINUOUS
 10
0.416004
 20
-3.879173
  0
VERTEX
  8
PLAN_1
  6
CONTINUOUS
 10
0.414512
 20
-3.873205
  0
VERTEX
  8
PLAN_1
  6
CONTINUOUS
 10
0.413520
 20
-3.867236
  0
VERTEX
  8
PLAN_1
  6
CONTINUOUS
 10
0.413020
 20
-3.861268
  0
VERTEX
  8
PLAN_1
  6
CONTINUOUS
 10
0.412028
 20
-3.854307
  0
VERTEX
  8
PLAN_1
  6
CONTINUOUS
 10
0.412028
 20
-3.847843
  0
VERTEX
  8
PLAN_1
  6
CONTINUOUS
 10
0.411528
 20
-3.840878
  0
VERTEX
  8
PLAN_1
  6
CONTINUOUS
 10
0.412028
 20
-3.829441
  0
VERTEX
  8
PLAN_1
  6
CONTINUOUS
 10
0.413520
 20
-3.818500
  0
VERTEX
  8
PLAN_1
  6
CONTINUOUS
 10
0.415508
 20
-3.808555
  0
VERTEX
  8
PLAN_1
  6
CONTINUOUS
 10
0.417992
 20
-3.798606
  0
VERTEX
  8
PLAN_1
  6
CONTINUOUS
 10
0.421476
 20
-3.789654
  0
VERTEX
  8
PLAN_1
  6
CONTINUOUS
 10
0.425953
 20
-3.780705
  0
VERTEX
  8
PLAN_1
  6
CONTINUOUS
 10
0.430925
 20
-3.773244
  0
VERTEX
  8
PLAN_1
  6
CONTINUOUS
 10
0.436394
 20
-3.765783
  0
VERTEX
  8
PLAN_1
  6
CONTINUOUS
 10
0.439378
 20
-3.762303
  0
VERTEX
  8
PLAN_1
  6
CONTINUOUS
 10
0.442858
 20
-3.759319
  0
VERTEX
  8
PLAN_1
  6
CONTINUOUS
 10
0.446343
 20
-3.756335
  0
VERTEX
  8
PLAN_1
  6
CONTINUOUS
 10
0.449823
 20
-3.753846
  0
VERTEX
  8
PLAN_1
  6
CONTINUOUS
 10
0.453303
 20
-3.750862
  0
VERTEX
  8
PLAN_1
  6
CONTINUOUS
 10
0.457283
 20
-3.748874
  0
VERTEX
  8
PLAN_1
  6
CONTINUOUS
 10
0.461260
 20
-3.746390
  0
VERTEX
  8
PLAN_1
  6
CONTINUOUS
 10
0.465736
 20
-3.744398
  0
VERTEX
  8
PLAN_1
  6
CONTINUOUS
 10
0.470213
 20
-3.742906
  0
VERTEX
  8
PLAN_1
  6
CONTINUOUS
 10
0.474689
 20
-3.741413
  0
VERTEX
  8
PLAN_1
  6
CONTINUOUS
 10
0.479165
 20
-3.739921
  0
VERTEX
  8
PLAN_1
  6
CONTINUOUS
 10
0.484138
 20
-3.738929
  0
VERTEX
  8
PLAN_1
  6
CONTINUOUS
 10
0.489110
 20
-3.737933
  0
VERTEX
  8
PLAN_1
  6
CONTINUOUS
 10
0.494083
 20
-3.737437
  0
VERTEX
  8
PLAN_1
  6
CONTINUOUS
 10
0.499059
 20
-3.736941
  0
VERTEX
  8
PLAN_1
  6
CONTINUOUS
 10
0.504528
 20
-3.736941
  0
VERTEX
  8
PLAN_1
  6
CONTINUOUS
 10
0.513976
 20
-3.737437
  0
VERTEX
  8
PLAN_1
  6
CONTINUOUS
 10
0.522929
 20
-3.738433
  0
VERTEX
  8
PLAN_1
  6
CONTINUOUS
 10
0.530886
 20
-3.739921
  0
VERTEX
  8
PLAN_1
  6
CONTINUOUS
 10
0.538346
 20
-3.742409
  0
VERTEX
  8
PLAN_1
  6
CONTINUOUS
 10
0.545807
 20
-3.745394
  0
VERTEX
  8
PLAN_1
  6
CONTINUOUS
 10
0.552272
 20
-3.748874
  0
VERTEX
  8
PLAN_1
  6
CONTINUOUS
 10
0.558240
 20
-3.752854
  0
VERTEX
  8
PLAN_1
  6
CONTINUOUS
 10
0.563213
 20
-3.756831
  0
VERTEX
  8
PLAN_1
  6
CONTINUOUS
 10
0.568185
 20
-3.761807
  0
VERTEX
  8
PLAN_1
  6
CONTINUOUS
 10
0.572661
 20
-3.766780
  0
VERTEX
  8
PLAN_1
  6
CONTINUOUS
 10
0.576142
 20
-3.772248
  0
VERTEX
  8
PLAN_1
  6
CONTINUOUS
 10
0.579126
 20
-3.777720
  0
VERTEX
  8
PLAN_1
  6
CONTINUOUS
 10
0.582110
 20
-3.783689
  0
VERTEX
  8
PLAN_1
  6
CONTINUOUS
 10
0.584098
 20
-3.789654
  0
VERTEX
  8
PLAN_1
  6
CONTINUOUS
 10
0.585591
 20
-3.796122
  0
VERTEX
  8
PLAN_1
  6
CONTINUOUS
 10
0.586587
 20
-3.802087
  0
VERTEX
  8
PLAN_1
  6
CONTINUOUS
 10
0.560228
 20
-3.802087
  0
SEQEND
  8
0
  0
POLYLINE
  8
PLAN_1
  6
CONTINUOUS
 66
     1
 40
0.003000
 41
0.003000
  0
VERTEX
  8
PLAN_1
  6
CONTINUOUS
 10
0.647756
 20
-3.941339
  0
VERTEX
  8
PLAN_1
  6
CONTINUOUS
 10
0.620902
 20
-3.941339
  0
VERTEX
  8
PLAN_1
  6
CONTINUOUS
 10
0.620902
 20
-3.742409
  0
VERTEX
  8
PLAN_1
  6
CONTINUOUS
 10
0.647756
 20
-3.742409
  0
VERTEX
  8
PLAN_1
  6
CONTINUOUS
 10
0.647756
 20
-3.838890
  0
VERTEX
  8
PLAN_1
  6
CONTINUOUS
 10
0.744732
 20
-3.742409
  0
VERTEX
  8
PLAN_1
  6
CONTINUOUS
 10
0.781535
 20
-3.742409
  0
VERTEX
  8
PLAN_1
  6
CONTINUOUS
 10
0.698484
 20
-3.822480
  0
VERTEX
  8
PLAN_1
  6
CONTINUOUS
 10
0.784024
 20
-3.941339
  0
VERTEX
  8
PLAN_1
  6
CONTINUOUS
 10
0.748713
 20
-3.941339
  0
VERTEX
  8
PLAN_1
  6
CONTINUOUS
 10
0.679087
 20
-3.841378
  0
VERTEX
  8
PLAN_1
  6
CONTINUOUS
 10
0.647756
 20
-3.871713
  0
VERTEX
  8
PLAN_1
  6
CONTINUOUS
 10
0.647756
 20
-3.941339
  0
SEQEND
  8
0
  0
POLYLINE
  8
PLAN_1
  6
CONTINUOUS
 66
     1
 40
0.003000
 41
0.003000
  0
VERTEX
  8
PLAN_1
  6
CONTINUOUS
 10
0.956094
 20
-3.941339
  0
VERTEX
  8
PLAN_1
  6
CONTINUOUS
 10
0.808890
 20
-3.941339
  0
VERTEX
  8
PLAN_1
  6
CONTINUOUS
 10
0.808890
 20
-3.742409
  0
VERTEX
  8
PLAN_1
  6
CONTINUOUS
 10
0.954106
 20
-3.742409
  0
VERTEX
  8
PLAN_1
  6
CONTINUOUS
 10
0.954106
 20
-3.766280
  0
VERTEX
  8
PLAN_1
  6
CONTINUOUS
 10
0.835744
 20
-3.766280
  0
VERTEX
  8
PLAN_1
  6
CONTINUOUS
 10
0.835744
 20
-3.826953
  0
VERTEX
  8
PLAN_1
  6
CONTINUOUS
 10
0.945154
 20
-3.826953
  0
VERTEX
  8
PLAN_1
  6
CONTINUOUS
 10
0.945154
 20
-3.850827
  0
VERTEX
  8
PLAN_1
  6
CONTINUOUS
 10
0.835744
 20
-3.850827
  0
VERTEX
  8
PLAN_1
  6
CONTINUOUS
 10
0.835744
 20
-3.917469
  0
VERTEX
  8
PLAN_1
  6
CONTINUOUS
 10
0.956094
 20
-3.917469
  0
VERTEX
  8
PLAN_1
  6
CONTINUOUS
 10
0.956094
 20
-3.941339
  0
SEQEND
  8
0
  0
POLYLINE
  8
PLAN_1
  6
CONTINUOUS
 66
     1
 40
0.003000
 41
0.003000
  0
VERTEX
  8
PLAN_1
  6
CONTINUOUS
 10
1.047602
 20
-3.946807
  0
VERTEX
  8
PLAN_1
  6
CONTINUOUS
 10
1.042134
 20
-3.946807
  0
VERTEX
  8
PLAN_1
  6
CONTINUOUS
 10
1.037657
 20
-3.945815
  0
VERTEX
  8
PLAN_1
  6
CONTINUOUS
 10
1.032685
 20
-3.945319
  0
VERTEX
  8
PLAN_1
  6
CONTINUOUS
 10
1.028705
 20
-3.944323
  0
VERTEX
  8
PLAN_1
  6
CONTINUOUS
 10
1.024228
 20
-3.942831
  0
VERTEX
  8
PLAN_1
  6
CONTINUOUS
 10
1.020252
 20
-3.940843
  0
VERTEX
  8
PLAN_1
  6
CONTINUOUS
 10
1.016768
 20
-3.938850
  0
VERTEX
  8
PLAN_1
  6
CONTINUOUS
 10
1.013287
 20
-3.936862
  0
VERTEX
  8
PLAN_1
  6
CONTINUOUS
 10
1.010303
 20
-3.934374
  0
VERTEX
  8
PLAN_1
  6
CONTINUOUS
 10
1.007319
 20
-3.931890
  0
VERTEX
  8
PLAN_1
  6
CONTINUOUS
 10
1.004335
 20
-3.928906
  0
VERTEX
  8
PLAN_1
  6
CONTINUOUS
 10
1.001850
 20
-3.925921
  0
VERTEX
  8
PLAN_1
  6
CONTINUOUS
 10
0.996878
 20
-3.918961
  0
VERTEX
  8
PLAN_1
  6
CONTINUOUS
 10
0.992898
 20
-3.911996
  0
VERTEX
  8
PLAN_1
  6
CONTINUOUS
 10
0.989913
 20
-3.904039
  0
VERTEX
  8
PLAN_1
  6
CONTINUOUS
 10
0.986929
 20
-3.896083
  0
VERTEX
  8
PLAN_1
  6
CONTINUOUS
 10
0.984941
 20
-3.887626
  0
VERTEX
  8
PLAN_1
  6
CONTINUOUS
 10
0.982953
 20
-3.879173
  0
VERTEX
  8
PLAN_1
  6
CONTINUOUS
 10
0.981957
 20
-3.870720
  0
VERTEX
  8
PLAN_1
  6
CONTINUOUS
 10
0.980961
 20
-3.862264
  0
VERTEX
  8
PLAN_1
  6
CONTINUOUS
 10
0.980961
 20
-3.854307
  0
VERTEX
  8
PLAN_1
  6
CONTINUOUS
 10
0.980465
 20
-3.846350
  0
VERTEX
  8
PLAN_1
  6
CONTINUOUS
 10
0.980961
 20
-3.838890
  0
VERTEX
  8
PLAN_1
  6
CONTINUOUS
 10
0.980961
 20
-3.830437
  0
VERTEX
  8
PLAN_1
  6
CONTINUOUS
 10
0.981957
 20
-3.822480
  0
VERTEX
  8
PLAN_1
  6
CONTINUOUS
 10
0.982953
 20
-3.814024
  0
VERTEX
  8
PLAN_1
  6
CONTINUOUS
 10
0.984941
 20
-3.805571
  0
VERTEX
  8
PLAN_1
  6
CONTINUOUS
 10
0.986929
 20
-3.797114
  0
VERTEX
  8
PLAN_1
  6
CONTINUOUS
 10
0.989913
 20
-3.789157
  0
VERTEX
  8
PLAN_1
  6
CONTINUOUS
 10
0.992898
 20
-3.781201
  0
VERTEX
  8
PLAN_1
  6
CONTINUOUS
 10
0.996878
 20
-3.774240
  0
VERTEX
  8
PLAN_1
  6
CONTINUOUS
 10
1.001850
 20
-3.767276
  0
VERTEX
  8
PLAN_1
  6
CONTINUOUS
 10
1.004335
 20
-3.764291
  0
VERTEX
  8
PLAN_1
  6
CONTINUOUS
 10
1.007319
 20
-3.761307
  0
VERTEX
  8
PLAN_1
  6
CONTINUOUS
 10
1.010303
 20
-3.758823
  0
VERTEX
  8
PLAN_1
  6
CONTINUOUS
 10
1.013287
 20
-3.756335
  0
VERTEX
  8
PLAN_1
  6
CONTINUOUS
 10
1.016768
 20
-3.754346
  0
VERTEX
  8
PLAN_1
  6
CONTINUOUS
 10
1.020252
 20
-3.752354
  0
VERTEX
  8
PLAN_1
  6
CONTINUOUS
 10
1.024228
 20
-3.750366
  0
VERTEX
  8
PLAN_1
  6
CONTINUOUS
 10
1.028705
 20
-3.748874
  0
VERTEX
  8
PLAN_1
  6
CONTINUOUS
 10
1.032685
 20
-3.747882
  0
VERTEX
  8
PLAN_1
  6
CONTINUOUS
 10
1.037657
 20
-3.746886
  0
VERTEX
  8
PLAN_1
  6
CONTINUOUS
 10
1.042134
 20
-3.746390
  0
VERTEX
  8
PLAN_1
  6
CONTINUOUS
 10
1.047602
 20
-3.746390
  0
VERTEX
  8
PLAN_1
  6
CONTINUOUS
 10
1.052575
 20
-3.746390
  0
VERTEX
  8
PLAN_1
  6
CONTINUOUS
 10
1.057551
 20
-3.746886
  0
VERTEX
  8
PLAN_1
  6
CONTINUOUS
 10
1.062028
 20
-3.747882
  0
VERTEX
  8
PLAN_1
  6
CONTINUOUS
 10
1.066500
 20
-3.748874
  0
VERTEX
  8
PLAN_1
  6
CONTINUOUS
 10
1.070480
 20
-3.750366
  0
VERTEX
  8
PLAN_1
  6
CONTINUOUS
 10
1.074461
 20
-3.752354
  0
VERTEX
  8
PLAN_1
  6
CONTINUOUS
 10
1.077941
 20
-3.754346
  0
VERTEX
  8
PLAN_1
  6
CONTINUOUS
 10
1.081421
 20
-3.756335
  0
VERTEX
  8
PLAN_1
  6
CONTINUOUS
 10
1.084902
 20
-3.758823
  0
VERTEX
  8
PLAN_1
  6
CONTINUOUS
 10
1.087886
 20
-3.761307
  0
VERTEX
  8
PLAN_1
  6
CONTINUOUS
 10
1.090870
 20
-3.764291
  0
VERTEX
  8
PLAN_1
  6
CONTINUOUS
 10
1.093358
 20
-3.767276
  0
VERTEX
  8
PLAN_1
  6
CONTINUOUS
 10
1.097835
 20
-3.774240
  0
VERTEX
  8
PLAN_1
  6
CONTINUOUS
 10
1.101811
 20
-3.781201
  0
VERTEX
  8
PLAN_1
  6
CONTINUOUS
 10
1.105291
 20
-3.789157
  0
VERTEX
  8
PLAN_1
  6
CONTINUOUS
 10
1.107780
 20
-3.797114
  0
VERTEX
  8
PLAN_1
  6
CONTINUOUS
 10
1.110268
 20
-3.805571
  0
VERTEX
  8
PLAN_1
  6
CONTINUOUS
 10
1.111756
 20
-3.814024
  0
VERTEX
  8
PLAN_1
  6
CONTINUOUS
 10
1.112752
 20
-3.822480
  0
VERTEX
  8
PLAN_1
  6
CONTINUOUS
 10
1.113748
 20
-3.830437
  0
VERTEX
  8
PLAN_1
  6
CONTINUOUS
 10
1.114244
 20
-3.838890
  0
VERTEX
  8
PLAN_1
  6
CONTINUOUS
 10
1.114244
 20
-3.846350
  0
VERTEX
  8
PLAN_1
  6
CONTINUOUS
 10
1.114244
 20
-3.854307
  0
VERTEX
  8
PLAN_1
  6
CONTINUOUS
 10
1.113748
 20
-3.862264
  0
VERTEX
  8
PLAN_1
  6
CONTINUOUS
 10
1.112752
 20
-3.870720
  0
VERTEX
  8
PLAN_1
  6
CONTINUOUS
 10
1.111756
 20
-3.879173
  0
VERTEX
  8
PLAN_1
  6
CONTINUOUS
 10
1.110268
 20
-3.887626
  0
VERTEX
  8
PLAN_1
  6
CONTINUOUS
 10
1.107780
 20
-3.896083
  0
VERTEX
  8
PLAN_1
  6
CONTINUOUS
 10
1.105291
 20
-3.904039
  0
VERTEX
  8
PLAN_1
  6
CONTINUOUS
 10
1.101811
 20
-3.911996
  0
VERTEX
  8
PLAN_1
  6
CONTINUOUS
 10
1.097835
 20
-3.918961
  0
VERTEX
  8
PLAN_1
  6
CONTINUOUS
 10
1.093358
 20
-3.925921
  0
VERTEX
  8
PLAN_1
  6
CONTINUOUS
 10
1.090870
 20
-3.928906
  0
VERTEX
  8
PLAN_1
  6
CONTINUOUS
 10
1.087886
 20
-3.931890
  0
VERTEX
  8
PLAN_1
  6
CONTINUOUS
 10
1.084902
 20
-3.934374
  0
VERTEX
  8
PLAN_1
  6
CONTINUOUS
 10
1.081421
 20
-3.936862
  0
VERTEX
  8
PLAN_1
  6
CONTINUOUS
 10
1.077941
 20
-3.938850
  0
VERTEX
  8
PLAN_1
  6
CONTINUOUS
 10
1.074461
 20
-3.940843
  0
VERTEX
  8
PLAN_1
  6
CONTINUOUS
 10
1.070480
 20
-3.942831
  0
VERTEX
  8
PLAN_1
  6
CONTINUOUS
 10
1.066500
 20
-3.944323
  0
VERTEX
  8
PLAN_1
  6
CONTINUOUS
 10
1.062028
 20
-3.945319
  0
VERTEX
  8
PLAN_1
  6
CONTINUOUS
 10
1.057551
 20
-3.945815
  0
VERTEX
  8
PLAN_1
  6
CONTINUOUS
 10
1.052575
 20
-3.946807
  0
VERTEX
  8
PLAN_1
  6
CONTINUOUS
 10
1.047602
 20
-3.946807
  0
SEQEND
  8
0
  0
POLYLINE
  8
PLAN_1
  6
CONTINUOUS
 66
     1
 40
0.003000
 41
0.003000
  0
VERTEX
  8
PLAN_1
  6
CONTINUOUS
 10
1.047602
 20
-3.768272
  0
VERTEX
  8
PLAN_1
  6
CONTINUOUS
 10
1.042630
 20
-3.768768
  0
VERTEX
  8
PLAN_1
  6
CONTINUOUS
 10
1.037657
 20
-3.769764
  0
VERTEX
  8
PLAN_1
  6
CONTINUOUS
 10
1.033181
 20
-3.771256
  0
VERTEX
  8
PLAN_1
  6
CONTINUOUS
 10
1.029201
 20
-3.773740
  0
VERTEX
  8
PLAN_1
  6
CONTINUOUS
 10
1.025720
 20
-3.776724
  0
VERTEX
  8
PLAN_1
  6
CONTINUOUS
 10
1.022240
 20
-3.780205
  0
VERTEX
  8
PLAN_1
  6
CONTINUOUS
 10
1.019256
 20
-3.784185
  0
VERTEX
  8
PLAN_1
  6
CONTINUOUS
 10
1.016768
 20
-3.789157
  0
VERTEX
  8
PLAN_1
  6
CONTINUOUS
 10
1.014283
 20
-3.794630
  0
VERTEX
  8
PLAN_1
  6
CONTINUOUS
 10
1.012295
 20
-3.800098
  0
VERTEX
  8
PLAN_1
  6
CONTINUOUS
 10
1.010303
 20
-3.806563
  0
VERTEX
  8
PLAN_1
  6
CONTINUOUS
 10
1.009311
 20
-3.813528
  0
VERTEX
  8
PLAN_1
  6
CONTINUOUS
 10
1.007819
 20
-3.820988
  0
VERTEX
  8
PLAN_1
  6
CONTINUOUS
 10
1.007319
 20
-3.828945
  0
VERTEX
  8
PLAN_1
  6
CONTINUOUS
 10
1.006823
 20
-3.837398
  0
VERTEX
  8
PLAN_1
  6
CONTINUOUS
 10
1.006823
 20
-3.846350
  0
VERTEX
  8
PLAN_1
  6
CONTINUOUS
 10
1.006823
 20
-3.855303
  0
VERTEX
  8
PLAN_1
  6
CONTINUOUS
 10
1.007319
 20
-3.863756
  0
VERTEX
  8
PLAN_1
  6
CONTINUOUS
 10
1.007819
 20
-3.871713
  0
VERTEX
  8
PLAN_1
  6
CONTINUOUS
 10
1.009311
 20
-3.879173
  0
VERTEX
  8
PLAN_1
  6
CONTINUOUS
 10
1.010303
 20
-3.886134
  0
VERTEX
  8
PLAN_1
  6
CONTINUOUS
 10
1.012295
 20
-3.892602
  0
VERTEX
  8
PLAN_1
  6
CONTINUOUS
 10
1.014283
 20
-3.898567
  0
VERTEX
  8
PLAN_1
  6
CONTINUOUS
 10
1.016768
 20
-3.904039
  0
VERTEX
  8
PLAN_1
  6
CONTINUOUS
 10
1.019256
 20
-3.909012
  0
VERTEX
  8
PLAN_1
  6
CONTINUOUS
 10
1.022240
 20
-3.912992
  0
VERTEX
  8
PLAN_1
  6
CONTINUOUS
 10
1.025720
 20
-3.916472
  0
VERTEX
  8
PLAN_1
  6
CONTINUOUS
 10
1.029201
 20
-3.919457
  0
VERTEX
  8
PLAN_1
  6
CONTINUOUS
 10
1.033181
 20
-3.921941
  0
VERTEX
  8
PLAN_1
  6
CONTINUOUS
 10
1.037657
 20
-3.923433
  0
VERTEX
  8
PLAN_1
  6
CONTINUOUS
 10
1.042630
 20
-3.924429
  0
VERTEX
  8
PLAN_1
  6
CONTINUOUS
 10
1.047602
 20
-3.924925
  0
VERTEX
  8
PLAN_1
  6
CONTINUOUS
 10
1.052575
 20
-3.924429
  0
VERTEX
  8
PLAN_1
  6
CONTINUOUS
 10
1.057051
 20
-3.923433
  0
VERTEX
  8
PLAN_1
  6
CONTINUOUS
 10
1.061528
 20
-3.921941
  0
VERTEX
  8
PLAN_1
  6
CONTINUOUS
 10
1.065508
 20
-3.919457
  0
VERTEX
  8
PLAN_1
  6
CONTINUOUS
 10
1.069484
 20
-3.916472
  0
VERTEX
  8
PLAN_1
  6
CONTINUOUS
 10
1.072469
 20
-3.912992
  0
VERTEX
  8
PLAN_1
  6
CONTINUOUS
 10
1.075453
 20
-3.909012
  0
VERTEX
  8
PLAN_1
  6
CONTINUOUS
 10
1.078437
 20
-3.904039
  0
VERTEX
  8
PLAN_1
  6
CONTINUOUS
 10
1.080925
 20
-3.898567
  0
VERTEX
  8
PLAN_1
  6
CONTINUOUS
 10
1.082913
 20
-3.892602
  0
VERTEX
  8
PLAN_1
  6
CONTINUOUS
 10
1.084406
 20
-3.886134
  0
VERTEX
  8
PLAN_1
  6
CONTINUOUS
 10
1.085898
 20
-3.879173
  0
VERTEX
  8
PLAN_1
  6
CONTINUOUS
 10
1.086894
 20
-3.871713
  0
VERTEX
  8
PLAN_1
  6
CONTINUOUS
 10
1.087886
 20
-3.863756
  0
VERTEX
  8
PLAN_1
  6
CONTINUOUS
 10
1.087886
 20
-3.855303
  0
VERTEX
  8
PLAN_1
  6
CONTINUOUS
 10
1.088382
 20
-3.846350
  0
VERTEX
  8
PLAN_1
  6
CONTINUOUS
 10
1.087886
 20
-3.837398
  0
VERTEX
  8
PLAN_1
  6
CONTINUOUS
 10
1.087886
 20
-3.828945
  0
VERTEX
  8
PLAN_1
  6
CONTINUOUS
 10
1.086894
 20
-3.820988
  0
VERTEX
  8
PLAN_1
  6
CONTINUOUS
 10
1.085898
 20
-3.813528
  0
VERTEX
  8
PLAN_1
  6
CONTINUOUS
 10
1.084406
 20
-3.806563
  0
VERTEX
  8
PLAN_1
  6
CONTINUOUS
 10
1.082913
 20
-3.800098
  0
VERTEX
  8
PLAN_1
  6
CONTINUOUS
 10
1.080925
 20
-3.794630
  0
VERTEX
  8
PLAN_1
  6
CONTINUOUS
 10
1.078437
 20
-3.789157
  0
VERTEX
  8
PLAN_1
  6
CONTINUOUS
 10
1.075453
 20
-3.784185
  0
VERTEX
  8
PLAN_1
  6
CONTINUOUS
 10
1.072469
 20
-3.780205
  0
VERTEX
  8
PLAN_1
  6
CONTINUOUS
 10
1.069484
 20
-3.776724
  0
VERTEX
  8
PLAN_1
  6
CONTINUOUS
 10
1.065508
 20
-3.773740
  0
VERTEX
  8
PLAN_1
  6
CONTINUOUS
 10
1.061528
 20
-3.771256
  0
VERTEX
  8
PLAN_1
  6
CONTINUOUS
 10
1.057051
 20
-3.769764
  0
VERTEX
  8
PLAN_1
  6
CONTINUOUS
 10
1.052575
 20
-3.768768
  0
VERTEX
  8
PLAN_1
  6
CONTINUOUS
 10
1.047602
 20
-3.768272
  0
SEQEND
  8
0
  0
POLYLINE
  8
PLAN_1
  6
CONTINUOUS
 66
     1
 40
0.003000
 41
0.003000
  0
VERTEX
  8
PLAN_1
  6
CONTINUOUS
 10
1.240563
 20
-3.798110
  0
VERTEX
  8
PLAN_1
  6
CONTINUOUS
 10
1.239071
 20
-3.792142
  0
VERTEX
  8
PLAN_1
  6
CONTINUOUS
 10
1.236587
 20
-3.786173
  0
VERTEX
  8
PLAN_1
  6
CONTINUOUS
 10
1.235591
 20
-3.783689
  0
VERTEX
  8
PLAN_1
  6
CONTINUOUS
 10
1.234098
 20
-3.781201
  0
VERTEX
  8
PLAN_1
  6
CONTINUOUS
 10
1.232110
 20
-3.778713
  0
VERTEX
  8
PLAN_1
  6
CONTINUOUS
 10
1.230618
 20
-3.776724
  0
VERTEX
  8
PLAN_1
  6
CONTINUOUS
 10
1.228130
 20
-3.774736
  0
VERTEX
  8
PLAN_1
  6
CONTINUOUS
 10
1.226142
 20
-3.773244
  0
VERTEX
  8
PLAN_1
  6
CONTINUOUS
 10
1.223157
 20
-3.771752
  0
VERTEX
  8
PLAN_1
  6
CONTINUOUS
 10
1.220673
 20
-3.770756
  0
VERTEX
  8
PLAN_1
  6
CONTINUOUS
 10
1.217689
 20
-3.769764
  0
VERTEX
  8
PLAN_1
  6
CONTINUOUS
 10
1.214205
 20
-3.768768
  0
VERTEX
  8
PLAN_1
  6
CONTINUOUS
 10
1.210724
 20
-3.768272
  0
VERTEX
  8
PLAN_1
  6
CONTINUOUS
 10
1.206748
 20
-3.768272
  0
VERTEX
  8
PLAN_1
  6
CONTINUOUS
 10
1.203264
 20
-3.768272
  0
VERTEX
  8
PLAN_1
  6
CONTINUOUS
 10
1.199783
 20
-3.768768
  0
VERTEX
  8
PLAN_1
  6
CONTINUOUS
 10
1.196799
 20
-3.769764
  0
VERTEX
  8
PLAN_1
  6
CONTINUOUS
 10
1.193815
 20
-3.770756
  0
VERTEX
  8
PLAN_1
  6
CONTINUOUS
 10
1.190831
 20
-3.771752
  0
VERTEX
  8
PLAN_1
  6
CONTINUOUS
 10
1.188346
 20
-3.773244
  0
VERTEX
  8
PLAN_1
  6
CONTINUOUS
 10
1.185858
 20
-3.774736
  0
VERTEX
  8
PLAN_1
  6
CONTINUOUS
 10
1.183374
 20
-3.776724
  0
VERTEX
  8
PLAN_1
  6
CONTINUOUS
 10
1.178898
 20
-3.780705
  0
VERTEX
  8
PLAN_1
  6
CONTINUOUS
 10
1.175413
 20
-3.785677
  0
VERTEX
  8
PLAN_1
  6
CONTINUOUS
 10
1.171933
 20
-3.791146
  0
VERTEX
  8
PLAN_1
  6
CONTINUOUS
 10
1.169449
 20
-3.796618
  0
VERTEX
  8
PLAN_1
  6
CONTINUOUS
 10
1.166961
 20
-3.802587
  0
VERTEX
  8
PLAN_1
  6
CONTINUOUS
 10
1.164972
 20
-3.808555
  0
VERTEX
  8
PLAN_1
  6
CONTINUOUS
 10
1.163480
 20
-3.814520
  0
VERTEX
  8
PLAN_1
  6
CONTINUOUS
 10
1.162484
 20
-3.820488
  0
VERTEX
  8
PLAN_1
  6
CONTINUOUS
 10
1.160992
 20
-3.831429
  0
VERTEX
  8
PLAN_1
  6
CONTINUOUS
 10
1.160496
 20
-3.840382
  0
VERTEX
  8
PLAN_1
  6
CONTINUOUS
 10
1.160992
 20
-3.840878
  0
VERTEX
  8
PLAN_1
  6
CONTINUOUS
 10
1.163480
 20
-3.836902
  0
VERTEX
  8
PLAN_1
  6
CONTINUOUS
 10
1.166961
 20
-3.832921
  0
VERTEX
  8
PLAN_1
  6
CONTINUOUS
 10
1.171437
 20
-3.828945
  0
VERTEX
  8
PLAN_1
  6
CONTINUOUS
 10
1.176409
 20
-3.824965
  0
VERTEX
  8
PLAN_1
  6
CONTINUOUS
 10
1.179394
 20
-3.823472
  0
VERTEX
  8
PLAN_1
  6
CONTINUOUS
 10
1.182378
 20
-3.821980
  0
VERTEX
  8
PLAN_1
  6
CONTINUOUS
 10
1.185858
 20
-3.820488
  0
VERTEX
  8
PLAN_1
  6
CONTINUOUS
 10
1.189839
 20
-3.819496
  0
VERTEX
  8
PLAN_1
  6
CONTINUOUS
 10
1.193815
 20
-3.818500
  0
VERTEX
  8
PLAN_1
  6
CONTINUOUS
 10
1.197795
 20
-3.817504
  0
VERTEX
  8
PLAN_1
  6
CONTINUOUS
 10
1.202768
 20
-3.817504
  0
VERTEX
  8
PLAN_1
  6
CONTINUOUS
 10
1.207244
 20
-3.817008
  0
VERTEX
  8
PLAN_1
  6
CONTINUOUS
 10
1.212217
 20
-3.817504
  0
VERTEX
  8
PLAN_1
  6
CONTINUOUS
 10
1.216693
 20
-3.818004
  0
VERTEX
  8
PLAN_1
  6
CONTINUOUS
 10
1.221665
 20
-3.818996
  0
VERTEX
  8
PLAN_1
  6
CONTINUOUS
 10
1.227138
 20
-3.820488
  0
VERTEX
  8
PLAN_1
  6
CONTINUOUS
 10
1.232110
 20
-3.821980
  0
VERTEX
  8
PLAN_1
  6
CONTINUOUS
 10
1.237083
 20
-3.824469
  0
VERTEX
  8
PLAN_1
  6
CONTINUOUS
 10
1.242055
 20
-3.827453
  0
VERTEX
  8
PLAN_1
  6
CONTINUOUS
 10
1.247028
 20
-3.830437
  0
VERTEX
  8
PLAN_1
  6
CONTINUOUS
 10
1.251504
 20
-3.834413
  0
VERTEX
  8
PLAN_1
  6
CONTINUOUS
 10
1.255484
 20
-3.838890
  0
VERTEX
  8
PLAN_1
  6
CONTINUOUS
 10
1.258965
 20
-3.843862
  0
VERTEX
  8
PLAN_1
  6
CONTINUOUS
 10
1.262445
 20
-3.849831
  0
VERTEX
  8
PLAN_1
  6
CONTINUOUS
 10
1.264933
 20
-3.855799
  0
VERTEX
  8
PLAN_1
  6
CONTINUOUS
 10
1.266921
 20
-3.862760
  0
VERTEX
  8
PLAN_1
  6
CONTINUOUS
 10
1.267917
 20
-3.870720
  0
VERTEX
  8
PLAN_1
  6
CONTINUOUS
 10
1.268413
 20
-3.879173
  0
VERTEX
  8
PLAN_1
  6
CONTINUOUS
 10
1.268413
 20
-3.886134
  0
VERTEX
  8
PLAN_1
  6
CONTINUOUS
 10
1.267421
 20
-3.893098
  0
VERTEX
  8
PLAN_1
  6
CONTINUOUS
 10
1.265929
 20
-3.899563
  0
VERTEX
  8
PLAN_1
  6
CONTINUOUS
 10
1.263937
 20
-3.905531
  0
VERTEX
  8
PLAN_1
  6
CONTINUOUS
 10
1.261453
 20
-3.911500
  0
VERTEX
  8
PLAN_1
  6
CONTINUOUS
 10
1.258469
 20
-3.916969
  0
VERTEX
  8
PLAN_1
  6
CONTINUOUS
 10
1.254488
 20
-3.922441
  0
VERTEX
  8
PLAN_1
  6
CONTINUOUS
 10
1.250012
 20
-3.927909
  0
VERTEX
  8
PLAN_1
  6
CONTINUOUS
 10
1.246035
 20
-3.931890
  0
VERTEX
  8
PLAN_1
  6
CONTINUOUS
 10
1.241559
 20
-3.935370
  0
VERTEX
  8
PLAN_1
  6
CONTINUOUS
 10
1.237083
 20
-3.938850
  0
VERTEX
  8
PLAN_1
  6
CONTINUOUS
 10
1.231614
 20
-3.941339
  0
VERTEX
  8
PLAN_1
  6
CONTINUOUS
 10
1.225646
 20
-3.943827
  0
VERTEX
  8
PLAN_1
  6
CONTINUOUS
 10
1.218185
 20
-3.945319
  0
VERTEX
  8
PLAN_1
  6
CONTINUOUS
 10
1.210228
 20
-3.946311
  0
VERTEX
  8
PLAN_1
  6
CONTINUOUS
 10
1.200280
 20
-3.946807
  0
VERTEX
  8
PLAN_1
  6
CONTINUOUS
 10
1.194315
 20
-3.946311
  0
VERTEX
  8
PLAN_1
  6
CONTINUOUS
 10
1.188346
 20
-3.945319
  0
VERTEX
  8
PLAN_1
  6
CONTINUOUS
 10
1.181382
 20
-3.943327
  0
VERTEX
  8
PLAN_1
  6
CONTINUOUS
 10
1.174917
 20
-3.940843
  0
VERTEX
  8
PLAN_1
  6
CONTINUOUS
 10
1.171437
 20
-3.938850
  0
VERTEX
  8
PLAN_1
  6
CONTINUOUS
 10
1.168453
 20
-3.936862
  0
VERTEX
  8
PLAN_1
  6
CONTINUOUS
 10
1.164972
 20
-3.934374
  0
VERTEX
  8
PLAN_1
  6
CONTINUOUS
 10
1.161988
 20
-3.931890
  0
VERTEX
  8
PLAN_1
  6
CONTINUOUS
 10
1.158508
 20
-3.928906
  0
VERTEX
  8
PLAN_1
  6
CONTINUOUS
 10
1.155524
 20
-3.925921
  0
VERTEX
  8
PLAN_1
  6
CONTINUOUS
 10
1.153035
 20
-3.922441
  0
VERTEX
  8
PLAN_1
  6
CONTINUOUS
 10
1.150051
 20
-3.918461
  0
VERTEX
  8
PLAN_1
  6
CONTINUOUS
 10
1.146075
 20
-3.911500
  0
VERTEX
  8
PLAN_1
  6
CONTINUOUS
 10
1.143091
 20
-3.903543
  0
VERTEX
  8
PLAN_1
  6
CONTINUOUS
 10
1.140106
 20
-3.895587
  0
VERTEX
  8
PLAN_1
  6
CONTINUOUS
 10
1.138114
 20
-3.887130
  0
VERTEX
  8
PLAN_1
  6
CONTINUOUS
 10
1.137122
 20
-3.878677
  0
VERTEX
  8
PLAN_1
  6
CONTINUOUS
 10
1.136126
 20
-3.869724
  0
VERTEX
  8
PLAN_1
  6
CONTINUOUS
 10
1.135630
 20
-3.860276
  0
VERTEX
  8
PLAN_1
  6
CONTINUOUS
 10
1.135134
 20
-3.850827
  0
VERTEX
  8
PLAN_1
  6
CONTINUOUS
 10
1.135630
 20
-3.842370
  0
VERTEX
  8
PLAN_1
  6
CONTINUOUS
 10
1.136126
 20
-3.833917
  0
VERTEX
  8
PLAN_1
  6
CONTINUOUS
 10
1.137122
 20
-3.825461
  0
VERTEX
  8
PLAN_1
  6
CONTINUOUS
 10
1.138114
 20
-3.816512
  0
VERTEX
  8
PLAN_1
  6
CONTINUOUS
 10
1.140106
 20
-3.807559
  0
VERTEX
  8
PLAN_1
  6
CONTINUOUS
 10
1.142591
 20
-3.799106
  0
VERTEX
  8
PLAN_1
  6
CONTINUOUS
 10
1.145575
 20
-3.790650
  0
VERTEX
  8
PLAN_1
  6
CONTINUOUS
 10
1.149555
 20
-3.782693
  0
VERTEX
  8
PLAN_1
  6
CONTINUOUS
 10
1.154031
 20
-3.775232
  0
VERTEX
  8
PLAN_1
  6
CONTINUOUS
 10
1.159004
 20
-3.768272
  0
VERTEX
  8
PLAN_1
  6
CONTINUOUS
 10
1.161988
 20
-3.764787
  0
VERTEX
  8
PLAN_1
  6
CONTINUOUS
 10
1.164972
 20
-3.761807
  0
VERTEX
  8
PLAN_1
  6
CONTINUOUS
 10
1.167957
 20
-3.759319
  0
VERTEX
  8
PLAN_1
  6
CONTINUOUS
 10
1.171437
 20
-3.756831
  0
VERTEX
  8
PLAN_1
  6
CONTINUOUS
 10
1.175413
 20
-3.754346
  0
VERTEX
  8
PLAN_1
  6
CONTINUOUS
 10
1.178898
 20
-3.752354
  0
VERTEX
  8
PLAN_1
  6
CONTINUOUS
 10
1.183374
 20
-3.750366
  0
VERTEX
  8
PLAN_1
  6
CONTINUOUS
 10
1.187350
 20
-3.748874
  0
VERTEX
  8
PLAN_1
  6
CONTINUOUS
 10
1.192323
 20
-3.747882
  0
VERTEX
  8
PLAN_1
  6
CONTINUOUS
 10
1.196799
 20
-3.746886
  0
VERTEX
  8
PLAN_1
  6
CONTINUOUS
 10
1.202272
 20
-3.746390
  0
VERTEX
  8
PLAN_1
  6
CONTINUOUS
 10
1.207244
 20
-3.746390
  0
VERTEX
  8
PLAN_1
  6
CONTINUOUS
 10
1.211720
 20
-3.746390
  0
VERTEX
  8
PLAN_1
  6
CONTINUOUS
 10
1.216197
 20
-3.746886
  0
VERTEX
  8
PLAN_1
  6
CONTINUOUS
 10
1.220673
 20
-3.747882
  0
VERTEX
  8
PLAN_1
  6
CONTINUOUS
 10
1.225646
 20
-3.748874
  0
VERTEX
  8
PLAN_1
  6
CONTINUOUS
 10
1.230122
 20
-3.750366
  0
VERTEX
  8
PLAN_1
  6
CONTINUOUS
 10
1.234594
 20
-3.752354
  0
VERTEX
  8
PLAN_1
  6
CONTINUOUS
 10
1.239071
 20
-3.754843
  0
VERTEX
  8
PLAN_1
  6
CONTINUOUS
 10
1.243547
 20
-3.757331
  0
VERTEX
  8
PLAN_1
  6
CONTINUOUS
 10
1.247528
 20
-3.760811
  0
VERTEX
  8
PLAN_1
  6
CONTINUOUS
 10
1.251008
 20
-3.764291
  0
VERTEX
  8
PLAN_1
  6
CONTINUOUS
 10
1.254488
 20
-3.768768
  0
VERTEX
  8
PLAN_1
  6
CONTINUOUS
 10
1.257472
 20
-3.773244
  0
VERTEX
  8
PLAN_1
  6
CONTINUOUS
 10
1.259961
 20
-3.778713
  0
VERTEX
  8
PLAN_1
  6
CONTINUOUS
 10
1.261949
 20
-3.784681
  0
VERTEX
  8
PLAN_1
  6
CONTINUOUS
 10
1.263441
 20
-3.791146
  0
VERTEX
  8
PLAN_1
  6
CONTINUOUS
 10
1.264437
 20
-3.798110
  0
VERTEX
  8
PLAN_1
  6
CONTINUOUS
 10
1.240563
 20
-3.798110
  0
SEQEND
  8
0
  0
POLYLINE
  8
PLAN_1
  6
CONTINUOUS
 66
     1
 40
0.003000
 41
0.003000
  0
VERTEX
  8
PLAN_1
  6
CONTINUOUS
 10
1.204756
 20
-3.924925
  0
VERTEX
  8
PLAN_1
  6
CONTINUOUS
 10
1.209232
 20
-3.924429
  0
VERTEX
  8
PLAN_1
  6
CONTINUOUS
 10
1.213213
 20
-3.923933
  0
VERTEX
  8
PLAN_1
  6
CONTINUOUS
 10
1.217189
 20
-3.922937
  0
VERTEX
  8
PLAN_1
  6
CONTINUOUS
 10
1.220673
 20
-3.921445
  0
VERTEX
  8
PLAN_1
  6
CONTINUOUS
 10
1.224154
 20
-3.919953
  0
VERTEX
  8
PLAN_1
  6
CONTINUOUS
 10
1.227138
 20
-3.917469
  0
VERTEX
  8
PLAN_1
  6
CONTINUOUS
 10
1.230122
 20
-3.914980
  0
VERTEX
  8
PLAN_1
  6
CONTINUOUS
 10
1.232606
 20
-3.912492
  0
VERTEX
  8
PLAN_1
  6
CONTINUOUS
 10
1.235094
 20
-3.909012
  0
VERTEX
  8
PLAN_1
  6
CONTINUOUS
 10
1.237083
 20
-3.906028
  0
VERTEX
  8
PLAN_1
  6
CONTINUOUS
 10
1.239071
 20
-3.902051
  0
VERTEX
  8
PLAN_1
  6
CONTINUOUS
 10
1.240563
 20
-3.898071
  0
VERTEX
  8
PLAN_1
  6
CONTINUOUS
 10
1.241559
 20
-3.894094
  0
VERTEX
  8
PLAN_1
  6
CONTINUOUS
 10
1.242555
 20
-3.889618
  0
VERTEX
  8
PLAN_1
  6
CONTINUOUS
 10
1.243051
 20
-3.885142
  0
VERTEX
  8
PLAN_1
  6
CONTINUOUS
 10
1.243051
 20
-3.880169
  0
VERTEX
  8
PLAN_1
  6
CONTINUOUS
 10
1.242555
 20
-3.873205
  0
VERTEX
  8
PLAN_1
  6
CONTINUOUS
 10
1.241063
 20
-3.866244
  0
VERTEX
  8
PLAN_1
  6
CONTINUOUS
 10
1.240067
 20
-3.862760
  0
VERTEX
  8
PLAN_1
  6
CONTINUOUS
 10
1.238575
 20
-3.859780
  0
VERTEX
  8
PLAN_1
  6
CONTINUOUS
 10
1.237083
 20
-3.856295
  0
VERTEX
  8
PLAN_1
  6
CONTINUOUS
 10
1.234594
 20
-3.853311
  0
VERTEX
  8
PLAN_1
  6
CONTINUOUS
 10
1.232606
 20
-3.850327
  0
VERTEX
  8
PLAN_1
  6
CONTINUOUS
 10
1.229622
 20
-3.847346
  0
VERTEX
  8
PLAN_1
  6
CONTINUOUS
 10
1.226142
 20
-3.845354
  0
VERTEX
  8
PLAN_1
  6
CONTINUOUS
 10
1.222661
 20
-3.842870
  0
VERTEX
  8
PLAN_1
  6
CONTINUOUS
 10
1.218681
 20
-3.841378
  0
VERTEX
  8
PLAN_1
  6
CONTINUOUS
 10
1.214205
 20
-3.839886
  0
VERTEX
  8
PLAN_1
  6
CONTINUOUS
 10
1.209232
 20
-3.839386
  0
VERTEX
  8
PLAN_1
  6
CONTINUOUS
 10
1.203764
 20
-3.838890
  0
VERTEX
  8
PLAN_1
  6
CONTINUOUS
 10
1.198787
 20
-3.839386
  0
VERTEX
  8
PLAN_1
  6
CONTINUOUS
 10
1.194315
 20
-3.839886
  0
VERTEX
  8
PLAN_1
  6
CONTINUOUS
 10
1.189839
 20
-3.840878
  0
VERTEX
  8
PLAN_1
  6
CONTINUOUS
 10
1.186354
 20
-3.842370
  0
VERTEX
  8
PLAN_1
  6
CONTINUOUS
 10
1.182378
 20
-3.844362
  0
VERTEX
  8
PLAN_1
  6
CONTINUOUS
 10
1.179394
 20
-3.846350
  0
VERTEX
  8
PLAN_1
  6
CONTINUOUS
 10
1.176409
 20
-3.848835
  0
VERTEX
  8
PLAN_1
  6
CONTINUOUS
 10
1.173921
 20
-3.851819
  0
VERTEX
  8
PLAN_1
  6
CONTINUOUS
 10
1.171437
 20
-3.854803
  0
VERTEX
  8
PLAN_1
  6
CONTINUOUS
 10
1.169449
 20
-3.857787
  0
VERTEX
  8
PLAN_1
  6
CONTINUOUS
 10
1.167457
 20
-3.861268
  0
VERTEX
  8
PLAN_1
  6
CONTINUOUS
 10
1.166465
 20
-3.865248
  0
VERTEX
  8
PLAN_1
  6
CONTINUOUS
 10
1.164972
 20
-3.869228
  0
VERTEX
  8
PLAN_1
  6
CONTINUOUS
 10
1.164472
 20
-3.873205
  0
VERTEX
  8
PLAN_1
  6
CONTINUOUS
 10
1.163976
 20
-3.877185
  0
VERTEX
  8
PLAN_1
  6
CONTINUOUS
 10
1.163976
 20
-3.881661
  0
VERTEX
  8
PLAN_1
  6
CONTINUOUS
 10
1.163976
 20
-3.885638
  0
VERTEX
  8
PLAN_1
  6
CONTINUOUS
 10
1.164472
 20
-3.889118
  0
VERTEX
  8
PLAN_1
  6
CONTINUOUS
 10
1.164972
 20
-3.893098
  0
VERTEX
  8
PLAN_1
  6
CONTINUOUS
 10
1.165965
 20
-3.897079
  0
VERTEX
  8
PLAN_1
  6
CONTINUOUS
 10
1.167457
 20
-3.900559
  0
VERTEX
  8
PLAN_1
  6
CONTINUOUS
 10
1.169449
 20
-3.904535
  0
VERTEX
  8
PLAN_1
  6
CONTINUOUS
 10
1.171437
 20
-3.908020
  0
VERTEX
  8
PLAN_1
  6
CONTINUOUS
 10
1.173425
 20
-3.911000
  0
VERTEX
  8
PLAN_1
  6
CONTINUOUS
 10
1.176409
 20
-3.913984
  0
VERTEX
  8
PLAN_1
  6
CONTINUOUS
 10
1.179394
 20
-3.916472
  0
VERTEX
  8
PLAN_1
  6
CONTINUOUS
 10
1.182874
 20
-3.918961
  0
VERTEX
  8
PLAN_1
  6
CONTINUOUS
 10
1.186354
 20
-3.920949
  0
VERTEX
  8
PLAN_1
  6
CONTINUOUS
 10
1.190335
 20
-3.922441
  0
VERTEX
  8
PLAN_1
  6
CONTINUOUS
 10
1.194811
 20
-3.923933
  0
VERTEX
  8
PLAN_1
  6
CONTINUOUS
 10
1.199783
 20
-3.924429
  0
VERTEX
  8
PLAN_1
  6
CONTINUOUS
 10
1.204756
 20
-3.924925
  0
SEQEND
  8
0
  0
SOLID
  8
PLAN_1
 10
1.278858
 20
-3.976150
 11
1.278858
 21
-3.962224
 12
1.433524
 22
-3.976150
 13
1.433524
 23
-3.962224
  0
POLYLINE
  8
PLAN_1
  6
CONTINUOUS
 66
     1
 40
0.003000
 41
0.003000
  0
VERTEX
  8
PLAN_1
  6
CONTINUOUS
 10
1.278858
 20
-3.976150
  0
VERTEX
  8
PLAN_1
  6
CONTINUOUS
 10
1.278858
 20
-3.962224
  0
VERTEX
  8
PLAN_1
  6
CONTINUOUS
 10
1.433524
 20
-3.962224
  0
VERTEX
  8
PLAN_1
  6
CONTINUOUS
 10
1.433524
 20
-3.976150
  0
VERTEX
  8
PLAN_1
  6
CONTINUOUS
 10
1.278858
 20
-3.976150
  0
SEQEND
  8
0
  0
POLYLINE
  8
PLAN_1
  6
CONTINUOUS
 66
     1
 40
0.003000
 41
0.003000
  0
VERTEX
  8
PLAN_1
  6
CONTINUOUS
 10
1.484252
 20
-3.941339
  0
VERTEX
  8
PLAN_1
  6
CONTINUOUS
 10
1.457398
 20
-3.941339
  0
VERTEX
  8
PLAN_1
  6
CONTINUOUS
 10
1.457398
 20
-3.742409
  0
VERTEX
  8
PLAN_1
  6
CONTINUOUS
 10
1.595154
 20
-3.742409
  0
VERTEX
  8
PLAN_1
  6
CONTINUOUS
 10
1.595154
 20
-3.766280
  0
VERTEX
  8
PLAN_1
  6
CONTINUOUS
 10
1.484252
 20
-3.766280
  0
VERTEX
  8
PLAN_1
  6
CONTINUOUS
 10
1.484252
 20
-3.826953
  0
VERTEX
  8
PLAN_1
  6
CONTINUOUS
 10
1.581728
 20
-3.826953
  0
VERTEX
  8
PLAN_1
  6
CONTINUOUS
 10
1.581728
 20
-3.850827
  0
VERTEX
  8
PLAN_1
  6
CONTINUOUS
 10
1.484252
 20
-3.850827
  0
VERTEX
  8
PLAN_1
  6
CONTINUOUS
 10
1.484252
 20
-3.941339
  0
SEQEND
  8
0
  0
SOLID
  8
PLAN_1
 10
1.614551
 20
-3.941339
 11
1.585705
 21
-3.941339
 12
1.614551
 22
-3.911996
 13
1.585705
 23
-3.911996
  0
POLYLINE
  8
PLAN_1
  6
CONTINUOUS
 66
     1
 40
0.003000
 41
0.003000
  0
VERTEX
  8
PLAN_1
  6
CONTINUOUS
 10
1.614551
 20
-3.941339
  0
VERTEX
  8
PLAN_1
  6
CONTINUOUS
 10
1.585705
 20
-3.941339
  0
VERTEX
  8
PLAN_1
  6
CONTINUOUS
 10
1.585705
 20
-3.911996
  0
VERTEX
  8
PLAN_1
  6
CONTINUOUS
 10
1.614551
 20
-3.911996
  0
VERTEX
  8
PLAN_1
  6
CONTINUOUS
 10
1.614551
 20
-3.941339
  0
SEQEND
  8
0
  0
POLYLINE
  8
PLAN_1
  6
CONTINUOUS
 66
     1
 40
0.003000
 41
0.003000
  0
VERTEX
  8
PLAN_1
  6
CONTINUOUS
 10
1.809500
 20
-3.941339
  0
VERTEX
  8
PLAN_1
  6
CONTINUOUS
 10
1.662291
 20
-3.941339
  0
VERTEX
  8
PLAN_1
  6
CONTINUOUS
 10
1.662291
 20
-3.742409
  0
VERTEX
  8
PLAN_1
  6
CONTINUOUS
 10
1.807512
 20
-3.742409
  0
VERTEX
  8
PLAN_1
  6
CONTINUOUS
 10
1.807512
 20
-3.766280
  0
VERTEX
  8
PLAN_1
  6
CONTINUOUS
 10
1.689150
 20
-3.766280
  0
VERTEX
  8
PLAN_1
  6
CONTINUOUS
 10
1.689150
 20
-3.826953
  0
VERTEX
  8
PLAN_1
  6
CONTINUOUS
 10
1.798559
 20
-3.826953
  0
VERTEX
  8
PLAN_1
  6
CONTINUOUS
 10
1.798559
 20
-3.850827
  0
VERTEX
  8
PLAN_1
  6
CONTINUOUS
 10
1.689150
 20
-3.850827
  0
VERTEX
  8
PLAN_1
  6
CONTINUOUS
 10
1.689150
 20
-3.917469
  0
VERTEX
  8
PLAN_1
  6
CONTINUOUS
 10
1.809500
 20
-3.917469
  0
VERTEX
  8
PLAN_1
  6
CONTINUOUS
 10
1.809500
 20
-3.941339
  0
SEQEND
  8
0
  0
POLYLINE
  8
PLAN_1
  6
CONTINUOUS
 66
     1
 40
0.003000
 41
0.003000
  0
VERTEX
  8
PLAN_1
  6
CONTINUOUS
 10
1.874650
 20
-3.941339
  0
VERTEX
  8
PLAN_1
  6
CONTINUOUS
 10
1.847795
 20
-3.941339
  0
VERTEX
  8
PLAN_1
  6
CONTINUOUS
 10
1.847795
 20
-3.742409
  0
VERTEX
  8
PLAN_1
  6
CONTINUOUS
 10
1.937311
 20
-3.742409
  0
VERTEX
  8
PLAN_1
  6
CONTINUOUS
 10
1.943776
 20
-3.742409
  0
VERTEX
  8
PLAN_1
  6
CONTINUOUS
 10
1.950244
 20
-3.743406
  0
VERTEX
  8
PLAN_1
  6
CONTINUOUS
 10
1.956209
 20
-3.744398
  0
VERTEX
  8
PLAN_1
  6
CONTINUOUS
 10
1.962177
 20
-3.746390
  0
VERTEX
  8
PLAN_1
  6
CONTINUOUS
 10
1.967150
 20
-3.748874
  0
VERTEX
  8
PLAN_1
  6
CONTINUOUS
 10
1.972126
 20
-3.751362
  0
VERTEX
  8
PLAN_1
  6
CONTINUOUS
 10
1.976602
 20
-3.754843
  0
VERTEX
  8
PLAN_1
  6
CONTINUOUS
 10
1.980579
 20
-3.758323
  0
VERTEX
  8
PLAN_1
  6
CONTINUOUS
 10
1.984059
 20
-3.762303
  0
VERTEX
  8
PLAN_1
  6
CONTINUOUS
 10
1.987543
 20
-3.766280
  0
VERTEX
  8
PLAN_1
  6
CONTINUOUS
 10
1.990028
 20
-3.771256
  0
VERTEX
  8
PLAN_1
  6
CONTINUOUS
 10
1.992516
 20
-3.775728
  0
VERTEX
  8
PLAN_1
  6
CONTINUOUS
 10
1.994008
 20
-3.781201
  0
VERTEX
  8
PLAN_1
  6
CONTINUOUS
 10
1.995500
 20
-3.786673
  0
VERTEX
  8
PLAN_1
  6
CONTINUOUS
 10
1.995996
 20
-3.792142
  0
VERTEX
  8
PLAN_1
  6
CONTINUOUS
 10
1.996492
 20
-3.798110
  0
VERTEX
  8
PLAN_1
  6
CONTINUOUS
 10
1.995996
 20
-3.803579
  0
VERTEX
  8
PLAN_1
  6
CONTINUOUS
 10
1.995500
 20
-3.808555
  0
VERTEX
  8
PLAN_1
  6
CONTINUOUS
 10
1.994504
 20
-3.814024
  0
VERTEX
  8
PLAN_1
  6
CONTINUOUS
 10
1.993012
 20
-3.818996
  0
VERTEX
  8
PLAN_1
  6
CONTINUOUS
 10
1.991520
 20
-3.824469
  0
VERTEX
  8
PLAN_1
  6
CONTINUOUS
 10
1.989035
 20
-3.828945
  0
VERTEX
  8
PLAN_1
  6
CONTINUOUS
 10
1.986051
 20
-3.833917
  0
VERTEX
  8
PLAN_1
  6
CONTINUOUS
 10
1.983067
 20
-3.838394
  0
VERTEX
  8
PLAN_1
  6
CONTINUOUS
 10
1.979087
 20
-3.842370
  0
VERTEX
  8
PLAN_1
  6
CONTINUOUS
 10
1.975110
 20
-3.845854
  0
VERTEX
  8
PLAN_1
  6
CONTINUOUS
 10
1.970134
 20
-3.849335
  0
VERTEX
  8
PLAN_1
  6
CONTINUOUS
 10
1.964665
 20
-3.851819
  0
VERTEX
  8
PLAN_1
  6
CONTINUOUS
 10
1.958697
 20
-3.854307
  0
VERTEX
  8
PLAN_1
  6
CONTINUOUS
 10
1.952232
 20
-3.855799
  0
VERTEX
  8
PLAN_1
  6
CONTINUOUS
 10
1.945268
 20
-3.856795
  0
VERTEX
  8
PLAN_1
  6
CONTINUOUS
 10
1.937311
 20
-3.857291
  0
VERTEX
  8
PLAN_1
  6
CONTINUOUS
 10
1.874650
 20
-3.857291
  0
VERTEX
  8
PLAN_1
  6
CONTINUOUS
 10
1.874650
 20
-3.941339
  0
SEQEND
  8
0
  0
POLYLINE
  8
PLAN_1
  6
CONTINUOUS
 66
     1
 40
0.003000
 41
0.003000
  0
VERTEX
  8
PLAN_1
  6
CONTINUOUS
 10
1.874650
 20
-3.834413
  0
VERTEX
  8
PLAN_1
  6
CONTINUOUS
 10
1.927862
 20
-3.834413
  0
VERTEX
  8
PLAN_1
  6
CONTINUOUS
 10
1.932339
 20
-3.834413
  0
VERTEX
  8
PLAN_1
  6
CONTINUOUS
 10
1.936815
 20
-3.833917
  0
VERTEX
  8
PLAN_1
  6
CONTINUOUS
 10
1.940795
 20
-3.833421
  0
VERTEX
  8
PLAN_1
  6
CONTINUOUS
 10
1.944772
 20
-3.832425
  0
VERTEX
  8
PLAN_1
  6
CONTINUOUS
 10
1.948252
 20
-3.831429
  0
VERTEX
  8
PLAN_1
  6
CONTINUOUS
 10
1.951736
 20
-3.829937
  0
VERTEX
  8
PLAN_1
  6
CONTINUOUS
 10
1.954720
 20
-3.828445
  0
VERTEX
  8
PLAN_1
  6
CONTINUOUS
 10
1.957205
 20
-3.826457
  0
VERTEX
  8
PLAN_1
  6
CONTINUOUS
 10
1.959693
 20
-3.824469
  0
VERTEX
  8
PLAN_1
  6
CONTINUOUS
 10
1.962177
 20
-3.821484
  0
VERTEX
  8
PLAN_1
  6
CONTINUOUS
 10
1.964169
 20
-3.818996
  0
VERTEX
  8
PLAN_1
  6
CONTINUOUS
 10
1.965661
 20
-3.815516
  0
VERTEX
  8
PLAN_1
  6
CONTINUOUS
 10
1.967150
 20
-3.812035
  0
VERTEX
  8
PLAN_1
  6
CONTINUOUS
 10
1.967650
 20
-3.808055
  0
VERTEX
  8
PLAN_1
  6
CONTINUOUS
 10
1.968642
 20
-3.803579
  0
VERTEX
  8
PLAN_1
  6
CONTINUOUS
 10
1.968642
 20
-3.798606
  0
VERTEX
  8
PLAN_1
  6
CONTINUOUS
 10
1.968146
 20
-3.794130
  0
VERTEX
  8
PLAN_1
  6
CONTINUOUS
 10
1.967650
 20
-3.789654
  0
VERTEX
  8
PLAN_1
  6
CONTINUOUS
 10
1.966654
 20
-3.786173
  0
VERTEX
  8
PLAN_1
  6
CONTINUOUS
 10
1.965661
 20
-3.782693
  0
VERTEX
  8
PLAN_1
  6
CONTINUOUS
 10
1.964169
 20
-3.779709
  0
VERTEX
  8
PLAN_1
  6
CONTINUOUS
 10
1.962177
 20
-3.776724
  0
VERTEX
  8
PLAN_1
  6
CONTINUOUS
 10
1.959693
 20
-3.774736
  0
VERTEX
  8
PLAN_1
  6
CONTINUOUS
 10
1.957205
 20
-3.772248
  0
VERTEX
  8
PLAN_1
  6
CONTINUOUS
 10
1.954220
 20
-3.770756
  0
VERTEX
  8
PLAN_1
  6
CONTINUOUS
 10
1.951236
 20
-3.769264
  0
VERTEX
  8
PLAN_1
  6
CONTINUOUS
 10
1.948252
 20
-3.767772
  0
VERTEX
  8
PLAN_1
  6
CONTINUOUS
 10
1.944772
 20
-3.766780
  0
VERTEX
  8
PLAN_1
  6
CONTINUOUS
 10
1.937311
 20
-3.765783
  0
VERTEX
  8
PLAN_1
  6
CONTINUOUS
 10
1.929354
 20
-3.765287
  0
VERTEX
  8
PLAN_1
  6
CONTINUOUS
 10
1.874650
 20
-3.765287
  0
VERTEX
  8
PLAN_1
  6
CONTINUOUS
 10
1.874650
 20
-3.834413
  0
SEQEND
  8
0
  0
POLYLINE
  8
PLAN_1
  6
CONTINUOUS
 66
     1
 40
0.003000
 41
0.003000
  0
VERTEX
  8
PLAN_1
  6
CONTINUOUS
 10
2.150165
 20
-3.800594
  0
VERTEX
  8
PLAN_1
  6
CONTINUOUS
 10
2.149669
 20
-3.795126
  0
VERTEX
  8
PLAN_1
  6
CONTINUOUS
 10
2.148673
 20
-3.790154
  0
VERTEX
  8
PLAN_1
  6
CONTINUOUS
 10
2.147181
 20
-3.785181
  0
VERTEX
  8
PLAN_1
  6
CONTINUOUS
 10
2.145193
 20
-3.781201
  0
VERTEX
  8
PLAN_1
  6
CONTINUOUS
 10
2.142705
 20
-3.777220
  0
VERTEX
  8
PLAN_1
  6
CONTINUOUS
 10
2.139720
 20
-3.774240
  0
VERTEX
  8
PLAN_1
  6
CONTINUOUS
 10
2.136740
 20
-3.771256
  0
VERTEX
  8
PLAN_1
  6
CONTINUOUS
 10
2.133256
 20
-3.768768
  0
VERTEX
  8
PLAN_1
  6
CONTINUOUS
 10
2.129776
 20
-3.766280
  0
VERTEX
  8
PLAN_1
  6
CONTINUOUS
 10
2.125799
 20
-3.764787
  0
VERTEX
  8
PLAN_1
  6
CONTINUOUS
 10
2.121819
 20
-3.763295
  0
VERTEX
  8
PLAN_1
  6
CONTINUOUS
 10
2.117839
 20
-3.761807
  0
VERTEX
  8
PLAN_1
  6
CONTINUOUS
 10
2.113366
 20
-3.761307
  0
VERTEX
  8
PLAN_1
  6
CONTINUOUS
 10
2.109386
 20
-3.760315
  0
VERTEX
  8
PLAN_1
  6
CONTINUOUS
 10
2.104909
 20
-3.760315
  0
VERTEX
  8
PLAN_1
  6
CONTINUOUS
 10
2.100933
 20
-3.759815
  0
VERTEX
  8
PLAN_1
  6
CONTINUOUS
 10
2.093969
 20
-3.760315
  0
VERTEX
  8
PLAN_1
  6
CONTINUOUS
 10
2.086508
 20
-3.761307
  0
VERTEX
  8
PLAN_1
  6
CONTINUOUS
 10
2.082531
 20
-3.761807
  0
VERTEX
  8
PLAN_1
  6
CONTINUOUS
 10
2.079047
 20
-3.763295
  0
VERTEX
  8
PLAN_1
  6
CONTINUOUS
 10
2.075071
 20
-3.764291
  0
VERTEX
  8
PLAN_1
  6
CONTINUOUS
 10
2.071591
 20
-3.766280
  0
VERTEX
  8
PLAN_1
  6
CONTINUOUS
 10
2.068106
 20
-3.768272
  0
VERTEX
  8
PLAN_1
  6
CONTINUOUS
 10
2.065122
 20
-3.770756
  0
VERTEX
  8
PLAN_1
  6
CONTINUOUS
 10
2.062638
 20
-3.773244
  0
VERTEX
  8
PLAN_1
  6
CONTINUOUS
 10
2.060150
 20
-3.776724
  0
VERTEX
  8
PLAN_1
  6
CONTINUOUS
 10
2.058161
 20
-3.780705
  0
VERTEX
  8
PLAN_1
  6
CONTINUOUS
 10
2.056669
 20
-3.784681
  0
VERTEX
  8
PLAN_1
  6
CONTINUOUS
 10
2.055673
 20
-3.789654
  0
VERTEX
  8
PLAN_1
  6
CONTINUOUS
 10
2.055177
 20
-3.795126
  0
VERTEX
  8
PLAN_1
  6
CONTINUOUS
 10
2.055177
 20
-3.798110
  0
VERTEX
  8
PLAN_1
  6
CONTINUOUS
 10
2.055673
 20
-3.800594
  0
VERTEX
  8
PLAN_1
  6
CONTINUOUS
 10
2.056669
 20
-3.803083
  0
VERTEX
  8
PLAN_1
  6
CONTINUOUS
 10
2.057165
 20
-3.805571
  0
VERTEX
  8
PLAN_1
  6
CONTINUOUS
 10
2.058161
 20
-3.807559
  0
VERTEX
  8
PLAN_1
  6
CONTINUOUS
 10
2.059654
 20
-3.809547
  0
VERTEX
  8
PLAN_1
  6
CONTINUOUS
 10
2.061146
 20
-3.811539
  0
VERTEX
  8
PLAN_1
  6
CONTINUOUS
 10
2.062638
 20
-3.813028
  0
VERTEX
  8
PLAN_1
  6
CONTINUOUS
 10
2.066118
 20
-3.815516
  0
VERTEX
  8
PLAN_1
  6
CONTINUOUS
 10
2.070098
 20
-3.817504
  0
VERTEX
  8
PLAN_1
  6
CONTINUOUS
 10
2.074575
 20
-3.818996
  0
VERTEX
  8
PLAN_1
  6
CONTINUOUS
 10
2.079047
 20
-3.819992
  0
VERTEX
  8
PLAN_1
  6
CONTINUOUS
 10
2.135744
 20
-3.833421
  0
VERTEX
  8
PLAN_1
  6
CONTINUOUS
 10
2.140717
 20
-3.834413
  0
VERTEX
  8
PLAN_1
  6
CONTINUOUS
 10
2.145193
 20
-3.835906
  0
VERTEX
  8
PLAN_1
  6
CONTINUOUS
 10
2.149669
 20
-3.837894
  0
VERTEX
  8
PLAN_1
  6
CONTINUOUS
 10
2.153646
 20
-3.839886
  0
VERTEX
  8
PLAN_1
  6
CONTINUOUS
 10
2.157626
 20
-3.841874
  0
VERTEX
  8
PLAN_1
  6
CONTINUOUS
 10
2.161606
 20
-3.844362
  0
VERTEX
  8
PLAN_1
  6
CONTINUOUS
 10
2.165087
 20
-3.847346
  0
VERTEX
  8
PLAN_1
  6
CONTINUOUS
 10
2.168071
 20
-3.850327
  0
VERTEX
  8
PLAN_1
  6
CONTINUOUS
 10
2.171055
 20
-3.853811
  0
VERTEX
  8
PLAN_1
  6
CONTINUOUS
 10
2.173539
 20
-3.857291
  0
VERTEX
  8
PLAN_1
  6
CONTINUOUS
 10
2.175528
 20
-3.861268
  0
VERTEX
  8
PLAN_1
  6
CONTINUOUS
 10
2.177520
 20
-3.865744
  0
VERTEX
  8
PLAN_1
  6
CONTINUOUS
 10
2.179012
 20
-3.870220
  0
VERTEX
  8
PLAN_1
  6
CONTINUOUS
 10
2.180004
 20
-3.875193
  0
VERTEX
  8
PLAN_1
  6
CONTINUOUS
 10
2.181000
 20
-3.880665
  0
VERTEX
  8
PLAN_1
  6
CONTINUOUS
 10
2.181000
 20
-3.886634
  0
VERTEX
  8
PLAN_1
  6
CONTINUOUS
 10
2.181000
 20
-3.890610
  0
VERTEX
  8
PLAN_1
  6
CONTINUOUS
 10
2.180504
 20
-3.895087
  0
VERTEX
  8
PLAN_1
  6
CONTINUOUS
 10
2.180004
 20
-3.899067
  0
VERTEX
  8
PLAN_1
  6
CONTINUOUS
 10
2.179012
 20
-3.902547
  0
VERTEX
  8
PLAN_1
  6
CONTINUOUS
 10
2.178016
 20
-3.906028
  0
VERTEX
  8
PLAN_1
  6
CONTINUOUS
 10
2.176524
 20
-3.909512
  0
VERTEX
  8
PLAN_1
  6
CONTINUOUS
 10
2.175031
 20
-3.912992
  0
VERTEX
  8
PLAN_1
  6
CONTINUOUS
 10
2.173539
 20
-3.915976
  0
VERTEX
  8
PLAN_1
  6
CONTINUOUS
 10
2.169563
 20
-3.921445
  0
VERTEX
  8
PLAN_1
  6
CONTINUOUS
 10
2.165087
 20
-3.926417
  0
VERTEX
  8
PLAN_1
  6
CONTINUOUS
 10
2.160114
 20
-3.930398
  0
VERTEX
  8
PLAN_1
  6
CONTINUOUS
 10
2.154642
 20
-3.934374
  0
VERTEX
  8
PLAN_1
  6
CONTINUOUS
 10
2.148673
 20
-3.937358
  0
VERTEX
  8
PLAN_1
  6
CONTINUOUS
 10
2.142705
 20
-3.940343
  0
VERTEX
  8
PLAN_1
  6
CONTINUOUS
 10
2.136240
 20
-3.942335
  0
VERTEX
  8
PLAN_1
  6
CONTINUOUS
 10
2.129776
 20
-3.943827
  0
VERTEX
  8
PLAN_1
  6
CONTINUOUS
 10
2.122815
 20
-3.945319
  0
VERTEX
  8
PLAN_1
  6
CONTINUOUS
 10
2.116346
 20
-3.946311
  0
VERTEX
  8
PLAN_1
  6
CONTINUOUS
 10
2.109386
 20
-3.946807
  0
VERTEX
  8
PLAN_1
  6
CONTINUOUS
 10
2.102921
 20
-3.946807
  0
VERTEX
  8
PLAN_1
  6
CONTINUOUS
 10
2.096457
 20
-3.946807
  0
VERTEX
  8
PLAN_1
  6
CONTINUOUS
 10
2.089988
 20
-3.946311
  0
VERTEX
  8
PLAN_1
  6
CONTINUOUS
 10
2.084520
 20
-3.945815
  0
VERTEX
  8
PLAN_1
  6
CONTINUOUS
 10
2.079047
 20
-3.944819
  0
VERTEX
  8
PLAN_1
  6
CONTINUOUS
 10
2.070098
 20
-3.942831
  0
VERTEX
  8
PLAN_1
  6
CONTINUOUS
 10
2.062638
 20
-3.940343
  0
VERTEX
  8
PLAN_1
  6
CONTINUOUS
 10
2.056173
 20
-3.937358
  0
VERTEX
  8
PLAN_1
  6
CONTINUOUS
 10
2.050701
 20
-3.933878
  0
VERTEX
  8
PLAN_1
  6
CONTINUOUS
 10
2.046224
 20
-3.930894
  0
VERTEX
  8
PLAN_1
  6
CONTINUOUS
 10
2.042744
 20
-3.927413
  0
VERTEX
  8
PLAN_1
  6
CONTINUOUS
 10
2.037276
 20
-3.921941
  0
VERTEX
  8
PLAN_1
  6
CONTINUOUS
 10
2.032299
 20
-3.915976
  0
VERTEX
  8
PLAN_1
  6
CONTINUOUS
 10
2.028819
 20
-3.910008
  0
VERTEX
  8
PLAN_1
  6
CONTINUOUS
 10
2.026335
 20
-3.903543
  0
VERTEX
  8
PLAN_1
  6
CONTINUOUS
 10
2.024343
 20
-3.897079
  0
VERTEX
  8
PLAN_1
  6
CONTINUOUS
 10
2.023350
 20
-3.890610
  0
VERTEX
  8
PLAN_1
  6
CONTINUOUS
 10
2.022850
 20
-3.884146
  0
VERTEX
  8
PLAN_1
  6
CONTINUOUS
 10
2.022354
 20
-3.877185
  0
VERTEX
  8
PLAN_1
  6
CONTINUOUS
 10
2.047717
 20
-3.877185
  0
VERTEX
  8
PLAN_1
  6
CONTINUOUS
 10
2.048217
 20
-3.883650
  0
VERTEX
  8
PLAN_1
  6
CONTINUOUS
 10
2.049209
 20
-3.889618
  0
VERTEX
  8
PLAN_1
  6
CONTINUOUS
 10
2.050701
 20
-3.894591
  0
VERTEX
  8
PLAN_1
  6
CONTINUOUS
 10
2.052689
 20
-3.899563
  0
VERTEX
  8
PLAN_1
  6
CONTINUOUS
 10
2.055177
 20
-3.904039
  0
VERTEX
  8
PLAN_1
  6
CONTINUOUS
 10
2.058657
 20
-3.907520
  0
VERTEX
  8
PLAN_1
  6
CONTINUOUS
 10
2.061642
 20
-3.911000
  0
VERTEX
  8
PLAN_1
  6
CONTINUOUS
 10
2.065622
 20
-3.913984
  0
VERTEX
  8
PLAN_1
  6
CONTINUOUS
 10
2.069598
 20
-3.916472
  0
VERTEX
  8
PLAN_1
  6
CONTINUOUS
 10
2.074075
 20
-3.918461
  0
VERTEX
  8
PLAN_1
  6
CONTINUOUS
 10
2.078551
 20
-3.919953
  0
VERTEX
  8
PLAN_1
  6
CONTINUOUS
 10
2.083524
 20
-3.921445
  0
VERTEX
  8
PLAN_1
  6
CONTINUOUS
 10
2.088000
 20
-3.922441
  0
VERTEX
  8
PLAN_1
  6
CONTINUOUS
 10
2.092972
 20
-3.922937
  0
VERTEX
  8
PLAN_1
  6
CONTINUOUS
 10
2.097949
 20
-3.923433
  0
VERTEX
  8
PLAN_1
  6
CONTINUOUS
 10
2.102921
 20
-3.923933
  0
VERTEX
  8
PLAN_1
  6
CONTINUOUS
 10
2.110382
 20
-3.923433
  0
VERTEX
  8
PLAN_1
  6
CONTINUOUS
 10
2.118835
 20
-3.922441
  0
VERTEX
  8
PLAN_1
  6
CONTINUOUS
 10
2.123311
 20
-3.921445
  0
VERTEX
  8
PLAN_1
  6
CONTINUOUS
 10
2.127787
 20
-3.920453
  0
VERTEX
  8
PLAN_1
  6
CONTINUOUS
 10
2.132264
 20
-3.919457
  0
VERTEX
  8
PLAN_1
  6
CONTINUOUS
 10
2.136240
 20
-3.917469
  0
VERTEX
  8
PLAN_1
  6
CONTINUOUS
 10
2.139720
 20
-3.915476
  0
VERTEX
  8
PLAN_1
  6
CONTINUOUS
 10
2.143701
 20
-3.913488
  0
VERTEX
  8
PLAN_1
  6
CONTINUOUS
 10
2.146685
 20
-3.910504
  0
VERTEX
  8
PLAN_1
  6
CONTINUOUS
 10
2.149669
 20
-3.907520
  0
VERTEX
  8
PLAN_1
  6
CONTINUOUS
 10
2.151657
 20
-3.904039
  0
VERTEX
  8
PLAN_1
  6
CONTINUOUS
 10
2.153646
 20
-3.899563
  0
VERTEX
  8
PLAN_1
  6
CONTINUOUS
 10
2.154642
 20
-3.895087
  0
VERTEX
  8
PLAN_1
  6
CONTINUOUS
 10
2.155138
 20
-3.890114
  0
VERTEX
  8
PLAN_1
  6
CONTINUOUS
 10
2.154642
 20
-3.886634
  0
VERTEX
  8
PLAN_1
  6
CONTINUOUS
 10
2.154642
 20
-3.883154
  0
VERTEX
  8
PLAN_1
  6
CONTINUOUS
 10
2.153646
 20
-3.879669
  0
VERTEX
  8
PLAN_1
  6
CONTINUOUS
 10
2.152654
 20
-3.876685
  0
VERTEX
  8
PLAN_1
  6
CONTINUOUS
 10
2.151657
 20
-3.874201
  0
VERTEX
  8
PLAN_1
  6
CONTINUOUS
 10
2.150165
 20
-3.871713
  0
VERTEX
  8
PLAN_1
  6
CONTINUOUS
 10
2.148177
 20
-3.869724
  0
VERTEX
  8
PLAN_1
  6
CONTINUOUS
 10
2.146189
 20
-3.867736
  0
VERTEX
  8
PLAN_1
  6
CONTINUOUS
 10
2.143205
 20
-3.865744
  0
VERTEX
  8
PLAN_1
  6
CONTINUOUS
 10
2.140220
 20
-3.863756
  0
VERTEX
  8
PLAN_1
  6
CONTINUOUS
 10
2.136740
 20
-3.862264
  0
VERTEX
  8
PLAN_1
  6
CONTINUOUS
 10
2.132760
 20
-3.860772
  0
VERTEX
  8
PLAN_1
  6
CONTINUOUS
 10
2.123807
 20
-3.857787
  0
VERTEX
  8
PLAN_1
  6
CONTINUOUS
 10
2.112370
 20
-3.854803
  0
VERTEX
  8
PLAN_1
  6
CONTINUOUS
 10
2.071591
 20
-3.845354
  0
VERTEX
  8
PLAN_1
  6
CONTINUOUS
 10
2.066118
 20
-3.843862
  0
VERTEX
  8
PLAN_1
  6
CONTINUOUS
 10
2.059654
 20
-3.841874
  0
VERTEX
  8
PLAN_1
  6
CONTINUOUS
 10
2.056173
 20
-3.840382
  0
VERTEX
  8
PLAN_1
  6
CONTINUOUS
 10
2.052689
 20
-3.838394
  0
VERTEX
  8
PLAN_1
  6
CONTINUOUS
 10
2.049209
 20
-3.836402
  0
VERTEX
  8
PLAN_1
  6
CONTINUOUS
 10
2.045728
 20
-3.833917
  0
VERTEX
  8
PLAN_1
  6
CONTINUOUS
 10
2.042248
 20
-3.830933
  0
VERTEX
  8
PLAN_1
  6
CONTINUOUS
 10
2.039264
 20
-3.827949
  0
VERTEX
  8
PLAN_1
  6
CONTINUOUS
 10
2.036280
 20
-3.823972
  0
VERTEX
  8
PLAN_1
  6
CONTINUOUS
 10
2.033791
 20
-3.819992
  0
VERTEX
  8
PLAN_1
  6
CONTINUOUS
 10
2.031803
 20
-3.815516
  0
VERTEX
  8
PLAN_1
  6
CONTINUOUS
 10
2.030311
 20
-3.810543
  0
VERTEX
  8
PLAN_1
  6
CONTINUOUS
 10
2.029315
 20
-3.804575
  0
VERTEX
  8
PLAN_1
  6
CONTINUOUS
 10
2.029315
 20
-3.798606
  0
VERTEX
  8
PLAN_1
  6
CONTINUOUS
 10
2.029315
 20
-3.792638
  0
VERTEX
  8
PLAN_1
  6
CONTINUOUS
 10
2.030311
 20
-3.787169
  0
VERTEX
  8
PLAN_1
  6
CONTINUOUS
 10
2.031307
 20
-3.781201
  0
VERTEX
  8
PLAN_1
  6
CONTINUOUS
 10
2.033295
 20
-3.775728
  0
VERTEX
  8
PLAN_1
  6
CONTINUOUS
 10
2.035283
 20
-3.770260
  0
VERTEX
  8
PLAN_1
  6
CONTINUOUS
 10
2.038268
 20
-3.765287
  0
VERTEX
  8
PLAN_1
  6
CONTINUOUS
 10
2.041252
 20
-3.760811
  0
VERTEX
  8
PLAN_1
  6
CONTINUOUS
 10
2.045232
 20
-3.756335
  0
VERTEX
  8
PLAN_1
  6
CONTINUOUS
 10
2.049709
 20
-3.751858
  0
VERTEX
  8
PLAN_1
  6
CONTINUOUS
 10
2.054681
 20
-3.748378
  0
VERTEX
  8
PLAN_1
  6
CONTINUOUS
 10
2.060650
 20
-3.744898
  0
VERTEX
  8
PLAN_1
  6
CONTINUOUS
 10
2.066614
 20
-3.742409
  0
VERTEX
  8
PLAN_1
  6
CONTINUOUS
 10
2.073579
 20
-3.739921
  0
VERTEX
  8
PLAN_1
  6
CONTINUOUS
 10
2.081039
 20
-3.738433
  0
VERTEX
  8
PLAN_1
  6
CONTINUOUS
 10
2.088996
 20
-3.737437
  0
VERTEX
  8
PLAN_1
  6
CONTINUOUS
 10
2.097949
 20
-3.736941
  0
VERTEX
  8
PLAN_1
  6
CONTINUOUS
 10
2.109882
 20
-3.737437
  0
VERTEX
  8
PLAN_1
  6
CONTINUOUS
 10
2.120823
 20
-3.738929
  0
VERTEX
  8
PLAN_1
  6
CONTINUOUS
 10
2.125799
 20
-3.739921
  0
VERTEX
  8
PLAN_1
  6
CONTINUOUS
 10
2.130772
 20
-3.740917
  0
VERTEX
  8
PLAN_1
  6
CONTINUOUS
 10
2.135248
 20
-3.742409
  0
VERTEX
  8
PLAN_1
  6
CONTINUOUS
 10
2.139224
 20
-3.743902
  0
VERTEX
  8
PLAN_1
  6
CONTINUOUS
 10
2.146189
 20
-3.747382
  0
VERTEX
  8
PLAN_1
  6
CONTINUOUS
 10
2.152654
 20
-3.751362
  0
VERTEX
  8
PLAN_1
  6
CONTINUOUS
 10
2.158122
 20
-3.755839
  0
VERTEX
  8
PLAN_1
  6
CONTINUOUS
 10
2.162102
 20
-3.760315
  0
VERTEX
  8
PLAN_1
  6
CONTINUOUS
 10
2.166079
 20
-3.765783
  0
VERTEX
  8
PLAN_1
  6
CONTINUOUS
 10
2.168567
 20
-3.770756
  0
VERTEX
  8
PLAN_1
  6
CONTINUOUS
 10
2.171055
 20
-3.776228
  0
VERTEX
  8
PLAN_1
  6
CONTINUOUS
 10
2.172547
 20
-3.781201
  0
VERTEX
  8
PLAN_1
  6
CONTINUOUS
 10
2.174039
 20
-3.786673
  0
VERTEX
  8
PLAN_1
  6
CONTINUOUS
 10
2.174535
 20
-3.791646
  0
VERTEX
  8
PLAN_1
  6
CONTINUOUS
 10
2.175031
 20
-3.796122
  0
VERTEX
  8
PLAN_1
  6
CONTINUOUS
 10
2.175528
 20
-3.800594
  0
VERTEX
  8
PLAN_1
  6
CONTINUOUS
 10
2.150165
 20
-3.800594
  0
SEQEND
  8
0
  0
POLYLINE
  8
PLAN_1
  6
CONTINUOUS
 66
     1
 40
0.008453
 41
0.008453
  0
VERTEX
  8
PLAN_1
  6
CONTINUOUS
 10
-1.072976
 20
2.333374
  0
VERTEX
  8
PLAN_1
  6
CONTINUOUS
 10
-1.068004
 20
2.337350
  0
VERTEX
  8
PLAN_1
  6
CONTINUOUS
 10
-1.064524
 20
2.341827
  0
VERTEX
  8
PLAN_1
  6
CONTINUOUS
 10
-1.062035
 20
2.346303
  0
VERTEX
  8
PLAN_1
  6
CONTINUOUS
 10
-1.060543
 20
2.350280
  0
VERTEX
  8
PLAN_1
  6
CONTINUOUS
 10
-1.060047
 20
2.354260
  0
VERTEX
  8
PLAN_1
  6
CONTINUOUS
 10
-1.060047
 20
2.357740
  0
VERTEX
  8
PLAN_1
  6
CONTINUOUS
 10
-1.061043
 20
2.361720
  0
VERTEX
  8
PLAN_1
  6
CONTINUOUS
 10
-1.062035
 20
2.364705
  0
VERTEX
  8
PLAN_1
  6
CONTINUOUS
 10
-1.063528
 20
2.367689
  0
VERTEX
  8
PLAN_1
  6
CONTINUOUS
 10
-1.065020
 20
2.370673
  0
VERTEX
  8
PLAN_1
  6
CONTINUOUS
 10
-1.067008
 20
2.373157
  0
VERTEX
  8
PLAN_1
  6
CONTINUOUS
 10
-1.068500
 20
2.375146
  0
VERTEX
  8
PLAN_1
  6
CONTINUOUS
 10
-1.071484
 20
2.377634
  0
VERTEX
  8
PLAN_1
  6
CONTINUOUS
 10
-1.072976
 20
2.378630
  0
SEQEND
  8
0
  0
POLYLINE
  8
PLAN_1
  6
CONTINUOUS
 66
     1
 40
0.008453
 41
0.008453
  0
VERTEX
  8
PLAN_1
  6
CONTINUOUS
 10
-1.072976
 20
2.378630
  0
VERTEX
  8
PLAN_1
  6
CONTINUOUS
 10
-1.353469
 20
2.378630
  0
SEQEND
  8
0
  0
POLYLINE
  8
PLAN_1
  6
CONTINUOUS
 66
     1
 40
0.008453
 41
0.008453
  0
VERTEX
  8
PLAN_1
  6
CONTINUOUS
 10
-1.353469
 20
2.378630
  0
VERTEX
  8
PLAN_1
  6
CONTINUOUS
 10
-1.354461
 20
2.377634
  0
VERTEX
  8
PLAN_1
  6
CONTINUOUS
 10
-1.356949
 20
2.375146
  0
VERTEX
  8
PLAN_1
  6
CONTINUOUS
 10
-1.360429
 20
2.371169
  0
VERTEX
  8
PLAN_1
  6
CONTINUOUS
 10
-1.362917
 20
2.365697
  0
VERTEX
  8
PLAN_1
  6
CONTINUOUS
 10
-1.363909
 20
2.362217
  0
VERTEX
  8
PLAN_1
  6
CONTINUOUS
 10
-1.364906
 20
2.358736
  0
VERTEX
  8
PLAN_1
  6
CONTINUOUS
 10
-1.364906
 20
2.354756
  0
VERTEX
  8
PLAN_1
  6
CONTINUOUS
 10
-1.364409
 20
2.350780
  0
VERTEX
  8
PLAN_1
  6
CONTINUOUS
 10
-1.362917
 20
2.346799
  0
VERTEX
  8
PLAN_1
  6
CONTINUOUS
 10
-1.360925
 20
2.342323
  0
VERTEX
  8
PLAN_1
  6
CONTINUOUS
 10
-1.357941
 20
2.337846
  0
VERTEX
  8
PLAN_1
  6
CONTINUOUS
 10
-1.353469
 20
2.333374
  0
SEQEND
  8
0
  0
POLYLINE
  8
PLAN_1
  6
CONTINUOUS
 66
     1
 40
0.008453
 41
0.008453
  0
VERTEX
  8
PLAN_1
  6
CONTINUOUS
 10
-1.353469
 20
2.333374
  0
VERTEX
  8
PLAN_1
  6
CONTINUOUS
 10
-1.072976
 20
2.333374
  0
SEQEND
  8
0
  0
POLYLINE
  8
PLAN_1
  6
CONTINUOUS
 66
     1
 40
0.008453
 41
0.008453
  0
VERTEX
  8
PLAN_1
  6
CONTINUOUS
 10
-1.072480
 20
2.288114
  0
VERTEX
  8
PLAN_1
  6
CONTINUOUS
 10
-1.067508
 20
2.292094
  0
VERTEX
  8
PLAN_1
  6
CONTINUOUS
 10
-1.064028
 20
2.296571
  0
VERTEX
  8
PLAN_1
  6
CONTINUOUS
 10
-1.061539
 20
2.301047
  0
VERTEX
  8
PLAN_1
  6
CONTINUOUS
 10
-1.060047
 20
2.305024
  0
VERTEX
  8
PLAN_1
  6
CONTINUOUS
 10
-1.059551
 20
2.309004
  0
VERTEX
  8
PLAN_1
  6
CONTINUOUS
 10
-1.059551
 20
2.312980
  0
VERTEX
  8
PLAN_1
  6
CONTINUOUS
 10
-1.060543
 20
2.316465
  0
VERTEX
  8
PLAN_1
  6
CONTINUOUS
 10
-1.061539
 20
2.319449
  0
VERTEX
  8
PLAN_1
  6
CONTINUOUS
 10
-1.063031
 20
2.322433
  0
VERTEX
  8
PLAN_1
  6
CONTINUOUS
 10
-1.064524
 20
2.325413
  0
VERTEX
  8
PLAN_1
  6
CONTINUOUS
 10
-1.066512
 20
2.327902
  0
VERTEX
  8
PLAN_1
  6
CONTINUOUS
 10
-1.068500
 20
2.329890
  0
VERTEX
  8
PLAN_1
  6
CONTINUOUS
 10
-1.070988
 20
2.332378
  0
VERTEX
  8
PLAN_1
  6
CONTINUOUS
 10
-1.072480
 20
2.333374
  0
SEQEND
  8
0
  0
POLYLINE
  8
PLAN_1
  6
CONTINUOUS
 66
     1
 40
0.008453
 41
0.008453
  0
VERTEX
  8
PLAN_1
  6
CONTINUOUS
 10
-1.072480
 20
2.333374
  0
VERTEX
  8
PLAN_1
  6
CONTINUOUS
 10
-1.352969
 20
2.333374
  0
SEQEND
  8
0
  0
POLYLINE
  8
PLAN_1
  6
CONTINUOUS
 66
     1
 40
0.008453
 41
0.008453
  0
VERTEX
  8
PLAN_1
  6
CONTINUOUS
 10
-1.352969
 20
2.333374
  0
VERTEX
  8
PLAN_1
  6
CONTINUOUS
 10
-1.353965
 20
2.332874
  0
VERTEX
  8
PLAN_1
  6
CONTINUOUS
 10
-1.356453
 20
2.329890
  0
VERTEX
  8
PLAN_1
  6
CONTINUOUS
 10
-1.359933
 20
2.325913
  0
VERTEX
  8
PLAN_1
  6
CONTINUOUS
 10
-1.362417
 20
2.320441
  0
VERTEX
  8
PLAN_1
  6
CONTINUOUS
 10
-1.363909
 20
2.316961
  0
VERTEX
  8
PLAN_1
  6
CONTINUOUS
 10
-1.364409
 20
2.313480
  0
VERTEX
  8
PLAN_1
  6
CONTINUOUS
 10
-1.364409
 20
2.309500
  0
VERTEX
  8
PLAN_1
  6
CONTINUOUS
 10
-1.363909
 20
2.305524
  0
VERTEX
  8
PLAN_1
  6
CONTINUOUS
 10
-1.362417
 20
2.301543
  0
VERTEX
  8
PLAN_1
  6
CONTINUOUS
 10
-1.360429
 20
2.297067
  0
VERTEX
  8
PLAN_1
  6
CONTINUOUS
 10
-1.357445
 20
2.292591
  0
VERTEX
  8
PLAN_1
  6
CONTINUOUS
 10
-1.352969
 20
2.288114
  0
SEQEND
  8
0
  0
POLYLINE
  8
PLAN_1
  6
CONTINUOUS
 66
     1
 40
0.008453
 41
0.008453
  0
VERTEX
  8
PLAN_1
  6
CONTINUOUS
 10
-1.352969
 20
2.288114
  0
VERTEX
  8
PLAN_1
  6
CONTINUOUS
 10
-1.072480
 20
2.288114
  0
SEQEND
  8
0
  0
POLYLINE
  8
PLAN_1
  6
CONTINUOUS
 66
     1
 40
0.008453
 41
0.008453
  0
VERTEX
  8
PLAN_1
  6
CONTINUOUS
 10
-1.072480
 20
2.241866
  0
VERTEX
  8
PLAN_1
  6
CONTINUOUS
 10
-1.068004
 20
2.246343
  0
VERTEX
  8
PLAN_1
  6
CONTINUOUS
 10
-1.064524
 20
2.250819
  0
VERTEX
  8
PLAN_1
  6
CONTINUOUS
 10
-1.062035
 20
2.254795
  0
VERTEX
  8
PLAN_1
  6
CONTINUOUS
 10
-1.060543
 20
2.259272
  0
VERTEX
  8
PLAN_1
  6
CONTINUOUS
 10
-1.060047
 20
2.263252
  0
VERTEX
  8
PLAN_1
  6
CONTINUOUS
 10
-1.060047
 20
2.266732
  0
VERTEX
  8
PLAN_1
  6
CONTINUOUS
 10
-1.060543
 20
2.270213
  0
VERTEX
  8
PLAN_1
  6
CONTINUOUS
 10
-1.061539
 20
2.273693
  0
VERTEX
  8
PLAN_1
  6
CONTINUOUS
 10
-1.063031
 20
2.276677
  0
VERTEX
  8
PLAN_1
  6
CONTINUOUS
 10
-1.065020
 20
2.279661
  0
VERTEX
  8
PLAN_1
  6
CONTINUOUS
 10
-1.067008
 20
2.281650
  0
VERTEX
  8
PLAN_1
  6
CONTINUOUS
 10
-1.068500
 20
2.283642
  0
VERTEX
  8
PLAN_1
  6
CONTINUOUS
 10
-1.071484
 20
2.286626
  0
VERTEX
  8
PLAN_1
  6
CONTINUOUS
 10
-1.072480
 20
2.287618
  0
SEQEND
  8
0
  0
POLYLINE
  8
PLAN_1
  6
CONTINUOUS
 66
     1
 40
0.008453
 41
0.008453
  0
VERTEX
  8
PLAN_1
  6
CONTINUOUS
 10
-1.072480
 20
2.287618
  0
VERTEX
  8
PLAN_1
  6
CONTINUOUS
 10
-1.353469
 20
2.287618
  0
SEQEND
  8
0
  0
POLYLINE
  8
PLAN_1
  6
CONTINUOUS
 66
     1
 40
0.008453
 41
0.008453
  0
VERTEX
  8
PLAN_1
  6
CONTINUOUS
 10
-1.353469
 20
2.287618
  0
VERTEX
  8
PLAN_1
  6
CONTINUOUS
 10
-1.354461
 20
2.286626
  0
VERTEX
  8
PLAN_1
  6
CONTINUOUS
 10
-1.356949
 20
2.284138
  0
VERTEX
  8
PLAN_1
  6
CONTINUOUS
 10
-1.359933
 20
2.279661
  0
VERTEX
  8
PLAN_1
  6
CONTINUOUS
 10
-1.362917
 20
2.274193
  0
VERTEX
  8
PLAN_1
  6
CONTINUOUS
 10
-1.363909
 20
2.271209
  0
VERTEX
  8
PLAN_1
  6
CONTINUOUS
 10
-1.364409
 20
2.267724
  0
VERTEX
  8
PLAN_1
  6
CONTINUOUS
 10
-1.364409
 20
2.263748
  0
VERTEX
  8
PLAN_1
  6
CONTINUOUS
 10
-1.363909
 20
2.259768
  0
VERTEX
  8
PLAN_1
  6
CONTINUOUS
 10
-1.362917
 20
2.255791
  0
VERTEX
  8
PLAN_1
  6
CONTINUOUS
 10
-1.360429
 20
2.251315
  0
VERTEX
  8
PLAN_1
  6
CONTINUOUS
 10
-1.357445
 20
2.246839
  0
VERTEX
  8
PLAN_1
  6
CONTINUOUS
 10
-1.353469
 20
2.241866
  0
SEQEND
  8
0
  0
POLYLINE
  8
PLAN_1
  6
CONTINUOUS
 66
     1
 40
0.008453
 41
0.008453
  0
VERTEX
  8
PLAN_1
  6
CONTINUOUS
 10
-1.353469
 20
2.241866
  0
VERTEX
  8
PLAN_1
  6
CONTINUOUS
 10
-1.072480
 20
2.241866
  0
SEQEND
  8
0
  0
POLYLINE
  8
PLAN_1
  6
CONTINUOUS
 66
     1
 40
0.008453
 41
0.008453
  0
VERTEX
  8
PLAN_1
  6
CONTINUOUS
 10
-1.071984
 20
2.196610
  0
VERTEX
  8
PLAN_1
  6
CONTINUOUS
 10
-1.067508
 20
2.201087
  0
VERTEX
  8
PLAN_1
  6
CONTINUOUS
 10
-1.064028
 20
2.205559
  0
VERTEX
  8
PLAN_1
  6
CONTINUOUS
 10
-1.061539
 20
2.209539
  0
VERTEX
  8
PLAN_1
  6
CONTINUOUS
 10
-1.060047
 20
2.214016
  0
VERTEX
  8
PLAN_1
  6
CONTINUOUS
 10
-1.059551
 20
2.217992
  0
VERTEX
  8
PLAN_1
  6
CONTINUOUS
 10
-1.059551
 20
2.221476
  0
VERTEX
  8
PLAN_1
  6
CONTINUOUS
 10
-1.060047
 20
2.224957
  0
VERTEX
  8
PLAN_1
  6
CONTINUOUS
 10
-1.061539
 20
2.228437
  0
VERTEX
  8
PLAN_1
  6
CONTINUOUS
 10
-1.063031
 20
2.231421
  0
VERTEX
  8
PLAN_1
  6
CONTINUOUS
 10
-1.064524
 20
2.234406
  0
VERTEX
  8
PLAN_1
  6
CONTINUOUS
 10
-1.066512
 20
2.236394
  0
VERTEX
  8
PLAN_1
  6
CONTINUOUS
 10
-1.068004
 20
2.238386
  0
VERTEX
  8
PLAN_1
  6
CONTINUOUS
 10
-1.070988
 20
2.241366
  0
VERTEX
  8
PLAN_1
  6
CONTINUOUS
 10
-1.071984
 20
2.242362
  0
SEQEND
  8
0
  0
POLYLINE
  8
PLAN_1
  6
CONTINUOUS
 66
     1
 40
0.008453
 41
0.008453
  0
VERTEX
  8
PLAN_1
  6
CONTINUOUS
 10
-1.071984
 20
2.242362
  0
VERTEX
  8
PLAN_1
  6
CONTINUOUS
 10
-1.352969
 20
2.242362
  0
SEQEND
  8
0
  0
POLYLINE
  8
PLAN_1
  6
CONTINUOUS
 66
     1
 40
0.008453
 41
0.008453
  0
VERTEX
  8
PLAN_1
  6
CONTINUOUS
 10
-1.352969
 20
2.242362
  0
VERTEX
  8
PLAN_1
  6
CONTINUOUS
 10
-1.353965
 20
2.241366
  0
VERTEX
  8
PLAN_1
  6
CONTINUOUS
 10
-1.356453
 20
2.238882
  0
VERTEX
  8
PLAN_1
  6
CONTINUOUS
 10
-1.359433
 20
2.234902
  0
VERTEX
  8
PLAN_1
  6
CONTINUOUS
 10
-1.362417
 20
2.228933
  0
VERTEX
  8
PLAN_1
  6
CONTINUOUS
 10
-1.363413
 20
2.225953
  0
VERTEX
  8
PLAN_1
  6
CONTINUOUS
 10
-1.363909
 20
2.222469
  0
VERTEX
  8
PLAN_1
  6
CONTINUOUS
 10
-1.363909
 20
2.218492
  0
VERTEX
  8
PLAN_1
  6
CONTINUOUS
 10
-1.363413
 20
2.214512
  0
VERTEX
  8
PLAN_1
  6
CONTINUOUS
 10
-1.362417
 20
2.210535
  0
VERTEX
  8
PLAN_1
  6
CONTINUOUS
 10
-1.360429
 20
2.206059
  0
VERTEX
  8
PLAN_1
  6
CONTINUOUS
 10
-1.356949
 20
2.201583
  0
VERTEX
  8
PLAN_1
  6
CONTINUOUS
 10
-1.352969
 20
2.196610
  0
SEQEND
  8
0
  0
POLYLINE
  8
PLAN_1
  6
CONTINUOUS
 66
     1
 40
0.008453
 41
0.008453
  0
VERTEX
  8
PLAN_1
  6
CONTINUOUS
 10
-1.352969
 20
2.196610
  0
VERTEX
  8
PLAN_1
  6
CONTINUOUS
 10
-1.071984
 20
2.196610
  0
SEQEND
  8
0
  0
POLYLINE
  8
PLAN_1
  6
CONTINUOUS
 66
     1
 40
0.008453
 41
0.008453
  0
VERTEX
  8
PLAN_1
  6
CONTINUOUS
 10
-1.072480
 20
2.151354
  0
VERTEX
  8
PLAN_1
  6
CONTINUOUS
 10
-1.068004
 20
2.155827
  0
VERTEX
  8
PLAN_1
  6
CONTINUOUS
 10
-1.064524
 20
2.160303
  0
VERTEX
  8
PLAN_1
  6
CONTINUOUS
 10
-1.062035
 20
2.164283
  0
VERTEX
  8
PLAN_1
  6
CONTINUOUS
 10
-1.060543
 20
2.168760
  0
VERTEX
  8
PLAN_1
  6
CONTINUOUS
 10
-1.060047
 20
2.172736
  0
VERTEX
  8
PLAN_1
  6
CONTINUOUS
 10
-1.060047
 20
2.176220
  0
VERTEX
  8
PLAN_1
  6
CONTINUOUS
 10
-1.060543
 20
2.179701
  0
VERTEX
  8
PLAN_1
  6
CONTINUOUS
 10
-1.061539
 20
2.183181
  0
VERTEX
  8
PLAN_1
  6
CONTINUOUS
 10
-1.063031
 20
2.186165
  0
VERTEX
  8
PLAN_1
  6
CONTINUOUS
 10
-1.065020
 20
2.189150
  0
VERTEX
  8
PLAN_1
  6
CONTINUOUS
 10
-1.067008
 20
2.191138
  0
VERTEX
  8
PLAN_1
  6
CONTINUOUS
 10
-1.068500
 20
2.193126
  0
VERTEX
  8
PLAN_1
  6
CONTINUOUS
 10
-1.071484
 20
2.196110
  0
VERTEX
  8
PLAN_1
  6
CONTINUOUS
 10
-1.072480
 20
2.197106
  0
SEQEND
  8
0
  0
POLYLINE
  8
PLAN_1
  6
CONTINUOUS
 66
     1
 40
0.008453
 41
0.008453
  0
VERTEX
  8
PLAN_1
  6
CONTINUOUS
 10
-1.072480
 20
2.197106
  0
VERTEX
  8
PLAN_1
  6
CONTINUOUS
 10
-1.353469
 20
2.197106
  0
SEQEND
  8
0
  0
POLYLINE
  8
PLAN_1
  6
CONTINUOUS
 66
     1
 40
0.008453
 41
0.008453
  0
VERTEX
  8
PLAN_1
  6
CONTINUOUS
 10
-1.353469
 20
2.197106
  0
VERTEX
  8
PLAN_1
  6
CONTINUOUS
 10
-1.354461
 20
2.196110
  0
VERTEX
  8
PLAN_1
  6
CONTINUOUS
 10
-1.356949
 20
2.193626
  0
VERTEX
  8
PLAN_1
  6
CONTINUOUS
 10
-1.359933
 20
2.189646
  0
VERTEX
  8
PLAN_1
  6
CONTINUOUS
 10
-1.362917
 20
2.183677
  0
VERTEX
  8
PLAN_1
  6
CONTINUOUS
 10
-1.363909
 20
2.180693
  0
VERTEX
  8
PLAN_1
  6
CONTINUOUS
 10
-1.364409
 20
2.177213
  0
VERTEX
  8
PLAN_1
  6
CONTINUOUS
 10
-1.364409
 20
2.173236
  0
VERTEX
  8
PLAN_1
  6
CONTINUOUS
 10
-1.363909
 20
2.169256
  0
VERTEX
  8
PLAN_1
  6
CONTINUOUS
 10
-1.362917
 20
2.165280
  0
VERTEX
  8
PLAN_1
  6
CONTINUOUS
 10
-1.360429
 20
2.160803
  0
VERTEX
  8
PLAN_1
  6
CONTINUOUS
 10
-1.357445
 20
2.156327
  0
VERTEX
  8
PLAN_1
  6
CONTINUOUS
 10
-1.353469
 20
2.151354
  0
SEQEND
  8
0
  0
POLYLINE
  8
PLAN_1
  6
CONTINUOUS
 66
     1
 40
0.008453
 41
0.008453
  0
VERTEX
  8
PLAN_1
  6
CONTINUOUS
 10
-1.353469
 20
2.151354
  0
VERTEX
  8
PLAN_1
  6
CONTINUOUS
 10
-1.072480
 20
2.151354
  0
SEQEND
  8
0
  0
POLYLINE
  8
PLAN_1
  6
CONTINUOUS
 66
     1
 40
0.008453
 41
0.008453
  0
VERTEX
  8
PLAN_1
  6
CONTINUOUS
 10
-1.071984
 20
2.106094
  0
VERTEX
  8
PLAN_1
  6
CONTINUOUS
 10
-1.067508
 20
2.110571
  0
VERTEX
  8
PLAN_1
  6
CONTINUOUS
 10
-1.064028
 20
2.115047
  0
VERTEX
  8
PLAN_1
  6
CONTINUOUS
 10
-1.061539
 20
2.119028
  0
VERTEX
  8
PLAN_1
  6
CONTINUOUS
 10
-1.060047
 20
2.123504
  0
VERTEX
  8
PLAN_1
  6
CONTINUOUS
 10
-1.059551
 20
2.127480
  0
VERTEX
  8
PLAN_1
  6
CONTINUOUS
 10
-1.059551
 20
2.130961
  0
VERTEX
  8
PLAN_1
  6
CONTINUOUS
 10
-1.060047
 20
2.134445
  0
VERTEX
  8
PLAN_1
  6
CONTINUOUS
 10
-1.061539
 20
2.137925
  0
VERTEX
  8
PLAN_1
  6
CONTINUOUS
 10
-1.063031
 20
2.140909
  0
VERTEX
  8
PLAN_1
  6
CONTINUOUS
 10
-1.064524
 20
2.143894
  0
VERTEX
  8
PLAN_1
  6
CONTINUOUS
 10
-1.066512
 20
2.145882
  0
VERTEX
  8
PLAN_1
  6
CONTINUOUS
 10
-1.068004
 20
2.148370
  0
VERTEX
  8
PLAN_1
  6
CONTINUOUS
 10
-1.070988
 20
2.150854
  0
VERTEX
  8
PLAN_1
  6
CONTINUOUS
 10
-1.071984
 20
2.151850
  0
SEQEND
  8
0
  0
POLYLINE
  8
PLAN_1
  6
CONTINUOUS
 66
     1
 40
0.008453
 41
0.008453
  0
VERTEX
  8
PLAN_1
  6
CONTINUOUS
 10
-1.071984
 20
2.151850
  0
VERTEX
  8
PLAN_1
  6
CONTINUOUS
 10
-1.352969
 20
2.151850
  0
SEQEND
  8
0
  0
POLYLINE
  8
PLAN_1
  6
CONTINUOUS
 66
     1
 40
0.008453
 41
0.008453
  0
VERTEX
  8
PLAN_1
  6
CONTINUOUS
 10
-1.352969
 20
2.151850
  0
VERTEX
  8
PLAN_1
  6
CONTINUOUS
 10
-1.353965
 20
2.150854
  0
VERTEX
  8
PLAN_1
  6
CONTINUOUS
 10
-1.356453
 20
2.148370
  0
VERTEX
  8
PLAN_1
  6
CONTINUOUS
 10
-1.359433
 20
2.144390
  0
VERTEX
  8
PLAN_1
  6
CONTINUOUS
 10
-1.362417
 20
2.138421
  0
VERTEX
  8
PLAN_1
  6
CONTINUOUS
 10
-1.363413
 20
2.135437
  0
VERTEX
  8
PLAN_1
  6
CONTINUOUS
 10
-1.363909
 20
2.131957
  0
VERTEX
  8
PLAN_1
  6
CONTINUOUS
 10
-1.363909
 20
2.127980
  0
VERTEX
  8
PLAN_1
  6
CONTINUOUS
 10
-1.363413
 20
2.124000
  0
VERTEX
  8
PLAN_1
  6
CONTINUOUS
 10
-1.362417
 20
2.120020
  0
VERTEX
  8
PLAN_1
  6
CONTINUOUS
 10
-1.360429
 20
2.115547
  0
VERTEX
  8
PLAN_1
  6
CONTINUOUS
 10
-1.356949
 20
2.111071
  0
VERTEX
  8
PLAN_1
  6
CONTINUOUS
 10
-1.352969
 20
2.106094
  0
SEQEND
  8
0
  0
POLYLINE
  8
PLAN_1
  6
CONTINUOUS
 66
     1
 40
0.008453
 41
0.008453
  0
VERTEX
  8
PLAN_1
  6
CONTINUOUS
 10
-1.352969
 20
2.106094
  0
VERTEX
  8
PLAN_1
  6
CONTINUOUS
 10
-1.071984
 20
2.106094
  0
SEQEND
  8
0
  0
POLYLINE
  8
PLAN_1
  6
CONTINUOUS
 66
     1
 40
0.008453
 41
0.008453
  0
VERTEX
  8
PLAN_1
  6
CONTINUOUS
 10
-1.072480
 20
2.060839
  0
VERTEX
  8
PLAN_1
  6
CONTINUOUS
 10
-1.068004
 20
2.065315
  0
VERTEX
  8
PLAN_1
  6
CONTINUOUS
 10
-1.064524
 20
2.069791
  0
VERTEX
  8
PLAN_1
  6
CONTINUOUS
 10
-1.062035
 20
2.074268
  0
VERTEX
  8
PLAN_1
  6
CONTINUOUS
 10
-1.060543
 20
2.078248
  0
VERTEX
  8
PLAN_1
  6
CONTINUOUS
 10
-1.060047
 20
2.082224
  0
VERTEX
  8
PLAN_1
  6
CONTINUOUS
 10
-1.060047
 20
2.085705
  0
VERTEX
  8
PLAN_1
  6
CONTINUOUS
 10
-1.060543
 20
2.089189
  0
VERTEX
  8
PLAN_1
  6
CONTINUOUS
 10
-1.061539
 20
2.092669
  0
VERTEX
  8
PLAN_1
  6
CONTINUOUS
 10
-1.063031
 20
2.095654
  0
VERTEX
  8
PLAN_1
  6
CONTINUOUS
 10
-1.065020
 20
2.098638
  0
VERTEX
  8
PLAN_1
  6
CONTINUOUS
 10
-1.067008
 20
2.100626
  0
VERTEX
  8
PLAN_1
  6
CONTINUOUS
 10
-1.068500
 20
2.103114
  0
VERTEX
  8
PLAN_1
  6
CONTINUOUS
 10
-1.071484
 20
2.105598
  0
VERTEX
  8
PLAN_1
  6
CONTINUOUS
 10
-1.072480
 20
2.106594
  0
SEQEND
  8
0
  0
POLYLINE
  8
PLAN_1
  6
CONTINUOUS
 66
     1
 40
0.008453
 41
0.008453
  0
VERTEX
  8
PLAN_1
  6
CONTINUOUS
 10
-1.072480
 20
2.106594
  0
VERTEX
  8
PLAN_1
  6
CONTINUOUS
 10
-1.353469
 20
2.106594
  0
SEQEND
  8
0
  0
POLYLINE
  8
PLAN_1
  6
CONTINUOUS
 66
     1
 40
0.008453
 41
0.008453
  0
VERTEX
  8
PLAN_1
  6
CONTINUOUS
 10
-1.353469
 20
2.106594
  0
VERTEX
  8
PLAN_1
  6
CONTINUOUS
 10
-1.354461
 20
2.105598
  0
VERTEX
  8
PLAN_1
  6
CONTINUOUS
 10
-1.356949
 20
2.103114
  0
VERTEX
  8
PLAN_1
  6
CONTINUOUS
 10
-1.359933
 20
2.099134
  0
VERTEX
  8
PLAN_1
  6
CONTINUOUS
 10
-1.362917
 20
2.093165
  0
VERTEX
  8
PLAN_1
  6
CONTINUOUS
 10
-1.363909
 20
2.090181
  0
VERTEX
  8
PLAN_1
  6
CONTINUOUS
 10
-1.364409
 20
2.086701
  0
VERTEX
  8
PLAN_1
  6
CONTINUOUS
 10
-1.364409
 20
2.082720
  0
VERTEX
  8
PLAN_1
  6
CONTINUOUS
 10
-1.363909
 20
2.078744
  0
VERTEX
  8
PLAN_1
  6
CONTINUOUS
 10
-1.362917
 20
2.074764
  0
VERTEX
  8
PLAN_1
  6
CONTINUOUS
 10
-1.360429
 20
2.070287
  0
VERTEX
  8
PLAN_1
  6
CONTINUOUS
 10
-1.357445
 20
2.065815
  0
VERTEX
  8
PLAN_1
  6
CONTINUOUS
 10
-1.353469
 20
2.060839
  0
SEQEND
  8
0
  0
POLYLINE
  8
PLAN_1
  6
CONTINUOUS
 66
     1
 40
0.008453
 41
0.008453
  0
VERTEX
  8
PLAN_1
  6
CONTINUOUS
 10
-1.353469
 20
2.060839
  0
VERTEX
  8
PLAN_1
  6
CONTINUOUS
 10
-1.072480
 20
2.060839
  0
SEQEND
  8
0
  0
POLYLINE
  8
PLAN_1
  6
CONTINUOUS
 66
     1
 40
0.008453
 41
0.008453
  0
VERTEX
  8
PLAN_1
  6
CONTINUOUS
 10
-1.071984
 20
2.015583
  0
VERTEX
  8
PLAN_1
  6
CONTINUOUS
 10
-1.067508
 20
2.020059
  0
VERTEX
  8
PLAN_1
  6
CONTINUOUS
 10
-1.064028
 20
2.024535
  0
VERTEX
  8
PLAN_1
  6
CONTINUOUS
 10
-1.061539
 20
2.029012
  0
VERTEX
  8
PLAN_1
  6
CONTINUOUS
 10
-1.060047
 20
2.032988
  0
VERTEX
  8
PLAN_1
  6
CONTINUOUS
 10
-1.059551
 20
2.036969
  0
VERTEX
  8
PLAN_1
  6
CONTINUOUS
 10
-1.059551
 20
2.040449
  0
VERTEX
  8
PLAN_1
  6
CONTINUOUS
 10
-1.060047
 20
2.043929
  0
VERTEX
  8
PLAN_1
  6
CONTINUOUS
 10
-1.061539
 20
2.047413
  0
VERTEX
  8
PLAN_1
  6
CONTINUOUS
 10
-1.063031
 20
2.050398
  0
VERTEX
  8
PLAN_1
  6
CONTINUOUS
 10
-1.064524
 20
2.053382
  0
VERTEX
  8
PLAN_1
  6
CONTINUOUS
 10
-1.066512
 20
2.055370
  0
VERTEX
  8
PLAN_1
  6
CONTINUOUS
 10
-1.068004
 20
2.057854
  0
VERTEX
  8
PLAN_1
  6
CONTINUOUS
 10
-1.070988
 20
2.060343
  0
VERTEX
  8
PLAN_1
  6
CONTINUOUS
 10
-1.071984
 20
2.061339
  0
SEQEND
  8
0
  0
POLYLINE
  8
PLAN_1
  6
CONTINUOUS
 66
     1
 40
0.008453
 41
0.008453
  0
VERTEX
  8
PLAN_1
  6
CONTINUOUS
 10
-1.071984
 20
2.061339
  0
VERTEX
  8
PLAN_1
  6
CONTINUOUS
 10
-1.352969
 20
2.061339
  0
SEQEND
  8
0
  0
POLYLINE
  8
PLAN_1
  6
CONTINUOUS
 66
     1
 40
0.008453
 41
0.008453
  0
VERTEX
  8
PLAN_1
  6
CONTINUOUS
 10
-1.352969
 20
2.061339
  0
VERTEX
  8
PLAN_1
  6
CONTINUOUS
 10
-1.353965
 20
2.060343
  0
VERTEX
  8
PLAN_1
  6
CONTINUOUS
 10
-1.356453
 20
2.057854
  0
VERTEX
  8
PLAN_1
  6
CONTINUOUS
 10
-1.359433
 20
2.053878
  0
VERTEX
  8
PLAN_1
  6
CONTINUOUS
 10
-1.362417
 20
2.047909
  0
VERTEX
  8
PLAN_1
  6
CONTINUOUS
 10
-1.363413
 20
2.044925
  0
VERTEX
  8
PLAN_1
  6
CONTINUOUS
 10
-1.363909
 20
2.041445
  0
VERTEX
  8
PLAN_1
  6
CONTINUOUS
 10
-1.363909
 20
2.037465
  0
VERTEX
  8
PLAN_1
  6
CONTINUOUS
 10
-1.363413
 20
2.033488
  0
VERTEX
  8
PLAN_1
  6
CONTINUOUS
 10
-1.362417
 20
2.029508
  0
VERTEX
  8
PLAN_1
  6
CONTINUOUS
 10
-1.360429
 20
2.025031
  0
VERTEX
  8
PLAN_1
  6
CONTINUOUS
 10
-1.356949
 20
2.020555
  0
VERTEX
  8
PLAN_1
  6
CONTINUOUS
 10
-1.352969
 20
2.015583
  0
SEQEND
  8
0
  0
POLYLINE
  8
PLAN_1
  6
CONTINUOUS
 66
     1
 40
0.008453
 41
0.008453
  0
VERTEX
  8
PLAN_1
  6
CONTINUOUS
 10
-1.352969
 20
2.015583
  0
VERTEX
  8
PLAN_1
  6
CONTINUOUS
 10
-1.071984
 20
2.015583
  0
SEQEND
  8
0
  0
POLYLINE
  8
PLAN_1
  6
CONTINUOUS
 66
     1
 40
0.008453
 41
0.008453
  0
VERTEX
  8
PLAN_1
  6
CONTINUOUS
 10
-1.072480
 20
1.970327
  0
VERTEX
  8
PLAN_1
  6
CONTINUOUS
 10
-1.068004
 20
1.974803
  0
VERTEX
  8
PLAN_1
  6
CONTINUOUS
 10
-1.064524
 20
1.979280
  0
VERTEX
  8
PLAN_1
  6
CONTINUOUS
 10
-1.062035
 20
1.983756
  0
VERTEX
  8
PLAN_1
  6
CONTINUOUS
 10
-1.060543
 20
1.987732
  0
VERTEX
  8
PLAN_1
  6
CONTINUOUS
 10
-1.060047
 20
1.991713
  0
VERTEX
  8
PLAN_1
  6
CONTINUOUS
 10
-1.060047
 20
1.995193
  0
VERTEX
  8
PLAN_1
  6
CONTINUOUS
 10
-1.060543
 20
1.999173
  0
VERTEX
  8
PLAN_1
  6
CONTINUOUS
 10
-1.061539
 20
2.002157
  0
VERTEX
  8
PLAN_1
  6
CONTINUOUS
 10
-1.063031
 20
2.005142
  0
VERTEX
  8
PLAN_1
  6
CONTINUOUS
 10
-1.065020
 20
2.008122
  0
VERTEX
  8
PLAN_1
  6
CONTINUOUS
 10
-1.067008
 20
2.010610
  0
VERTEX
  8
PLAN_1
  6
CONTINUOUS
 10
-1.068500
 20
2.012598
  0
VERTEX
  8
PLAN_1
  6
CONTINUOUS
 10
-1.071484
 20
2.015087
  0
VERTEX
  8
PLAN_1
  6
CONTINUOUS
 10
-1.072480
 20
2.016083
  0
SEQEND
  8
0
  0
POLYLINE
  8
PLAN_1
  6
CONTINUOUS
 66
     1
 40
0.008453
 41
0.008453
  0
VERTEX
  8
PLAN_1
  6
CONTINUOUS
 10
-1.072480
 20
2.016083
  0
VERTEX
  8
PLAN_1
  6
CONTINUOUS
 10
-1.353469
 20
2.016083
  0
SEQEND
  8
0
  0
POLYLINE
  8
PLAN_1
  6
CONTINUOUS
 66
     1
 40
0.008453
 41
0.008453
  0
VERTEX
  8
PLAN_1
  6
CONTINUOUS
 10
-1.353469
 20
2.016083
  0
VERTEX
  8
PLAN_1
  6
CONTINUOUS
 10
-1.354461
 20
2.015087
  0
VERTEX
  8
PLAN_1
  6
CONTINUOUS
 10
-1.356949
 20
2.012598
  0
VERTEX
  8
PLAN_1
  6
CONTINUOUS
 10
-1.359933
 20
2.008622
  0
VERTEX
  8
PLAN_1
  6
CONTINUOUS
 10
-1.362917
 20
2.002654
  0
VERTEX
  8
PLAN_1
  6
CONTINUOUS
 10
-1.363909
 20
1.999669
  0
VERTEX
  8
PLAN_1
  6
CONTINUOUS
 10
-1.364409
 20
1.996189
  0
VERTEX
  8
PLAN_1
  6
CONTINUOUS
 10
-1.364409
 20
1.992209
  0
VERTEX
  8
PLAN_1
  6
CONTINUOUS
 10
-1.363909
 20
1.988232
  0
VERTEX
  8
PLAN_1
  6
CONTINUOUS
 10
-1.362917
 20
1.984252
  0
VERTEX
  8
PLAN_1
  6
CONTINUOUS
 10
-1.360429
 20
1.979776
  0
VERTEX
  8
PLAN_1
  6
CONTINUOUS
 10
-1.357445
 20
1.975299
  0
VERTEX
  8
PLAN_1
  6
CONTINUOUS
 10
-1.353469
 20
1.970327
  0
SEQEND
  8
0
  0
POLYLINE
  8
PLAN_1
  6
CONTINUOUS
 66
     1
 40
0.008453
 41
0.008453
  0
VERTEX
  8
PLAN_1
  6
CONTINUOUS
 10
-1.353469
 20
1.970327
  0
VERTEX
  8
PLAN_1
  6
CONTINUOUS
 10
-1.072480
 20
1.970327
  0
SEQEND
  8
0
  0
POLYLINE
  8
PLAN_1
  6
CONTINUOUS
 66
     1
 40
0.008453
 41
0.008453
  0
VERTEX
  8
PLAN_1
  6
CONTINUOUS
 10
-1.071984
 20
1.925071
  0
VERTEX
  8
PLAN_1
  6
CONTINUOUS
 10
-1.067508
 20
1.929547
  0
VERTEX
  8
PLAN_1
  6
CONTINUOUS
 10
-1.064028
 20
1.934024
  0
VERTEX
  8
PLAN_1
  6
CONTINUOUS
 10
-1.061539
 20
1.938500
  0
VERTEX
  8
PLAN_1
  6
CONTINUOUS
 10
-1.060047
 20
1.942476
  0
VERTEX
  8
PLAN_1
  6
CONTINUOUS
 10
-1.059551
 20
1.946457
  0
VERTEX
  8
PLAN_1
  6
CONTINUOUS
 10
-1.059551
 20
1.949937
  0
VERTEX
  8
PLAN_1
  6
CONTINUOUS
 10
-1.060047
 20
1.953917
  0
VERTEX
  8
PLAN_1
  6
CONTINUOUS
 10
-1.061539
 20
1.956902
  0
VERTEX
  8
PLAN_1
  6
CONTINUOUS
 10
-1.063031
 20
1.959882
  0
VERTEX
  8
PLAN_1
  6
CONTINUOUS
 10
-1.064524
 20
1.962866
  0
VERTEX
  8
PLAN_1
  6
CONTINUOUS
 10
-1.066512
 20
1.965354
  0
VERTEX
  8
PLAN_1
  6
CONTINUOUS
 10
-1.068004
 20
1.967343
  0
VERTEX
  8
PLAN_1
  6
CONTINUOUS
 10
-1.070988
 20
1.969831
  0
VERTEX
  8
PLAN_1
  6
CONTINUOUS
 10
-1.071984
 20
1.970823
  0
SEQEND
  8
0
  0
POLYLINE
  8
PLAN_1
  6
CONTINUOUS
 66
     1
 40
0.008453
 41
0.008453
  0
VERTEX
  8
PLAN_1
  6
CONTINUOUS
 10
-1.071984
 20
1.970823
  0
VERTEX
  8
PLAN_1
  6
CONTINUOUS
 10
-1.352969
 20
1.970823
  0
SEQEND
  8
0
  0
POLYLINE
  8
PLAN_1
  6
CONTINUOUS
 66
     1
 40
0.008453
 41
0.008453
  0
VERTEX
  8
PLAN_1
  6
CONTINUOUS
 10
-1.352969
 20
1.970823
  0
VERTEX
  8
PLAN_1
  6
CONTINUOUS
 10
-1.353965
 20
1.969831
  0
VERTEX
  8
PLAN_1
  6
CONTINUOUS
 10
-1.356453
 20
1.967343
  0
VERTEX
  8
PLAN_1
  6
CONTINUOUS
 10
-1.359433
 20
1.963366
  0
VERTEX
  8
PLAN_1
  6
CONTINUOUS
 10
-1.362417
 20
1.957398
  0
VERTEX
  8
PLAN_1
  6
CONTINUOUS
 10
-1.363413
 20
1.954413
  0
VERTEX
  8
PLAN_1
  6
CONTINUOUS
 10
-1.363909
 20
1.950933
  0
VERTEX
  8
PLAN_1
  6
CONTINUOUS
 10
-1.363909
 20
1.946953
  0
VERTEX
  8
PLAN_1
  6
CONTINUOUS
 10
-1.363413
 20
1.942976
  0
VERTEX
  8
PLAN_1
  6
CONTINUOUS
 10
-1.362417
 20
1.938996
  0
VERTEX
  8
PLAN_1
  6
CONTINUOUS
 10
-1.360429
 20
1.934520
  0
VERTEX
  8
PLAN_1
  6
CONTINUOUS
 10
-1.356949
 20
1.930043
  0
VERTEX
  8
PLAN_1
  6
CONTINUOUS
 10
-1.352969
 20
1.925071
  0
SEQEND
  8
0
  0
POLYLINE
  8
PLAN_1
  6
CONTINUOUS
 66
     1
 40
0.008453
 41
0.008453
  0
VERTEX
  8
PLAN_1
  6
CONTINUOUS
 10
-1.352969
 20
1.925071
  0
VERTEX
  8
PLAN_1
  6
CONTINUOUS
 10
-1.071984
 20
1.925071
  0
SEQEND
  8
0
  0
POLYLINE
  8
PLAN_1
  6
CONTINUOUS
 66
     1
 40
0.008453
 41
0.008453
  0
VERTEX
  8
PLAN_1
  6
CONTINUOUS
 10
-1.072480
 20
1.879815
  0
VERTEX
  8
PLAN_1
  6
CONTINUOUS
 10
-1.068004
 20
1.884291
  0
VERTEX
  8
PLAN_1
  6
CONTINUOUS
 10
-1.064524
 20
1.888768
  0
VERTEX
  8
PLAN_1
  6
CONTINUOUS
 10
-1.062035
 20
1.893244
  0
VERTEX
  8
PLAN_1
  6
CONTINUOUS
 10
-1.060543
 20
1.897220
  0
VERTEX
  8
PLAN_1
  6
CONTINUOUS
 10
-1.060047
 20
1.901201
  0
VERTEX
  8
PLAN_1
  6
CONTINUOUS
 10
-1.060047
 20
1.904681
  0
VERTEX
  8
PLAN_1
  6
CONTINUOUS
 10
-1.060543
 20
1.908661
  0
VERTEX
  8
PLAN_1
  6
CONTINUOUS
 10
-1.061539
 20
1.911642
  0
VERTEX
  8
PLAN_1
  6
CONTINUOUS
 10
-1.063031
 20
1.914626
  0
VERTEX
  8
PLAN_1
  6
CONTINUOUS
 10
-1.065020
 20
1.917610
  0
VERTEX
  8
PLAN_1
  6
CONTINUOUS
 10
-1.067008
 20
1.920098
  0
VERTEX
  8
PLAN_1
  6
CONTINUOUS
 10
-1.068500
 20
1.922087
  0
VERTEX
  8
PLAN_1
  6
CONTINUOUS
 10
-1.071484
 20
1.924575
  0
VERTEX
  8
PLAN_1
  6
CONTINUOUS
 10
-1.072480
 20
1.925567
  0
SEQEND
  8
0
  0
POLYLINE
  8
PLAN_1
  6
CONTINUOUS
 66
     1
 40
0.008453
 41
0.008453
  0
VERTEX
  8
PLAN_1
  6
CONTINUOUS
 10
-1.072480
 20
1.925567
  0
VERTEX
  8
PLAN_1
  6
CONTINUOUS
 10
-1.353469
 20
1.925567
  0
SEQEND
  8
0
  0
POLYLINE
  8
PLAN_1
  6
CONTINUOUS
 66
     1
 40
0.008453
 41
0.008453
  0
VERTEX
  8
PLAN_1
  6
CONTINUOUS
 10
-1.353469
 20
1.925567
  0
VERTEX
  8
PLAN_1
  6
CONTINUOUS
 10
-1.354461
 20
1.924575
  0
VERTEX
  8
PLAN_1
  6
CONTINUOUS
 10
-1.356949
 20
1.922087
  0
VERTEX
  8
PLAN_1
  6
CONTINUOUS
 10
-1.359933
 20
1.918110
  0
VERTEX
  8
PLAN_1
  6
CONTINUOUS
 10
-1.362917
 20
1.912142
  0
VERTEX
  8
PLAN_1
  6
CONTINUOUS
 10
-1.363909
 20
1.909157
  0
VERTEX
  8
PLAN_1
  6
CONTINUOUS
 10
-1.364409
 20
1.905677
  0
VERTEX
  8
PLAN_1
  6
CONTINUOUS
 10
-1.364409
 20
1.901697
  0
VERTEX
  8
PLAN_1
  6
CONTINUOUS
 10
-1.363909
 20
1.897717
  0
VERTEX
  8
PLAN_1
  6
CONTINUOUS
 10
-1.362917
 20
1.893740
  0
VERTEX
  8
PLAN_1
  6
CONTINUOUS
 10
-1.360429
 20
1.889264
  0
VERTEX
  8
PLAN_1
  6
CONTINUOUS
 10
-1.357445
 20
1.884787
  0
VERTEX
  8
PLAN_1
  6
CONTINUOUS
 10
-1.353469
 20
1.879815
  0
SEQEND
  8
0
  0
POLYLINE
  8
PLAN_1
  6
CONTINUOUS
 66
     1
 40
0.008453
 41
0.008453
  0
VERTEX
  8
PLAN_1
  6
CONTINUOUS
 10
-1.353469
 20
1.879815
  0
VERTEX
  8
PLAN_1
  6
CONTINUOUS
 10
-1.072480
 20
1.879815
  0
SEQEND
  8
0
  0
POLYLINE
  8
PLAN_1
  6
CONTINUOUS
 66
     1
 40
0.008453
 41
0.008453
  0
VERTEX
  8
PLAN_1
  6
CONTINUOUS
 10
-1.071984
 20
1.834559
  0
VERTEX
  8
PLAN_1
  6
CONTINUOUS
 10
-1.067508
 20
1.839035
  0
VERTEX
  8
PLAN_1
  6
CONTINUOUS
 10
-1.064028
 20
1.843512
  0
VERTEX
  8
PLAN_1
  6
CONTINUOUS
 10
-1.061539
 20
1.847984
  0
VERTEX
  8
PLAN_1
  6
CONTINUOUS
 10
-1.060047
 20
1.851965
  0
VERTEX
  8
PLAN_1
  6
CONTINUOUS
 10
-1.059551
 20
1.855945
  0
VERTEX
  8
PLAN_1
  6
CONTINUOUS
 10
-1.059551
 20
1.859425
  0
VERTEX
  8
PLAN_1
  6
CONTINUOUS
 10
-1.060047
 20
1.863402
  0
VERTEX
  8
PLAN_1
  6
CONTINUOUS
 10
-1.061539
 20
1.866386
  0
VERTEX
  8
PLAN_1
  6
CONTINUOUS
 10
-1.063031
 20
1.869370
  0
VERTEX
  8
PLAN_1
  6
CONTINUOUS
 10
-1.064524
 20
1.872354
  0
VERTEX
  8
PLAN_1
  6
CONTINUOUS
 10
-1.066512
 20
1.874843
  0
VERTEX
  8
PLAN_1
  6
CONTINUOUS
 10
-1.068004
 20
1.876831
  0
VERTEX
  8
PLAN_1
  6
CONTINUOUS
 10
-1.070988
 20
1.879319
  0
VERTEX
  8
PLAN_1
  6
CONTINUOUS
 10
-1.071984
 20
1.880311
  0
SEQEND
  8
0
  0
POLYLINE
  8
PLAN_1
  6
CONTINUOUS
 66
     1
 40
0.008453
 41
0.008453
  0
VERTEX
  8
PLAN_1
  6
CONTINUOUS
 10
-1.071984
 20
1.880311
  0
VERTEX
  8
PLAN_1
  6
CONTINUOUS
 10
-1.352969
 20
1.880311
  0
SEQEND
  8
0
  0
POLYLINE
  8
PLAN_1
  6
CONTINUOUS
 66
     1
 40
0.008453
 41
0.008453
  0
VERTEX
  8
PLAN_1
  6
CONTINUOUS
 10
-1.352969
 20
1.880311
  0
VERTEX
  8
PLAN_1
  6
CONTINUOUS
 10
-1.353965
 20
1.879319
  0
VERTEX
  8
PLAN_1
  6
CONTINUOUS
 10
-1.356453
 20
1.876831
  0
VERTEX
  8
PLAN_1
  6
CONTINUOUS
 10
-1.359433
 20
1.872850
  0
VERTEX
  8
PLAN_1
  6
CONTINUOUS
 10
-1.362417
 20
1.867382
  0
VERTEX
  8
PLAN_1
  6
CONTINUOUS
 10
-1.363413
 20
1.863902
  0
VERTEX
  8
PLAN_1
  6
CONTINUOUS
 10
-1.363909
 20
1.860417
  0
VERTEX
  8
PLAN_1
  6
CONTINUOUS
 10
-1.363909
 20
1.856441
  0
VERTEX
  8
PLAN_1
  6
CONTINUOUS
 10
-1.363413
 20
1.852461
  0
VERTEX
  8
PLAN_1
  6
CONTINUOUS
 10
-1.362417
 20
1.848484
  0
VERTEX
  8
PLAN_1
  6
CONTINUOUS
 10
-1.360429
 20
1.844008
  0
VERTEX
  8
PLAN_1
  6
CONTINUOUS
 10
-1.356949
 20
1.839531
  0
VERTEX
  8
PLAN_1
  6
CONTINUOUS
 10
-1.352969
 20
1.834559
  0
SEQEND
  8
0
  0
POLYLINE
  8
PLAN_1
  6
CONTINUOUS
 66
     1
 40
0.008453
 41
0.008453
  0
VERTEX
  8
PLAN_1
  6
CONTINUOUS
 10
-1.352969
 20
1.834559
  0
VERTEX
  8
PLAN_1
  6
CONTINUOUS
 10
-1.071984
 20
1.834559
  0
SEQEND
  8
0
  0
POLYLINE
  8
PLAN_1
  6
CONTINUOUS
 66
     1
 40
0.008453
 41
0.008453
  0
VERTEX
  8
PLAN_1
  6
CONTINUOUS
 10
-1.072480
 20
1.789303
  0
VERTEX
  8
PLAN_1
  6
CONTINUOUS
 10
-1.068004
 20
1.793780
  0
VERTEX
  8
PLAN_1
  6
CONTINUOUS
 10
-1.064524
 20
1.798256
  0
VERTEX
  8
PLAN_1
  6
CONTINUOUS
 10
-1.062035
 20
1.802728
  0
VERTEX
  8
PLAN_1
  6
CONTINUOUS
 10
-1.060543
 20
1.806709
  0
VERTEX
  8
PLAN_1
  6
CONTINUOUS
 10
-1.060047
 20
1.810689
  0
VERTEX
  8
PLAN_1
  6
CONTINUOUS
 10
-1.060047
 20
1.814169
  0
VERTEX
  8
PLAN_1
  6
CONTINUOUS
 10
-1.060543
 20
1.818146
  0
VERTEX
  8
PLAN_1
  6
CONTINUOUS
 10
-1.061539
 20
1.821130
  0
VERTEX
  8
PLAN_1
  6
CONTINUOUS
 10
-1.063031
 20
1.824114
  0
VERTEX
  8
PLAN_1
  6
CONTINUOUS
 10
-1.065020
 20
1.827098
  0
VERTEX
  8
PLAN_1
  6
CONTINUOUS
 10
-1.067008
 20
1.829587
  0
VERTEX
  8
PLAN_1
  6
CONTINUOUS
 10
-1.068500
 20
1.831575
  0
VERTEX
  8
PLAN_1
  6
CONTINUOUS
 10
-1.071484
 20
1.834063
  0
VERTEX
  8
PLAN_1
  6
CONTINUOUS
 10
-1.072480
 20
1.835055
  0
SEQEND
  8
0
  0
POLYLINE
  8
PLAN_1
  6
CONTINUOUS
 66
     1
 40
0.008453
 41
0.008453
  0
VERTEX
  8
PLAN_1
  6
CONTINUOUS
 10
-1.072480
 20
1.835055
  0
VERTEX
  8
PLAN_1
  6
CONTINUOUS
 10
-1.353469
 20
1.835055
  0
SEQEND
  8
0
  0
POLYLINE
  8
PLAN_1
  6
CONTINUOUS
 66
     1
 40
0.008453
 41
0.008453
  0
VERTEX
  8
PLAN_1
  6
CONTINUOUS
 10
-1.353469
 20
1.835055
  0
VERTEX
  8
PLAN_1
  6
CONTINUOUS
 10
-1.354461
 20
1.834063
  0
VERTEX
  8
PLAN_1
  6
CONTINUOUS
 10
-1.356949
 20
1.831575
  0
VERTEX
  8
PLAN_1
  6
CONTINUOUS
 10
-1.359933
 20
1.827594
  0
VERTEX
  8
PLAN_1
  6
CONTINUOUS
 10
-1.362917
 20
1.822126
  0
VERTEX
  8
PLAN_1
  6
CONTINUOUS
 10
-1.363909
 20
1.818646
  0
VERTEX
  8
PLAN_1
  6
CONTINUOUS
 10
-1.364409
 20
1.815161
  0
VERTEX
  8
PLAN_1
  6
CONTINUOUS
 10
-1.364409
 20
1.811185
  0
VERTEX
  8
PLAN_1
  6
CONTINUOUS
 10
-1.363909
 20
1.807205
  0
VERTEX
  8
PLAN_1
  6
CONTINUOUS
 10
-1.362917
 20
1.803228
  0
VERTEX
  8
PLAN_1
  6
CONTINUOUS
 10
-1.360429
 20
1.798752
  0
VERTEX
  8
PLAN_1
  6
CONTINUOUS
 10
-1.357445
 20
1.794276
  0
VERTEX
  8
PLAN_1
  6
CONTINUOUS
 10
-1.353469
 20
1.789303
  0
SEQEND
  8
0
  0
POLYLINE
  8
PLAN_1
  6
CONTINUOUS
 66
     1
 40
0.008453
 41
0.008453
  0
VERTEX
  8
PLAN_1
  6
CONTINUOUS
 10
-1.353469
 20
1.789303
  0
VERTEX
  8
PLAN_1
  6
CONTINUOUS
 10
-1.072480
 20
1.789303
  0
SEQEND
  8
0
  0
POLYLINE
  8
PLAN_1
  6
CONTINUOUS
 66
     1
 40
0.008453
 41
0.008453
  0
VERTEX
  8
PLAN_1
  6
CONTINUOUS
 10
-1.071984
 20
1.744543
  0
VERTEX
  8
PLAN_1
  6
CONTINUOUS
 10
-1.067508
 20
1.748524
  0
VERTEX
  8
PLAN_1
  6
CONTINUOUS
 10
-1.064028
 20
1.752996
  0
VERTEX
  8
PLAN_1
  6
CONTINUOUS
 10
-1.061539
 20
1.757472
  0
VERTEX
  8
PLAN_1
  6
CONTINUOUS
 10
-1.060047
 20
1.761453
  0
VERTEX
  8
PLAN_1
  6
CONTINUOUS
 10
-1.059551
 20
1.765429
  0
VERTEX
  8
PLAN_1
  6
CONTINUOUS
 10
-1.059551
 20
1.768913
  0
VERTEX
  8
PLAN_1
  6
CONTINUOUS
 10
-1.060047
 20
1.772890
  0
VERTEX
  8
PLAN_1
  6
CONTINUOUS
 10
-1.061539
 20
1.775874
  0
VERTEX
  8
PLAN_1
  6
CONTINUOUS
 10
-1.063031
 20
1.778858
  0
VERTEX
  8
PLAN_1
  6
CONTINUOUS
 10
-1.064524
 20
1.781843
  0
VERTEX
  8
PLAN_1
  6
CONTINUOUS
 10
-1.066512
 20
1.784331
  0
VERTEX
  8
PLAN_1
  6
CONTINUOUS
 10
-1.068004
 20
1.786319
  0
VERTEX
  8
PLAN_1
  6
CONTINUOUS
 10
-1.070988
 20
1.788803
  0
VERTEX
  8
PLAN_1
  6
CONTINUOUS
 10
-1.071984
 20
1.789799
  0
SEQEND
  8
0
  0
POLYLINE
  8
PLAN_1
  6
CONTINUOUS
 66
     1
 40
0.008453
 41
0.008453
  0
VERTEX
  8
PLAN_1
  6
CONTINUOUS
 10
-1.071984
 20
1.789799
  0
VERTEX
  8
PLAN_1
  6
CONTINUOUS
 10
-1.352969
 20
1.789799
  0
SEQEND
  8
0
  0
POLYLINE
  8
PLAN_1
  6
CONTINUOUS
 66
     1
 40
0.008453
 41
0.008453
  0
VERTEX
  8
PLAN_1
  6
CONTINUOUS
 10
-1.352969
 20
1.789799
  0
VERTEX
  8
PLAN_1
  6
CONTINUOUS
 10
-1.353965
 20
1.788803
  0
VERTEX
  8
PLAN_1
  6
CONTINUOUS
 10
-1.356453
 20
1.786319
  0
VERTEX
  8
PLAN_1
  6
CONTINUOUS
 10
-1.359433
 20
1.782339
  0
VERTEX
  8
PLAN_1
  6
CONTINUOUS
 10
-1.362417
 20
1.776870
  0
VERTEX
  8
PLAN_1
  6
CONTINUOUS
 10
-1.363413
 20
1.773390
  0
VERTEX
  8
PLAN_1
  6
CONTINUOUS
 10
-1.363909
 20
1.769906
  0
VERTEX
  8
PLAN_1
  6
CONTINUOUS
 10
-1.363909
 20
1.765929
  0
VERTEX
  8
PLAN_1
  6
CONTINUOUS
 10
-1.363413
 20
1.761949
  0
VERTEX
  8
PLAN_1
  6
CONTINUOUS
 10
-1.362417
 20
1.757972
  0
VERTEX
  8
PLAN_1
  6
CONTINUOUS
 10
-1.360429
 20
1.753496
  0
VERTEX
  8
PLAN_1
  6
CONTINUOUS
 10
-1.356949
 20
1.749020
  0
VERTEX
  8
PLAN_1
  6
CONTINUOUS
 10
-1.352969
 20
1.744543
  0
SEQEND
  8
0
  0
POLYLINE
  8
PLAN_1
  6
CONTINUOUS
 66
     1
 40
0.008453
 41
0.008453
  0
VERTEX
  8
PLAN_1
  6
CONTINUOUS
 10
-1.352969
 20
1.744543
  0
VERTEX
  8
PLAN_1
  6
CONTINUOUS
 10
-1.071984
 20
1.744543
  0
SEQEND
  8
0
  0
POLYLINE
  8
PLAN_1
  6
CONTINUOUS
 66
     1
 40
0.008453
 41
0.008453
  0
VERTEX
  8
PLAN_1
  6
CONTINUOUS
 10
-1.072480
 20
2.967457
  0
VERTEX
  8
PLAN_1
  6
CONTINUOUS
 10
-1.067508
 20
2.971933
  0
VERTEX
  8
PLAN_1
  6
CONTINUOUS
 10
-1.064028
 20
2.975913
  0
VERTEX
  8
PLAN_1
  6
CONTINUOUS
 10
-1.061539
 20
2.980390
  0
VERTEX
  8
PLAN_1
  6
CONTINUOUS
 10
-1.060543
 20
2.984366
  0
VERTEX
  8
PLAN_1
  6
CONTINUOUS
 10
-1.059551
 20
2.988346
  0
VERTEX
  8
PLAN_1
  6
CONTINUOUS
 10
-1.060047
 20
2.992323
  0
VERTEX
  8
PLAN_1
  6
CONTINUOUS
 10
-1.060543
 20
2.995807
  0
VERTEX
  8
PLAN_1
  6
CONTINUOUS
 10
-1.061539
 20
2.998787
  0
VERTEX
  8
PLAN_1
  6
CONTINUOUS
 10
-1.063031
 20
3.002272
  0
VERTEX
  8
PLAN_1
  6
CONTINUOUS
 10
-1.065020
 20
3.004756
  0
VERTEX
  8
PLAN_1
  6
CONTINUOUS
 10
-1.066512
 20
3.007244
  0
VERTEX
  8
PLAN_1
  6
CONTINUOUS
 10
-1.068500
 20
3.009232
  0
VERTEX
  8
PLAN_1
  6
CONTINUOUS
 10
-1.071484
 20
3.011720
  0
VERTEX
  8
PLAN_1
  6
CONTINUOUS
 10
-1.072480
 20
3.012713
  0
SEQEND
  8
0
  0
POLYLINE
  8
PLAN_1
  6
CONTINUOUS
 66
     1
 40
0.008453
 41
0.008453
  0
VERTEX
  8
PLAN_1
  6
CONTINUOUS
 10
-1.072480
 20
3.012713
  0
VERTEX
  8
PLAN_1
  6
CONTINUOUS
 10
-1.353469
 20
3.012713
  0
SEQEND
  8
0
  0
POLYLINE
  8
PLAN_1
  6
CONTINUOUS
 66
     1
 40
0.008453
 41
0.008453
  0
VERTEX
  8
PLAN_1
  6
CONTINUOUS
 10
-1.353469
 20
3.012713
  0
VERTEX
  8
PLAN_1
  6
CONTINUOUS
 10
-1.354461
 20
3.012217
  0
VERTEX
  8
PLAN_1
  6
CONTINUOUS
 10
-1.356949
 20
3.009232
  0
VERTEX
  8
PLAN_1
  6
CONTINUOUS
 10
-1.359933
 20
3.005256
  0
VERTEX
  8
PLAN_1
  6
CONTINUOUS
 10
-1.362917
 20
2.999783
  0
VERTEX
  8
PLAN_1
  6
CONTINUOUS
 10
-1.363909
 20
2.996303
  0
VERTEX
  8
PLAN_1
  6
CONTINUOUS
 10
-1.364409
 20
2.992823
  0
VERTEX
  8
PLAN_1
  6
CONTINUOUS
 10
-1.364409
 20
2.989339
  0
VERTEX
  8
PLAN_1
  6
CONTINUOUS
 10
-1.363909
 20
2.985362
  0
VERTEX
  8
PLAN_1
  6
CONTINUOUS
 10
-1.362417
 20
2.980886
  0
VERTEX
  8
PLAN_1
  6
CONTINUOUS
 10
-1.360429
 20
2.976409
  0
VERTEX
  8
PLAN_1
  6
CONTINUOUS
 10
-1.357445
 20
2.971933
  0
VERTEX
  8
PLAN_1
  6
CONTINUOUS
 10
-1.353469
 20
2.967457
  0
SEQEND
  8
0
  0
POLYLINE
  8
PLAN_1
  6
CONTINUOUS
 66
     1
 40
0.008453
 41
0.008453
  0
VERTEX
  8
PLAN_1
  6
CONTINUOUS
 10
-1.353469
 20
2.967457
  0
VERTEX
  8
PLAN_1
  6
CONTINUOUS
 10
-1.072480
 20
2.967457
  0
SEQEND
  8
0
  0
POLYLINE
  8
PLAN_1
  6
CONTINUOUS
 66
     1
 40
0.008453
 41
0.008453
  0
VERTEX
  8
PLAN_1
  6
CONTINUOUS
 10
-1.071984
 20
2.922201
  0
VERTEX
  8
PLAN_1
  6
CONTINUOUS
 10
-1.067508
 20
2.926677
  0
VERTEX
  8
PLAN_1
  6
CONTINUOUS
 10
-1.063528
 20
2.930657
  0
VERTEX
  8
PLAN_1
  6
CONTINUOUS
 10
-1.061539
 20
2.935134
  0
VERTEX
  8
PLAN_1
  6
CONTINUOUS
 10
-1.060047
 20
2.939110
  0
VERTEX
  8
PLAN_1
  6
CONTINUOUS
 10
-1.059051
 20
2.943091
  0
VERTEX
  8
PLAN_1
  6
CONTINUOUS
 10
-1.059551
 20
2.947067
  0
VERTEX
  8
PLAN_1
  6
CONTINUOUS
 10
-1.060047
 20
2.950547
  0
VERTEX
  8
PLAN_1
  6
CONTINUOUS
 10
-1.061043
 20
2.953531
  0
VERTEX
  8
PLAN_1
  6
CONTINUOUS
 10
-1.062535
 20
2.957016
  0
VERTEX
  8
PLAN_1
  6
CONTINUOUS
 10
-1.064524
 20
2.959500
  0
VERTEX
  8
PLAN_1
  6
CONTINUOUS
 10
-1.066016
 20
2.961988
  0
VERTEX
  8
PLAN_1
  6
CONTINUOUS
 10
-1.068004
 20
2.963976
  0
VERTEX
  8
PLAN_1
  6
CONTINUOUS
 10
-1.070988
 20
2.966961
  0
VERTEX
  8
PLAN_1
  6
CONTINUOUS
 10
-1.071984
 20
2.967957
  0
SEQEND
  8
0
  0
POLYLINE
  8
PLAN_1
  6
CONTINUOUS
 66
     1
 40
0.008453
 41
0.008453
  0
VERTEX
  8
PLAN_1
  6
CONTINUOUS
 10
-1.071984
 20
2.967957
  0
VERTEX
  8
PLAN_1
  6
CONTINUOUS
 10
-1.352969
 20
2.967957
  0
SEQEND
  8
0
  0
POLYLINE
  8
PLAN_1
  6
CONTINUOUS
 66
     1
 40
0.008453
 41
0.008453
  0
VERTEX
  8
PLAN_1
  6
CONTINUOUS
 10
-1.352969
 20
2.967957
  0
VERTEX
  8
PLAN_1
  6
CONTINUOUS
 10
-1.353965
 20
2.966961
  0
VERTEX
  8
PLAN_1
  6
CONTINUOUS
 10
-1.356453
 20
2.963976
  0
VERTEX
  8
PLAN_1
  6
CONTINUOUS
 10
-1.359433
 20
2.960000
  0
VERTEX
  8
PLAN_1
  6
CONTINUOUS
 10
-1.362417
 20
2.954528
  0
VERTEX
  8
PLAN_1
  6
CONTINUOUS
 10
-1.363413
 20
2.951047
  0
VERTEX
  8
PLAN_1
  6
CONTINUOUS
 10
-1.363909
 20
2.947567
  0
VERTEX
  8
PLAN_1
  6
CONTINUOUS
 10
-1.363909
 20
2.944083
  0
VERTEX
  8
PLAN_1
  6
CONTINUOUS
 10
-1.363413
 20
2.940106
  0
VERTEX
  8
PLAN_1
  6
CONTINUOUS
 10
-1.362417
 20
2.935630
  0
VERTEX
  8
PLAN_1
  6
CONTINUOUS
 10
-1.359933
 20
2.931154
  0
VERTEX
  8
PLAN_1
  6
CONTINUOUS
 10
-1.356949
 20
2.926677
  0
VERTEX
  8
PLAN_1
  6
CONTINUOUS
 10
-1.352969
 20
2.922201
  0
SEQEND
  8
0
  0
POLYLINE
  8
PLAN_1
  6
CONTINUOUS
 66
     1
 40
0.008453
 41
0.008453
  0
VERTEX
  8
PLAN_1
  6
CONTINUOUS
 10
-1.352969
 20
2.922201
  0
VERTEX
  8
PLAN_1
  6
CONTINUOUS
 10
-1.071984
 20
2.922201
  0
SEQEND
  8
0
  0
POLYLINE
  8
PLAN_1
  6
CONTINUOUS
 66
     1
 40
0.008453
 41
0.008453
  0
VERTEX
  8
PLAN_1
  6
CONTINUOUS
 10
-1.072480
 20
2.875949
  0
VERTEX
  8
PLAN_1
  6
CONTINUOUS
 10
-1.067508
 20
2.880425
  0
VERTEX
  8
PLAN_1
  6
CONTINUOUS
 10
-1.064028
 20
2.884902
  0
VERTEX
  8
PLAN_1
  6
CONTINUOUS
 10
-1.061539
 20
2.889378
  0
VERTEX
  8
PLAN_1
  6
CONTINUOUS
 10
-1.060047
 20
2.893358
  0
VERTEX
  8
PLAN_1
  6
CONTINUOUS
 10
-1.059551
 20
2.897335
  0
VERTEX
  8
PLAN_1
  6
CONTINUOUS
 10
-1.059551
 20
2.900815
  0
VERTEX
  8
PLAN_1
  6
CONTINUOUS
 10
-1.060543
 20
2.904795
  0
VERTEX
  8
PLAN_1
  6
CONTINUOUS
 10
-1.061539
 20
2.907780
  0
VERTEX
  8
PLAN_1
  6
CONTINUOUS
 10
-1.063031
 20
2.910764
  0
VERTEX
  8
PLAN_1
  6
CONTINUOUS
 10
-1.064524
 20
2.913748
  0
VERTEX
  8
PLAN_1
  6
CONTINUOUS
 10
-1.066512
 20
2.916232
  0
VERTEX
  8
PLAN_1
  6
CONTINUOUS
 10
-1.068004
 20
2.918224
  0
VERTEX
  8
PLAN_1
  6
CONTINUOUS
 10
-1.070988
 20
2.920709
  0
VERTEX
  8
PLAN_1
  6
CONTINUOUS
 10
-1.072480
 20
2.921705
  0
SEQEND
  8
0
  0
POLYLINE
  8
PLAN_1
  6
CONTINUOUS
 66
     1
 40
0.008453
 41
0.008453
  0
VERTEX
  8
PLAN_1
  6
CONTINUOUS
 10
-1.072480
 20
2.921705
  0
VERTEX
  8
PLAN_1
  6
CONTINUOUS
 10
-1.352969
 20
2.921705
  0
SEQEND
  8
0
  0
POLYLINE
  8
PLAN_1
  6
CONTINUOUS
 66
     1
 40
0.008453
 41
0.008453
  0
VERTEX
  8
PLAN_1
  6
CONTINUOUS
 10
-1.352969
 20
2.921705
  0
VERTEX
  8
PLAN_1
  6
CONTINUOUS
 10
-1.353965
 20
2.920709
  0
VERTEX
  8
PLAN_1
  6
CONTINUOUS
 10
-1.356453
 20
2.918224
  0
VERTEX
  8
PLAN_1
  6
CONTINUOUS
 10
-1.359933
 20
2.914244
  0
VERTEX
  8
PLAN_1
  6
CONTINUOUS
 10
-1.362417
 20
2.908276
  0
VERTEX
  8
PLAN_1
  6
CONTINUOUS
 10
-1.363413
 20
2.905291
  0
VERTEX
  8
PLAN_1
  6
CONTINUOUS
 10
-1.364409
 20
2.901811
  0
VERTEX
  8
PLAN_1
  6
CONTINUOUS
 10
-1.364409
 20
2.897835
  0
VERTEX
  8
PLAN_1
  6
CONTINUOUS
 10
-1.363909
 20
2.893854
  0
VERTEX
  8
PLAN_1
  6
CONTINUOUS
 10
-1.362417
 20
2.889874
  0
VERTEX
  8
PLAN_1
  6
CONTINUOUS
 10
-1.360429
 20
2.885402
  0
VERTEX
  8
PLAN_1
  6
CONTINUOUS
 10
-1.357445
 20
2.880925
  0
VERTEX
  8
PLAN_1
  6
CONTINUOUS
 10
-1.352969
 20
2.875949
  0
SEQEND
  8
0
  0
POLYLINE
  8
PLAN_1
  6
CONTINUOUS
 66
     1
 40
0.008453
 41
0.008453
  0
VERTEX
  8
PLAN_1
  6
CONTINUOUS
 10
-1.352969
 20
2.875949
  0
VERTEX
  8
PLAN_1
  6
CONTINUOUS
 10
-1.072480
 20
2.875949
  0
SEQEND
  8
0
  0
POLYLINE
  8
PLAN_1
  6
CONTINUOUS
 66
     1
 40
0.008453
 41
0.008453
  0
VERTEX
  8
PLAN_1
  6
CONTINUOUS
 10
-1.071984
 20
2.830693
  0
VERTEX
  8
PLAN_1
  6
CONTINUOUS
 10
-1.067008
 20
2.835169
  0
VERTEX
  8
PLAN_1
  6
CONTINUOUS
 10
-1.063528
 20
2.839646
  0
VERTEX
  8
PLAN_1
  6
CONTINUOUS
 10
-1.061043
 20
2.844122
  0
VERTEX
  8
PLAN_1
  6
CONTINUOUS
 10
-1.059551
 20
2.848102
  0
VERTEX
  8
PLAN_1
  6
CONTINUOUS
 10
-1.059051
 20
2.852079
  0
VERTEX
  8
PLAN_1
  6
CONTINUOUS
 10
-1.059051
 20
2.855559
  0
VERTEX
  8
PLAN_1
  6
CONTINUOUS
 10
-1.060047
 20
2.859539
  0
VERTEX
  8
PLAN_1
  6
CONTINUOUS
 10
-1.061043
 20
2.862524
  0
VERTEX
  8
PLAN_1
  6
CONTINUOUS
 10
-1.062535
 20
2.865508
  0
VERTEX
  8
PLAN_1
  6
CONTINUOUS
 10
-1.064028
 20
2.868492
  0
VERTEX
  8
PLAN_1
  6
CONTINUOUS
 10
-1.066016
 20
2.870976
  0
VERTEX
  8
PLAN_1
  6
CONTINUOUS
 10
-1.068004
 20
2.872969
  0
VERTEX
  8
PLAN_1
  6
CONTINUOUS
 10
-1.070492
 20
2.875453
  0
VERTEX
  8
PLAN_1
  6
CONTINUOUS
 10
-1.071984
 20
2.876449
  0
SEQEND
  8
0
  0
POLYLINE
  8
PLAN_1
  6
CONTINUOUS
 66
     1
 40
0.008453
 41
0.008453
  0
VERTEX
  8
PLAN_1
  6
CONTINUOUS
 10
-1.071984
 20
2.876449
  0
VERTEX
  8
PLAN_1
  6
CONTINUOUS
 10
-1.352472
 20
2.876449
  0
SEQEND
  8
0
  0
POLYLINE
  8
PLAN_1
  6
CONTINUOUS
 66
     1
 40
0.008453
 41
0.008453
  0
VERTEX
  8
PLAN_1
  6
CONTINUOUS
 10
-1.352472
 20
2.876449
  0
VERTEX
  8
PLAN_1
  6
CONTINUOUS
 10
-1.353469
 20
2.875453
  0
VERTEX
  8
PLAN_1
  6
CONTINUOUS
 10
-1.355953
 20
2.872969
  0
VERTEX
  8
PLAN_1
  6
CONTINUOUS
 10
-1.359433
 20
2.868988
  0
VERTEX
  8
PLAN_1
  6
CONTINUOUS
 10
-1.361921
 20
2.863516
  0
VERTEX
  8
PLAN_1
  6
CONTINUOUS
 10
-1.362917
 20
2.860035
  0
VERTEX
  8
PLAN_1
  6
CONTINUOUS
 10
-1.363909
 20
2.856555
  0
VERTEX
  8
PLAN_1
  6
CONTINUOUS
 10
-1.363909
 20
2.852575
  0
VERTEX
  8
PLAN_1
  6
CONTINUOUS
 10
-1.363413
 20
2.848598
  0
VERTEX
  8
PLAN_1
  6
CONTINUOUS
 10
-1.361921
 20
2.844618
  0
VERTEX
  8
PLAN_1
  6
CONTINUOUS
 10
-1.359933
 20
2.840142
  0
VERTEX
  8
PLAN_1
  6
CONTINUOUS
 10
-1.356949
 20
2.835669
  0
VERTEX
  8
PLAN_1
  6
CONTINUOUS
 10
-1.352472
 20
2.830693
  0
SEQEND
  8
0
  0
POLYLINE
  8
PLAN_1
  6
CONTINUOUS
 66
     1
 40
0.008453
 41
0.008453
  0
VERTEX
  8
PLAN_1
  6
CONTINUOUS
 10
-1.352472
 20
2.830693
  0
VERTEX
  8
PLAN_1
  6
CONTINUOUS
 10
-1.071984
 20
2.830693
  0
SEQEND
  8
0
  0
POLYLINE
  8
PLAN_1
  6
CONTINUOUS
 66
     1
 40
0.008453
 41
0.008453
  0
VERTEX
  8
PLAN_1
  6
CONTINUOUS
 10
-1.072480
 20
2.785437
  0
VERTEX
  8
PLAN_1
  6
CONTINUOUS
 10
-1.067508
 20
2.789913
  0
VERTEX
  8
PLAN_1
  6
CONTINUOUS
 10
-1.064028
 20
2.794390
  0
VERTEX
  8
PLAN_1
  6
CONTINUOUS
 10
-1.061539
 20
2.798866
  0
VERTEX
  8
PLAN_1
  6
CONTINUOUS
 10
-1.060047
 20
2.802843
  0
VERTEX
  8
PLAN_1
  6
CONTINUOUS
 10
-1.059551
 20
2.806823
  0
VERTEX
  8
PLAN_1
  6
CONTINUOUS
 10
-1.059551
 20
2.810303
  0
VERTEX
  8
PLAN_1
  6
CONTINUOUS
 10
-1.060543
 20
2.814283
  0
VERTEX
  8
PLAN_1
  6
CONTINUOUS
 10
-1.061539
 20
2.817268
  0
VERTEX
  8
PLAN_1
  6
CONTINUOUS
 10
-1.063031
 20
2.820252
  0
VERTEX
  8
PLAN_1
  6
CONTINUOUS
 10
-1.064524
 20
2.823236
  0
VERTEX
  8
PLAN_1
  6
CONTINUOUS
 10
-1.066512
 20
2.825720
  0
VERTEX
  8
PLAN_1
  6
CONTINUOUS
 10
-1.068004
 20
2.827709
  0
VERTEX
  8
PLAN_1
  6
CONTINUOUS
 10
-1.070988
 20
2.830197
  0
VERTEX
  8
PLAN_1
  6
CONTINUOUS
 10
-1.072480
 20
2.831193
  0
SEQEND
  8
0
  0
POLYLINE
  8
PLAN_1
  6
CONTINUOUS
 66
     1
 40
0.008453
 41
0.008453
  0
VERTEX
  8
PLAN_1
  6
CONTINUOUS
 10
-1.072480
 20
2.831193
  0
VERTEX
  8
PLAN_1
  6
CONTINUOUS
 10
-1.352969
 20
2.831193
  0
SEQEND
  8
0
  0
POLYLINE
  8
PLAN_1
  6
CONTINUOUS
 66
     1
 40
0.008453
 41
0.008453
  0
VERTEX
  8
PLAN_1
  6
CONTINUOUS
 10
-1.352969
 20
2.831193
  0
VERTEX
  8
PLAN_1
  6
CONTINUOUS
 10
-1.353965
 20
2.830197
  0
VERTEX
  8
PLAN_1
  6
CONTINUOUS
 10
-1.356453
 20
2.827709
  0
VERTEX
  8
PLAN_1
  6
CONTINUOUS
 10
-1.359933
 20
2.823732
  0
VERTEX
  8
PLAN_1
  6
CONTINUOUS
 10
-1.362417
 20
2.818260
  0
VERTEX
  8
PLAN_1
  6
CONTINUOUS
 10
-1.363413
 20
2.814780
  0
VERTEX
  8
PLAN_1
  6
CONTINUOUS
 10
-1.364409
 20
2.811299
  0
VERTEX
  8
PLAN_1
  6
CONTINUOUS
 10
-1.364409
 20
2.807319
  0
VERTEX
  8
PLAN_1
  6
CONTINUOUS
 10
-1.363909
 20
2.803343
  0
VERTEX
  8
PLAN_1
  6
CONTINUOUS
 10
-1.362417
 20
2.799362
  0
VERTEX
  8
PLAN_1
  6
CONTINUOUS
 10
-1.360429
 20
2.794886
  0
VERTEX
  8
PLAN_1
  6
CONTINUOUS
 10
-1.357445
 20
2.790409
  0
VERTEX
  8
PLAN_1
  6
CONTINUOUS
 10
-1.352969
 20
2.785437
  0
SEQEND
  8
0
  0
POLYLINE
  8
PLAN_1
  6
CONTINUOUS
 66
     1
 40
0.008453
 41
0.008453
  0
VERTEX
  8
PLAN_1
  6
CONTINUOUS
 10
-1.352969
 20
2.785437
  0
VERTEX
  8
PLAN_1
  6
CONTINUOUS
 10
-1.072480
 20
2.785437
  0
SEQEND
  8
0
  0
POLYLINE
  8
PLAN_1
  6
CONTINUOUS
 66
     1
 40
0.008453
 41
0.008453
  0
VERTEX
  8
PLAN_1
  6
CONTINUOUS
 10
-1.071984
 20
2.740677
  0
VERTEX
  8
PLAN_1
  6
CONTINUOUS
 10
-1.067008
 20
2.744657
  0
VERTEX
  8
PLAN_1
  6
CONTINUOUS
 10
-1.063528
 20
2.749134
  0
VERTEX
  8
PLAN_1
  6
CONTINUOUS
 10
-1.061043
 20
2.753610
  0
VERTEX
  8
PLAN_1
  6
CONTINUOUS
 10
-1.059551
 20
2.757587
  0
VERTEX
  8
PLAN_1
  6
CONTINUOUS
 10
-1.059051
 20
2.761567
  0
VERTEX
  8
PLAN_1
  6
CONTINUOUS
 10
-1.059051
 20
2.765047
  0
VERTEX
  8
PLAN_1
  6
CONTINUOUS
 10
-1.060047
 20
2.769028
  0
VERTEX
  8
PLAN_1
  6
CONTINUOUS
 10
-1.061043
 20
2.772012
  0
VERTEX
  8
PLAN_1
  6
CONTINUOUS
 10
-1.062535
 20
2.774996
  0
VERTEX
  8
PLAN_1
  6
CONTINUOUS
 10
-1.064028
 20
2.777976
  0
VERTEX
  8
PLAN_1
  6
CONTINUOUS
 10
-1.066016
 20
2.780465
  0
VERTEX
  8
PLAN_1
  6
CONTINUOUS
 10
-1.068004
 20
2.782453
  0
VERTEX
  8
PLAN_1
  6
CONTINUOUS
 10
-1.070492
 20
2.784941
  0
VERTEX
  8
PLAN_1
  6
CONTINUOUS
 10
-1.071984
 20
2.785937
  0
SEQEND
  8
0
  0
POLYLINE
  8
PLAN_1
  6
CONTINUOUS
 66
     1
 40
0.008453
 41
0.008453
  0
VERTEX
  8
PLAN_1
  6
CONTINUOUS
 10
-1.071984
 20
2.785937
  0
VERTEX
  8
PLAN_1
  6
CONTINUOUS
 10
-1.352472
 20
2.785937
  0
SEQEND
  8
0
  0
POLYLINE
  8
PLAN_1
  6
CONTINUOUS
 66
     1
 40
0.008453
 41
0.008453
  0
VERTEX
  8
PLAN_1
  6
CONTINUOUS
 10
-1.352472
 20
2.785937
  0
VERTEX
  8
PLAN_1
  6
CONTINUOUS
 10
-1.353469
 20
2.784941
  0
VERTEX
  8
PLAN_1
  6
CONTINUOUS
 10
-1.355953
 20
2.782453
  0
VERTEX
  8
PLAN_1
  6
CONTINUOUS
 10
-1.359433
 20
2.778476
  0
VERTEX
  8
PLAN_1
  6
CONTINUOUS
 10
-1.361921
 20
2.773004
  0
VERTEX
  8
PLAN_1
  6
CONTINUOUS
 10
-1.362917
 20
2.769524
  0
VERTEX
  8
PLAN_1
  6
CONTINUOUS
 10
-1.363909
 20
2.766043
  0
VERTEX
  8
PLAN_1
  6
CONTINUOUS
 10
-1.363909
 20
2.762063
  0
VERTEX
  8
PLAN_1
  6
CONTINUOUS
 10
-1.363413
 20
2.758087
  0
VERTEX
  8
PLAN_1
  6
CONTINUOUS
 10
-1.361921
 20
2.754106
  0
VERTEX
  8
PLAN_1
  6
CONTINUOUS
 10
-1.359933
 20
2.749630
  0
VERTEX
  8
PLAN_1
  6
CONTINUOUS
 10
-1.356949
 20
2.745154
  0
VERTEX
  8
PLAN_1
  6
CONTINUOUS
 10
-1.352472
 20
2.740677
  0
SEQEND
  8
0
  0
POLYLINE
  8
PLAN_1
  6
CONTINUOUS
 66
     1
 40
0.008453
 41
0.008453
  0
VERTEX
  8
PLAN_1
  6
CONTINUOUS
 10
-1.352472
 20
2.740677
  0
VERTEX
  8
PLAN_1
  6
CONTINUOUS
 10
-1.071984
 20
2.740677
  0
SEQEND
  8
0
  0
POLYLINE
  8
PLAN_1
  6
CONTINUOUS
 66
     1
 40
0.008453
 41
0.008453
  0
VERTEX
  8
PLAN_1
  6
CONTINUOUS
 10
-1.072480
 20
2.695421
  0
VERTEX
  8
PLAN_1
  6
CONTINUOUS
 10
-1.067508
 20
2.699402
  0
VERTEX
  8
PLAN_1
  6
CONTINUOUS
 10
-1.064028
 20
2.703878
  0
VERTEX
  8
PLAN_1
  6
CONTINUOUS
 10
-1.061539
 20
2.708354
  0
VERTEX
  8
PLAN_1
  6
CONTINUOUS
 10
-1.060047
 20
2.712331
  0
VERTEX
  8
PLAN_1
  6
CONTINUOUS
 10
-1.059551
 20
2.716311
  0
VERTEX
  8
PLAN_1
  6
CONTINUOUS
 10
-1.059551
 20
2.719791
  0
VERTEX
  8
PLAN_1
  6
CONTINUOUS
 10
-1.060543
 20
2.723772
  0
VERTEX
  8
PLAN_1
  6
CONTINUOUS
 10
-1.061539
 20
2.726756
  0
VERTEX
  8
PLAN_1
  6
CONTINUOUS
 10
-1.063031
 20
2.729736
  0
VERTEX
  8
PLAN_1
  6
CONTINUOUS
 10
-1.064524
 20
2.732720
  0
VERTEX
  8
PLAN_1
  6
CONTINUOUS
 10
-1.066512
 20
2.735209
  0
VERTEX
  8
PLAN_1
  6
CONTINUOUS
 10
-1.068004
 20
2.737197
  0
VERTEX
  8
PLAN_1
  6
CONTINUOUS
 10
-1.070988
 20
2.739685
  0
VERTEX
  8
PLAN_1
  6
CONTINUOUS
 10
-1.072480
 20
2.740677
  0
SEQEND
  8
0
  0
POLYLINE
  8
PLAN_1
  6
CONTINUOUS
 66
     1
 40
0.008453
 41
0.008453
  0
VERTEX
  8
PLAN_1
  6
CONTINUOUS
 10
-1.072480
 20
2.740677
  0
VERTEX
  8
PLAN_1
  6
CONTINUOUS
 10
-1.352969
 20
2.740677
  0
SEQEND
  8
0
  0
POLYLINE
  8
PLAN_1
  6
CONTINUOUS
 66
     1
 40
0.008453
 41
0.008453
  0
VERTEX
  8
PLAN_1
  6
CONTINUOUS
 10
-1.352969
 20
2.740677
  0
VERTEX
  8
PLAN_1
  6
CONTINUOUS
 10
-1.353965
 20
2.739685
  0
VERTEX
  8
PLAN_1
  6
CONTINUOUS
 10
-1.356453
 20
2.737197
  0
VERTEX
  8
PLAN_1
  6
CONTINUOUS
 10
-1.359933
 20
2.733220
  0
VERTEX
  8
PLAN_1
  6
CONTINUOUS
 10
-1.362417
 20
2.727748
  0
VERTEX
  8
PLAN_1
  6
CONTINUOUS
 10
-1.363413
 20
2.724268
  0
VERTEX
  8
PLAN_1
  6
CONTINUOUS
 10
-1.364409
 20
2.720787
  0
VERTEX
  8
PLAN_1
  6
CONTINUOUS
 10
-1.364409
 20
2.716807
  0
VERTEX
  8
PLAN_1
  6
CONTINUOUS
 10
-1.363909
 20
2.712831
  0
VERTEX
  8
PLAN_1
  6
CONTINUOUS
 10
-1.362417
 20
2.708850
  0
VERTEX
  8
PLAN_1
  6
CONTINUOUS
 10
-1.360429
 20
2.704374
  0
VERTEX
  8
PLAN_1
  6
CONTINUOUS
 10
-1.357445
 20
2.699898
  0
VERTEX
  8
PLAN_1
  6
CONTINUOUS
 10
-1.352969
 20
2.695421
  0
SEQEND
  8
0
  0
POLYLINE
  8
PLAN_1
  6
CONTINUOUS
 66
     1
 40
0.008453
 41
0.008453
  0
VERTEX
  8
PLAN_1
  6
CONTINUOUS
 10
-1.352969
 20
2.695421
  0
VERTEX
  8
PLAN_1
  6
CONTINUOUS
 10
-1.072480
 20
2.695421
  0
SEQEND
  8
0
  0
POLYLINE
  8
PLAN_1
  6
CONTINUOUS
 66
     1
 40
0.008453
 41
0.008453
  0
VERTEX
  8
PLAN_1
  6
CONTINUOUS
 10
-1.071984
 20
2.650165
  0
VERTEX
  8
PLAN_1
  6
CONTINUOUS
 10
-1.067008
 20
2.654146
  0
VERTEX
  8
PLAN_1
  6
CONTINUOUS
 10
-1.063528
 20
2.658622
  0
VERTEX
  8
PLAN_1
  6
CONTINUOUS
 10
-1.061043
 20
2.663098
  0
VERTEX
  8
PLAN_1
  6
CONTINUOUS
 10
-1.059551
 20
2.667075
  0
VERTEX
  8
PLAN_1
  6
CONTINUOUS
 10
-1.059051
 20
2.671055
  0
VERTEX
  8
PLAN_1
  6
CONTINUOUS
 10
-1.059051
 20
2.675031
  0
VERTEX
  8
PLAN_1
  6
CONTINUOUS
 10
-1.060047
 20
2.678516
  0
VERTEX
  8
PLAN_1
  6
CONTINUOUS
 10
-1.061043
 20
2.681496
  0
VERTEX
  8
PLAN_1
  6
CONTINUOUS
 10
-1.062535
 20
2.684480
  0
VERTEX
  8
PLAN_1
  6
CONTINUOUS
 10
-1.064028
 20
2.687465
  0
VERTEX
  8
PLAN_1
  6
CONTINUOUS
 10
-1.066016
 20
2.689953
  0
VERTEX
  8
PLAN_1
  6
CONTINUOUS
 10
-1.068004
 20
2.691941
  0
VERTEX
  8
PLAN_1
  6
CONTINUOUS
 10
-1.070492
 20
2.694429
  0
VERTEX
  8
PLAN_1
  6
CONTINUOUS
 10
-1.071984
 20
2.695421
  0
SEQEND
  8
0
  0
POLYLINE
  8
PLAN_1
  6
CONTINUOUS
 66
     1
 40
0.008453
 41
0.008453
  0
VERTEX
  8
PLAN_1
  6
CONTINUOUS
 10
-1.071984
 20
2.695421
  0
VERTEX
  8
PLAN_1
  6
CONTINUOUS
 10
-1.352472
 20
2.695421
  0
SEQEND
  8
0
  0
POLYLINE
  8
PLAN_1
  6
CONTINUOUS
 66
     1
 40
0.008453
 41
0.008453
  0
VERTEX
  8
PLAN_1
  6
CONTINUOUS
 10
-1.352472
 20
2.695421
  0
VERTEX
  8
PLAN_1
  6
CONTINUOUS
 10
-1.353469
 20
2.694925
  0
VERTEX
  8
PLAN_1
  6
CONTINUOUS
 10
-1.355953
 20
2.691941
  0
VERTEX
  8
PLAN_1
  6
CONTINUOUS
 10
-1.359433
 20
2.687965
  0
VERTEX
  8
PLAN_1
  6
CONTINUOUS
 10
-1.361921
 20
2.682492
  0
VERTEX
  8
PLAN_1
  6
CONTINUOUS
 10
-1.362917
 20
2.679012
  0
VERTEX
  8
PLAN_1
  6
CONTINUOUS
 10
-1.363909
 20
2.675531
  0
VERTEX
  8
PLAN_1
  6
CONTINUOUS
 10
-1.363909
 20
2.671551
  0
VERTEX
  8
PLAN_1
  6
CONTINUOUS
 10
-1.363413
 20
2.667571
  0
VERTEX
  8
PLAN_1
  6
CONTINUOUS
 10
-1.361921
 20
2.663594
  0
VERTEX
  8
PLAN_1
  6
CONTINUOUS
 10
-1.359933
 20
2.659118
  0
VERTEX
  8
PLAN_1
  6
CONTINUOUS
 10
-1.356949
 20
2.654642
  0
VERTEX
  8
PLAN_1
  6
CONTINUOUS
 10
-1.352472
 20
2.650165
  0
SEQEND
  8
0
  0
POLYLINE
  8
PLAN_1
  6
CONTINUOUS
 66
     1
 40
0.008453
 41
0.008453
  0
VERTEX
  8
PLAN_1
  6
CONTINUOUS
 10
-1.352472
 20
2.650165
  0
VERTEX
  8
PLAN_1
  6
CONTINUOUS
 10
-1.071984
 20
2.650165
  0
SEQEND
  8
0
  0
POLYLINE
  8
PLAN_1
  6
CONTINUOUS
 66
     1
 40
0.008453
 41
0.008453
  0
VERTEX
  8
PLAN_1
  6
CONTINUOUS
 10
-1.072480
 20
2.604909
  0
VERTEX
  8
PLAN_1
  6
CONTINUOUS
 10
-1.067508
 20
2.608890
  0
VERTEX
  8
PLAN_1
  6
CONTINUOUS
 10
-1.064028
 20
2.613366
  0
VERTEX
  8
PLAN_1
  6
CONTINUOUS
 10
-1.061539
 20
2.617843
  0
VERTEX
  8
PLAN_1
  6
CONTINUOUS
 10
-1.060047
 20
2.621819
  0
VERTEX
  8
PLAN_1
  6
CONTINUOUS
 10
-1.059551
 20
2.625799
  0
VERTEX
  8
PLAN_1
  6
CONTINUOUS
 10
-1.059551
 20
2.629776
  0
VERTEX
  8
PLAN_1
  6
CONTINUOUS
 10
-1.060543
 20
2.633256
  0
VERTEX
  8
PLAN_1
  6
CONTINUOUS
 10
-1.061539
 20
2.636240
  0
VERTEX
  8
PLAN_1
  6
CONTINUOUS
 10
-1.063031
 20
2.639224
  0
VERTEX
  8
PLAN_1
  6
CONTINUOUS
 10
-1.064524
 20
2.642209
  0
VERTEX
  8
PLAN_1
  6
CONTINUOUS
 10
-1.066512
 20
2.644697
  0
VERTEX
  8
PLAN_1
  6
CONTINUOUS
 10
-1.068004
 20
2.646685
  0
VERTEX
  8
PLAN_1
  6
CONTINUOUS
 10
-1.070988
 20
2.649173
  0
VERTEX
  8
PLAN_1
  6
CONTINUOUS
 10
-1.072480
 20
2.650165
  0
SEQEND
  8
0
  0
POLYLINE
  8
PLAN_1
  6
CONTINUOUS
 66
     1
 40
0.008453
 41
0.008453
  0
VERTEX
  8
PLAN_1
  6
CONTINUOUS
 10
-1.072480
 20
2.650165
  0
VERTEX
  8
PLAN_1
  6
CONTINUOUS
 10
-1.352969
 20
2.650165
  0
SEQEND
  8
0
  0
POLYLINE
  8
PLAN_1
  6
CONTINUOUS
 66
     1
 40
0.008453
 41
0.008453
  0
VERTEX
  8
PLAN_1
  6
CONTINUOUS
 10
-1.352969
 20
2.650165
  0
VERTEX
  8
PLAN_1
  6
CONTINUOUS
 10
-1.353965
 20
2.649669
  0
VERTEX
  8
PLAN_1
  6
CONTINUOUS
 10
-1.356453
 20
2.646685
  0
VERTEX
  8
PLAN_1
  6
CONTINUOUS
 10
-1.359933
 20
2.642705
  0
VERTEX
  8
PLAN_1
  6
CONTINUOUS
 10
-1.362417
 20
2.637236
  0
VERTEX
  8
PLAN_1
  6
CONTINUOUS
 10
-1.363413
 20
2.633756
  0
VERTEX
  8
PLAN_1
  6
CONTINUOUS
 10
-1.364409
 20
2.630272
  0
VERTEX
  8
PLAN_1
  6
CONTINUOUS
 10
-1.364409
 20
2.626295
  0
VERTEX
  8
PLAN_1
  6
CONTINUOUS
 10
-1.363909
 20
2.622315
  0
VERTEX
  8
PLAN_1
  6
CONTINUOUS
 10
-1.362417
 20
2.618339
  0
VERTEX
  8
PLAN_1
  6
CONTINUOUS
 10
-1.360429
 20
2.613862
  0
VERTEX
  8
PLAN_1
  6
CONTINUOUS
 10
-1.357445
 20
2.609386
  0
VERTEX
  8
PLAN_1
  6
CONTINUOUS
 10
-1.352969
 20
2.604909
  0
SEQEND
  8
0
  0
POLYLINE
  8
PLAN_1
  6
CONTINUOUS
 66
     1
 40
0.008453
 41
0.008453
  0
VERTEX
  8
PLAN_1
  6
CONTINUOUS
 10
-1.352969
 20
2.604909
  0
VERTEX
  8
PLAN_1
  6
CONTINUOUS
 10
-1.072480
 20
2.604909
  0
SEQEND
  8
0
  0
POLYLINE
  8
PLAN_1
  6
CONTINUOUS
 66
     1
 40
0.008453
 41
0.008453
  0
VERTEX
  8
PLAN_1
  6
CONTINUOUS
 10
-1.071984
 20
2.559654
  0
VERTEX
  8
PLAN_1
  6
CONTINUOUS
 10
-1.067008
 20
2.563634
  0
VERTEX
  8
PLAN_1
  6
CONTINUOUS
 10
-1.063528
 20
2.568110
  0
VERTEX
  8
PLAN_1
  6
CONTINUOUS
 10
-1.061043
 20
2.572583
  0
VERTEX
  8
PLAN_1
  6
CONTINUOUS
 10
-1.059551
 20
2.576563
  0
VERTEX
  8
PLAN_1
  6
CONTINUOUS
 10
-1.059051
 20
2.580543
  0
VERTEX
  8
PLAN_1
  6
CONTINUOUS
 10
-1.059051
 20
2.584520
  0
VERTEX
  8
PLAN_1
  6
CONTINUOUS
 10
-1.060047
 20
2.588000
  0
VERTEX
  8
PLAN_1
  6
CONTINUOUS
 10
-1.061043
 20
2.590984
  0
VERTEX
  8
PLAN_1
  6
CONTINUOUS
 10
-1.062535
 20
2.593969
  0
VERTEX
  8
PLAN_1
  6
CONTINUOUS
 10
-1.064028
 20
2.596953
  0
VERTEX
  8
PLAN_1
  6
CONTINUOUS
 10
-1.066016
 20
2.599441
  0
VERTEX
  8
PLAN_1
  6
CONTINUOUS
 10
-1.068004
 20
2.601429
  0
VERTEX
  8
PLAN_1
  6
CONTINUOUS
 10
-1.070492
 20
2.603917
  0
VERTEX
  8
PLAN_1
  6
CONTINUOUS
 10
-1.071984
 20
2.604909
  0
SEQEND
  8
0
  0
POLYLINE
  8
PLAN_1
  6
CONTINUOUS
 66
     1
 40
0.008453
 41
0.008453
  0
VERTEX
  8
PLAN_1
  6
CONTINUOUS
 10
-1.071984
 20
2.604909
  0
VERTEX
  8
PLAN_1
  6
CONTINUOUS
 10
-1.352472
 20
2.604909
  0
SEQEND
  8
0
  0
POLYLINE
  8
PLAN_1
  6
CONTINUOUS
 66
     1
 40
0.008453
 41
0.008453
  0
VERTEX
  8
PLAN_1
  6
CONTINUOUS
 10
-1.352472
 20
2.604909
  0
VERTEX
  8
PLAN_1
  6
CONTINUOUS
 10
-1.353469
 20
2.604413
  0
VERTEX
  8
PLAN_1
  6
CONTINUOUS
 10
-1.355953
 20
2.601429
  0
VERTEX
  8
PLAN_1
  6
CONTINUOUS
 10
-1.359433
 20
2.597449
  0
VERTEX
  8
PLAN_1
  6
CONTINUOUS
 10
-1.361921
 20
2.591980
  0
VERTEX
  8
PLAN_1
  6
CONTINUOUS
 10
-1.362917
 20
2.588500
  0
VERTEX
  8
PLAN_1
  6
CONTINUOUS
 10
-1.363909
 20
2.585016
  0
VERTEX
  8
PLAN_1
  6
CONTINUOUS
 10
-1.363909
 20
2.581039
  0
VERTEX
  8
PLAN_1
  6
CONTINUOUS
 10
-1.363413
 20
2.577059
  0
VERTEX
  8
PLAN_1
  6
CONTINUOUS
 10
-1.361921
 20
2.573083
  0
VERTEX
  8
PLAN_1
  6
CONTINUOUS
 10
-1.359933
 20
2.568606
  0
VERTEX
  8
PLAN_1
  6
CONTINUOUS
 10
-1.356949
 20
2.564130
  0
VERTEX
  8
PLAN_1
  6
CONTINUOUS
 10
-1.352472
 20
2.559654
  0
SEQEND
  8
0
  0
POLYLINE
  8
PLAN_1
  6
CONTINUOUS
 66
     1
 40
0.008453
 41
0.008453
  0
VERTEX
  8
PLAN_1
  6
CONTINUOUS
 10
-1.352472
 20
2.559654
  0
VERTEX
  8
PLAN_1
  6
CONTINUOUS
 10
-1.071984
 20
2.559654
  0
SEQEND
  8
0
  0
POLYLINE
  8
PLAN_1
  6
CONTINUOUS
 66
     1
 40
0.008453
 41
0.008453
  0
VERTEX
  8
PLAN_1
  6
CONTINUOUS
 10
-1.072480
 20
2.514398
  0
VERTEX
  8
PLAN_1
  6
CONTINUOUS
 10
-1.067508
 20
2.518378
  0
VERTEX
  8
PLAN_1
  6
CONTINUOUS
 10
-1.064028
 20
2.522850
  0
VERTEX
  8
PLAN_1
  6
CONTINUOUS
 10
-1.061539
 20
2.527327
  0
VERTEX
  8
PLAN_1
  6
CONTINUOUS
 10
-1.060047
 20
2.531307
  0
VERTEX
  8
PLAN_1
  6
CONTINUOUS
 10
-1.059551
 20
2.535283
  0
VERTEX
  8
PLAN_1
  6
CONTINUOUS
 10
-1.059551
 20
2.539264
  0
VERTEX
  8
PLAN_1
  6
CONTINUOUS
 10
-1.060543
 20
2.542744
  0
VERTEX
  8
PLAN_1
  6
CONTINUOUS
 10
-1.061539
 20
2.545728
  0
VERTEX
  8
PLAN_1
  6
CONTINUOUS
 10
-1.063031
 20
2.548713
  0
VERTEX
  8
PLAN_1
  6
CONTINUOUS
 10
-1.064524
 20
2.551697
  0
VERTEX
  8
PLAN_1
  6
CONTINUOUS
 10
-1.066512
 20
2.554185
  0
VERTEX
  8
PLAN_1
  6
CONTINUOUS
 10
-1.068004
 20
2.556173
  0
VERTEX
  8
PLAN_1
  6
CONTINUOUS
 10
-1.070988
 20
2.558657
  0
VERTEX
  8
PLAN_1
  6
CONTINUOUS
 10
-1.072480
 20
2.559654
  0
SEQEND
  8
0
  0
POLYLINE
  8
PLAN_1
  6
CONTINUOUS
 66
     1
 40
0.008453
 41
0.008453
  0
VERTEX
  8
PLAN_1
  6
CONTINUOUS
 10
-1.072480
 20
2.559654
  0
VERTEX
  8
PLAN_1
  6
CONTINUOUS
 10
-1.352969
 20
2.559654
  0
SEQEND
  8
0
  0
POLYLINE
  8
PLAN_1
  6
CONTINUOUS
 66
     1
 40
0.008453
 41
0.008453
  0
VERTEX
  8
PLAN_1
  6
CONTINUOUS
 10
-1.352969
 20
2.559654
  0
VERTEX
  8
PLAN_1
  6
CONTINUOUS
 10
-1.353965
 20
2.559157
  0
VERTEX
  8
PLAN_1
  6
CONTINUOUS
 10
-1.356453
 20
2.556173
  0
VERTEX
  8
PLAN_1
  6
CONTINUOUS
 10
-1.359933
 20
2.552193
  0
VERTEX
  8
PLAN_1
  6
CONTINUOUS
 10
-1.362417
 20
2.546724
  0
VERTEX
  8
PLAN_1
  6
CONTINUOUS
 10
-1.363413
 20
2.543244
  0
VERTEX
  8
PLAN_1
  6
CONTINUOUS
 10
-1.364409
 20
2.539760
  0
VERTEX
  8
PLAN_1
  6
CONTINUOUS
 10
-1.364409
 20
2.536280
  0
VERTEX
  8
PLAN_1
  6
CONTINUOUS
 10
-1.363909
 20
2.531803
  0
VERTEX
  8
PLAN_1
  6
CONTINUOUS
 10
-1.362417
 20
2.527827
  0
VERTEX
  8
PLAN_1
  6
CONTINUOUS
 10
-1.360429
 20
2.523350
  0
VERTEX
  8
PLAN_1
  6
CONTINUOUS
 10
-1.357445
 20
2.518874
  0
VERTEX
  8
PLAN_1
  6
CONTINUOUS
 10
-1.352969
 20
2.514398
  0
SEQEND
  8
0
  0
POLYLINE
  8
PLAN_1
  6
CONTINUOUS
 66
     1
 40
0.008453
 41
0.008453
  0
VERTEX
  8
PLAN_1
  6
CONTINUOUS
 10
-1.352969
 20
2.514398
  0
VERTEX
  8
PLAN_1
  6
CONTINUOUS
 10
-1.072480
 20
2.514398
  0
SEQEND
  8
0
  0
POLYLINE
  8
PLAN_1
  6
CONTINUOUS
 66
     1
 40
0.008453
 41
0.008453
  0
VERTEX
  8
PLAN_1
  6
CONTINUOUS
 10
-1.071984
 20
2.469142
  0
VERTEX
  8
PLAN_1
  6
CONTINUOUS
 10
-1.067008
 20
2.473618
  0
VERTEX
  8
PLAN_1
  6
CONTINUOUS
 10
-1.063528
 20
2.477594
  0
VERTEX
  8
PLAN_1
  6
CONTINUOUS
 10
-1.061043
 20
2.482071
  0
VERTEX
  8
PLAN_1
  6
CONTINUOUS
 10
-1.059551
 20
2.486051
  0
VERTEX
  8
PLAN_1
  6
CONTINUOUS
 10
-1.059051
 20
2.490028
  0
VERTEX
  8
PLAN_1
  6
CONTINUOUS
 10
-1.059051
 20
2.494008
  0
VERTEX
  8
PLAN_1
  6
CONTINUOUS
 10
-1.060047
 20
2.497488
  0
VERTEX
  8
PLAN_1
  6
CONTINUOUS
 10
-1.061043
 20
2.500472
  0
VERTEX
  8
PLAN_1
  6
CONTINUOUS
 10
-1.062535
 20
2.503457
  0
VERTEX
  8
PLAN_1
  6
CONTINUOUS
 10
-1.064028
 20
2.506441
  0
VERTEX
  8
PLAN_1
  6
CONTINUOUS
 10
-1.066016
 20
2.508925
  0
VERTEX
  8
PLAN_1
  6
CONTINUOUS
 10
-1.068004
 20
2.510917
  0
VERTEX
  8
PLAN_1
  6
CONTINUOUS
 10
-1.070492
 20
2.513402
  0
VERTEX
  8
PLAN_1
  6
CONTINUOUS
 10
-1.071984
 20
2.514398
  0
SEQEND
  8
0
  0
POLYLINE
  8
PLAN_1
  6
CONTINUOUS
 66
     1
 40
0.008453
 41
0.008453
  0
VERTEX
  8
PLAN_1
  6
CONTINUOUS
 10
-1.071984
 20
2.514398
  0
VERTEX
  8
PLAN_1
  6
CONTINUOUS
 10
-1.352472
 20
2.514398
  0
SEQEND
  8
0
  0
POLYLINE
  8
PLAN_1
  6
CONTINUOUS
 66
     1
 40
0.008453
 41
0.008453
  0
VERTEX
  8
PLAN_1
  6
CONTINUOUS
 10
-1.352472
 20
2.514398
  0
VERTEX
  8
PLAN_1
  6
CONTINUOUS
 10
-1.353469
 20
2.513902
  0
VERTEX
  8
PLAN_1
  6
CONTINUOUS
 10
-1.355953
 20
2.510917
  0
VERTEX
  8
PLAN_1
  6
CONTINUOUS
 10
-1.359433
 20
2.506937
  0
VERTEX
  8
PLAN_1
  6
CONTINUOUS
 10
-1.361921
 20
2.501469
  0
VERTEX
  8
PLAN_1
  6
CONTINUOUS
 10
-1.362917
 20
2.497984
  0
VERTEX
  8
PLAN_1
  6
CONTINUOUS
 10
-1.363909
 20
2.494504
  0
VERTEX
  8
PLAN_1
  6
CONTINUOUS
 10
-1.363909
 20
2.491024
  0
VERTEX
  8
PLAN_1
  6
CONTINUOUS
 10
-1.363413
 20
2.486547
  0
VERTEX
  8
PLAN_1
  6
CONTINUOUS
 10
-1.361921
 20
2.482571
  0
VERTEX
  8
PLAN_1
  6
CONTINUOUS
 10
-1.359933
 20
2.478094
  0
VERTEX
  8
PLAN_1
  6
CONTINUOUS
 10
-1.356949
 20
2.473618
  0
VERTEX
  8
PLAN_1
  6
CONTINUOUS
 10
-1.352472
 20
2.469142
  0
SEQEND
  8
0
  0
POLYLINE
  8
PLAN_1
  6
CONTINUOUS
 66
     1
 40
0.008453
 41
0.008453
  0
VERTEX
  8
PLAN_1
  6
CONTINUOUS
 10
-1.352472
 20
2.469142
  0
VERTEX
  8
PLAN_1
  6
CONTINUOUS
 10
-1.071984
 20
2.469142
  0
SEQEND
  8
0
  0
POLYLINE
  8
PLAN_1
  6
CONTINUOUS
 66
     1
 40
0.008453
 41
0.008453
  0
VERTEX
  8
PLAN_1
  6
CONTINUOUS
 10
-1.072480
 20
2.423886
  0
VERTEX
  8
PLAN_1
  6
CONTINUOUS
 10
-1.067508
 20
2.428362
  0
VERTEX
  8
PLAN_1
  6
CONTINUOUS
 10
-1.064028
 20
2.432339
  0
VERTEX
  8
PLAN_1
  6
CONTINUOUS
 10
-1.061539
 20
2.436815
  0
VERTEX
  8
PLAN_1
  6
CONTINUOUS
 10
-1.060047
 20
2.440795
  0
VERTEX
  8
PLAN_1
  6
CONTINUOUS
 10
-1.059551
 20
2.444772
  0
VERTEX
  8
PLAN_1
  6
CONTINUOUS
 10
-1.059551
 20
2.448752
  0
VERTEX
  8
PLAN_1
  6
CONTINUOUS
 10
-1.060543
 20
2.452232
  0
VERTEX
  8
PLAN_1
  6
CONTINUOUS
 10
-1.061539
 20
2.455217
  0
VERTEX
  8
PLAN_1
  6
CONTINUOUS
 10
-1.063031
 20
2.458201
  0
VERTEX
  8
PLAN_1
  6
CONTINUOUS
 10
-1.064524
 20
2.461185
  0
VERTEX
  8
PLAN_1
  6
CONTINUOUS
 10
-1.066512
 20
2.463669
  0
VERTEX
  8
PLAN_1
  6
CONTINUOUS
 10
-1.068004
 20
2.465661
  0
VERTEX
  8
PLAN_1
  6
CONTINUOUS
 10
-1.070988
 20
2.468146
  0
VERTEX
  8
PLAN_1
  6
CONTINUOUS
 10
-1.072480
 20
2.469142
  0
SEQEND
  8
0
  0
POLYLINE
  8
PLAN_1
  6
CONTINUOUS
 66
     1
 40
0.008453
 41
0.008453
  0
VERTEX
  8
PLAN_1
  6
CONTINUOUS
 10
-1.072480
 20
2.469142
  0
VERTEX
  8
PLAN_1
  6
CONTINUOUS
 10
-1.352969
 20
2.469142
  0
SEQEND
  8
0
  0
POLYLINE
  8
PLAN_1
  6
CONTINUOUS
 66
     1
 40
0.008453
 41
0.008453
  0
VERTEX
  8
PLAN_1
  6
CONTINUOUS
 10
-1.352969
 20
2.469142
  0
VERTEX
  8
PLAN_1
  6
CONTINUOUS
 10
-1.353965
 20
2.468646
  0
VERTEX
  8
PLAN_1
  6
CONTINUOUS
 10
-1.356453
 20
2.465661
  0
VERTEX
  8
PLAN_1
  6
CONTINUOUS
 10
-1.359933
 20
2.461681
  0
VERTEX
  8
PLAN_1
  6
CONTINUOUS
 10
-1.362417
 20
2.456213
  0
VERTEX
  8
PLAN_1
  6
CONTINUOUS
 10
-1.363413
 20
2.452728
  0
VERTEX
  8
PLAN_1
  6
CONTINUOUS
 10
-1.364409
 20
2.449248
  0
VERTEX
  8
PLAN_1
  6
CONTINUOUS
 10
-1.364409
 20
2.445768
  0
VERTEX
  8
PLAN_1
  6
CONTINUOUS
 10
-1.363909
 20
2.441787
  0
VERTEX
  8
PLAN_1
  6
CONTINUOUS
 10
-1.362417
 20
2.437311
  0
VERTEX
  8
PLAN_1
  6
CONTINUOUS
 10
-1.360429
 20
2.432839
  0
VERTEX
  8
PLAN_1
  6
CONTINUOUS
 10
-1.357445
 20
2.428362
  0
VERTEX
  8
PLAN_1
  6
CONTINUOUS
 10
-1.352969
 20
2.423886
  0
SEQEND
  8
0
  0
POLYLINE
  8
PLAN_1
  6
CONTINUOUS
 66
     1
 40
0.008453
 41
0.008453
  0
VERTEX
  8
PLAN_1
  6
CONTINUOUS
 10
-1.352969
 20
2.423886
  0
VERTEX
  8
PLAN_1
  6
CONTINUOUS
 10
-1.072480
 20
2.423886
  0
SEQEND
  8
0
  0
POLYLINE
  8
PLAN_1
  6
CONTINUOUS
 66
     1
 40
0.008453
 41
0.008453
  0
VERTEX
  8
PLAN_1
  6
CONTINUOUS
 10
-1.071984
 20
2.378630
  0
VERTEX
  8
PLAN_1
  6
CONTINUOUS
 10
-1.067008
 20
2.383106
  0
VERTEX
  8
PLAN_1
  6
CONTINUOUS
 10
-1.063528
 20
2.387083
  0
VERTEX
  8
PLAN_1
  6
CONTINUOUS
 10
-1.061043
 20
2.391559
  0
VERTEX
  8
PLAN_1
  6
CONTINUOUS
 10
-1.059551
 20
2.395539
  0
VERTEX
  8
PLAN_1
  6
CONTINUOUS
 10
-1.059051
 20
2.399516
  0
VERTEX
  8
PLAN_1
  6
CONTINUOUS
 10
-1.059051
 20
2.403496
  0
VERTEX
  8
PLAN_1
  6
CONTINUOUS
 10
-1.060047
 20
2.406976
  0
VERTEX
  8
PLAN_1
  6
CONTINUOUS
 10
-1.061043
 20
2.409961
  0
VERTEX
  8
PLAN_1
  6
CONTINUOUS
 10
-1.062535
 20
2.413441
  0
VERTEX
  8
PLAN_1
  6
CONTINUOUS
 10
-1.064028
 20
2.415929
  0
VERTEX
  8
PLAN_1
  6
CONTINUOUS
 10
-1.066016
 20
2.418413
  0
VERTEX
  8
PLAN_1
  6
CONTINUOUS
 10
-1.068004
 20
2.420406
  0
VERTEX
  8
PLAN_1
  6
CONTINUOUS
 10
-1.070492
 20
2.423386
  0
VERTEX
  8
PLAN_1
  6
CONTINUOUS
 10
-1.071984
 20
2.424382
  0
SEQEND
  8
0
  0
POLYLINE
  8
PLAN_1
  6
CONTINUOUS
 66
     1
 40
0.008453
 41
0.008453
  0
VERTEX
  8
PLAN_1
  6
CONTINUOUS
 10
-1.071984
 20
2.424382
  0
VERTEX
  8
PLAN_1
  6
CONTINUOUS
 10
-1.352472
 20
2.424382
  0
SEQEND
  8
0
  0
POLYLINE
  8
PLAN_1
  6
CONTINUOUS
 66
     1
 40
0.008453
 41
0.008453
  0
VERTEX
  8
PLAN_1
  6
CONTINUOUS
 10
-1.352472
 20
2.424382
  0
VERTEX
  8
PLAN_1
  6
CONTINUOUS
 10
-1.353469
 20
2.423386
  0
VERTEX
  8
PLAN_1
  6
CONTINUOUS
 10
-1.355953
 20
2.420406
  0
VERTEX
  8
PLAN_1
  6
CONTINUOUS
 10
-1.359433
 20
2.416425
  0
VERTEX
  8
PLAN_1
  6
CONTINUOUS
 10
-1.361921
 20
2.410953
  0
VERTEX
  8
PLAN_1
  6
CONTINUOUS
 10
-1.362917
 20
2.407472
  0
VERTEX
  8
PLAN_1
  6
CONTINUOUS
 10
-1.363909
 20
2.403992
  0
VERTEX
  8
PLAN_1
  6
CONTINUOUS
 10
-1.363909
 20
2.400512
  0
VERTEX
  8
PLAN_1
  6
CONTINUOUS
 10
-1.363413
 20
2.396531
  0
VERTEX
  8
PLAN_1
  6
CONTINUOUS
 10
-1.361921
 20
2.392055
  0
VERTEX
  8
PLAN_1
  6
CONTINUOUS
 10
-1.359933
 20
2.387579
  0
VERTEX
  8
PLAN_1
  6
CONTINUOUS
 10
-1.356949
 20
2.383106
  0
VERTEX
  8
PLAN_1
  6
CONTINUOUS
 10
-1.352472
 20
2.378630
  0
SEQEND
  8
0
  0
POLYLINE
  8
PLAN_1
  6
CONTINUOUS
 66
     1
 40
0.008453
 41
0.008453
  0
VERTEX
  8
PLAN_1
  6
CONTINUOUS
 10
-1.352472
 20
2.378630
  0
VERTEX
  8
PLAN_1
  6
CONTINUOUS
 10
-1.071984
 20
2.378630
  0
SEQEND
  8
0
  0
POLYLINE
  8
PLAN_1
  6
CONTINUOUS
 66
     1
 40
0.008453
 41
0.008453
  0
VERTEX
  8
PLAN_1
  6
CONTINUOUS
 10
-1.333079
 20
3.742783
  0
VERTEX
  8
PLAN_1
  6
CONTINUOUS
 10
-1.333079
 20
3.977020
  0
VERTEX
  8
PLAN_1
  6
CONTINUOUS
 10
-1.285831
 20
3.977020
  0
VERTEX
  8
PLAN_1
  6
CONTINUOUS
 10
-1.285831
 20
3.768642
  0
SEQEND
  8
0
  0
POLYLINE
  8
PLAN_1
  6
CONTINUOUS
 66
     1
 40
0.008453
 41
0.008453
  0
VERTEX
  8
PLAN_1
  6
CONTINUOUS
 10
-1.286327
 20
3.542858
  0
VERTEX
  8
PLAN_1
  6
CONTINUOUS
 10
-1.286827
 20
3.104220
  0
SEQEND
  8
0
  0
POLYLINE
  8
PLAN_1
  6
CONTINUOUS
 66
     1
 40
0.008453
 41
0.008453
  0
VERTEX
  8
PLAN_1
  6
CONTINUOUS
 10
-1.286827
 20
3.104220
  0
VERTEX
  8
PLAN_1
  6
CONTINUOUS
 10
-1.285831
 20
3.102232
  0
VERTEX
  8
PLAN_1
  6
CONTINUOUS
 10
-1.283843
 20
3.096760
  0
VERTEX
  8
PLAN_1
  6
CONTINUOUS
 10
-1.280858
 20
3.088803
  0
VERTEX
  8
PLAN_1
  6
CONTINUOUS
 10
-1.277874
 20
3.079854
  0
VERTEX
  8
PLAN_1
  6
CONTINUOUS
 10
-1.274394
 20
3.070902
  0
VERTEX
  8
PLAN_1
  6
CONTINUOUS
 10
-1.271409
 20
3.062945
  0
VERTEX
  8
PLAN_1
  6
CONTINUOUS
 10
-1.269421
 20
3.057472
  0
VERTEX
  8
PLAN_1
  6
CONTINUOUS
 10
-1.268921
 20
3.055484
  0
SEQEND
  8
0
  0
POLYLINE
  8
PLAN_1
  6
CONTINUOUS
 66
     1
 40
0.008453
 41
0.008453
  0
VERTEX
  8
PLAN_1
  6
CONTINUOUS
 10
-1.268921
 20
3.055484
  0
VERTEX
  8
PLAN_1
  6
CONTINUOUS
 10
-1.184874
 20
3.013213
  0
VERTEX
  8
PLAN_1
  6
CONTINUOUS
 10
-1.253504
 20
3.013213
  0
SEQEND
  8
0
  0
POLYLINE
  8
PLAN_1
  6
CONTINUOUS
 66
     1
 40
0.008453
 41
0.008453
  0
VERTEX
  8
PLAN_1
  6
CONTINUOUS
 10
-1.253504
 20
3.013213
  0
VERTEX
  8
PLAN_1
  6
CONTINUOUS
 10
-1.260469
 20
3.013213
  0
VERTEX
  8
PLAN_1
  6
CONTINUOUS
 10
-1.266933
 20
3.013709
  0
VERTEX
  8
PLAN_1
  6
CONTINUOUS
 10
-1.272902
 20
3.014205
  0
VERTEX
  8
PLAN_1
  6
CONTINUOUS
 10
-1.278870
 20
3.015201
  0
VERTEX
  8
PLAN_1
  6
CONTINUOUS
 10
-1.283843
 20
3.016197
  0
VERTEX
  8
PLAN_1
  6
CONTINUOUS
 10
-1.288815
 20
3.017689
  0
VERTEX
  8
PLAN_1
  6
CONTINUOUS
 10
-1.293291
 20
3.019181
  0
VERTEX
  8
PLAN_1
  6
CONTINUOUS
 10
-1.297768
 20
3.020673
  0
VERTEX
  8
PLAN_1
  6
CONTINUOUS
 10
-1.305228
 20
3.024650
  0
VERTEX
  8
PLAN_1
  6
CONTINUOUS
 10
-1.311693
 20
3.028630
  0
VERTEX
  8
PLAN_1
  6
CONTINUOUS
 10
-1.317161
 20
3.033106
  0
VERTEX
  8
PLAN_1
  6
CONTINUOUS
 10
-1.321638
 20
3.037579
  0
VERTEX
  8
PLAN_1
  6
CONTINUOUS
 10
-1.325118
 20
3.042555
  0
VERTEX
  8
PLAN_1
  6
CONTINUOUS
 10
-1.327606
 20
3.047028
  0
VERTEX
  8
PLAN_1
  6
CONTINUOUS
 10
-1.329594
 20
3.051008
  0
VERTEX
  8
PLAN_1
  6
CONTINUOUS
 10
-1.331087
 20
3.054988
  0
VERTEX
  8
PLAN_1
  6
CONTINUOUS
 10
-1.332579
 20
3.060457
  0
VERTEX
  8
PLAN_1
  6
CONTINUOUS
 10
-1.333079
 20
3.062445
  0
SEQEND
  8
0
  0
POLYLINE
  8
PLAN_1
  6
CONTINUOUS
 66
     1
 40
0.008453
 41
0.008453
  0
VERTEX
  8
PLAN_1
  6
CONTINUOUS
 10
-1.333079
 20
3.062445
  0
VERTEX
  8
PLAN_1
  6
CONTINUOUS
 10
-1.333079
 20
3.513020
  0
SEQEND
  8
0
  0
POLYLINE
  8
PLAN_1
 62
     5
  6
CONTINUOUS
 66
     1
 40
0.003000
 41
0.003000
  0
VERTEX
  8
PLAN_1
 62
     5
  6
CONTINUOUS
 10
-1.544437
 20
3.618453
  0
VERTEX
  8
PLAN_1
 62
     5
  6
CONTINUOUS
 10
-1.536980
 20
3.622429
  0
SEQEND
  8
0
  0
POLYLINE
  8
PLAN_1
 62
     5
  6
CONTINUOUS
 66
     1
 40
0.003000
 41
0.003000
  0
VERTEX
  8
PLAN_1
 62
     5
  6
CONTINUOUS
 10
-1.530016
 20
3.626409
  0
VERTEX
  8
PLAN_1
 62
     5
  6
CONTINUOUS
 10
-1.522555
 20
3.630886
  0
SEQEND
  8
0
  0
POLYLINE
  8
PLAN_1
 62
     5
  6
CONTINUOUS
 66
     1
 40
0.003000
 41
0.003000
  0
VERTEX
  8
PLAN_1
 62
     5
  6
CONTINUOUS
 10
-1.515594
 20
3.634862
  0
VERTEX
  8
PLAN_1
 62
     5
  6
CONTINUOUS
 10
-1.508134
 20
3.639339
  0
SEQEND
  8
0
  0
POLYLINE
  8
PLAN_1
 62
     5
  6
CONTINUOUS
 66
     1
 40
0.003000
 41
0.003000
  0
VERTEX
  8
PLAN_1
 62
     5
  6
CONTINUOUS
 10
-1.501173
 20
3.643319
  0
VERTEX
  8
PLAN_1
 62
     5
  6
CONTINUOUS
 10
-1.493713
 20
3.647795
  0
SEQEND
  8
0
  0
POLYLINE
  8
PLAN_1
 62
     5
  6
CONTINUOUS
 66
     1
 40
0.003000
 41
0.003000
  0
VERTEX
  8
PLAN_1
 62
     5
  6
CONTINUOUS
 10
-1.486748
 20
3.651772
  0
VERTEX
  8
PLAN_1
 62
     5
  6
CONTINUOUS
 10
-1.479291
 20
3.655752
  0
SEQEND
  8
0
  0
POLYLINE
  8
PLAN_1
 62
     5
  6
CONTINUOUS
 66
     1
 40
0.003000
 41
0.003000
  0
VERTEX
  8
PLAN_1
 62
     5
  6
CONTINUOUS
 10
-1.472327
 20
3.660228
  0
VERTEX
  8
PLAN_1
 62
     5
  6
CONTINUOUS
 10
-1.464866
 20
3.664205
  0
SEQEND
  8
0
  0
POLYLINE
  8
PLAN_1
 62
     5
  6
CONTINUOUS
 66
     1
 40
0.003000
 41
0.003000
  0
VERTEX
  8
PLAN_1
 62
     5
  6
CONTINUOUS
 10
-1.457906
 20
3.668681
  0
VERTEX
  8
PLAN_1
 62
     5
  6
CONTINUOUS
 10
-1.450445
 20
3.672661
  0
SEQEND
  8
0
  0
POLYLINE
  8
PLAN_1
 62
     5
  6
CONTINUOUS
 66
     1
 40
0.003000
 41
0.003000
  0
VERTEX
  8
PLAN_1
 62
     5
  6
CONTINUOUS
 10
-1.443480
 20
3.676638
  0
VERTEX
  8
PLAN_1
 62
     5
  6
CONTINUOUS
 10
-1.436024
 20
3.681114
  0
SEQEND
  8
0
  0
POLYLINE
  8
PLAN_1
 62
     5
  6
CONTINUOUS
 66
     1
 40
0.003000
 41
0.003000
  0
VERTEX
  8
PLAN_1
 62
     5
  6
CONTINUOUS
 10
-1.429059
 20
3.685094
  0
VERTEX
  8
PLAN_1
 62
     5
  6
CONTINUOUS
 10
-1.421598
 20
3.689571
  0
SEQEND
  8
0
  0
POLYLINE
  8
PLAN_1
 62
     5
  6
CONTINUOUS
 66
     1
 40
0.003000
 41
0.003000
  0
VERTEX
  8
PLAN_1
 62
     5
  6
CONTINUOUS
 10
-1.414638
 20
3.693547
  0
VERTEX
  8
PLAN_1
 62
     5
  6
CONTINUOUS
 10
-1.407673
 20
3.697528
  0
SEQEND
  8
0
  0
POLYLINE
  8
PLAN_1
 62
     5
  6
CONTINUOUS
 66
     1
 40
0.003000
 41
0.003000
  0
VERTEX
  8
PLAN_1
 62
     5
  6
CONTINUOUS
 10
-1.400217
 20
3.702004
  0
VERTEX
  8
PLAN_1
 62
     5
  6
CONTINUOUS
 10
-1.393252
 20
3.705980
  0
SEQEND
  8
0
  0
POLYLINE
  8
PLAN_1
 62
     5
  6
CONTINUOUS
 66
     1
 40
0.003000
 41
0.003000
  0
VERTEX
  8
PLAN_1
 62
     5
  6
CONTINUOUS
 10
-1.385791
 20
3.710457
  0
VERTEX
  8
PLAN_1
 62
     5
  6
CONTINUOUS
 10
-1.378831
 20
3.714437
  0
SEQEND
  8
0
  0
POLYLINE
  8
PLAN_1
 62
     5
  6
CONTINUOUS
 66
     1
 40
0.003000
 41
0.003000
  0
VERTEX
  8
PLAN_1
 62
     5
  6
CONTINUOUS
 10
-1.371370
 20
3.718909
  0
VERTEX
  8
PLAN_1
 62
     5
  6
CONTINUOUS
 10
-1.364409
 20
3.722890
  0
SEQEND
  8
0
  0
POLYLINE
  8
PLAN_1
 62
     5
  6
CONTINUOUS
 66
     1
 40
0.003000
 41
0.003000
  0
VERTEX
  8
PLAN_1
 62
     5
  6
CONTINUOUS
 10
-1.356949
 20
3.726870
  0
VERTEX
  8
PLAN_1
 62
     5
  6
CONTINUOUS
 10
-1.349984
 20
3.731343
  0
SEQEND
  8
0
  0
POLYLINE
  8
PLAN_1
 62
     5
  6
CONTINUOUS
 66
     1
 40
0.003000
 41
0.003000
  0
VERTEX
  8
PLAN_1
 62
     5
  6
CONTINUOUS
 10
-1.342528
 20
3.735323
  0
VERTEX
  8
PLAN_1
 62
     5
  6
CONTINUOUS
 10
-1.335563
 20
3.739799
  0
SEQEND
  8
0
  0
POLYLINE
  8
PLAN_1
 62
     5
  6
CONTINUOUS
 66
     1
 40
0.003000
 41
0.003000
  0
VERTEX
  8
PLAN_1
 62
     5
  6
CONTINUOUS
 10
-1.328102
 20
3.743776
  0
VERTEX
  8
PLAN_1
 62
     5
  6
CONTINUOUS
 10
-1.321142
 20
3.747756
  0
SEQEND
  8
0
  0
POLYLINE
  8
PLAN_1
 62
     5
  6
CONTINUOUS
 66
     1
 40
0.003000
 41
0.003000
  0
VERTEX
  8
PLAN_1
 62
     5
  6
CONTINUOUS
 10
-1.313681
 20
3.752232
  0
VERTEX
  8
PLAN_1
 62
     5
  6
CONTINUOUS
 10
-1.306720
 20
3.756209
  0
SEQEND
  8
0
  0
POLYLINE
  8
PLAN_1
 62
     5
  6
CONTINUOUS
 66
     1
 40
0.003000
 41
0.003000
  0
VERTEX
  8
PLAN_1
 62
     5
  6
CONTINUOUS
 10
-1.299260
 20
3.760685
  0
VERTEX
  8
PLAN_1
 62
     5
  6
CONTINUOUS
 10
-1.292295
 20
3.764665
  0
SEQEND
  8
0
  0
POLYLINE
  8
PLAN_1
 62
     5
  6
CONTINUOUS
 66
     1
 40
0.003000
 41
0.003000
  0
VERTEX
  8
PLAN_1
 62
     5
  6
CONTINUOUS
 10
-1.284835
 20
3.768642
  0
VERTEX
  8
PLAN_1
 62
     5
  6
CONTINUOUS
 10
-1.277874
 20
3.773118
  0
SEQEND
  8
0
  0
POLYLINE
  8
PLAN_1
 62
     5
  6
CONTINUOUS
 66
     1
 40
0.003000
 41
0.003000
  0
VERTEX
  8
PLAN_1
 62
     5
  6
CONTINUOUS
 10
-1.270913
 20
3.777098
  0
VERTEX
  8
PLAN_1
 62
     5
  6
CONTINUOUS
 10
-1.263453
 20
3.781575
  0
SEQEND
  8
0
  0
POLYLINE
  8
PLAN_1
 62
     5
  6
CONTINUOUS
 66
     1
 40
0.003000
 41
0.003000
  0
VERTEX
  8
PLAN_1
 62
     5
  6
CONTINUOUS
 10
-1.256488
 20
3.785551
  0
VERTEX
  8
PLAN_1
 62
     5
  6
CONTINUOUS
 10
-1.249028
 20
3.790028
  0
SEQEND
  8
0
  0
POLYLINE
  8
PLAN_1
 62
     5
  6
CONTINUOUS
 66
     1
 40
0.003000
 41
0.003000
  0
VERTEX
  8
PLAN_1
 62
     5
  6
CONTINUOUS
 10
-1.242067
 20
3.794008
  0
VERTEX
  8
PLAN_1
 62
     5
  6
CONTINUOUS
 10
-1.234606
 20
3.797984
  0
SEQEND
  8
0
  0
POLYLINE
  8
PLAN_1
 62
     5
  6
CONTINUOUS
 66
     1
 40
0.003000
 41
0.003000
  0
VERTEX
  8
PLAN_1
 62
     5
  6
CONTINUOUS
 10
-1.227646
 20
3.802461
  0
VERTEX
  8
PLAN_1
 62
     5
  6
CONTINUOUS
 10
-1.220185
 20
3.806441
  0
SEQEND
  8
0
  0
POLYLINE
  8
PLAN_1
 62
     5
  6
CONTINUOUS
 66
     1
 40
0.003000
 41
0.003000
  0
VERTEX
  8
PLAN_1
 62
     5
  6
CONTINUOUS
 10
-1.213220
 20
3.810917
  0
VERTEX
  8
PLAN_1
 62
     5
  6
CONTINUOUS
 10
-1.205764
 20
3.814894
  0
SEQEND
  8
0
  0
POLYLINE
  8
PLAN_1
 62
     5
  6
CONTINUOUS
 66
     1
 40
0.003000
 41
0.003000
  0
VERTEX
  8
PLAN_1
 62
     5
  6
CONTINUOUS
 10
-1.198799
 20
3.818874
  0
VERTEX
  8
PLAN_1
 62
     5
  6
CONTINUOUS
 10
-1.191339
 20
3.823350
  0
SEQEND
  8
0
  0
POLYLINE
  8
PLAN_1
 62
     5
  6
CONTINUOUS
 66
     1
 40
0.003000
 41
0.003000
  0
VERTEX
  8
PLAN_1
 62
     5
  6
CONTINUOUS
 10
-1.184378
 20
3.827327
  0
VERTEX
  8
PLAN_1
 62
     5
  6
CONTINUOUS
 10
-1.176917
 20
3.831803
  0
SEQEND
  8
0
  0
POLYLINE
  8
PLAN_1
 62
     5
  6
CONTINUOUS
 66
     1
 40
0.003000
 41
0.003000
  0
VERTEX
  8
PLAN_1
 62
     5
  6
CONTINUOUS
 10
-1.169957
 20
3.835783
  0
VERTEX
  8
PLAN_1
 62
     5
  6
CONTINUOUS
 10
-1.162496
 20
3.840260
  0
SEQEND
  8
0
  0
POLYLINE
  8
PLAN_1
 62
     5
  6
CONTINUOUS
 66
     1
 40
0.003000
 41
0.003000
  0
VERTEX
  8
PLAN_1
 62
     5
  6
CONTINUOUS
 10
-1.155531
 20
3.844236
  0
VERTEX
  8
PLAN_1
 62
     5
  6
CONTINUOUS
 10
-1.148075
 20
3.848217
  0
SEQEND
  8
0
  0
POLYLINE
  8
PLAN_1
 62
     5
  6
CONTINUOUS
 66
     1
 40
0.003000
 41
0.003000
  0
VERTEX
  8
PLAN_1
 62
     5
  6
CONTINUOUS
 10
-1.141110
 20
3.852689
  0
VERTEX
  8
PLAN_1
 62
     5
  6
CONTINUOUS
 10
-1.133650
 20
3.856669
  0
SEQEND
  8
0
  0
POLYLINE
  8
PLAN_1
 62
     5
  6
CONTINUOUS
 66
     1
 40
0.003000
 41
0.003000
  0
VERTEX
  8
PLAN_1
 62
     5
  6
CONTINUOUS
 10
-1.126689
 20
3.861146
  0
VERTEX
  8
PLAN_1
 62
     5
  6
CONTINUOUS
 10
-1.119228
 20
3.865122
  0
SEQEND
  8
0
  0
POLYLINE
  8
PLAN_1
 62
     5
  6
CONTINUOUS
 66
     1
 40
0.003000
 41
0.003000
  0
VERTEX
  8
PLAN_1
 62
     5
  6
CONTINUOUS
 10
-1.112268
 20
3.869598
  0
VERTEX
  8
PLAN_1
 62
     5
  6
CONTINUOUS
 10
-1.104807
 20
3.873579
  0
SEQEND
  8
0
  0
POLYLINE
  8
PLAN_1
 62
     5
  6
CONTINUOUS
 66
     1
 40
0.003000
 41
0.003000
  0
VERTEX
  8
PLAN_1
 62
     5
  6
CONTINUOUS
 10
-1.097843
 20
3.877555
  0
VERTEX
  8
PLAN_1
 62
     5
  6
CONTINUOUS
 10
-1.090382
 20
3.882031
  0
SEQEND
  8
0
  0
POLYLINE
  8
PLAN_1
 62
     5
  6
CONTINUOUS
 66
     1
 40
0.003000
 41
0.003000
  0
VERTEX
  8
PLAN_1
 62
     5
  6
CONTINUOUS
 10
-1.083421
 20
3.886012
  0
VERTEX
  8
PLAN_1
 62
     5
  6
CONTINUOUS
 10
-1.080437
 20
3.888000
  0
SEQEND
  8
0
  0
POLYLINE
  8
PLAN_1
 62
     5
  6
CONTINUOUS
 66
     1
 40
0.003000
 41
0.003000
  0
VERTEX
  8
PLAN_1
 62
     5
  6
CONTINUOUS
 10
-1.083421
 20
3.886012
  0
VERTEX
  8
PLAN_1
 62
     5
  6
CONTINUOUS
 10
-1.080437
 20
3.888000
  0
SEQEND
  8
0
  0
POLYLINE
  8
PLAN_1
 62
     5
  6
CONTINUOUS
 66
     1
 40
0.003000
 41
0.003000
  0
VERTEX
  8
PLAN_1
 62
     5
  6
CONTINUOUS
 10
-1.544437
 20
3.392169
  0
VERTEX
  8
PLAN_1
 62
     5
  6
CONTINUOUS
 10
-1.536980
 20
3.396646
  0
SEQEND
  8
0
  0
POLYLINE
  8
PLAN_1
 62
     5
  6
CONTINUOUS
 66
     1
 40
0.003000
 41
0.003000
  0
VERTEX
  8
PLAN_1
 62
     5
  6
CONTINUOUS
 10
-1.530016
 20
3.400626
  0
VERTEX
  8
PLAN_1
 62
     5
  6
CONTINUOUS
 10
-1.522555
 20
3.405102
  0
SEQEND
  8
0
  0
POLYLINE
  8
PLAN_1
 62
     5
  6
CONTINUOUS
 66
     1
 40
0.003000
 41
0.003000
  0
VERTEX
  8
PLAN_1
 62
     5
  6
CONTINUOUS
 10
-1.515594
 20
3.409079
  0
VERTEX
  8
PLAN_1
 62
     5
  6
CONTINUOUS
 10
-1.508134
 20
3.413555
  0
SEQEND
  8
0
  0
POLYLINE
  8
PLAN_1
 62
     5
  6
CONTINUOUS
 66
     1
 40
0.003000
 41
0.003000
  0
VERTEX
  8
PLAN_1
 62
     5
  6
CONTINUOUS
 10
-1.501173
 20
3.417535
  0
VERTEX
  8
PLAN_1
 62
     5
  6
CONTINUOUS
 10
-1.493713
 20
3.421512
  0
SEQEND
  8
0
  0
POLYLINE
  8
PLAN_1
 62
     5
  6
CONTINUOUS
 66
     1
 40
0.003000
 41
0.003000
  0
VERTEX
  8
PLAN_1
 62
     5
  6
CONTINUOUS
 10
-1.486748
 20
3.425988
  0
VERTEX
  8
PLAN_1
 62
     5
  6
CONTINUOUS
 10
-1.479291
 20
3.429969
  0
SEQEND
  8
0
  0
POLYLINE
  8
PLAN_1
 62
     5
  6
CONTINUOUS
 66
     1
 40
0.003000
 41
0.003000
  0
VERTEX
  8
PLAN_1
 62
     5
  6
CONTINUOUS
 10
-1.472327
 20
3.434445
  0
VERTEX
  8
PLAN_1
 62
     5
  6
CONTINUOUS
 10
-1.464866
 20
3.438421
  0
SEQEND
  8
0
  0
POLYLINE
  8
PLAN_1
 62
     5
  6
CONTINUOUS
 66
     1
 40
0.003000
 41
0.003000
  0
VERTEX
  8
PLAN_1
 62
     5
  6
CONTINUOUS
 10
-1.457906
 20
3.442402
  0
VERTEX
  8
PLAN_1
 62
     5
  6
CONTINUOUS
 10
-1.450445
 20
3.446878
  0
SEQEND
  8
0
  0
POLYLINE
  8
PLAN_1
 62
     5
  6
CONTINUOUS
 66
     1
 40
0.003000
 41
0.003000
  0
VERTEX
  8
PLAN_1
 62
     5
  6
CONTINUOUS
 10
-1.443480
 20
3.450854
  0
VERTEX
  8
PLAN_1
 62
     5
  6
CONTINUOUS
 10
-1.436024
 20
3.455331
  0
SEQEND
  8
0
  0
POLYLINE
  8
PLAN_1
 62
     5
  6
CONTINUOUS
 66
     1
 40
0.003000
 41
0.003000
  0
VERTEX
  8
PLAN_1
 62
     5
  6
CONTINUOUS
 10
-1.429059
 20
3.459311
  0
VERTEX
  8
PLAN_1
 62
     5
  6
CONTINUOUS
 10
-1.421598
 20
3.463287
  0
SEQEND
  8
0
  0
POLYLINE
  8
PLAN_1
 62
     5
  6
CONTINUOUS
 66
     1
 40
0.003000
 41
0.003000
  0
VERTEX
  8
PLAN_1
 62
     5
  6
CONTINUOUS
 10
-1.414638
 20
3.467764
  0
VERTEX
  8
PLAN_1
 62
     5
  6
CONTINUOUS
 10
-1.407673
 20
3.471744
  0
SEQEND
  8
0
  0
POLYLINE
  8
PLAN_1
 62
     5
  6
CONTINUOUS
 66
     1
 40
0.003000
 41
0.003000
  0
VERTEX
  8
PLAN_1
 62
     5
  6
CONTINUOUS
 10
-1.400217
 20
3.476217
  0
VERTEX
  8
PLAN_1
 62
     5
  6
CONTINUOUS
 10
-1.393252
 20
3.480197
  0
SEQEND
  8
0
  0
POLYLINE
  8
PLAN_1
 62
     5
  6
CONTINUOUS
 66
     1
 40
0.003000
 41
0.003000
  0
VERTEX
  8
PLAN_1
 62
     5
  6
CONTINUOUS
 10
-1.385791
 20
3.484673
  0
VERTEX
  8
PLAN_1
 62
     5
  6
CONTINUOUS
 10
-1.378831
 20
3.488650
  0
SEQEND
  8
0
  0
POLYLINE
  8
PLAN_1
 62
     5
  6
CONTINUOUS
 66
     1
 40
0.003000
 41
0.003000
  0
VERTEX
  8
PLAN_1
 62
     5
  6
CONTINUOUS
 10
-1.371370
 20
3.492630
  0
VERTEX
  8
PLAN_1
 62
     5
  6
CONTINUOUS
 10
-1.364409
 20
3.497106
  0
SEQEND
  8
0
  0
POLYLINE
  8
PLAN_1
 62
     5
  6
CONTINUOUS
 66
     1
 40
0.003000
 41
0.003000
  0
VERTEX
  8
PLAN_1
 62
     5
  6
CONTINUOUS
 10
-1.356949
 20
3.501083
  0
VERTEX
  8
PLAN_1
 62
     5
  6
CONTINUOUS
 10
-1.349984
 20
3.505559
  0
SEQEND
  8
0
  0
POLYLINE
  8
PLAN_1
 62
     5
  6
CONTINUOUS
 66
     1
 40
0.003000
 41
0.003000
  0
VERTEX
  8
PLAN_1
 62
     5
  6
CONTINUOUS
 10
-1.342528
 20
3.509539
  0
VERTEX
  8
PLAN_1
 62
     5
  6
CONTINUOUS
 10
-1.335563
 20
3.513516
  0
SEQEND
  8
0
  0
POLYLINE
  8
PLAN_1
 62
     5
  6
CONTINUOUS
 66
     1
 40
0.003000
 41
0.003000
  0
VERTEX
  8
PLAN_1
 62
     5
  6
CONTINUOUS
 10
-1.328102
 20
3.517992
  0
VERTEX
  8
PLAN_1
 62
     5
  6
CONTINUOUS
 10
-1.321142
 20
3.521972
  0
SEQEND
  8
0
  0
POLYLINE
  8
PLAN_1
 62
     5
  6
CONTINUOUS
 66
     1
 40
0.003000
 41
0.003000
  0
VERTEX
  8
PLAN_1
 62
     5
  6
CONTINUOUS
 10
-1.313681
 20
3.526449
  0
VERTEX
  8
PLAN_1
 62
     5
  6
CONTINUOUS
 10
-1.306720
 20
3.530425
  0
SEQEND
  8
0
  0
POLYLINE
  8
PLAN_1
 62
     5
  6
CONTINUOUS
 66
     1
 40
0.003000
 41
0.003000
  0
VERTEX
  8
PLAN_1
 62
     5
  6
CONTINUOUS
 10
-1.299260
 20
3.534406
  0
VERTEX
  8
PLAN_1
 62
     5
  6
CONTINUOUS
 10
-1.292295
 20
3.538882
  0
SEQEND
  8
0
  0
POLYLINE
  8
PLAN_1
 62
     5
  6
CONTINUOUS
 66
     1
 40
0.003000
 41
0.003000
  0
VERTEX
  8
PLAN_1
 62
     5
  6
CONTINUOUS
 10
-1.284835
 20
3.542858
  0
VERTEX
  8
PLAN_1
 62
     5
  6
CONTINUOUS
 10
-1.277874
 20
3.547335
  0
SEQEND
  8
0
  0
POLYLINE
  8
PLAN_1
 62
     5
  6
CONTINUOUS
 66
     1
 40
0.003000
 41
0.003000
  0
VERTEX
  8
PLAN_1
 62
     5
  6
CONTINUOUS
 10
-1.270913
 20
3.551315
  0
VERTEX
  8
PLAN_1
 62
     5
  6
CONTINUOUS
 10
-1.263453
 20
3.555791
  0
SEQEND
  8
0
  0
POLYLINE
  8
PLAN_1
 62
     5
  6
CONTINUOUS
 66
     1
 40
0.003000
 41
0.003000
  0
VERTEX
  8
PLAN_1
 62
     5
  6
CONTINUOUS
 10
-1.256488
 20
3.559768
  0
VERTEX
  8
PLAN_1
 62
     5
  6
CONTINUOUS
 10
-1.249028
 20
3.563748
  0
SEQEND
  8
0
  0
POLYLINE
  8
PLAN_1
 62
     5
  6
CONTINUOUS
 66
     1
 40
0.003000
 41
0.003000
  0
VERTEX
  8
PLAN_1
 62
     5
  6
CONTINUOUS
 10
-1.242067
 20
3.568224
  0
VERTEX
  8
PLAN_1
 62
     5
  6
CONTINUOUS
 10
-1.234606
 20
3.572201
  0
SEQEND
  8
0
  0
POLYLINE
  8
PLAN_1
 62
     5
  6
CONTINUOUS
 66
     1
 40
0.003000
 41
0.003000
  0
VERTEX
  8
PLAN_1
 62
     5
  6
CONTINUOUS
 10
-1.227646
 20
3.576677
  0
VERTEX
  8
PLAN_1
 62
     5
  6
CONTINUOUS
 10
-1.220185
 20
3.580657
  0
SEQEND
  8
0
  0
POLYLINE
  8
PLAN_1
 62
     5
  6
CONTINUOUS
 66
     1
 40
0.003000
 41
0.003000
  0
VERTEX
  8
PLAN_1
 62
     5
  6
CONTINUOUS
 10
-1.213220
 20
3.584634
  0
VERTEX
  8
PLAN_1
 62
     5
  6
CONTINUOUS
 10
-1.205764
 20
3.589110
  0
SEQEND
  8
0
  0
POLYLINE
  8
PLAN_1
 62
     5
  6
CONTINUOUS
 66
     1
 40
0.003000
 41
0.003000
  0
VERTEX
  8
PLAN_1
 62
     5
  6
CONTINUOUS
 10
-1.198799
 20
3.593091
  0
VERTEX
  8
PLAN_1
 62
     5
  6
CONTINUOUS
 10
-1.191339
 20
3.597563
  0
SEQEND
  8
0
  0
POLYLINE
  8
PLAN_1
 62
     5
  6
CONTINUOUS
 66
     1
 40
0.003000
 41
0.003000
  0
VERTEX
  8
PLAN_1
 62
     5
  6
CONTINUOUS
 10
-1.184378
 20
3.601543
  0
VERTEX
  8
PLAN_1
 62
     5
  6
CONTINUOUS
 10
-1.176917
 20
3.606020
  0
SEQEND
  8
0
  0
POLYLINE
  8
PLAN_1
 62
     5
  6
CONTINUOUS
 66
     1
 40
0.003000
 41
0.003000
  0
VERTEX
  8
PLAN_1
 62
     5
  6
CONTINUOUS
 10
-1.169957
 20
3.609996
  0
VERTEX
  8
PLAN_1
 62
     5
  6
CONTINUOUS
 10
-1.162496
 20
3.613976
  0
SEQEND
  8
0
  0
POLYLINE
  8
PLAN_1
 62
     5
  6
CONTINUOUS
 66
     1
 40
0.003000
 41
0.003000
  0
VERTEX
  8
PLAN_1
 62
     5
  6
CONTINUOUS
 10
-1.155531
 20
3.618453
  0
VERTEX
  8
PLAN_1
 62
     5
  6
CONTINUOUS
 10
-1.148075
 20
3.622429
  0
SEQEND
  8
0
  0
POLYLINE
  8
PLAN_1
 62
     5
  6
CONTINUOUS
 66
     1
 40
0.003000
 41
0.003000
  0
VERTEX
  8
PLAN_1
 62
     5
  6
CONTINUOUS
 10
-1.141110
 20
3.626906
  0
VERTEX
  8
PLAN_1
 62
     5
  6
CONTINUOUS
 10
-1.133650
 20
3.630886
  0
SEQEND
  8
0
  0
POLYLINE
  8
PLAN_1
 62
     5
  6
CONTINUOUS
 66
     1
 40
0.003000
 41
0.003000
  0
VERTEX
  8
PLAN_1
 62
     5
  6
CONTINUOUS
 10
-1.126689
 20
3.634862
  0
VERTEX
  8
PLAN_1
 62
     5
  6
CONTINUOUS
 10
-1.119228
 20
3.639339
  0
SEQEND
  8
0
  0
POLYLINE
  8
PLAN_1
 62
     5
  6
CONTINUOUS
 66
     1
 40
0.003000
 41
0.003000
  0
VERTEX
  8
PLAN_1
 62
     5
  6
CONTINUOUS
 10
-1.112268
 20
3.643319
  0
VERTEX
  8
PLAN_1
 62
     5
  6
CONTINUOUS
 10
-1.104807
 20
3.647795
  0
SEQEND
  8
0
  0
POLYLINE
  8
PLAN_1
 62
     5
  6
CONTINUOUS
 66
     1
 40
0.003000
 41
0.003000
  0
VERTEX
  8
PLAN_1
 62
     5
  6
CONTINUOUS
 10
-1.097843
 20
3.651772
  0
VERTEX
  8
PLAN_1
 62
     5
  6
CONTINUOUS
 10
-1.090382
 20
3.656248
  0
SEQEND
  8
0
  0
POLYLINE
  8
PLAN_1
 62
     5
  6
CONTINUOUS
 66
     1
 40
0.003000
 41
0.003000
  0
VERTEX
  8
PLAN_1
 62
     5
  6
CONTINUOUS
 10
-1.083421
 20
3.660228
  0
VERTEX
  8
PLAN_1
 62
     5
  6
CONTINUOUS
 10
-1.080437
 20
3.661720
  0
SEQEND
  8
0
  0
POLYLINE
  8
PLAN_1
 62
     5
  6
CONTINUOUS
 66
     1
 40
0.003000
 41
0.003000
  0
VERTEX
  8
PLAN_1
 62
     5
  6
CONTINUOUS
 10
-1.083421
 20
3.660228
  0
VERTEX
  8
PLAN_1
 62
     5
  6
CONTINUOUS
 10
-1.080437
 20
3.661720
  0
SEQEND
  8
0
  0
POLYLINE
  8
PLAN_1
  6
CONTINUOUS
 66
     1
 40
0.008453
 41
0.008453
  0
VERTEX
  8
PLAN_1
  6
CONTINUOUS
 10
-1.073476
 20
1.745539
  0
VERTEX
  8
PLAN_1
  6
CONTINUOUS
 10
-1.064028
 20
1.745039
  0
VERTEX
  8
PLAN_1
  6
CONTINUOUS
 10
-1.055075
 20
1.744047
  0
VERTEX
  8
PLAN_1
  6
CONTINUOUS
 10
-1.046122
 20
1.742055
  0
VERTEX
  8
PLAN_1
  6
CONTINUOUS
 10
-1.037669
 20
1.739571
  0
VERTEX
  8
PLAN_1
  6
CONTINUOUS
 10
-1.029709
 20
1.736587
  0
VERTEX
  8
PLAN_1
  6
CONTINUOUS
 10
-1.022252
 20
1.733602
  0
VERTEX
  8
PLAN_1
  6
CONTINUOUS
 10
-1.015287
 20
1.730122
  0
VERTEX
  8
PLAN_1
  6
CONTINUOUS
 10
-1.008823
 20
1.726638
  0
VERTEX
  8
PLAN_1
  6
CONTINUOUS
 10
-0.997386
 20
1.719677
  0
VERTEX
  8
PLAN_1
  6
CONTINUOUS
 10
-0.988929
 20
1.713709
  0
VERTEX
  8
PLAN_1
  6
CONTINUOUS
 10
-0.983461
 20
1.709732
  0
VERTEX
  8
PLAN_1
  6
CONTINUOUS
 10
-0.981469
 20
1.707740
  0
SEQEND
  8
0
  0
POLYLINE
  8
PLAN_1
  6
CONTINUOUS
 66
     1
 40
0.008453
 41
0.008453
  0
VERTEX
  8
PLAN_1
  6
CONTINUOUS
 10
-0.981469
 20
1.707740
  0
VERTEX
  8
PLAN_1
  6
CONTINUOUS
 10
-0.981469
 20
1.515776
  0
VERTEX
  8
PLAN_1
  6
CONTINUOUS
 10
-1.457406
 20
1.515776
  0
VERTEX
  8
PLAN_1
  6
CONTINUOUS
 10
-1.457406
 20
1.712217
  0
SEQEND
  8
0
  0
POLYLINE
  8
PLAN_1
  6
CONTINUOUS
 66
     1
 40
0.008453
 41
0.008453
  0
VERTEX
  8
PLAN_1
  6
CONTINUOUS
 10
-1.457406
 20
1.712217
  0
VERTEX
  8
PLAN_1
  6
CONTINUOUS
 10
-1.455417
 20
1.713709
  0
VERTEX
  8
PLAN_1
  6
CONTINUOUS
 10
-1.449449
 20
1.717189
  0
VERTEX
  8
PLAN_1
  6
CONTINUOUS
 10
-1.440000
 20
1.722661
  0
VERTEX
  8
PLAN_1
  6
CONTINUOUS
 10
-1.428067
 20
1.728630
  0
VERTEX
  8
PLAN_1
  6
CONTINUOUS
 10
-1.420606
 20
1.732110
  0
VERTEX
  8
PLAN_1
  6
CONTINUOUS
 10
-1.413146
 20
1.735094
  0
VERTEX
  8
PLAN_1
  6
CONTINUOUS
 10
-1.404693
 20
1.737583
  0
VERTEX
  8
PLAN_1
  6
CONTINUOUS
 10
-1.395740
 20
1.740563
  0
VERTEX
  8
PLAN_1
  6
CONTINUOUS
 10
-1.386787
 20
1.742555
  0
VERTEX
  8
PLAN_1
  6
CONTINUOUS
 10
-1.377339
 20
1.744047
  0
VERTEX
  8
PLAN_1
  6
CONTINUOUS
 10
-1.367394
 20
1.745039
  0
VERTEX
  8
PLAN_1
  6
CONTINUOUS
 10
-1.357445
 20
1.745539
  0
SEQEND
  8
0
  0
POLYLINE
  8
PLAN_1
  6
CONTINUOUS
 66
     1
 40
0.008453
 41
0.008453
  0
VERTEX
  8
PLAN_1
  6
CONTINUOUS
 10
-1.357445
 20
1.745539
  0
VERTEX
  8
PLAN_1
  6
CONTINUOUS
 10
-1.073476
 20
1.745539
  0
SEQEND
  8
0
  0
POLYLINE
  8
PLAN_1
 62
     5
  6
CONTINUOUS
 66
     1
 40
0.003000
 41
0.003000
  0
VERTEX
  8
PLAN_1
 62
     5
  6
CONTINUOUS
 10
-2.181012
 20
-0.580933
  0
VERTEX
  8
PLAN_1
 62
     5
  6
CONTINUOUS
 10
-2.181012
 20
-0.572480
  0
SEQEND
  8
0
  0
POLYLINE
  8
PLAN_1
 62
     5
  6
CONTINUOUS
 66
     1
 40
0.003000
 41
0.003000
  0
VERTEX
  8
PLAN_1
 62
     5
  6
CONTINUOUS
 10
-2.181012
 20
-0.564524
  0
VERTEX
  8
PLAN_1
 62
     5
  6
CONTINUOUS
 10
-2.181012
 20
-0.556067
  0
SEQEND
  8
0
  0
POLYLINE
  8
PLAN_1
 62
     5
  6
CONTINUOUS
 66
     1
 40
0.003000
 41
0.003000
  0
VERTEX
  8
PLAN_1
 62
     5
  6
CONTINUOUS
 10
-2.181012
 20
-0.547614
  0
VERTEX
  8
PLAN_1
 62
     5
  6
CONTINUOUS
 10
-2.181012
 20
-0.539157
  0
SEQEND
  8
0
  0
POLYLINE
  8
PLAN_1
 62
     5
  6
CONTINUOUS
 66
     1
 40
0.003000
 41
0.003000
  0
VERTEX
  8
PLAN_1
 62
     5
  6
CONTINUOUS
 10
-2.181012
 20
-0.531201
  0
VERTEX
  8
PLAN_1
 62
     5
  6
CONTINUOUS
 10
-2.181012
 20
-0.522748
  0
SEQEND
  8
0
  0
POLYLINE
  8
PLAN_1
 62
     5
  6
CONTINUOUS
 66
     1
 40
0.003000
 41
0.003000
  0
VERTEX
  8
PLAN_1
 62
     5
  6
CONTINUOUS
 10
-2.181012
 20
-0.514291
  0
VERTEX
  8
PLAN_1
 62
     5
  6
CONTINUOUS
 10
-2.181012
 20
-0.506335
  0
SEQEND
  8
0
  0
POLYLINE
  8
PLAN_1
 62
     5
  6
CONTINUOUS
 66
     1
 40
0.003000
 41
0.003000
  0
VERTEX
  8
PLAN_1
 62
     5
  6
CONTINUOUS
 10
-2.181012
 20
-0.497882
  0
VERTEX
  8
PLAN_1
 62
     5
  6
CONTINUOUS
 10
-2.181012
 20
-0.489425
  0
SEQEND
  8
0
  0
POLYLINE
  8
PLAN_1
 62
     5
  6
CONTINUOUS
 66
     1
 40
0.003000
 41
0.003000
  0
VERTEX
  8
PLAN_1
 62
     5
  6
CONTINUOUS
 10
-2.181012
 20
-0.480972
  0
VERTEX
  8
PLAN_1
 62
     5
  6
CONTINUOUS
 10
-2.181012
 20
-0.473016
  0
SEQEND
  8
0
  0
POLYLINE
  8
PLAN_1
 62
     5
  6
CONTINUOUS
 66
     1
 40
0.003000
 41
0.003000
  0
VERTEX
  8
PLAN_1
 62
     5
  6
CONTINUOUS
 10
-2.181012
 20
-0.464559
  0
VERTEX
  8
PLAN_1
 62
     5
  6
CONTINUOUS
 10
-2.181012
 20
-0.456106
  0
SEQEND
  8
0
  0
POLYLINE
  8
PLAN_1
 62
     5
  6
CONTINUOUS
 66
     1
 40
0.003000
 41
0.003000
  0
VERTEX
  8
PLAN_1
 62
     5
  6
CONTINUOUS
 10
-2.181012
 20
-0.447654
  0
VERTEX
  8
PLAN_1
 62
     5
  6
CONTINUOUS
 10
-2.181012
 20
-0.439693
  0
SEQEND
  8
0
  0
POLYLINE
  8
PLAN_1
 62
     5
  6
CONTINUOUS
 66
     1
 40
0.003000
 41
0.003000
  0
VERTEX
  8
PLAN_1
 62
     5
  6
CONTINUOUS
 10
-2.181012
 20
-0.431240
  0
VERTEX
  8
PLAN_1
 62
     5
  6
CONTINUOUS
 10
-2.181012
 20
-0.422787
  0
SEQEND
  8
0
  0
POLYLINE
  8
PLAN_1
 62
     5
  6
CONTINUOUS
 66
     1
 40
0.003000
 41
0.003000
  0
VERTEX
  8
PLAN_1
 62
     5
  6
CONTINUOUS
 10
-2.181012
 20
-0.414331
  0
VERTEX
  8
PLAN_1
 62
     5
  6
CONTINUOUS
 10
-2.181012
 20
-0.406374
  0
SEQEND
  8
0
  0
POLYLINE
  8
PLAN_1
 62
     5
  6
CONTINUOUS
 66
     1
 40
0.003000
 41
0.003000
  0
VERTEX
  8
PLAN_1
 62
     5
  6
CONTINUOUS
 10
-2.181012
 20
-0.397921
  0
VERTEX
  8
PLAN_1
 62
     5
  6
CONTINUOUS
 10
-2.181012
 20
-0.389465
  0
SEQEND
  8
0
  0
POLYLINE
  8
PLAN_1
 62
     5
  6
CONTINUOUS
 66
     1
 40
0.003000
 41
0.003000
  0
VERTEX
  8
PLAN_1
 62
     5
  6
CONTINUOUS
 10
-2.181012
 20
-0.381012
  0
VERTEX
  8
PLAN_1
 62
     5
  6
CONTINUOUS
 10
-2.181012
 20
-0.373055
  0
SEQEND
  8
0
  0
POLYLINE
  8
PLAN_1
 62
     5
  6
CONTINUOUS
 66
     1
 40
0.003000
 41
0.003000
  0
VERTEX
  8
PLAN_1
 62
     5
  6
CONTINUOUS
 10
-2.181012
 20
-0.364598
  0
VERTEX
  8
PLAN_1
 62
     5
  6
CONTINUOUS
 10
-2.181012
 20
-0.356146
  0
SEQEND
  8
0
  0
POLYLINE
  8
PLAN_1
 62
     5
  6
CONTINUOUS
 66
     1
 40
0.003000
 41
0.003000
  0
VERTEX
  8
PLAN_1
 62
     5
  6
CONTINUOUS
 10
-2.181012
 20
-0.347689
  0
VERTEX
  8
PLAN_1
 62
     5
  6
CONTINUOUS
 10
-2.181012
 20
-0.339732
  0
SEQEND
  8
0
  0
POLYLINE
  8
PLAN_1
 62
     5
  6
CONTINUOUS
 66
     1
 40
0.003000
 41
0.003000
  0
VERTEX
  8
PLAN_1
 62
     5
  6
CONTINUOUS
 10
-2.181012
 20
-0.331280
  0
VERTEX
  8
PLAN_1
 62
     5
  6
CONTINUOUS
 10
-2.181012
 20
-0.322823
  0
SEQEND
  8
0
  0
POLYLINE
  8
PLAN_1
 62
     5
  6
CONTINUOUS
 66
     1
 40
0.003000
 41
0.003000
  0
VERTEX
  8
PLAN_1
 62
     5
  6
CONTINUOUS
 10
-2.181012
 20
-0.314370
  0
VERTEX
  8
PLAN_1
 62
     5
  6
CONTINUOUS
 10
-2.181012
 20
-0.306413
  0
SEQEND
  8
0
  0
POLYLINE
  8
PLAN_1
 62
     5
  6
CONTINUOUS
 66
     1
 40
0.003000
 41
0.003000
  0
VERTEX
  8
PLAN_1
 62
     5
  6
CONTINUOUS
 10
-2.181012
 20
-0.297957
  0
VERTEX
  8
PLAN_1
 62
     5
  6
CONTINUOUS
 10
-2.181012
 20
-0.289504
  0
SEQEND
  8
0
  0
POLYLINE
  8
PLAN_1
 62
     5
  6
CONTINUOUS
 66
     1
 40
0.003000
 41
0.003000
  0
VERTEX
  8
PLAN_1
 62
     5
  6
CONTINUOUS
 10
-2.181012
 20
-0.281047
  0
VERTEX
  8
PLAN_1
 62
     5
  6
CONTINUOUS
 10
-2.181012
 20
-0.273091
  0
SEQEND
  8
0
  0
POLYLINE
  8
PLAN_1
 62
     5
  6
CONTINUOUS
 66
     1
 40
0.003000
 41
0.003000
  0
VERTEX
  8
PLAN_1
 62
     5
  6
CONTINUOUS
 10
-2.181012
 20
-0.264638
  0
VERTEX
  8
PLAN_1
 62
     5
  6
CONTINUOUS
 10
-2.181012
 20
-0.256181
  0
SEQEND
  8
0
  0
POLYLINE
  8
PLAN_1
 62
     5
  6
CONTINUOUS
 66
     1
 40
0.003000
 41
0.003000
  0
VERTEX
  8
PLAN_1
 62
     5
  6
CONTINUOUS
 10
-2.181012
 20
-0.247728
  0
VERTEX
  8
PLAN_1
 62
     5
  6
CONTINUOUS
 10
-2.181012
 20
-0.239772
  0
SEQEND
  8
0
  0
POLYLINE
  8
PLAN_1
 62
     5
  6
CONTINUOUS
 66
     1
 40
0.003000
 41
0.003000
  0
VERTEX
  8
PLAN_1
 62
     5
  6
CONTINUOUS
 10
-2.181012
 20
-0.231315
  0
VERTEX
  8
PLAN_1
 62
     5
  6
CONTINUOUS
 10
-2.181012
 20
-0.222862
  0
SEQEND
  8
0
  0
POLYLINE
  8
PLAN_1
 62
     5
  6
CONTINUOUS
 66
     1
 40
0.003000
 41
0.003000
  0
VERTEX
  8
PLAN_1
 62
     5
  6
CONTINUOUS
 10
-2.181012
 20
-0.214409
  0
VERTEX
  8
PLAN_1
 62
     5
  6
CONTINUOUS
 10
-2.181012
 20
-0.206449
  0
SEQEND
  8
0
  0
POLYLINE
  8
PLAN_1
 62
     5
  6
CONTINUOUS
 66
     1
 40
0.003000
 41
0.003000
  0
VERTEX
  8
PLAN_1
 62
     5
  6
CONTINUOUS
 10
-2.181012
 20
-0.197996
  0
VERTEX
  8
PLAN_1
 62
     5
  6
CONTINUOUS
 10
-2.181012
 20
-0.189543
  0
SEQEND
  8
0
  0
POLYLINE
  8
PLAN_1
 62
     5
  6
CONTINUOUS
 66
     1
 40
0.003000
 41
0.003000
  0
VERTEX
  8
PLAN_1
 62
     5
  6
CONTINUOUS
 10
-2.181012
 20
-0.181087
  0
VERTEX
  8
PLAN_1
 62
     5
  6
CONTINUOUS
 10
-2.181012
 20
-0.173130
  0
SEQEND
  8
0
  0
POLYLINE
  8
PLAN_1
 62
     5
  6
CONTINUOUS
 66
     1
 40
0.003000
 41
0.003000
  0
VERTEX
  8
PLAN_1
 62
     5
  6
CONTINUOUS
 10
-2.181012
 20
-0.164677
  0
VERTEX
  8
PLAN_1
 62
     5
  6
CONTINUOUS
 10
-2.181012
 20
-0.156220
  0
SEQEND
  8
0
  0
POLYLINE
  8
PLAN_1
 62
     5
  6
CONTINUOUS
 66
     1
 40
0.003000
 41
0.003000
  0
VERTEX
  8
PLAN_1
 62
     5
  6
CONTINUOUS
 10
-2.181012
 20
-0.148264
  0
VERTEX
  8
PLAN_1
 62
     5
  6
CONTINUOUS
 10
-2.181012
 20
-0.139811
  0
SEQEND
  8
0
  0
POLYLINE
  8
PLAN_1
 62
     5
  6
CONTINUOUS
 66
     1
 40
0.003000
 41
0.003000
  0
VERTEX
  8
PLAN_1
 62
     5
  6
CONTINUOUS
 10
-2.181012
 20
-0.131354
  0
VERTEX
  8
PLAN_1
 62
     5
  6
CONTINUOUS
 10
-2.181012
 20
-0.122902
  0
SEQEND
  8
0
  0
POLYLINE
  8
PLAN_1
 62
     5
  6
CONTINUOUS
 66
     1
 40
0.003000
 41
0.003000
  0
VERTEX
  8
PLAN_1
 62
     5
  6
CONTINUOUS
 10
-2.181012
 20
-0.114945
  0
VERTEX
  8
PLAN_1
 62
     5
  6
CONTINUOUS
 10
-2.181012
 20
-0.106488
  0
SEQEND
  8
0
  0
POLYLINE
  8
PLAN_1
 62
     5
  6
CONTINUOUS
 66
     1
 40
0.003000
 41
0.003000
  0
VERTEX
  8
PLAN_1
 62
     5
  6
CONTINUOUS
 10
-2.181012
 20
-0.098035
  0
VERTEX
  8
PLAN_1
 62
     5
  6
CONTINUOUS
 10
-2.181012
 20
-0.089579
  0
SEQEND
  8
0
  0
POLYLINE
  8
PLAN_1
 62
     5
  6
CONTINUOUS
 66
     1
 40
0.003000
 41
0.003000
  0
VERTEX
  8
PLAN_1
 62
     5
  6
CONTINUOUS
 10
-2.181012
 20
-0.081622
  0
VERTEX
  8
PLAN_1
 62
     5
  6
CONTINUOUS
 10
-2.181012
 20
-0.073169
  0
SEQEND
  8
0
  0
POLYLINE
  8
PLAN_1
 62
     5
  6
CONTINUOUS
 66
     1
 40
0.003000
 41
0.003000
  0
VERTEX
  8
PLAN_1
 62
     5
  6
CONTINUOUS
 10
-2.181012
 20
-0.064713
  0
VERTEX
  8
PLAN_1
 62
     5
  6
CONTINUOUS
 10
-2.181012
 20
-0.056260
  0
SEQEND
  8
0
  0
POLYLINE
  8
PLAN_1
 62
     5
  6
CONTINUOUS
 66
     1
 40
0.003000
 41
0.003000
  0
VERTEX
  8
PLAN_1
 62
     5
  6
CONTINUOUS
 10
-2.181012
 20
-0.048303
  0
VERTEX
  8
PLAN_1
 62
     5
  6
CONTINUOUS
 10
-2.181012
 20
-0.039846
  0
SEQEND
  8
0
  0
POLYLINE
  8
PLAN_1
 62
     5
  6
CONTINUOUS
 66
     1
 40
0.003000
 41
0.003000
  0
VERTEX
  8
PLAN_1
 62
     5
  6
CONTINUOUS
 10
-2.181012
 20
-0.031394
  0
VERTEX
  8
PLAN_1
 62
     5
  6
CONTINUOUS
 10
-2.181012
 20
-0.022937
  0
SEQEND
  8
0
  0
POLYLINE
  8
PLAN_1
 62
     5
  6
CONTINUOUS
 66
     1
 40
0.003000
 41
0.003000
  0
VERTEX
  8
PLAN_1
 62
     5
  6
CONTINUOUS
 10
-2.181012
 20
-0.014980
  0
VERTEX
  8
PLAN_1
 62
     5
  6
CONTINUOUS
 10
-2.181012
 20
-0.006528
  0
SEQEND
  8
0
  0
POLYLINE
  8
PLAN_1
 62
     5
  6
CONTINUOUS
 66
     1
 40
0.003000
 41
0.003000
  0
VERTEX
  8
PLAN_1
 62
     5
  6
CONTINUOUS
 10
-2.181012
 20
0.001929
  0
VERTEX
  8
PLAN_1
 62
     5
  6
CONTINUOUS
 10
-2.181012
 20
0.010382
  0
SEQEND
  8
0
  0
POLYLINE
  8
PLAN_1
 62
     5
  6
CONTINUOUS
 66
     1
 40
0.003000
 41
0.003000
  0
VERTEX
  8
PLAN_1
 62
     5
  6
CONTINUOUS
 10
-2.181012
 20
0.018339
  0
VERTEX
  8
PLAN_1
 62
     5
  6
CONTINUOUS
 10
-2.181012
 20
0.026791
  0
SEQEND
  8
0
  0
POLYLINE
  8
PLAN_1
 62
     5
  6
CONTINUOUS
 66
     1
 40
0.003000
 41
0.003000
  0
VERTEX
  8
PLAN_1
 62
     5
  6
CONTINUOUS
 10
-2.181012
 20
0.035248
  0
VERTEX
  8
PLAN_1
 62
     5
  6
CONTINUOUS
 10
-2.181012
 20
0.043701
  0
SEQEND
  8
0
  0
POLYLINE
  8
PLAN_1
 62
     5
  6
CONTINUOUS
 66
     1
 40
0.003000
 41
0.003000
  0
VERTEX
  8
PLAN_1
 62
     5
  6
CONTINUOUS
 10
-2.181012
 20
0.051657
  0
VERTEX
  8
PLAN_1
 62
     5
  6
CONTINUOUS
 10
-2.181012
 20
0.060114
  0
SEQEND
  8
0
  0
POLYLINE
  8
PLAN_1
 62
     5
  6
CONTINUOUS
 66
     1
 40
0.003000
 41
0.003000
  0
VERTEX
  8
PLAN_1
 62
     5
  6
CONTINUOUS
 10
-2.181012
 20
0.068567
  0
VERTEX
  8
PLAN_1
 62
     5
  6
CONTINUOUS
 10
-2.181012
 20
0.077024
  0
SEQEND
  8
0
  0
POLYLINE
  8
PLAN_1
 62
     5
  6
CONTINUOUS
 66
     1
 40
0.003000
 41
0.003000
  0
VERTEX
  8
PLAN_1
 62
     5
  6
CONTINUOUS
 10
-2.181012
 20
0.084980
  0
VERTEX
  8
PLAN_1
 62
     5
  6
CONTINUOUS
 10
-2.181012
 20
0.093433
  0
SEQEND
  8
0
  0
POLYLINE
  8
PLAN_1
 62
     5
  6
CONTINUOUS
 66
     1
 40
0.003000
 41
0.003000
  0
VERTEX
  8
PLAN_1
 62
     5
  6
CONTINUOUS
 10
-2.181012
 20
0.101890
  0
VERTEX
  8
PLAN_1
 62
     5
  6
CONTINUOUS
 10
-2.181012
 20
0.110343
  0
SEQEND
  8
0
  0
POLYLINE
  8
PLAN_1
 62
     5
  6
CONTINUOUS
 66
     1
 40
0.003000
 41
0.003000
  0
VERTEX
  8
PLAN_1
 62
     5
  6
CONTINUOUS
 10
-2.181012
 20
0.118299
  0
VERTEX
  8
PLAN_1
 62
     5
  6
CONTINUOUS
 10
-2.181012
 20
0.126756
  0
SEQEND
  8
0
  0
POLYLINE
  8
PLAN_1
 62
     5
  6
CONTINUOUS
 66
     1
 40
0.003000
 41
0.003000
  0
VERTEX
  8
PLAN_1
 62
     5
  6
CONTINUOUS
 10
-2.181012
 20
0.135209
  0
VERTEX
  8
PLAN_1
 62
     5
  6
CONTINUOUS
 10
-2.181012
 20
0.143665
  0
SEQEND
  8
0
  0
POLYLINE
  8
PLAN_1
 62
     5
  6
CONTINUOUS
 66
     1
 40
0.003000
 41
0.003000
  0
VERTEX
  8
PLAN_1
 62
     5
  6
CONTINUOUS
 10
-2.181012
 20
0.151622
  0
VERTEX
  8
PLAN_1
 62
     5
  6
CONTINUOUS
 10
-2.181012
 20
0.160075
  0
SEQEND
  8
0
  0
POLYLINE
  8
PLAN_1
 62
     5
  6
CONTINUOUS
 66
     1
 40
0.003000
 41
0.003000
  0
VERTEX
  8
PLAN_1
 62
     5
  6
CONTINUOUS
 10
-2.181012
 20
0.168531
  0
VERTEX
  8
PLAN_1
 62
     5
  6
CONTINUOUS
 10
-2.181012
 20
0.176984
  0
SEQEND
  8
0
  0
POLYLINE
  8
PLAN_1
 62
     5
  6
CONTINUOUS
 66
     1
 40
0.003000
 41
0.003000
  0
VERTEX
  8
PLAN_1
 62
     5
  6
CONTINUOUS
 10
-2.181012
 20
0.184941
  0
VERTEX
  8
PLAN_1
 62
     5
  6
CONTINUOUS
 10
-2.181012
 20
0.193398
  0
SEQEND
  8
0
  0
POLYLINE
  8
PLAN_1
 62
     5
  6
CONTINUOUS
 66
     1
 40
0.003000
 41
0.003000
  0
VERTEX
  8
PLAN_1
 62
     5
  6
CONTINUOUS
 10
-2.181012
 20
0.201850
  0
VERTEX
  8
PLAN_1
 62
     5
  6
CONTINUOUS
 10
-2.181012
 20
0.209807
  0
SEQEND
  8
0
  0
POLYLINE
  8
PLAN_1
 62
     5
  6
CONTINUOUS
 66
     1
 40
0.003000
 41
0.003000
  0
VERTEX
  8
PLAN_1
 62
     5
  6
CONTINUOUS
 10
-2.181012
 20
0.218264
  0
VERTEX
  8
PLAN_1
 62
     5
  6
CONTINUOUS
 10
-2.181012
 20
0.226717
  0
SEQEND
  8
0
  0
POLYLINE
  8
PLAN_1
 62
     5
  6
CONTINUOUS
 66
     1
 40
0.003000
 41
0.003000
  0
VERTEX
  8
PLAN_1
 62
     5
  6
CONTINUOUS
 10
-2.181012
 20
0.235169
  0
VERTEX
  8
PLAN_1
 62
     5
  6
CONTINUOUS
 10
-2.181012
 20
0.243130
  0
SEQEND
  8
0
  0
POLYLINE
  8
PLAN_1
 62
     5
  6
CONTINUOUS
 66
     1
 40
0.003000
 41
0.003000
  0
VERTEX
  8
PLAN_1
 62
     5
  6
CONTINUOUS
 10
-2.181012
 20
0.251583
  0
VERTEX
  8
PLAN_1
 62
     5
  6
CONTINUOUS
 10
-2.181012
 20
0.260035
  0
SEQEND
  8
0
  0
POLYLINE
  8
PLAN_1
 62
     5
  6
CONTINUOUS
 66
     1
 40
0.003000
 41
0.003000
  0
VERTEX
  8
PLAN_1
 62
     5
  6
CONTINUOUS
 10
-2.181012
 20
0.267496
  0
VERTEX
  8
PLAN_1
 62
     5
  6
CONTINUOUS
 10
-2.181012
 20
0.272469
  0
VERTEX
  8
PLAN_1
 62
     5
  6
CONTINUOUS
 10
-2.181012
 20
0.275953
  0
SEQEND
  8
0
  0
POLYLINE
  8
PLAN_1
 62
     5
  6
CONTINUOUS
 66
     1
 40
0.003000
 41
0.003000
  0
VERTEX
  8
PLAN_1
 62
     5
  6
CONTINUOUS
 10
-2.179520
 20
0.284406
  0
VERTEX
  8
PLAN_1
 62
     5
  6
CONTINUOUS
 10
-2.179020
 20
0.285898
  0
VERTEX
  8
PLAN_1
 62
     5
  6
CONTINUOUS
 10
-2.177528
 20
0.289878
  0
VERTEX
  8
PLAN_1
 62
     5
  6
CONTINUOUS
 10
-2.176535
 20
0.291866
  0
SEQEND
  8
0
  0
POLYLINE
  8
PLAN_1
 62
     5
  6
CONTINUOUS
 66
     1
 40
0.003000
 41
0.003000
  0
VERTEX
  8
PLAN_1
 62
     5
  6
CONTINUOUS
 10
-2.171563
 20
0.298827
  0
VERTEX
  8
PLAN_1
 62
     5
  6
CONTINUOUS
 10
-2.170071
 20
0.300319
  0
VERTEX
  8
PLAN_1
 62
     5
  6
CONTINUOUS
 10
-2.167087
 20
0.303303
  0
VERTEX
  8
PLAN_1
 62
     5
  6
CONTINUOUS
 10
-2.165594
 20
0.304299
  0
SEQEND
  8
0
  0
POLYLINE
  8
PLAN_1
 62
     5
  6
CONTINUOUS
 66
     1
 40
0.003000
 41
0.003000
  0
VERTEX
  8
PLAN_1
 62
     5
  6
CONTINUOUS
 10
-2.158630
 20
0.308776
  0
VERTEX
  8
PLAN_1
 62
     5
  6
CONTINUOUS
 10
-2.156146
 20
0.310268
  0
VERTEX
  8
PLAN_1
 62
     5
  6
CONTINUOUS
 10
-2.151669
 20
0.311760
  0
VERTEX
  8
PLAN_1
 62
     5
  6
CONTINUOUS
 10
-2.150673
 20
0.311760
  0
SEQEND
  8
0
  0
POLYLINE
  8
PLAN_1
 62
     5
  6
CONTINUOUS
 66
     1
 40
0.003000
 41
0.003000
  0
VERTEX
  8
PLAN_1
 62
     5
  6
CONTINUOUS
 10
-2.142717
 20
0.313252
  0
VERTEX
  8
PLAN_1
 62
     5
  6
CONTINUOUS
 10
-2.138240
 20
0.313748
  0
SEQEND
  8
0
  0
POLYLINE
  8
PLAN_1
 62
     5
  6
CONTINUOUS
 66
     1
 40
0.003000
 41
0.003000
  0
VERTEX
  8
PLAN_1
 62
     5
  6
CONTINUOUS
 10
-2.142717
 20
0.313252
  0
VERTEX
  8
PLAN_1
 62
     5
  6
CONTINUOUS
 10
-2.138240
 20
0.313748
  0
SEQEND
  8
0
  0
POLYLINE
  8
PLAN_1
 62
     5
  6
CONTINUOUS
 66
     1
 40
0.003000
 41
0.003000
  0
VERTEX
  8
PLAN_1
 62
     5
  6
CONTINUOUS
 10
-2.138240
 20
0.313748
  0
VERTEX
  8
PLAN_1
 62
     5
  6
CONTINUOUS
 10
-2.129787
 20
0.313748
  0
SEQEND
  8
0
  0
POLYLINE
  8
PLAN_1
 62
     5
  6
CONTINUOUS
 66
     1
 40
0.003000
 41
0.003000
  0
VERTEX
  8
PLAN_1
 62
     5
  6
CONTINUOUS
 10
-2.121831
 20
0.313748
  0
VERTEX
  8
PLAN_1
 62
     5
  6
CONTINUOUS
 10
-2.113374
 20
0.313748
  0
SEQEND
  8
0
  0
POLYLINE
  8
PLAN_1
 62
     5
  6
CONTINUOUS
 66
     1
 40
0.003000
 41
0.003000
  0
VERTEX
  8
PLAN_1
 62
     5
  6
CONTINUOUS
 10
-2.104921
 20
0.313748
  0
VERTEX
  8
PLAN_1
 62
     5
  6
CONTINUOUS
 10
-2.096465
 20
0.313748
  0
SEQEND
  8
0
  0
POLYLINE
  8
PLAN_1
 62
     5
  6
CONTINUOUS
 66
     1
 40
0.003000
 41
0.003000
  0
VERTEX
  8
PLAN_1
 62
     5
  6
CONTINUOUS
 10
-2.088508
 20
0.313748
  0
VERTEX
  8
PLAN_1
 62
     5
  6
CONTINUOUS
 10
-2.080055
 20
0.313748
  0
SEQEND
  8
0
  0
POLYLINE
  8
PLAN_1
 62
     5
  6
CONTINUOUS
 66
     1
 40
0.003000
 41
0.003000
  0
VERTEX
  8
PLAN_1
 62
     5
  6
CONTINUOUS
 10
-2.071598
 20
0.313748
  0
VERTEX
  8
PLAN_1
 62
     5
  6
CONTINUOUS
 10
-2.063146
 20
0.313748
  0
SEQEND
  8
0
  0
POLYLINE
  8
PLAN_1
 62
     5
  6
CONTINUOUS
 66
     1
 40
0.003000
 41
0.003000
  0
VERTEX
  8
PLAN_1
 62
     5
  6
CONTINUOUS
 10
-2.055189
 20
0.313748
  0
VERTEX
  8
PLAN_1
 62
     5
  6
CONTINUOUS
 10
-2.046732
 20
0.313748
  0
SEQEND
  8
0
  0
POLYLINE
  8
PLAN_1
 62
     5
  6
CONTINUOUS
 66
     1
 40
0.003000
 41
0.003000
  0
VERTEX
  8
PLAN_1
 62
     5
  6
CONTINUOUS
 10
-2.038280
 20
0.313748
  0
VERTEX
  8
PLAN_1
 62
     5
  6
CONTINUOUS
 10
-2.029827
 20
0.313748
  0
SEQEND
  8
0
  0
POLYLINE
  8
PLAN_1
 62
     5
  6
CONTINUOUS
 66
     1
 40
0.003000
 41
0.003000
  0
VERTEX
  8
PLAN_1
 62
     5
  6
CONTINUOUS
 10
-2.021866
 20
0.313748
  0
VERTEX
  8
PLAN_1
 62
     5
  6
CONTINUOUS
 10
-2.013413
 20
0.313748
  0
SEQEND
  8
0
  0
POLYLINE
  8
PLAN_1
 62
     5
  6
CONTINUOUS
 66
     1
 40
0.003000
 41
0.003000
  0
VERTEX
  8
PLAN_1
 62
     5
  6
CONTINUOUS
 10
-2.004961
 20
0.313748
  0
VERTEX
  8
PLAN_1
 62
     5
  6
CONTINUOUS
 10
-1.996504
 20
0.313748
  0
SEQEND
  8
0
  0
POLYLINE
  8
PLAN_1
 62
     5
  6
CONTINUOUS
 66
     1
 40
0.003000
 41
0.003000
  0
VERTEX
  8
PLAN_1
 62
     5
  6
CONTINUOUS
 10
-1.988547
 20
0.313748
  0
VERTEX
  8
PLAN_1
 62
     5
  6
CONTINUOUS
 10
-1.980094
 20
0.313748
  0
SEQEND
  8
0
  0
POLYLINE
  8
PLAN_1
 62
     5
  6
CONTINUOUS
 66
     1
 40
0.003000
 41
0.003000
  0
VERTEX
  8
PLAN_1
 62
     5
  6
CONTINUOUS
 10
-1.971638
 20
0.313748
  0
VERTEX
  8
PLAN_1
 62
     5
  6
CONTINUOUS
 10
-1.963185
 20
0.313748
  0
SEQEND
  8
0
  0
POLYLINE
  8
PLAN_1
 62
     5
  6
CONTINUOUS
 66
     1
 40
0.003000
 41
0.003000
  0
VERTEX
  8
PLAN_1
 62
     5
  6
CONTINUOUS
 10
-1.955228
 20
0.313748
  0
VERTEX
  8
PLAN_1
 62
     5
  6
CONTINUOUS
 10
-1.946772
 20
0.313748
  0
SEQEND
  8
0
  0
POLYLINE
  8
PLAN_1
 62
     5
  6
CONTINUOUS
 66
     1
 40
0.003000
 41
0.003000
  0
VERTEX
  8
PLAN_1
 62
     5
  6
CONTINUOUS
 10
-1.938319
 20
0.313748
  0
VERTEX
  8
PLAN_1
 62
     5
  6
CONTINUOUS
 10
-1.930362
 20
0.313748
  0
SEQEND
  8
0
  0
POLYLINE
  8
PLAN_1
 62
     5
  6
CONTINUOUS
 66
     1
 40
0.003000
 41
0.003000
  0
VERTEX
  8
PLAN_1
 62
     5
  6
CONTINUOUS
 10
-1.921906
 20
0.313748
  0
VERTEX
  8
PLAN_1
 62
     5
  6
CONTINUOUS
 10
-1.913453
 20
0.313748
  0
SEQEND
  8
0
  0
POLYLINE
  8
PLAN_1
 62
     5
  6
CONTINUOUS
 66
     1
 40
0.003000
 41
0.003000
  0
VERTEX
  8
PLAN_1
 62
     5
  6
CONTINUOUS
 10
-1.904996
 20
0.313748
  0
VERTEX
  8
PLAN_1
 62
     5
  6
CONTINUOUS
 10
-1.897039
 20
0.313748
  0
SEQEND
  8
0
  0
POLYLINE
  8
PLAN_1
 62
     5
  6
CONTINUOUS
 66
     1
 40
0.003000
 41
0.003000
  0
VERTEX
  8
PLAN_1
 62
     5
  6
CONTINUOUS
 10
-1.888587
 20
0.313748
  0
VERTEX
  8
PLAN_1
 62
     5
  6
CONTINUOUS
 10
-1.880130
 20
0.313748
  0
SEQEND
  8
0
  0
POLYLINE
  8
PLAN_1
 62
     5
  6
CONTINUOUS
 66
     1
 40
0.003000
 41
0.003000
  0
VERTEX
  8
PLAN_1
 62
     5
  6
CONTINUOUS
 10
-1.871677
 20
0.313748
  0
VERTEX
  8
PLAN_1
 62
     5
  6
CONTINUOUS
 10
-1.863720
 20
0.313748
  0
SEQEND
  8
0
  0
POLYLINE
  8
PLAN_1
 62
     5
  6
CONTINUOUS
 66
     1
 40
0.003000
 41
0.003000
  0
VERTEX
  8
PLAN_1
 62
     5
  6
CONTINUOUS
 10
-1.855264
 20
0.313748
  0
VERTEX
  8
PLAN_1
 62
     5
  6
CONTINUOUS
 10
-1.846811
 20
0.313748
  0
SEQEND
  8
0
  0
POLYLINE
  8
PLAN_1
 62
     5
  6
CONTINUOUS
 66
     1
 40
0.003000
 41
0.003000
  0
VERTEX
  8
PLAN_1
 62
     5
  6
CONTINUOUS
 10
-1.838354
 20
0.313748
  0
VERTEX
  8
PLAN_1
 62
     5
  6
CONTINUOUS
 10
-1.830398
 20
0.313748
  0
SEQEND
  8
0
  0
POLYLINE
  8
PLAN_1
 62
     5
  6
CONTINUOUS
 66
     1
 40
0.003000
 41
0.003000
  0
VERTEX
  8
PLAN_1
 62
     5
  6
CONTINUOUS
 10
-1.821945
 20
0.313748
  0
VERTEX
  8
PLAN_1
 62
     5
  6
CONTINUOUS
 10
-1.813488
 20
0.313748
  0
SEQEND
  8
0
  0
POLYLINE
  8
PLAN_1
 62
     5
  6
CONTINUOUS
 66
     1
 40
0.003000
 41
0.003000
  0
VERTEX
  8
PLAN_1
 62
     5
  6
CONTINUOUS
 10
-1.805035
 20
0.313748
  0
VERTEX
  8
PLAN_1
 62
     5
  6
CONTINUOUS
 10
-1.797079
 20
0.313748
  0
SEQEND
  8
0
  0
POLYLINE
  8
PLAN_1
 62
     5
  6
CONTINUOUS
 66
     1
 40
0.003000
 41
0.003000
  0
VERTEX
  8
PLAN_1
 62
     5
  6
CONTINUOUS
 10
-1.788622
 20
0.313748
  0
VERTEX
  8
PLAN_1
 62
     5
  6
CONTINUOUS
 10
-1.780169
 20
0.313748
  0
SEQEND
  8
0
  0
POLYLINE
  8
PLAN_1
 62
     5
  6
CONTINUOUS
 66
     1
 40
0.003000
 41
0.003000
  0
VERTEX
  8
PLAN_1
 62
     5
  6
CONTINUOUS
 10
-1.771717
 20
0.313748
  0
VERTEX
  8
PLAN_1
 62
     5
  6
CONTINUOUS
 10
-1.763756
 20
0.313748
  0
SEQEND
  8
0
  0
POLYLINE
  8
PLAN_1
 62
     5
  6
CONTINUOUS
 66
     1
 40
0.003000
 41
0.003000
  0
VERTEX
  8
PLAN_1
 62
     5
  6
CONTINUOUS
 10
-1.755303
 20
0.313748
  0
VERTEX
  8
PLAN_1
 62
     5
  6
CONTINUOUS
 10
-1.746850
 20
0.313748
  0
SEQEND
  8
0
  0
POLYLINE
  8
PLAN_1
 62
     5
  6
CONTINUOUS
 66
     1
 40
0.003000
 41
0.003000
  0
VERTEX
  8
PLAN_1
 62
     5
  6
CONTINUOUS
 10
-1.738394
 20
0.313748
  0
VERTEX
  8
PLAN_1
 62
     5
  6
CONTINUOUS
 10
-1.730437
 20
0.313748
  0
SEQEND
  8
0
  0
POLYLINE
  8
PLAN_1
 62
     5
  6
CONTINUOUS
 66
     1
 40
0.003000
 41
0.003000
  0
VERTEX
  8
PLAN_1
 62
     5
  6
CONTINUOUS
 10
-1.721984
 20
0.313748
  0
VERTEX
  8
PLAN_1
 62
     5
  6
CONTINUOUS
 10
-1.713528
 20
0.313748
  0
SEQEND
  8
0
  0
POLYLINE
  8
PLAN_1
 62
     5
  6
CONTINUOUS
 66
     1
 40
0.003000
 41
0.003000
  0
VERTEX
  8
PLAN_1
 62
     5
  6
CONTINUOUS
 10
-1.705075
 20
0.313748
  0
VERTEX
  8
PLAN_1
 62
     5
  6
CONTINUOUS
 10
-1.697118
 20
0.313748
  0
SEQEND
  8
0
  0
POLYLINE
  8
PLAN_1
 62
     5
  6
CONTINUOUS
 66
     1
 40
0.003000
 41
0.003000
  0
VERTEX
  8
PLAN_1
 62
     5
  6
CONTINUOUS
 10
-1.688661
 20
0.313748
  0
VERTEX
  8
PLAN_1
 62
     5
  6
CONTINUOUS
 10
-1.680209
 20
0.313748
  0
SEQEND
  8
0
  0
POLYLINE
  8
PLAN_1
 62
     5
  6
CONTINUOUS
 66
     1
 40
0.003000
 41
0.003000
  0
VERTEX
  8
PLAN_1
 62
     5
  6
CONTINUOUS
 10
-1.671752
 20
0.313748
  0
VERTEX
  8
PLAN_1
 62
     5
  6
CONTINUOUS
 10
-1.663795
 20
0.313748
  0
SEQEND
  8
0
  0
POLYLINE
  8
PLAN_1
 62
     5
  6
CONTINUOUS
 66
     1
 40
0.003000
 41
0.003000
  0
VERTEX
  8
PLAN_1
 62
     5
  6
CONTINUOUS
 10
-1.655343
 20
0.313748
  0
VERTEX
  8
PLAN_1
 62
     5
  6
CONTINUOUS
 10
-1.646886
 20
0.313748
  0
SEQEND
  8
0
  0
POLYLINE
  8
PLAN_1
 62
     5
  6
CONTINUOUS
 66
     1
 40
0.003000
 41
0.003000
  0
VERTEX
  8
PLAN_1
 62
     5
  6
CONTINUOUS
 10
-1.638433
 20
0.313748
  0
VERTEX
  8
PLAN_1
 62
     5
  6
CONTINUOUS
 10
-1.630476
 20
0.313748
  0
SEQEND
  8
0
  0
POLYLINE
  8
PLAN_1
 62
     5
  6
CONTINUOUS
 66
     1
 40
0.003000
 41
0.003000
  0
VERTEX
  8
PLAN_1
 62
     5
  6
CONTINUOUS
 10
-1.622020
 20
0.313748
  0
VERTEX
  8
PLAN_1
 62
     5
  6
CONTINUOUS
 10
-1.613567
 20
0.313748
  0
SEQEND
  8
0
  0
POLYLINE
  8
PLAN_1
 62
     5
  6
CONTINUOUS
 66
     1
 40
0.003000
 41
0.003000
  0
VERTEX
  8
PLAN_1
 62
     5
  6
CONTINUOUS
 10
-1.605110
 20
0.313748
  0
VERTEX
  8
PLAN_1
 62
     5
  6
CONTINUOUS
 10
-1.597154
 20
0.313748
  0
SEQEND
  8
0
  0
POLYLINE
  8
PLAN_1
 62
     5
  6
CONTINUOUS
 66
     1
 40
0.003000
 41
0.003000
  0
VERTEX
  8
PLAN_1
 62
     5
  6
CONTINUOUS
 10
-1.588701
 20
0.313748
  0
VERTEX
  8
PLAN_1
 62
     5
  6
CONTINUOUS
 10
-1.580244
 20
0.313748
  0
SEQEND
  8
0
  0
POLYLINE
  8
PLAN_1
 62
     5
  6
CONTINUOUS
 66
     1
 40
0.003000
 41
0.003000
  0
VERTEX
  8
PLAN_1
 62
     5
  6
CONTINUOUS
 10
-1.572287
 20
0.313748
  0
VERTEX
  8
PLAN_1
 62
     5
  6
CONTINUOUS
 10
-1.563835
 20
0.313748
  0
SEQEND
  8
0
  0
POLYLINE
  8
PLAN_1
 62
     5
  6
CONTINUOUS
 66
     1
 40
0.003000
 41
0.003000
  0
VERTEX
  8
PLAN_1
 62
     5
  6
CONTINUOUS
 10
-1.555378
 20
0.313748
  0
VERTEX
  8
PLAN_1
 62
     5
  6
CONTINUOUS
 10
-1.546925
 20
0.313748
  0
SEQEND
  8
0
  0
POLYLINE
  8
PLAN_1
 62
     5
  6
CONTINUOUS
 66
     1
 40
0.003000
 41
0.003000
  0
VERTEX
  8
PLAN_1
 62
     5
  6
CONTINUOUS
 10
-1.538969
 20
0.313748
  0
VERTEX
  8
PLAN_1
 62
     5
  6
CONTINUOUS
 10
-1.530512
 20
0.313748
  0
SEQEND
  8
0
  0
POLYLINE
  8
PLAN_1
 62
     5
  6
CONTINUOUS
 66
     1
 40
0.003000
 41
0.003000
  0
VERTEX
  8
PLAN_1
 62
     5
  6
CONTINUOUS
 10
-1.522059
 20
0.313748
  0
VERTEX
  8
PLAN_1
 62
     5
  6
CONTINUOUS
 10
-1.513606
 20
0.313748
  0
SEQEND
  8
0
  0
POLYLINE
  8
PLAN_1
 62
     5
  6
CONTINUOUS
 66
     1
 40
0.003000
 41
0.003000
  0
VERTEX
  8
PLAN_1
 62
     5
  6
CONTINUOUS
 10
-1.505646
 20
0.313748
  0
VERTEX
  8
PLAN_1
 62
     5
  6
CONTINUOUS
 10
-1.497193
 20
0.313748
  0
SEQEND
  8
0
  0
POLYLINE
  8
PLAN_1
 62
     5
  6
CONTINUOUS
 66
     1
 40
0.003000
 41
0.003000
  0
VERTEX
  8
PLAN_1
 62
     5
  6
CONTINUOUS
 10
-1.488740
 20
0.313748
  0
VERTEX
  8
PLAN_1
 62
     5
  6
CONTINUOUS
 10
-1.480283
 20
0.313748
  0
SEQEND
  8
0
  0
POLYLINE
  8
PLAN_1
 62
     5
  6
CONTINUOUS
 66
     1
 40
0.003000
 41
0.003000
  0
VERTEX
  8
PLAN_1
 62
     5
  6
CONTINUOUS
 10
-1.472327
 20
0.313748
  0
VERTEX
  8
PLAN_1
 62
     5
  6
CONTINUOUS
 10
-1.463874
 20
0.313748
  0
SEQEND
  8
0
  0
POLYLINE
  8
PLAN_1
 62
     5
  6
CONTINUOUS
 66
     1
 40
0.003000
 41
0.003000
  0
VERTEX
  8
PLAN_1
 62
     5
  6
CONTINUOUS
 10
-1.455417
 20
0.313748
  0
VERTEX
  8
PLAN_1
 62
     5
  6
CONTINUOUS
 10
-1.446965
 20
0.313748
  0
SEQEND
  8
0
  0
POLYLINE
  8
PLAN_1
 62
     5
  6
CONTINUOUS
 66
     1
 40
0.003000
 41
0.003000
  0
VERTEX
  8
PLAN_1
 62
     5
  6
CONTINUOUS
 10
-1.439008
 20
0.313748
  0
VERTEX
  8
PLAN_1
 62
     5
  6
CONTINUOUS
 10
-1.430551
 20
0.313748
  0
SEQEND
  8
0
  0
POLYLINE
  8
PLAN_1
 62
     5
  6
CONTINUOUS
 66
     1
 40
0.003000
 41
0.003000
  0
VERTEX
  8
PLAN_1
 62
     5
  6
CONTINUOUS
 10
-1.422098
 20
0.313748
  0
VERTEX
  8
PLAN_1
 62
     5
  6
CONTINUOUS
 10
-1.413642
 20
0.313748
  0
SEQEND
  8
0
  0
POLYLINE
  8
PLAN_1
 62
     5
  6
CONTINUOUS
 66
     1
 40
0.003000
 41
0.003000
  0
VERTEX
  8
PLAN_1
 62
     5
  6
CONTINUOUS
 10
-1.405685
 20
0.313748
  0
VERTEX
  8
PLAN_1
 62
     5
  6
CONTINUOUS
 10
-1.397232
 20
0.313748
  0
SEQEND
  8
0
  0
POLYLINE
  8
PLAN_1
 62
     5
  6
CONTINUOUS
 66
     1
 40
0.003000
 41
0.003000
  0
VERTEX
  8
PLAN_1
 62
     5
  6
CONTINUOUS
 10
-1.388776
 20
0.313748
  0
VERTEX
  8
PLAN_1
 62
     5
  6
CONTINUOUS
 10
-1.380323
 20
0.313748
  0
SEQEND
  8
0
  0
POLYLINE
  8
PLAN_1
 62
     5
  6
CONTINUOUS
 66
     1
 40
0.003000
 41
0.003000
  0
VERTEX
  8
PLAN_1
 62
     5
  6
CONTINUOUS
 10
-1.372366
 20
0.313748
  0
VERTEX
  8
PLAN_1
 62
     5
  6
CONTINUOUS
 10
-1.363909
 20
0.313748
  0
SEQEND
  8
0
  0
POLYLINE
  8
PLAN_1
 62
     5
  6
CONTINUOUS
 66
     1
 40
0.003000
 41
0.003000
  0
VERTEX
  8
PLAN_1
 62
     5
  6
CONTINUOUS
 10
-1.355457
 20
0.313748
  0
VERTEX
  8
PLAN_1
 62
     5
  6
CONTINUOUS
 10
-1.347000
 20
0.313748
  0
SEQEND
  8
0
  0
POLYLINE
  8
PLAN_1
 62
     5
  6
CONTINUOUS
 66
     1
 40
0.003000
 41
0.003000
  0
VERTEX
  8
PLAN_1
 62
     5
  6
CONTINUOUS
 10
-1.339043
 20
0.313748
  0
VERTEX
  8
PLAN_1
 62
     5
  6
CONTINUOUS
 10
-1.330591
 20
0.313748
  0
SEQEND
  8
0
  0
POLYLINE
  8
PLAN_1
 62
     5
  6
CONTINUOUS
 66
     1
 40
0.003000
 41
0.003000
  0
VERTEX
  8
PLAN_1
 62
     5
  6
CONTINUOUS
 10
-1.322134
 20
0.313748
  0
VERTEX
  8
PLAN_1
 62
     5
  6
CONTINUOUS
 10
-1.313681
 20
0.313748
  0
SEQEND
  8
0
  0
POLYLINE
  8
PLAN_1
 62
     5
  6
CONTINUOUS
 66
     1
 40
0.003000
 41
0.003000
  0
VERTEX
  8
PLAN_1
 62
     5
  6
CONTINUOUS
 10
-1.305724
 20
0.313748
  0
VERTEX
  8
PLAN_1
 62
     5
  6
CONTINUOUS
 10
-1.297268
 20
0.313748
  0
SEQEND
  8
0
  0
POLYLINE
  8
PLAN_1
 62
     5
  6
CONTINUOUS
 66
     1
 40
0.003000
 41
0.003000
  0
VERTEX
  8
PLAN_1
 62
     5
  6
CONTINUOUS
 10
-1.288815
 20
0.313748
  0
VERTEX
  8
PLAN_1
 62
     5
  6
CONTINUOUS
 10
-1.280362
 20
0.313748
  0
SEQEND
  8
0
  0
POLYLINE
  8
PLAN_1
 62
     5
  6
CONTINUOUS
 66
     1
 40
0.003000
 41
0.003000
  0
VERTEX
  8
PLAN_1
 62
     5
  6
CONTINUOUS
 10
-1.272402
 20
0.313748
  0
VERTEX
  8
PLAN_1
 62
     5
  6
CONTINUOUS
 10
-1.263949
 20
0.313748
  0
SEQEND
  8
0
  0
POLYLINE
  8
PLAN_1
 62
     5
  6
CONTINUOUS
 66
     1
 40
0.003000
 41
0.003000
  0
VERTEX
  8
PLAN_1
 62
     5
  6
CONTINUOUS
 10
-1.255496
 20
0.313748
  0
VERTEX
  8
PLAN_1
 62
     5
  6
CONTINUOUS
 10
-1.247039
 20
0.313748
  0
SEQEND
  8
0
  0
POLYLINE
  8
PLAN_1
 62
     5
  6
CONTINUOUS
 66
     1
 40
0.003000
 41
0.003000
  0
VERTEX
  8
PLAN_1
 62
     5
  6
CONTINUOUS
 10
-1.239083
 20
0.313748
  0
VERTEX
  8
PLAN_1
 62
     5
  6
CONTINUOUS
 10
-1.230630
 20
0.313748
  0
SEQEND
  8
0
  0
POLYLINE
  8
PLAN_1
 62
     5
  6
CONTINUOUS
 66
     1
 40
0.003000
 41
0.003000
  0
VERTEX
  8
PLAN_1
 62
     5
  6
CONTINUOUS
 10
-1.222173
 20
0.313748
  0
VERTEX
  8
PLAN_1
 62
     5
  6
CONTINUOUS
 10
-1.213720
 20
0.313748
  0
SEQEND
  8
0
  0
POLYLINE
  8
PLAN_1
 62
     5
  6
CONTINUOUS
 66
     1
 40
0.003000
 41
0.003000
  0
VERTEX
  8
PLAN_1
 62
     5
  6
CONTINUOUS
 10
-1.205764
 20
0.313748
  0
VERTEX
  8
PLAN_1
 62
     5
  6
CONTINUOUS
 10
-1.197307
 20
0.313748
  0
SEQEND
  8
0
  0
POLYLINE
  8
PLAN_1
 62
     5
  6
CONTINUOUS
 66
     1
 40
0.003000
 41
0.003000
  0
VERTEX
  8
PLAN_1
 62
     5
  6
CONTINUOUS
 10
-1.188854
 20
0.313748
  0
VERTEX
  8
PLAN_1
 62
     5
  6
CONTINUOUS
 10
-1.180898
 20
0.313748
  0
SEQEND
  8
0
  0
POLYLINE
  8
PLAN_1
 62
     5
  6
CONTINUOUS
 66
     1
 40
0.003000
 41
0.003000
  0
VERTEX
  8
PLAN_1
 62
     5
  6
CONTINUOUS
 10
-1.172441
 20
0.313748
  0
VERTEX
  8
PLAN_1
 62
     5
  6
CONTINUOUS
 10
-1.163988
 20
0.313748
  0
SEQEND
  8
0
  0
POLYLINE
  8
PLAN_1
 62
     5
  6
CONTINUOUS
 66
     1
 40
0.003000
 41
0.003000
  0
VERTEX
  8
PLAN_1
 62
     5
  6
CONTINUOUS
 10
-1.155531
 20
0.313748
  0
VERTEX
  8
PLAN_1
 62
     5
  6
CONTINUOUS
 10
-1.147575
 20
0.313748
  0
SEQEND
  8
0
  0
POLYLINE
  8
PLAN_1
 62
     5
  6
CONTINUOUS
 66
     1
 40
0.003000
 41
0.003000
  0
VERTEX
  8
PLAN_1
 62
     5
  6
CONTINUOUS
 10
-1.139122
 20
0.313748
  0
VERTEX
  8
PLAN_1
 62
     5
  6
CONTINUOUS
 10
-1.130665
 20
0.313748
  0
SEQEND
  8
0
  0
POLYLINE
  8
PLAN_1
 62
     5
  6
CONTINUOUS
 66
     1
 40
0.003000
 41
0.003000
  0
VERTEX
  8
PLAN_1
 62
     5
  6
CONTINUOUS
 10
-1.122213
 20
0.313748
  0
VERTEX
  8
PLAN_1
 62
     5
  6
CONTINUOUS
 10
-1.114256
 20
0.313748
  0
SEQEND
  8
0
  0
POLYLINE
  8
PLAN_1
 62
     5
  6
CONTINUOUS
 66
     1
 40
0.003000
 41
0.003000
  0
VERTEX
  8
PLAN_1
 62
     5
  6
CONTINUOUS
 10
-1.105799
 20
0.313748
  0
VERTEX
  8
PLAN_1
 62
     5
  6
CONTINUOUS
 10
-1.097346
 20
0.313748
  0
SEQEND
  8
0
  0
POLYLINE
  8
PLAN_1
 62
     5
  6
CONTINUOUS
 66
     1
 40
0.003000
 41
0.003000
  0
VERTEX
  8
PLAN_1
 62
     5
  6
CONTINUOUS
 10
-1.088894
 20
0.313748
  0
VERTEX
  8
PLAN_1
 62
     5
  6
CONTINUOUS
 10
-1.080933
 20
0.313748
  0
SEQEND
  8
0
  0
POLYLINE
  8
PLAN_1
 62
     5
  6
CONTINUOUS
 66
     1
 40
0.003000
 41
0.003000
  0
VERTEX
  8
PLAN_1
 62
     5
  6
CONTINUOUS
 10
-1.072480
 20
0.313748
  0
VERTEX
  8
PLAN_1
 62
     5
  6
CONTINUOUS
 10
-1.064028
 20
0.313748
  0
SEQEND
  8
0
  0
POLYLINE
  8
PLAN_1
 62
     5
  6
CONTINUOUS
 66
     1
 40
0.003000
 41
0.003000
  0
VERTEX
  8
PLAN_1
 62
     5
  6
CONTINUOUS
 10
-1.055571
 20
0.313748
  0
VERTEX
  8
PLAN_1
 62
     5
  6
CONTINUOUS
 10
-1.047614
 20
0.313748
  0
SEQEND
  8
0
  0
POLYLINE
  8
PLAN_1
 62
     5
  6
CONTINUOUS
 66
     1
 40
0.003000
 41
0.003000
  0
VERTEX
  8
PLAN_1
 62
     5
  6
CONTINUOUS
 10
-1.039161
 20
0.313748
  0
VERTEX
  8
PLAN_1
 62
     5
  6
CONTINUOUS
 10
-1.030705
 20
0.313748
  0
SEQEND
  8
0
  0
POLYLINE
  8
PLAN_1
 62
     5
  6
CONTINUOUS
 66
     1
 40
0.003000
 41
0.003000
  0
VERTEX
  8
PLAN_1
 62
     5
  6
CONTINUOUS
 10
-1.022252
 20
0.313748
  0
VERTEX
  8
PLAN_1
 62
     5
  6
CONTINUOUS
 10
-1.014295
 20
0.313748
  0
SEQEND
  8
0
  0
POLYLINE
  8
PLAN_1
 62
     5
  6
CONTINUOUS
 66
     1
 40
0.003000
 41
0.003000
  0
VERTEX
  8
PLAN_1
 62
     5
  6
CONTINUOUS
 10
-1.005839
 20
0.313748
  0
VERTEX
  8
PLAN_1
 62
     5
  6
CONTINUOUS
 10
-0.997386
 20
0.313748
  0
SEQEND
  8
0
  0
POLYLINE
  8
PLAN_1
 62
     5
  6
CONTINUOUS
 66
     1
 40
0.003000
 41
0.003000
  0
VERTEX
  8
PLAN_1
 62
     5
  6
CONTINUOUS
 10
-0.988929
 20
0.313748
  0
VERTEX
  8
PLAN_1
 62
     5
  6
CONTINUOUS
 10
-0.980972
 20
0.313748
  0
SEQEND
  8
0
  0
POLYLINE
  8
PLAN_1
 62
     5
  6
CONTINUOUS
 66
     1
 40
0.003000
 41
0.003000
  0
VERTEX
  8
PLAN_1
 62
     5
  6
CONTINUOUS
 10
-0.972520
 20
0.313748
  0
VERTEX
  8
PLAN_1
 62
     5
  6
CONTINUOUS
 10
-0.964063
 20
0.313748
  0
SEQEND
  8
0
  0
POLYLINE
  8
PLAN_1
 62
     5
  6
CONTINUOUS
 66
     1
 40
0.003000
 41
0.003000
  0
VERTEX
  8
PLAN_1
 62
     5
  6
CONTINUOUS
 10
-0.955610
 20
0.313748
  0
VERTEX
  8
PLAN_1
 62
     5
  6
CONTINUOUS
 10
-0.947654
 20
0.313748
  0
SEQEND
  8
0
  0
POLYLINE
  8
PLAN_1
 62
     5
  6
CONTINUOUS
 66
     1
 40
0.003000
 41
0.003000
  0
VERTEX
  8
PLAN_1
 62
     5
  6
CONTINUOUS
 10
-0.939197
 20
0.313748
  0
VERTEX
  8
PLAN_1
 62
     5
  6
CONTINUOUS
 10
-0.930744
 20
0.313748
  0
SEQEND
  8
0
  0
POLYLINE
  8
PLAN_1
 62
     5
  6
CONTINUOUS
 66
     1
 40
0.003000
 41
0.003000
  0
VERTEX
  8
PLAN_1
 62
     5
  6
CONTINUOUS
 10
-0.922287
 20
0.313748
  0
VERTEX
  8
PLAN_1
 62
     5
  6
CONTINUOUS
 10
-0.914331
 20
0.313748
  0
SEQEND
  8
0
  0
POLYLINE
  8
PLAN_1
 62
     5
  6
CONTINUOUS
 66
     1
 40
0.003000
 41
0.003000
  0
VERTEX
  8
PLAN_1
 62
     5
  6
CONTINUOUS
 10
-0.905878
 20
0.313748
  0
VERTEX
  8
PLAN_1
 62
     5
  6
CONTINUOUS
 10
-0.897421
 20
0.313748
  0
SEQEND
  8
0
  0
POLYLINE
  8
PLAN_1
 62
     5
  6
CONTINUOUS
 66
     1
 40
0.003000
 41
0.003000
  0
VERTEX
  8
PLAN_1
 62
     5
  6
CONTINUOUS
 10
-0.888969
 20
0.313748
  0
VERTEX
  8
PLAN_1
 62
     5
  6
CONTINUOUS
 10
-0.881012
 20
0.313748
  0
SEQEND
  8
0
  0
POLYLINE
  8
PLAN_1
 62
     5
  6
CONTINUOUS
 66
     1
 40
0.003000
 41
0.003000
  0
VERTEX
  8
PLAN_1
 62
     5
  6
CONTINUOUS
 10
-0.872555
 20
0.313748
  0
VERTEX
  8
PLAN_1
 62
     5
  6
CONTINUOUS
 10
-0.864102
 20
0.313748
  0
SEQEND
  8
0
  0
POLYLINE
  8
PLAN_1
 62
     5
  6
CONTINUOUS
 66
     1
 40
0.003000
 41
0.003000
  0
VERTEX
  8
PLAN_1
 62
     5
  6
CONTINUOUS
 10
-0.855650
 20
0.313748
  0
VERTEX
  8
PLAN_1
 62
     5
  6
CONTINUOUS
 10
-0.847689
 20
0.313748
  0
SEQEND
  8
0
  0
POLYLINE
  8
PLAN_1
 62
     5
  6
CONTINUOUS
 66
     1
 40
0.003000
 41
0.003000
  0
VERTEX
  8
PLAN_1
 62
     5
  6
CONTINUOUS
 10
-0.839236
 20
0.313748
  0
VERTEX
  8
PLAN_1
 62
     5
  6
CONTINUOUS
 10
-0.830783
 20
0.313748
  0
SEQEND
  8
0
  0
POLYLINE
  8
PLAN_1
 62
     5
  6
CONTINUOUS
 66
     1
 40
0.003000
 41
0.003000
  0
VERTEX
  8
PLAN_1
 62
     5
  6
CONTINUOUS
 10
-0.822327
 20
0.313748
  0
VERTEX
  8
PLAN_1
 62
     5
  6
CONTINUOUS
 10
-0.814370
 20
0.313748
  0
SEQEND
  8
0
  0
POLYLINE
  8
PLAN_1
 62
     5
  6
CONTINUOUS
 66
     1
 40
0.003000
 41
0.003000
  0
VERTEX
  8
PLAN_1
 62
     5
  6
CONTINUOUS
 10
-0.805917
 20
0.313748
  0
VERTEX
  8
PLAN_1
 62
     5
  6
CONTINUOUS
 10
-0.797461
 20
0.313748
  0
SEQEND
  8
0
  0
POLYLINE
  8
PLAN_1
 62
     5
  6
CONTINUOUS
 66
     1
 40
0.003000
 41
0.003000
  0
VERTEX
  8
PLAN_1
 62
     5
  6
CONTINUOUS
 10
-0.789504
 20
0.313748
  0
VERTEX
  8
PLAN_1
 62
     5
  6
CONTINUOUS
 10
-0.781051
 20
0.313748
  0
SEQEND
  8
0
  0
POLYLINE
  8
PLAN_1
 62
     5
  6
CONTINUOUS
 66
     1
 40
0.003000
 41
0.003000
  0
VERTEX
  8
PLAN_1
 62
     5
  6
CONTINUOUS
 10
-0.772594
 20
0.313748
  0
VERTEX
  8
PLAN_1
 62
     5
  6
CONTINUOUS
 10
-0.764142
 20
0.313748
  0
SEQEND
  8
0
  0
POLYLINE
  8
PLAN_1
 62
     5
  6
CONTINUOUS
 66
     1
 40
0.003000
 41
0.003000
  0
VERTEX
  8
PLAN_1
 62
     5
  6
CONTINUOUS
 10
-0.756185
 20
0.313748
  0
VERTEX
  8
PLAN_1
 62
     5
  6
CONTINUOUS
 10
-0.747728
 20
0.313748
  0
SEQEND
  8
0
  0
POLYLINE
  8
PLAN_1
 62
     5
  6
CONTINUOUS
 66
     1
 40
0.003000
 41
0.003000
  0
VERTEX
  8
PLAN_1
 62
     5
  6
CONTINUOUS
 10
-0.739276
 20
0.313748
  0
VERTEX
  8
PLAN_1
 62
     5
  6
CONTINUOUS
 10
-0.730819
 20
0.313748
  0
SEQEND
  8
0
  0
POLYLINE
  8
PLAN_1
 62
     5
  6
CONTINUOUS
 66
     1
 40
0.003000
 41
0.003000
  0
VERTEX
  8
PLAN_1
 62
     5
  6
CONTINUOUS
 10
-0.722862
 20
0.313748
  0
VERTEX
  8
PLAN_1
 62
     5
  6
CONTINUOUS
 10
-0.714409
 20
0.313748
  0
SEQEND
  8
0
  0
POLYLINE
  8
PLAN_1
 62
     5
  6
CONTINUOUS
 66
     1
 40
0.003000
 41
0.003000
  0
VERTEX
  8
PLAN_1
 62
     5
  6
CONTINUOUS
 10
-0.705953
 20
0.313748
  0
VERTEX
  8
PLAN_1
 62
     5
  6
CONTINUOUS
 10
-0.697500
 20
0.313748
  0
SEQEND
  8
0
  0
POLYLINE
  8
PLAN_1
 62
     5
  6
CONTINUOUS
 66
     1
 40
0.003000
 41
0.003000
  0
VERTEX
  8
PLAN_1
 62
     5
  6
CONTINUOUS
 10
-0.689543
 20
0.313748
  0
VERTEX
  8
PLAN_1
 62
     5
  6
CONTINUOUS
 10
-0.681087
 20
0.313748
  0
SEQEND
  8
0
  0
POLYLINE
  8
PLAN_1
 62
     5
  6
CONTINUOUS
 66
     1
 40
0.003000
 41
0.003000
  0
VERTEX
  8
PLAN_1
 62
     5
  6
CONTINUOUS
 10
-0.672634
 20
0.313748
  0
VERTEX
  8
PLAN_1
 62
     5
  6
CONTINUOUS
 10
-0.664177
 20
0.313748
  0
SEQEND
  8
0
  0
POLYLINE
  8
PLAN_1
 62
     5
  6
CONTINUOUS
 66
     1
 40
0.003000
 41
0.003000
  0
VERTEX
  8
PLAN_1
 62
     5
  6
CONTINUOUS
 10
-0.656220
 20
0.313748
  0
VERTEX
  8
PLAN_1
 62
     5
  6
CONTINUOUS
 10
-0.647768
 20
0.313748
  0
SEQEND
  8
0
  0
POLYLINE
  8
PLAN_1
 62
     5
  6
CONTINUOUS
 66
     1
 40
0.003000
 41
0.003000
  0
VERTEX
  8
PLAN_1
 62
     5
  6
CONTINUOUS
 10
-0.639311
 20
0.313748
  0
VERTEX
  8
PLAN_1
 62
     5
  6
CONTINUOUS
 10
-0.630858
 20
0.313748
  0
SEQEND
  8
0
  0
POLYLINE
  8
PLAN_1
 62
     5
  6
CONTINUOUS
 66
     1
 40
0.003000
 41
0.003000
  0
VERTEX
  8
PLAN_1
 62
     5
  6
CONTINUOUS
 10
-0.622902
 20
0.313748
  0
VERTEX
  8
PLAN_1
 62
     5
  6
CONTINUOUS
 10
-0.614445
 20
0.313748
  0
SEQEND
  8
0
  0
POLYLINE
  8
PLAN_1
 62
     5
  6
CONTINUOUS
 66
     1
 40
0.003000
 41
0.003000
  0
VERTEX
  8
PLAN_1
 62
     5
  6
CONTINUOUS
 10
-0.605992
 20
0.313748
  0
VERTEX
  8
PLAN_1
 62
     5
  6
CONTINUOUS
 10
-0.597539
 20
0.313748
  0
SEQEND
  8
0
  0
POLYLINE
  8
PLAN_1
 62
     5
  6
CONTINUOUS
 66
     1
 40
0.003000
 41
0.003000
  0
VERTEX
  8
PLAN_1
 62
     5
  6
CONTINUOUS
 10
-0.589579
 20
0.313748
  0
VERTEX
  8
PLAN_1
 62
     5
  6
CONTINUOUS
 10
-0.581126
 20
0.313748
  0
SEQEND
  8
0
  0
POLYLINE
  8
PLAN_1
 62
     5
  6
CONTINUOUS
 66
     1
 40
0.003000
 41
0.003000
  0
VERTEX
  8
PLAN_1
 62
     5
  6
CONTINUOUS
 10
-0.572673
 20
0.313748
  0
VERTEX
  8
PLAN_1
 62
     5
  6
CONTINUOUS
 10
-0.564217
 20
0.313748
  0
SEQEND
  8
0
  0
POLYLINE
  8
PLAN_1
 62
     5
  6
CONTINUOUS
 66
     1
 40
0.003000
 41
0.003000
  0
VERTEX
  8
PLAN_1
 62
     5
  6
CONTINUOUS
 10
-0.556260
 20
0.313748
  0
VERTEX
  8
PLAN_1
 62
     5
  6
CONTINUOUS
 10
-0.547807
 20
0.313748
  0
SEQEND
  8
0
  0
POLYLINE
  8
PLAN_1
 62
     5
  6
CONTINUOUS
 66
     1
 40
0.003000
 41
0.003000
  0
VERTEX
  8
PLAN_1
 62
     5
  6
CONTINUOUS
 10
-0.539350
 20
0.313748
  0
VERTEX
  8
PLAN_1
 62
     5
  6
CONTINUOUS
 10
-0.530898
 20
0.313748
  0
SEQEND
  8
0
  0
POLYLINE
  8
PLAN_1
 62
     5
  6
CONTINUOUS
 66
     1
 40
0.003000
 41
0.003000
  0
VERTEX
  8
PLAN_1
 62
     5
  6
CONTINUOUS
 10
-0.522941
 20
0.313748
  0
VERTEX
  8
PLAN_1
 62
     5
  6
CONTINUOUS
 10
-0.514484
 20
0.313748
  0
SEQEND
  8
0
  0
POLYLINE
  8
PLAN_1
 62
     5
  6
CONTINUOUS
 66
     1
 40
0.003000
 41
0.003000
  0
VERTEX
  8
PLAN_1
 62
     5
  6
CONTINUOUS
 10
-0.506031
 20
0.313748
  0
VERTEX
  8
PLAN_1
 62
     5
  6
CONTINUOUS
 10
-0.497575
 20
0.313748
  0
SEQEND
  8
0
  0
POLYLINE
  8
PLAN_1
 62
     5
  6
CONTINUOUS
 66
     1
 40
0.003000
 41
0.003000
  0
VERTEX
  8
PLAN_1
 62
     5
  6
CONTINUOUS
 10
-0.489618
 20
0.313748
  0
VERTEX
  8
PLAN_1
 62
     5
  6
CONTINUOUS
 10
-0.481165
 20
0.313748
  0
SEQEND
  8
0
  0
POLYLINE
  8
PLAN_1
 62
     5
  6
CONTINUOUS
 66
     1
 40
0.003000
 41
0.003000
  0
VERTEX
  8
PLAN_1
 62
     5
  6
CONTINUOUS
 10
-0.472709
 20
0.313748
  0
VERTEX
  8
PLAN_1
 62
     5
  6
CONTINUOUS
 10
-0.464256
 20
0.313748
  0
SEQEND
  8
0
  0
POLYLINE
  8
PLAN_1
 62
     5
  6
CONTINUOUS
 66
     1
 40
0.003000
 41
0.003000
  0
VERTEX
  8
PLAN_1
 62
     5
  6
CONTINUOUS
 10
-0.456299
 20
0.313748
  0
VERTEX
  8
PLAN_1
 62
     5
  6
CONTINUOUS
 10
-0.447843
 20
0.313748
  0
SEQEND
  8
0
  0
POLYLINE
  8
PLAN_1
 62
     5
  6
CONTINUOUS
 66
     1
 40
0.003000
 41
0.003000
  0
VERTEX
  8
PLAN_1
 62
     5
  6
CONTINUOUS
 10
-0.439390
 20
0.313748
  0
VERTEX
  8
PLAN_1
 62
     5
  6
CONTINUOUS
 10
-0.430933
 20
0.313748
  0
SEQEND
  8
0
  0
POLYLINE
  8
PLAN_1
 62
     5
  6
CONTINUOUS
 66
     1
 40
0.003000
 41
0.003000
  0
VERTEX
  8
PLAN_1
 62
     5
  6
CONTINUOUS
 10
-0.422976
 20
0.313748
  0
VERTEX
  8
PLAN_1
 62
     5
  6
CONTINUOUS
 10
-0.414524
 20
0.313748
  0
SEQEND
  8
0
  0
POLYLINE
  8
PLAN_1
 62
     5
  6
CONTINUOUS
 66
     1
 40
0.003000
 41
0.003000
  0
VERTEX
  8
PLAN_1
 62
     5
  6
CONTINUOUS
 10
-0.406067
 20
0.313748
  0
VERTEX
  8
PLAN_1
 62
     5
  6
CONTINUOUS
 10
-0.398110
 20
0.313748
  0
SEQEND
  8
0
  0
POLYLINE
  8
PLAN_1
 62
     5
  6
CONTINUOUS
 66
     1
 40
0.003000
 41
0.003000
  0
VERTEX
  8
PLAN_1
 62
     5
  6
CONTINUOUS
 10
-0.389657
 20
0.313748
  0
VERTEX
  8
PLAN_1
 62
     5
  6
CONTINUOUS
 10
-0.381201
 20
0.313748
  0
SEQEND
  8
0
  0
POLYLINE
  8
PLAN_1
 62
     5
  6
CONTINUOUS
 66
     1
 40
0.003000
 41
0.003000
  0
VERTEX
  8
PLAN_1
 62
     5
  6
CONTINUOUS
 10
-0.372748
 20
0.313748
  0
VERTEX
  8
PLAN_1
 62
     5
  6
CONTINUOUS
 10
-0.364791
 20
0.313748
  0
SEQEND
  8
0
  0
POLYLINE
  8
PLAN_1
 62
     5
  6
CONTINUOUS
 66
     1
 40
0.003000
 41
0.003000
  0
VERTEX
  8
PLAN_1
 62
     5
  6
CONTINUOUS
 10
-0.356335
 20
0.313748
  0
VERTEX
  8
PLAN_1
 62
     5
  6
CONTINUOUS
 10
-0.347882
 20
0.313748
  0
SEQEND
  8
0
  0
POLYLINE
  8
PLAN_1
 62
     5
  6
CONTINUOUS
 66
     1
 40
0.003000
 41
0.003000
  0
VERTEX
  8
PLAN_1
 62
     5
  6
CONTINUOUS
 10
-0.339429
 20
0.313748
  0
VERTEX
  8
PLAN_1
 62
     5
  6
CONTINUOUS
 10
-0.338929
 20
0.313748
  0
SEQEND
  8
0
  0
POLYLINE
  8
PLAN_1
 62
     5
  6
CONTINUOUS
 66
     1
 40
0.003000
 41
0.003000
  0
VERTEX
  8
PLAN_1
 62
     5
  6
CONTINUOUS
 10
-0.339429
 20
0.313748
  0
VERTEX
  8
PLAN_1
 62
     5
  6
CONTINUOUS
 10
-0.338929
 20
0.313748
  0
SEQEND
  8
0
  0
POLYLINE
  8
PLAN_1
 62
     5
  6
CONTINUOUS
 66
     1
 40
0.003000
 41
0.003000
  0
VERTEX
  8
PLAN_1
 62
     5
  6
CONTINUOUS
 10
-0.338929
 20
0.313748
  0
VERTEX
  8
PLAN_1
 62
     5
  6
CONTINUOUS
 10
-0.334453
 20
0.313252
  0
VERTEX
  8
PLAN_1
 62
     5
  6
CONTINUOUS
 10
-0.330476
 20
0.312752
  0
SEQEND
  8
0
  0
POLYLINE
  8
PLAN_1
 62
     5
  6
CONTINUOUS
 66
     1
 40
0.003000
 41
0.003000
  0
VERTEX
  8
PLAN_1
 62
     5
  6
CONTINUOUS
 10
-0.322520
 20
0.310764
  0
VERTEX
  8
PLAN_1
 62
     5
  6
CONTINUOUS
 10
-0.321028
 20
0.310268
  0
VERTEX
  8
PLAN_1
 62
     5
  6
CONTINUOUS
 10
-0.317047
 20
0.308276
  0
VERTEX
  8
PLAN_1
 62
     5
  6
CONTINUOUS
 10
-0.315059
 20
0.306787
  0
SEQEND
  8
0
  0
POLYLINE
  8
PLAN_1
 62
     5
  6
CONTINUOUS
 66
     1
 40
0.003000
 41
0.003000
  0
VERTEX
  8
PLAN_1
 62
     5
  6
CONTINUOUS
 10
-0.308594
 20
0.302311
  0
VERTEX
  8
PLAN_1
 62
     5
  6
CONTINUOUS
 10
-0.306602
 20
0.300319
  0
VERTEX
  8
PLAN_1
 62
     5
  6
CONTINUOUS
 10
-0.303622
 20
0.297335
  0
VERTEX
  8
PLAN_1
 62
     5
  6
CONTINUOUS
 10
-0.302626
 20
0.296343
  0
SEQEND
  8
0
  0
POLYLINE
  8
PLAN_1
 62
     5
  6
CONTINUOUS
 66
     1
 40
0.003000
 41
0.003000
  0
VERTEX
  8
PLAN_1
 62
     5
  6
CONTINUOUS
 10
-0.298150
 20
0.289378
  0
VERTEX
  8
PLAN_1
 62
     5
  6
CONTINUOUS
 10
-0.296161
 20
0.285898
  0
VERTEX
  8
PLAN_1
 62
     5
  6
CONTINUOUS
 10
-0.294173
 20
0.281921
  0
SEQEND
  8
0
  0
POLYLINE
  8
PLAN_1
 62
     5
  6
CONTINUOUS
 66
     1
 40
0.003000
 41
0.003000
  0
VERTEX
  8
PLAN_1
 62
     5
  6
CONTINUOUS
 10
-0.292181
 20
0.273961
  0
VERTEX
  8
PLAN_1
 62
     5
  6
CONTINUOUS
 10
-0.291685
 20
0.272969
  0
VERTEX
  8
PLAN_1
 62
     5
  6
CONTINUOUS
 10
-0.291189
 20
0.267996
  0
SEQEND
  8
0
  0
POLYLINE
  8
PLAN_1
 62
     5
  6
CONTINUOUS
 66
     1
 40
0.003000
 41
0.003000
  0
VERTEX
  8
PLAN_1
 62
     5
  6
CONTINUOUS
 10
-0.292181
 20
0.273961
  0
VERTEX
  8
PLAN_1
 62
     5
  6
CONTINUOUS
 10
-0.291685
 20
0.272969
  0
VERTEX
  8
PLAN_1
 62
     5
  6
CONTINUOUS
 10
-0.291189
 20
0.267996
  0
SEQEND
  8
0
  0
POLYLINE
  8
PLAN_1
 62
     5
  6
CONTINUOUS
 66
     1
 40
0.003000
 41
0.003000
  0
VERTEX
  8
PLAN_1
 62
     5
  6
CONTINUOUS
 10
-0.291189
 20
0.267996
  0
VERTEX
  8
PLAN_1
 62
     5
  6
CONTINUOUS
 10
-0.291189
 20
0.260035
  0
SEQEND
  8
0
  0
POLYLINE
  8
PLAN_1
 62
     5
  6
CONTINUOUS
 66
     1
 40
0.003000
 41
0.003000
  0
VERTEX
  8
PLAN_1
 62
     5
  6
CONTINUOUS
 10
-0.291189
 20
0.251583
  0
VERTEX
  8
PLAN_1
 62
     5
  6
CONTINUOUS
 10
-0.291189
 20
0.243130
  0
SEQEND
  8
0
  0
POLYLINE
  8
PLAN_1
 62
     5
  6
CONTINUOUS
 66
     1
 40
0.003000
 41
0.003000
  0
VERTEX
  8
PLAN_1
 62
     5
  6
CONTINUOUS
 10
-0.291189
 20
0.234673
  0
VERTEX
  8
PLAN_1
 62
     5
  6
CONTINUOUS
 10
-0.291189
 20
0.226717
  0
SEQEND
  8
0
  0
POLYLINE
  8
PLAN_1
 62
     5
  6
CONTINUOUS
 66
     1
 40
0.003000
 41
0.003000
  0
VERTEX
  8
PLAN_1
 62
     5
  6
CONTINUOUS
 10
-0.291189
 20
0.218264
  0
VERTEX
  8
PLAN_1
 62
     5
  6
CONTINUOUS
 10
-0.291189
 20
0.209807
  0
SEQEND
  8
0
  0
POLYLINE
  8
PLAN_1
 62
     5
  6
CONTINUOUS
 66
     1
 40
0.003000
 41
0.003000
  0
VERTEX
  8
PLAN_1
 62
     5
  6
CONTINUOUS
 10
-0.291189
 20
0.201354
  0
VERTEX
  8
PLAN_1
 62
     5
  6
CONTINUOUS
 10
-0.291189
 20
0.193398
  0
SEQEND
  8
0
  0
POLYLINE
  8
PLAN_1
 62
     5
  6
CONTINUOUS
 66
     1
 40
0.003000
 41
0.003000
  0
VERTEX
  8
PLAN_1
 62
     5
  6
CONTINUOUS
 10
-0.291189
 20
0.184941
  0
VERTEX
  8
PLAN_1
 62
     5
  6
CONTINUOUS
 10
-0.291189
 20
0.176488
  0
SEQEND
  8
0
  0
POLYLINE
  8
PLAN_1
 62
     5
  6
CONTINUOUS
 66
     1
 40
0.003000
 41
0.003000
  0
VERTEX
  8
PLAN_1
 62
     5
  6
CONTINUOUS
 10
-0.291189
 20
0.168031
  0
VERTEX
  8
PLAN_1
 62
     5
  6
CONTINUOUS
 10
-0.291189
 20
0.160075
  0
SEQEND
  8
0
  0
POLYLINE
  8
PLAN_1
 62
     5
  6
CONTINUOUS
 66
     1
 40
0.003000
 41
0.003000
  0
VERTEX
  8
PLAN_1
 62
     5
  6
CONTINUOUS
 10
-0.291189
 20
0.151622
  0
VERTEX
  8
PLAN_1
 62
     5
  6
CONTINUOUS
 10
-0.291189
 20
0.143165
  0
SEQEND
  8
0
  0
POLYLINE
  8
PLAN_1
 62
     5
  6
CONTINUOUS
 66
     1
 40
0.003000
 41
0.003000
  0
VERTEX
  8
PLAN_1
 62
     5
  6
CONTINUOUS
 10
-0.291189
 20
0.134713
  0
VERTEX
  8
PLAN_1
 62
     5
  6
CONTINUOUS
 10
-0.291189
 20
0.126756
  0
SEQEND
  8
0
  0
POLYLINE
  8
PLAN_1
 62
     5
  6
CONTINUOUS
 66
     1
 40
0.003000
 41
0.003000
  0
VERTEX
  8
PLAN_1
 62
     5
  6
CONTINUOUS
 10
-0.291189
 20
0.118299
  0
VERTEX
  8
PLAN_1
 62
     5
  6
CONTINUOUS
 10
-0.291189
 20
0.109846
  0
SEQEND
  8
0
  0
POLYLINE
  8
PLAN_1
 62
     5
  6
CONTINUOUS
 66
     1
 40
0.003000
 41
0.003000
  0
VERTEX
  8
PLAN_1
 62
     5
  6
CONTINUOUS
 10
-0.291189
 20
0.101390
  0
VERTEX
  8
PLAN_1
 62
     5
  6
CONTINUOUS
 10
-0.291189
 20
0.093433
  0
SEQEND
  8
0
  0
POLYLINE
  8
PLAN_1
 62
     5
  6
CONTINUOUS
 66
     1
 40
0.003000
 41
0.003000
  0
VERTEX
  8
PLAN_1
 62
     5
  6
CONTINUOUS
 10
-0.291189
 20
0.084980
  0
VERTEX
  8
PLAN_1
 62
     5
  6
CONTINUOUS
 10
-0.291189
 20
0.076524
  0
SEQEND
  8
0
  0
POLYLINE
  8
PLAN_1
 62
     5
  6
CONTINUOUS
 66
     1
 40
0.003000
 41
0.003000
  0
VERTEX
  8
PLAN_1
 62
     5
  6
CONTINUOUS
 10
-0.291189
 20
0.068071
  0
VERTEX
  8
PLAN_1
 62
     5
  6
CONTINUOUS
 10
-0.291189
 20
0.060114
  0
SEQEND
  8
0
  0
POLYLINE
  8
PLAN_1
 62
     5
  6
CONTINUOUS
 66
     1
 40
0.003000
 41
0.003000
  0
VERTEX
  8
PLAN_1
 62
     5
  6
CONTINUOUS
 10
-0.291189
 20
0.051657
  0
VERTEX
  8
PLAN_1
 62
     5
  6
CONTINUOUS
 10
-0.291189
 20
0.043205
  0
SEQEND
  8
0
  0
POLYLINE
  8
PLAN_1
 62
     5
  6
CONTINUOUS
 66
     1
 40
0.003000
 41
0.003000
  0
VERTEX
  8
PLAN_1
 62
     5
  6
CONTINUOUS
 10
-0.291189
 20
0.034752
  0
VERTEX
  8
PLAN_1
 62
     5
  6
CONTINUOUS
 10
-0.291189
 20
0.026791
  0
SEQEND
  8
0
  0
POLYLINE
  8
PLAN_1
 62
     5
  6
CONTINUOUS
 66
     1
 40
0.003000
 41
0.003000
  0
VERTEX
  8
PLAN_1
 62
     5
  6
CONTINUOUS
 10
-0.291189
 20
0.018339
  0
VERTEX
  8
PLAN_1
 62
     5
  6
CONTINUOUS
 10
-0.291189
 20
0.009886
  0
SEQEND
  8
0
  0
POLYLINE
  8
PLAN_1
 62
     5
  6
CONTINUOUS
 66
     1
 40
0.003000
 41
0.003000
  0
VERTEX
  8
PLAN_1
 62
     5
  6
CONTINUOUS
 10
-0.291189
 20
0.001429
  0
VERTEX
  8
PLAN_1
 62
     5
  6
CONTINUOUS
 10
-0.291189
 20
-0.006528
  0
SEQEND
  8
0
  0
POLYLINE
  8
PLAN_1
 62
     5
  6
CONTINUOUS
 66
     1
 40
0.003000
 41
0.003000
  0
VERTEX
  8
PLAN_1
 62
     5
  6
CONTINUOUS
 10
-0.291189
 20
-0.014980
  0
VERTEX
  8
PLAN_1
 62
     5
  6
CONTINUOUS
 10
-0.291189
 20
-0.023437
  0
SEQEND
  8
0
  0
POLYLINE
  8
PLAN_1
 62
     5
  6
CONTINUOUS
 66
     1
 40
0.003000
 41
0.003000
  0
VERTEX
  8
PLAN_1
 62
     5
  6
CONTINUOUS
 10
-0.291189
 20
-0.031394
  0
VERTEX
  8
PLAN_1
 62
     5
  6
CONTINUOUS
 10
-0.291189
 20
-0.039846
  0
SEQEND
  8
0
  0
POLYLINE
  8
PLAN_1
 62
     5
  6
CONTINUOUS
 66
     1
 40
0.003000
 41
0.003000
  0
VERTEX
  8
PLAN_1
 62
     5
  6
CONTINUOUS
 10
-0.291189
 20
-0.048303
  0
VERTEX
  8
PLAN_1
 62
     5
  6
CONTINUOUS
 10
-0.291189
 20
-0.056756
  0
SEQEND
  8
0
  0
POLYLINE
  8
PLAN_1
 62
     5
  6
CONTINUOUS
 66
     1
 40
0.003000
 41
0.003000
  0
VERTEX
  8
PLAN_1
 62
     5
  6
CONTINUOUS
 10
-0.291189
 20
-0.064713
  0
VERTEX
  8
PLAN_1
 62
     5
  6
CONTINUOUS
 10
-0.291189
 20
-0.073169
  0
SEQEND
  8
0
  0
POLYLINE
  8
PLAN_1
 62
     5
  6
CONTINUOUS
 66
     1
 40
0.003000
 41
0.003000
  0
VERTEX
  8
PLAN_1
 62
     5
  6
CONTINUOUS
 10
-0.291189
 20
-0.081622
  0
VERTEX
  8
PLAN_1
 62
     5
  6
CONTINUOUS
 10
-0.291189
 20
-0.090079
  0
SEQEND
  8
0
  0
POLYLINE
  8
PLAN_1
 62
     5
  6
CONTINUOUS
 66
     1
 40
0.003000
 41
0.003000
  0
VERTEX
  8
PLAN_1
 62
     5
  6
CONTINUOUS
 10
-0.291189
 20
-0.098035
  0
VERTEX
  8
PLAN_1
 62
     5
  6
CONTINUOUS
 10
-0.291189
 20
-0.106488
  0
SEQEND
  8
0
  0
POLYLINE
  8
PLAN_1
 62
     5
  6
CONTINUOUS
 66
     1
 40
0.003000
 41
0.003000
  0
VERTEX
  8
PLAN_1
 62
     5
  6
CONTINUOUS
 10
-0.291189
 20
-0.114945
  0
VERTEX
  8
PLAN_1
 62
     5
  6
CONTINUOUS
 10
-0.291189
 20
-0.123398
  0
SEQEND
  8
0
  0
POLYLINE
  8
PLAN_1
 62
     5
  6
CONTINUOUS
 66
     1
 40
0.003000
 41
0.003000
  0
VERTEX
  8
PLAN_1
 62
     5
  6
CONTINUOUS
 10
-0.291189
 20
-0.131354
  0
VERTEX
  8
PLAN_1
 62
     5
  6
CONTINUOUS
 10
-0.291189
 20
-0.139811
  0
SEQEND
  8
0
  0
POLYLINE
  8
PLAN_1
 62
     5
  6
CONTINUOUS
 66
     1
 40
0.003000
 41
0.003000
  0
VERTEX
  8
PLAN_1
 62
     5
  6
CONTINUOUS
 10
-0.291189
 20
-0.148264
  0
VERTEX
  8
PLAN_1
 62
     5
  6
CONTINUOUS
 10
-0.291189
 20
-0.156720
  0
SEQEND
  8
0
  0
POLYLINE
  8
PLAN_1
 62
     5
  6
CONTINUOUS
 66
     1
 40
0.003000
 41
0.003000
  0
VERTEX
  8
PLAN_1
 62
     5
  6
CONTINUOUS
 10
-0.291189
 20
-0.164677
  0
VERTEX
  8
PLAN_1
 62
     5
  6
CONTINUOUS
 10
-0.291189
 20
-0.173130
  0
SEQEND
  8
0
  0
POLYLINE
  8
PLAN_1
 62
     5
  6
CONTINUOUS
 66
     1
 40
0.003000
 41
0.003000
  0
VERTEX
  8
PLAN_1
 62
     5
  6
CONTINUOUS
 10
-0.291189
 20
-0.181583
  0
VERTEX
  8
PLAN_1
 62
     5
  6
CONTINUOUS
 10
-0.291189
 20
-0.190039
  0
SEQEND
  8
0
  0
POLYLINE
  8
PLAN_1
 62
     5
  6
CONTINUOUS
 66
     1
 40
0.003000
 41
0.003000
  0
VERTEX
  8
PLAN_1
 62
     5
  6
CONTINUOUS
 10
-0.291189
 20
-0.197996
  0
VERTEX
  8
PLAN_1
 62
     5
  6
CONTINUOUS
 10
-0.291189
 20
-0.206449
  0
SEQEND
  8
0
  0
POLYLINE
  8
PLAN_1
 62
     5
  6
CONTINUOUS
 66
     1
 40
0.003000
 41
0.003000
  0
VERTEX
  8
PLAN_1
 62
     5
  6
CONTINUOUS
 10
-0.291189
 20
-0.214906
  0
VERTEX
  8
PLAN_1
 62
     5
  6
CONTINUOUS
 10
-0.291189
 20
-0.223358
  0
SEQEND
  8
0
  0
POLYLINE
  8
PLAN_1
 62
     5
  6
CONTINUOUS
 66
     1
 40
0.003000
 41
0.003000
  0
VERTEX
  8
PLAN_1
 62
     5
  6
CONTINUOUS
 10
-0.291189
 20
-0.231315
  0
VERTEX
  8
PLAN_1
 62
     5
  6
CONTINUOUS
 10
-0.291189
 20
-0.239772
  0
SEQEND
  8
0
  0
POLYLINE
  8
PLAN_1
 62
     5
  6
CONTINUOUS
 66
     1
 40
0.003000
 41
0.003000
  0
VERTEX
  8
PLAN_1
 62
     5
  6
CONTINUOUS
 10
-0.291189
 20
-0.248224
  0
VERTEX
  8
PLAN_1
 62
     5
  6
CONTINUOUS
 10
-0.291189
 20
-0.256681
  0
SEQEND
  8
0
  0
POLYLINE
  8
PLAN_1
 62
     5
  6
CONTINUOUS
 66
     1
 40
0.003000
 41
0.003000
  0
VERTEX
  8
PLAN_1
 62
     5
  6
CONTINUOUS
 10
-0.291189
 20
-0.264638
  0
VERTEX
  8
PLAN_1
 62
     5
  6
CONTINUOUS
 10
-0.291189
 20
-0.273091
  0
SEQEND
  8
0
  0
POLYLINE
  8
PLAN_1
 62
     5
  6
CONTINUOUS
 66
     1
 40
0.003000
 41
0.003000
  0
VERTEX
  8
PLAN_1
 62
     5
  6
CONTINUOUS
 10
-0.291189
 20
-0.281547
  0
VERTEX
  8
PLAN_1
 62
     5
  6
CONTINUOUS
 10
-0.291189
 20
-0.290000
  0
SEQEND
  8
0
  0
POLYLINE
  8
PLAN_1
 62
     5
  6
CONTINUOUS
 66
     1
 40
0.003000
 41
0.003000
  0
VERTEX
  8
PLAN_1
 62
     5
  6
CONTINUOUS
 10
-0.291189
 20
-0.297957
  0
VERTEX
  8
PLAN_1
 62
     5
  6
CONTINUOUS
 10
-0.291189
 20
-0.306413
  0
SEQEND
  8
0
  0
POLYLINE
  8
PLAN_1
 62
     5
  6
CONTINUOUS
 66
     1
 40
0.003000
 41
0.003000
  0
VERTEX
  8
PLAN_1
 62
     5
  6
CONTINUOUS
 10
-0.291189
 20
-0.314866
  0
VERTEX
  8
PLAN_1
 62
     5
  6
CONTINUOUS
 10
-0.291189
 20
-0.323323
  0
SEQEND
  8
0
  0
POLYLINE
  8
PLAN_1
 62
     5
  6
CONTINUOUS
 66
     1
 40
0.003000
 41
0.003000
  0
VERTEX
  8
PLAN_1
 62
     5
  6
CONTINUOUS
 10
-0.291189
 20
-0.331280
  0
VERTEX
  8
PLAN_1
 62
     5
  6
CONTINUOUS
 10
-0.291189
 20
-0.339732
  0
SEQEND
  8
0
  0
POLYLINE
  8
PLAN_1
 62
     5
  6
CONTINUOUS
 66
     1
 40
0.003000
 41
0.003000
  0
VERTEX
  8
PLAN_1
 62
     5
  6
CONTINUOUS
 10
-0.291189
 20
-0.348189
  0
VERTEX
  8
PLAN_1
 62
     5
  6
CONTINUOUS
 10
-0.291189
 20
-0.356642
  0
SEQEND
  8
0
  0
POLYLINE
  8
PLAN_1
 62
     5
  6
CONTINUOUS
 66
     1
 40
0.003000
 41
0.003000
  0
VERTEX
  8
PLAN_1
 62
     5
  6
CONTINUOUS
 10
-0.291189
 20
-0.364598
  0
VERTEX
  8
PLAN_1
 62
     5
  6
CONTINUOUS
 10
-0.291189
 20
-0.373055
  0
SEQEND
  8
0
  0
POLYLINE
  8
PLAN_1
 62
     5
  6
CONTINUOUS
 66
     1
 40
0.003000
 41
0.003000
  0
VERTEX
  8
PLAN_1
 62
     5
  6
CONTINUOUS
 10
-0.291189
 20
-0.381508
  0
VERTEX
  8
PLAN_1
 62
     5
  6
CONTINUOUS
 10
-0.291189
 20
-0.389465
  0
SEQEND
  8
0
  0
POLYLINE
  8
PLAN_1
 62
     5
  6
CONTINUOUS
 66
     1
 40
0.003000
 41
0.003000
  0
VERTEX
  8
PLAN_1
 62
     5
  6
CONTINUOUS
 10
-0.291189
 20
-0.397921
  0
VERTEX
  8
PLAN_1
 62
     5
  6
CONTINUOUS
 10
-0.291189
 20
-0.406374
  0
SEQEND
  8
0
  0
POLYLINE
  8
PLAN_1
 62
     5
  6
CONTINUOUS
 66
     1
 40
0.003000
 41
0.003000
  0
VERTEX
  8
PLAN_1
 62
     5
  6
CONTINUOUS
 10
-0.291189
 20
-0.414827
  0
VERTEX
  8
PLAN_1
 62
     5
  6
CONTINUOUS
 10
-0.291189
 20
-0.422787
  0
SEQEND
  8
0
  0
POLYLINE
  8
PLAN_1
 62
     5
  6
CONTINUOUS
 66
     1
 40
0.003000
 41
0.003000
  0
VERTEX
  8
PLAN_1
 62
     5
  6
CONTINUOUS
 10
-0.291189
 20
-0.431240
  0
VERTEX
  8
PLAN_1
 62
     5
  6
CONTINUOUS
 10
-0.291189
 20
-0.439693
  0
SEQEND
  8
0
  0
POLYLINE
  8
PLAN_1
 62
     5
  6
CONTINUOUS
 66
     1
 40
0.003000
 41
0.003000
  0
VERTEX
  8
PLAN_1
 62
     5
  6
CONTINUOUS
 10
-0.291189
 20
-0.448150
  0
VERTEX
  8
PLAN_1
 62
     5
  6
CONTINUOUS
 10
-0.291189
 20
-0.456106
  0
SEQEND
  8
0
  0
POLYLINE
  8
PLAN_1
 62
     5
  6
CONTINUOUS
 66
     1
 40
0.003000
 41
0.003000
  0
VERTEX
  8
PLAN_1
 62
     5
  6
CONTINUOUS
 10
-0.291189
 20
-0.464559
  0
VERTEX
  8
PLAN_1
 62
     5
  6
CONTINUOUS
 10
-0.291189
 20
-0.473016
  0
SEQEND
  8
0
  0
POLYLINE
  8
PLAN_1
 62
     5
  6
CONTINUOUS
 66
     1
 40
0.003000
 41
0.003000
  0
VERTEX
  8
PLAN_1
 62
     5
  6
CONTINUOUS
 10
-0.291189
 20
-0.481469
  0
VERTEX
  8
PLAN_1
 62
     5
  6
CONTINUOUS
 10
-0.291189
 20
-0.489425
  0
SEQEND
  8
0
  0
POLYLINE
  8
PLAN_1
 62
     5
  6
CONTINUOUS
 66
     1
 40
0.003000
 41
0.003000
  0
VERTEX
  8
PLAN_1
 62
     5
  6
CONTINUOUS
 10
-0.291189
 20
-0.497882
  0
VERTEX
  8
PLAN_1
 62
     5
  6
CONTINUOUS
 10
-0.291189
 20
-0.506335
  0
SEQEND
  8
0
  0
POLYLINE
  8
PLAN_1
 62
     5
  6
CONTINUOUS
 66
     1
 40
0.003000
 41
0.003000
  0
VERTEX
  8
PLAN_1
 62
     5
  6
CONTINUOUS
 10
-0.291189
 20
-0.514791
  0
VERTEX
  8
PLAN_1
 62
     5
  6
CONTINUOUS
 10
-0.291189
 20
-0.522748
  0
SEQEND
  8
0
  0
POLYLINE
  8
PLAN_1
 62
     5
  6
CONTINUOUS
 66
     1
 40
0.003000
 41
0.003000
  0
VERTEX
  8
PLAN_1
 62
     5
  6
CONTINUOUS
 10
-0.291189
 20
-0.531201
  0
VERTEX
  8
PLAN_1
 62
     5
  6
CONTINUOUS
 10
-0.291189
 20
-0.539657
  0
SEQEND
  8
0
  0
POLYLINE
  8
PLAN_1
 62
     5
  6
CONTINUOUS
 66
     1
 40
0.003000
 41
0.003000
  0
VERTEX
  8
PLAN_1
 62
     5
  6
CONTINUOUS
 10
-0.291189
 20
-0.548110
  0
VERTEX
  8
PLAN_1
 62
     5
  6
CONTINUOUS
 10
-0.291189
 20
-0.556067
  0
SEQEND
  8
0
  0
POLYLINE
  8
PLAN_1
 62
     5
  6
CONTINUOUS
 66
     1
 40
0.003000
 41
0.003000
  0
VERTEX
  8
PLAN_1
 62
     5
  6
CONTINUOUS
 10
-0.291189
 20
-0.564524
  0
VERTEX
  8
PLAN_1
 62
     5
  6
CONTINUOUS
 10
-0.291189
 20
-0.572976
  0
SEQEND
  8
0
  0
POLYLINE
  8
PLAN_1
 62
     5
  6
CONTINUOUS
 66
     1
 40
0.003000
 41
0.003000
  0
VERTEX
  8
PLAN_1
 62
     5
  6
CONTINUOUS
 10
-0.669154
 20
-0.001055
  0
VERTEX
  8
PLAN_1
 62
     5
  6
CONTINUOUS
 10
-0.660697
 20
-0.001055
  0
SEQEND
  8
0
  0
POLYLINE
  8
PLAN_1
 62
     5
  6
CONTINUOUS
 66
     1
 40
0.003000
 41
0.003000
  0
VERTEX
  8
PLAN_1
 62
     5
  6
CONTINUOUS
 10
-0.652244
 20
-0.001055
  0
VERTEX
  8
PLAN_1
 62
     5
  6
CONTINUOUS
 10
-0.643787
 20
-0.001055
  0
SEQEND
  8
0
  0
POLYLINE
  8
PLAN_1
 62
     5
  6
CONTINUOUS
 66
     1
 40
0.003000
 41
0.003000
  0
VERTEX
  8
PLAN_1
 62
     5
  6
CONTINUOUS
 10
-0.635831
 20
-0.001055
  0
VERTEX
  8
PLAN_1
 62
     5
  6
CONTINUOUS
 10
-0.627378
 20
-0.001055
  0
SEQEND
  8
0
  0
POLYLINE
  8
PLAN_1
 62
     5
  6
CONTINUOUS
 66
     1
 40
0.003000
 41
0.003000
  0
VERTEX
  8
PLAN_1
 62
     5
  6
CONTINUOUS
 10
-0.618921
 20
-0.001055
  0
VERTEX
  8
PLAN_1
 62
     5
  6
CONTINUOUS
 10
-0.610469
 20
-0.001055
  0
SEQEND
  8
0
  0
POLYLINE
  8
PLAN_1
 62
     5
  6
CONTINUOUS
 66
     1
 40
0.003000
 41
0.003000
  0
VERTEX
  8
PLAN_1
 62
     5
  6
CONTINUOUS
 10
-0.602512
 20
-0.001055
  0
VERTEX
  8
PLAN_1
 62
     5
  6
CONTINUOUS
 10
-0.594055
 20
-0.001055
  0
SEQEND
  8
0
  0
POLYLINE
  8
PLAN_1
 62
     5
  6
CONTINUOUS
 66
     1
 40
0.003000
 41
0.003000
  0
VERTEX
  8
PLAN_1
 62
     5
  6
CONTINUOUS
 10
-0.585602
 20
-0.001055
  0
VERTEX
  8
PLAN_1
 62
     5
  6
CONTINUOUS
 10
-0.577146
 20
-0.001055
  0
SEQEND
  8
0
  0
POLYLINE
  8
PLAN_1
 62
     5
  6
CONTINUOUS
 66
     1
 40
0.003000
 41
0.003000
  0
VERTEX
  8
PLAN_1
 62
     5
  6
CONTINUOUS
 10
-0.569189
 20
-0.001055
  0
VERTEX
  8
PLAN_1
 62
     5
  6
CONTINUOUS
 10
-0.560736
 20
-0.001055
  0
SEQEND
  8
0
  0
POLYLINE
  8
PLAN_1
 62
     5
  6
CONTINUOUS
 66
     1
 40
0.003000
 41
0.003000
  0
VERTEX
  8
PLAN_1
 62
     5
  6
CONTINUOUS
 10
-0.552280
 20
-0.001055
  0
VERTEX
  8
PLAN_1
 62
     5
  6
CONTINUOUS
 10
-0.543827
 20
-0.001055
  0
SEQEND
  8
0
  0
POLYLINE
  8
PLAN_1
 62
     5
  6
CONTINUOUS
 66
     1
 40
0.003000
 41
0.003000
  0
VERTEX
  8
PLAN_1
 62
     5
  6
CONTINUOUS
 10
-0.535870
 20
-0.001055
  0
VERTEX
  8
PLAN_1
 62
     5
  6
CONTINUOUS
 10
-0.527413
 20
-0.001055
  0
SEQEND
  8
0
  0
POLYLINE
  8
PLAN_1
 62
     5
  6
CONTINUOUS
 66
     1
 40
0.003000
 41
0.003000
  0
VERTEX
  8
PLAN_1
 62
     5
  6
CONTINUOUS
 10
-0.518961
 20
-0.001055
  0
VERTEX
  8
PLAN_1
 62
     5
  6
CONTINUOUS
 10
-0.510508
 20
-0.001055
  0
SEQEND
  8
0
  0
POLYLINE
  8
PLAN_1
 62
     5
  6
CONTINUOUS
 66
     1
 40
0.003000
 41
0.003000
  0
VERTEX
  8
PLAN_1
 62
     5
  6
CONTINUOUS
 10
-0.502547
 20
-0.001055
  0
VERTEX
  8
PLAN_1
 62
     5
  6
CONTINUOUS
 10
-0.494094
 20
-0.001055
  0
SEQEND
  8
0
  0
POLYLINE
  8
PLAN_1
 62
     5
  6
CONTINUOUS
 66
     1
 40
0.003000
 41
0.003000
  0
VERTEX
  8
PLAN_1
 62
     5
  6
CONTINUOUS
 10
-0.485642
 20
-0.001055
  0
VERTEX
  8
PLAN_1
 62
     5
  6
CONTINUOUS
 10
-0.477185
 20
-0.001055
  0
SEQEND
  8
0
  0
POLYLINE
  8
PLAN_1
 62
     5
  6
CONTINUOUS
 66
     1
 40
0.003000
 41
0.003000
  0
VERTEX
  8
PLAN_1
 62
     5
  6
CONTINUOUS
 10
-0.469228
 20
-0.001055
  0
VERTEX
  8
PLAN_1
 62
     5
  6
CONTINUOUS
 10
-0.460776
 20
-0.001055
  0
SEQEND
  8
0
  0
POLYLINE
  8
PLAN_1
 62
     5
  6
CONTINUOUS
 66
     1
 40
0.003000
 41
0.003000
  0
VERTEX
  8
PLAN_1
 62
     5
  6
CONTINUOUS
 10
-0.452319
 20
-0.001055
  0
VERTEX
  8
PLAN_1
 62
     5
  6
CONTINUOUS
 10
-0.443866
 20
-0.001055
  0
SEQEND
  8
0
  0
POLYLINE
  8
PLAN_1
 62
     5
  6
CONTINUOUS
 66
     1
 40
0.003000
 41
0.003000
  0
VERTEX
  8
PLAN_1
 62
     5
  6
CONTINUOUS
 10
-0.435909
 20
-0.001055
  0
VERTEX
  8
PLAN_1
 62
     5
  6
CONTINUOUS
 10
-0.427453
 20
-0.001055
  0
SEQEND
  8
0
  0
POLYLINE
  8
PLAN_1
 62
     5
  6
CONTINUOUS
 66
     1
 40
0.003000
 41
0.003000
  0
VERTEX
  8
PLAN_1
 62
     5
  6
CONTINUOUS
 10
-0.419000
 20
-0.001055
  0
VERTEX
  8
PLAN_1
 62
     5
  6
CONTINUOUS
 10
-0.410543
 20
-0.001055
  0
SEQEND
  8
0
  0
POLYLINE
  8
PLAN_1
 62
     5
  6
CONTINUOUS
 66
     1
 40
0.003000
 41
0.003000
  0
VERTEX
  8
PLAN_1
 62
     5
  6
CONTINUOUS
 10
-0.402587
 20
-0.001055
  0
VERTEX
  8
PLAN_1
 62
     5
  6
CONTINUOUS
 10
-0.394134
 20
-0.001055
  0
SEQEND
  8
0
  0
POLYLINE
  8
PLAN_1
 62
     5
  6
CONTINUOUS
 66
     1
 40
0.003000
 41
0.003000
  0
VERTEX
  8
PLAN_1
 62
     5
  6
CONTINUOUS
 10
-0.385677
 20
-0.001055
  0
VERTEX
  8
PLAN_1
 62
     5
  6
CONTINUOUS
 10
-0.377720
 20
-0.001055
  0
SEQEND
  8
0
  0
POLYLINE
  8
PLAN_1
 62
     5
  6
CONTINUOUS
 66
     1
 40
0.003000
 41
0.003000
  0
VERTEX
  8
PLAN_1
 62
     5
  6
CONTINUOUS
 10
-0.369268
 20
-0.001055
  0
VERTEX
  8
PLAN_1
 62
     5
  6
CONTINUOUS
 10
-0.360811
 20
-0.001055
  0
SEQEND
  8
0
  0
POLYLINE
  8
PLAN_1
 62
     5
  6
CONTINUOUS
 66
     1
 40
0.003000
 41
0.003000
  0
VERTEX
  8
PLAN_1
 62
     5
  6
CONTINUOUS
 10
-0.352358
 20
-0.001055
  0
VERTEX
  8
PLAN_1
 62
     5
  6
CONTINUOUS
 10
-0.344402
 20
-0.001055
  0
SEQEND
  8
0
  0
POLYLINE
  8
PLAN_1
 62
     5
  6
CONTINUOUS
 66
     1
 40
0.003000
 41
0.003000
  0
VERTEX
  8
PLAN_1
 62
     5
  6
CONTINUOUS
 10
-0.335945
 20
-0.001055
  0
VERTEX
  8
PLAN_1
 62
     5
  6
CONTINUOUS
 10
-0.327492
 20
-0.001055
  0
SEQEND
  8
0
  0
POLYLINE
  8
PLAN_1
 62
     5
  6
CONTINUOUS
 66
     1
 40
0.003000
 41
0.003000
  0
VERTEX
  8
PLAN_1
 62
     5
  6
CONTINUOUS
 10
-0.319035
 20
-0.001055
  0
VERTEX
  8
PLAN_1
 62
     5
  6
CONTINUOUS
 10
-0.311079
 20
-0.001055
  0
SEQEND
  8
0
  0
POLYLINE
  8
PLAN_1
 62
     5
  6
CONTINUOUS
 66
     1
 40
0.003000
 41
0.003000
  0
VERTEX
  8
PLAN_1
 62
     5
  6
CONTINUOUS
 10
-0.302626
 20
-0.001055
  0
VERTEX
  8
PLAN_1
 62
     5
  6
CONTINUOUS
 10
-0.298150
 20
-0.001055
  0
SEQEND
  8
0
  0
POLYLINE
  8
PLAN_1
 62
     5
  6
CONTINUOUS
 66
     1
 40
0.003000
 41
0.003000
  0
VERTEX
  8
PLAN_1
 62
     5
  6
CONTINUOUS
 10
-0.302626
 20
-0.001055
  0
VERTEX
  8
PLAN_1
 62
     5
  6
CONTINUOUS
 10
-0.298150
 20
-0.001055
  0
SEQEND
  8
0
  0
POLYLINE
  8
PLAN_1
 62
     5
  6
CONTINUOUS
 66
     1
 40
0.003000
 41
0.003000
  0
VERTEX
  8
PLAN_1
 62
     5
  6
CONTINUOUS
 10
-0.509512
 20
-0.153236
  0
VERTEX
  8
PLAN_1
 62
     5
  6
CONTINUOUS
 10
-0.509512
 20
-0.144783
  0
SEQEND
  8
0
  0
POLYLINE
  8
PLAN_1
 62
     5
  6
CONTINUOUS
 66
     1
 40
0.003000
 41
0.003000
  0
VERTEX
  8
PLAN_1
 62
     5
  6
CONTINUOUS
 10
-0.509512
 20
-0.136827
  0
VERTEX
  8
PLAN_1
 62
     5
  6
CONTINUOUS
 10
-0.509512
 20
-0.128370
  0
SEQEND
  8
0
  0
POLYLINE
  8
PLAN_1
 62
     5
  6
CONTINUOUS
 66
     1
 40
0.003000
 41
0.003000
  0
VERTEX
  8
PLAN_1
 62
     5
  6
CONTINUOUS
 10
-0.509512
 20
-0.119917
  0
VERTEX
  8
PLAN_1
 62
     5
  6
CONTINUOUS
 10
-0.509512
 20
-0.111461
  0
SEQEND
  8
0
  0
POLYLINE
  8
PLAN_1
 62
     5
  6
CONTINUOUS
 66
     1
 40
0.003000
 41
0.003000
  0
VERTEX
  8
PLAN_1
 62
     5
  6
CONTINUOUS
 10
-0.509512
 20
-0.103504
  0
VERTEX
  8
PLAN_1
 62
     5
  6
CONTINUOUS
 10
-0.509512
 20
-0.095051
  0
SEQEND
  8
0
  0
POLYLINE
  8
PLAN_1
 62
     5
  6
CONTINUOUS
 66
     1
 40
0.003000
 41
0.003000
  0
VERTEX
  8
PLAN_1
 62
     5
  6
CONTINUOUS
 10
-0.509512
 20
-0.086594
  0
VERTEX
  8
PLAN_1
 62
     5
  6
CONTINUOUS
 10
-0.509512
 20
-0.078142
  0
SEQEND
  8
0
  0
POLYLINE
  8
PLAN_1
 62
     5
  6
CONTINUOUS
 66
     1
 40
0.003000
 41
0.003000
  0
VERTEX
  8
PLAN_1
 62
     5
  6
CONTINUOUS
 10
-0.509512
 20
-0.070185
  0
VERTEX
  8
PLAN_1
 62
     5
  6
CONTINUOUS
 10
-0.509512
 20
-0.061728
  0
SEQEND
  8
0
  0
POLYLINE
  8
PLAN_1
 62
     5
  6
CONTINUOUS
 66
     1
 40
0.003000
 41
0.003000
  0
VERTEX
  8
PLAN_1
 62
     5
  6
CONTINUOUS
 10
-0.509512
 20
-0.053276
  0
VERTEX
  8
PLAN_1
 62
     5
  6
CONTINUOUS
 10
-0.509512
 20
-0.044823
  0
SEQEND
  8
0
  0
POLYLINE
  8
PLAN_1
 62
     5
  6
CONTINUOUS
 66
     1
 40
0.003000
 41
0.003000
  0
VERTEX
  8
PLAN_1
 62
     5
  6
CONTINUOUS
 10
-0.509512
 20
-0.036862
  0
VERTEX
  8
PLAN_1
 62
     5
  6
CONTINUOUS
 10
-0.509512
 20
-0.028409
  0
SEQEND
  8
0
  0
POLYLINE
  8
PLAN_1
 62
     5
  6
CONTINUOUS
 66
     1
 40
0.003000
 41
0.003000
  0
VERTEX
  8
PLAN_1
 62
     5
  6
CONTINUOUS
 10
-0.509512
 20
-0.019957
  0
VERTEX
  8
PLAN_1
 62
     5
  6
CONTINUOUS
 10
-0.509512
 20
-0.011500
  0
SEQEND
  8
0
  0
POLYLINE
  8
PLAN_1
 62
     5
  6
CONTINUOUS
 66
     1
 40
0.003000
 41
0.003000
  0
VERTEX
  8
PLAN_1
 62
     5
  6
CONTINUOUS
 10
-0.509512
 20
-0.003543
  0
VERTEX
  8
PLAN_1
 62
     5
  6
CONTINUOUS
 10
-0.509512
 20
0.004909
  0
SEQEND
  8
0
  0
POLYLINE
  8
PLAN_1
 62
     5
  6
CONTINUOUS
 66
     1
 40
0.003000
 41
0.003000
  0
VERTEX
  8
PLAN_1
 62
     5
  6
CONTINUOUS
 10
-0.509512
 20
0.013366
  0
VERTEX
  8
PLAN_1
 62
     5
  6
CONTINUOUS
 10
-0.509512
 20
0.021819
  0
SEQEND
  8
0
  0
POLYLINE
  8
PLAN_1
 62
     5
  6
CONTINUOUS
 66
     1
 40
0.003000
 41
0.003000
  0
VERTEX
  8
PLAN_1
 62
     5
  6
CONTINUOUS
 10
-0.509512
 20
0.029776
  0
VERTEX
  8
PLAN_1
 62
     5
  6
CONTINUOUS
 10
-0.509512
 20
0.038232
  0
SEQEND
  8
0
  0
POLYLINE
  8
PLAN_1
 62
     5
  6
CONTINUOUS
 66
     1
 40
0.003000
 41
0.003000
  0
VERTEX
  8
PLAN_1
 62
     5
  6
CONTINUOUS
 10
-0.509512
 20
0.046685
  0
VERTEX
  8
PLAN_1
 62
     5
  6
CONTINUOUS
 10
-0.509512
 20
0.055142
  0
SEQEND
  8
0
  0
POLYLINE
  8
PLAN_1
 62
     5
  6
CONTINUOUS
 66
     1
 40
0.003000
 41
0.003000
  0
VERTEX
  8
PLAN_1
 62
     5
  6
CONTINUOUS
 10
-0.509512
 20
0.063098
  0
VERTEX
  8
PLAN_1
 62
     5
  6
CONTINUOUS
 10
-0.509512
 20
0.071551
  0
SEQEND
  8
0
  0
POLYLINE
  8
PLAN_1
 62
     5
  6
CONTINUOUS
 66
     1
 40
0.003000
 41
0.003000
  0
VERTEX
  8
PLAN_1
 62
     5
  6
CONTINUOUS
 10
-0.509512
 20
0.080008
  0
VERTEX
  8
PLAN_1
 62
     5
  6
CONTINUOUS
 10
-0.509512
 20
0.087965
  0
SEQEND
  8
0
  0
POLYLINE
  8
PLAN_1
 62
     5
  6
CONTINUOUS
 66
     1
 40
0.003000
 41
0.003000
  0
VERTEX
  8
PLAN_1
 62
     5
  6
CONTINUOUS
 10
-0.509512
 20
0.096417
  0
VERTEX
  8
PLAN_1
 62
     5
  6
CONTINUOUS
 10
-0.509512
 20
0.104874
  0
SEQEND
  8
0
  0
POLYLINE
  8
PLAN_1
 62
     5
  6
CONTINUOUS
 66
     1
 40
0.003000
 41
0.003000
  0
VERTEX
  8
PLAN_1
 62
     5
  6
CONTINUOUS
 10
-0.509512
 20
0.113327
  0
VERTEX
  8
PLAN_1
 62
     5
  6
CONTINUOUS
 10
-0.509512
 20
0.121283
  0
SEQEND
  8
0
  0
POLYLINE
  8
PLAN_1
 62
     5
  6
CONTINUOUS
 66
     1
 40
0.003000
 41
0.003000
  0
VERTEX
  8
PLAN_1
 62
     5
  6
CONTINUOUS
 10
-0.509512
 20
0.129740
  0
VERTEX
  8
PLAN_1
 62
     5
  6
CONTINUOUS
 10
-0.509512
 20
0.138193
  0
SEQEND
  8
0
  0
POLYLINE
  8
PLAN_1
 62
     5
  6
CONTINUOUS
 66
     1
 40
0.003000
 41
0.003000
  0
VERTEX
  8
PLAN_1
 62
     5
  6
CONTINUOUS
 10
-0.509512
 20
0.146650
  0
VERTEX
  8
PLAN_1
 62
     5
  6
CONTINUOUS
 10
-0.509512
 20
0.154606
  0
SEQEND
  8
0
  0
POLYLINE
  8
PLAN_1
 62
     5
  6
CONTINUOUS
 66
     1
 40
0.003000
 41
0.003000
  0
VERTEX
  8
PLAN_1
 62
     5
  6
CONTINUOUS
 10
-2.131280
 20
-0.001555
  0
VERTEX
  8
PLAN_1
 62
     5
  6
CONTINUOUS
 10
-2.122823
 20
-0.001555
  0
SEQEND
  8
0
  0
POLYLINE
  8
PLAN_1
 62
     5
  6
CONTINUOUS
 66
     1
 40
0.003000
 41
0.003000
  0
VERTEX
  8
PLAN_1
 62
     5
  6
CONTINUOUS
 10
-2.114866
 20
-0.001555
  0
VERTEX
  8
PLAN_1
 62
     5
  6
CONTINUOUS
 10
-2.106413
 20
-0.001555
  0
SEQEND
  8
0
  0
POLYLINE
  8
PLAN_1
 62
     5
  6
CONTINUOUS
 66
     1
 40
0.003000
 41
0.003000
  0
VERTEX
  8
PLAN_1
 62
     5
  6
CONTINUOUS
 10
-2.097957
 20
-0.001555
  0
VERTEX
  8
PLAN_1
 62
     5
  6
CONTINUOUS
 10
-2.089504
 20
-0.001555
  0
SEQEND
  8
0
  0
POLYLINE
  8
PLAN_1
 62
     5
  6
CONTINUOUS
 66
     1
 40
0.003000
 41
0.003000
  0
VERTEX
  8
PLAN_1
 62
     5
  6
CONTINUOUS
 10
-2.081547
 20
-0.001555
  0
VERTEX
  8
PLAN_1
 62
     5
  6
CONTINUOUS
 10
-2.073091
 20
-0.001555
  0
SEQEND
  8
0
  0
POLYLINE
  8
PLAN_1
 62
     5
  6
CONTINUOUS
 66
     1
 40
0.003000
 41
0.003000
  0
VERTEX
  8
PLAN_1
 62
     5
  6
CONTINUOUS
 10
-2.064638
 20
-0.001555
  0
VERTEX
  8
PLAN_1
 62
     5
  6
CONTINUOUS
 10
-2.056181
 20
-0.001555
  0
SEQEND
  8
0
  0
POLYLINE
  8
PLAN_1
 62
     5
  6
CONTINUOUS
 66
     1
 40
0.003000
 41
0.003000
  0
VERTEX
  8
PLAN_1
 62
     5
  6
CONTINUOUS
 10
-2.048224
 20
-0.001555
  0
VERTEX
  8
PLAN_1
 62
     5
  6
CONTINUOUS
 10
-2.039772
 20
-0.001555
  0
SEQEND
  8
0
  0
POLYLINE
  8
PLAN_1
 62
     5
  6
CONTINUOUS
 66
     1
 40
0.003000
 41
0.003000
  0
VERTEX
  8
PLAN_1
 62
     5
  6
CONTINUOUS
 10
-2.031315
 20
-0.001555
  0
VERTEX
  8
PLAN_1
 62
     5
  6
CONTINUOUS
 10
-2.022862
 20
-0.001555
  0
SEQEND
  8
0
  0
POLYLINE
  8
PLAN_1
 62
     5
  6
CONTINUOUS
 66
     1
 40
0.003000
 41
0.003000
  0
VERTEX
  8
PLAN_1
 62
     5
  6
CONTINUOUS
 10
-2.014906
 20
-0.001555
  0
VERTEX
  8
PLAN_1
 62
     5
  6
CONTINUOUS
 10
-2.006449
 20
-0.001555
  0
SEQEND
  8
0
  0
POLYLINE
  8
PLAN_1
 62
     5
  6
CONTINUOUS
 66
     1
 40
0.003000
 41
0.003000
  0
VERTEX
  8
PLAN_1
 62
     5
  6
CONTINUOUS
 10
-1.997996
 20
-0.001555
  0
VERTEX
  8
PLAN_1
 62
     5
  6
CONTINUOUS
 10
-1.989543
 20
-0.001555
  0
SEQEND
  8
0
  0
POLYLINE
  8
PLAN_1
 62
     5
  6
CONTINUOUS
 66
     1
 40
0.003000
 41
0.003000
  0
VERTEX
  8
PLAN_1
 62
     5
  6
CONTINUOUS
 10
-1.981583
 20
-0.001555
  0
VERTEX
  8
PLAN_1
 62
     5
  6
CONTINUOUS
 10
-1.973130
 20
-0.001555
  0
SEQEND
  8
0
  0
POLYLINE
  8
PLAN_1
 62
     5
  6
CONTINUOUS
 66
     1
 40
0.003000
 41
0.003000
  0
VERTEX
  8
PLAN_1
 62
     5
  6
CONTINUOUS
 10
-1.964677
 20
-0.001555
  0
VERTEX
  8
PLAN_1
 62
     5
  6
CONTINUOUS
 10
-1.956720
 20
-0.001555
  0
SEQEND
  8
0
  0
POLYLINE
  8
PLAN_1
 62
     5
  6
CONTINUOUS
 66
     1
 40
0.003000
 41
0.003000
  0
VERTEX
  8
PLAN_1
 62
     5
  6
CONTINUOUS
 10
-1.948264
 20
-0.001555
  0
VERTEX
  8
PLAN_1
 62
     5
  6
CONTINUOUS
 10
-1.939811
 20
-0.001555
  0
SEQEND
  8
0
  0
POLYLINE
  8
PLAN_1
 62
     5
  6
CONTINUOUS
 66
     1
 40
0.003000
 41
0.003000
  0
VERTEX
  8
PLAN_1
 62
     5
  6
CONTINUOUS
 10
-1.931354
 20
-0.001555
  0
VERTEX
  8
PLAN_1
 62
     5
  6
CONTINUOUS
 10
-1.923398
 20
-0.001555
  0
SEQEND
  8
0
  0
POLYLINE
  8
PLAN_1
 62
     5
  6
CONTINUOUS
 66
     1
 40
0.003000
 41
0.003000
  0
VERTEX
  8
PLAN_1
 62
     5
  6
CONTINUOUS
 10
-1.914945
 20
-0.001555
  0
VERTEX
  8
PLAN_1
 62
     5
  6
CONTINUOUS
 10
-1.906488
 20
-0.001555
  0
SEQEND
  8
0
  0
POLYLINE
  8
PLAN_1
 62
     5
  6
CONTINUOUS
 66
     1
 40
0.003000
 41
0.003000
  0
VERTEX
  8
PLAN_1
 62
     5
  6
CONTINUOUS
 10
-1.898035
 20
-0.001555
  0
VERTEX
  8
PLAN_1
 62
     5
  6
CONTINUOUS
 10
-1.890079
 20
-0.001555
  0
SEQEND
  8
0
  0
POLYLINE
  8
PLAN_1
 62
     5
  6
CONTINUOUS
 66
     1
 40
0.003000
 41
0.003000
  0
VERTEX
  8
PLAN_1
 62
     5
  6
CONTINUOUS
 10
-1.881622
 20
-0.001555
  0
VERTEX
  8
PLAN_1
 62
     5
  6
CONTINUOUS
 10
-1.873169
 20
-0.001555
  0
SEQEND
  8
0
  0
POLYLINE
  8
PLAN_1
 62
     5
  6
CONTINUOUS
 66
     1
 40
0.003000
 41
0.003000
  0
VERTEX
  8
PLAN_1
 62
     5
  6
CONTINUOUS
 10
-1.864713
 20
-0.001555
  0
VERTEX
  8
PLAN_1
 62
     5
  6
CONTINUOUS
 10
-1.856756
 20
-0.001555
  0
SEQEND
  8
0
  0
POLYLINE
  8
PLAN_1
 62
     5
  6
CONTINUOUS
 66
     1
 40
0.003000
 41
0.003000
  0
VERTEX
  8
PLAN_1
 62
     5
  6
CONTINUOUS
 10
-1.848303
 20
-0.001555
  0
VERTEX
  8
PLAN_1
 62
     5
  6
CONTINUOUS
 10
-1.839846
 20
-0.001555
  0
SEQEND
  8
0
  0
POLYLINE
  8
PLAN_1
 62
     5
  6
CONTINUOUS
 66
     1
 40
0.003000
 41
0.003000
  0
VERTEX
  8
PLAN_1
 62
     5
  6
CONTINUOUS
 10
-1.831394
 20
-0.001555
  0
VERTEX
  8
PLAN_1
 62
     5
  6
CONTINUOUS
 10
-1.823437
 20
-0.001555
  0
SEQEND
  8
0
  0
POLYLINE
  8
PLAN_1
 62
     5
  6
CONTINUOUS
 66
     1
 40
0.003000
 41
0.003000
  0
VERTEX
  8
PLAN_1
 62
     5
  6
CONTINUOUS
 10
-1.814980
 20
-0.001555
  0
VERTEX
  8
PLAN_1
 62
     5
  6
CONTINUOUS
 10
-1.807024
 20
-0.001555
  0
SEQEND
  8
0
  0
POLYLINE
  8
PLAN_1
 62
     5
  6
CONTINUOUS
 66
     1
 40
0.003000
 41
0.003000
  0
VERTEX
  8
PLAN_1
 62
     5
  6
CONTINUOUS
 10
-1.814980
 20
-0.001555
  0
VERTEX
  8
PLAN_1
 62
     5
  6
CONTINUOUS
 10
-1.807024
 20
-0.001555
  0
SEQEND
  8
0
  0
POLYLINE
  8
PLAN_1
 62
     5
  6
CONTINUOUS
 66
     1
 40
0.003000
 41
0.003000
  0
VERTEX
  8
PLAN_1
 62
     5
  6
CONTINUOUS
 10
-1.972134
 20
-0.170642
  0
VERTEX
  8
PLAN_1
 62
     5
  6
CONTINUOUS
 10
-1.972134
 20
-0.162189
  0
SEQEND
  8
0
  0
POLYLINE
  8
PLAN_1
 62
     5
  6
CONTINUOUS
 66
     1
 40
0.003000
 41
0.003000
  0
VERTEX
  8
PLAN_1
 62
     5
  6
CONTINUOUS
 10
-1.972134
 20
-0.153736
  0
VERTEX
  8
PLAN_1
 62
     5
  6
CONTINUOUS
 10
-1.972134
 20
-0.145280
  0
SEQEND
  8
0
  0
POLYLINE
  8
PLAN_1
 62
     5
  6
CONTINUOUS
 66
     1
 40
0.003000
 41
0.003000
  0
VERTEX
  8
PLAN_1
 62
     5
  6
CONTINUOUS
 10
-1.972134
 20
-0.137323
  0
VERTEX
  8
PLAN_1
 62
     5
  6
CONTINUOUS
 10
-1.972134
 20
-0.128870
  0
SEQEND
  8
0
  0
POLYLINE
  8
PLAN_1
 62
     5
  6
CONTINUOUS
 66
     1
 40
0.003000
 41
0.003000
  0
VERTEX
  8
PLAN_1
 62
     5
  6
CONTINUOUS
 10
-1.972134
 20
-0.120413
  0
VERTEX
  8
PLAN_1
 62
     5
  6
CONTINUOUS
 10
-1.972134
 20
-0.111961
  0
SEQEND
  8
0
  0
POLYLINE
  8
PLAN_1
 62
     5
  6
CONTINUOUS
 66
     1
 40
0.003000
 41
0.003000
  0
VERTEX
  8
PLAN_1
 62
     5
  6
CONTINUOUS
 10
-1.972134
 20
-0.104004
  0
VERTEX
  8
PLAN_1
 62
     5
  6
CONTINUOUS
 10
-1.972134
 20
-0.095547
  0
SEQEND
  8
0
  0
POLYLINE
  8
PLAN_1
 62
     5
  6
CONTINUOUS
 66
     1
 40
0.003000
 41
0.003000
  0
VERTEX
  8
PLAN_1
 62
     5
  6
CONTINUOUS
 10
-1.972134
 20
-0.087094
  0
VERTEX
  8
PLAN_1
 62
     5
  6
CONTINUOUS
 10
-1.972134
 20
-0.079138
  0
SEQEND
  8
0
  0
POLYLINE
  8
PLAN_1
 62
     5
  6
CONTINUOUS
 66
     1
 40
0.003000
 41
0.003000
  0
VERTEX
  8
PLAN_1
 62
     5
  6
CONTINUOUS
 10
-1.972134
 20
-0.070681
  0
VERTEX
  8
PLAN_1
 62
     5
  6
CONTINUOUS
 10
-1.972134
 20
-0.062228
  0
SEQEND
  8
0
  0
POLYLINE
  8
PLAN_1
 62
     5
  6
CONTINUOUS
 66
     1
 40
0.003000
 41
0.003000
  0
VERTEX
  8
PLAN_1
 62
     5
  6
CONTINUOUS
 10
-1.972134
 20
-0.053772
  0
VERTEX
  8
PLAN_1
 62
     5
  6
CONTINUOUS
 10
-1.972134
 20
-0.045815
  0
SEQEND
  8
0
  0
POLYLINE
  8
PLAN_1
 62
     5
  6
CONTINUOUS
 66
     1
 40
0.003000
 41
0.003000
  0
VERTEX
  8
PLAN_1
 62
     5
  6
CONTINUOUS
 10
-1.972134
 20
-0.037362
  0
VERTEX
  8
PLAN_1
 62
     5
  6
CONTINUOUS
 10
-1.972134
 20
-0.028906
  0
SEQEND
  8
0
  0
POLYLINE
  8
PLAN_1
 62
     5
  6
CONTINUOUS
 66
     1
 40
0.003000
 41
0.003000
  0
VERTEX
  8
PLAN_1
 62
     5
  6
CONTINUOUS
 10
-1.972134
 20
-0.020453
  0
VERTEX
  8
PLAN_1
 62
     5
  6
CONTINUOUS
 10
-1.972134
 20
-0.012496
  0
SEQEND
  8
0
  0
POLYLINE
  8
PLAN_1
 62
     5
  6
CONTINUOUS
 66
     1
 40
0.003000
 41
0.003000
  0
VERTEX
  8
PLAN_1
 62
     5
  6
CONTINUOUS
 10
-1.972134
 20
-0.004039
  0
VERTEX
  8
PLAN_1
 62
     5
  6
CONTINUOUS
 10
-1.972134
 20
0.004413
  0
SEQEND
  8
0
  0
POLYLINE
  8
PLAN_1
 62
     5
  6
CONTINUOUS
 66
     1
 40
0.003000
 41
0.003000
  0
VERTEX
  8
PLAN_1
 62
     5
  6
CONTINUOUS
 10
-1.972134
 20
0.012870
  0
VERTEX
  8
PLAN_1
 62
     5
  6
CONTINUOUS
 10
-1.972134
 20
0.020827
  0
SEQEND
  8
0
  0
POLYLINE
  8
PLAN_1
 62
     5
  6
CONTINUOUS
 66
     1
 40
0.003000
 41
0.003000
  0
VERTEX
  8
PLAN_1
 62
     5
  6
CONTINUOUS
 10
-1.972134
 20
0.029280
  0
VERTEX
  8
PLAN_1
 62
     5
  6
CONTINUOUS
 10
-1.972134
 20
0.037736
  0
SEQEND
  8
0
  0
POLYLINE
  8
PLAN_1
 62
     5
  6
CONTINUOUS
 66
     1
 40
0.003000
 41
0.003000
  0
VERTEX
  8
PLAN_1
 62
     5
  6
CONTINUOUS
 10
-1.972134
 20
0.046189
  0
VERTEX
  8
PLAN_1
 62
     5
  6
CONTINUOUS
 10
-1.972134
 20
0.054146
  0
SEQEND
  8
0
  0
POLYLINE
  8
PLAN_1
 62
     5
  6
CONTINUOUS
 66
     1
 40
0.003000
 41
0.003000
  0
VERTEX
  8
PLAN_1
 62
     5
  6
CONTINUOUS
 10
-1.972134
 20
0.062602
  0
VERTEX
  8
PLAN_1
 62
     5
  6
CONTINUOUS
 10
-1.972134
 20
0.071055
  0
SEQEND
  8
0
  0
POLYLINE
  8
PLAN_1
 62
     5
  6
CONTINUOUS
 66
     1
 40
0.003000
 41
0.003000
  0
VERTEX
  8
PLAN_1
 62
     5
  6
CONTINUOUS
 10
-1.972134
 20
0.079508
  0
VERTEX
  8
PLAN_1
 62
     5
  6
CONTINUOUS
 10
-1.972134
 20
0.087469
  0
SEQEND
  8
0
  0
POLYLINE
  8
PLAN_1
 62
     5
  6
CONTINUOUS
 66
     1
 40
0.003000
 41
0.003000
  0
VERTEX
  8
PLAN_1
 62
     5
  6
CONTINUOUS
 10
-1.972134
 20
0.095921
  0
VERTEX
  8
PLAN_1
 62
     5
  6
CONTINUOUS
 10
-1.972134
 20
0.104374
  0
SEQEND
  8
0
  0
POLYLINE
  8
PLAN_1
 62
     5
  6
CONTINUOUS
 66
     1
 40
0.003000
 41
0.003000
  0
VERTEX
  8
PLAN_1
 62
     5
  6
CONTINUOUS
 10
-1.972134
 20
0.112831
  0
VERTEX
  8
PLAN_1
 62
     5
  6
CONTINUOUS
 10
-1.972134
 20
0.120787
  0
SEQEND
  8
0
  0
POLYLINE
  8
PLAN_1
 62
     5
  6
CONTINUOUS
 66
     1
 40
0.003000
 41
0.003000
  0
VERTEX
  8
PLAN_1
 62
     5
  6
CONTINUOUS
 10
-1.972134
 20
0.129240
  0
VERTEX
  8
PLAN_1
 62
     5
  6
CONTINUOUS
 10
-1.972134
 20
0.137697
  0
SEQEND
  8
0
  0
POLYLINE
  8
PLAN_1
 62
     5
  6
CONTINUOUS
 66
     1
 40
0.003000
 41
0.003000
  0
VERTEX
  8
PLAN_1
 62
     5
  6
CONTINUOUS
 10
-1.972134
 20
0.146150
  0
VERTEX
  8
PLAN_1
 62
     5
  6
CONTINUOUS
 10
-1.972134
 20
0.149134
  0
SEQEND
  8
0
  0
POLYLINE
  8
PLAN_1
 62
     5
  6
CONTINUOUS
 66
     1
 40
0.003000
 41
0.003000
  0
VERTEX
  8
PLAN_1
 62
     5
  6
CONTINUOUS
 10
-1.972134
 20
0.146150
  0
VERTEX
  8
PLAN_1
 62
     5
  6
CONTINUOUS
 10
-1.972134
 20
0.149134
  0
SEQEND
  8
0
  0
POLYLINE
  8
PLAN_1
  6
CONTINUOUS
 66
     1
 40
0.008453
 41
0.008453
  0
VERTEX
  8
PLAN_1
  6
CONTINUOUS
 10
-2.022366
 20
1.518260
  0
VERTEX
  8
PLAN_1
  6
CONTINUOUS
 10
-2.022366
 20
0.313748
  0
VERTEX
  8
PLAN_1
  6
CONTINUOUS
 10
-0.460276
 20
0.313748
  0
VERTEX
  8
PLAN_1
  6
CONTINUOUS
 10
-0.460276
 20
1.518260
  0
VERTEX
  8
PLAN_1
  6
CONTINUOUS
 10
-2.022366
 20
1.518260
  0
SEQEND
  8
0
  0
POLYLINE
  8
PLAN_1
  6
CONTINUOUS
 66
     1
 40
0.008453
 41
0.008453
  0
VERTEX
  8
PLAN_1
  6
CONTINUOUS
 10
-2.021866
 20
0.542020
  0
VERTEX
  8
PLAN_1
  6
CONTINUOUS
 10
-1.630972
 20
0.542020
  0
VERTEX
  8
PLAN_1
  6
CONTINUOUS
 10
-1.630972
 20
0.313748
  0
SEQEND
  8
0
  0
POLYLINE
  8
PLAN_1
  6
CONTINUOUS
 66
     1
 40
0.008453
 41
0.008453
  0
VERTEX
  8
PLAN_1
  6
CONTINUOUS
 10
-0.856146
 20
0.313748
  0
VERTEX
  8
PLAN_1
  6
CONTINUOUS
 10
-0.856146
 20
0.541024
  0
VERTEX
  8
PLAN_1
  6
CONTINUOUS
 10
-0.459283
 20
0.541024
  0
SEQEND
  8
0
  0
POLYLINE
  8
PLAN_1
  6
CONTINUOUS
 66
     1
 40
0.008453
 41
0.008453
  0
VERTEX
  8
PLAN_1
  6
CONTINUOUS
 10
-1.738394
 20
0.542020
  0
VERTEX
  8
PLAN_1
  6
CONTINUOUS
 10
-1.738394
 20
0.313748
  0
SEQEND
  8
0
  0
POLYLINE
  8
PLAN_1
  6
CONTINUOUS
 66
     1
 40
0.008453
 41
0.008453
  0
VERTEX
  8
PLAN_1
  6
CONTINUOUS
 10
-0.738776
 20
0.542020
  0
VERTEX
  8
PLAN_1
  6
CONTINUOUS
 10
-0.738776
 20
0.313748
  0
SEQEND
  8
0
  0
POLYLINE
  8
PLAN_1
  6
CONTINUOUS
 66
     1
 40
0.008453
 41
0.008453
  0
VERTEX
  8
PLAN_1
  6
CONTINUOUS
 10
-1.149567
 20
-0.416819
  0
VERTEX
  8
PLAN_1
  6
CONTINUOUS
 10
-1.149567
 20
-0.284031
  0
VERTEX
  8
PLAN_1
  6
CONTINUOUS
 10
-1.313681
 20
-0.284031
  0
VERTEX
  8
PLAN_1
  6
CONTINUOUS
 10
-1.313681
 20
-0.416819
  0
VERTEX
  8
PLAN_1
  6
CONTINUOUS
 10
-1.149567
 20
-0.416819
  0
SEQEND
  8
0
  0
POLYLINE
  8
PLAN_1
  6
CONTINUOUS
 66
     1
 40
0.008453
 41
0.008453
  0
VERTEX
  8
PLAN_1
  6
CONTINUOUS
 10
-0.600520
 20
0.286394
  0
VERTEX
  8
PLAN_1
  6
CONTINUOUS
 10
-0.600520
 20
0.313748
  0
VERTEX
  8
PLAN_1
  6
CONTINUOUS
 10
-1.881126
 20
0.313748
  0
VERTEX
  8
PLAN_1
  6
CONTINUOUS
 10
-1.881126
 20
0.286394
  0
VERTEX
  8
PLAN_1
  6
CONTINUOUS
 10
-0.600520
 20
0.286394
  0
SEQEND
  8
0
  0
POLYLINE
  8
PLAN_1
  6
CONTINUOUS
 66
     1
 40
0.008453
 41
0.008453
  0
VERTEX
  8
PLAN_1
  6
CONTINUOUS
 10
-0.848189
 20
-0.284031
  0
VERTEX
  8
PLAN_1
  6
CONTINUOUS
 10
-0.848189
 20
0.286394
  0
VERTEX
  8
PLAN_1
  6
CONTINUOUS
 10
-1.633957
 20
0.286394
  0
VERTEX
  8
PLAN_1
  6
CONTINUOUS
 10
-1.633957
 20
-0.284031
  0
VERTEX
  8
PLAN_1
  6
CONTINUOUS
 10
-0.848189
 20
-0.284031
  0
SEQEND
  8
0
  0
POLYLINE
  8
PLAN_1
  6
CONTINUOUS
 66
     1
 40
0.008453
 41
0.008453
  0
VERTEX
  8
PLAN_1
  6
CONTINUOUS
 10
-2.019878
 20
1.274575
  0
VERTEX
  8
PLAN_1
  6
CONTINUOUS
 10
-0.462764
 20
1.274575
  0
SEQEND
  8
0
  0
POLYLINE
  8
PLAN_1
 62
     2
  6
CONTINUOUS
 66
     1
 40
0.003976
 41
0.003976
  0
VERTEX
  8
PLAN_1
 62
     2
  6
CONTINUOUS
 10
-1.362417
 20
3.194732
  0
VERTEX
  8
PLAN_1
 62
     2
  6
CONTINUOUS
 10
-0.925772
 20
3.194732
  0
SEQEND
  8
0
  0
SOLID
  8
PLAN_1
 62
     2
 10
-1.333079
 20
3.194732
 11
-1.392260
 21
3.210650
 12
-1.333079
 22
3.194732
 13
-1.392260
 23
3.178819
  0
POLYLINE
  8
PLAN_1
 62
     2
  6
CONTINUOUS
 66
     1
 40
0.003000
 41
0.003000
  0
VERTEX
  8
PLAN_1
 62
     2
  6
CONTINUOUS
 10
-1.333079
 20
3.194732
  0
VERTEX
  8
PLAN_1
 62
     2
  6
CONTINUOUS
 10
-1.392260
 20
3.210650
  0
VERTEX
  8
PLAN_1
 62
     2
  6
CONTINUOUS
 10
-1.392260
 20
3.178819
  0
VERTEX
  8
PLAN_1
 62
     2
  6
CONTINUOUS
 10
-1.333079
 20
3.194732
  0
SEQEND
  8
0
  0
SOLID
  8
PLAN_1
 62
     2
 10
-1.286827
 20
3.194732
 11
-1.227646
 21
3.210650
 12
-1.286827
 22
3.194732
 13
-1.227646
 23
3.178819
  0
POLYLINE
  8
PLAN_1
 62
     2
  6
CONTINUOUS
 66
     1
 40
0.003000
 41
0.003000
  0
VERTEX
  8
PLAN_1
 62
     2
  6
CONTINUOUS
 10
-1.286827
 20
3.194732
  0
VERTEX
  8
PLAN_1
 62
     2
  6
CONTINUOUS
 10
-1.227646
 20
3.210650
  0
VERTEX
  8
PLAN_1
 62
     2
  6
CONTINUOUS
 10
-1.227646
 20
3.178819
  0
VERTEX
  8
PLAN_1
 62
     2
  6
CONTINUOUS
 10
-1.286827
 20
3.194732
  0
SEQEND
  8
0
  0
POLYLINE
  8
PLAN_1
 62
     2
  6
CONTINUOUS
 66
     1
 40
0.003000
 41
0.003000
  0
VERTEX
  8
PLAN_1
 62
     2
  6
CONTINUOUS
 10
-1.098839
 20
3.282264
  0
VERTEX
  8
PLAN_1
 62
     2
  6
CONTINUOUS
 10
-1.096850
 20
3.279280
  0
VERTEX
  8
PLAN_1
 62
     2
  6
CONTINUOUS
 10
-1.094858
 20
3.276295
  0
VERTEX
  8
PLAN_1
 62
     2
  6
CONTINUOUS
 10
-1.093366
 20
3.272815
  0
VERTEX
  8
PLAN_1
 62
     2
  6
CONTINUOUS
 10
-1.092374
 20
3.269331
  0
VERTEX
  8
PLAN_1
 62
     2
  6
CONTINUOUS
 10
-1.091378
 20
3.265850
  0
VERTEX
  8
PLAN_1
 62
     2
  6
CONTINUOUS
 10
-1.090882
 20
3.262370
  0
VERTEX
  8
PLAN_1
 62
     2
  6
CONTINUOUS
 10
-1.090382
 20
3.258890
  0
VERTEX
  8
PLAN_1
 62
     2
  6
CONTINUOUS
 10
-1.090382
 20
3.255906
  0
VERTEX
  8
PLAN_1
 62
     2
  6
CONTINUOUS
 10
-1.090882
 20
3.249441
  0
VERTEX
  8
PLAN_1
 62
     2
  6
CONTINUOUS
 10
-1.092374
 20
3.242972
  0
VERTEX
  8
PLAN_1
 62
     2
  6
CONTINUOUS
 10
-1.093366
 20
3.239492
  0
VERTEX
  8
PLAN_1
 62
     2
  6
CONTINUOUS
 10
-1.094362
 20
3.236012
  0
VERTEX
  8
PLAN_1
 62
     2
  6
CONTINUOUS
 10
-1.096350
 20
3.233028
  0
VERTEX
  8
PLAN_1
 62
     2
  6
CONTINUOUS
 10
-1.098343
 20
3.230043
  0
VERTEX
  8
PLAN_1
 62
     2
  6
CONTINUOUS
 10
-1.100331
 20
3.227059
  0
VERTEX
  8
PLAN_1
 62
     2
  6
CONTINUOUS
 10
-1.102815
 20
3.224575
  0
VERTEX
  8
PLAN_1
 62
     2
  6
CONTINUOUS
 10
-1.105799
 20
3.222087
  0
VERTEX
  8
PLAN_1
 62
     2
  6
CONTINUOUS
 10
-1.109283
 20
3.220098
  0
VERTEX
  8
PLAN_1
 62
     2
  6
CONTINUOUS
 10
-1.113260
 20
3.218606
  0
VERTEX
  8
PLAN_1
 62
     2
  6
CONTINUOUS
 10
-1.117240
 20
3.217610
  0
VERTEX
  8
PLAN_1
 62
     2
  6
CONTINUOUS
 10
-1.121717
 20
3.216618
  0
VERTEX
  8
PLAN_1
 62
     2
  6
CONTINUOUS
 10
-1.126689
 20
3.216618
  0
VERTEX
  8
PLAN_1
 62
     2
  6
CONTINUOUS
 10
-1.130665
 20
3.216618
  0
VERTEX
  8
PLAN_1
 62
     2
  6
CONTINUOUS
 10
-1.134646
 20
3.217114
  0
VERTEX
  8
PLAN_1
 62
     2
  6
CONTINUOUS
 10
-1.137630
 20
3.217610
  0
VERTEX
  8
PLAN_1
 62
     2
  6
CONTINUOUS
 10
-1.141110
 20
3.219102
  0
VERTEX
  8
PLAN_1
 62
     2
  6
CONTINUOUS
 10
-1.144094
 20
3.220098
  0
VERTEX
  8
PLAN_1
 62
     2
  6
CONTINUOUS
 10
-1.146583
 20
3.221591
  0
VERTEX
  8
PLAN_1
 62
     2
  6
CONTINUOUS
 10
-1.149067
 20
3.223579
  0
VERTEX
  8
PLAN_1
 62
     2
  6
CONTINUOUS
 10
-1.151555
 20
3.225567
  0
VERTEX
  8
PLAN_1
 62
     2
  6
CONTINUOUS
 10
-1.159512
 20
3.216618
  0
VERTEX
  8
PLAN_1
 62
     2
  6
CONTINUOUS
 10
-1.162992
 20
3.219102
  0
VERTEX
  8
PLAN_1
 62
     2
  6
CONTINUOUS
 10
-1.154539
 20
3.228551
  0
VERTEX
  8
PLAN_1
 62
     2
  6
CONTINUOUS
 10
-1.156528
 20
3.231535
  0
VERTEX
  8
PLAN_1
 62
     2
  6
CONTINUOUS
 10
-1.158516
 20
3.235016
  0
VERTEX
  8
PLAN_1
 62
     2
  6
CONTINUOUS
 10
-1.160008
 20
3.238500
  0
VERTEX
  8
PLAN_1
 62
     2
  6
CONTINUOUS
 10
-1.161004
 20
3.241980
  0
VERTEX
  8
PLAN_1
 62
     2
  6
CONTINUOUS
 10
-1.162000
 20
3.245461
  0
VERTEX
  8
PLAN_1
 62
     2
  6
CONTINUOUS
 10
-1.162496
 20
3.248941
  0
VERTEX
  8
PLAN_1
 62
     2
  6
CONTINUOUS
 10
-1.162992
 20
3.252425
  0
VERTEX
  8
PLAN_1
 62
     2
  6
CONTINUOUS
 10
-1.162992
 20
3.255906
  0
VERTEX
  8
PLAN_1
 62
     2
  6
CONTINUOUS
 10
-1.162992
 20
3.261874
  0
VERTEX
  8
PLAN_1
 62
     2
  6
CONTINUOUS
 10
-1.161500
 20
3.268835
  0
VERTEX
  8
PLAN_1
 62
     2
  6
CONTINUOUS
 10
-1.160508
 20
3.271819
  0
VERTEX
  8
PLAN_1
 62
     2
  6
CONTINUOUS
 10
-1.159016
 20
3.275299
  0
VERTEX
  8
PLAN_1
 62
     2
  6
CONTINUOUS
 10
-1.157524
 20
3.278283
  0
VERTEX
  8
PLAN_1
 62
     2
  6
CONTINUOUS
 10
-1.155531
 20
3.281268
  0
VERTEX
  8
PLAN_1
 62
     2
  6
CONTINUOUS
 10
-1.153047
 20
3.284252
  0
VERTEX
  8
PLAN_1
 62
     2
  6
CONTINUOUS
 10
-1.150559
 20
3.286740
  0
VERTEX
  8
PLAN_1
 62
     2
  6
CONTINUOUS
 10
-1.147575
 20
3.289224
  0
VERTEX
  8
PLAN_1
 62
     2
  6
CONTINUOUS
 10
-1.144094
 20
3.291213
  0
VERTEX
  8
PLAN_1
 62
     2
  6
CONTINUOUS
 10
-1.140614
 20
3.292705
  0
VERTEX
  8
PLAN_1
 62
     2
  6
CONTINUOUS
 10
-1.136138
 20
3.294197
  0
VERTEX
  8
PLAN_1
 62
     2
  6
CONTINUOUS
 10
-1.131661
 20
3.294697
  0
VERTEX
  8
PLAN_1
 62
     2
  6
CONTINUOUS
 10
-1.126689
 20
3.295193
  0
VERTEX
  8
PLAN_1
 62
     2
  6
CONTINUOUS
 10
-1.122709
 20
3.294697
  0
VERTEX
  8
PLAN_1
 62
     2
  6
CONTINUOUS
 10
-1.118732
 20
3.294197
  0
VERTEX
  8
PLAN_1
 62
     2
  6
CONTINUOUS
 10
-1.115248
 20
3.293701
  0
VERTEX
  8
PLAN_1
 62
     2
  6
CONTINUOUS
 10
-1.112268
 20
3.292209
  0
VERTEX
  8
PLAN_1
 62
     2
  6
CONTINUOUS
 10
-1.109283
 20
3.291213
  0
VERTEX
  8
PLAN_1
 62
     2
  6
CONTINUOUS
 10
-1.106795
 20
3.289724
  0
VERTEX
  8
PLAN_1
 62
     2
  6
CONTINUOUS
 10
-1.104307
 20
3.287732
  0
VERTEX
  8
PLAN_1
 62
     2
  6
CONTINUOUS
 10
-1.101823
 20
3.285744
  0
VERTEX
  8
PLAN_1
 62
     2
  6
CONTINUOUS
 10
-1.093366
 20
3.295193
  0
VERTEX
  8
PLAN_1
 62
     2
  6
CONTINUOUS
 10
-1.090382
 20
3.291713
  0
VERTEX
  8
PLAN_1
 62
     2
  6
CONTINUOUS
 10
-1.098839
 20
3.282264
  0
SEQEND
  8
0
  0
POLYLINE
  8
PLAN_1
 62
     2
  6
CONTINUOUS
 66
     1
 40
0.003000
 41
0.003000
  0
VERTEX
  8
PLAN_1
 62
     2
  6
CONTINUOUS
 10
-1.144591
 20
3.232531
  0
VERTEX
  8
PLAN_1
 62
     2
  6
CONTINUOUS
 10
-1.143098
 20
3.231039
  0
VERTEX
  8
PLAN_1
 62
     2
  6
CONTINUOUS
 10
-1.141110
 20
3.229547
  0
VERTEX
  8
PLAN_1
 62
     2
  6
CONTINUOUS
 10
-1.139122
 20
3.228551
  0
VERTEX
  8
PLAN_1
 62
     2
  6
CONTINUOUS
 10
-1.137134
 20
3.227059
  0
VERTEX
  8
PLAN_1
 62
     2
  6
CONTINUOUS
 10
-1.134646
 20
3.226563
  0
VERTEX
  8
PLAN_1
 62
     2
  6
CONTINUOUS
 10
-1.132157
 20
3.225567
  0
VERTEX
  8
PLAN_1
 62
     2
  6
CONTINUOUS
 10
-1.129673
 20
3.225567
  0
VERTEX
  8
PLAN_1
 62
     2
  6
CONTINUOUS
 10
-1.126689
 20
3.225071
  0
VERTEX
  8
PLAN_1
 62
     2
  6
CONTINUOUS
 10
-1.123705
 20
3.225567
  0
VERTEX
  8
PLAN_1
 62
     2
  6
CONTINUOUS
 10
-1.121217
 20
3.226067
  0
VERTEX
  8
PLAN_1
 62
     2
  6
CONTINUOUS
 10
-1.118232
 20
3.226563
  0
VERTEX
  8
PLAN_1
 62
     2
  6
CONTINUOUS
 10
-1.115748
 20
3.227559
  0
VERTEX
  8
PLAN_1
 62
     2
  6
CONTINUOUS
 10
-1.113756
 20
3.229051
  0
VERTEX
  8
PLAN_1
 62
     2
  6
CONTINUOUS
 10
-1.111272
 20
3.230043
  0
VERTEX
  8
PLAN_1
 62
     2
  6
CONTINUOUS
 10
-1.109283
 20
3.232031
  0
VERTEX
  8
PLAN_1
 62
     2
  6
CONTINUOUS
 10
-1.107791
 20
3.234024
  0
VERTEX
  8
PLAN_1
 62
     2
  6
CONTINUOUS
 10
-1.106299
 20
3.236012
  0
VERTEX
  8
PLAN_1
 62
     2
  6
CONTINUOUS
 10
-1.104807
 20
3.238500
  0
VERTEX
  8
PLAN_1
 62
     2
  6
CONTINUOUS
 10
-1.103315
 20
3.240984
  0
VERTEX
  8
PLAN_1
 62
     2
  6
CONTINUOUS
 10
-1.102319
 20
3.243472
  0
VERTEX
  8
PLAN_1
 62
     2
  6
CONTINUOUS
 10
-1.101323
 20
3.249441
  0
VERTEX
  8
PLAN_1
 62
     2
  6
CONTINUOUS
 10
-1.100827
 20
3.255906
  0
VERTEX
  8
PLAN_1
 62
     2
  6
CONTINUOUS
 10
-1.100827
 20
3.258390
  0
VERTEX
  8
PLAN_1
 62
     2
  6
CONTINUOUS
 10
-1.101323
 20
3.261374
  0
VERTEX
  8
PLAN_1
 62
     2
  6
CONTINUOUS
 10
-1.101323
 20
3.263862
  0
VERTEX
  8
PLAN_1
 62
     2
  6
CONTINUOUS
 10
-1.102319
 20
3.266346
  0
VERTEX
  8
PLAN_1
 62
     2
  6
CONTINUOUS
 10
-1.102815
 20
3.268339
  0
VERTEX
  8
PLAN_1
 62
     2
  6
CONTINUOUS
 10
-1.103811
 20
3.270823
  0
VERTEX
  8
PLAN_1
 62
     2
  6
CONTINUOUS
 10
-1.104807
 20
3.272815
  0
VERTEX
  8
PLAN_1
 62
     2
  6
CONTINUOUS
 10
-1.105799
 20
3.274803
  0
VERTEX
  8
PLAN_1
 62
     2
  6
CONTINUOUS
 10
-1.144591
 20
3.232531
  0
SEQEND
  8
0
  0
POLYLINE
  8
PLAN_1
 62
     2
  6
CONTINUOUS
 66
     1
 40
0.003000
 41
0.003000
  0
VERTEX
  8
PLAN_1
 62
     2
  6
CONTINUOUS
 10
-1.108783
 20
3.278283
  0
VERTEX
  8
PLAN_1
 62
     2
  6
CONTINUOUS
 10
-1.110276
 20
3.280272
  0
VERTEX
  8
PLAN_1
 62
     2
  6
CONTINUOUS
 10
-1.112268
 20
3.281764
  0
VERTEX
  8
PLAN_1
 62
     2
  6
CONTINUOUS
 10
-1.114256
 20
3.282760
  0
VERTEX
  8
PLAN_1
 62
     2
  6
CONTINUOUS
 10
-1.116244
 20
3.284252
  0
VERTEX
  8
PLAN_1
 62
     2
  6
CONTINUOUS
 10
-1.118732
 20
3.284748
  0
VERTEX
  8
PLAN_1
 62
     2
  6
CONTINUOUS
 10
-1.121217
 20
3.285744
  0
VERTEX
  8
PLAN_1
 62
     2
  6
CONTINUOUS
 10
-1.124201
 20
3.285744
  0
VERTEX
  8
PLAN_1
 62
     2
  6
CONTINUOUS
 10
-1.126689
 20
3.286240
  0
VERTEX
  8
PLAN_1
 62
     2
  6
CONTINUOUS
 10
-1.129673
 20
3.285744
  0
VERTEX
  8
PLAN_1
 62
     2
  6
CONTINUOUS
 10
-1.132657
 20
3.285248
  0
VERTEX
  8
PLAN_1
 62
     2
  6
CONTINUOUS
 10
-1.135142
 20
3.284748
  0
VERTEX
  8
PLAN_1
 62
     2
  6
CONTINUOUS
 10
-1.137630
 20
3.283756
  0
VERTEX
  8
PLAN_1
 62
     2
  6
CONTINUOUS
 10
-1.140114
 20
3.282760
  0
VERTEX
  8
PLAN_1
 62
     2
  6
CONTINUOUS
 10
-1.142106
 20
3.281268
  0
VERTEX
  8
PLAN_1
 62
     2
  6
CONTINUOUS
 10
-1.144094
 20
3.279280
  0
VERTEX
  8
PLAN_1
 62
     2
  6
CONTINUOUS
 10
-1.146083
 20
3.277291
  0
VERTEX
  8
PLAN_1
 62
     2
  6
CONTINUOUS
 10
-1.147575
 20
3.275299
  0
VERTEX
  8
PLAN_1
 62
     2
  6
CONTINUOUS
 10
-1.149067
 20
3.272815
  0
VERTEX
  8
PLAN_1
 62
     2
  6
CONTINUOUS
 10
-1.150063
 20
3.270327
  0
VERTEX
  8
PLAN_1
 62
     2
  6
CONTINUOUS
 10
-1.151055
 20
3.267839
  0
VERTEX
  8
PLAN_1
 62
     2
  6
CONTINUOUS
 10
-1.152547
 20
3.261874
  0
VERTEX
  8
PLAN_1
 62
     2
  6
CONTINUOUS
 10
-1.152547
 20
3.255906
  0
VERTEX
  8
PLAN_1
 62
     2
  6
CONTINUOUS
 10
-1.152547
 20
3.252921
  0
VERTEX
  8
PLAN_1
 62
     2
  6
CONTINUOUS
 10
-1.152547
 20
3.249937
  0
VERTEX
  8
PLAN_1
 62
     2
  6
CONTINUOUS
 10
-1.152051
 20
3.247449
  0
VERTEX
  8
PLAN_1
 62
     2
  6
CONTINUOUS
 10
-1.151555
 20
3.244965
  0
VERTEX
  8
PLAN_1
 62
     2
  6
CONTINUOUS
 10
-1.150559
 20
3.242476
  0
VERTEX
  8
PLAN_1
 62
     2
  6
CONTINUOUS
 10
-1.149567
 20
3.240488
  0
VERTEX
  8
PLAN_1
 62
     2
  6
CONTINUOUS
 10
-1.148571
 20
3.238000
  0
VERTEX
  8
PLAN_1
 62
     2
  6
CONTINUOUS
 10
-1.147575
 20
3.236012
  0
VERTEX
  8
PLAN_1
 62
     2
  6
CONTINUOUS
 10
-1.108783
 20
3.278283
  0
SEQEND
  8
0
  0
POLYLINE
  8
PLAN_1
 62
     2
  6
CONTINUOUS
 66
     1
 40
0.003000
 41
0.003000
  0
VERTEX
  8
PLAN_1
 62
     2
  6
CONTINUOUS
 10
-1.049106
 20
3.218106
  0
VERTEX
  8
PLAN_1
 62
     2
  6
CONTINUOUS
 10
-1.058555
 20
3.218106
  0
VERTEX
  8
PLAN_1
 62
     2
  6
CONTINUOUS
 10
-1.058555
 20
3.270327
  0
VERTEX
  8
PLAN_1
 62
     2
  6
CONTINUOUS
 10
-1.075961
 20
3.270327
  0
VERTEX
  8
PLAN_1
 62
     2
  6
CONTINUOUS
 10
-1.075961
 20
3.277291
  0
VERTEX
  8
PLAN_1
 62
     2
  6
CONTINUOUS
 10
-1.071484
 20
3.277787
  0
VERTEX
  8
PLAN_1
 62
     2
  6
CONTINUOUS
 10
-1.068004
 20
3.278283
  0
VERTEX
  8
PLAN_1
 62
     2
  6
CONTINUOUS
 10
-1.065020
 20
3.279280
  0
VERTEX
  8
PLAN_1
 62
     2
  6
CONTINUOUS
 10
-1.062535
 20
3.280272
  0
VERTEX
  8
PLAN_1
 62
     2
  6
CONTINUOUS
 10
-1.060543
 20
3.282264
  0
VERTEX
  8
PLAN_1
 62
     2
  6
CONTINUOUS
 10
-1.058555
 20
3.284252
  0
VERTEX
  8
PLAN_1
 62
     2
  6
CONTINUOUS
 10
-1.057063
 20
3.287236
  0
VERTEX
  8
PLAN_1
 62
     2
  6
CONTINUOUS
 10
-1.056067
 20
3.291713
  0
VERTEX
  8
PLAN_1
 62
     2
  6
CONTINUOUS
 10
-1.049106
 20
3.291713
  0
VERTEX
  8
PLAN_1
 62
     2
  6
CONTINUOUS
 10
-1.049106
 20
3.218106
  0
SEQEND
  8
0
  0
POLYLINE
  8
PLAN_1
 62
     2
  6
CONTINUOUS
 66
     1
 40
0.003000
 41
0.003000
  0
VERTEX
  8
PLAN_1
 62
     2
  6
CONTINUOUS
 10
-1.019268
 20
3.229547
  0
VERTEX
  8
PLAN_1
 62
     2
  6
CONTINUOUS
 10
-1.008327
 20
3.229547
  0
VERTEX
  8
PLAN_1
 62
     2
  6
CONTINUOUS
 10
-1.008327
 20
3.219102
  0
VERTEX
  8
PLAN_1
 62
     2
  6
CONTINUOUS
 10
-1.008823
 20
3.214626
  0
VERTEX
  8
PLAN_1
 62
     2
  6
CONTINUOUS
 10
-1.009819
 20
3.210650
  0
VERTEX
  8
PLAN_1
 62
     2
  6
CONTINUOUS
 10
-1.011311
 20
3.208161
  0
VERTEX
  8
PLAN_1
 62
     2
  6
CONTINUOUS
 10
-1.013299
 20
3.206173
  0
VERTEX
  8
PLAN_1
 62
     2
  6
CONTINUOUS
 10
-1.014791
 20
3.204681
  0
VERTEX
  8
PLAN_1
 62
     2
  6
CONTINUOUS
 10
-1.016780
 20
3.203685
  0
VERTEX
  8
PLAN_1
 62
     2
  6
CONTINUOUS
 10
-1.018272
 20
3.203189
  0
VERTEX
  8
PLAN_1
 62
     2
  6
CONTINUOUS
 10
-1.019268
 20
3.203189
  0
VERTEX
  8
PLAN_1
 62
     2
  6
CONTINUOUS
 10
-1.019268
 20
3.207665
  0
VERTEX
  8
PLAN_1
 62
     2
  6
CONTINUOUS
 10
-1.017776
 20
3.208161
  0
VERTEX
  8
PLAN_1
 62
     2
  6
CONTINUOUS
 10
-1.016780
 20
3.209157
  0
VERTEX
  8
PLAN_1
 62
     2
  6
CONTINUOUS
 10
-1.015783
 20
3.210150
  0
VERTEX
  8
PLAN_1
 62
     2
  6
CONTINUOUS
 10
-1.014791
 20
3.211642
  0
VERTEX
  8
PLAN_1
 62
     2
  6
CONTINUOUS
 10
-1.014295
 20
3.213134
  0
VERTEX
  8
PLAN_1
 62
     2
  6
CONTINUOUS
 10
-1.014295
 20
3.214626
  0
VERTEX
  8
PLAN_1
 62
     2
  6
CONTINUOUS
 10
-1.013795
 20
3.216618
  0
VERTEX
  8
PLAN_1
 62
     2
  6
CONTINUOUS
 10
-1.013795
 20
3.218106
  0
VERTEX
  8
PLAN_1
 62
     2
  6
CONTINUOUS
 10
-1.019268
 20
3.218106
  0
VERTEX
  8
PLAN_1
 62
     2
  6
CONTINUOUS
 10
-1.019268
 20
3.229547
  0
SEQEND
  8
0
  0
POLYLINE
  8
PLAN_1
 62
     2
  6
CONTINUOUS
 66
     1
 40
0.003000
 41
0.003000
  0
VERTEX
  8
PLAN_1
 62
     2
  6
CONTINUOUS
 10
-0.994898
 20
3.265354
  0
VERTEX
  8
PLAN_1
 62
     2
  6
CONTINUOUS
 10
-0.994898
 20
3.269331
  0
VERTEX
  8
PLAN_1
 62
     2
  6
CONTINUOUS
 10
-0.993902
 20
3.273311
  0
VERTEX
  8
PLAN_1
 62
     2
  6
CONTINUOUS
 10
-0.993406
 20
3.276295
  0
VERTEX
  8
PLAN_1
 62
     2
  6
CONTINUOUS
 10
-0.991913
 20
3.279280
  0
VERTEX
  8
PLAN_1
 62
     2
  6
CONTINUOUS
 10
-0.990421
 20
3.281764
  0
VERTEX
  8
PLAN_1
 62
     2
  6
CONTINUOUS
 10
-0.988929
 20
3.284252
  0
VERTEX
  8
PLAN_1
 62
     2
  6
CONTINUOUS
 10
-0.986941
 20
3.285744
  0
VERTEX
  8
PLAN_1
 62
     2
  6
CONTINUOUS
 10
-0.984953
 20
3.287236
  0
VERTEX
  8
PLAN_1
 62
     2
  6
CONTINUOUS
 10
-0.980972
 20
3.289224
  0
VERTEX
  8
PLAN_1
 62
     2
  6
CONTINUOUS
 10
-0.976996
 20
3.290717
  0
VERTEX
  8
PLAN_1
 62
     2
  6
CONTINUOUS
 10
-0.973016
 20
3.291213
  0
VERTEX
  8
PLAN_1
 62
     2
  6
CONTINUOUS
 10
-0.969535
 20
3.291713
  0
VERTEX
  8
PLAN_1
 62
     2
  6
CONTINUOUS
 10
-0.965059
 20
3.291213
  0
VERTEX
  8
PLAN_1
 62
     2
  6
CONTINUOUS
 10
-0.960583
 20
3.290220
  0
VERTEX
  8
PLAN_1
 62
     2
  6
CONTINUOUS
 10
-0.956602
 20
3.288232
  0
VERTEX
  8
PLAN_1
 62
     2
  6
CONTINUOUS
 10
-0.953622
 20
3.285744
  0
VERTEX
  8
PLAN_1
 62
     2
  6
CONTINUOUS
 10
-0.950638
 20
3.282760
  0
VERTEX
  8
PLAN_1
 62
     2
  6
CONTINUOUS
 10
-0.948646
 20
3.278780
  0
VERTEX
  8
PLAN_1
 62
     2
  6
CONTINUOUS
 10
-0.947154
 20
3.274307
  0
VERTEX
  8
PLAN_1
 62
     2
  6
CONTINUOUS
 10
-0.946657
 20
3.269831
  0
VERTEX
  8
PLAN_1
 62
     2
  6
CONTINUOUS
 10
-0.947154
 20
3.264858
  0
VERTEX
  8
PLAN_1
 62
     2
  6
CONTINUOUS
 10
-0.948150
 20
3.260878
  0
VERTEX
  8
PLAN_1
 62
     2
  6
CONTINUOUS
 10
-0.950138
 20
3.257894
  0
VERTEX
  8
PLAN_1
 62
     2
  6
CONTINUOUS
 10
-0.952626
 20
3.254909
  0
VERTEX
  8
PLAN_1
 62
     2
  6
CONTINUOUS
 10
-0.955110
 20
3.251925
  0
VERTEX
  8
PLAN_1
 62
     2
  6
CONTINUOUS
 10
-0.958594
 20
3.249441
  0
VERTEX
  8
PLAN_1
 62
     2
  6
CONTINUOUS
 10
-0.962075
 20
3.247449
  0
VERTEX
  8
PLAN_1
 62
     2
  6
CONTINUOUS
 10
-0.966055
 20
3.244965
  0
VERTEX
  8
PLAN_1
 62
     2
  6
CONTINUOUS
 10
-0.974012
 20
3.240984
  0
VERTEX
  8
PLAN_1
 62
     2
  6
CONTINUOUS
 10
-0.977492
 20
3.238996
  0
VERTEX
  8
PLAN_1
 62
     2
  6
CONTINUOUS
 10
-0.979976
 20
3.237008
  0
VERTEX
  8
PLAN_1
 62
     2
  6
CONTINUOUS
 10
-0.981969
 20
3.235016
  0
VERTEX
  8
PLAN_1
 62
     2
  6
CONTINUOUS
 10
-0.983957
 20
3.233028
  0
VERTEX
  8
PLAN_1
 62
     2
  6
CONTINUOUS
 10
-0.984953
 20
3.231039
  0
VERTEX
  8
PLAN_1
 62
     2
  6
CONTINUOUS
 10
-0.985945
 20
3.229547
  0
VERTEX
  8
PLAN_1
 62
     2
  6
CONTINUOUS
 10
-0.985945
 20
3.228055
  0
VERTEX
  8
PLAN_1
 62
     2
  6
CONTINUOUS
 10
-0.986445
 20
3.227059
  0
VERTEX
  8
PLAN_1
 62
     2
  6
CONTINUOUS
 10
-0.946657
 20
3.227059
  0
VERTEX
  8
PLAN_1
 62
     2
  6
CONTINUOUS
 10
-0.946657
 20
3.218106
  0
VERTEX
  8
PLAN_1
 62
     2
  6
CONTINUOUS
 10
-0.996886
 20
3.218106
  0
VERTEX
  8
PLAN_1
 62
     2
  6
CONTINUOUS
 10
-0.996390
 20
3.223579
  0
VERTEX
  8
PLAN_1
 62
     2
  6
CONTINUOUS
 10
-0.995394
 20
3.228551
  0
VERTEX
  8
PLAN_1
 62
     2
  6
CONTINUOUS
 10
-0.993902
 20
3.232531
  0
VERTEX
  8
PLAN_1
 62
     2
  6
CONTINUOUS
 10
-0.991417
 20
3.236508
  0
VERTEX
  8
PLAN_1
 62
     2
  6
CONTINUOUS
 10
-0.988929
 20
3.239492
  0
VERTEX
  8
PLAN_1
 62
     2
  6
CONTINUOUS
 10
-0.986445
 20
3.242476
  0
VERTEX
  8
PLAN_1
 62
     2
  6
CONTINUOUS
 10
-0.982961
 20
3.244965
  0
VERTEX
  8
PLAN_1
 62
     2
  6
CONTINUOUS
 10
-0.979480
 20
3.247449
  0
VERTEX
  8
PLAN_1
 62
     2
  6
CONTINUOUS
 10
-0.970031
 20
3.252921
  0
VERTEX
  8
PLAN_1
 62
     2
  6
CONTINUOUS
 10
-0.967047
 20
3.254413
  0
VERTEX
  8
PLAN_1
 62
     2
  6
CONTINUOUS
 10
-0.964563
 20
3.256402
  0
VERTEX
  8
PLAN_1
 62
     2
  6
CONTINUOUS
 10
-0.962075
 20
3.257894
  0
VERTEX
  8
PLAN_1
 62
     2
  6
CONTINUOUS
 10
-0.960087
 20
3.259386
  0
VERTEX
  8
PLAN_1
 62
     2
  6
CONTINUOUS
 10
-0.958594
 20
3.261374
  0
VERTEX
  8
PLAN_1
 62
     2
  6
CONTINUOUS
 10
-0.957598
 20
3.263862
  0
VERTEX
  8
PLAN_1
 62
     2
  6
CONTINUOUS
 10
-0.956602
 20
3.266846
  0
VERTEX
  8
PLAN_1
 62
     2
  6
CONTINUOUS
 10
-0.956602
 20
3.269831
  0
VERTEX
  8
PLAN_1
 62
     2
  6
CONTINUOUS
 10
-0.956602
 20
3.272315
  0
VERTEX
  8
PLAN_1
 62
     2
  6
CONTINUOUS
 10
-0.957102
 20
3.274803
  0
VERTEX
  8
PLAN_1
 62
     2
  6
CONTINUOUS
 10
-0.958094
 20
3.276791
  0
VERTEX
  8
PLAN_1
 62
     2
  6
CONTINUOUS
 10
-0.959587
 20
3.278780
  0
VERTEX
  8
PLAN_1
 62
     2
  6
CONTINUOUS
 10
-0.961579
 20
3.280772
  0
VERTEX
  8
PLAN_1
 62
     2
  6
CONTINUOUS
 10
-0.964063
 20
3.281764
  0
VERTEX
  8
PLAN_1
 62
     2
  6
CONTINUOUS
 10
-0.967047
 20
3.282760
  0
VERTEX
  8
PLAN_1
 62
     2
  6
CONTINUOUS
 10
-0.971028
 20
3.283256
  0
VERTEX
  8
PLAN_1
 62
     2
  6
CONTINUOUS
 10
-0.973512
 20
3.283256
  0
VERTEX
  8
PLAN_1
 62
     2
  6
CONTINUOUS
 10
-0.975504
 20
3.282760
  0
VERTEX
  8
PLAN_1
 62
     2
  6
CONTINUOUS
 10
-0.977492
 20
3.282264
  0
VERTEX
  8
PLAN_1
 62
     2
  6
CONTINUOUS
 10
-0.978984
 20
3.281268
  0
VERTEX
  8
PLAN_1
 62
     2
  6
CONTINUOUS
 10
-0.981469
 20
3.278780
  0
VERTEX
  8
PLAN_1
 62
     2
  6
CONTINUOUS
 10
-0.983461
 20
3.276295
  0
VERTEX
  8
PLAN_1
 62
     2
  6
CONTINUOUS
 10
-0.984453
 20
3.273311
  0
VERTEX
  8
PLAN_1
 62
     2
  6
CONTINUOUS
 10
-0.985449
 20
3.270327
  0
VERTEX
  8
PLAN_1
 62
     2
  6
CONTINUOUS
 10
-0.985449
 20
3.267343
  0
VERTEX
  8
PLAN_1
 62
     2
  6
CONTINUOUS
 10
-0.985945
 20
3.265354
  0
VERTEX
  8
PLAN_1
 62
     2
  6
CONTINUOUS
 10
-0.994898
 20
3.265354
  0
SEQEND
  8
0
  0
POLYLINE
  8
PLAN_1
 62
     2
  6
CONTINUOUS
 66
     1
 40
0.003976
 41
0.003976
  0
VERTEX
  8
PLAN_1
 62
     2
  6
CONTINUOUS
 10
-0.136520
 20
0.028283
  0
VERTEX
  8
PLAN_1
 62
     2
  6
CONTINUOUS
 10
-0.136520
 20
3.943205
  0
SEQEND
  8
0
  0
SOLID
  8
PLAN_1
 62
     2
 10
-0.136520
 20
3.972547
 11
-0.152433
 21
3.913366
 12
-0.136520
 22
3.972547
 13
-0.121102
 23
3.913366
  0
POLYLINE
  8
PLAN_1
 62
     2
  6
CONTINUOUS
 66
     1
 40
0.003000
 41
0.003000
  0
VERTEX
  8
PLAN_1
 62
     2
  6
CONTINUOUS
 10
-0.136520
 20
3.972547
  0
VERTEX
  8
PLAN_1
 62
     2
  6
CONTINUOUS
 10
-0.152433
 20
3.913366
  0
VERTEX
  8
PLAN_1
 62
     2
  6
CONTINUOUS
 10
-0.121102
 20
3.913366
  0
VERTEX
  8
PLAN_1
 62
     2
  6
CONTINUOUS
 10
-0.136520
 20
3.972547
  0
SEQEND
  8
0
  0
SOLID
  8
PLAN_1
 62
     2
 10
-0.136520
 20
-0.001055
 11
-0.152433
 21
0.058126
 12
-0.136520
 22
-0.001055
 13
-0.121102
 23
0.058126
  0
POLYLINE
  8
PLAN_1
 62
     2
  6
CONTINUOUS
 66
     1
 40
0.003000
 41
0.003000
  0
VERTEX
  8
PLAN_1
 62
     2
  6
CONTINUOUS
 10
-0.136520
 20
-0.001055
  0
VERTEX
  8
PLAN_1
 62
     2
  6
CONTINUOUS
 10
-0.152433
 20
0.058126
  0
VERTEX
  8
PLAN_1
 62
     2
  6
CONTINUOUS
 10
-0.121102
 20
0.058126
  0
VERTEX
  8
PLAN_1
 62
     2
  6
CONTINUOUS
 10
-0.136520
 20
-0.001055
  0
SEQEND
  8
0
  0
POLYLINE
  8
PLAN_1
 62
     2
  6
CONTINUOUS
 66
     1
 40
0.003000
 41
0.003000
  0
VERTEX
  8
PLAN_1
 62
     2
  6
CONTINUOUS
 10
-0.160390
 20
1.936012
  0
VERTEX
  8
PLAN_1
 62
     2
  6
CONTINUOUS
 10
-0.160390
 20
1.926563
  0
VERTEX
  8
PLAN_1
 62
     2
  6
CONTINUOUS
 10
-0.212114
 20
1.926563
  0
VERTEX
  8
PLAN_1
 62
     2
  6
CONTINUOUS
 10
-0.212114
 20
1.909654
  0
VERTEX
  8
PLAN_1
 62
     2
  6
CONTINUOUS
 10
-0.219575
 20
1.909654
  0
VERTEX
  8
PLAN_1
 62
     2
  6
CONTINUOUS
 10
-0.220071
 20
1.913634
  0
VERTEX
  8
PLAN_1
 62
     2
  6
CONTINUOUS
 10
-0.220567
 20
1.917114
  0
VERTEX
  8
PLAN_1
 62
     2
  6
CONTINUOUS
 10
-0.221063
 20
1.920098
  0
VERTEX
  8
PLAN_1
 62
     2
  6
CONTINUOUS
 10
-0.222555
 20
1.922583
  0
VERTEX
  8
PLAN_1
 62
     2
  6
CONTINUOUS
 10
-0.224047
 20
1.924575
  0
VERTEX
  8
PLAN_1
 62
     2
  6
CONTINUOUS
 10
-0.226535
 20
1.926563
  0
VERTEX
  8
PLAN_1
 62
     2
  6
CONTINUOUS
 10
-0.229520
 20
1.928055
  0
VERTEX
  8
PLAN_1
 62
     2
  6
CONTINUOUS
 10
-0.233496
 20
1.929051
  0
VERTEX
  8
PLAN_1
 62
     2
  6
CONTINUOUS
 10
-0.233496
 20
1.936012
  0
VERTEX
  8
PLAN_1
 62
     2
  6
CONTINUOUS
 10
-0.160390
 20
1.936012
  0
SEQEND
  8
0
  0
POLYLINE
  8
PLAN_1
 62
     2
  6
CONTINUOUS
 66
     1
 40
0.003000
 41
0.003000
  0
VERTEX
  8
PLAN_1
 62
     2
  6
CONTINUOUS
 10
-0.202665
 20
1.972315
  0
VERTEX
  8
PLAN_1
 62
     2
  6
CONTINUOUS
 10
-0.203657
 20
1.973311
  0
VERTEX
  8
PLAN_1
 62
     2
  6
CONTINUOUS
 10
-0.204654
 20
1.974803
  0
VERTEX
  8
PLAN_1
 62
     2
  6
CONTINUOUS
 10
-0.205150
 20
1.976295
  0
VERTEX
  8
PLAN_1
 62
     2
  6
CONTINUOUS
 10
-0.206146
 20
1.977787
  0
VERTEX
  8
PLAN_1
 62
     2
  6
CONTINUOUS
 10
-0.206642
 20
1.979776
  0
VERTEX
  8
PLAN_1
 62
     2
  6
CONTINUOUS
 10
-0.207142
 20
1.981768
  0
VERTEX
  8
PLAN_1
 62
     2
  6
CONTINUOUS
 10
-0.207142
 20
1.983756
  0
VERTEX
  8
PLAN_1
 62
     2
  6
CONTINUOUS
 10
-0.207638
 20
1.986240
  0
VERTEX
  8
PLAN_1
 62
     2
  6
CONTINUOUS
 10
-0.207142
 20
1.990717
  0
VERTEX
  8
PLAN_1
 62
     2
  6
CONTINUOUS
 10
-0.206146
 20
1.995193
  0
VERTEX
  8
PLAN_1
 62
     2
  6
CONTINUOUS
 10
-0.204157
 20
1.999173
  0
VERTEX
  8
PLAN_1
 62
     2
  6
CONTINUOUS
 10
-0.201173
 20
2.002654
  0
VERTEX
  8
PLAN_1
 62
     2
  6
CONTINUOUS
 10
-0.198189
 20
2.005638
  0
VERTEX
  8
PLAN_1
 62
     2
  6
CONTINUOUS
 10
-0.194209
 20
2.008122
  0
VERTEX
  8
PLAN_1
 62
     2
  6
CONTINUOUS
 10
-0.191724
 20
2.009118
  0
VERTEX
  8
PLAN_1
 62
     2
  6
CONTINUOUS
 10
-0.189236
 20
2.009614
  0
VERTEX
  8
PLAN_1
 62
     2
  6
CONTINUOUS
 10
-0.186748
 20
2.010114
  0
VERTEX
  8
PLAN_1
 62
     2
  6
CONTINUOUS
 10
-0.184264
 20
2.010114
  0
VERTEX
  8
PLAN_1
 62
     2
  6
CONTINUOUS
 10
-0.180783
 20
2.010114
  0
VERTEX
  8
PLAN_1
 62
     2
  6
CONTINUOUS
 10
-0.176803
 20
2.009118
  0
VERTEX
  8
PLAN_1
 62
     2
  6
CONTINUOUS
 10
-0.172327
 20
2.008122
  0
VERTEX
  8
PLAN_1
 62
     2
  6
CONTINUOUS
 10
-0.168350
 20
2.005638
  0
VERTEX
  8
PLAN_1
 62
     2
  6
CONTINUOUS
 10
-0.166358
 20
2.004146
  0
VERTEX
  8
PLAN_1
 62
     2
  6
CONTINUOUS
 10
-0.164370
 20
2.002157
  0
VERTEX
  8
PLAN_1
 62
     2
  6
CONTINUOUS
 10
-0.162878
 20
2.000165
  0
VERTEX
  8
PLAN_1
 62
     2
  6
CONTINUOUS
 10
-0.161386
 20
1.997681
  0
VERTEX
  8
PLAN_1
 62
     2
  6
CONTINUOUS
 10
-0.159894
 20
1.994697
  0
VERTEX
  8
PLAN_1
 62
     2
  6
CONTINUOUS
 10
-0.158902
 20
1.991217
  0
VERTEX
  8
PLAN_1
 62
     2
  6
CONTINUOUS
 10
-0.158402
 20
1.987732
  0
VERTEX
  8
PLAN_1
 62
     2
  6
CONTINUOUS
 10
-0.158402
 20
1.983756
  0
VERTEX
  8
PLAN_1
 62
     2
  6
CONTINUOUS
 10
-0.158402
 20
1.980276
  0
VERTEX
  8
PLAN_1
 62
     2
  6
CONTINUOUS
 10
-0.159398
 20
1.976295
  0
VERTEX
  8
PLAN_1
 62
     2
  6
CONTINUOUS
 10
-0.160390
 20
1.972315
  0
VERTEX
  8
PLAN_1
 62
     2
  6
CONTINUOUS
 10
-0.162382
 20
1.968835
  0
VERTEX
  8
PLAN_1
 62
     2
  6
CONTINUOUS
 10
-0.164866
 20
1.965850
  0
VERTEX
  8
PLAN_1
 62
     2
  6
CONTINUOUS
 10
-0.168350
 20
1.963366
  0
VERTEX
  8
PLAN_1
 62
     2
  6
CONTINUOUS
 10
-0.170835
 20
1.962370
  0
VERTEX
  8
PLAN_1
 62
     2
  6
CONTINUOUS
 10
-0.172823
 20
1.961374
  0
VERTEX
  8
PLAN_1
 62
     2
  6
CONTINUOUS
 10
-0.175807
 20
1.960382
  0
VERTEX
  8
PLAN_1
 62
     2
  6
CONTINUOUS
 10
-0.178295
 20
1.959882
  0
VERTEX
  8
PLAN_1
 62
     2
  6
CONTINUOUS
 10
-0.178295
 20
1.969831
  0
VERTEX
  8
PLAN_1
 62
     2
  6
CONTINUOUS
 10
-0.175311
 20
1.970327
  0
VERTEX
  8
PLAN_1
 62
     2
  6
CONTINUOUS
 10
-0.172823
 20
1.971323
  0
VERTEX
  8
PLAN_1
 62
     2
  6
CONTINUOUS
 10
-0.170835
 20
1.972815
  0
VERTEX
  8
PLAN_1
 62
     2
  6
CONTINUOUS
 10
-0.169343
 20
1.974803
  0
VERTEX
  8
PLAN_1
 62
     2
  6
CONTINUOUS
 10
-0.167850
 20
1.976791
  0
VERTEX
  8
PLAN_1
 62
     2
  6
CONTINUOUS
 10
-0.166858
 20
1.979280
  0
VERTEX
  8
PLAN_1
 62
     2
  6
CONTINUOUS
 10
-0.166358
 20
1.982264
  0
VERTEX
  8
PLAN_1
 62
     2
  6
CONTINUOUS
 10
-0.166358
 20
1.985248
  0
VERTEX
  8
PLAN_1
 62
     2
  6
CONTINUOUS
 10
-0.166358
 20
1.988232
  0
VERTEX
  8
PLAN_1
 62
     2
  6
CONTINUOUS
 10
-0.167354
 20
1.991713
  0
VERTEX
  8
PLAN_1
 62
     2
  6
CONTINUOUS
 10
-0.169343
 20
1.994201
  0
VERTEX
  8
PLAN_1
 62
     2
  6
CONTINUOUS
 10
-0.171335
 20
1.996189
  0
VERTEX
  8
PLAN_1
 62
     2
  6
CONTINUOUS
 10
-0.173819
 20
1.998177
  0
VERTEX
  8
PLAN_1
 62
     2
  6
CONTINUOUS
 10
-0.176307
 20
1.999173
  0
VERTEX
  8
PLAN_1
 62
     2
  6
CONTINUOUS
 10
-0.179787
 20
2.000165
  0
VERTEX
  8
PLAN_1
 62
     2
  6
CONTINUOUS
 10
-0.182772
 20
2.000665
  0
VERTEX
  8
PLAN_1
 62
     2
  6
CONTINUOUS
 10
-0.186748
 20
2.000165
  0
VERTEX
  8
PLAN_1
 62
     2
  6
CONTINUOUS
 10
-0.189732
 20
1.999173
  0
VERTEX
  8
PLAN_1
 62
     2
  6
CONTINUOUS
 10
-0.192717
 20
1.997681
  0
VERTEX
  8
PLAN_1
 62
     2
  6
CONTINUOUS
 10
-0.195205
 20
1.995689
  0
VERTEX
  8
PLAN_1
 62
     2
  6
CONTINUOUS
 10
-0.196697
 20
1.993205
  0
VERTEX
  8
PLAN_1
 62
     2
  6
CONTINUOUS
 10
-0.198189
 20
1.990717
  0
VERTEX
  8
PLAN_1
 62
     2
  6
CONTINUOUS
 10
-0.199181
 20
1.987732
  0
VERTEX
  8
PLAN_1
 62
     2
  6
CONTINUOUS
 10
-0.199181
 20
1.984252
  0
VERTEX
  8
PLAN_1
 62
     2
  6
CONTINUOUS
 10
-0.199181
 20
1.982264
  0
VERTEX
  8
PLAN_1
 62
     2
  6
CONTINUOUS
 10
-0.198685
 20
1.980276
  0
VERTEX
  8
PLAN_1
 62
     2
  6
CONTINUOUS
 10
-0.198189
 20
1.978783
  0
VERTEX
  8
PLAN_1
 62
     2
  6
CONTINUOUS
 10
-0.197193
 20
1.976791
  0
VERTEX
  8
PLAN_1
 62
     2
  6
CONTINUOUS
 10
-0.196201
 20
1.975299
  0
VERTEX
  8
PLAN_1
 62
     2
  6
CONTINUOUS
 10
-0.195205
 20
1.973311
  0
VERTEX
  8
PLAN_1
 62
     2
  6
CONTINUOUS
 10
-0.193713
 20
1.972315
  0
VERTEX
  8
PLAN_1
 62
     2
  6
CONTINUOUS
 10
-0.192220
 20
1.970823
  0
VERTEX
  8
PLAN_1
 62
     2
  6
CONTINUOUS
 10
-0.192717
 20
1.962866
  0
VERTEX
  8
PLAN_1
 62
     2
  6
CONTINUOUS
 10
-0.232008
 20
1.968339
  0
VERTEX
  8
PLAN_1
 62
     2
  6
CONTINUOUS
 10
-0.232008
 20
2.006134
  0
VERTEX
  8
PLAN_1
 62
     2
  6
CONTINUOUS
 10
-0.223055
 20
2.006134
  0
VERTEX
  8
PLAN_1
 62
     2
  6
CONTINUOUS
 10
-0.223055
 20
1.975299
  0
VERTEX
  8
PLAN_1
 62
     2
  6
CONTINUOUS
 10
-0.202665
 20
1.972315
  0
SEQEND
  8
0
  0
POLYLINE
  8
PLAN_1
 62
     2
  6
CONTINUOUS
 66
     1
 40
0.003000
 41
0.003000
  0
VERTEX
  8
PLAN_1
 62
     2
  6
CONTINUOUS
 10
-0.202665
 20
2.030008
  0
VERTEX
  8
PLAN_1
 62
     2
  6
CONTINUOUS
 10
-0.203657
 20
2.031000
  0
VERTEX
  8
PLAN_1
 62
     2
  6
CONTINUOUS
 10
-0.204654
 20
2.032492
  0
VERTEX
  8
PLAN_1
 62
     2
  6
CONTINUOUS
 10
-0.205150
 20
2.033984
  0
VERTEX
  8
PLAN_1
 62
     2
  6
CONTINUOUS
 10
-0.206146
 20
2.035972
  0
VERTEX
  8
PLAN_1
 62
     2
  6
CONTINUOUS
 10
-0.206642
 20
2.037465
  0
VERTEX
  8
PLAN_1
 62
     2
  6
CONTINUOUS
 10
-0.207142
 20
2.039457
  0
VERTEX
  8
PLAN_1
 62
     2
  6
CONTINUOUS
 10
-0.207142
 20
2.041941
  0
VERTEX
  8
PLAN_1
 62
     2
  6
CONTINUOUS
 10
-0.207638
 20
2.043929
  0
VERTEX
  8
PLAN_1
 62
     2
  6
CONTINUOUS
 10
-0.207142
 20
2.048406
  0
VERTEX
  8
PLAN_1
 62
     2
  6
CONTINUOUS
 10
-0.206146
 20
2.052882
  0
VERTEX
  8
PLAN_1
 62
     2
  6
CONTINUOUS
 10
-0.204157
 20
2.056862
  0
VERTEX
  8
PLAN_1
 62
     2
  6
CONTINUOUS
 10
-0.201173
 20
2.060343
  0
VERTEX
  8
PLAN_1
 62
     2
  6
CONTINUOUS
 10
-0.198189
 20
2.063823
  0
VERTEX
  8
PLAN_1
 62
     2
  6
CONTINUOUS
 10
-0.194209
 20
2.065815
  0
VERTEX
  8
PLAN_1
 62
     2
  6
CONTINUOUS
 10
-0.191724
 20
2.066807
  0
VERTEX
  8
PLAN_1
 62
     2
  6
CONTINUOUS
 10
-0.189236
 20
2.067803
  0
VERTEX
  8
PLAN_1
 62
     2
  6
CONTINUOUS
 10
-0.186748
 20
2.067803
  0
VERTEX
  8
PLAN_1
 62
     2
  6
CONTINUOUS
 10
-0.184264
 20
2.068299
  0
VERTEX
  8
PLAN_1
 62
     2
  6
CONTINUOUS
 10
-0.180783
 20
2.067803
  0
VERTEX
  8
PLAN_1
 62
     2
  6
CONTINUOUS
 10
-0.176803
 20
2.067307
  0
VERTEX
  8
PLAN_1
 62
     2
  6
CONTINUOUS
 10
-0.172327
 20
2.065815
  0
VERTEX
  8
PLAN_1
 62
     2
  6
CONTINUOUS
 10
-0.168350
 20
2.063327
  0
VERTEX
  8
PLAN_1
 62
     2
  6
CONTINUOUS
 10
-0.166358
 20
2.061835
  0
VERTEX
  8
PLAN_1
 62
     2
  6
CONTINUOUS
 10
-0.164370
 20
2.059846
  0
VERTEX
  8
PLAN_1
 62
     2
  6
CONTINUOUS
 10
-0.162878
 20
2.057854
  0
VERTEX
  8
PLAN_1
 62
     2
  6
CONTINUOUS
 10
-0.161386
 20
2.055370
  0
VERTEX
  8
PLAN_1
 62
     2
  6
CONTINUOUS
 10
-0.159894
 20
2.052386
  0
VERTEX
  8
PLAN_1
 62
     2
  6
CONTINUOUS
 10
-0.158902
 20
2.049402
  0
VERTEX
  8
PLAN_1
 62
     2
  6
CONTINUOUS
 10
-0.158402
 20
2.045921
  0
VERTEX
  8
PLAN_1
 62
     2
  6
CONTINUOUS
 10
-0.158402
 20
2.041445
  0
VERTEX
  8
PLAN_1
 62
     2
  6
CONTINUOUS
 10
-0.158402
 20
2.037965
  0
VERTEX
  8
PLAN_1
 62
     2
  6
CONTINUOUS
 10
-0.159398
 20
2.033984
  0
VERTEX
  8
PLAN_1
 62
     2
  6
CONTINUOUS
 10
-0.160390
 20
2.030504
  0
VERTEX
  8
PLAN_1
 62
     2
  6
CONTINUOUS
 10
-0.162382
 20
2.027024
  0
VERTEX
  8
PLAN_1
 62
     2
  6
CONTINUOUS
 10
-0.164866
 20
2.023539
  0
VERTEX
  8
PLAN_1
 62
     2
  6
CONTINUOUS
 10
-0.168350
 20
2.021055
  0
VERTEX
  8
PLAN_1
 62
     2
  6
CONTINUOUS
 10
-0.170835
 20
2.020059
  0
VERTEX
  8
PLAN_1
 62
     2
  6
CONTINUOUS
 10
-0.172823
 20
2.019063
  0
VERTEX
  8
PLAN_1
 62
     2
  6
CONTINUOUS
 10
-0.175807
 20
2.018567
  0
VERTEX
  8
PLAN_1
 62
     2
  6
CONTINUOUS
 10
-0.178295
 20
2.018071
  0
VERTEX
  8
PLAN_1
 62
     2
  6
CONTINUOUS
 10
-0.178295
 20
2.027520
  0
VERTEX
  8
PLAN_1
 62
     2
  6
CONTINUOUS
 10
-0.175311
 20
2.028016
  0
VERTEX
  8
PLAN_1
 62
     2
  6
CONTINUOUS
 10
-0.172823
 20
2.029012
  0
VERTEX
  8
PLAN_1
 62
     2
  6
CONTINUOUS
 10
-0.170835
 20
2.030504
  0
VERTEX
  8
PLAN_1
 62
     2
  6
CONTINUOUS
 10
-0.169343
 20
2.032492
  0
VERTEX
  8
PLAN_1
 62
     2
  6
CONTINUOUS
 10
-0.167850
 20
2.034480
  0
VERTEX
  8
PLAN_1
 62
     2
  6
CONTINUOUS
 10
-0.166858
 20
2.036969
  0
VERTEX
  8
PLAN_1
 62
     2
  6
CONTINUOUS
 10
-0.166358
 20
2.039953
  0
VERTEX
  8
PLAN_1
 62
     2
  6
CONTINUOUS
 10
-0.166358
 20
2.042937
  0
VERTEX
  8
PLAN_1
 62
     2
  6
CONTINUOUS
 10
-0.166358
 20
2.046417
  0
VERTEX
  8
PLAN_1
 62
     2
  6
CONTINUOUS
 10
-0.167354
 20
2.049402
  0
VERTEX
  8
PLAN_1
 62
     2
  6
CONTINUOUS
 10
-0.169343
 20
2.051890
  0
VERTEX
  8
PLAN_1
 62
     2
  6
CONTINUOUS
 10
-0.171335
 20
2.054374
  0
VERTEX
  8
PLAN_1
 62
     2
  6
CONTINUOUS
 10
-0.173819
 20
2.055866
  0
VERTEX
  8
PLAN_1
 62
     2
  6
CONTINUOUS
 10
-0.176307
 20
2.057358
  0
VERTEX
  8
PLAN_1
 62
     2
  6
CONTINUOUS
 10
-0.179787
 20
2.057854
  0
VERTEX
  8
PLAN_1
 62
     2
  6
CONTINUOUS
 10
-0.182772
 20
2.058354
  0
VERTEX
  8
PLAN_1
 62
     2
  6
CONTINUOUS
 10
-0.186748
 20
2.057854
  0
VERTEX
  8
PLAN_1
 62
     2
  6
CONTINUOUS
 10
-0.189732
 20
2.056862
  0
VERTEX
  8
PLAN_1
 62
     2
  6
CONTINUOUS
 10
-0.192717
 20
2.055370
  0
VERTEX
  8
PLAN_1
 62
     2
  6
CONTINUOUS
 10
-0.195205
 20
2.053878
  0
VERTEX
  8
PLAN_1
 62
     2
  6
CONTINUOUS
 10
-0.196697
 20
2.051390
  0
VERTEX
  8
PLAN_1
 62
     2
  6
CONTINUOUS
 10
-0.198189
 20
2.048406
  0
VERTEX
  8
PLAN_1
 62
     2
  6
CONTINUOUS
 10
-0.199181
 20
2.045421
  0
VERTEX
  8
PLAN_1
 62
     2
  6
CONTINUOUS
 10
-0.199181
 20
2.041941
  0
VERTEX
  8
PLAN_1
 62
     2
  6
CONTINUOUS
 10
-0.199181
 20
2.039953
  0
VERTEX
  8
PLAN_1
 62
     2
  6
CONTINUOUS
 10
-0.198685
 20
2.038461
  0
VERTEX
  8
PLAN_1
 62
     2
  6
CONTINUOUS
 10
-0.198189
 20
2.036472
  0
VERTEX
  8
PLAN_1
 62
     2
  6
CONTINUOUS
 10
-0.197193
 20
2.034480
  0
VERTEX
  8
PLAN_1
 62
     2
  6
CONTINUOUS
 10
-0.196201
 20
2.032988
  0
VERTEX
  8
PLAN_1
 62
     2
  6
CONTINUOUS
 10
-0.195205
 20
2.031496
  0
VERTEX
  8
PLAN_1
 62
     2
  6
CONTINUOUS
 10
-0.193713
 20
2.030008
  0
VERTEX
  8
PLAN_1
 62
     2
  6
CONTINUOUS
 10
-0.192220
 20
2.028516
  0
VERTEX
  8
PLAN_1
 62
     2
  6
CONTINUOUS
 10
-0.192717
 20
2.020555
  0
VERTEX
  8
PLAN_1
 62
     2
  6
CONTINUOUS
 10
-0.232008
 20
2.026028
  0
VERTEX
  8
PLAN_1
 62
     2
  6
CONTINUOUS
 10
-0.232008
 20
2.064323
  0
VERTEX
  8
PLAN_1
 62
     2
  6
CONTINUOUS
 10
-0.223055
 20
2.064323
  0
VERTEX
  8
PLAN_1
 62
     2
  6
CONTINUOUS
 10
-0.223055
 20
2.032988
  0
VERTEX
  8
PLAN_1
 62
     2
  6
CONTINUOUS
 10
-0.202665
 20
2.030008
  0
SEQEND
  8
0
  0
POLYLINE
  8
PLAN_1
 62
     2
  6
CONTINUOUS
 66
     1
 40
0.003976
 41
0.003976
  0
VERTEX
  8
PLAN_1
 62
     2
  6
CONTINUOUS
 10
-1.261961
 20
3.972547
  0
VERTEX
  8
PLAN_1
 62
     2
  6
CONTINUOUS
 10
-0.113146
 20
3.972547
  0
SEQEND
  8
0
  0
POLYLINE
  8
PLAN_1
 62
     2
  6
CONTINUOUS
 66
     1
 40
0.003976
 41
0.003976
  0
VERTEX
  8
PLAN_1
 62
     2
  6
CONTINUOUS
 10
-0.274280
 20
-0.001055
  0
VERTEX
  8
PLAN_1
 62
     2
  6
CONTINUOUS
 10
-0.113146
 20
-0.001055
  0
SEQEND
  8
0
  0
ENDSEC
  0
EOF
