  0
SECTION
  2
HEADER
  9
$ACADVER
  1
AC1006
  9
$EXTMIN
 10
-2.194882
 20
-3.723110
  9
$EXTMAX
 10
2.206469
 20
3.728874
  9
$LTSCALE
 40
0.000394
  9
$PDMODE
 70
    35
  9
$PDSIZE
 40
0.000315
  0
ENDSEC
  0
SECTION
  2
TABLES
  0
TABLE
  2
LTYPE
 70
     9
  0
LTYPE
  2
CONTINUOUS
 70
    64
  3
Solid line
 72
    65
 73
     0
 40
0.000000
  0
LTYPE
  2
DASHED
 70
    64
  3
__ __ __ __ __ __ __ __ __ __ __ __ __ __ __
 72
    65
 73
     2
 40
0.000003
 49
0.000002
 49
-0.000001
  0
LTYPE
  2
HIDDEN
 70
    64
  3
 _ _ _ _ _ _ _ _ _ _ _ _ _ _ _ _ _ _ _ _ _ _
 72
    65
 73
     2
 40
0.000001
 49
0.000001
 49
-0.000000
  0
LTYPE
  2
CENTER
 70
    64
  3
____ _ ____ _ ____ _ ____ _ ____ _ ____ _ ____
 72
    65
 73
     4
 40
0.000008
 49
0.000005
 49
-0.000001
 49
0.000001
 49
-0.000001
  0
LTYPE
  2
PHANTOM
 70
    64
  3
_____ _ _ _____ _ _ _____ _ _ _____ _ _ ____
 72
    65
 73
     6
 40
0.000010
 49
0.000005
 49
-0.000001
 49
0.000001
 49
-0.000001
 49
0.000001
 49
-0.000001
  0
LTYPE
  2
DOT
 70
    64
  3
...............................................
 72
    65
 73
     2
 40
0.000001
 49
0.000000
 49
-0.000001
  0
LTYPE
  2
DASHDOT
 70
    64
  3
__ . __ . __ . __ . __ . __ . __ . __ . __ . __
 72
    65
 73
     4
 40
0.000004
 49
0.000002
 49
-0.000001
 49
0.000000
 49
-0.000001
  0
LTYPE
  2
BORDER
 70
    64
  3
__ __ . __ __ . __ __ . __ __ . __ __ . __ __
 72
    65
 73
     6
 40
0.000007
 49
0.000002
 49
-0.000001
 49
0.000002
 49
-0.000001
 49
0.000000
 49
-0.000001
  0
LTYPE
  2
DIVIDE
 70
    64
  3
__ . . __ . . __ . . __ . . __ . . __ . . __
 72
    65
 73
     6
 40
0.000005
 49
0.000002
 49
-0.000001
 49
0.000000
 49
-0.000001
 49
0.000000
 49
-0.000001
  0
LTYPE
  2
DOTDOT
 70
    64
  3
 . .  . .  . .  . .  . .  . . 
 72
    65
 73
     5
 40
0.000002
 49
-0.000001
 49
0.000000
 49
-0.000001
 49
0.000000
 49
-0.000001
  0
ENDTAB
  0
TABLE
  2
STYLE
 70
     0
  0
ENDTAB
  0
TABLE
  2
LAYER
 70
     3
  0
LAYER
  2
FOREGROUND
 70
    64
 62
     7
  6
CONTINUOUS
  0
LAYER
  2
BACKGROUND
 70
    65
 62
    -7
  6
CONTINUOUS
  0
LAYER
  2
PLAN_1
 70
    64
 62
     7
  6
CONTINUOUS
  0
ENDTAB
  0
ENDSEC
  0
SECTION
  2
ENTITIES
  0
POLYLINE
  8
PLAN_1
  6
CONTINUOUS
 66
     1
 40
0.003000
 41
0.003000
  0
VERTEX
  8
PLAN_1
  6
CONTINUOUS
 10
0.403008
 20
-3.688283
  0
VERTEX
  8
PLAN_1
  6
CONTINUOUS
 10
0.246287
 20
-3.688283
  0
VERTEX
  8
PLAN_1
  6
CONTINUOUS
 10
0.246287
 20
-3.666161
  0
VERTEX
  8
PLAN_1
  6
CONTINUOUS
 10
0.368181
 20
-3.513209
  0
VERTEX
  8
PLAN_1
  6
CONTINUOUS
 10
0.255228
 20
-3.513209
  0
VERTEX
  8
PLAN_1
  6
CONTINUOUS
 10
0.255228
 20
-3.489205
  0
VERTEX
  8
PLAN_1
  6
CONTINUOUS
 10
0.403008
 20
-3.489205
  0
VERTEX
  8
PLAN_1
  6
CONTINUOUS
 10
0.403008
 20
-3.512268
  0
VERTEX
  8
PLAN_1
  6
CONTINUOUS
 10
0.280173
 20
-3.664752
  0
VERTEX
  8
PLAN_1
  6
CONTINUOUS
 10
0.403008
 20
-3.664752
  0
VERTEX
  8
PLAN_1
  6
CONTINUOUS
 10
0.403008
 20
-3.688283
  0
SEQEND
  8
0
  0
POLYLINE
  8
PLAN_1
  6
CONTINUOUS
 66
     1
 40
0.003000
 41
0.003000
  0
VERTEX
  8
PLAN_1
  6
CONTINUOUS
 10
0.570551
 20
-3.548976
  0
VERTEX
  8
PLAN_1
  6
CONTINUOUS
 10
0.568669
 20
-3.542858
  0
VERTEX
  8
PLAN_1
  6
CONTINUOUS
 10
0.566787
 20
-3.537209
  0
VERTEX
  8
PLAN_1
  6
CONTINUOUS
 10
0.563965
 20
-3.532504
  0
VERTEX
  8
PLAN_1
  6
CONTINUOUS
 10
0.561142
 20
-3.527795
  0
VERTEX
  8
PLAN_1
  6
CONTINUOUS
 10
0.557846
 20
-3.524031
  0
VERTEX
  8
PLAN_1
  6
CONTINUOUS
 10
0.554551
 20
-3.520736
  0
VERTEX
  8
PLAN_1
  6
CONTINUOUS
 10
0.550787
 20
-3.517913
  0
VERTEX
  8
PLAN_1
  6
CONTINUOUS
 10
0.547020
 20
-3.515091
  0
VERTEX
  8
PLAN_1
  6
CONTINUOUS
 10
0.542787
 20
-3.513209
  0
VERTEX
  8
PLAN_1
  6
CONTINUOUS
 10
0.538551
 20
-3.511795
  0
VERTEX
  8
PLAN_1
  6
CONTINUOUS
 10
0.534315
 20
-3.510382
  0
VERTEX
  8
PLAN_1
  6
CONTINUOUS
 10
0.530079
 20
-3.509441
  0
VERTEX
  8
PLAN_1
  6
CONTINUOUS
 10
0.522079
 20
-3.508031
  0
VERTEX
  8
PLAN_1
  6
CONTINUOUS
 10
0.514547
 20
-3.507559
  0
VERTEX
  8
PLAN_1
  6
CONTINUOUS
 10
0.507961
 20
-3.508031
  0
VERTEX
  8
PLAN_1
  6
CONTINUOUS
 10
0.501370
 20
-3.508972
  0
VERTEX
  8
PLAN_1
  6
CONTINUOUS
 10
0.495252
 20
-3.510382
  0
VERTEX
  8
PLAN_1
  6
CONTINUOUS
 10
0.489134
 20
-3.512736
  0
VERTEX
  8
PLAN_1
  6
CONTINUOUS
 10
0.483484
 20
-3.515559
  0
VERTEX
  8
PLAN_1
  6
CONTINUOUS
 10
0.477839
 20
-3.518854
  0
VERTEX
  8
PLAN_1
  6
CONTINUOUS
 10
0.473134
 20
-3.523091
  0
VERTEX
  8
PLAN_1
  6
CONTINUOUS
 10
0.468425
 20
-3.527795
  0
VERTEX
  8
PLAN_1
  6
CONTINUOUS
 10
0.464189
 20
-3.532972
  0
VERTEX
  8
PLAN_1
  6
CONTINUOUS
 10
0.460425
 20
-3.538622
  0
VERTEX
  8
PLAN_1
  6
CONTINUOUS
 10
0.457130
 20
-3.545209
  0
VERTEX
  8
PLAN_1
  6
CONTINUOUS
 10
0.454307
 20
-3.552268
  0
VERTEX
  8
PLAN_1
  6
CONTINUOUS
 10
0.452425
 20
-3.560272
  0
VERTEX
  8
PLAN_1
  6
CONTINUOUS
 10
0.450543
 20
-3.568272
  0
VERTEX
  8
PLAN_1
  6
CONTINUOUS
 10
0.449602
 20
-3.577213
  0
VERTEX
  8
PLAN_1
  6
CONTINUOUS
 10
0.449130
 20
-3.586626
  0
VERTEX
  8
PLAN_1
  6
CONTINUOUS
 10
0.449602
 20
-3.595567
  0
VERTEX
  8
PLAN_1
  6
CONTINUOUS
 10
0.450071
 20
-3.604039
  0
VERTEX
  8
PLAN_1
  6
CONTINUOUS
 10
0.451012
 20
-3.612039
  0
VERTEX
  8
PLAN_1
  6
CONTINUOUS
 10
0.452894
 20
-3.619571
  0
VERTEX
  8
PLAN_1
  6
CONTINUOUS
 10
0.454776
 20
-3.627098
  0
VERTEX
  8
PLAN_1
  6
CONTINUOUS
 10
0.457130
 20
-3.633689
  0
VERTEX
  8
PLAN_1
  6
CONTINUOUS
 10
0.460425
 20
-3.640280
  0
VERTEX
  8
PLAN_1
  6
CONTINUOUS
 10
0.463720
 20
-3.645925
  0
VERTEX
  8
PLAN_1
  6
CONTINUOUS
 10
0.467957
 20
-3.651102
  0
VERTEX
  8
PLAN_1
  6
CONTINUOUS
 10
0.472661
 20
-3.655807
  0
VERTEX
  8
PLAN_1
  6
CONTINUOUS
 10
0.478311
 20
-3.660043
  0
VERTEX
  8
PLAN_1
  6
CONTINUOUS
 10
0.484429
 20
-3.663339
  0
VERTEX
  8
PLAN_1
  6
CONTINUOUS
 10
0.491016
 20
-3.666161
  0
VERTEX
  8
PLAN_1
  6
CONTINUOUS
 10
0.498547
 20
-3.668043
  0
VERTEX
  8
PLAN_1
  6
CONTINUOUS
 10
0.506547
 20
-3.669457
  0
VERTEX
  8
PLAN_1
  6
CONTINUOUS
 10
0.515488
 20
-3.669929
  0
VERTEX
  8
PLAN_1
  6
CONTINUOUS
 10
0.518783
 20
-3.669929
  0
VERTEX
  8
PLAN_1
  6
CONTINUOUS
 10
0.522547
 20
-3.669457
  0
VERTEX
  8
PLAN_1
  6
CONTINUOUS
 10
0.526315
 20
-3.668988
  0
VERTEX
  8
PLAN_1
  6
CONTINUOUS
 10
0.530551
 20
-3.667575
  0
VERTEX
  8
PLAN_1
  6
CONTINUOUS
 10
0.534315
 20
-3.666634
  0
VERTEX
  8
PLAN_1
  6
CONTINUOUS
 10
0.538551
 20
-3.664752
  0
VERTEX
  8
PLAN_1
  6
CONTINUOUS
 10
0.542787
 20
-3.662398
  0
VERTEX
  8
PLAN_1
  6
CONTINUOUS
 10
0.547020
 20
-3.660043
  0
VERTEX
  8
PLAN_1
  6
CONTINUOUS
 10
0.550787
 20
-3.656748
  0
VERTEX
  8
PLAN_1
  6
CONTINUOUS
 10
0.555024
 20
-3.652984
  0
VERTEX
  8
PLAN_1
  6
CONTINUOUS
 10
0.558787
 20
-3.648280
  0
VERTEX
  8
PLAN_1
  6
CONTINUOUS
 10
0.562083
 20
-3.643102
  0
VERTEX
  8
PLAN_1
  6
CONTINUOUS
 10
0.565378
 20
-3.637453
  0
VERTEX
  8
PLAN_1
  6
CONTINUOUS
 10
0.567728
 20
-3.630866
  0
VERTEX
  8
PLAN_1
  6
CONTINUOUS
 10
0.570551
 20
-3.623335
  0
VERTEX
  8
PLAN_1
  6
CONTINUOUS
 10
0.572437
 20
-3.615335
  0
VERTEX
  8
PLAN_1
  6
CONTINUOUS
 10
0.598319
 20
-3.615335
  0
VERTEX
  8
PLAN_1
  6
CONTINUOUS
 10
0.597378
 20
-3.621921
  0
VERTEX
  8
PLAN_1
  6
CONTINUOUS
 10
0.595969
 20
-3.628512
  0
VERTEX
  8
PLAN_1
  6
CONTINUOUS
 10
0.594083
 20
-3.634630
  0
VERTEX
  8
PLAN_1
  6
CONTINUOUS
 10
0.592201
 20
-3.640280
  0
VERTEX
  8
PLAN_1
  6
CONTINUOUS
 10
0.589850
 20
-3.645457
  0
VERTEX
  8
PLAN_1
  6
CONTINUOUS
 10
0.587496
 20
-3.650161
  0
VERTEX
  8
PLAN_1
  6
CONTINUOUS
 10
0.585142
 20
-3.654866
  0
VERTEX
  8
PLAN_1
  6
CONTINUOUS
 10
0.582319
 20
-3.659102
  0
VERTEX
  8
PLAN_1
  6
CONTINUOUS
 10
0.579496
 20
-3.662870
  0
VERTEX
  8
PLAN_1
  6
CONTINUOUS
 10
0.576201
 20
-3.666634
  0
VERTEX
  8
PLAN_1
  6
CONTINUOUS
 10
0.572906
 20
-3.669929
  0
VERTEX
  8
PLAN_1
  6
CONTINUOUS
 10
0.570083
 20
-3.673220
  0
VERTEX
  8
PLAN_1
  6
CONTINUOUS
 10
0.563024
 20
-3.678398
  0
VERTEX
  8
PLAN_1
  6
CONTINUOUS
 10
0.556433
 20
-3.682634
  0
VERTEX
  8
PLAN_1
  6
CONTINUOUS
 10
0.549374
 20
-3.685929
  0
VERTEX
  8
PLAN_1
  6
CONTINUOUS
 10
0.542315
 20
-3.688752
  0
VERTEX
  8
PLAN_1
  6
CONTINUOUS
 10
0.535724
 20
-3.690634
  0
VERTEX
  8
PLAN_1
  6
CONTINUOUS
 10
0.529606
 20
-3.692047
  0
VERTEX
  8
PLAN_1
  6
CONTINUOUS
 10
0.518783
 20
-3.693461
  0
VERTEX
  8
PLAN_1
  6
CONTINUOUS
 10
0.511252
 20
-3.693461
  0
VERTEX
  8
PLAN_1
  6
CONTINUOUS
 10
0.502783
 20
-3.693461
  0
VERTEX
  8
PLAN_1
  6
CONTINUOUS
 10
0.494311
 20
-3.692047
  0
VERTEX
  8
PLAN_1
  6
CONTINUOUS
 10
0.486311
 20
-3.690634
  0
VERTEX
  8
PLAN_1
  6
CONTINUOUS
 10
0.478311
 20
-3.687811
  0
VERTEX
  8
PLAN_1
  6
CONTINUOUS
 10
0.470307
 20
-3.684516
  0
VERTEX
  8
PLAN_1
  6
CONTINUOUS
 10
0.462780
 20
-3.680283
  0
VERTEX
  8
PLAN_1
  6
CONTINUOUS
 10
0.459484
 20
-3.677929
  0
VERTEX
  8
PLAN_1
  6
CONTINUOUS
 10
0.456189
 20
-3.675106
  0
VERTEX
  8
PLAN_1
  6
CONTINUOUS
 10
0.452425
 20
-3.672280
  0
VERTEX
  8
PLAN_1
  6
CONTINUOUS
 10
0.449602
 20
-3.669457
  0
VERTEX
  8
PLAN_1
  6
CONTINUOUS
 10
0.446307
 20
-3.666161
  0
VERTEX
  8
PLAN_1
  6
CONTINUOUS
 10
0.443484
 20
-3.662398
  0
VERTEX
  8
PLAN_1
  6
CONTINUOUS
 10
0.440657
 20
-3.658634
  0
VERTEX
  8
PLAN_1
  6
CONTINUOUS
 10
0.437835
 20
-3.654866
  0
VERTEX
  8
PLAN_1
  6
CONTINUOUS
 10
0.435480
 20
-3.650630
  0
VERTEX
  8
PLAN_1
  6
CONTINUOUS
 10
0.433130
 20
-3.646398
  0
VERTEX
  8
PLAN_1
  6
CONTINUOUS
 10
0.431244
 20
-3.641689
  0
VERTEX
  8
PLAN_1
  6
CONTINUOUS
 10
0.429362
 20
-3.636512
  0
VERTEX
  8
PLAN_1
  6
CONTINUOUS
 10
0.427480
 20
-3.631335
  0
VERTEX
  8
PLAN_1
  6
CONTINUOUS
 10
0.426071
 20
-3.625689
  0
VERTEX
  8
PLAN_1
  6
CONTINUOUS
 10
0.424657
 20
-3.620039
  0
VERTEX
  8
PLAN_1
  6
CONTINUOUS
 10
0.423717
 20
-3.614394
  0
VERTEX
  8
PLAN_1
  6
CONTINUOUS
 10
0.422776
 20
-3.607803
  0
VERTEX
  8
PLAN_1
  6
CONTINUOUS
 10
0.422303
 20
-3.601685
  0
VERTEX
  8
PLAN_1
  6
CONTINUOUS
 10
0.421835
 20
-3.594626
  0
VERTEX
  8
PLAN_1
  6
CONTINUOUS
 10
0.421362
 20
-3.587567
  0
VERTEX
  8
PLAN_1
  6
CONTINUOUS
 10
0.421835
 20
-3.576272
  0
VERTEX
  8
PLAN_1
  6
CONTINUOUS
 10
0.423244
 20
-3.565449
  0
VERTEX
  8
PLAN_1
  6
CONTINUOUS
 10
0.425126
 20
-3.555094
  0
VERTEX
  8
PLAN_1
  6
CONTINUOUS
 10
0.427953
 20
-3.545681
  0
VERTEX
  8
PLAN_1
  6
CONTINUOUS
 10
0.431244
 20
-3.536268
  0
VERTEX
  8
PLAN_1
  6
CONTINUOUS
 10
0.435480
 20
-3.527795
  0
VERTEX
  8
PLAN_1
  6
CONTINUOUS
 10
0.438307
 20
-3.524031
  0
VERTEX
  8
PLAN_1
  6
CONTINUOUS
 10
0.440657
 20
-3.519795
  0
VERTEX
  8
PLAN_1
  6
CONTINUOUS
 10
0.443484
 20
-3.516500
  0
VERTEX
  8
PLAN_1
  6
CONTINUOUS
 10
0.446307
 20
-3.512736
  0
VERTEX
  8
PLAN_1
  6
CONTINUOUS
 10
0.449602
 20
-3.509441
  0
VERTEX
  8
PLAN_1
  6
CONTINUOUS
 10
0.452425
 20
-3.506150
  0
VERTEX
  8
PLAN_1
  6
CONTINUOUS
 10
0.456189
 20
-3.503323
  0
VERTEX
  8
PLAN_1
  6
CONTINUOUS
 10
0.459484
 20
-3.500500
  0
VERTEX
  8
PLAN_1
  6
CONTINUOUS
 10
0.463248
 20
-3.498146
  0
VERTEX
  8
PLAN_1
  6
CONTINUOUS
 10
0.467484
 20
-3.495795
  0
VERTEX
  8
PLAN_1
  6
CONTINUOUS
 10
0.471248
 20
-3.493441
  0
VERTEX
  8
PLAN_1
  6
CONTINUOUS
 10
0.475484
 20
-3.491559
  0
VERTEX
  8
PLAN_1
  6
CONTINUOUS
 10
0.479720
 20
-3.489677
  0
VERTEX
  8
PLAN_1
  6
CONTINUOUS
 10
0.484429
 20
-3.488264
  0
VERTEX
  8
PLAN_1
  6
CONTINUOUS
 10
0.489134
 20
-3.486850
  0
VERTEX
  8
PLAN_1
  6
CONTINUOUS
 10
0.493839
 20
-3.485909
  0
VERTEX
  8
PLAN_1
  6
CONTINUOUS
 10
0.499016
 20
-3.484969
  0
VERTEX
  8
PLAN_1
  6
CONTINUOUS
 10
0.504193
 20
-3.484500
  0
VERTEX
  8
PLAN_1
  6
CONTINUOUS
 10
0.509370
 20
-3.484028
  0
VERTEX
  8
PLAN_1
  6
CONTINUOUS
 10
0.514547
 20
-3.484028
  0
VERTEX
  8
PLAN_1
  6
CONTINUOUS
 10
0.523961
 20
-3.484028
  0
VERTEX
  8
PLAN_1
  6
CONTINUOUS
 10
0.532433
 20
-3.485441
  0
VERTEX
  8
PLAN_1
  6
CONTINUOUS
 10
0.540902
 20
-3.486850
  0
VERTEX
  8
PLAN_1
  6
CONTINUOUS
 10
0.548433
 20
-3.489205
  0
VERTEX
  8
PLAN_1
  6
CONTINUOUS
 10
0.555492
 20
-3.492500
  0
VERTEX
  8
PLAN_1
  6
CONTINUOUS
 10
0.562083
 20
-3.495795
  0
VERTEX
  8
PLAN_1
  6
CONTINUOUS
 10
0.567728
 20
-3.499559
  0
VERTEX
  8
PLAN_1
  6
CONTINUOUS
 10
0.573378
 20
-3.503795
  0
VERTEX
  8
PLAN_1
  6
CONTINUOUS
 10
0.578083
 20
-3.508500
  0
VERTEX
  8
PLAN_1
  6
CONTINUOUS
 10
0.582319
 20
-3.513677
  0
VERTEX
  8
PLAN_1
  6
CONTINUOUS
 10
0.586083
 20
-3.519327
  0
VERTEX
  8
PLAN_1
  6
CONTINUOUS
 10
0.589378
 20
-3.524972
  0
VERTEX
  8
PLAN_1
  6
CONTINUOUS
 10
0.591732
 20
-3.530622
  0
VERTEX
  8
PLAN_1
  6
CONTINUOUS
 10
0.594083
 20
-3.536740
  0
VERTEX
  8
PLAN_1
  6
CONTINUOUS
 10
0.595496
 20
-3.542858
  0
VERTEX
  8
PLAN_1
  6
CONTINUOUS
 10
0.596437
 20
-3.548976
  0
VERTEX
  8
PLAN_1
  6
CONTINUOUS
 10
0.570551
 20
-3.548976
  0
SEQEND
  8
0
  0
POLYLINE
  8
PLAN_1
  6
CONTINUOUS
 66
     1
 40
0.003000
 41
0.003000
  0
VERTEX
  8
PLAN_1
  6
CONTINUOUS
 10
0.658091
 20
-3.688283
  0
VERTEX
  8
PLAN_1
  6
CONTINUOUS
 10
0.630795
 20
-3.688283
  0
VERTEX
  8
PLAN_1
  6
CONTINUOUS
 10
0.630795
 20
-3.489205
  0
VERTEX
  8
PLAN_1
  6
CONTINUOUS
 10
0.658091
 20
-3.489205
  0
VERTEX
  8
PLAN_1
  6
CONTINUOUS
 10
0.658091
 20
-3.585685
  0
VERTEX
  8
PLAN_1
  6
CONTINUOUS
 10
0.754571
 20
-3.489205
  0
VERTEX
  8
PLAN_1
  6
CONTINUOUS
 10
0.791748
 20
-3.489205
  0
VERTEX
  8
PLAN_1
  6
CONTINUOUS
 10
0.708449
 20
-3.569681
  0
VERTEX
  8
PLAN_1
  6
CONTINUOUS
 10
0.794102
 20
-3.688283
  0
VERTEX
  8
PLAN_1
  6
CONTINUOUS
 10
0.758807
 20
-3.688283
  0
VERTEX
  8
PLAN_1
  6
CONTINUOUS
 10
0.689154
 20
-3.588508
  0
VERTEX
  8
PLAN_1
  6
CONTINUOUS
 10
0.658091
 20
-3.618630
  0
VERTEX
  8
PLAN_1
  6
CONTINUOUS
 10
0.658091
 20
-3.688283
  0
SEQEND
  8
0
  0
POLYLINE
  8
PLAN_1
  6
CONTINUOUS
 66
     1
 40
0.003000
 41
0.003000
  0
VERTEX
  8
PLAN_1
  6
CONTINUOUS
 10
0.817634
 20
-3.489205
  0
VERTEX
  8
PLAN_1
  6
CONTINUOUS
 10
0.898114
 20
-3.489205
  0
VERTEX
  8
PLAN_1
  6
CONTINUOUS
 10
0.907996
 20
-3.489677
  0
VERTEX
  8
PLAN_1
  6
CONTINUOUS
 10
0.916937
 20
-3.491087
  0
VERTEX
  8
PLAN_1
  6
CONTINUOUS
 10
0.925409
 20
-3.492969
  0
VERTEX
  8
PLAN_1
  6
CONTINUOUS
 10
0.933409
 20
-3.496264
  0
VERTEX
  8
PLAN_1
  6
CONTINUOUS
 10
0.940941
 20
-3.500028
  0
VERTEX
  8
PLAN_1
  6
CONTINUOUS
 10
0.947528
 20
-3.504736
  0
VERTEX
  8
PLAN_1
  6
CONTINUOUS
 10
0.954118
 20
-3.509913
  0
VERTEX
  8
PLAN_1
  6
CONTINUOUS
 10
0.959764
 20
-3.516031
  0
VERTEX
  8
PLAN_1
  6
CONTINUOUS
 10
0.964941
 20
-3.522618
  0
VERTEX
  8
PLAN_1
  6
CONTINUOUS
 10
0.969177
 20
-3.530150
  0
VERTEX
  8
PLAN_1
  6
CONTINUOUS
 10
0.972945
 20
-3.538150
  0
VERTEX
  8
PLAN_1
  6
CONTINUOUS
 10
0.976236
 20
-3.546622
  0
VERTEX
  8
PLAN_1
  6
CONTINUOUS
 10
0.979063
 20
-3.555563
  0
VERTEX
  8
PLAN_1
  6
CONTINUOUS
 10
0.980472
 20
-3.565449
  0
VERTEX
  8
PLAN_1
  6
CONTINUOUS
 10
0.981886
 20
-3.575331
  0
VERTEX
  8
PLAN_1
  6
CONTINUOUS
 10
0.982354
 20
-3.586154
  0
VERTEX
  8
PLAN_1
  6
CONTINUOUS
 10
0.981886
 20
-3.594626
  0
VERTEX
  8
PLAN_1
  6
CONTINUOUS
 10
0.981413
 20
-3.603098
  0
VERTEX
  8
PLAN_1
  6
CONTINUOUS
 10
0.980004
 20
-3.612039
  0
VERTEX
  8
PLAN_1
  6
CONTINUOUS
 10
0.978122
 20
-3.620980
  0
VERTEX
  8
PLAN_1
  6
CONTINUOUS
 10
0.975768
 20
-3.629453
  0
VERTEX
  8
PLAN_1
  6
CONTINUOUS
 10
0.972472
 20
-3.637925
  0
VERTEX
  8
PLAN_1
  6
CONTINUOUS
 10
0.968709
 20
-3.646398
  0
VERTEX
  8
PLAN_1
  6
CONTINUOUS
 10
0.964472
 20
-3.653925
  0
VERTEX
  8
PLAN_1
  6
CONTINUOUS
 10
0.961650
 20
-3.657693
  0
VERTEX
  8
PLAN_1
  6
CONTINUOUS
 10
0.958823
 20
-3.660984
  0
VERTEX
  8
PLAN_1
  6
CONTINUOUS
 10
0.956000
 20
-3.664752
  0
VERTEX
  8
PLAN_1
  6
CONTINUOUS
 10
0.952705
 20
-3.667575
  0
VERTEX
  8
PLAN_1
  6
CONTINUOUS
 10
0.949413
 20
-3.670870
  0
VERTEX
  8
PLAN_1
  6
CONTINUOUS
 10
0.946118
 20
-3.673693
  0
VERTEX
  8
PLAN_1
  6
CONTINUOUS
 10
0.942350
 20
-3.676516
  0
VERTEX
  8
PLAN_1
  6
CONTINUOUS
 10
0.938118
 20
-3.678870
  0
VERTEX
  8
PLAN_1
  6
CONTINUOUS
 10
0.933882
 20
-3.680752
  0
VERTEX
  8
PLAN_1
  6
CONTINUOUS
 10
0.929173
 20
-3.682634
  0
VERTEX
  8
PLAN_1
  6
CONTINUOUS
 10
0.924469
 20
-3.684516
  0
VERTEX
  8
PLAN_1
  6
CONTINUOUS
 10
0.919760
 20
-3.685929
  0
VERTEX
  8
PLAN_1
  6
CONTINUOUS
 10
0.914587
 20
-3.686870
  0
VERTEX
  8
PLAN_1
  6
CONTINUOUS
 10
0.908937
 20
-3.687811
  0
VERTEX
  8
PLAN_1
  6
CONTINUOUS
 10
0.903291
 20
-3.688283
  0
VERTEX
  8
PLAN_1
  6
CONTINUOUS
 10
0.897173
 20
-3.688283
  0
VERTEX
  8
PLAN_1
  6
CONTINUOUS
 10
0.817634
 20
-3.688283
  0
VERTEX
  8
PLAN_1
  6
CONTINUOUS
 10
0.817634
 20
-3.489205
  0
SEQEND
  8
0
  0
POLYLINE
  8
PLAN_1
  6
CONTINUOUS
 66
     1
 40
0.003000
 41
0.003000
  0
VERTEX
  8
PLAN_1
  6
CONTINUOUS
 10
0.844461
 20
-3.665220
  0
VERTEX
  8
PLAN_1
  6
CONTINUOUS
 10
0.896701
 20
-3.665220
  0
VERTEX
  8
PLAN_1
  6
CONTINUOUS
 10
0.903291
 20
-3.665220
  0
VERTEX
  8
PLAN_1
  6
CONTINUOUS
 10
0.909409
 20
-3.664280
  0
VERTEX
  8
PLAN_1
  6
CONTINUOUS
 10
0.915055
 20
-3.662398
  0
VERTEX
  8
PLAN_1
  6
CONTINUOUS
 10
0.920232
 20
-3.660516
  0
VERTEX
  8
PLAN_1
  6
CONTINUOUS
 10
0.925409
 20
-3.657693
  0
VERTEX
  8
PLAN_1
  6
CONTINUOUS
 10
0.930114
 20
-3.653925
  0
VERTEX
  8
PLAN_1
  6
CONTINUOUS
 10
0.934823
 20
-3.650161
  0
VERTEX
  8
PLAN_1
  6
CONTINUOUS
 10
0.938587
 20
-3.645457
  0
VERTEX
  8
PLAN_1
  6
CONTINUOUS
 10
0.942350
 20
-3.640280
  0
VERTEX
  8
PLAN_1
  6
CONTINUOUS
 10
0.945177
 20
-3.634161
  0
VERTEX
  8
PLAN_1
  6
CONTINUOUS
 10
0.948000
 20
-3.628043
  0
VERTEX
  8
PLAN_1
  6
CONTINUOUS
 10
0.950354
 20
-3.620980
  0
VERTEX
  8
PLAN_1
  6
CONTINUOUS
 10
0.952236
 20
-3.613453
  0
VERTEX
  8
PLAN_1
  6
CONTINUOUS
 10
0.953177
 20
-3.605453
  0
VERTEX
  8
PLAN_1
  6
CONTINUOUS
 10
0.954118
 20
-3.596980
  0
VERTEX
  8
PLAN_1
  6
CONTINUOUS
 10
0.954587
 20
-3.587567
  0
VERTEX
  8
PLAN_1
  6
CONTINUOUS
 10
0.954118
 20
-3.578626
  0
VERTEX
  8
PLAN_1
  6
CONTINUOUS
 10
0.953177
 20
-3.570154
  0
VERTEX
  8
PLAN_1
  6
CONTINUOUS
 10
0.952236
 20
-3.562154
  0
VERTEX
  8
PLAN_1
  6
CONTINUOUS
 10
0.950354
 20
-3.554622
  0
VERTEX
  8
PLAN_1
  6
CONTINUOUS
 10
0.948000
 20
-3.548035
  0
VERTEX
  8
PLAN_1
  6
CONTINUOUS
 10
0.945177
 20
-3.541917
  0
VERTEX
  8
PLAN_1
  6
CONTINUOUS
 10
0.941882
 20
-3.536268
  0
VERTEX
  8
PLAN_1
  6
CONTINUOUS
 10
0.938118
 20
-3.531091
  0
VERTEX
  8
PLAN_1
  6
CONTINUOUS
 10
0.934350
 20
-3.526854
  0
VERTEX
  8
PLAN_1
  6
CONTINUOUS
 10
0.929646
 20
-3.522618
  0
VERTEX
  8
PLAN_1
  6
CONTINUOUS
 10
0.924937
 20
-3.519795
  0
VERTEX
  8
PLAN_1
  6
CONTINUOUS
 10
0.919291
 20
-3.516972
  0
VERTEX
  8
PLAN_1
  6
CONTINUOUS
 10
0.913642
 20
-3.514618
  0
VERTEX
  8
PLAN_1
  6
CONTINUOUS
 10
0.907996
 20
-3.513209
  0
VERTEX
  8
PLAN_1
  6
CONTINUOUS
 10
0.901406
 20
-3.512268
  0
VERTEX
  8
PLAN_1
  6
CONTINUOUS
 10
0.894819
 20
-3.512268
  0
VERTEX
  8
PLAN_1
  6
CONTINUOUS
 10
0.844461
 20
-3.512268
  0
VERTEX
  8
PLAN_1
  6
CONTINUOUS
 10
0.844461
 20
-3.665220
  0
SEQEND
  8
0
  0
POLYLINE
  8
PLAN_1
  6
CONTINUOUS
 66
     1
 40
0.003000
 41
0.003000
  0
VERTEX
  8
PLAN_1
  6
CONTINUOUS
 10
1.057657
 20
-3.577213
  0
VERTEX
  8
PLAN_1
  6
CONTINUOUS
 10
1.059539
 20
-3.577685
  0
VERTEX
  8
PLAN_1
  6
CONTINUOUS
 10
1.060953
 20
-3.577685
  0
VERTEX
  8
PLAN_1
  6
CONTINUOUS
 10
1.062362
 20
-3.577685
  0
VERTEX
  8
PLAN_1
  6
CONTINUOUS
 10
1.064244
 20
-3.577685
  0
VERTEX
  8
PLAN_1
  6
CONTINUOUS
 10
1.065657
 20
-3.577685
  0
VERTEX
  8
PLAN_1
  6
CONTINUOUS
 10
1.067539
 20
-3.577685
  0
VERTEX
  8
PLAN_1
  6
CONTINUOUS
 10
1.068953
 20
-3.578154
  0
VERTEX
  8
PLAN_1
  6
CONTINUOUS
 10
1.070362
 20
-3.578154
  0
VERTEX
  8
PLAN_1
  6
CONTINUOUS
 10
1.077425
 20
-3.577685
  0
VERTEX
  8
PLAN_1
  6
CONTINUOUS
 10
1.084484
 20
-3.576272
  0
VERTEX
  8
PLAN_1
  6
CONTINUOUS
 10
1.087307
 20
-3.575331
  0
VERTEX
  8
PLAN_1
  6
CONTINUOUS
 10
1.090602
 20
-3.574390
  0
VERTEX
  8
PLAN_1
  6
CONTINUOUS
 10
1.093425
 20
-3.572976
  0
VERTEX
  8
PLAN_1
  6
CONTINUOUS
 10
1.096248
 20
-3.571094
  0
VERTEX
  8
PLAN_1
  6
CONTINUOUS
 10
1.098602
 20
-3.569213
  0
VERTEX
  8
PLAN_1
  6
CONTINUOUS
 10
1.100957
 20
-3.566858
  0
VERTEX
  8
PLAN_1
  6
CONTINUOUS
 10
1.102839
 20
-3.564035
  0
VERTEX
  8
PLAN_1
  6
CONTINUOUS
 10
1.104720
 20
-3.561213
  0
VERTEX
  8
PLAN_1
  6
CONTINUOUS
 10
1.105661
 20
-3.557917
  0
VERTEX
  8
PLAN_1
  6
CONTINUOUS
 10
1.107075
 20
-3.554622
  0
VERTEX
  8
PLAN_1
  6
CONTINUOUS
 10
1.107543
 20
-3.550386
  0
VERTEX
  8
PLAN_1
  6
CONTINUOUS
 10
1.107543
 20
-3.546150
  0
VERTEX
  8
PLAN_1
  6
CONTINUOUS
 10
1.107543
 20
-3.541445
  0
VERTEX
  8
PLAN_1
  6
CONTINUOUS
 10
1.106134
 20
-3.536268
  0
VERTEX
  8
PLAN_1
  6
CONTINUOUS
 10
1.105189
 20
-3.533913
  0
VERTEX
  8
PLAN_1
  6
CONTINUOUS
 10
1.103780
 20
-3.531091
  0
VERTEX
  8
PLAN_1
  6
CONTINUOUS
 10
1.102366
 20
-3.528736
  0
VERTEX
  8
PLAN_1
  6
CONTINUOUS
 10
1.100484
 20
-3.526386
  0
VERTEX
  8
PLAN_1
  6
CONTINUOUS
 10
1.098602
 20
-3.524031
  0
VERTEX
  8
PLAN_1
  6
CONTINUOUS
 10
1.095780
 20
-3.521677
  0
VERTEX
  8
PLAN_1
  6
CONTINUOUS
 10
1.092953
 20
-3.520268
  0
VERTEX
  8
PLAN_1
  6
CONTINUOUS
 10
1.089661
 20
-3.518386
  0
VERTEX
  8
PLAN_1
  6
CONTINUOUS
 10
1.085894
 20
-3.516972
  0
VERTEX
  8
PLAN_1
  6
CONTINUOUS
 10
1.081657
 20
-3.516031
  0
VERTEX
  8
PLAN_1
  6
CONTINUOUS
 10
1.076953
 20
-3.515559
  0
VERTEX
  8
PLAN_1
  6
CONTINUOUS
 10
1.071776
 20
-3.515091
  0
VERTEX
  8
PLAN_1
  6
CONTINUOUS
 10
1.065657
 20
-3.515559
  0
VERTEX
  8
PLAN_1
  6
CONTINUOUS
 10
1.060012
 20
-3.516500
  0
VERTEX
  8
PLAN_1
  6
CONTINUOUS
 10
1.055303
 20
-3.517913
  0
VERTEX
  8
PLAN_1
  6
CONTINUOUS
 10
1.051067
 20
-3.519795
  0
VERTEX
  8
PLAN_1
  6
CONTINUOUS
 10
1.047776
 20
-3.522150
  0
VERTEX
  8
PLAN_1
  6
CONTINUOUS
 10
1.044480
 20
-3.524972
  0
VERTEX
  8
PLAN_1
  6
CONTINUOUS
 10
1.042126
 20
-3.527795
  0
VERTEX
  8
PLAN_1
  6
CONTINUOUS
 10
1.039772
 20
-3.531091
  0
VERTEX
  8
PLAN_1
  6
CONTINUOUS
 10
1.038362
 20
-3.534386
  0
VERTEX
  8
PLAN_1
  6
CONTINUOUS
 10
1.036949
 20
-3.537681
  0
VERTEX
  8
PLAN_1
  6
CONTINUOUS
 10
1.036008
 20
-3.541445
  0
VERTEX
  8
PLAN_1
  6
CONTINUOUS
 10
1.035067
 20
-3.544740
  0
VERTEX
  8
PLAN_1
  6
CONTINUOUS
 10
1.034126
 20
-3.551327
  0
VERTEX
  8
PLAN_1
  6
CONTINUOUS
 10
1.033654
 20
-3.556976
  0
VERTEX
  8
PLAN_1
  6
CONTINUOUS
 10
1.009654
 20
-3.556976
  0
VERTEX
  8
PLAN_1
  6
CONTINUOUS
 10
1.009654
 20
-3.551799
  0
VERTEX
  8
PLAN_1
  6
CONTINUOUS
 10
1.010122
 20
-3.546150
  0
VERTEX
  8
PLAN_1
  6
CONTINUOUS
 10
1.011063
 20
-3.540504
  0
VERTEX
  8
PLAN_1
  6
CONTINUOUS
 10
1.012476
 20
-3.535327
  0
VERTEX
  8
PLAN_1
  6
CONTINUOUS
 10
1.013890
 20
-3.529681
  0
VERTEX
  8
PLAN_1
  6
CONTINUOUS
 10
1.016240
 20
-3.524504
  0
VERTEX
  8
PLAN_1
  6
CONTINUOUS
 10
1.018594
 20
-3.519327
  0
VERTEX
  8
PLAN_1
  6
CONTINUOUS
 10
1.021890
 20
-3.514618
  0
VERTEX
  8
PLAN_1
  6
CONTINUOUS
 10
1.025654
 20
-3.509913
  0
VERTEX
  8
PLAN_1
  6
CONTINUOUS
 10
1.030362
 20
-3.506150
  0
VERTEX
  8
PLAN_1
  6
CONTINUOUS
 10
1.035535
 20
-3.502382
  0
VERTEX
  8
PLAN_1
  6
CONTINUOUS
 10
1.041185
 20
-3.499087
  0
VERTEX
  8
PLAN_1
  6
CONTINUOUS
 10
1.047776
 20
-3.496736
  0
VERTEX
  8
PLAN_1
  6
CONTINUOUS
 10
1.055303
 20
-3.494854
  0
VERTEX
  8
PLAN_1
  6
CONTINUOUS
 10
1.063776
 20
-3.493909
  0
VERTEX
  8
PLAN_1
  6
CONTINUOUS
 10
1.072717
 20
-3.493441
  0
VERTEX
  8
PLAN_1
  6
CONTINUOUS
 10
1.079776
 20
-3.493441
  0
VERTEX
  8
PLAN_1
  6
CONTINUOUS
 10
1.086366
 20
-3.494382
  0
VERTEX
  8
PLAN_1
  6
CONTINUOUS
 10
1.092484
 20
-3.495323
  0
VERTEX
  8
PLAN_1
  6
CONTINUOUS
 10
1.098130
 20
-3.497205
  0
VERTEX
  8
PLAN_1
  6
CONTINUOUS
 10
1.103307
 20
-3.499087
  0
VERTEX
  8
PLAN_1
  6
CONTINUOUS
 10
1.108484
 20
-3.501913
  0
VERTEX
  8
PLAN_1
  6
CONTINUOUS
 10
1.112720
 20
-3.504736
  0
VERTEX
  8
PLAN_1
  6
CONTINUOUS
 10
1.116957
 20
-3.508031
  0
VERTEX
  8
PLAN_1
  6
CONTINUOUS
 10
1.120720
 20
-3.511323
  0
VERTEX
  8
PLAN_1
  6
CONTINUOUS
 10
1.124016
 20
-3.515559
  0
VERTEX
  8
PLAN_1
  6
CONTINUOUS
 10
1.126370
 20
-3.519795
  0
VERTEX
  8
PLAN_1
  6
CONTINUOUS
 10
1.128720
 20
-3.524031
  0
VERTEX
  8
PLAN_1
  6
CONTINUOUS
 10
1.130606
 20
-3.528736
  0
VERTEX
  8
PLAN_1
  6
CONTINUOUS
 10
1.132016
 20
-3.533913
  0
VERTEX
  8
PLAN_1
  6
CONTINUOUS
 10
1.132488
 20
-3.539091
  0
VERTEX
  8
PLAN_1
  6
CONTINUOUS
 10
1.132957
 20
-3.544740
  0
VERTEX
  8
PLAN_1
  6
CONTINUOUS
 10
1.132957
 20
-3.548976
  0
VERTEX
  8
PLAN_1
  6
CONTINUOUS
 10
1.132488
 20
-3.553213
  0
VERTEX
  8
PLAN_1
  6
CONTINUOUS
 10
1.131547
 20
-3.557445
  0
VERTEX
  8
PLAN_1
  6
CONTINUOUS
 10
1.130606
 20
-3.561213
  0
VERTEX
  8
PLAN_1
  6
CONTINUOUS
 10
1.129193
 20
-3.564508
  0
VERTEX
  8
PLAN_1
  6
CONTINUOUS
 10
1.127780
 20
-3.567331
  0
VERTEX
  8
PLAN_1
  6
CONTINUOUS
 10
1.126370
 20
-3.570154
  0
VERTEX
  8
PLAN_1
  6
CONTINUOUS
 10
1.124488
 20
-3.572976
  0
VERTEX
  8
PLAN_1
  6
CONTINUOUS
 10
1.120720
 20
-3.577213
  0
VERTEX
  8
PLAN_1
  6
CONTINUOUS
 10
1.116484
 20
-3.580508
  0
VERTEX
  8
PLAN_1
  6
CONTINUOUS
 10
1.112252
 20
-3.583331
  0
VERTEX
  8
PLAN_1
  6
CONTINUOUS
 10
1.108016
 20
-3.584744
  0
VERTEX
  8
PLAN_1
  6
CONTINUOUS
 10
1.108016
 20
-3.585685
  0
VERTEX
  8
PLAN_1
  6
CONTINUOUS
 10
1.114602
 20
-3.588039
  0
VERTEX
  8
PLAN_1
  6
CONTINUOUS
 10
1.121193
 20
-3.591331
  0
VERTEX
  8
PLAN_1
  6
CONTINUOUS
 10
1.124016
 20
-3.593685
  0
VERTEX
  8
PLAN_1
  6
CONTINUOUS
 10
1.126370
 20
-3.595567
  0
VERTEX
  8
PLAN_1
  6
CONTINUOUS
 10
1.129193
 20
-3.597921
  0
VERTEX
  8
PLAN_1
  6
CONTINUOUS
 10
1.131075
 20
-3.600744
  0
VERTEX
  8
PLAN_1
  6
CONTINUOUS
 10
1.133429
 20
-3.603567
  0
VERTEX
  8
PLAN_1
  6
CONTINUOUS
 10
1.135311
 20
-3.606862
  0
VERTEX
  8
PLAN_1
  6
CONTINUOUS
 10
1.136724
 20
-3.610157
  0
VERTEX
  8
PLAN_1
  6
CONTINUOUS
 10
1.138134
 20
-3.613921
  0
VERTEX
  8
PLAN_1
  6
CONTINUOUS
 10
1.139075
 20
-3.617689
  0
VERTEX
  8
PLAN_1
  6
CONTINUOUS
 10
1.140016
 20
-3.621921
  0
VERTEX
  8
PLAN_1
  6
CONTINUOUS
 10
1.140488
 20
-3.626157
  0
VERTEX
  8
PLAN_1
  6
CONTINUOUS
 10
1.140488
 20
-3.630866
  0
VERTEX
  8
PLAN_1
  6
CONTINUOUS
 10
1.140016
 20
-3.636984
  0
VERTEX
  8
PLAN_1
  6
CONTINUOUS
 10
1.139547
 20
-3.642630
  0
VERTEX
  8
PLAN_1
  6
CONTINUOUS
 10
1.138134
 20
-3.648748
  0
VERTEX
  8
PLAN_1
  6
CONTINUOUS
 10
1.136252
 20
-3.654398
  0
VERTEX
  8
PLAN_1
  6
CONTINUOUS
 10
1.134370
 20
-3.659575
  0
VERTEX
  8
PLAN_1
  6
CONTINUOUS
 10
1.131547
 20
-3.664752
  0
VERTEX
  8
PLAN_1
  6
CONTINUOUS
 10
1.127780
 20
-3.669929
  0
VERTEX
  8
PLAN_1
  6
CONTINUOUS
 10
1.124016
 20
-3.674161
  0
VERTEX
  8
PLAN_1
  6
CONTINUOUS
 10
1.119311
 20
-3.678398
  0
VERTEX
  8
PLAN_1
  6
CONTINUOUS
 10
1.114134
 20
-3.682165
  0
VERTEX
  8
PLAN_1
  6
CONTINUOUS
 10
1.108484
 20
-3.685457
  0
VERTEX
  8
PLAN_1
  6
CONTINUOUS
 10
1.102366
 20
-3.688283
  0
VERTEX
  8
PLAN_1
  6
CONTINUOUS
 10
1.095307
 20
-3.690634
  0
VERTEX
  8
PLAN_1
  6
CONTINUOUS
 10
1.087307
 20
-3.692520
  0
VERTEX
  8
PLAN_1
  6
CONTINUOUS
 10
1.079307
 20
-3.693461
  0
VERTEX
  8
PLAN_1
  6
CONTINUOUS
 10
1.070362
 20
-3.693461
  0
VERTEX
  8
PLAN_1
  6
CONTINUOUS
 10
1.064717
 20
-3.693461
  0
VERTEX
  8
PLAN_1
  6
CONTINUOUS
 10
1.060012
 20
-3.692988
  0
VERTEX
  8
PLAN_1
  6
CONTINUOUS
 10
1.054835
 20
-3.692520
  0
VERTEX
  8
PLAN_1
  6
CONTINUOUS
 10
1.050126
 20
-3.691106
  0
VERTEX
  8
PLAN_1
  6
CONTINUOUS
 10
1.045890
 20
-3.690165
  0
VERTEX
  8
PLAN_1
  6
CONTINUOUS
 10
1.041654
 20
-3.688752
  0
VERTEX
  8
PLAN_1
  6
CONTINUOUS
 10
1.037890
 20
-3.686870
  0
VERTEX
  8
PLAN_1
  6
CONTINUOUS
 10
1.034126
 20
-3.684988
  0
VERTEX
  8
PLAN_1
  6
CONTINUOUS
 10
1.030362
 20
-3.682634
  0
VERTEX
  8
PLAN_1
  6
CONTINUOUS
 10
1.026594
 20
-3.680283
  0
VERTEX
  8
PLAN_1
  6
CONTINUOUS
 10
1.023772
 20
-3.677457
  0
VERTEX
  8
PLAN_1
  6
CONTINUOUS
 10
1.020476
 20
-3.674634
  0
VERTEX
  8
PLAN_1
  6
CONTINUOUS
 10
1.018122
 20
-3.671339
  0
VERTEX
  8
PLAN_1
  6
CONTINUOUS
 10
1.015772
 20
-3.668043
  0
VERTEX
  8
PLAN_1
  6
CONTINUOUS
 10
1.013890
 20
-3.664752
  0
VERTEX
  8
PLAN_1
  6
CONTINUOUS
 10
1.012004
 20
-3.660984
  0
VERTEX
  8
PLAN_1
  6
CONTINUOUS
 10
1.009181
 20
-3.653457
  0
VERTEX
  8
PLAN_1
  6
CONTINUOUS
 10
1.007299
 20
-3.645457
  0
VERTEX
  8
PLAN_1
  6
CONTINUOUS
 10
1.005886
 20
-3.636984
  0
VERTEX
  8
PLAN_1
  6
CONTINUOUS
 10
1.004945
 20
-3.628512
  0
VERTEX
  8
PLAN_1
  6
CONTINUOUS
 10
1.030362
 20
-3.628512
  0
VERTEX
  8
PLAN_1
  6
CONTINUOUS
 10
1.030831
 20
-3.636043
  0
VERTEX
  8
PLAN_1
  6
CONTINUOUS
 10
1.031772
 20
-3.643102
  0
VERTEX
  8
PLAN_1
  6
CONTINUOUS
 10
1.033185
 20
-3.646866
  0
VERTEX
  8
PLAN_1
  6
CONTINUOUS
 10
1.034126
 20
-3.650630
  0
VERTEX
  8
PLAN_1
  6
CONTINUOUS
 10
1.036008
 20
-3.653925
  0
VERTEX
  8
PLAN_1
  6
CONTINUOUS
 10
1.037890
 20
-3.657220
  0
VERTEX
  8
PLAN_1
  6
CONTINUOUS
 10
1.040244
 20
-3.660043
  0
VERTEX
  8
PLAN_1
  6
CONTINUOUS
 10
1.043067
 20
-3.662870
  0
VERTEX
  8
PLAN_1
  6
CONTINUOUS
 10
1.046362
 20
-3.665693
  0
VERTEX
  8
PLAN_1
  6
CONTINUOUS
 10
1.050126
 20
-3.667575
  0
VERTEX
  8
PLAN_1
  6
CONTINUOUS
 10
1.054835
 20
-3.669457
  0
VERTEX
  8
PLAN_1
  6
CONTINUOUS
 10
1.059539
 20
-3.670870
  0
VERTEX
  8
PLAN_1
  6
CONTINUOUS
 10
1.065657
 20
-3.671339
  0
VERTEX
  8
PLAN_1
  6
CONTINUOUS
 10
1.071776
 20
-3.671811
  0
VERTEX
  8
PLAN_1
  6
CONTINUOUS
 10
1.076480
 20
-3.671811
  0
VERTEX
  8
PLAN_1
  6
CONTINUOUS
 10
1.080717
 20
-3.670870
  0
VERTEX
  8
PLAN_1
  6
CONTINUOUS
 10
1.084953
 20
-3.670398
  0
VERTEX
  8
PLAN_1
  6
CONTINUOUS
 10
1.089189
 20
-3.668988
  0
VERTEX
  8
PLAN_1
  6
CONTINUOUS
 10
1.092953
 20
-3.667575
  0
VERTEX
  8
PLAN_1
  6
CONTINUOUS
 10
1.096248
 20
-3.665693
  0
VERTEX
  8
PLAN_1
  6
CONTINUOUS
 10
1.099543
 20
-3.663811
  0
VERTEX
  8
PLAN_1
  6
CONTINUOUS
 10
1.102366
 20
-3.661457
  0
VERTEX
  8
PLAN_1
  6
CONTINUOUS
 10
1.105189
 20
-3.658634
  0
VERTEX
  8
PLAN_1
  6
CONTINUOUS
 10
1.107543
 20
-3.655807
  0
VERTEX
  8
PLAN_1
  6
CONTINUOUS
 10
1.109425
 20
-3.652516
  0
VERTEX
  8
PLAN_1
  6
CONTINUOUS
 10
1.111307
 20
-3.649220
  0
VERTEX
  8
PLAN_1
  6
CONTINUOUS
 10
1.112720
 20
-3.645925
  0
VERTEX
  8
PLAN_1
  6
CONTINUOUS
 10
1.113661
 20
-3.642161
  0
VERTEX
  8
PLAN_1
  6
CONTINUOUS
 10
1.114134
 20
-3.637925
  0
VERTEX
  8
PLAN_1
  6
CONTINUOUS
 10
1.114134
 20
-3.634161
  0
VERTEX
  8
PLAN_1
  6
CONTINUOUS
 10
1.114134
 20
-3.628043
  0
VERTEX
  8
PLAN_1
  6
CONTINUOUS
 10
1.113193
 20
-3.622866
  0
VERTEX
  8
PLAN_1
  6
CONTINUOUS
 10
1.111780
 20
-3.618630
  0
VERTEX
  8
PLAN_1
  6
CONTINUOUS
 10
1.109425
 20
-3.614394
  0
VERTEX
  8
PLAN_1
  6
CONTINUOUS
 10
1.107075
 20
-3.611098
  0
VERTEX
  8
PLAN_1
  6
CONTINUOUS
 10
1.104248
 20
-3.608276
  0
VERTEX
  8
PLAN_1
  6
CONTINUOUS
 10
1.101425
 20
-3.605921
  0
VERTEX
  8
PLAN_1
  6
CONTINUOUS
 10
1.097661
 20
-3.604039
  0
VERTEX
  8
PLAN_1
  6
CONTINUOUS
 10
1.094366
 20
-3.602157
  0
VERTEX
  8
PLAN_1
  6
CONTINUOUS
 10
1.090602
 20
-3.600744
  0
VERTEX
  8
PLAN_1
  6
CONTINUOUS
 10
1.086835
 20
-3.599803
  0
VERTEX
  8
PLAN_1
  6
CONTINUOUS
 10
1.083071
 20
-3.599335
  0
VERTEX
  8
PLAN_1
  6
CONTINUOUS
 10
1.075539
 20
-3.598390
  0
VERTEX
  8
PLAN_1
  6
CONTINUOUS
 10
1.068953
 20
-3.598390
  0
VERTEX
  8
PLAN_1
  6
CONTINUOUS
 10
1.067539
 20
-3.598390
  0
VERTEX
  8
PLAN_1
  6
CONTINUOUS
 10
1.066130
 20
-3.598390
  0
VERTEX
  8
PLAN_1
  6
CONTINUOUS
 10
1.064717
 20
-3.598390
  0
VERTEX
  8
PLAN_1
  6
CONTINUOUS
 10
1.063303
 20
-3.598390
  0
VERTEX
  8
PLAN_1
  6
CONTINUOUS
 10
1.061894
 20
-3.598390
  0
VERTEX
  8
PLAN_1
  6
CONTINUOUS
 10
1.060480
 20
-3.598390
  0
VERTEX
  8
PLAN_1
  6
CONTINUOUS
 10
1.059067
 20
-3.598390
  0
VERTEX
  8
PLAN_1
  6
CONTINUOUS
 10
1.057657
 20
-3.598390
  0
VERTEX
  8
PLAN_1
  6
CONTINUOUS
 10
1.057657
 20
-3.577213
  0
SEQEND
  8
0
  0
POLYLINE
  8
PLAN_1
  6
CONTINUOUS
 66
     1
 40
0.003000
 41
0.003000
  0
VERTEX
  8
PLAN_1
  6
CONTINUOUS
 10
1.161665
 20
-3.560272
  0
VERTEX
  8
PLAN_1
  6
CONTINUOUS
 10
1.161665
 20
-3.553681
  0
VERTEX
  8
PLAN_1
  6
CONTINUOUS
 10
1.162606
 20
-3.547094
  0
VERTEX
  8
PLAN_1
  6
CONTINUOUS
 10
1.164020
 20
-3.540976
  0
VERTEX
  8
PLAN_1
  6
CONTINUOUS
 10
1.165433
 20
-3.534854
  0
VERTEX
  8
PLAN_1
  6
CONTINUOUS
 10
1.167783
 20
-3.528736
  0
VERTEX
  8
PLAN_1
  6
CONTINUOUS
 10
1.170610
 20
-3.523563
  0
VERTEX
  8
PLAN_1
  6
CONTINUOUS
 10
1.173902
 20
-3.518386
  0
VERTEX
  8
PLAN_1
  6
CONTINUOUS
 10
1.177669
 20
-3.513209
  0
VERTEX
  8
PLAN_1
  6
CONTINUOUS
 10
1.181906
 20
-3.508972
  0
VERTEX
  8
PLAN_1
  6
CONTINUOUS
 10
1.186610
 20
-3.505205
  0
VERTEX
  8
PLAN_1
  6
CONTINUOUS
 10
1.191787
 20
-3.501441
  0
VERTEX
  8
PLAN_1
  6
CONTINUOUS
 10
1.196965
 20
-3.498618
  0
VERTEX
  8
PLAN_1
  6
CONTINUOUS
 10
1.203083
 20
-3.496264
  0
VERTEX
  8
PLAN_1
  6
CONTINUOUS
 10
1.209669
 20
-3.494854
  0
VERTEX
  8
PLAN_1
  6
CONTINUOUS
 10
1.216732
 20
-3.493441
  0
VERTEX
  8
PLAN_1
  6
CONTINUOUS
 10
1.224260
 20
-3.493441
  0
VERTEX
  8
PLAN_1
  6
CONTINUOUS
 10
1.229909
 20
-3.493441
  0
VERTEX
  8
PLAN_1
  6
CONTINUOUS
 10
1.235555
 20
-3.493909
  0
VERTEX
  8
PLAN_1
  6
CONTINUOUS
 10
1.240264
 20
-3.494854
  0
VERTEX
  8
PLAN_1
  6
CONTINUOUS
 10
1.244969
 20
-3.495795
  0
VERTEX
  8
PLAN_1
  6
CONTINUOUS
 10
1.249673
 20
-3.497205
  0
VERTEX
  8
PLAN_1
  6
CONTINUOUS
 10
1.253909
 20
-3.499087
  0
VERTEX
  8
PLAN_1
  6
CONTINUOUS
 10
1.257677
 20
-3.500972
  0
VERTEX
  8
PLAN_1
  6
CONTINUOUS
 10
1.261441
 20
-3.502854
  0
VERTEX
  8
PLAN_1
  6
CONTINUOUS
 10
1.264736
 20
-3.505205
  0
VERTEX
  8
PLAN_1
  6
CONTINUOUS
 10
1.267559
 20
-3.508031
  0
VERTEX
  8
PLAN_1
  6
CONTINUOUS
 10
1.270382
 20
-3.510854
  0
VERTEX
  8
PLAN_1
  6
CONTINUOUS
 10
1.273205
 20
-3.513677
  0
VERTEX
  8
PLAN_1
  6
CONTINUOUS
 10
1.277913
 20
-3.519795
  0
VERTEX
  8
PLAN_1
  6
CONTINUOUS
 10
1.281677
 20
-3.526854
  0
VERTEX
  8
PLAN_1
  6
CONTINUOUS
 10
1.284972
 20
-3.533913
  0
VERTEX
  8
PLAN_1
  6
CONTINUOUS
 10
1.287327
 20
-3.541445
  0
VERTEX
  8
PLAN_1
  6
CONTINUOUS
 10
1.289209
 20
-3.548976
  0
VERTEX
  8
PLAN_1
  6
CONTINUOUS
 10
1.290618
 20
-3.556504
  0
VERTEX
  8
PLAN_1
  6
CONTINUOUS
 10
1.291559
 20
-3.563563
  0
VERTEX
  8
PLAN_1
  6
CONTINUOUS
 10
1.292031
 20
-3.570626
  0
VERTEX
  8
PLAN_1
  6
CONTINUOUS
 10
1.292504
 20
-3.577685
  0
VERTEX
  8
PLAN_1
  6
CONTINUOUS
 10
1.292504
 20
-3.583803
  0
VERTEX
  8
PLAN_1
  6
CONTINUOUS
 10
1.292504
 20
-3.594626
  0
VERTEX
  8
PLAN_1
  6
CONTINUOUS
 10
1.291091
 20
-3.609685
  0
VERTEX
  8
PLAN_1
  6
CONTINUOUS
 10
1.289677
 20
-3.618630
  0
VERTEX
  8
PLAN_1
  6
CONTINUOUS
 10
1.287795
 20
-3.627571
  0
VERTEX
  8
PLAN_1
  6
CONTINUOUS
 10
1.285441
 20
-3.636984
  0
VERTEX
  8
PLAN_1
  6
CONTINUOUS
 10
1.282618
 20
-3.646398
  0
VERTEX
  8
PLAN_1
  6
CONTINUOUS
 10
1.280736
 20
-3.651102
  0
VERTEX
  8
PLAN_1
  6
CONTINUOUS
 10
1.278382
 20
-3.655807
  0
VERTEX
  8
PLAN_1
  6
CONTINUOUS
 10
1.276031
 20
-3.660043
  0
VERTEX
  8
PLAN_1
  6
CONTINUOUS
 10
1.273677
 20
-3.664280
  0
VERTEX
  8
PLAN_1
  6
CONTINUOUS
 10
1.270854
 20
-3.668516
  0
VERTEX
  8
PLAN_1
  6
CONTINUOUS
 10
1.268028
 20
-3.672280
  0
VERTEX
  8
PLAN_1
  6
CONTINUOUS
 10
1.264736
 20
-3.676047
  0
VERTEX
  8
PLAN_1
  6
CONTINUOUS
 10
1.261441
 20
-3.679339
  0
VERTEX
  8
PLAN_1
  6
CONTINUOUS
 10
1.257205
 20
-3.682634
  0
VERTEX
  8
PLAN_1
  6
CONTINUOUS
 10
1.253441
 20
-3.685457
  0
VERTEX
  8
PLAN_1
  6
CONTINUOUS
 10
1.248732
 20
-3.687811
  0
VERTEX
  8
PLAN_1
  6
CONTINUOUS
 10
1.244028
 20
-3.689693
  0
VERTEX
  8
PLAN_1
  6
CONTINUOUS
 10
1.238850
 20
-3.691575
  0
VERTEX
  8
PLAN_1
  6
CONTINUOUS
 10
1.233673
 20
-3.692520
  0
VERTEX
  8
PLAN_1
  6
CONTINUOUS
 10
1.228028
 20
-3.693461
  0
VERTEX
  8
PLAN_1
  6
CONTINUOUS
 10
1.221906
 20
-3.693461
  0
VERTEX
  8
PLAN_1
  6
CONTINUOUS
 10
1.213437
 20
-3.693461
  0
VERTEX
  8
PLAN_1
  6
CONTINUOUS
 10
1.206378
 20
-3.692047
  0
VERTEX
  8
PLAN_1
  6
CONTINUOUS
 10
1.199319
 20
-3.690634
  0
VERTEX
  8
PLAN_1
  6
CONTINUOUS
 10
1.193669
 20
-3.688283
  0
VERTEX
  8
PLAN_1
  6
CONTINUOUS
 10
1.188024
 20
-3.685457
  0
VERTEX
  8
PLAN_1
  6
CONTINUOUS
 10
1.183315
 20
-3.682165
  0
VERTEX
  8
PLAN_1
  6
CONTINUOUS
 10
1.179079
 20
-3.678398
  0
VERTEX
  8
PLAN_1
  6
CONTINUOUS
 10
1.175787
 20
-3.674634
  0
VERTEX
  8
PLAN_1
  6
CONTINUOUS
 10
1.172492
 20
-3.670398
  0
VERTEX
  8
PLAN_1
  6
CONTINUOUS
 10
1.170138
 20
-3.666161
  0
VERTEX
  8
PLAN_1
  6
CONTINUOUS
 10
1.168256
 20
-3.661925
  0
VERTEX
  8
PLAN_1
  6
CONTINUOUS
 10
1.166374
 20
-3.657693
  0
VERTEX
  8
PLAN_1
  6
CONTINUOUS
 10
1.165433
 20
-3.653457
  0
VERTEX
  8
PLAN_1
  6
CONTINUOUS
 10
1.164492
 20
-3.649220
  0
VERTEX
  8
PLAN_1
  6
CONTINUOUS
 10
1.164020
 20
-3.644984
  0
VERTEX
  8
PLAN_1
  6
CONTINUOUS
 10
1.164020
 20
-3.641689
  0
VERTEX
  8
PLAN_1
  6
CONTINUOUS
 10
1.188024
 20
-3.641689
  0
VERTEX
  8
PLAN_1
  6
CONTINUOUS
 10
1.188492
 20
-3.644984
  0
VERTEX
  8
PLAN_1
  6
CONTINUOUS
 10
1.189433
 20
-3.648748
  0
VERTEX
  8
PLAN_1
  6
CONTINUOUS
 10
1.189906
 20
-3.651575
  0
VERTEX
  8
PLAN_1
  6
CONTINUOUS
 10
1.191315
 20
-3.654866
  0
VERTEX
  8
PLAN_1
  6
CONTINUOUS
 10
1.192256
 20
-3.657693
  0
VERTEX
  8
PLAN_1
  6
CONTINUOUS
 10
1.194142
 20
-3.660043
  0
VERTEX
  8
PLAN_1
  6
CONTINUOUS
 10
1.196024
 20
-3.662870
  0
VERTEX
  8
PLAN_1
  6
CONTINUOUS
 10
1.197906
 20
-3.664752
  0
VERTEX
  8
PLAN_1
  6
CONTINUOUS
 10
1.199787
 20
-3.666634
  0
VERTEX
  8
PLAN_1
  6
CONTINUOUS
 10
1.202610
 20
-3.668516
  0
VERTEX
  8
PLAN_1
  6
CONTINUOUS
 10
1.204965
 20
-3.669929
  0
VERTEX
  8
PLAN_1
  6
CONTINUOUS
 10
1.207787
 20
-3.671339
  0
VERTEX
  8
PLAN_1
  6
CONTINUOUS
 10
1.211083
 20
-3.672280
  0
VERTEX
  8
PLAN_1
  6
CONTINUOUS
 10
1.214378
 20
-3.672752
  0
VERTEX
  8
PLAN_1
  6
CONTINUOUS
 10
1.217673
 20
-3.673220
  0
VERTEX
  8
PLAN_1
  6
CONTINUOUS
 10
1.221437
 20
-3.673220
  0
VERTEX
  8
PLAN_1
  6
CONTINUOUS
 10
1.226142
 20
-3.673220
  0
VERTEX
  8
PLAN_1
  6
CONTINUOUS
 10
1.230850
 20
-3.672280
  0
VERTEX
  8
PLAN_1
  6
CONTINUOUS
 10
1.235087
 20
-3.670870
  0
VERTEX
  8
PLAN_1
  6
CONTINUOUS
 10
1.238850
 20
-3.668988
  0
VERTEX
  8
PLAN_1
  6
CONTINUOUS
 10
1.242614
 20
-3.666634
  0
VERTEX
  8
PLAN_1
  6
CONTINUOUS
 10
1.246382
 20
-3.663811
  0
VERTEX
  8
PLAN_1
  6
CONTINUOUS
 10
1.249205
 20
-3.660043
  0
VERTEX
  8
PLAN_1
  6
CONTINUOUS
 10
1.252500
 20
-3.655807
  0
VERTEX
  8
PLAN_1
  6
CONTINUOUS
 10
1.255323
 20
-3.651102
  0
VERTEX
  8
PLAN_1
  6
CONTINUOUS
 10
1.257677
 20
-3.645925
  0
VERTEX
  8
PLAN_1
  6
CONTINUOUS
 10
1.260028
 20
-3.639807
  0
VERTEX
  8
PLAN_1
  6
CONTINUOUS
 10
1.261909
 20
-3.633217
  0
VERTEX
  8
PLAN_1
  6
CONTINUOUS
 10
1.263795
 20
-3.626157
  0
VERTEX
  8
PLAN_1
  6
CONTINUOUS
 10
1.265677
 20
-3.618157
  0
VERTEX
  8
PLAN_1
  6
CONTINUOUS
 10
1.267087
 20
-3.609685
  0
VERTEX
  8
PLAN_1
  6
CONTINUOUS
 10
1.268028
 20
-3.600276
  0
VERTEX
  8
PLAN_1
  6
CONTINUOUS
 10
1.267559
 20
-3.599803
  0
VERTEX
  8
PLAN_1
  6
CONTINUOUS
 10
1.266146
 20
-3.602626
  0
VERTEX
  8
PLAN_1
  6
CONTINUOUS
 10
1.264264
 20
-3.604980
  0
VERTEX
  8
PLAN_1
  6
CONTINUOUS
 10
1.262382
 20
-3.607803
  0
VERTEX
  8
PLAN_1
  6
CONTINUOUS
 10
1.260028
 20
-3.609685
  0
VERTEX
  8
PLAN_1
  6
CONTINUOUS
 10
1.254850
 20
-3.613921
  0
VERTEX
  8
PLAN_1
  6
CONTINUOUS
 10
1.249205
 20
-3.617217
  0
VERTEX
  8
PLAN_1
  6
CONTINUOUS
 10
1.243087
 20
-3.619571
  0
VERTEX
  8
PLAN_1
  6
CONTINUOUS
 10
1.236496
 20
-3.621453
  0
VERTEX
  8
PLAN_1
  6
CONTINUOUS
 10
1.229909
 20
-3.622866
  0
VERTEX
  8
PLAN_1
  6
CONTINUOUS
 10
1.222850
 20
-3.623335
  0
VERTEX
  8
PLAN_1
  6
CONTINUOUS
 10
1.216260
 20
-3.622866
  0
VERTEX
  8
PLAN_1
  6
CONTINUOUS
 10
1.210142
 20
-3.621921
  0
VERTEX
  8
PLAN_1
  6
CONTINUOUS
 10
1.204024
 20
-3.620512
  0
VERTEX
  8
PLAN_1
  6
CONTINUOUS
 10
1.197906
 20
-3.618630
  0
VERTEX
  8
PLAN_1
  6
CONTINUOUS
 10
1.192728
 20
-3.616276
  0
VERTEX
  8
PLAN_1
  6
CONTINUOUS
 10
1.187551
 20
-3.613453
  0
VERTEX
  8
PLAN_1
  6
CONTINUOUS
 10
1.182846
 20
-3.610157
  0
VERTEX
  8
PLAN_1
  6
CONTINUOUS
 10
1.178610
 20
-3.606394
  0
VERTEX
  8
PLAN_1
  6
CONTINUOUS
 10
1.174843
 20
-3.602157
  0
VERTEX
  8
PLAN_1
  6
CONTINUOUS
 10
1.171551
 20
-3.596980
  0
VERTEX
  8
PLAN_1
  6
CONTINUOUS
 10
1.168724
 20
-3.591803
  0
VERTEX
  8
PLAN_1
  6
CONTINUOUS
 10
1.165902
 20
-3.586626
  0
VERTEX
  8
PLAN_1
  6
CONTINUOUS
 10
1.164020
 20
-3.580508
  0
VERTEX
  8
PLAN_1
  6
CONTINUOUS
 10
1.162606
 20
-3.573917
  0
VERTEX
  8
PLAN_1
  6
CONTINUOUS
 10
1.161665
 20
-3.567331
  0
VERTEX
  8
PLAN_1
  6
CONTINUOUS
 10
1.161665
 20
-3.560272
  0
SEQEND
  8
0
  0
POLYLINE
  8
PLAN_1
  6
CONTINUOUS
 66
     1
 40
0.003000
 41
0.003000
  0
VERTEX
  8
PLAN_1
  6
CONTINUOUS
 10
1.263795
 20
-3.556976
  0
VERTEX
  8
PLAN_1
  6
CONTINUOUS
 10
1.263795
 20
-3.552740
  0
VERTEX
  8
PLAN_1
  6
CONTINUOUS
 10
1.263323
 20
-3.548504
  0
VERTEX
  8
PLAN_1
  6
CONTINUOUS
 10
1.262854
 20
-3.544740
  0
VERTEX
  8
PLAN_1
  6
CONTINUOUS
 10
1.261909
 20
-3.540976
  0
VERTEX
  8
PLAN_1
  6
CONTINUOUS
 10
1.260500
 20
-3.537209
  0
VERTEX
  8
PLAN_1
  6
CONTINUOUS
 10
1.259087
 20
-3.533913
  0
VERTEX
  8
PLAN_1
  6
CONTINUOUS
 10
1.257205
 20
-3.530622
  0
VERTEX
  8
PLAN_1
  6
CONTINUOUS
 10
1.254850
 20
-3.527795
  0
VERTEX
  8
PLAN_1
  6
CONTINUOUS
 10
1.252500
 20
-3.524972
  0
VERTEX
  8
PLAN_1
  6
CONTINUOUS
 10
1.249205
 20
-3.522618
  0
VERTEX
  8
PLAN_1
  6
CONTINUOUS
 10
1.246382
 20
-3.520268
  0
VERTEX
  8
PLAN_1
  6
CONTINUOUS
 10
1.242614
 20
-3.518386
  0
VERTEX
  8
PLAN_1
  6
CONTINUOUS
 10
1.238850
 20
-3.516972
  0
VERTEX
  8
PLAN_1
  6
CONTINUOUS
 10
1.234146
 20
-3.516031
  0
VERTEX
  8
PLAN_1
  6
CONTINUOUS
 10
1.229437
 20
-3.515559
  0
VERTEX
  8
PLAN_1
  6
CONTINUOUS
 10
1.224732
 20
-3.515091
  0
VERTEX
  8
PLAN_1
  6
CONTINUOUS
 10
1.220496
 20
-3.515559
  0
VERTEX
  8
PLAN_1
  6
CONTINUOUS
 10
1.216260
 20
-3.516031
  0
VERTEX
  8
PLAN_1
  6
CONTINUOUS
 10
1.212496
 20
-3.516972
  0
VERTEX
  8
PLAN_1
  6
CONTINUOUS
 10
1.209201
 20
-3.518386
  0
VERTEX
  8
PLAN_1
  6
CONTINUOUS
 10
1.205906
 20
-3.520268
  0
VERTEX
  8
PLAN_1
  6
CONTINUOUS
 10
1.202610
 20
-3.522150
  0
VERTEX
  8
PLAN_1
  6
CONTINUOUS
 10
1.199787
 20
-3.524504
  0
VERTEX
  8
PLAN_1
  6
CONTINUOUS
 10
1.196965
 20
-3.527327
  0
VERTEX
  8
PLAN_1
  6
CONTINUOUS
 10
1.195083
 20
-3.530622
  0
VERTEX
  8
PLAN_1
  6
CONTINUOUS
 10
1.192728
 20
-3.533913
  0
VERTEX
  8
PLAN_1
  6
CONTINUOUS
 10
1.190846
 20
-3.537209
  0
VERTEX
  8
PLAN_1
  6
CONTINUOUS
 10
1.189433
 20
-3.541445
  0
VERTEX
  8
PLAN_1
  6
CONTINUOUS
 10
1.188492
 20
-3.545209
  0
VERTEX
  8
PLAN_1
  6
CONTINUOUS
 10
1.187551
 20
-3.549917
  0
VERTEX
  8
PLAN_1
  6
CONTINUOUS
 10
1.187079
 20
-3.554154
  0
VERTEX
  8
PLAN_1
  6
CONTINUOUS
 10
1.187079
 20
-3.558858
  0
VERTEX
  8
PLAN_1
  6
CONTINUOUS
 10
1.187079
 20
-3.565917
  0
VERTEX
  8
PLAN_1
  6
CONTINUOUS
 10
1.188024
 20
-3.571567
  0
VERTEX
  8
PLAN_1
  6
CONTINUOUS
 10
1.188965
 20
-3.576744
  0
VERTEX
  8
PLAN_1
  6
CONTINUOUS
 10
1.190846
 20
-3.581449
  0
VERTEX
  8
PLAN_1
  6
CONTINUOUS
 10
1.192728
 20
-3.585685
  0
VERTEX
  8
PLAN_1
  6
CONTINUOUS
 10
1.195083
 20
-3.588980
  0
VERTEX
  8
PLAN_1
  6
CONTINUOUS
 10
1.197906
 20
-3.591803
  0
VERTEX
  8
PLAN_1
  6
CONTINUOUS
 10
1.200728
 20
-3.594157
  0
VERTEX
  8
PLAN_1
  6
CONTINUOUS
 10
1.203551
 20
-3.596039
  0
VERTEX
  8
PLAN_1
  6
CONTINUOUS
 10
1.206846
 20
-3.597921
  0
VERTEX
  8
PLAN_1
  6
CONTINUOUS
 10
1.210142
 20
-3.598862
  0
VERTEX
  8
PLAN_1
  6
CONTINUOUS
 10
1.213437
 20
-3.599803
  0
VERTEX
  8
PLAN_1
  6
CONTINUOUS
 10
1.220024
 20
-3.601217
  0
VERTEX
  8
PLAN_1
  6
CONTINUOUS
 10
1.226614
 20
-3.601217
  0
VERTEX
  8
PLAN_1
  6
CONTINUOUS
 10
1.231791
 20
-3.600744
  0
VERTEX
  8
PLAN_1
  6
CONTINUOUS
 10
1.237909
 20
-3.599803
  0
VERTEX
  8
PLAN_1
  6
CONTINUOUS
 10
1.240732
 20
-3.598862
  0
VERTEX
  8
PLAN_1
  6
CONTINUOUS
 10
1.244028
 20
-3.597449
  0
VERTEX
  8
PLAN_1
  6
CONTINUOUS
 10
1.246850
 20
-3.595567
  0
VERTEX
  8
PLAN_1
  6
CONTINUOUS
 10
1.250146
 20
-3.593685
  0
VERTEX
  8
PLAN_1
  6
CONTINUOUS
 10
1.252969
 20
-3.590862
  0
VERTEX
  8
PLAN_1
  6
CONTINUOUS
 10
1.255323
 20
-3.588039
  0
VERTEX
  8
PLAN_1
  6
CONTINUOUS
 10
1.257677
 20
-3.584272
  0
VERTEX
  8
PLAN_1
  6
CONTINUOUS
 10
1.260028
 20
-3.580035
  0
VERTEX
  8
PLAN_1
  6
CONTINUOUS
 10
1.261441
 20
-3.575331
  0
VERTEX
  8
PLAN_1
  6
CONTINUOUS
 10
1.262854
 20
-3.569681
  0
VERTEX
  8
PLAN_1
  6
CONTINUOUS
 10
1.263795
 20
-3.563563
  0
VERTEX
  8
PLAN_1
  6
CONTINUOUS
 10
1.263795
 20
-3.556976
  0
SEQEND
  8
0
  0
SOLID
  8
PLAN_1
 10
1.304268
 20
-3.723110
 11
1.304268
 21
-3.709461
 12
1.458634
 22
-3.723110
 13
1.458634
 23
-3.709461
  0
POLYLINE
  8
PLAN_1
  6
CONTINUOUS
 66
     1
 40
0.003000
 41
0.003000
  0
VERTEX
  8
PLAN_1
  6
CONTINUOUS
 10
1.304268
 20
-3.723110
  0
VERTEX
  8
PLAN_1
  6
CONTINUOUS
 10
1.304268
 20
-3.709461
  0
VERTEX
  8
PLAN_1
  6
CONTINUOUS
 10
1.458634
 20
-3.709461
  0
VERTEX
  8
PLAN_1
  6
CONTINUOUS
 10
1.458634
 20
-3.723110
  0
VERTEX
  8
PLAN_1
  6
CONTINUOUS
 10
1.304268
 20
-3.723110
  0
SEQEND
  8
0
  0
POLYLINE
  8
PLAN_1
  6
CONTINUOUS
 66
     1
 40
0.003000
 41
0.003000
  0
VERTEX
  8
PLAN_1
  6
CONTINUOUS
 10
1.509465
 20
-3.688283
  0
VERTEX
  8
PLAN_1
  6
CONTINUOUS
 10
1.482638
 20
-3.688283
  0
VERTEX
  8
PLAN_1
  6
CONTINUOUS
 10
1.482638
 20
-3.489205
  0
VERTEX
  8
PLAN_1
  6
CONTINUOUS
 10
1.620531
 20
-3.489205
  0
VERTEX
  8
PLAN_1
  6
CONTINUOUS
 10
1.620531
 20
-3.513209
  0
VERTEX
  8
PLAN_1
  6
CONTINUOUS
 10
1.509465
 20
-3.513209
  0
VERTEX
  8
PLAN_1
  6
CONTINUOUS
 10
1.509465
 20
-3.573917
  0
VERTEX
  8
PLAN_1
  6
CONTINUOUS
 10
1.607354
 20
-3.573917
  0
VERTEX
  8
PLAN_1
  6
CONTINUOUS
 10
1.607354
 20
-3.597921
  0
VERTEX
  8
PLAN_1
  6
CONTINUOUS
 10
1.509465
 20
-3.597921
  0
VERTEX
  8
PLAN_1
  6
CONTINUOUS
 10
1.509465
 20
-3.688283
  0
SEQEND
  8
0
  0
SOLID
  8
PLAN_1
 10
1.639827
 20
-3.688283
 11
1.610650
 21
-3.688283
 12
1.639827
 22
-3.659102
 13
1.610650
 23
-3.659102
  0
POLYLINE
  8
PLAN_1
  6
CONTINUOUS
 66
     1
 40
0.003000
 41
0.003000
  0
VERTEX
  8
PLAN_1
  6
CONTINUOUS
 10
1.639827
 20
-3.688283
  0
VERTEX
  8
PLAN_1
  6
CONTINUOUS
 10
1.610650
 20
-3.688283
  0
VERTEX
  8
PLAN_1
  6
CONTINUOUS
 10
1.610650
 20
-3.659102
  0
VERTEX
  8
PLAN_1
  6
CONTINUOUS
 10
1.639827
 20
-3.659102
  0
VERTEX
  8
PLAN_1
  6
CONTINUOUS
 10
1.639827
 20
-3.688283
  0
SEQEND
  8
0
  0
POLYLINE
  8
PLAN_1
  6
CONTINUOUS
 66
     1
 40
0.003000
 41
0.003000
  0
VERTEX
  8
PLAN_1
  6
CONTINUOUS
 10
1.834669
 20
-3.688283
  0
VERTEX
  8
PLAN_1
  6
CONTINUOUS
 10
1.687835
 20
-3.688283
  0
VERTEX
  8
PLAN_1
  6
CONTINUOUS
 10
1.687835
 20
-3.489205
  0
VERTEX
  8
PLAN_1
  6
CONTINUOUS
 10
1.832787
 20
-3.489205
  0
VERTEX
  8
PLAN_1
  6
CONTINUOUS
 10
1.832787
 20
-3.513209
  0
VERTEX
  8
PLAN_1
  6
CONTINUOUS
 10
1.714657
 20
-3.513209
  0
VERTEX
  8
PLAN_1
  6
CONTINUOUS
 10
1.714657
 20
-3.573917
  0
VERTEX
  8
PLAN_1
  6
CONTINUOUS
 10
1.823846
 20
-3.573917
  0
VERTEX
  8
PLAN_1
  6
CONTINUOUS
 10
1.823846
 20
-3.597921
  0
VERTEX
  8
PLAN_1
  6
CONTINUOUS
 10
1.714657
 20
-3.597921
  0
VERTEX
  8
PLAN_1
  6
CONTINUOUS
 10
1.714657
 20
-3.664752
  0
VERTEX
  8
PLAN_1
  6
CONTINUOUS
 10
1.834669
 20
-3.664752
  0
VERTEX
  8
PLAN_1
  6
CONTINUOUS
 10
1.834669
 20
-3.688283
  0
SEQEND
  8
0
  0
POLYLINE
  8
PLAN_1
  6
CONTINUOUS
 66
     1
 40
0.003000
 41
0.003000
  0
VERTEX
  8
PLAN_1
  6
CONTINUOUS
 10
1.900087
 20
-3.688283
  0
VERTEX
  8
PLAN_1
  6
CONTINUOUS
 10
1.872791
 20
-3.688283
  0
VERTEX
  8
PLAN_1
  6
CONTINUOUS
 10
1.872791
 20
-3.489205
  0
VERTEX
  8
PLAN_1
  6
CONTINUOUS
 10
1.962681
 20
-3.489205
  0
VERTEX
  8
PLAN_1
  6
CONTINUOUS
 10
1.969272
 20
-3.489205
  0
VERTEX
  8
PLAN_1
  6
CONTINUOUS
 10
1.975858
 20
-3.490146
  0
VERTEX
  8
PLAN_1
  6
CONTINUOUS
 10
1.981976
 20
-3.491559
  0
VERTEX
  8
PLAN_1
  6
CONTINUOUS
 10
1.987626
 20
-3.493441
  0
VERTEX
  8
PLAN_1
  6
CONTINUOUS
 10
1.992803
 20
-3.495795
  0
VERTEX
  8
PLAN_1
  6
CONTINUOUS
 10
1.997508
 20
-3.498618
  0
VERTEX
  8
PLAN_1
  6
CONTINUOUS
 10
2.001744
 20
-3.501441
  0
VERTEX
  8
PLAN_1
  6
CONTINUOUS
 10
2.005980
 20
-3.505205
  0
VERTEX
  8
PLAN_1
  6
CONTINUOUS
 10
2.009744
 20
-3.508972
  0
VERTEX
  8
PLAN_1
  6
CONTINUOUS
 10
2.012567
 20
-3.513209
  0
VERTEX
  8
PLAN_1
  6
CONTINUOUS
 10
2.015394
 20
-3.517913
  0
VERTEX
  8
PLAN_1
  6
CONTINUOUS
 10
2.017744
 20
-3.523091
  0
VERTEX
  8
PLAN_1
  6
CONTINUOUS
 10
2.019630
 20
-3.528268
  0
VERTEX
  8
PLAN_1
  6
CONTINUOUS
 10
2.020571
 20
-3.533445
  0
VERTEX
  8
PLAN_1
  6
CONTINUOUS
 10
2.021512
 20
-3.539091
  0
VERTEX
  8
PLAN_1
  6
CONTINUOUS
 10
2.021512
 20
-3.545209
  0
VERTEX
  8
PLAN_1
  6
CONTINUOUS
 10
2.021512
 20
-3.550386
  0
VERTEX
  8
PLAN_1
  6
CONTINUOUS
 10
2.021039
 20
-3.555563
  0
VERTEX
  8
PLAN_1
  6
CONTINUOUS
 10
2.020098
 20
-3.560740
  0
VERTEX
  8
PLAN_1
  6
CONTINUOUS
 10
2.018689
 20
-3.565917
  0
VERTEX
  8
PLAN_1
  6
CONTINUOUS
 10
2.016803
 20
-3.571094
  0
VERTEX
  8
PLAN_1
  6
CONTINUOUS
 10
2.014453
 20
-3.576272
  0
VERTEX
  8
PLAN_1
  6
CONTINUOUS
 10
2.011626
 20
-3.580976
  0
VERTEX
  8
PLAN_1
  6
CONTINUOUS
 10
2.008335
 20
-3.585213
  0
VERTEX
  8
PLAN_1
  6
CONTINUOUS
 10
2.004567
 20
-3.589449
  0
VERTEX
  8
PLAN_1
  6
CONTINUOUS
 10
2.000331
 20
-3.592744
  0
VERTEX
  8
PLAN_1
  6
CONTINUOUS
 10
1.995626
 20
-3.596039
  0
VERTEX
  8
PLAN_1
  6
CONTINUOUS
 10
1.989980
 20
-3.598862
  0
VERTEX
  8
PLAN_1
  6
CONTINUOUS
 10
1.984331
 20
-3.601217
  0
VERTEX
  8
PLAN_1
  6
CONTINUOUS
 10
1.977740
 20
-3.603098
  0
VERTEX
  8
PLAN_1
  6
CONTINUOUS
 10
1.970213
 20
-3.604039
  0
VERTEX
  8
PLAN_1
  6
CONTINUOUS
 10
1.962681
 20
-3.604508
  0
VERTEX
  8
PLAN_1
  6
CONTINUOUS
 10
1.900087
 20
-3.604508
  0
VERTEX
  8
PLAN_1
  6
CONTINUOUS
 10
1.900087
 20
-3.688283
  0
SEQEND
  8
0
  0
POLYLINE
  8
PLAN_1
  6
CONTINUOUS
 66
     1
 40
0.003000
 41
0.003000
  0
VERTEX
  8
PLAN_1
  6
CONTINUOUS
 10
1.900087
 20
-3.581449
  0
VERTEX
  8
PLAN_1
  6
CONTINUOUS
 10
1.953268
 20
-3.581449
  0
VERTEX
  8
PLAN_1
  6
CONTINUOUS
 10
1.957976
 20
-3.580976
  0
VERTEX
  8
PLAN_1
  6
CONTINUOUS
 10
1.962213
 20
-3.580976
  0
VERTEX
  8
PLAN_1
  6
CONTINUOUS
 10
1.965976
 20
-3.580508
  0
VERTEX
  8
PLAN_1
  6
CONTINUOUS
 10
1.969740
 20
-3.579567
  0
VERTEX
  8
PLAN_1
  6
CONTINUOUS
 10
1.973508
 20
-3.578626
  0
VERTEX
  8
PLAN_1
  6
CONTINUOUS
 10
1.976799
 20
-3.577213
  0
VERTEX
  8
PLAN_1
  6
CONTINUOUS
 10
1.980094
 20
-3.575331
  0
VERTEX
  8
PLAN_1
  6
CONTINUOUS
 10
1.982917
 20
-3.573449
  0
VERTEX
  8
PLAN_1
  6
CONTINUOUS
 10
1.985272
 20
-3.571094
  0
VERTEX
  8
PLAN_1
  6
CONTINUOUS
 10
1.987626
 20
-3.568740
  0
VERTEX
  8
PLAN_1
  6
CONTINUOUS
 10
1.989508
 20
-3.565917
  0
VERTEX
  8
PLAN_1
  6
CONTINUOUS
 10
1.990921
 20
-3.562622
  0
VERTEX
  8
PLAN_1
  6
CONTINUOUS
 10
1.992331
 20
-3.558858
  0
VERTEX
  8
PLAN_1
  6
CONTINUOUS
 10
1.993272
 20
-3.554622
  0
VERTEX
  8
PLAN_1
  6
CONTINUOUS
 10
1.993744
 20
-3.550386
  0
VERTEX
  8
PLAN_1
  6
CONTINUOUS
 10
1.993744
 20
-3.545681
  0
VERTEX
  8
PLAN_1
  6
CONTINUOUS
 10
1.993744
 20
-3.540976
  0
VERTEX
  8
PLAN_1
  6
CONTINUOUS
 10
1.993272
 20
-3.536740
  0
VERTEX
  8
PLAN_1
  6
CONTINUOUS
 10
1.992331
 20
-3.532972
  0
VERTEX
  8
PLAN_1
  6
CONTINUOUS
 10
1.990921
 20
-3.529681
  0
VERTEX
  8
PLAN_1
  6
CONTINUOUS
 10
1.989508
 20
-3.526386
  0
VERTEX
  8
PLAN_1
  6
CONTINUOUS
 10
1.987154
 20
-3.524031
  0
VERTEX
  8
PLAN_1
  6
CONTINUOUS
 10
1.985272
 20
-3.521677
  0
VERTEX
  8
PLAN_1
  6
CONTINUOUS
 10
1.982449
 20
-3.519327
  0
VERTEX
  8
PLAN_1
  6
CONTINUOUS
 10
1.979626
 20
-3.517441
  0
VERTEX
  8
PLAN_1
  6
CONTINUOUS
 10
1.976799
 20
-3.516031
  0
VERTEX
  8
PLAN_1
  6
CONTINUOUS
 10
1.973508
 20
-3.514618
  0
VERTEX
  8
PLAN_1
  6
CONTINUOUS
 10
1.970213
 20
-3.513677
  0
VERTEX
  8
PLAN_1
  6
CONTINUOUS
 10
1.962681
 20
-3.512736
  0
VERTEX
  8
PLAN_1
  6
CONTINUOUS
 10
1.954681
 20
-3.512268
  0
VERTEX
  8
PLAN_1
  6
CONTINUOUS
 10
1.900087
 20
-3.512268
  0
VERTEX
  8
PLAN_1
  6
CONTINUOUS
 10
1.900087
 20
-3.581449
  0
SEQEND
  8
0
  0
POLYLINE
  8
PLAN_1
  6
CONTINUOUS
 66
     1
 40
0.003000
 41
0.003000
  0
VERTEX
  8
PLAN_1
  6
CONTINUOUS
 10
2.175406
 20
-3.547563
  0
VERTEX
  8
PLAN_1
  6
CONTINUOUS
 10
2.174937
 20
-3.541917
  0
VERTEX
  8
PLAN_1
  6
CONTINUOUS
 10
2.173996
 20
-3.536740
  0
VERTEX
  8
PLAN_1
  6
CONTINUOUS
 10
2.172583
 20
-3.532031
  0
VERTEX
  8
PLAN_1
  6
CONTINUOUS
 10
2.170232
 20
-3.528268
  0
VERTEX
  8
PLAN_1
  6
CONTINUOUS
 10
2.167878
 20
-3.524504
  0
VERTEX
  8
PLAN_1
  6
CONTINUOUS
 10
2.165055
 20
-3.521209
  0
VERTEX
  8
PLAN_1
  6
CONTINUOUS
 10
2.162228
 20
-3.518386
  0
VERTEX
  8
PLAN_1
  6
CONTINUOUS
 10
2.158937
 20
-3.515559
  0
VERTEX
  8
PLAN_1
  6
CONTINUOUS
 10
2.155169
 20
-3.513209
  0
VERTEX
  8
PLAN_1
  6
CONTINUOUS
 10
2.151406
 20
-3.511795
  0
VERTEX
  8
PLAN_1
  6
CONTINUOUS
 10
2.147169
 20
-3.509913
  0
VERTEX
  8
PLAN_1
  6
CONTINUOUS
 10
2.143406
 20
-3.508972
  0
VERTEX
  8
PLAN_1
  6
CONTINUOUS
 10
2.139169
 20
-3.508031
  0
VERTEX
  8
PLAN_1
  6
CONTINUOUS
 10
2.134461
 20
-3.507559
  0
VERTEX
  8
PLAN_1
  6
CONTINUOUS
 10
2.130228
 20
-3.507091
  0
VERTEX
  8
PLAN_1
  6
CONTINUOUS
 10
2.125992
 20
-3.507091
  0
VERTEX
  8
PLAN_1
  6
CONTINUOUS
 10
2.119402
 20
-3.507091
  0
VERTEX
  8
PLAN_1
  6
CONTINUOUS
 10
2.111874
 20
-3.508031
  0
VERTEX
  8
PLAN_1
  6
CONTINUOUS
 10
2.108106
 20
-3.508972
  0
VERTEX
  8
PLAN_1
  6
CONTINUOUS
 10
2.104343
 20
-3.509913
  0
VERTEX
  8
PLAN_1
  6
CONTINUOUS
 10
2.100579
 20
-3.511323
  0
VERTEX
  8
PLAN_1
  6
CONTINUOUS
 10
2.097283
 20
-3.513209
  0
VERTEX
  8
PLAN_1
  6
CONTINUOUS
 10
2.093516
 20
-3.515091
  0
VERTEX
  8
PLAN_1
  6
CONTINUOUS
 10
2.090693
 20
-3.517441
  0
VERTEX
  8
PLAN_1
  6
CONTINUOUS
 10
2.087870
 20
-3.520268
  0
VERTEX
  8
PLAN_1
  6
CONTINUOUS
 10
2.085516
 20
-3.523563
  0
VERTEX
  8
PLAN_1
  6
CONTINUOUS
 10
2.083165
 20
-3.527327
  0
VERTEX
  8
PLAN_1
  6
CONTINUOUS
 10
2.081752
 20
-3.531563
  0
VERTEX
  8
PLAN_1
  6
CONTINUOUS
 10
2.080811
 20
-3.536268
  0
VERTEX
  8
PLAN_1
  6
CONTINUOUS
 10
2.080811
 20
-3.541917
  0
VERTEX
  8
PLAN_1
  6
CONTINUOUS
 10
2.080811
 20
-3.544740
  0
VERTEX
  8
PLAN_1
  6
CONTINUOUS
 10
2.081280
 20
-3.547563
  0
VERTEX
  8
PLAN_1
  6
CONTINUOUS
 10
2.081752
 20
-3.550386
  0
VERTEX
  8
PLAN_1
  6
CONTINUOUS
 10
2.082693
 20
-3.552740
  0
VERTEX
  8
PLAN_1
  6
CONTINUOUS
 10
2.083634
 20
-3.554622
  0
VERTEX
  8
PLAN_1
  6
CONTINUOUS
 10
2.085047
 20
-3.556504
  0
VERTEX
  8
PLAN_1
  6
CONTINUOUS
 10
2.086457
 20
-3.558390
  0
VERTEX
  8
PLAN_1
  6
CONTINUOUS
 10
2.087870
 20
-3.559799
  0
VERTEX
  8
PLAN_1
  6
CONTINUOUS
 10
2.091634
 20
-3.562622
  0
VERTEX
  8
PLAN_1
  6
CONTINUOUS
 10
2.095402
 20
-3.564508
  0
VERTEX
  8
PLAN_1
  6
CONTINUOUS
 10
2.100106
 20
-3.565917
  0
VERTEX
  8
PLAN_1
  6
CONTINUOUS
 10
2.104343
 20
-3.567331
  0
VERTEX
  8
PLAN_1
  6
CONTINUOUS
 10
2.161287
 20
-3.580035
  0
VERTEX
  8
PLAN_1
  6
CONTINUOUS
 10
2.165996
 20
-3.581449
  0
VERTEX
  8
PLAN_1
  6
CONTINUOUS
 10
2.170701
 20
-3.582862
  0
VERTEX
  8
PLAN_1
  6
CONTINUOUS
 10
2.174937
 20
-3.584744
  0
VERTEX
  8
PLAN_1
  6
CONTINUOUS
 10
2.179173
 20
-3.586626
  0
VERTEX
  8
PLAN_1
  6
CONTINUOUS
 10
2.182937
 20
-3.588980
  0
VERTEX
  8
PLAN_1
  6
CONTINUOUS
 10
2.186701
 20
-3.591331
  0
VERTEX
  8
PLAN_1
  6
CONTINUOUS
 10
2.190469
 20
-3.594157
  0
VERTEX
  8
PLAN_1
  6
CONTINUOUS
 10
2.193291
 20
-3.597449
  0
VERTEX
  8
PLAN_1
  6
CONTINUOUS
 10
2.196114
 20
-3.600744
  0
VERTEX
  8
PLAN_1
  6
CONTINUOUS
 10
2.198941
 20
-3.604508
  0
VERTEX
  8
PLAN_1
  6
CONTINUOUS
 10
2.201291
 20
-3.608276
  0
VERTEX
  8
PLAN_1
  6
CONTINUOUS
 10
2.202705
 20
-3.612512
  0
VERTEX
  8
PLAN_1
  6
CONTINUOUS
 10
2.204587
 20
-3.617217
  0
VERTEX
  8
PLAN_1
  6
CONTINUOUS
 10
2.205528
 20
-3.622394
  0
VERTEX
  8
PLAN_1
  6
CONTINUOUS
 10
2.206000
 20
-3.627571
  0
VERTEX
  8
PLAN_1
  6
CONTINUOUS
 10
2.206469
 20
-3.633689
  0
VERTEX
  8
PLAN_1
  6
CONTINUOUS
 10
2.206469
 20
-3.637925
  0
VERTEX
  8
PLAN_1
  6
CONTINUOUS
 10
2.206000
 20
-3.641689
  0
VERTEX
  8
PLAN_1
  6
CONTINUOUS
 10
2.205059
 20
-3.645925
  0
VERTEX
  8
PLAN_1
  6
CONTINUOUS
 10
2.204587
 20
-3.649689
  0
VERTEX
  8
PLAN_1
  6
CONTINUOUS
 10
2.203173
 20
-3.652984
  0
VERTEX
  8
PLAN_1
  6
CONTINUOUS
 10
2.202232
 20
-3.656748
  0
VERTEX
  8
PLAN_1
  6
CONTINUOUS
 10
2.200823
 20
-3.659575
  0
VERTEX
  8
PLAN_1
  6
CONTINUOUS
 10
2.198941
 20
-3.662870
  0
VERTEX
  8
PLAN_1
  6
CONTINUOUS
 10
2.195173
 20
-3.668516
  0
VERTEX
  8
PLAN_1
  6
CONTINUOUS
 10
2.190469
 20
-3.673220
  0
VERTEX
  8
PLAN_1
  6
CONTINUOUS
 10
2.185760
 20
-3.677457
  0
VERTEX
  8
PLAN_1
  6
CONTINUOUS
 10
2.180114
 20
-3.681224
  0
VERTEX
  8
PLAN_1
  6
CONTINUOUS
 10
2.174465
 20
-3.684516
  0
VERTEX
  8
PLAN_1
  6
CONTINUOUS
 10
2.167878
 20
-3.686870
  0
VERTEX
  8
PLAN_1
  6
CONTINUOUS
 10
2.161760
 20
-3.689224
  0
VERTEX
  8
PLAN_1
  6
CONTINUOUS
 10
2.155169
 20
-3.691106
  0
VERTEX
  8
PLAN_1
  6
CONTINUOUS
 10
2.148110
 20
-3.692047
  0
VERTEX
  8
PLAN_1
  6
CONTINUOUS
 10
2.141524
 20
-3.692988
  0
VERTEX
  8
PLAN_1
  6
CONTINUOUS
 10
2.134933
 20
-3.693461
  0
VERTEX
  8
PLAN_1
  6
CONTINUOUS
 10
2.128343
 20
-3.693461
  0
VERTEX
  8
PLAN_1
  6
CONTINUOUS
 10
2.121756
 20
-3.693461
  0
VERTEX
  8
PLAN_1
  6
CONTINUOUS
 10
2.115638
 20
-3.692988
  0
VERTEX
  8
PLAN_1
  6
CONTINUOUS
 10
2.109988
 20
-3.692520
  0
VERTEX
  8
PLAN_1
  6
CONTINUOUS
 10
2.104811
 20
-3.692047
  0
VERTEX
  8
PLAN_1
  6
CONTINUOUS
 10
2.095402
 20
-3.689693
  0
VERTEX
  8
PLAN_1
  6
CONTINUOUS
 10
2.087870
 20
-3.687343
  0
VERTEX
  8
PLAN_1
  6
CONTINUOUS
 10
2.081280
 20
-3.684047
  0
VERTEX
  8
PLAN_1
  6
CONTINUOUS
 10
2.076102
 20
-3.680752
  0
VERTEX
  8
PLAN_1
  6
CONTINUOUS
 10
2.071870
 20
-3.677457
  0
VERTEX
  8
PLAN_1
  6
CONTINUOUS
 10
2.068102
 20
-3.674634
  0
VERTEX
  8
PLAN_1
  6
CONTINUOUS
 10
2.065280
 20
-3.671811
  0
VERTEX
  8
PLAN_1
  6
CONTINUOUS
 10
2.062457
 20
-3.668516
  0
VERTEX
  8
PLAN_1
  6
CONTINUOUS
 10
2.060102
 20
-3.665693
  0
VERTEX
  8
PLAN_1
  6
CONTINUOUS
 10
2.057748
 20
-3.662870
  0
VERTEX
  8
PLAN_1
  6
CONTINUOUS
 10
2.054457
 20
-3.656748
  0
VERTEX
  8
PLAN_1
  6
CONTINUOUS
 10
2.051630
 20
-3.650630
  0
VERTEX
  8
PLAN_1
  6
CONTINUOUS
 10
2.049748
 20
-3.644043
  0
VERTEX
  8
PLAN_1
  6
CONTINUOUS
 10
2.048807
 20
-3.637453
  0
VERTEX
  8
PLAN_1
  6
CONTINUOUS
 10
2.047866
 20
-3.630866
  0
VERTEX
  8
PLAN_1
  6
CONTINUOUS
 10
2.047866
 20
-3.623807
  0
VERTEX
  8
PLAN_1
  6
CONTINUOUS
 10
2.073280
 20
-3.623807
  0
VERTEX
  8
PLAN_1
  6
CONTINUOUS
 10
2.073280
 20
-3.630394
  0
VERTEX
  8
PLAN_1
  6
CONTINUOUS
 10
2.074693
 20
-3.636512
  0
VERTEX
  8
PLAN_1
  6
CONTINUOUS
 10
2.076102
 20
-3.641689
  0
VERTEX
  8
PLAN_1
  6
CONTINUOUS
 10
2.077988
 20
-3.646398
  0
VERTEX
  8
PLAN_1
  6
CONTINUOUS
 10
2.080811
 20
-3.650630
  0
VERTEX
  8
PLAN_1
  6
CONTINUOUS
 10
2.083634
 20
-3.654866
  0
VERTEX
  8
PLAN_1
  6
CONTINUOUS
 10
2.087398
 20
-3.658161
  0
VERTEX
  8
PLAN_1
  6
CONTINUOUS
 10
2.091165
 20
-3.660984
  0
VERTEX
  8
PLAN_1
  6
CONTINUOUS
 10
2.094929
 20
-3.663339
  0
VERTEX
  8
PLAN_1
  6
CONTINUOUS
 10
2.099634
 20
-3.665220
  0
VERTEX
  8
PLAN_1
  6
CONTINUOUS
 10
2.103870
 20
-3.667102
  0
VERTEX
  8
PLAN_1
  6
CONTINUOUS
 10
2.108579
 20
-3.668516
  0
VERTEX
  8
PLAN_1
  6
CONTINUOUS
 10
2.113756
 20
-3.669457
  0
VERTEX
  8
PLAN_1
  6
CONTINUOUS
 10
2.118461
 20
-3.669929
  0
VERTEX
  8
PLAN_1
  6
CONTINUOUS
 10
2.123165
 20
-3.670398
  0
VERTEX
  8
PLAN_1
  6
CONTINUOUS
 10
2.128343
 20
-3.670870
  0
VERTEX
  8
PLAN_1
  6
CONTINUOUS
 10
2.135874
 20
-3.670398
  0
VERTEX
  8
PLAN_1
  6
CONTINUOUS
 10
2.144346
 20
-3.669457
  0
VERTEX
  8
PLAN_1
  6
CONTINUOUS
 10
2.148583
 20
-3.668516
  0
VERTEX
  8
PLAN_1
  6
CONTINUOUS
 10
2.153287
 20
-3.667575
  0
VERTEX
  8
PLAN_1
  6
CONTINUOUS
 10
2.157524
 20
-3.666161
  0
VERTEX
  8
PLAN_1
  6
CONTINUOUS
 10
2.161287
 20
-3.664752
  0
VERTEX
  8
PLAN_1
  6
CONTINUOUS
 10
2.165524
 20
-3.662398
  0
VERTEX
  8
PLAN_1
  6
CONTINUOUS
 10
2.168819
 20
-3.660043
  0
VERTEX
  8
PLAN_1
  6
CONTINUOUS
 10
2.172114
 20
-3.657693
  0
VERTEX
  8
PLAN_1
  6
CONTINUOUS
 10
2.174937
 20
-3.654398
  0
VERTEX
  8
PLAN_1
  6
CONTINUOUS
 10
2.177291
 20
-3.650630
  0
VERTEX
  8
PLAN_1
  6
CONTINUOUS
 10
2.178701
 20
-3.646866
  0
VERTEX
  8
PLAN_1
  6
CONTINUOUS
 10
2.180114
 20
-3.642161
  0
VERTEX
  8
PLAN_1
  6
CONTINUOUS
 10
2.180114
 20
-3.636984
  0
VERTEX
  8
PLAN_1
  6
CONTINUOUS
 10
2.180114
 20
-3.633217
  0
VERTEX
  8
PLAN_1
  6
CONTINUOUS
 10
2.179642
 20
-3.629925
  0
VERTEX
  8
PLAN_1
  6
CONTINUOUS
 10
2.179173
 20
-3.626630
  0
VERTEX
  8
PLAN_1
  6
CONTINUOUS
 10
2.178232
 20
-3.623807
  0
VERTEX
  8
PLAN_1
  6
CONTINUOUS
 10
2.176819
 20
-3.621453
  0
VERTEX
  8
PLAN_1
  6
CONTINUOUS
 10
2.175406
 20
-3.618630
  0
VERTEX
  8
PLAN_1
  6
CONTINUOUS
 10
2.173524
 20
-3.616748
  0
VERTEX
  8
PLAN_1
  6
CONTINUOUS
 10
2.171173
 20
-3.614394
  0
VERTEX
  8
PLAN_1
  6
CONTINUOUS
 10
2.168819
 20
-3.612512
  0
VERTEX
  8
PLAN_1
  6
CONTINUOUS
 10
2.165524
 20
-3.611098
  0
VERTEX
  8
PLAN_1
  6
CONTINUOUS
 10
2.162228
 20
-3.609217
  0
VERTEX
  8
PLAN_1
  6
CONTINUOUS
 10
2.158465
 20
-3.607803
  0
VERTEX
  8
PLAN_1
  6
CONTINUOUS
 10
2.149051
 20
-3.604508
  0
VERTEX
  8
PLAN_1
  6
CONTINUOUS
 10
2.137756
 20
-3.601685
  0
VERTEX
  8
PLAN_1
  6
CONTINUOUS
 10
2.096811
 20
-3.592272
  0
VERTEX
  8
PLAN_1
  6
CONTINUOUS
 10
2.091634
 20
-3.590862
  0
VERTEX
  8
PLAN_1
  6
CONTINUOUS
 10
2.085047
 20
-3.588508
  0
VERTEX
  8
PLAN_1
  6
CONTINUOUS
 10
2.081280
 20
-3.587094
  0
VERTEX
  8
PLAN_1
  6
CONTINUOUS
 10
2.077988
 20
-3.585213
  0
VERTEX
  8
PLAN_1
  6
CONTINUOUS
 10
2.074220
 20
-3.583331
  0
VERTEX
  8
PLAN_1
  6
CONTINUOUS
 10
2.070929
 20
-3.580976
  0
VERTEX
  8
PLAN_1
  6
CONTINUOUS
 10
2.067634
 20
-3.578154
  0
VERTEX
  8
PLAN_1
  6
CONTINUOUS
 10
2.064339
 20
-3.574858
  0
VERTEX
  8
PLAN_1
  6
CONTINUOUS
 10
2.061984
 20
-3.571094
  0
VERTEX
  8
PLAN_1
  6
CONTINUOUS
 10
2.059161
 20
-3.566858
  0
VERTEX
  8
PLAN_1
  6
CONTINUOUS
 10
2.057280
 20
-3.562622
  0
VERTEX
  8
PLAN_1
  6
CONTINUOUS
 10
2.055866
 20
-3.557445
  0
VERTEX
  8
PLAN_1
  6
CONTINUOUS
 10
2.054925
 20
-3.551799
  0
VERTEX
  8
PLAN_1
  6
CONTINUOUS
 10
2.054457
 20
-3.545681
  0
VERTEX
  8
PLAN_1
  6
CONTINUOUS
 10
2.054925
 20
-3.539563
  0
VERTEX
  8
PLAN_1
  6
CONTINUOUS
 10
2.055398
 20
-3.533913
  0
VERTEX
  8
PLAN_1
  6
CONTINUOUS
 10
2.056807
 20
-3.528268
  0
VERTEX
  8
PLAN_1
  6
CONTINUOUS
 10
2.058689
 20
-3.522618
  0
VERTEX
  8
PLAN_1
  6
CONTINUOUS
 10
2.060575
 20
-3.517441
  0
VERTEX
  8
PLAN_1
  6
CONTINUOUS
 10
2.063398
 20
-3.512268
  0
VERTEX
  8
PLAN_1
  6
CONTINUOUS
 10
2.066693
 20
-3.507559
  0
VERTEX
  8
PLAN_1
  6
CONTINUOUS
 10
2.070929
 20
-3.502854
  0
VERTEX
  8
PLAN_1
  6
CONTINUOUS
 10
2.075161
 20
-3.499087
  0
VERTEX
  8
PLAN_1
  6
CONTINUOUS
 10
2.080339
 20
-3.495323
  0
VERTEX
  8
PLAN_1
  6
CONTINUOUS
 10
2.085988
 20
-3.492028
  0
VERTEX
  8
PLAN_1
  6
CONTINUOUS
 10
2.092106
 20
-3.489205
  0
VERTEX
  8
PLAN_1
  6
CONTINUOUS
 10
2.098693
 20
-3.486850
  0
VERTEX
  8
PLAN_1
  6
CONTINUOUS
 10
2.106224
 20
-3.485441
  0
VERTEX
  8
PLAN_1
  6
CONTINUOUS
 10
2.114224
 20
-3.484028
  0
VERTEX
  8
PLAN_1
  6
CONTINUOUS
 10
2.123165
 20
-3.484028
  0
VERTEX
  8
PLAN_1
  6
CONTINUOUS
 10
2.129287
 20
-3.484028
  0
VERTEX
  8
PLAN_1
  6
CONTINUOUS
 10
2.135406
 20
-3.484500
  0
VERTEX
  8
PLAN_1
  6
CONTINUOUS
 10
2.141051
 20
-3.484969
  0
VERTEX
  8
PLAN_1
  6
CONTINUOUS
 10
2.146228
 20
-3.485909
  0
VERTEX
  8
PLAN_1
  6
CONTINUOUS
 10
2.151406
 20
-3.486850
  0
VERTEX
  8
PLAN_1
  6
CONTINUOUS
 10
2.156110
 20
-3.487791
  0
VERTEX
  8
PLAN_1
  6
CONTINUOUS
 10
2.160346
 20
-3.489205
  0
VERTEX
  8
PLAN_1
  6
CONTINUOUS
 10
2.164583
 20
-3.490618
  0
VERTEX
  8
PLAN_1
  6
CONTINUOUS
 10
2.168346
 20
-3.492500
  0
VERTEX
  8
PLAN_1
  6
CONTINUOUS
 10
2.171642
 20
-3.494382
  0
VERTEX
  8
PLAN_1
  6
CONTINUOUS
 10
2.174937
 20
-3.496264
  0
VERTEX
  8
PLAN_1
  6
CONTINUOUS
 10
2.178232
 20
-3.498146
  0
VERTEX
  8
PLAN_1
  6
CONTINUOUS
 10
2.183409
 20
-3.502854
  0
VERTEX
  8
PLAN_1
  6
CONTINUOUS
 10
2.187646
 20
-3.507559
  0
VERTEX
  8
PLAN_1
  6
CONTINUOUS
 10
2.191409
 20
-3.512268
  0
VERTEX
  8
PLAN_1
  6
CONTINUOUS
 10
2.194232
 20
-3.517913
  0
VERTEX
  8
PLAN_1
  6
CONTINUOUS
 10
2.196114
 20
-3.523091
  0
VERTEX
  8
PLAN_1
  6
CONTINUOUS
 10
2.197996
 20
-3.528268
  0
VERTEX
  8
PLAN_1
  6
CONTINUOUS
 10
2.199409
 20
-3.533445
  0
VERTEX
  8
PLAN_1
  6
CONTINUOUS
 10
2.199882
 20
-3.538622
  0
VERTEX
  8
PLAN_1
  6
CONTINUOUS
 10
2.200350
 20
-3.543327
  0
VERTEX
  8
PLAN_1
  6
CONTINUOUS
 10
2.200823
 20
-3.547563
  0
VERTEX
  8
PLAN_1
  6
CONTINUOUS
 10
2.175406
 20
-3.547563
  0
SEQEND
  8
0
  0
POLYLINE
  8
PLAN_1
  6
CONTINUOUS
 66
     1
 40
0.008469
 41
0.008469
  0
VERTEX
  8
PLAN_1
  6
CONTINUOUS
 10
-0.765571
 20
0.706949
  0
VERTEX
  8
PLAN_1
  6
CONTINUOUS
 10
-0.761335
 20
0.706949
  0
VERTEX
  8
PLAN_1
  6
CONTINUOUS
 10
-0.757571
 20
0.707417
  0
VERTEX
  8
PLAN_1
  6
CONTINUOUS
 10
-0.753803
 20
0.708358
  0
VERTEX
  8
PLAN_1
  6
CONTINUOUS
 10
-0.750512
 20
0.709303
  0
VERTEX
  8
PLAN_1
  6
CONTINUOUS
 10
-0.747217
 20
0.710713
  0
VERTEX
  8
PLAN_1
  6
CONTINUOUS
 10
-0.744394
 20
0.712126
  0
VERTEX
  8
PLAN_1
  6
CONTINUOUS
 10
-0.742039
 20
0.714008
  0
VERTEX
  8
PLAN_1
  6
CONTINUOUS
 10
-0.739685
 20
0.715890
  0
VERTEX
  8
PLAN_1
  6
CONTINUOUS
 10
-0.737803
 20
0.718244
  0
VERTEX
  8
PLAN_1
  6
CONTINUOUS
 10
-0.735921
 20
0.720598
  0
VERTEX
  8
PLAN_1
  6
CONTINUOUS
 10
-0.734039
 20
0.722949
  0
VERTEX
  8
PLAN_1
  6
CONTINUOUS
 10
-0.732626
 20
0.725303
  0
VERTEX
  8
PLAN_1
  6
CONTINUOUS
 10
-0.730272
 20
0.730949
  0
VERTEX
  8
PLAN_1
  6
CONTINUOUS
 10
-0.728862
 20
0.736126
  0
VERTEX
  8
PLAN_1
  6
CONTINUOUS
 10
-0.727449
 20
0.741776
  0
VERTEX
  8
PLAN_1
  6
CONTINUOUS
 10
-0.726980
 20
0.746953
  0
VERTEX
  8
PLAN_1
  6
CONTINUOUS
 10
-0.726980
 20
0.752130
  0
VERTEX
  8
PLAN_1
  6
CONTINUOUS
 10
-0.726508
 20
0.756366
  0
VERTEX
  8
PLAN_1
  6
CONTINUOUS
 10
-0.726980
 20
0.762953
  0
VERTEX
  8
PLAN_1
  6
CONTINUOUS
 10
-0.727449
 20
0.765776
  0
SEQEND
  8
0
  0
POLYLINE
  8
PLAN_1
  6
CONTINUOUS
 66
     1
 40
0.008469
 41
0.008469
  0
VERTEX
  8
PLAN_1
  6
CONTINUOUS
 10
-0.727449
 20
0.765776
  0
VERTEX
  8
PLAN_1
  6
CONTINUOUS
 10
-1.672008
 20
0.765776
  0
SEQEND
  8
0
  0
POLYLINE
  8
PLAN_1
  6
CONTINUOUS
 66
     1
 40
0.008469
 41
0.008469
  0
VERTEX
  8
PLAN_1
  6
CONTINUOUS
 10
-1.672008
 20
0.765776
  0
VERTEX
  8
PLAN_1
  6
CONTINUOUS
 10
-1.672949
 20
0.762953
  0
VERTEX
  8
PLAN_1
  6
CONTINUOUS
 10
-1.674831
 20
0.756366
  0
VERTEX
  8
PLAN_1
  6
CONTINUOUS
 10
-1.675772
 20
0.752130
  0
VERTEX
  8
PLAN_1
  6
CONTINUOUS
 10
-1.676244
 20
0.746953
  0
VERTEX
  8
PLAN_1
  6
CONTINUOUS
 10
-1.676713
 20
0.741776
  0
VERTEX
  8
PLAN_1
  6
CONTINUOUS
 10
-1.676713
 20
0.736126
  0
VERTEX
  8
PLAN_1
  6
CONTINUOUS
 10
-1.675772
 20
0.730949
  0
VERTEX
  8
PLAN_1
  6
CONTINUOUS
 10
-1.674362
 20
0.725303
  0
VERTEX
  8
PLAN_1
  6
CONTINUOUS
 10
-1.673421
 20
0.722949
  0
VERTEX
  8
PLAN_1
  6
CONTINUOUS
 10
-1.672008
 20
0.720598
  0
VERTEX
  8
PLAN_1
  6
CONTINUOUS
 10
-1.670594
 20
0.718244
  0
VERTEX
  8
PLAN_1
  6
CONTINUOUS
 10
-1.668713
 20
0.715890
  0
VERTEX
  8
PLAN_1
  6
CONTINUOUS
 10
-1.666831
 20
0.714008
  0
VERTEX
  8
PLAN_1
  6
CONTINUOUS
 10
-1.664476
 20
0.712126
  0
VERTEX
  8
PLAN_1
  6
CONTINUOUS
 10
-1.661654
 20
0.710713
  0
VERTEX
  8
PLAN_1
  6
CONTINUOUS
 10
-1.658831
 20
0.709303
  0
VERTEX
  8
PLAN_1
  6
CONTINUOUS
 10
-1.655063
 20
0.708358
  0
VERTEX
  8
PLAN_1
  6
CONTINUOUS
 10
-1.651299
 20
0.707417
  0
VERTEX
  8
PLAN_1
  6
CONTINUOUS
 10
-1.647063
 20
0.706949
  0
VERTEX
  8
PLAN_1
  6
CONTINUOUS
 10
-1.642358
 20
0.706949
  0
VERTEX
  8
PLAN_1
  6
CONTINUOUS
 10
-1.597650
 20
0.706949
  0
VERTEX
  8
PLAN_1
  6
CONTINUOUS
 10
-1.500228
 20
0.706949
  0
VERTEX
  8
PLAN_1
  6
CONTINUOUS
 10
-1.367039
 20
0.706949
  0
VERTEX
  8
PLAN_1
  6
CONTINUOUS
 10
-1.215496
 20
0.706949
  0
VERTEX
  8
PLAN_1
  6
CONTINUOUS
 10
-1.062067
 20
0.706949
  0
VERTEX
  8
PLAN_1
  6
CONTINUOUS
 10
-0.924646
 20
0.706949
  0
VERTEX
  8
PLAN_1
  6
CONTINUOUS
 10
-0.820165
 20
0.706949
  0
VERTEX
  8
PLAN_1
  6
CONTINUOUS
 10
-0.765571
 20
0.706949
  0
SEQEND
  8
0
  0
POLYLINE
  8
PLAN_1
  6
CONTINUOUS
 66
     1
 40
0.008469
 41
0.008469
  0
VERTEX
  8
PLAN_1
  6
CONTINUOUS
 10
-1.596236
 20
0.706949
  0
VERTEX
  8
PLAN_1
  6
CONTINUOUS
 10
-1.596236
 20
0.392094
  0
VERTEX
  8
PLAN_1
  6
CONTINUOUS
 10
-1.554819
 20
0.392094
  0
VERTEX
  8
PLAN_1
  6
CONTINUOUS
 10
-1.554819
 20
0.348327
  0
VERTEX
  8
PLAN_1
  6
CONTINUOUS
 10
-1.509169
 20
0.348327
  0
VERTEX
  8
PLAN_1
  6
CONTINUOUS
 10
-1.509169
 20
0.392094
  0
VERTEX
  8
PLAN_1
  6
CONTINUOUS
 10
-0.913819
 20
0.392094
  0
VERTEX
  8
PLAN_1
  6
CONTINUOUS
 10
-0.913819
 20
0.348327
  0
VERTEX
  8
PLAN_1
  6
CONTINUOUS
 10
-0.868169
 20
0.348327
  0
VERTEX
  8
PLAN_1
  6
CONTINUOUS
 10
-0.868169
 20
0.392094
  0
VERTEX
  8
PLAN_1
  6
CONTINUOUS
 10
-0.809339
 20
0.392094
  0
VERTEX
  8
PLAN_1
  6
CONTINUOUS
 10
-0.809339
 20
0.706949
  0
VERTEX
  8
PLAN_1
  6
CONTINUOUS
 10
-1.596236
 20
0.706949
  0
SEQEND
  8
0
  0
POLYLINE
  8
PLAN_1
  6
CONTINUOUS
 66
     1
 40
0.005646
 41
0.005646
  0
VERTEX
  8
PLAN_1
  6
CONTINUOUS
 10
-1.297386
 20
1.476433
  0
VERTEX
  8
PLAN_1
  6
CONTINUOUS
 10
-1.114307
 20
1.476433
  0
VERTEX
  8
PLAN_1
  6
CONTINUOUS
 10
-1.024890
 20
1.319240
  0
VERTEX
  8
PLAN_1
  6
CONTINUOUS
 10
-1.115252
 20
1.161579
  0
VERTEX
  8
PLAN_1
  6
CONTINUOUS
 10
-1.297386
 20
1.161579
  0
VERTEX
  8
PLAN_1
  6
CONTINUOUS
 10
-1.388217
 20
1.320181
  0
VERTEX
  8
PLAN_1
  6
CONTINUOUS
 10
-1.297386
 20
1.476433
  0
SEQEND
  8
0
  0
POLYLINE
  8
PLAN_1
  6
CONTINUOUS
 66
     1
 40
0.005646
 41
0.005646
  0
VERTEX
  8
PLAN_1
  6
CONTINUOUS
 10
-1.207024
 20
1.199701
  0
VERTEX
  8
PLAN_1
  6
CONTINUOUS
 10
-1.200906
 20
1.199701
  0
VERTEX
  8
PLAN_1
  6
CONTINUOUS
 10
-1.194787
 20
1.200169
  0
VERTEX
  8
PLAN_1
  6
CONTINUOUS
 10
-1.189138
 20
1.200642
  0
VERTEX
  8
PLAN_1
  6
CONTINUOUS
 10
-1.183492
 20
1.202051
  0
VERTEX
  8
PLAN_1
  6
CONTINUOUS
 10
-1.177374
 20
1.202996
  0
VERTEX
  8
PLAN_1
  6
CONTINUOUS
 10
-1.172197
 20
1.204878
  0
VERTEX
  8
PLAN_1
  6
CONTINUOUS
 10
-1.166547
 20
1.206760
  0
VERTEX
  8
PLAN_1
  6
CONTINUOUS
 10
-1.160902
 20
1.208642
  0
VERTEX
  8
PLAN_1
  6
CONTINUOUS
 10
-1.155724
 20
1.210996
  0
VERTEX
  8
PLAN_1
  6
CONTINUOUS
 10
-1.151020
 20
1.213819
  0
VERTEX
  8
PLAN_1
  6
CONTINUOUS
 10
-1.145843
 20
1.216642
  0
VERTEX
  8
PLAN_1
  6
CONTINUOUS
 10
-1.141134
 20
1.219465
  0
VERTEX
  8
PLAN_1
  6
CONTINUOUS
 10
-1.136429
 20
1.222760
  0
VERTEX
  8
PLAN_1
  6
CONTINUOUS
 10
-1.132193
 20
1.226528
  0
VERTEX
  8
PLAN_1
  6
CONTINUOUS
 10
-1.127488
 20
1.230291
  0
VERTEX
  8
PLAN_1
  6
CONTINUOUS
 10
-1.123720
 20
1.234055
  0
VERTEX
  8
PLAN_1
  6
CONTINUOUS
 10
-1.119484
 20
1.238291
  0
VERTEX
  8
PLAN_1
  6
CONTINUOUS
 10
-1.116193
 20
1.242528
  0
VERTEX
  8
PLAN_1
  6
CONTINUOUS
 10
-1.112425
 20
1.246764
  0
VERTEX
  8
PLAN_1
  6
CONTINUOUS
 10
-1.109134
 20
1.251469
  0
VERTEX
  8
PLAN_1
  6
CONTINUOUS
 10
-1.106307
 20
1.256177
  0
VERTEX
  8
PLAN_1
  6
CONTINUOUS
 10
-1.103484
 20
1.261354
  0
VERTEX
  8
PLAN_1
  6
CONTINUOUS
 10
-1.100661
 20
1.266528
  0
VERTEX
  8
PLAN_1
  6
CONTINUOUS
 10
-1.098307
 20
1.271705
  0
VERTEX
  8
PLAN_1
  6
CONTINUOUS
 10
-1.095953
 20
1.276882
  0
VERTEX
  8
PLAN_1
  6
CONTINUOUS
 10
-1.094543
 20
1.282531
  0
VERTEX
  8
PLAN_1
  6
CONTINUOUS
 10
-1.092661
 20
1.288177
  0
VERTEX
  8
PLAN_1
  6
CONTINUOUS
 10
-1.091248
 20
1.293827
  0
VERTEX
  8
PLAN_1
  6
CONTINUOUS
 10
-1.090307
 20
1.299472
  0
VERTEX
  8
PLAN_1
  6
CONTINUOUS
 10
-1.089835
 20
1.305591
  0
VERTEX
  8
PLAN_1
  6
CONTINUOUS
 10
-1.089366
 20
1.311709
  0
VERTEX
  8
PLAN_1
  6
CONTINUOUS
 10
-1.088894
 20
1.317358
  0
VERTEX
  8
PLAN_1
  6
CONTINUOUS
 10
-1.089366
 20
1.323476
  0
VERTEX
  8
PLAN_1
  6
CONTINUOUS
 10
-1.089835
 20
1.329594
  0
VERTEX
  8
PLAN_1
  6
CONTINUOUS
 10
-1.090307
 20
1.335713
  0
VERTEX
  8
PLAN_1
  6
CONTINUOUS
 10
-1.091248
 20
1.341358
  0
VERTEX
  8
PLAN_1
  6
CONTINUOUS
 10
-1.092661
 20
1.347008
  0
VERTEX
  8
PLAN_1
  6
CONTINUOUS
 10
-1.094543
 20
1.352654
  0
VERTEX
  8
PLAN_1
  6
CONTINUOUS
 10
-1.095953
 20
1.358303
  0
VERTEX
  8
PLAN_1
  6
CONTINUOUS
 10
-1.098307
 20
1.363480
  0
VERTEX
  8
PLAN_1
  6
CONTINUOUS
 10
-1.100661
 20
1.368657
  0
VERTEX
  8
PLAN_1
  6
CONTINUOUS
 10
-1.103484
 20
1.373835
  0
VERTEX
  8
PLAN_1
  6
CONTINUOUS
 10
-1.106307
 20
1.379012
  0
VERTEX
  8
PLAN_1
  6
CONTINUOUS
 10
-1.109134
 20
1.383717
  0
VERTEX
  8
PLAN_1
  6
CONTINUOUS
 10
-1.112425
 20
1.388421
  0
VERTEX
  8
PLAN_1
  6
CONTINUOUS
 10
-1.116193
 20
1.392657
  0
VERTEX
  8
PLAN_1
  6
CONTINUOUS
 10
-1.119484
 20
1.396894
  0
VERTEX
  8
PLAN_1
  6
CONTINUOUS
 10
-1.123720
 20
1.401130
  0
VERTEX
  8
PLAN_1
  6
CONTINUOUS
 10
-1.127488
 20
1.404894
  0
VERTEX
  8
PLAN_1
  6
CONTINUOUS
 10
-1.132193
 20
1.408661
  0
VERTEX
  8
PLAN_1
  6
CONTINUOUS
 10
-1.136429
 20
1.411953
  0
VERTEX
  8
PLAN_1
  6
CONTINUOUS
 10
-1.141134
 20
1.415248
  0
VERTEX
  8
PLAN_1
  6
CONTINUOUS
 10
-1.145843
 20
1.418543
  0
VERTEX
  8
PLAN_1
  6
CONTINUOUS
 10
-1.151020
 20
1.421366
  0
VERTEX
  8
PLAN_1
  6
CONTINUOUS
 10
-1.155724
 20
1.424193
  0
VERTEX
  8
PLAN_1
  6
CONTINUOUS
 10
-1.160902
 20
1.426543
  0
VERTEX
  8
PLAN_1
  6
CONTINUOUS
 10
-1.166547
 20
1.428425
  0
VERTEX
  8
PLAN_1
  6
CONTINUOUS
 10
-1.172197
 20
1.430311
  0
VERTEX
  8
PLAN_1
  6
CONTINUOUS
 10
-1.177374
 20
1.431720
  0
VERTEX
  8
PLAN_1
  6
CONTINUOUS
 10
-1.183492
 20
1.433134
  0
VERTEX
  8
PLAN_1
  6
CONTINUOUS
 10
-1.189138
 20
1.434075
  0
VERTEX
  8
PLAN_1
  6
CONTINUOUS
 10
-1.194787
 20
1.435016
  0
VERTEX
  8
PLAN_1
  6
CONTINUOUS
 10
-1.200906
 20
1.435488
  0
VERTEX
  8
PLAN_1
  6
CONTINUOUS
 10
-1.207024
 20
1.435488
  0
VERTEX
  8
PLAN_1
  6
CONTINUOUS
 10
-1.213142
 20
1.435488
  0
VERTEX
  8
PLAN_1
  6
CONTINUOUS
 10
-1.219260
 20
1.435016
  0
VERTEX
  8
PLAN_1
  6
CONTINUOUS
 10
-1.224906
 20
1.434075
  0
VERTEX
  8
PLAN_1
  6
CONTINUOUS
 10
-1.231028
 20
1.433134
  0
VERTEX
  8
PLAN_1
  6
CONTINUOUS
 10
-1.236673
 20
1.431720
  0
VERTEX
  8
PLAN_1
  6
CONTINUOUS
 10
-1.242319
 20
1.430311
  0
VERTEX
  8
PLAN_1
  6
CONTINUOUS
 10
-1.247496
 20
1.428425
  0
VERTEX
  8
PLAN_1
  6
CONTINUOUS
 10
-1.253146
 20
1.426543
  0
VERTEX
  8
PLAN_1
  6
CONTINUOUS
 10
-1.258323
 20
1.424193
  0
VERTEX
  8
PLAN_1
  6
CONTINUOUS
 10
-1.263500
 20
1.421366
  0
VERTEX
  8
PLAN_1
  6
CONTINUOUS
 10
-1.268205
 20
1.418543
  0
VERTEX
  8
PLAN_1
  6
CONTINUOUS
 10
-1.272913
 20
1.415248
  0
VERTEX
  8
PLAN_1
  6
CONTINUOUS
 10
-1.277618
 20
1.411953
  0
VERTEX
  8
PLAN_1
  6
CONTINUOUS
 10
-1.282323
 20
1.408661
  0
VERTEX
  8
PLAN_1
  6
CONTINUOUS
 10
-1.286559
 20
1.404894
  0
VERTEX
  8
PLAN_1
  6
CONTINUOUS
 10
-1.290795
 20
1.401130
  0
VERTEX
  8
PLAN_1
  6
CONTINUOUS
 10
-1.294559
 20
1.396894
  0
VERTEX
  8
PLAN_1
  6
CONTINUOUS
 10
-1.298327
 20
1.392657
  0
VERTEX
  8
PLAN_1
  6
CONTINUOUS
 10
-1.301622
 20
1.388421
  0
VERTEX
  8
PLAN_1
  6
CONTINUOUS
 10
-1.304913
 20
1.383717
  0
VERTEX
  8
PLAN_1
  6
CONTINUOUS
 10
-1.308209
 20
1.379012
  0
VERTEX
  8
PLAN_1
  6
CONTINUOUS
 10
-1.311031
 20
1.373835
  0
VERTEX
  8
PLAN_1
  6
CONTINUOUS
 10
-1.313386
 20
1.368657
  0
VERTEX
  8
PLAN_1
  6
CONTINUOUS
 10
-1.315740
 20
1.363480
  0
VERTEX
  8
PLAN_1
  6
CONTINUOUS
 10
-1.318091
 20
1.358303
  0
VERTEX
  8
PLAN_1
  6
CONTINUOUS
 10
-1.319976
 20
1.352654
  0
VERTEX
  8
PLAN_1
  6
CONTINUOUS
 10
-1.321386
 20
1.347008
  0
VERTEX
  8
PLAN_1
  6
CONTINUOUS
 10
-1.322799
 20
1.341358
  0
VERTEX
  8
PLAN_1
  6
CONTINUOUS
 10
-1.323740
 20
1.335713
  0
VERTEX
  8
PLAN_1
  6
CONTINUOUS
 10
-1.324681
 20
1.329594
  0
VERTEX
  8
PLAN_1
  6
CONTINUOUS
 10
-1.325154
 20
1.323476
  0
VERTEX
  8
PLAN_1
  6
CONTINUOUS
 10
-1.325154
 20
1.317358
  0
VERTEX
  8
PLAN_1
  6
CONTINUOUS
 10
-1.325154
 20
1.311709
  0
VERTEX
  8
PLAN_1
  6
CONTINUOUS
 10
-1.324681
 20
1.305591
  0
VERTEX
  8
PLAN_1
  6
CONTINUOUS
 10
-1.323740
 20
1.299472
  0
VERTEX
  8
PLAN_1
  6
CONTINUOUS
 10
-1.322799
 20
1.293827
  0
VERTEX
  8
PLAN_1
  6
CONTINUOUS
 10
-1.321386
 20
1.288177
  0
VERTEX
  8
PLAN_1
  6
CONTINUOUS
 10
-1.319976
 20
1.282531
  0
VERTEX
  8
PLAN_1
  6
CONTINUOUS
 10
-1.318091
 20
1.276882
  0
VERTEX
  8
PLAN_1
  6
CONTINUOUS
 10
-1.315740
 20
1.271705
  0
VERTEX
  8
PLAN_1
  6
CONTINUOUS
 10
-1.313386
 20
1.266528
  0
VERTEX
  8
PLAN_1
  6
CONTINUOUS
 10
-1.311031
 20
1.261354
  0
VERTEX
  8
PLAN_1
  6
CONTINUOUS
 10
-1.308209
 20
1.256177
  0
VERTEX
  8
PLAN_1
  6
CONTINUOUS
 10
-1.304913
 20
1.251469
  0
VERTEX
  8
PLAN_1
  6
CONTINUOUS
 10
-1.301622
 20
1.246764
  0
VERTEX
  8
PLAN_1
  6
CONTINUOUS
 10
-1.298327
 20
1.242528
  0
VERTEX
  8
PLAN_1
  6
CONTINUOUS
 10
-1.294559
 20
1.238291
  0
VERTEX
  8
PLAN_1
  6
CONTINUOUS
 10
-1.290795
 20
1.234055
  0
VERTEX
  8
PLAN_1
  6
CONTINUOUS
 10
-1.286559
 20
1.230291
  0
VERTEX
  8
PLAN_1
  6
CONTINUOUS
 10
-1.282323
 20
1.226528
  0
VERTEX
  8
PLAN_1
  6
CONTINUOUS
 10
-1.277618
 20
1.222760
  0
VERTEX
  8
PLAN_1
  6
CONTINUOUS
 10
-1.272913
 20
1.219465
  0
VERTEX
  8
PLAN_1
  6
CONTINUOUS
 10
-1.268205
 20
1.216642
  0
VERTEX
  8
PLAN_1
  6
CONTINUOUS
 10
-1.263500
 20
1.213819
  0
VERTEX
  8
PLAN_1
  6
CONTINUOUS
 10
-1.258323
 20
1.210996
  0
VERTEX
  8
PLAN_1
  6
CONTINUOUS
 10
-1.253146
 20
1.208642
  0
VERTEX
  8
PLAN_1
  6
CONTINUOUS
 10
-1.247496
 20
1.206760
  0
VERTEX
  8
PLAN_1
  6
CONTINUOUS
 10
-1.242319
 20
1.204878
  0
VERTEX
  8
PLAN_1
  6
CONTINUOUS
 10
-1.236673
 20
1.202996
  0
VERTEX
  8
PLAN_1
  6
CONTINUOUS
 10
-1.231028
 20
1.202051
  0
VERTEX
  8
PLAN_1
  6
CONTINUOUS
 10
-1.224906
 20
1.200642
  0
VERTEX
  8
PLAN_1
  6
CONTINUOUS
 10
-1.219260
 20
1.200169
  0
VERTEX
  8
PLAN_1
  6
CONTINUOUS
 10
-1.213142
 20
1.199701
  0
VERTEX
  8
PLAN_1
  6
CONTINUOUS
 10
-1.207024
 20
1.199701
  0
SEQEND
  8
0
  0
POLYLINE
  8
PLAN_1
  6
CONTINUOUS
 66
     1
 40
0.005646
 41
0.005646
  0
VERTEX
  8
PLAN_1
  6
CONTINUOUS
 10
-1.207965
 20
1.237823
  0
VERTEX
  8
PLAN_1
  6
CONTINUOUS
 10
-1.199965
 20
1.238291
  0
VERTEX
  8
PLAN_1
  6
CONTINUOUS
 10
-1.191965
 20
1.239705
  0
VERTEX
  8
PLAN_1
  6
CONTINUOUS
 10
-1.184433
 20
1.241587
  0
VERTEX
  8
PLAN_1
  6
CONTINUOUS
 10
-1.177374
 20
1.244409
  0
VERTEX
  8
PLAN_1
  6
CONTINUOUS
 10
-1.170315
 20
1.247705
  0
VERTEX
  8
PLAN_1
  6
CONTINUOUS
 10
-1.163724
 20
1.251469
  0
VERTEX
  8
PLAN_1
  6
CONTINUOUS
 10
-1.158079
 20
1.256177
  0
VERTEX
  8
PLAN_1
  6
CONTINUOUS
 10
-1.152429
 20
1.260882
  0
VERTEX
  8
PLAN_1
  6
CONTINUOUS
 10
-1.147252
 20
1.266528
  0
VERTEX
  8
PLAN_1
  6
CONTINUOUS
 10
-1.142547
 20
1.272650
  0
VERTEX
  8
PLAN_1
  6
CONTINUOUS
 10
-1.138783
 20
1.279236
  0
VERTEX
  8
PLAN_1
  6
CONTINUOUS
 10
-1.135488
 20
1.286295
  0
VERTEX
  8
PLAN_1
  6
CONTINUOUS
 10
-1.132665
 20
1.293354
  0
VERTEX
  8
PLAN_1
  6
CONTINUOUS
 10
-1.130780
 20
1.300886
  0
VERTEX
  8
PLAN_1
  6
CONTINUOUS
 10
-1.129839
 20
1.308417
  0
VERTEX
  8
PLAN_1
  6
CONTINUOUS
 10
-1.129370
 20
1.316886
  0
VERTEX
  8
PLAN_1
  6
CONTINUOUS
 10
-1.129839
 20
1.324890
  0
VERTEX
  8
PLAN_1
  6
CONTINUOUS
 10
-1.130780
 20
1.332417
  0
VERTEX
  8
PLAN_1
  6
CONTINUOUS
 10
-1.132665
 20
1.339949
  0
VERTEX
  8
PLAN_1
  6
CONTINUOUS
 10
-1.135488
 20
1.347476
  0
VERTEX
  8
PLAN_1
  6
CONTINUOUS
 10
-1.138783
 20
1.354067
  0
VERTEX
  8
PLAN_1
  6
CONTINUOUS
 10
-1.142547
 20
1.360657
  0
VERTEX
  8
PLAN_1
  6
CONTINUOUS
 10
-1.147252
 20
1.366776
  0
VERTEX
  8
PLAN_1
  6
CONTINUOUS
 10
-1.152429
 20
1.372421
  0
VERTEX
  8
PLAN_1
  6
CONTINUOUS
 10
-1.158079
 20
1.377598
  0
VERTEX
  8
PLAN_1
  6
CONTINUOUS
 10
-1.163724
 20
1.381835
  0
VERTEX
  8
PLAN_1
  6
CONTINUOUS
 10
-1.170315
 20
1.386071
  0
VERTEX
  8
PLAN_1
  6
CONTINUOUS
 10
-1.177374
 20
1.389366
  0
VERTEX
  8
PLAN_1
  6
CONTINUOUS
 10
-1.184433
 20
1.391717
  0
VERTEX
  8
PLAN_1
  6
CONTINUOUS
 10
-1.191965
 20
1.393598
  0
VERTEX
  8
PLAN_1
  6
CONTINUOUS
 10
-1.199965
 20
1.395012
  0
VERTEX
  8
PLAN_1
  6
CONTINUOUS
 10
-1.207965
 20
1.395484
  0
VERTEX
  8
PLAN_1
  6
CONTINUOUS
 10
-1.215965
 20
1.395012
  0
VERTEX
  8
PLAN_1
  6
CONTINUOUS
 10
-1.223965
 20
1.393598
  0
VERTEX
  8
PLAN_1
  6
CONTINUOUS
 10
-1.231496
 20
1.391717
  0
VERTEX
  8
PLAN_1
  6
CONTINUOUS
 10
-1.238555
 20
1.389366
  0
VERTEX
  8
PLAN_1
  6
CONTINUOUS
 10
-1.245614
 20
1.386071
  0
VERTEX
  8
PLAN_1
  6
CONTINUOUS
 10
-1.251732
 20
1.381835
  0
VERTEX
  8
PLAN_1
  6
CONTINUOUS
 10
-1.257850
 20
1.377598
  0
VERTEX
  8
PLAN_1
  6
CONTINUOUS
 10
-1.263500
 20
1.372421
  0
VERTEX
  8
PLAN_1
  6
CONTINUOUS
 10
-1.268677
 20
1.366776
  0
VERTEX
  8
PLAN_1
  6
CONTINUOUS
 10
-1.273382
 20
1.360657
  0
VERTEX
  8
PLAN_1
  6
CONTINUOUS
 10
-1.277146
 20
1.354067
  0
VERTEX
  8
PLAN_1
  6
CONTINUOUS
 10
-1.280441
 20
1.347476
  0
VERTEX
  8
PLAN_1
  6
CONTINUOUS
 10
-1.283264
 20
1.339949
  0
VERTEX
  8
PLAN_1
  6
CONTINUOUS
 10
-1.285150
 20
1.332417
  0
VERTEX
  8
PLAN_1
  6
CONTINUOUS
 10
-1.286091
 20
1.324890
  0
VERTEX
  8
PLAN_1
  6
CONTINUOUS
 10
-1.286559
 20
1.316886
  0
VERTEX
  8
PLAN_1
  6
CONTINUOUS
 10
-1.286091
 20
1.308417
  0
VERTEX
  8
PLAN_1
  6
CONTINUOUS
 10
-1.285150
 20
1.300886
  0
VERTEX
  8
PLAN_1
  6
CONTINUOUS
 10
-1.283264
 20
1.293354
  0
VERTEX
  8
PLAN_1
  6
CONTINUOUS
 10
-1.280441
 20
1.286295
  0
VERTEX
  8
PLAN_1
  6
CONTINUOUS
 10
-1.277146
 20
1.279236
  0
VERTEX
  8
PLAN_1
  6
CONTINUOUS
 10
-1.273382
 20
1.272650
  0
VERTEX
  8
PLAN_1
  6
CONTINUOUS
 10
-1.268677
 20
1.266528
  0
VERTEX
  8
PLAN_1
  6
CONTINUOUS
 10
-1.263500
 20
1.260882
  0
VERTEX
  8
PLAN_1
  6
CONTINUOUS
 10
-1.257850
 20
1.256177
  0
VERTEX
  8
PLAN_1
  6
CONTINUOUS
 10
-1.251732
 20
1.251469
  0
VERTEX
  8
PLAN_1
  6
CONTINUOUS
 10
-1.245614
 20
1.247705
  0
VERTEX
  8
PLAN_1
  6
CONTINUOUS
 10
-1.238555
 20
1.244409
  0
VERTEX
  8
PLAN_1
  6
CONTINUOUS
 10
-1.231496
 20
1.241587
  0
VERTEX
  8
PLAN_1
  6
CONTINUOUS
 10
-1.223965
 20
1.239705
  0
VERTEX
  8
PLAN_1
  6
CONTINUOUS
 10
-1.215965
 20
1.238291
  0
VERTEX
  8
PLAN_1
  6
CONTINUOUS
 10
-1.207965
 20
1.237823
  0
SEQEND
  8
0
  0
POLYLINE
  8
PLAN_1
 62
     5
  6
CONTINUOUS
 66
     1
 40
0.003000
 41
0.003000
  0
VERTEX
  8
PLAN_1
 62
     5
  6
CONTINUOUS
 10
-1.987331
 20
0.112071
  0
VERTEX
  8
PLAN_1
 62
     5
  6
CONTINUOUS
 10
-1.987331
 20
0.120539
  0
SEQEND
  8
0
  0
POLYLINE
  8
PLAN_1
 62
     5
  6
CONTINUOUS
 66
     1
 40
0.003000
 41
0.003000
  0
VERTEX
  8
PLAN_1
 62
     5
  6
CONTINUOUS
 10
-1.987331
 20
0.129012
  0
VERTEX
  8
PLAN_1
 62
     5
  6
CONTINUOUS
 10
-1.987331
 20
0.137012
  0
SEQEND
  8
0
  0
POLYLINE
  8
PLAN_1
 62
     5
  6
CONTINUOUS
 66
     1
 40
0.003000
 41
0.003000
  0
VERTEX
  8
PLAN_1
 62
     5
  6
CONTINUOUS
 10
-1.987331
 20
0.145484
  0
VERTEX
  8
PLAN_1
 62
     5
  6
CONTINUOUS
 10
-1.987331
 20
0.153957
  0
SEQEND
  8
0
  0
POLYLINE
  8
PLAN_1
 62
     5
  6
CONTINUOUS
 66
     1
 40
0.003000
 41
0.003000
  0
VERTEX
  8
PLAN_1
 62
     5
  6
CONTINUOUS
 10
-1.987331
 20
0.162429
  0
VERTEX
  8
PLAN_1
 62
     5
  6
CONTINUOUS
 10
-1.987331
 20
0.170429
  0
SEQEND
  8
0
  0
POLYLINE
  8
PLAN_1
 62
     5
  6
CONTINUOUS
 66
     1
 40
0.003000
 41
0.003000
  0
VERTEX
  8
PLAN_1
 62
     5
  6
CONTINUOUS
 10
-1.987331
 20
0.178898
  0
VERTEX
  8
PLAN_1
 62
     5
  6
CONTINUOUS
 10
-1.987331
 20
0.187370
  0
SEQEND
  8
0
  0
POLYLINE
  8
PLAN_1
 62
     5
  6
CONTINUOUS
 66
     1
 40
0.003000
 41
0.003000
  0
VERTEX
  8
PLAN_1
 62
     5
  6
CONTINUOUS
 10
-1.987331
 20
0.195370
  0
VERTEX
  8
PLAN_1
 62
     5
  6
CONTINUOUS
 10
-1.987331
 20
0.203843
  0
SEQEND
  8
0
  0
POLYLINE
  8
PLAN_1
 62
     5
  6
CONTINUOUS
 66
     1
 40
0.003000
 41
0.003000
  0
VERTEX
  8
PLAN_1
 62
     5
  6
CONTINUOUS
 10
-1.987331
 20
0.212315
  0
VERTEX
  8
PLAN_1
 62
     5
  6
CONTINUOUS
 10
-1.987331
 20
0.220315
  0
SEQEND
  8
0
  0
POLYLINE
  8
PLAN_1
 62
     5
  6
CONTINUOUS
 66
     1
 40
0.003000
 41
0.003000
  0
VERTEX
  8
PLAN_1
 62
     5
  6
CONTINUOUS
 10
-1.987331
 20
0.228787
  0
VERTEX
  8
PLAN_1
 62
     5
  6
CONTINUOUS
 10
-1.987331
 20
0.237256
  0
SEQEND
  8
0
  0
POLYLINE
  8
PLAN_1
 62
     5
  6
CONTINUOUS
 66
     1
 40
0.003000
 41
0.003000
  0
VERTEX
  8
PLAN_1
 62
     5
  6
CONTINUOUS
 10
-1.987331
 20
0.245260
  0
VERTEX
  8
PLAN_1
 62
     5
  6
CONTINUOUS
 10
-1.987331
 20
0.253728
  0
SEQEND
  8
0
  0
POLYLINE
  8
PLAN_1
 62
     5
  6
CONTINUOUS
 66
     1
 40
0.003000
 41
0.003000
  0
VERTEX
  8
PLAN_1
 62
     5
  6
CONTINUOUS
 10
-1.987331
 20
0.262201
  0
VERTEX
  8
PLAN_1
 62
     5
  6
CONTINUOUS
 10
-1.987331
 20
0.270673
  0
SEQEND
  8
0
  0
POLYLINE
  8
PLAN_1
 62
     5
  6
CONTINUOUS
 66
     1
 40
0.003000
 41
0.003000
  0
VERTEX
  8
PLAN_1
 62
     5
  6
CONTINUOUS
 10
-1.987331
 20
0.278673
  0
VERTEX
  8
PLAN_1
 62
     5
  6
CONTINUOUS
 10
-1.987331
 20
0.287146
  0
SEQEND
  8
0
  0
POLYLINE
  8
PLAN_1
 62
     5
  6
CONTINUOUS
 66
     1
 40
0.003000
 41
0.003000
  0
VERTEX
  8
PLAN_1
 62
     5
  6
CONTINUOUS
 10
-1.987331
 20
0.295614
  0
VERTEX
  8
PLAN_1
 62
     5
  6
CONTINUOUS
 10
-1.987331
 20
0.303618
  0
SEQEND
  8
0
  0
POLYLINE
  8
PLAN_1
 62
     5
  6
CONTINUOUS
 66
     1
 40
0.003000
 41
0.003000
  0
VERTEX
  8
PLAN_1
 62
     5
  6
CONTINUOUS
 10
-1.987331
 20
0.312087
  0
VERTEX
  8
PLAN_1
 62
     5
  6
CONTINUOUS
 10
-1.987331
 20
0.320559
  0
SEQEND
  8
0
  0
POLYLINE
  8
PLAN_1
 62
     5
  6
CONTINUOUS
 66
     1
 40
0.003000
 41
0.003000
  0
VERTEX
  8
PLAN_1
 62
     5
  6
CONTINUOUS
 10
-1.987331
 20
0.328559
  0
VERTEX
  8
PLAN_1
 62
     5
  6
CONTINUOUS
 10
-1.987331
 20
0.337031
  0
SEQEND
  8
0
  0
POLYLINE
  8
PLAN_1
 62
     5
  6
CONTINUOUS
 66
     1
 40
0.003000
 41
0.003000
  0
VERTEX
  8
PLAN_1
 62
     5
  6
CONTINUOUS
 10
-1.987331
 20
0.345504
  0
VERTEX
  8
PLAN_1
 62
     5
  6
CONTINUOUS
 10
-1.987331
 20
0.353972
  0
SEQEND
  8
0
  0
POLYLINE
  8
PLAN_1
 62
     5
  6
CONTINUOUS
 66
     1
 40
0.003000
 41
0.003000
  0
VERTEX
  8
PLAN_1
 62
     5
  6
CONTINUOUS
 10
-1.987331
 20
0.361976
  0
VERTEX
  8
PLAN_1
 62
     5
  6
CONTINUOUS
 10
-1.987331
 20
0.370445
  0
SEQEND
  8
0
  0
POLYLINE
  8
PLAN_1
 62
     5
  6
CONTINUOUS
 66
     1
 40
0.003000
 41
0.003000
  0
VERTEX
  8
PLAN_1
 62
     5
  6
CONTINUOUS
 10
-1.987331
 20
0.378917
  0
VERTEX
  8
PLAN_1
 62
     5
  6
CONTINUOUS
 10
-1.987331
 20
0.386917
  0
SEQEND
  8
0
  0
POLYLINE
  8
PLAN_1
 62
     5
  6
CONTINUOUS
 66
     1
 40
0.003000
 41
0.003000
  0
VERTEX
  8
PLAN_1
 62
     5
  6
CONTINUOUS
 10
-1.987331
 20
0.395390
  0
VERTEX
  8
PLAN_1
 62
     5
  6
CONTINUOUS
 10
-1.987331
 20
0.403862
  0
SEQEND
  8
0
  0
POLYLINE
  8
PLAN_1
 62
     5
  6
CONTINUOUS
 66
     1
 40
0.003000
 41
0.003000
  0
VERTEX
  8
PLAN_1
 62
     5
  6
CONTINUOUS
 10
-1.987331
 20
0.411862
  0
VERTEX
  8
PLAN_1
 62
     5
  6
CONTINUOUS
 10
-1.987331
 20
0.420335
  0
SEQEND
  8
0
  0
POLYLINE
  8
PLAN_1
 62
     5
  6
CONTINUOUS
 66
     1
 40
0.003000
 41
0.003000
  0
VERTEX
  8
PLAN_1
 62
     5
  6
CONTINUOUS
 10
-1.987331
 20
0.428803
  0
VERTEX
  8
PLAN_1
 62
     5
  6
CONTINUOUS
 10
-1.987331
 20
0.436807
  0
SEQEND
  8
0
  0
POLYLINE
  8
PLAN_1
 62
     5
  6
CONTINUOUS
 66
     1
 40
0.003000
 41
0.003000
  0
VERTEX
  8
PLAN_1
 62
     5
  6
CONTINUOUS
 10
-1.987331
 20
0.445276
  0
VERTEX
  8
PLAN_1
 62
     5
  6
CONTINUOUS
 10
-1.987331
 20
0.453748
  0
SEQEND
  8
0
  0
POLYLINE
  8
PLAN_1
 62
     5
  6
CONTINUOUS
 66
     1
 40
0.003000
 41
0.003000
  0
VERTEX
  8
PLAN_1
 62
     5
  6
CONTINUOUS
 10
-1.987331
 20
0.462220
  0
VERTEX
  8
PLAN_1
 62
     5
  6
CONTINUOUS
 10
-1.987331
 20
0.470220
  0
SEQEND
  8
0
  0
POLYLINE
  8
PLAN_1
 62
     5
  6
CONTINUOUS
 66
     1
 40
0.003000
 41
0.003000
  0
VERTEX
  8
PLAN_1
 62
     5
  6
CONTINUOUS
 10
-1.987331
 20
0.478693
  0
VERTEX
  8
PLAN_1
 62
     5
  6
CONTINUOUS
 10
-1.987331
 20
0.487161
  0
SEQEND
  8
0
  0
POLYLINE
  8
PLAN_1
 62
     5
  6
CONTINUOUS
 66
     1
 40
0.003000
 41
0.003000
  0
VERTEX
  8
PLAN_1
 62
     5
  6
CONTINUOUS
 10
-1.987331
 20
0.495165
  0
VERTEX
  8
PLAN_1
 62
     5
  6
CONTINUOUS
 10
-1.987331
 20
0.503634
  0
SEQEND
  8
0
  0
POLYLINE
  8
PLAN_1
 62
     5
  6
CONTINUOUS
 66
     1
 40
0.003000
 41
0.003000
  0
VERTEX
  8
PLAN_1
 62
     5
  6
CONTINUOUS
 10
-1.987331
 20
0.512106
  0
VERTEX
  8
PLAN_1
 62
     5
  6
CONTINUOUS
 10
-1.987331
 20
0.520106
  0
SEQEND
  8
0
  0
POLYLINE
  8
PLAN_1
 62
     5
  6
CONTINUOUS
 66
     1
 40
0.003000
 41
0.003000
  0
VERTEX
  8
PLAN_1
 62
     5
  6
CONTINUOUS
 10
-1.987331
 20
0.528579
  0
VERTEX
  8
PLAN_1
 62
     5
  6
CONTINUOUS
 10
-1.987331
 20
0.537051
  0
SEQEND
  8
0
  0
POLYLINE
  8
PLAN_1
 62
     5
  6
CONTINUOUS
 66
     1
 40
0.003000
 41
0.003000
  0
VERTEX
  8
PLAN_1
 62
     5
  6
CONTINUOUS
 10
-1.987331
 20
0.545520
  0
VERTEX
  8
PLAN_1
 62
     5
  6
CONTINUOUS
 10
-1.987331
 20
0.553524
  0
SEQEND
  8
0
  0
POLYLINE
  8
PLAN_1
 62
     5
  6
CONTINUOUS
 66
     1
 40
0.003000
 41
0.003000
  0
VERTEX
  8
PLAN_1
 62
     5
  6
CONTINUOUS
 10
-1.987331
 20
0.561992
  0
VERTEX
  8
PLAN_1
 62
     5
  6
CONTINUOUS
 10
-1.987331
 20
0.570465
  0
SEQEND
  8
0
  0
POLYLINE
  8
PLAN_1
 62
     5
  6
CONTINUOUS
 66
     1
 40
0.003000
 41
0.003000
  0
VERTEX
  8
PLAN_1
 62
     5
  6
CONTINUOUS
 10
-1.987331
 20
0.578465
  0
VERTEX
  8
PLAN_1
 62
     5
  6
CONTINUOUS
 10
-1.987331
 20
0.586937
  0
SEQEND
  8
0
  0
POLYLINE
  8
PLAN_1
 62
     5
  6
CONTINUOUS
 66
     1
 40
0.003000
 41
0.003000
  0
VERTEX
  8
PLAN_1
 62
     5
  6
CONTINUOUS
 10
-1.987331
 20
0.595409
  0
VERTEX
  8
PLAN_1
 62
     5
  6
CONTINUOUS
 10
-1.987331
 20
0.603409
  0
SEQEND
  8
0
  0
POLYLINE
  8
PLAN_1
 62
     5
  6
CONTINUOUS
 66
     1
 40
0.003000
 41
0.003000
  0
VERTEX
  8
PLAN_1
 62
     5
  6
CONTINUOUS
 10
-1.987331
 20
0.611882
  0
VERTEX
  8
PLAN_1
 62
     5
  6
CONTINUOUS
 10
-1.987331
 20
0.619409
  0
SEQEND
  8
0
  0
POLYLINE
  8
PLAN_1
 62
     5
  6
CONTINUOUS
 66
     1
 40
0.003000
 41
0.003000
  0
VERTEX
  8
PLAN_1
 62
     5
  6
CONTINUOUS
 10
-1.987331
 20
0.611882
  0
VERTEX
  8
PLAN_1
 62
     5
  6
CONTINUOUS
 10
-1.987331
 20
0.619409
  0
SEQEND
  8
0
  0
POLYLINE
  8
PLAN_1
 62
     5
  6
CONTINUOUS
 66
     1
 40
0.003000
 41
0.003000
  0
VERTEX
  8
PLAN_1
 62
     5
  6
CONTINUOUS
 10
-1.987331
 20
0.619409
  0
VERTEX
  8
PLAN_1
 62
     5
  6
CONTINUOUS
 10
-1.986862
 20
0.625528
  0
VERTEX
  8
PLAN_1
 62
     5
  6
CONTINUOUS
 10
-1.986390
 20
0.627413
  0
SEQEND
  8
0
  0
POLYLINE
  8
PLAN_1
 62
     5
  6
CONTINUOUS
 66
     1
 40
0.003000
 41
0.003000
  0
VERTEX
  8
PLAN_1
 62
     5
  6
CONTINUOUS
 10
-1.984976
 20
0.635882
  0
VERTEX
  8
PLAN_1
 62
     5
  6
CONTINUOUS
 10
-1.984035
 20
0.642000
  0
VERTEX
  8
PLAN_1
 62
     5
  6
CONTINUOUS
 10
-1.983567
 20
0.643882
  0
SEQEND
  8
0
  0
POLYLINE
  8
PLAN_1
 62
     5
  6
CONTINUOUS
 66
     1
 40
0.003000
 41
0.003000
  0
VERTEX
  8
PLAN_1
 62
     5
  6
CONTINUOUS
 10
-1.981685
 20
0.651886
  0
VERTEX
  8
PLAN_1
 62
     5
  6
CONTINUOUS
 10
-1.981213
 20
0.653295
  0
VERTEX
  8
PLAN_1
 62
     5
  6
CONTINUOUS
 10
-1.978858
 20
0.659886
  0
SEQEND
  8
0
  0
POLYLINE
  8
PLAN_1
 62
     5
  6
CONTINUOUS
 66
     1
 40
0.003000
 41
0.003000
  0
VERTEX
  8
PLAN_1
 62
     5
  6
CONTINUOUS
 10
-1.976035
 20
0.667886
  0
VERTEX
  8
PLAN_1
 62
     5
  6
CONTINUOUS
 10
-1.974622
 20
0.672122
  0
VERTEX
  8
PLAN_1
 62
     5
  6
CONTINUOUS
 10
-1.972740
 20
0.675417
  0
SEQEND
  8
0
  0
POLYLINE
  8
PLAN_1
 62
     5
  6
CONTINUOUS
 66
     1
 40
0.003000
 41
0.003000
  0
VERTEX
  8
PLAN_1
 62
     5
  6
CONTINUOUS
 10
-1.969449
 20
0.682945
  0
VERTEX
  8
PLAN_1
 62
     5
  6
CONTINUOUS
 10
-1.968035
 20
0.685772
  0
VERTEX
  8
PLAN_1
 62
     5
  6
CONTINUOUS
 10
-1.965213
 20
0.690476
  0
SEQEND
  8
0
  0
POLYLINE
  8
PLAN_1
 62
     5
  6
CONTINUOUS
 66
     1
 40
0.003000
 41
0.003000
  0
VERTEX
  8
PLAN_1
 62
     5
  6
CONTINUOUS
 10
-1.960976
 20
0.697535
  0
VERTEX
  8
PLAN_1
 62
     5
  6
CONTINUOUS
 10
-1.959563
 20
0.699417
  0
VERTEX
  8
PLAN_1
 62
     5
  6
CONTINUOUS
 10
-1.956268
 20
0.704126
  0
SEQEND
  8
0
  0
POLYLINE
  8
PLAN_1
 62
     5
  6
CONTINUOUS
 66
     1
 40
0.003000
 41
0.003000
  0
VERTEX
  8
PLAN_1
 62
     5
  6
CONTINUOUS
 10
-1.951091
 20
0.710713
  0
VERTEX
  8
PLAN_1
 62
     5
  6
CONTINUOUS
 10
-1.949209
 20
0.712594
  0
VERTEX
  8
PLAN_1
 62
     5
  6
CONTINUOUS
 10
-1.945445
 20
0.716831
  0
SEQEND
  8
0
  0
POLYLINE
  8
PLAN_1
 62
     5
  6
CONTINUOUS
 66
     1
 40
0.003000
 41
0.003000
  0
VERTEX
  8
PLAN_1
 62
     5
  6
CONTINUOUS
 10
-1.939327
 20
0.722949
  0
VERTEX
  8
PLAN_1
 62
     5
  6
CONTINUOUS
 10
-1.936504
 20
0.725772
  0
VERTEX
  8
PLAN_1
 62
     5
  6
CONTINUOUS
 10
-1.933209
 20
0.728126
  0
SEQEND
  8
0
  0
POLYLINE
  8
PLAN_1
 62
     5
  6
CONTINUOUS
 66
     1
 40
0.003000
 41
0.003000
  0
VERTEX
  8
PLAN_1
 62
     5
  6
CONTINUOUS
 10
-1.926618
 20
0.733303
  0
VERTEX
  8
PLAN_1
 62
     5
  6
CONTINUOUS
 10
-1.920972
 20
0.737539
  0
VERTEX
  8
PLAN_1
 62
     5
  6
CONTINUOUS
 10
-1.920031
 20
0.738012
  0
SEQEND
  8
0
  0
POLYLINE
  8
PLAN_1
 62
     5
  6
CONTINUOUS
 66
     1
 40
0.003000
 41
0.003000
  0
VERTEX
  8
PLAN_1
 62
     5
  6
CONTINUOUS
 10
-1.912972
 20
0.742717
  0
VERTEX
  8
PLAN_1
 62
     5
  6
CONTINUOUS
 10
-1.912500
 20
0.742717
  0
VERTEX
  8
PLAN_1
 62
     5
  6
CONTINUOUS
 10
-1.905441
 20
0.746480
  0
SEQEND
  8
0
  0
POLYLINE
  8
PLAN_1
 62
     5
  6
CONTINUOUS
 66
     1
 40
0.003000
 41
0.003000
  0
VERTEX
  8
PLAN_1
 62
     5
  6
CONTINUOUS
 10
-1.897909
 20
0.749776
  0
VERTEX
  8
PLAN_1
 62
     5
  6
CONTINUOUS
 10
-1.892732
 20
0.752130
  0
VERTEX
  8
PLAN_1
 62
     5
  6
CONTINUOUS
 10
-1.890382
 20
0.753071
  0
SEQEND
  8
0
  0
POLYLINE
  8
PLAN_1
 62
     5
  6
CONTINUOUS
 66
     1
 40
0.003000
 41
0.003000
  0
VERTEX
  8
PLAN_1
 62
     5
  6
CONTINUOUS
 10
-1.882382
 20
0.755894
  0
VERTEX
  8
PLAN_1
 62
     5
  6
CONTINUOUS
 10
-1.881909
 20
0.755894
  0
VERTEX
  8
PLAN_1
 62
     5
  6
CONTINUOUS
 10
-1.874378
 20
0.758248
  0
SEQEND
  8
0
  0
POLYLINE
  8
PLAN_1
 62
     5
  6
CONTINUOUS
 66
     1
 40
0.003000
 41
0.003000
  0
VERTEX
  8
PLAN_1
 62
     5
  6
CONTINUOUS
 10
-1.866378
 20
0.760130
  0
VERTEX
  8
PLAN_1
 62
     5
  6
CONTINUOUS
 10
-1.857906
 20
0.762012
  0
SEQEND
  8
0
  0
POLYLINE
  8
PLAN_1
 62
     5
  6
CONTINUOUS
 66
     1
 40
0.003000
 41
0.003000
  0
VERTEX
  8
PLAN_1
 62
     5
  6
CONTINUOUS
 10
-1.849906
 20
0.762953
  0
VERTEX
  8
PLAN_1
 62
     5
  6
CONTINUOUS
 10
-1.843319
 20
0.763894
  0
VERTEX
  8
PLAN_1
 62
     5
  6
CONTINUOUS
 10
-1.841437
 20
0.764366
  0
SEQEND
  8
0
  0
POLYLINE
  8
PLAN_1
 62
     5
  6
CONTINUOUS
 66
     1
 40
0.003000
 41
0.003000
  0
VERTEX
  8
PLAN_1
 62
     5
  6
CONTINUOUS
 10
-1.833433
 20
0.764835
  0
VERTEX
  8
PLAN_1
 62
     5
  6
CONTINUOUS
 10
-1.829197
 20
0.765307
  0
VERTEX
  8
PLAN_1
 62
     5
  6
CONTINUOUS
 10
-1.824965
 20
0.765307
  0
SEQEND
  8
0
  0
POLYLINE
  8
PLAN_1
 62
     5
  6
CONTINUOUS
 66
     1
 40
0.003000
 41
0.003000
  0
VERTEX
  8
PLAN_1
 62
     5
  6
CONTINUOUS
 10
-1.816492
 20
0.765776
  0
VERTEX
  8
PLAN_1
 62
     5
  6
CONTINUOUS
 10
-1.813669
 20
0.765776
  0
VERTEX
  8
PLAN_1
 62
     5
  6
CONTINUOUS
 10
-1.808492
 20
0.765776
  0
SEQEND
  8
0
  0
POLYLINE
  8
PLAN_1
 62
     5
  6
CONTINUOUS
 66
     1
 40
0.003000
 41
0.003000
  0
VERTEX
  8
PLAN_1
 62
     5
  6
CONTINUOUS
 10
-1.800020
 20
0.765776
  0
VERTEX
  8
PLAN_1
 62
     5
  6
CONTINUOUS
 10
-1.791547
 20
0.765776
  0
SEQEND
  8
0
  0
POLYLINE
  8
PLAN_1
 62
     5
  6
CONTINUOUS
 66
     1
 40
0.003000
 41
0.003000
  0
VERTEX
  8
PLAN_1
 62
     5
  6
CONTINUOUS
 10
-1.783547
 20
0.765776
  0
VERTEX
  8
PLAN_1
 62
     5
  6
CONTINUOUS
 10
-1.775075
 20
0.765776
  0
SEQEND
  8
0
  0
POLYLINE
  8
PLAN_1
 62
     5
  6
CONTINUOUS
 66
     1
 40
0.003000
 41
0.003000
  0
VERTEX
  8
PLAN_1
 62
     5
  6
CONTINUOUS
 10
-1.766606
 20
0.765776
  0
VERTEX
  8
PLAN_1
 62
     5
  6
CONTINUOUS
 10
-1.758134
 20
0.765776
  0
SEQEND
  8
0
  0
POLYLINE
  8
PLAN_1
 62
     5
  6
CONTINUOUS
 66
     1
 40
0.003000
 41
0.003000
  0
VERTEX
  8
PLAN_1
 62
     5
  6
CONTINUOUS
 10
-1.750134
 20
0.765776
  0
VERTEX
  8
PLAN_1
 62
     5
  6
CONTINUOUS
 10
-1.741661
 20
0.765776
  0
SEQEND
  8
0
  0
POLYLINE
  8
PLAN_1
 62
     5
  6
CONTINUOUS
 66
     1
 40
0.003000
 41
0.003000
  0
VERTEX
  8
PLAN_1
 62
     5
  6
CONTINUOUS
 10
-1.733189
 20
0.765776
  0
VERTEX
  8
PLAN_1
 62
     5
  6
CONTINUOUS
 10
-1.725189
 20
0.765776
  0
SEQEND
  8
0
  0
POLYLINE
  8
PLAN_1
 62
     5
  6
CONTINUOUS
 66
     1
 40
0.003000
 41
0.003000
  0
VERTEX
  8
PLAN_1
 62
     5
  6
CONTINUOUS
 10
-1.716717
 20
0.765776
  0
VERTEX
  8
PLAN_1
 62
     5
  6
CONTINUOUS
 10
-1.711071
 20
0.765776
  0
VERTEX
  8
PLAN_1
 62
     5
  6
CONTINUOUS
 10
-1.708248
 20
0.765776
  0
SEQEND
  8
0
  0
POLYLINE
  8
PLAN_1
 62
     5
  6
CONTINUOUS
 66
     1
 40
0.003000
 41
0.003000
  0
VERTEX
  8
PLAN_1
 62
     5
  6
CONTINUOUS
 10
-1.700244
 20
0.765776
  0
VERTEX
  8
PLAN_1
 62
     5
  6
CONTINUOUS
 10
-1.691776
 20
0.765776
  0
SEQEND
  8
0
  0
POLYLINE
  8
PLAN_1
 62
     5
  6
CONTINUOUS
 66
     1
 40
0.003000
 41
0.003000
  0
VERTEX
  8
PLAN_1
 62
     5
  6
CONTINUOUS
 10
-1.683303
 20
0.765776
  0
VERTEX
  8
PLAN_1
 62
     5
  6
CONTINUOUS
 10
-1.674831
 20
0.765776
  0
SEQEND
  8
0
  0
POLYLINE
  8
PLAN_1
 62
     5
  6
CONTINUOUS
 66
     1
 40
0.003000
 41
0.003000
  0
VERTEX
  8
PLAN_1
 62
     5
  6
CONTINUOUS
 10
-1.666831
 20
0.765776
  0
VERTEX
  8
PLAN_1
 62
     5
  6
CONTINUOUS
 10
-1.658358
 20
0.765776
  0
SEQEND
  8
0
  0
POLYLINE
  8
PLAN_1
 62
     5
  6
CONTINUOUS
 66
     1
 40
0.003000
 41
0.003000
  0
VERTEX
  8
PLAN_1
 62
     5
  6
CONTINUOUS
 10
-1.649890
 20
0.765776
  0
VERTEX
  8
PLAN_1
 62
     5
  6
CONTINUOUS
 10
-1.641886
 20
0.765776
  0
SEQEND
  8
0
  0
POLYLINE
  8
PLAN_1
 62
     5
  6
CONTINUOUS
 66
     1
 40
0.003000
 41
0.003000
  0
VERTEX
  8
PLAN_1
 62
     5
  6
CONTINUOUS
 10
-1.633417
 20
0.765776
  0
VERTEX
  8
PLAN_1
 62
     5
  6
CONTINUOUS
 10
-1.624945
 20
0.765776
  0
SEQEND
  8
0
  0
POLYLINE
  8
PLAN_1
 62
     5
  6
CONTINUOUS
 66
     1
 40
0.003000
 41
0.003000
  0
VERTEX
  8
PLAN_1
 62
     5
  6
CONTINUOUS
 10
-1.616945
 20
0.765776
  0
VERTEX
  8
PLAN_1
 62
     5
  6
CONTINUOUS
 10
-1.608472
 20
0.765776
  0
SEQEND
  8
0
  0
POLYLINE
  8
PLAN_1
 62
     5
  6
CONTINUOUS
 66
     1
 40
0.003000
 41
0.003000
  0
VERTEX
  8
PLAN_1
 62
     5
  6
CONTINUOUS
 10
-1.600000
 20
0.765776
  0
VERTEX
  8
PLAN_1
 62
     5
  6
CONTINUOUS
 10
-1.592000
 20
0.765776
  0
SEQEND
  8
0
  0
POLYLINE
  8
PLAN_1
 62
     5
  6
CONTINUOUS
 66
     1
 40
0.003000
 41
0.003000
  0
VERTEX
  8
PLAN_1
 62
     5
  6
CONTINUOUS
 10
-1.583528
 20
0.765776
  0
VERTEX
  8
PLAN_1
 62
     5
  6
CONTINUOUS
 10
-1.575059
 20
0.765776
  0
SEQEND
  8
0
  0
POLYLINE
  8
PLAN_1
 62
     5
  6
CONTINUOUS
 66
     1
 40
0.003000
 41
0.003000
  0
VERTEX
  8
PLAN_1
 62
     5
  6
CONTINUOUS
 10
-1.566587
 20
0.765776
  0
VERTEX
  8
PLAN_1
 62
     5
  6
CONTINUOUS
 10
-1.558587
 20
0.765776
  0
SEQEND
  8
0
  0
POLYLINE
  8
PLAN_1
 62
     5
  6
CONTINUOUS
 66
     1
 40
0.003000
 41
0.003000
  0
VERTEX
  8
PLAN_1
 62
     5
  6
CONTINUOUS
 10
-1.550114
 20
0.765776
  0
VERTEX
  8
PLAN_1
 62
     5
  6
CONTINUOUS
 10
-1.546350
 20
0.765776
  0
VERTEX
  8
PLAN_1
 62
     5
  6
CONTINUOUS
 10
-1.541642
 20
0.765776
  0
SEQEND
  8
0
  0
POLYLINE
  8
PLAN_1
 62
     5
  6
CONTINUOUS
 66
     1
 40
0.003000
 41
0.003000
  0
VERTEX
  8
PLAN_1
 62
     5
  6
CONTINUOUS
 10
-1.533642
 20
0.765776
  0
VERTEX
  8
PLAN_1
 62
     5
  6
CONTINUOUS
 10
-1.525169
 20
0.765776
  0
SEQEND
  8
0
  0
POLYLINE
  8
PLAN_1
 62
     5
  6
CONTINUOUS
 66
     1
 40
0.003000
 41
0.003000
  0
VERTEX
  8
PLAN_1
 62
     5
  6
CONTINUOUS
 10
-1.516701
 20
0.765776
  0
VERTEX
  8
PLAN_1
 62
     5
  6
CONTINUOUS
 10
-1.508697
 20
0.765776
  0
SEQEND
  8
0
  0
POLYLINE
  8
PLAN_1
 62
     5
  6
CONTINUOUS
 66
     1
 40
0.003000
 41
0.003000
  0
VERTEX
  8
PLAN_1
 62
     5
  6
CONTINUOUS
 10
-1.500228
 20
0.765776
  0
VERTEX
  8
PLAN_1
 62
     5
  6
CONTINUOUS
 10
-1.491756
 20
0.765776
  0
SEQEND
  8
0
  0
POLYLINE
  8
PLAN_1
 62
     5
  6
CONTINUOUS
 66
     1
 40
0.003000
 41
0.003000
  0
VERTEX
  8
PLAN_1
 62
     5
  6
CONTINUOUS
 10
-1.483283
 20
0.765776
  0
VERTEX
  8
PLAN_1
 62
     5
  6
CONTINUOUS
 10
-1.475283
 20
0.765776
  0
SEQEND
  8
0
  0
POLYLINE
  8
PLAN_1
 62
     5
  6
CONTINUOUS
 66
     1
 40
0.003000
 41
0.003000
  0
VERTEX
  8
PLAN_1
 62
     5
  6
CONTINUOUS
 10
-1.466811
 20
0.765776
  0
VERTEX
  8
PLAN_1
 62
     5
  6
CONTINUOUS
 10
-1.458343
 20
0.765776
  0
SEQEND
  8
0
  0
POLYLINE
  8
PLAN_1
 62
     5
  6
CONTINUOUS
 66
     1
 40
0.003000
 41
0.003000
  0
VERTEX
  8
PLAN_1
 62
     5
  6
CONTINUOUS
 10
-1.450339
 20
0.765776
  0
VERTEX
  8
PLAN_1
 62
     5
  6
CONTINUOUS
 10
-1.441870
 20
0.765776
  0
SEQEND
  8
0
  0
POLYLINE
  8
PLAN_1
 62
     5
  6
CONTINUOUS
 66
     1
 40
0.003000
 41
0.003000
  0
VERTEX
  8
PLAN_1
 62
     5
  6
CONTINUOUS
 10
-1.433398
 20
0.765776
  0
VERTEX
  8
PLAN_1
 62
     5
  6
CONTINUOUS
 10
-1.425398
 20
0.765776
  0
SEQEND
  8
0
  0
POLYLINE
  8
PLAN_1
 62
     5
  6
CONTINUOUS
 66
     1
 40
0.003000
 41
0.003000
  0
VERTEX
  8
PLAN_1
 62
     5
  6
CONTINUOUS
 10
-1.416925
 20
0.765776
  0
VERTEX
  8
PLAN_1
 62
     5
  6
CONTINUOUS
 10
-1.408453
 20
0.765776
  0
SEQEND
  8
0
  0
POLYLINE
  8
PLAN_1
 62
     5
  6
CONTINUOUS
 66
     1
 40
0.003000
 41
0.003000
  0
VERTEX
  8
PLAN_1
 62
     5
  6
CONTINUOUS
 10
-1.400453
 20
0.765776
  0
VERTEX
  8
PLAN_1
 62
     5
  6
CONTINUOUS
 10
-1.391980
 20
0.765776
  0
SEQEND
  8
0
  0
POLYLINE
  8
PLAN_1
 62
     5
  6
CONTINUOUS
 66
     1
 40
0.003000
 41
0.003000
  0
VERTEX
  8
PLAN_1
 62
     5
  6
CONTINUOUS
 10
-1.383512
 20
0.765776
  0
VERTEX
  8
PLAN_1
 62
     5
  6
CONTINUOUS
 10
-1.375039
 20
0.765776
  0
SEQEND
  8
0
  0
POLYLINE
  8
PLAN_1
 62
     5
  6
CONTINUOUS
 66
     1
 40
0.003000
 41
0.003000
  0
VERTEX
  8
PLAN_1
 62
     5
  6
CONTINUOUS
 10
-1.367039
 20
0.765776
  0
VERTEX
  8
PLAN_1
 62
     5
  6
CONTINUOUS
 10
-1.358567
 20
0.765776
  0
SEQEND
  8
0
  0
POLYLINE
  8
PLAN_1
 62
     5
  6
CONTINUOUS
 66
     1
 40
0.003000
 41
0.003000
  0
VERTEX
  8
PLAN_1
 62
     5
  6
CONTINUOUS
 10
-1.350094
 20
0.765776
  0
VERTEX
  8
PLAN_1
 62
     5
  6
CONTINUOUS
 10
-1.343035
 20
0.765776
  0
VERTEX
  8
PLAN_1
 62
     5
  6
CONTINUOUS
 10
-1.342094
 20
0.765776
  0
SEQEND
  8
0
  0
POLYLINE
  8
PLAN_1
 62
     5
  6
CONTINUOUS
 66
     1
 40
0.003000
 41
0.003000
  0
VERTEX
  8
PLAN_1
 62
     5
  6
CONTINUOUS
 10
-1.333622
 20
0.765776
  0
VERTEX
  8
PLAN_1
 62
     5
  6
CONTINUOUS
 10
-1.325154
 20
0.765776
  0
SEQEND
  8
0
  0
POLYLINE
  8
PLAN_1
 62
     5
  6
CONTINUOUS
 66
     1
 40
0.003000
 41
0.003000
  0
VERTEX
  8
PLAN_1
 62
     5
  6
CONTINUOUS
 10
-1.317150
 20
0.765776
  0
VERTEX
  8
PLAN_1
 62
     5
  6
CONTINUOUS
 10
-1.308681
 20
0.765776
  0
SEQEND
  8
0
  0
POLYLINE
  8
PLAN_1
 62
     5
  6
CONTINUOUS
 66
     1
 40
0.003000
 41
0.003000
  0
VERTEX
  8
PLAN_1
 62
     5
  6
CONTINUOUS
 10
-1.300209
 20
0.765776
  0
VERTEX
  8
PLAN_1
 62
     5
  6
CONTINUOUS
 10
-1.291736
 20
0.765776
  0
SEQEND
  8
0
  0
POLYLINE
  8
PLAN_1
 62
     5
  6
CONTINUOUS
 66
     1
 40
0.003000
 41
0.003000
  0
VERTEX
  8
PLAN_1
 62
     5
  6
CONTINUOUS
 10
-1.283736
 20
0.765776
  0
VERTEX
  8
PLAN_1
 62
     5
  6
CONTINUOUS
 10
-1.275264
 20
0.765776
  0
SEQEND
  8
0
  0
POLYLINE
  8
PLAN_1
 62
     5
  6
CONTINUOUS
 66
     1
 40
0.003000
 41
0.003000
  0
VERTEX
  8
PLAN_1
 62
     5
  6
CONTINUOUS
 10
-1.266795
 20
0.765776
  0
VERTEX
  8
PLAN_1
 62
     5
  6
CONTINUOUS
 10
-1.258791
 20
0.765776
  0
SEQEND
  8
0
  0
POLYLINE
  8
PLAN_1
 62
     5
  6
CONTINUOUS
 66
     1
 40
0.003000
 41
0.003000
  0
VERTEX
  8
PLAN_1
 62
     5
  6
CONTINUOUS
 10
-1.250323
 20
0.765776
  0
VERTEX
  8
PLAN_1
 62
     5
  6
CONTINUOUS
 10
-1.241850
 20
0.765776
  0
SEQEND
  8
0
  0
POLYLINE
  8
PLAN_1
 62
     5
  6
CONTINUOUS
 66
     1
 40
0.003000
 41
0.003000
  0
VERTEX
  8
PLAN_1
 62
     5
  6
CONTINUOUS
 10
-1.233850
 20
0.765776
  0
VERTEX
  8
PLAN_1
 62
     5
  6
CONTINUOUS
 10
-1.225378
 20
0.765776
  0
SEQEND
  8
0
  0
POLYLINE
  8
PLAN_1
 62
     5
  6
CONTINUOUS
 66
     1
 40
0.003000
 41
0.003000
  0
VERTEX
  8
PLAN_1
 62
     5
  6
CONTINUOUS
 10
-1.216906
 20
0.765776
  0
VERTEX
  8
PLAN_1
 62
     5
  6
CONTINUOUS
 10
-1.208906
 20
0.765776
  0
SEQEND
  8
0
  0
POLYLINE
  8
PLAN_1
 62
     5
  6
CONTINUOUS
 66
     1
 40
0.003000
 41
0.003000
  0
VERTEX
  8
PLAN_1
 62
     5
  6
CONTINUOUS
 10
-1.200433
 20
0.765776
  0
VERTEX
  8
PLAN_1
 62
     5
  6
CONTINUOUS
 10
-1.191965
 20
0.765776
  0
SEQEND
  8
0
  0
POLYLINE
  8
PLAN_1
 62
     5
  6
CONTINUOUS
 66
     1
 40
0.003000
 41
0.003000
  0
VERTEX
  8
PLAN_1
 62
     5
  6
CONTINUOUS
 10
-1.183492
 20
0.765776
  0
VERTEX
  8
PLAN_1
 62
     5
  6
CONTINUOUS
 10
-1.175492
 20
0.765776
  0
SEQEND
  8
0
  0
POLYLINE
  8
PLAN_1
 62
     5
  6
CONTINUOUS
 66
     1
 40
0.003000
 41
0.003000
  0
VERTEX
  8
PLAN_1
 62
     5
  6
CONTINUOUS
 10
-1.167020
 20
0.765776
  0
VERTEX
  8
PLAN_1
 62
     5
  6
CONTINUOUS
 10
-1.158547
 20
0.765776
  0
SEQEND
  8
0
  0
POLYLINE
  8
PLAN_1
 62
     5
  6
CONTINUOUS
 66
     1
 40
0.003000
 41
0.003000
  0
VERTEX
  8
PLAN_1
 62
     5
  6
CONTINUOUS
 10
-1.150547
 20
0.765776
  0
VERTEX
  8
PLAN_1
 62
     5
  6
CONTINUOUS
 10
-1.142075
 20
0.765776
  0
SEQEND
  8
0
  0
POLYLINE
  8
PLAN_1
 62
     5
  6
CONTINUOUS
 66
     1
 40
0.003000
 41
0.003000
  0
VERTEX
  8
PLAN_1
 62
     5
  6
CONTINUOUS
 10
-1.133606
 20
0.765776
  0
VERTEX
  8
PLAN_1
 62
     5
  6
CONTINUOUS
 10
-1.125602
 20
0.765776
  0
SEQEND
  8
0
  0
POLYLINE
  8
PLAN_1
 62
     5
  6
CONTINUOUS
 66
     1
 40
0.003000
 41
0.003000
  0
VERTEX
  8
PLAN_1
 62
     5
  6
CONTINUOUS
 10
-1.117134
 20
0.765776
  0
VERTEX
  8
PLAN_1
 62
     5
  6
CONTINUOUS
 10
-1.108661
 20
0.765776
  0
SEQEND
  8
0
  0
POLYLINE
  8
PLAN_1
 62
     5
  6
CONTINUOUS
 66
     1
 40
0.003000
 41
0.003000
  0
VERTEX
  8
PLAN_1
 62
     5
  6
CONTINUOUS
 10
-1.100189
 20
0.765776
  0
VERTEX
  8
PLAN_1
 62
     5
  6
CONTINUOUS
 10
-1.092189
 20
0.765776
  0
SEQEND
  8
0
  0
POLYLINE
  8
PLAN_1
 62
     5
  6
CONTINUOUS
 66
     1
 40
0.003000
 41
0.003000
  0
VERTEX
  8
PLAN_1
 62
     5
  6
CONTINUOUS
 10
-1.083717
 20
0.765776
  0
VERTEX
  8
PLAN_1
 62
     5
  6
CONTINUOUS
 10
-1.075248
 20
0.765776
  0
SEQEND
  8
0
  0
POLYLINE
  8
PLAN_1
 62
     5
  6
CONTINUOUS
 66
     1
 40
0.003000
 41
0.003000
  0
VERTEX
  8
PLAN_1
 62
     5
  6
CONTINUOUS
 10
-1.067244
 20
0.765776
  0
VERTEX
  8
PLAN_1
 62
     5
  6
CONTINUOUS
 10
-1.058776
 20
0.765776
  0
SEQEND
  8
0
  0
POLYLINE
  8
PLAN_1
 62
     5
  6
CONTINUOUS
 66
     1
 40
0.003000
 41
0.003000
  0
VERTEX
  8
PLAN_1
 62
     5
  6
CONTINUOUS
 10
-1.050303
 20
0.765776
  0
VERTEX
  8
PLAN_1
 62
     5
  6
CONTINUOUS
 10
-1.042303
 20
0.765776
  0
SEQEND
  8
0
  0
POLYLINE
  8
PLAN_1
 62
     5
  6
CONTINUOUS
 66
     1
 40
0.003000
 41
0.003000
  0
VERTEX
  8
PLAN_1
 62
     5
  6
CONTINUOUS
 10
-1.033831
 20
0.765776
  0
VERTEX
  8
PLAN_1
 62
     5
  6
CONTINUOUS
 10
-1.025358
 20
0.765776
  0
SEQEND
  8
0
  0
POLYLINE
  8
PLAN_1
 62
     5
  6
CONTINUOUS
 66
     1
 40
0.003000
 41
0.003000
  0
VERTEX
  8
PLAN_1
 62
     5
  6
CONTINUOUS
 10
-1.016890
 20
0.765776
  0
VERTEX
  8
PLAN_1
 62
     5
  6
CONTINUOUS
 10
-1.008886
 20
0.765776
  0
SEQEND
  8
0
  0
POLYLINE
  8
PLAN_1
 62
     5
  6
CONTINUOUS
 66
     1
 40
0.003000
 41
0.003000
  0
VERTEX
  8
PLAN_1
 62
     5
  6
CONTINUOUS
 10
-1.000417
 20
0.765776
  0
VERTEX
  8
PLAN_1
 62
     5
  6
CONTINUOUS
 10
-0.991945
 20
0.765776
  0
SEQEND
  8
0
  0
POLYLINE
  8
PLAN_1
 62
     5
  6
CONTINUOUS
 66
     1
 40
0.003000
 41
0.003000
  0
VERTEX
  8
PLAN_1
 62
     5
  6
CONTINUOUS
 10
-0.983945
 20
0.765776
  0
VERTEX
  8
PLAN_1
 62
     5
  6
CONTINUOUS
 10
-0.975472
 20
0.765776
  0
SEQEND
  8
0
  0
POLYLINE
  8
PLAN_1
 62
     5
  6
CONTINUOUS
 66
     1
 40
0.003000
 41
0.003000
  0
VERTEX
  8
PLAN_1
 62
     5
  6
CONTINUOUS
 10
-0.967000
 20
0.765776
  0
VERTEX
  8
PLAN_1
 62
     5
  6
CONTINUOUS
 10
-0.959000
 20
0.765776
  0
SEQEND
  8
0
  0
POLYLINE
  8
PLAN_1
 62
     5
  6
CONTINUOUS
 66
     1
 40
0.003000
 41
0.003000
  0
VERTEX
  8
PLAN_1
 62
     5
  6
CONTINUOUS
 10
-0.950528
 20
0.765776
  0
VERTEX
  8
PLAN_1
 62
     5
  6
CONTINUOUS
 10
-0.942059
 20
0.765776
  0
SEQEND
  8
0
  0
POLYLINE
  8
PLAN_1
 62
     5
  6
CONTINUOUS
 66
     1
 40
0.003000
 41
0.003000
  0
VERTEX
  8
PLAN_1
 62
     5
  6
CONTINUOUS
 10
-0.934055
 20
0.765776
  0
VERTEX
  8
PLAN_1
 62
     5
  6
CONTINUOUS
 10
-0.925587
 20
0.765776
  0
SEQEND
  8
0
  0
POLYLINE
  8
PLAN_1
 62
     5
  6
CONTINUOUS
 66
     1
 40
0.003000
 41
0.003000
  0
VERTEX
  8
PLAN_1
 62
     5
  6
CONTINUOUS
 10
-0.917114
 20
0.765776
  0
VERTEX
  8
PLAN_1
 62
     5
  6
CONTINUOUS
 10
-0.913819
 20
0.765776
  0
VERTEX
  8
PLAN_1
 62
     5
  6
CONTINUOUS
 10
-0.908642
 20
0.765776
  0
SEQEND
  8
0
  0
POLYLINE
  8
PLAN_1
 62
     5
  6
CONTINUOUS
 66
     1
 40
0.003000
 41
0.003000
  0
VERTEX
  8
PLAN_1
 62
     5
  6
CONTINUOUS
 10
-0.900642
 20
0.765776
  0
VERTEX
  8
PLAN_1
 62
     5
  6
CONTINUOUS
 10
-0.892169
 20
0.765776
  0
SEQEND
  8
0
  0
POLYLINE
  8
PLAN_1
 62
     5
  6
CONTINUOUS
 66
     1
 40
0.003000
 41
0.003000
  0
VERTEX
  8
PLAN_1
 62
     5
  6
CONTINUOUS
 10
-0.883701
 20
0.765776
  0
VERTEX
  8
PLAN_1
 62
     5
  6
CONTINUOUS
 10
-0.875697
 20
0.765776
  0
SEQEND
  8
0
  0
POLYLINE
  8
PLAN_1
 62
     5
  6
CONTINUOUS
 66
     1
 40
0.003000
 41
0.003000
  0
VERTEX
  8
PLAN_1
 62
     5
  6
CONTINUOUS
 10
-0.867228
 20
0.765776
  0
VERTEX
  8
PLAN_1
 62
     5
  6
CONTINUOUS
 10
-0.858756
 20
0.765776
  0
SEQEND
  8
0
  0
POLYLINE
  8
PLAN_1
 62
     5
  6
CONTINUOUS
 66
     1
 40
0.003000
 41
0.003000
  0
VERTEX
  8
PLAN_1
 62
     5
  6
CONTINUOUS
 10
-0.850756
 20
0.765776
  0
VERTEX
  8
PLAN_1
 62
     5
  6
CONTINUOUS
 10
-0.842283
 20
0.765776
  0
SEQEND
  8
0
  0
POLYLINE
  8
PLAN_1
 62
     5
  6
CONTINUOUS
 66
     1
 40
0.003000
 41
0.003000
  0
VERTEX
  8
PLAN_1
 62
     5
  6
CONTINUOUS
 10
-0.833811
 20
0.765776
  0
VERTEX
  8
PLAN_1
 62
     5
  6
CONTINUOUS
 10
-0.825343
 20
0.765776
  0
SEQEND
  8
0
  0
POLYLINE
  8
PLAN_1
 62
     5
  6
CONTINUOUS
 66
     1
 40
0.003000
 41
0.003000
  0
VERTEX
  8
PLAN_1
 62
     5
  6
CONTINUOUS
 10
-0.817339
 20
0.765776
  0
VERTEX
  8
PLAN_1
 62
     5
  6
CONTINUOUS
 10
-0.808870
 20
0.765776
  0
SEQEND
  8
0
  0
POLYLINE
  8
PLAN_1
 62
     5
  6
CONTINUOUS
 66
     1
 40
0.003000
 41
0.003000
  0
VERTEX
  8
PLAN_1
 62
     5
  6
CONTINUOUS
 10
-0.800398
 20
0.765776
  0
VERTEX
  8
PLAN_1
 62
     5
  6
CONTINUOUS
 10
-0.792398
 20
0.765776
  0
SEQEND
  8
0
  0
POLYLINE
  8
PLAN_1
 62
     5
  6
CONTINUOUS
 66
     1
 40
0.003000
 41
0.003000
  0
VERTEX
  8
PLAN_1
 62
     5
  6
CONTINUOUS
 10
-0.783925
 20
0.765776
  0
VERTEX
  8
PLAN_1
 62
     5
  6
CONTINUOUS
 10
-0.775453
 20
0.765776
  0
SEQEND
  8
0
  0
POLYLINE
  8
PLAN_1
 62
     5
  6
CONTINUOUS
 66
     1
 40
0.003000
 41
0.003000
  0
VERTEX
  8
PLAN_1
 62
     5
  6
CONTINUOUS
 10
-0.767453
 20
0.765776
  0
VERTEX
  8
PLAN_1
 62
     5
  6
CONTINUOUS
 10
-0.758980
 20
0.765776
  0
SEQEND
  8
0
  0
POLYLINE
  8
PLAN_1
 62
     5
  6
CONTINUOUS
 66
     1
 40
0.003000
 41
0.003000
  0
VERTEX
  8
PLAN_1
 62
     5
  6
CONTINUOUS
 10
-0.750512
 20
0.765776
  0
VERTEX
  8
PLAN_1
 62
     5
  6
CONTINUOUS
 10
-0.742508
 20
0.765776
  0
SEQEND
  8
0
  0
POLYLINE
  8
PLAN_1
 62
     5
  6
CONTINUOUS
 66
     1
 40
0.003000
 41
0.003000
  0
VERTEX
  8
PLAN_1
 62
     5
  6
CONTINUOUS
 10
-0.734039
 20
0.765776
  0
VERTEX
  8
PLAN_1
 62
     5
  6
CONTINUOUS
 10
-0.725567
 20
0.765776
  0
SEQEND
  8
0
  0
POLYLINE
  8
PLAN_1
 62
     5
  6
CONTINUOUS
 66
     1
 40
0.003000
 41
0.003000
  0
VERTEX
  8
PLAN_1
 62
     5
  6
CONTINUOUS
 10
-0.717094
 20
0.765776
  0
VERTEX
  8
PLAN_1
 62
     5
  6
CONTINUOUS
 10
-0.709094
 20
0.765776
  0
SEQEND
  8
0
  0
POLYLINE
  8
PLAN_1
 62
     5
  6
CONTINUOUS
 66
     1
 40
0.003000
 41
0.003000
  0
VERTEX
  8
PLAN_1
 62
     5
  6
CONTINUOUS
 10
-0.700622
 20
0.765776
  0
VERTEX
  8
PLAN_1
 62
     5
  6
CONTINUOUS
 10
-0.692154
 20
0.765776
  0
SEQEND
  8
0
  0
POLYLINE
  8
PLAN_1
 62
     5
  6
CONTINUOUS
 66
     1
 40
0.003000
 41
0.003000
  0
VERTEX
  8
PLAN_1
 62
     5
  6
CONTINUOUS
 10
-0.684150
 20
0.765776
  0
VERTEX
  8
PLAN_1
 62
     5
  6
CONTINUOUS
 10
-0.675681
 20
0.765776
  0
SEQEND
  8
0
  0
POLYLINE
  8
PLAN_1
 62
     5
  6
CONTINUOUS
 66
     1
 40
0.003000
 41
0.003000
  0
VERTEX
  8
PLAN_1
 62
     5
  6
CONTINUOUS
 10
-0.667209
 20
0.765776
  0
VERTEX
  8
PLAN_1
 62
     5
  6
CONTINUOUS
 10
-0.659209
 20
0.765776
  0
SEQEND
  8
0
  0
POLYLINE
  8
PLAN_1
 62
     5
  6
CONTINUOUS
 66
     1
 40
0.003000
 41
0.003000
  0
VERTEX
  8
PLAN_1
 62
     5
  6
CONTINUOUS
 10
-0.650736
 20
0.765776
  0
VERTEX
  8
PLAN_1
 62
     5
  6
CONTINUOUS
 10
-0.642264
 20
0.765776
  0
SEQEND
  8
0
  0
POLYLINE
  8
PLAN_1
 62
     5
  6
CONTINUOUS
 66
     1
 40
0.003000
 41
0.003000
  0
VERTEX
  8
PLAN_1
 62
     5
  6
CONTINUOUS
 10
-0.633795
 20
0.765776
  0
VERTEX
  8
PLAN_1
 62
     5
  6
CONTINUOUS
 10
-0.625791
 20
0.765776
  0
SEQEND
  8
0
  0
POLYLINE
  8
PLAN_1
 62
     5
  6
CONTINUOUS
 66
     1
 40
0.003000
 41
0.003000
  0
VERTEX
  8
PLAN_1
 62
     5
  6
CONTINUOUS
 10
-0.617323
 20
0.765776
  0
VERTEX
  8
PLAN_1
 62
     5
  6
CONTINUOUS
 10
-0.610264
 20
0.765776
  0
VERTEX
  8
PLAN_1
 62
     5
  6
CONTINUOUS
 10
-0.608850
 20
0.765776
  0
SEQEND
  8
0
  0
POLYLINE
  8
PLAN_1
 62
     5
  6
CONTINUOUS
 66
     1
 40
0.003000
 41
0.003000
  0
VERTEX
  8
PLAN_1
 62
     5
  6
CONTINUOUS
 10
-0.600850
 20
0.765776
  0
VERTEX
  8
PLAN_1
 62
     5
  6
CONTINUOUS
 10
-0.592378
 20
0.765776
  0
SEQEND
  8
0
  0
POLYLINE
  8
PLAN_1
 62
     5
  6
CONTINUOUS
 66
     1
 40
0.003000
 41
0.003000
  0
VERTEX
  8
PLAN_1
 62
     5
  6
CONTINUOUS
 10
-0.583906
 20
0.765776
  0
VERTEX
  8
PLAN_1
 62
     5
  6
CONTINUOUS
 10
-0.575906
 20
0.765776
  0
SEQEND
  8
0
  0
POLYLINE
  8
PLAN_1
 62
     5
  6
CONTINUOUS
 66
     1
 40
0.003000
 41
0.003000
  0
VERTEX
  8
PLAN_1
 62
     5
  6
CONTINUOUS
 10
-0.567433
 20
0.765776
  0
VERTEX
  8
PLAN_1
 62
     5
  6
CONTINUOUS
 10
-0.563201
 20
0.765776
  0
VERTEX
  8
PLAN_1
 62
     5
  6
CONTINUOUS
 10
-0.558965
 20
0.765776
  0
SEQEND
  8
0
  0
POLYLINE
  8
PLAN_1
 62
     5
  6
CONTINUOUS
 66
     1
 40
0.003000
 41
0.003000
  0
VERTEX
  8
PLAN_1
 62
     5
  6
CONTINUOUS
 10
-0.550965
 20
0.765307
  0
VERTEX
  8
PLAN_1
 62
     5
  6
CONTINUOUS
 10
-0.542492
 20
0.764366
  0
SEQEND
  8
0
  0
POLYLINE
  8
PLAN_1
 62
     5
  6
CONTINUOUS
 66
     1
 40
0.003000
 41
0.003000
  0
VERTEX
  8
PLAN_1
 62
     5
  6
CONTINUOUS
 10
-0.534020
 20
0.762953
  0
VERTEX
  8
PLAN_1
 62
     5
  6
CONTINUOUS
 10
-0.527902
 20
0.761543
  0
VERTEX
  8
PLAN_1
 62
     5
  6
CONTINUOUS
 10
-0.526020
 20
0.761071
  0
SEQEND
  8
0
  0
POLYLINE
  8
PLAN_1
 62
     5
  6
CONTINUOUS
 66
     1
 40
0.003000
 41
0.003000
  0
VERTEX
  8
PLAN_1
 62
     5
  6
CONTINUOUS
 10
-0.518020
 20
0.759189
  0
VERTEX
  8
PLAN_1
 62
     5
  6
CONTINUOUS
 10
-0.515193
 20
0.758248
  0
VERTEX
  8
PLAN_1
 62
     5
  6
CONTINUOUS
 10
-0.510016
 20
0.756366
  0
SEQEND
  8
0
  0
POLYLINE
  8
PLAN_1
 62
     5
  6
CONTINUOUS
 66
     1
 40
0.003000
 41
0.003000
  0
VERTEX
  8
PLAN_1
 62
     5
  6
CONTINUOUS
 10
-0.502488
 20
0.753071
  0
VERTEX
  8
PLAN_1
 62
     5
  6
CONTINUOUS
 10
-0.501075
 20
0.752598
  0
VERTEX
  8
PLAN_1
 62
     5
  6
CONTINUOUS
 10
-0.494957
 20
0.749776
  0
SEQEND
  8
0
  0
POLYLINE
  8
PLAN_1
 62
     5
  6
CONTINUOUS
 66
     1
 40
0.003000
 41
0.003000
  0
VERTEX
  8
PLAN_1
 62
     5
  6
CONTINUOUS
 10
-0.487429
 20
0.745539
  0
VERTEX
  8
PLAN_1
 62
     5
  6
CONTINUOUS
 10
-0.486957
 20
0.745539
  0
VERTEX
  8
PLAN_1
 62
     5
  6
CONTINUOUS
 10
-0.480366
 20
0.741303
  0
SEQEND
  8
0
  0
POLYLINE
  8
PLAN_1
 62
     5
  6
CONTINUOUS
 66
     1
 40
0.003000
 41
0.003000
  0
VERTEX
  8
PLAN_1
 62
     5
  6
CONTINUOUS
 10
-0.473780
 20
0.736598
  0
VERTEX
  8
PLAN_1
 62
     5
  6
CONTINUOUS
 10
-0.472839
 20
0.735657
  0
VERTEX
  8
PLAN_1
 62
     5
  6
CONTINUOUS
 10
-0.467189
 20
0.730949
  0
SEQEND
  8
0
  0
POLYLINE
  8
PLAN_1
 62
     5
  6
CONTINUOUS
 66
     1
 40
0.003000
 41
0.003000
  0
VERTEX
  8
PLAN_1
 62
     5
  6
CONTINUOUS
 10
-0.461071
 20
0.725303
  0
VERTEX
  8
PLAN_1
 62
     5
  6
CONTINUOUS
 10
-0.458720
 20
0.723421
  0
VERTEX
  8
PLAN_1
 62
     5
  6
CONTINUOUS
 10
-0.455425
 20
0.719654
  0
SEQEND
  8
0
  0
POLYLINE
  8
PLAN_1
 62
     5
  6
CONTINUOUS
 66
     1
 40
0.003000
 41
0.003000
  0
VERTEX
  8
PLAN_1
 62
     5
  6
CONTINUOUS
 10
-0.450248
 20
0.713067
  0
VERTEX
  8
PLAN_1
 62
     5
  6
CONTINUOUS
 10
-0.446012
 20
0.707890
  0
VERTEX
  8
PLAN_1
 62
     5
  6
CONTINUOUS
 10
-0.445071
 20
0.706476
  0
SEQEND
  8
0
  0
POLYLINE
  8
PLAN_1
 62
     5
  6
CONTINUOUS
 66
     1
 40
0.003000
 41
0.003000
  0
VERTEX
  8
PLAN_1
 62
     5
  6
CONTINUOUS
 10
-0.440362
 20
0.699417
  0
VERTEX
  8
PLAN_1
 62
     5
  6
CONTINUOUS
 10
-0.439894
 20
0.698949
  0
VERTEX
  8
PLAN_1
 62
     5
  6
CONTINUOUS
 10
-0.436130
 20
0.692358
  0
SEQEND
  8
0
  0
POLYLINE
  8
PLAN_1
 62
     5
  6
CONTINUOUS
 66
     1
 40
0.003000
 41
0.003000
  0
VERTEX
  8
PLAN_1
 62
     5
  6
CONTINUOUS
 10
-0.432362
 20
0.684827
  0
VERTEX
  8
PLAN_1
 62
     5
  6
CONTINUOUS
 10
-0.429071
 20
0.678240
  0
VERTEX
  8
PLAN_1
 62
     5
  6
CONTINUOUS
 10
-0.429071
 20
0.677299
  0
SEQEND
  8
0
  0
POLYLINE
  8
PLAN_1
 62
     5
  6
CONTINUOUS
 66
     1
 40
0.003000
 41
0.003000
  0
VERTEX
  8
PLAN_1
 62
     5
  6
CONTINUOUS
 10
-0.425776
 20
0.669768
  0
VERTEX
  8
PLAN_1
 62
     5
  6
CONTINUOUS
 10
-0.424835
 20
0.666472
  0
VERTEX
  8
PLAN_1
 62
     5
  6
CONTINUOUS
 10
-0.422953
 20
0.661768
  0
SEQEND
  8
0
  0
POLYLINE
  8
PLAN_1
 62
     5
  6
CONTINUOUS
 66
     1
 40
0.003000
 41
0.003000
  0
VERTEX
  8
PLAN_1
 62
     5
  6
CONTINUOUS
 10
-0.420598
 20
0.653768
  0
VERTEX
  8
PLAN_1
 62
     5
  6
CONTINUOUS
 10
-0.418717
 20
0.645768
  0
SEQEND
  8
0
  0
POLYLINE
  8
PLAN_1
 62
     5
  6
CONTINUOUS
 66
     1
 40
0.003000
 41
0.003000
  0
VERTEX
  8
PLAN_1
 62
     5
  6
CONTINUOUS
 10
-0.416831
 20
0.637764
  0
VERTEX
  8
PLAN_1
 62
     5
  6
CONTINUOUS
 10
-0.414949
 20
0.629295
  0
SEQEND
  8
0
  0
POLYLINE
  8
PLAN_1
 62
     5
  6
CONTINUOUS
 66
     1
 40
0.003000
 41
0.003000
  0
VERTEX
  8
PLAN_1
 62
     5
  6
CONTINUOUS
 10
-0.414008
 20
0.621291
  0
VERTEX
  8
PLAN_1
 62
     5
  6
CONTINUOUS
 10
-0.412598
 20
0.612823
  0
SEQEND
  8
0
  0
POLYLINE
  8
PLAN_1
 62
     5
  6
CONTINUOUS
 66
     1
 40
0.003000
 41
0.003000
  0
VERTEX
  8
PLAN_1
 62
     5
  6
CONTINUOUS
 10
-0.412126
 20
0.604823
  0
VERTEX
  8
PLAN_1
 62
     5
  6
CONTINUOUS
 10
-0.411185
 20
0.596350
  0
SEQEND
  8
0
  0
POLYLINE
  8
PLAN_1
 62
     5
  6
CONTINUOUS
 66
     1
 40
0.003000
 41
0.003000
  0
VERTEX
  8
PLAN_1
 62
     5
  6
CONTINUOUS
 10
-0.410713
 20
0.587878
  0
VERTEX
  8
PLAN_1
 62
     5
  6
CONTINUOUS
 10
-0.410713
 20
0.579878
  0
SEQEND
  8
0
  0
POLYLINE
  8
PLAN_1
 62
     5
  6
CONTINUOUS
 66
     1
 40
0.003000
 41
0.003000
  0
VERTEX
  8
PLAN_1
 62
     5
  6
CONTINUOUS
 10
-0.410713
 20
0.571406
  0
VERTEX
  8
PLAN_1
 62
     5
  6
CONTINUOUS
 10
-0.410713
 20
0.562933
  0
SEQEND
  8
0
  0
POLYLINE
  8
PLAN_1
 62
     5
  6
CONTINUOUS
 66
     1
 40
0.003000
 41
0.003000
  0
VERTEX
  8
PLAN_1
 62
     5
  6
CONTINUOUS
 10
-0.410713
 20
0.554933
  0
VERTEX
  8
PLAN_1
 62
     5
  6
CONTINUOUS
 10
-0.410713
 20
0.546465
  0
SEQEND
  8
0
  0
POLYLINE
  8
PLAN_1
 62
     5
  6
CONTINUOUS
 66
     1
 40
0.003000
 41
0.003000
  0
VERTEX
  8
PLAN_1
 62
     5
  6
CONTINUOUS
 10
-0.410713
 20
0.537992
  0
VERTEX
  8
PLAN_1
 62
     5
  6
CONTINUOUS
 10
-0.410713
 20
0.529992
  0
SEQEND
  8
0
  0
POLYLINE
  8
PLAN_1
 62
     5
  6
CONTINUOUS
 66
     1
 40
0.003000
 41
0.003000
  0
VERTEX
  8
PLAN_1
 62
     5
  6
CONTINUOUS
 10
-0.410713
 20
0.521520
  0
VERTEX
  8
PLAN_1
 62
     5
  6
CONTINUOUS
 10
-0.410713
 20
0.513047
  0
SEQEND
  8
0
  0
POLYLINE
  8
PLAN_1
 62
     5
  6
CONTINUOUS
 66
     1
 40
0.003000
 41
0.003000
  0
VERTEX
  8
PLAN_1
 62
     5
  6
CONTINUOUS
 10
-0.410713
 20
0.505047
  0
VERTEX
  8
PLAN_1
 62
     5
  6
CONTINUOUS
 10
-0.410713
 20
0.496575
  0
SEQEND
  8
0
  0
POLYLINE
  8
PLAN_1
 62
     5
  6
CONTINUOUS
 66
     1
 40
0.003000
 41
0.003000
  0
VERTEX
  8
PLAN_1
 62
     5
  6
CONTINUOUS
 10
-0.410713
 20
0.488106
  0
VERTEX
  8
PLAN_1
 62
     5
  6
CONTINUOUS
 10
-0.410713
 20
0.479634
  0
SEQEND
  8
0
  0
POLYLINE
  8
PLAN_1
 62
     5
  6
CONTINUOUS
 66
     1
 40
0.003000
 41
0.003000
  0
VERTEX
  8
PLAN_1
 62
     5
  6
CONTINUOUS
 10
-0.410713
 20
0.471634
  0
VERTEX
  8
PLAN_1
 62
     5
  6
CONTINUOUS
 10
-0.410713
 20
0.463161
  0
SEQEND
  8
0
  0
POLYLINE
  8
PLAN_1
 62
     5
  6
CONTINUOUS
 66
     1
 40
0.003000
 41
0.003000
  0
VERTEX
  8
PLAN_1
 62
     5
  6
CONTINUOUS
 10
-0.410713
 20
0.454689
  0
VERTEX
  8
PLAN_1
 62
     5
  6
CONTINUOUS
 10
-0.410713
 20
0.446689
  0
SEQEND
  8
0
  0
POLYLINE
  8
PLAN_1
 62
     5
  6
CONTINUOUS
 66
     1
 40
0.003000
 41
0.003000
  0
VERTEX
  8
PLAN_1
 62
     5
  6
CONTINUOUS
 10
-0.410713
 20
0.438217
  0
VERTEX
  8
PLAN_1
 62
     5
  6
CONTINUOUS
 10
-0.410713
 20
0.429748
  0
SEQEND
  8
0
  0
POLYLINE
  8
PLAN_1
 62
     5
  6
CONTINUOUS
 66
     1
 40
0.003000
 41
0.003000
  0
VERTEX
  8
PLAN_1
 62
     5
  6
CONTINUOUS
 10
-0.410713
 20
0.421744
  0
VERTEX
  8
PLAN_1
 62
     5
  6
CONTINUOUS
 10
-0.410713
 20
0.415157
  0
VERTEX
  8
PLAN_1
 62
     5
  6
CONTINUOUS
 10
-0.410713
 20
0.413276
  0
SEQEND
  8
0
  0
POLYLINE
  8
PLAN_1
 62
     5
  6
CONTINUOUS
 66
     1
 40
0.003000
 41
0.003000
  0
VERTEX
  8
PLAN_1
 62
     5
  6
CONTINUOUS
 10
-0.410713
 20
0.404803
  0
VERTEX
  8
PLAN_1
 62
     5
  6
CONTINUOUS
 10
-0.410713
 20
0.396331
  0
SEQEND
  8
0
  0
POLYLINE
  8
PLAN_1
 62
     5
  6
CONTINUOUS
 66
     1
 40
0.003000
 41
0.003000
  0
VERTEX
  8
PLAN_1
 62
     5
  6
CONTINUOUS
 10
-0.410713
 20
0.388331
  0
VERTEX
  8
PLAN_1
 62
     5
  6
CONTINUOUS
 10
-0.410713
 20
0.379858
  0
SEQEND
  8
0
  0
POLYLINE
  8
PLAN_1
 62
     5
  6
CONTINUOUS
 66
     1
 40
0.003000
 41
0.003000
  0
VERTEX
  8
PLAN_1
 62
     5
  6
CONTINUOUS
 10
-0.410713
 20
0.371386
  0
VERTEX
  8
PLAN_1
 62
     5
  6
CONTINUOUS
 10
-0.410713
 20
0.363386
  0
SEQEND
  8
0
  0
POLYLINE
  8
PLAN_1
 62
     5
  6
CONTINUOUS
 66
     1
 40
0.003000
 41
0.003000
  0
VERTEX
  8
PLAN_1
 62
     5
  6
CONTINUOUS
 10
-0.410713
 20
0.354917
  0
VERTEX
  8
PLAN_1
 62
     5
  6
CONTINUOUS
 10
-0.410713
 20
0.346445
  0
SEQEND
  8
0
  0
POLYLINE
  8
PLAN_1
 62
     5
  6
CONTINUOUS
 66
     1
 40
0.003000
 41
0.003000
  0
VERTEX
  8
PLAN_1
 62
     5
  6
CONTINUOUS
 10
-0.410713
 20
0.338445
  0
VERTEX
  8
PLAN_1
 62
     5
  6
CONTINUOUS
 10
-0.410713
 20
0.336091
  0
VERTEX
  8
PLAN_1
 62
     5
  6
CONTINUOUS
 10
-0.410713
 20
0.329972
  0
SEQEND
  8
0
  0
POLYLINE
  8
PLAN_1
 62
     5
  6
CONTINUOUS
 66
     1
 40
0.003000
 41
0.003000
  0
VERTEX
  8
PLAN_1
 62
     5
  6
CONTINUOUS
 10
-0.410713
 20
0.321500
  0
VERTEX
  8
PLAN_1
 62
     5
  6
CONTINUOUS
 10
-0.410713
 20
0.313500
  0
SEQEND
  8
0
  0
POLYLINE
  8
PLAN_1
 62
     5
  6
CONTINUOUS
 66
     1
 40
0.003000
 41
0.003000
  0
VERTEX
  8
PLAN_1
 62
     5
  6
CONTINUOUS
 10
-0.410713
 20
0.305028
  0
VERTEX
  8
PLAN_1
 62
     5
  6
CONTINUOUS
 10
-0.410713
 20
0.296559
  0
SEQEND
  8
0
  0
POLYLINE
  8
PLAN_1
 62
     5
  6
CONTINUOUS
 66
     1
 40
0.003000
 41
0.003000
  0
VERTEX
  8
PLAN_1
 62
     5
  6
CONTINUOUS
 10
-0.410713
 20
0.288087
  0
VERTEX
  8
PLAN_1
 62
     5
  6
CONTINUOUS
 10
-0.410713
 20
0.280087
  0
SEQEND
  8
0
  0
POLYLINE
  8
PLAN_1
 62
     5
  6
CONTINUOUS
 66
     1
 40
0.003000
 41
0.003000
  0
VERTEX
  8
PLAN_1
 62
     5
  6
CONTINUOUS
 10
-0.410713
 20
0.271614
  0
VERTEX
  8
PLAN_1
 62
     5
  6
CONTINUOUS
 10
-0.410713
 20
0.263142
  0
SEQEND
  8
0
  0
POLYLINE
  8
PLAN_1
 62
     5
  6
CONTINUOUS
 66
     1
 40
0.003000
 41
0.003000
  0
VERTEX
  8
PLAN_1
 62
     5
  6
CONTINUOUS
 10
-0.410713
 20
0.255142
  0
VERTEX
  8
PLAN_1
 62
     5
  6
CONTINUOUS
 10
-0.410713
 20
0.246669
  0
SEQEND
  8
0
  0
POLYLINE
  8
PLAN_1
 62
     5
  6
CONTINUOUS
 66
     1
 40
0.003000
 41
0.003000
  0
VERTEX
  8
PLAN_1
 62
     5
  6
CONTINUOUS
 10
-0.410713
 20
0.238201
  0
VERTEX
  8
PLAN_1
 62
     5
  6
CONTINUOUS
 10
-0.410713
 20
0.230197
  0
SEQEND
  8
0
  0
POLYLINE
  8
PLAN_1
 62
     5
  6
CONTINUOUS
 66
     1
 40
0.003000
 41
0.003000
  0
VERTEX
  8
PLAN_1
 62
     5
  6
CONTINUOUS
 10
-0.410713
 20
0.221728
  0
VERTEX
  8
PLAN_1
 62
     5
  6
CONTINUOUS
 10
-0.410713
 20
0.213256
  0
SEQEND
  8
0
  0
POLYLINE
  8
PLAN_1
 62
     5
  6
CONTINUOUS
 66
     1
 40
0.003000
 41
0.003000
  0
VERTEX
  8
PLAN_1
 62
     5
  6
CONTINUOUS
 10
-0.410713
 20
0.204783
  0
VERTEX
  8
PLAN_1
 62
     5
  6
CONTINUOUS
 10
-0.410713
 20
0.198197
  0
VERTEX
  8
PLAN_1
 62
     5
  6
CONTINUOUS
 10
-0.410713
 20
0.196783
  0
SEQEND
  8
0
  0
POLYLINE
  8
PLAN_1
 62
     5
  6
CONTINUOUS
 66
     1
 40
0.003000
 41
0.003000
  0
VERTEX
  8
PLAN_1
 62
     5
  6
CONTINUOUS
 10
-0.410713
 20
0.188311
  0
VERTEX
  8
PLAN_1
 62
     5
  6
CONTINUOUS
 10
-0.410713
 20
0.179843
  0
SEQEND
  8
0
  0
POLYLINE
  8
PLAN_1
 62
     5
  6
CONTINUOUS
 66
     1
 40
0.003000
 41
0.003000
  0
VERTEX
  8
PLAN_1
 62
     5
  6
CONTINUOUS
 10
-0.410713
 20
0.171839
  0
VERTEX
  8
PLAN_1
 62
     5
  6
CONTINUOUS
 10
-0.410713
 20
0.163370
  0
SEQEND
  8
0
  0
POLYLINE
  8
PLAN_1
 62
     5
  6
CONTINUOUS
 66
     1
 40
0.003000
 41
0.003000
  0
VERTEX
  8
PLAN_1
 62
     5
  6
CONTINUOUS
 10
-0.410713
 20
0.154898
  0
VERTEX
  8
PLAN_1
 62
     5
  6
CONTINUOUS
 10
-0.410713
 20
0.147366
  0
VERTEX
  8
PLAN_1
 62
     5
  6
CONTINUOUS
 10
-0.410713
 20
0.146898
  0
SEQEND
  8
0
  0
POLYLINE
  8
PLAN_1
 62
     5
  6
CONTINUOUS
 66
     1
 40
0.003000
 41
0.003000
  0
VERTEX
  8
PLAN_1
 62
     5
  6
CONTINUOUS
 10
-0.410713
 20
0.138425
  0
VERTEX
  8
PLAN_1
 62
     5
  6
CONTINUOUS
 10
-0.410713
 20
0.129953
  0
SEQEND
  8
0
  0
POLYLINE
  8
PLAN_1
 62
     5
  6
CONTINUOUS
 66
     1
 40
0.003000
 41
0.003000
  0
VERTEX
  8
PLAN_1
 62
     5
  6
CONTINUOUS
 10
-0.410713
 20
0.121953
  0
VERTEX
  8
PLAN_1
 62
     5
  6
CONTINUOUS
 10
-0.410713
 20
0.113953
  0
VERTEX
  8
PLAN_1
 62
     5
  6
CONTINUOUS
 10
-0.410713
 20
0.113480
  0
SEQEND
  8
0
  0
POLYLINE
  8
PLAN_1
 62
     5
  6
CONTINUOUS
 66
     1
 40
0.003000
 41
0.003000
  0
VERTEX
  8
PLAN_1
 62
     5
  6
CONTINUOUS
 10
-0.410713
 20
0.105012
  0
VERTEX
  8
PLAN_1
 62
     5
  6
CONTINUOUS
 10
-0.410713
 20
0.101717
  0
SEQEND
  8
0
  0
POLYLINE
  8
PLAN_1
 62
     5
  6
CONTINUOUS
 66
     1
 40
0.003000
 41
0.003000
  0
VERTEX
  8
PLAN_1
 62
     5
  6
CONTINUOUS
 10
-0.410713
 20
0.105012
  0
VERTEX
  8
PLAN_1
 62
     5
  6
CONTINUOUS
 10
-0.410713
 20
0.101717
  0
SEQEND
  8
0
  0
POLYLINE
  8
PLAN_1
  6
CONTINUOUS
 66
     1
 40
0.003000
 41
0.003000
  0
VERTEX
  8
PLAN_1
  6
CONTINUOUS
 10
-1.792020
 20
0.515870
  0
VERTEX
  8
PLAN_1
  6
CONTINUOUS
 10
-1.786370
 20
0.515870
  0
VERTEX
  8
PLAN_1
  6
CONTINUOUS
 10
-1.780724
 20
0.516815
  0
VERTEX
  8
PLAN_1
  6
CONTINUOUS
 10
-1.775075
 20
0.518224
  0
VERTEX
  8
PLAN_1
  6
CONTINUOUS
 10
-1.769898
 20
0.520106
  0
VERTEX
  8
PLAN_1
  6
CONTINUOUS
 10
-1.765193
 20
0.522461
  0
VERTEX
  8
PLAN_1
  6
CONTINUOUS
 10
-1.760488
 20
0.525283
  0
VERTEX
  8
PLAN_1
  6
CONTINUOUS
 10
-1.755780
 20
0.528579
  0
VERTEX
  8
PLAN_1
  6
CONTINUOUS
 10
-1.752016
 20
0.532343
  0
VERTEX
  8
PLAN_1
  6
CONTINUOUS
 10
-1.748248
 20
0.536579
  0
VERTEX
  8
PLAN_1
  6
CONTINUOUS
 10
-1.744957
 20
0.540815
  0
VERTEX
  8
PLAN_1
  6
CONTINUOUS
 10
-1.742130
 20
0.545520
  0
VERTEX
  8
PLAN_1
  6
CONTINUOUS
 10
-1.739780
 20
0.550228
  0
VERTEX
  8
PLAN_1
  6
CONTINUOUS
 10
-1.737898
 20
0.555406
  0
VERTEX
  8
PLAN_1
  6
CONTINUOUS
 10
-1.736484
 20
0.561051
  0
VERTEX
  8
PLAN_1
  6
CONTINUOUS
 10
-1.735543
 20
0.566701
  0
VERTEX
  8
PLAN_1
  6
CONTINUOUS
 10
-1.735543
 20
0.572346
  0
VERTEX
  8
PLAN_1
  6
CONTINUOUS
 10
-1.735543
 20
0.578465
  0
VERTEX
  8
PLAN_1
  6
CONTINUOUS
 10
-1.736484
 20
0.584114
  0
VERTEX
  8
PLAN_1
  6
CONTINUOUS
 10
-1.737898
 20
0.589291
  0
VERTEX
  8
PLAN_1
  6
CONTINUOUS
 10
-1.739780
 20
0.594469
  0
VERTEX
  8
PLAN_1
  6
CONTINUOUS
 10
-1.742130
 20
0.599646
  0
VERTEX
  8
PLAN_1
  6
CONTINUOUS
 10
-1.744957
 20
0.604350
  0
VERTEX
  8
PLAN_1
  6
CONTINUOUS
 10
-1.748248
 20
0.608587
  0
VERTEX
  8
PLAN_1
  6
CONTINUOUS
 10
-1.752016
 20
0.612823
  0
VERTEX
  8
PLAN_1
  6
CONTINUOUS
 10
-1.755780
 20
0.616118
  0
VERTEX
  8
PLAN_1
  6
CONTINUOUS
 10
-1.760488
 20
0.619409
  0
VERTEX
  8
PLAN_1
  6
CONTINUOUS
 10
-1.765193
 20
0.622236
  0
VERTEX
  8
PLAN_1
  6
CONTINUOUS
 10
-1.769898
 20
0.624587
  0
VERTEX
  8
PLAN_1
  6
CONTINUOUS
 10
-1.775075
 20
0.626941
  0
VERTEX
  8
PLAN_1
  6
CONTINUOUS
 10
-1.780724
 20
0.627882
  0
VERTEX
  8
PLAN_1
  6
CONTINUOUS
 10
-1.786370
 20
0.628823
  0
VERTEX
  8
PLAN_1
  6
CONTINUOUS
 10
-1.792020
 20
0.629295
  0
VERTEX
  8
PLAN_1
  6
CONTINUOUS
 10
-1.798138
 20
0.628823
  0
VERTEX
  8
PLAN_1
  6
CONTINUOUS
 10
-1.803783
 20
0.627882
  0
VERTEX
  8
PLAN_1
  6
CONTINUOUS
 10
-1.808961
 20
0.626941
  0
VERTEX
  8
PLAN_1
  6
CONTINUOUS
 10
-1.814138
 20
0.624587
  0
VERTEX
  8
PLAN_1
  6
CONTINUOUS
 10
-1.819315
 20
0.622236
  0
VERTEX
  8
PLAN_1
  6
CONTINUOUS
 10
-1.824024
 20
0.619409
  0
VERTEX
  8
PLAN_1
  6
CONTINUOUS
 10
-1.828256
 20
0.616118
  0
VERTEX
  8
PLAN_1
  6
CONTINUOUS
 10
-1.832024
 20
0.612823
  0
VERTEX
  8
PLAN_1
  6
CONTINUOUS
 10
-1.835787
 20
0.608587
  0
VERTEX
  8
PLAN_1
  6
CONTINUOUS
 10
-1.839083
 20
0.604350
  0
VERTEX
  8
PLAN_1
  6
CONTINUOUS
 10
-1.841906
 20
0.599646
  0
VERTEX
  8
PLAN_1
  6
CONTINUOUS
 10
-1.844260
 20
0.594469
  0
VERTEX
  8
PLAN_1
  6
CONTINUOUS
 10
-1.846142
 20
0.589291
  0
VERTEX
  8
PLAN_1
  6
CONTINUOUS
 10
-1.847555
 20
0.584114
  0
VERTEX
  8
PLAN_1
  6
CONTINUOUS
 10
-1.848496
 20
0.578465
  0
VERTEX
  8
PLAN_1
  6
CONTINUOUS
 10
-1.848965
 20
0.572346
  0
VERTEX
  8
PLAN_1
  6
CONTINUOUS
 10
-1.848496
 20
0.566701
  0
VERTEX
  8
PLAN_1
  6
CONTINUOUS
 10
-1.847555
 20
0.561051
  0
VERTEX
  8
PLAN_1
  6
CONTINUOUS
 10
-1.846142
 20
0.555406
  0
VERTEX
  8
PLAN_1
  6
CONTINUOUS
 10
-1.844260
 20
0.550228
  0
VERTEX
  8
PLAN_1
  6
CONTINUOUS
 10
-1.841906
 20
0.545520
  0
VERTEX
  8
PLAN_1
  6
CONTINUOUS
 10
-1.839083
 20
0.540815
  0
VERTEX
  8
PLAN_1
  6
CONTINUOUS
 10
-1.835787
 20
0.536579
  0
VERTEX
  8
PLAN_1
  6
CONTINUOUS
 10
-1.832024
 20
0.532343
  0
VERTEX
  8
PLAN_1
  6
CONTINUOUS
 10
-1.828256
 20
0.528579
  0
VERTEX
  8
PLAN_1
  6
CONTINUOUS
 10
-1.824024
 20
0.525283
  0
VERTEX
  8
PLAN_1
  6
CONTINUOUS
 10
-1.819315
 20
0.522461
  0
VERTEX
  8
PLAN_1
  6
CONTINUOUS
 10
-1.814138
 20
0.520106
  0
VERTEX
  8
PLAN_1
  6
CONTINUOUS
 10
-1.808961
 20
0.518224
  0
VERTEX
  8
PLAN_1
  6
CONTINUOUS
 10
-1.803783
 20
0.516815
  0
VERTEX
  8
PLAN_1
  6
CONTINUOUS
 10
-1.798138
 20
0.515870
  0
VERTEX
  8
PLAN_1
  6
CONTINUOUS
 10
-1.792020
 20
0.515870
  0
SEQEND
  8
0
  0
POLYLINE
  8
PLAN_1
  6
CONTINUOUS
 66
     1
 40
0.004232
 41
0.004232
  0
VERTEX
  8
PLAN_1
  6
CONTINUOUS
 10
-1.792961
 20
0.698476
  0
VERTEX
  8
PLAN_1
  6
CONTINUOUS
 10
-1.792961
 20
0.431630
  0
SEQEND
  8
0
  0
POLYLINE
  8
PLAN_1
  6
CONTINUOUS
 66
     1
 40
0.004232
 41
0.004232
  0
VERTEX
  8
PLAN_1
  6
CONTINUOUS
 10
-1.925677
 20
0.574228
  0
VERTEX
  8
PLAN_1
  6
CONTINUOUS
 10
-1.658358
 20
0.574228
  0
SEQEND
  8
0
  0
POLYLINE
  8
PLAN_1
  6
CONTINUOUS
 66
     1
 40
0.003000
 41
0.003000
  0
VERTEX
  8
PLAN_1
  6
CONTINUOUS
 10
-0.603673
 20
0.515870
  0
VERTEX
  8
PLAN_1
  6
CONTINUOUS
 10
-0.598028
 20
0.515870
  0
VERTEX
  8
PLAN_1
  6
CONTINUOUS
 10
-0.592378
 20
0.516815
  0
VERTEX
  8
PLAN_1
  6
CONTINUOUS
 10
-0.587201
 20
0.518224
  0
VERTEX
  8
PLAN_1
  6
CONTINUOUS
 10
-0.581555
 20
0.520106
  0
VERTEX
  8
PLAN_1
  6
CONTINUOUS
 10
-0.576846
 20
0.522461
  0
VERTEX
  8
PLAN_1
  6
CONTINUOUS
 10
-0.572142
 20
0.525283
  0
VERTEX
  8
PLAN_1
  6
CONTINUOUS
 10
-0.567906
 20
0.528579
  0
VERTEX
  8
PLAN_1
  6
CONTINUOUS
 10
-0.563669
 20
0.532343
  0
VERTEX
  8
PLAN_1
  6
CONTINUOUS
 10
-0.559906
 20
0.536579
  0
VERTEX
  8
PLAN_1
  6
CONTINUOUS
 10
-0.556610
 20
0.540815
  0
VERTEX
  8
PLAN_1
  6
CONTINUOUS
 10
-0.553787
 20
0.545520
  0
VERTEX
  8
PLAN_1
  6
CONTINUOUS
 10
-0.551433
 20
0.550228
  0
VERTEX
  8
PLAN_1
  6
CONTINUOUS
 10
-0.549551
 20
0.555406
  0
VERTEX
  8
PLAN_1
  6
CONTINUOUS
 10
-0.548138
 20
0.561051
  0
VERTEX
  8
PLAN_1
  6
CONTINUOUS
 10
-0.547197
 20
0.566701
  0
VERTEX
  8
PLAN_1
  6
CONTINUOUS
 10
-0.547197
 20
0.572346
  0
VERTEX
  8
PLAN_1
  6
CONTINUOUS
 10
-0.547197
 20
0.578465
  0
VERTEX
  8
PLAN_1
  6
CONTINUOUS
 10
-0.548138
 20
0.584114
  0
VERTEX
  8
PLAN_1
  6
CONTINUOUS
 10
-0.549551
 20
0.589291
  0
VERTEX
  8
PLAN_1
  6
CONTINUOUS
 10
-0.551433
 20
0.594469
  0
VERTEX
  8
PLAN_1
  6
CONTINUOUS
 10
-0.553787
 20
0.599646
  0
VERTEX
  8
PLAN_1
  6
CONTINUOUS
 10
-0.556610
 20
0.604350
  0
VERTEX
  8
PLAN_1
  6
CONTINUOUS
 10
-0.559906
 20
0.608587
  0
VERTEX
  8
PLAN_1
  6
CONTINUOUS
 10
-0.563669
 20
0.612823
  0
VERTEX
  8
PLAN_1
  6
CONTINUOUS
 10
-0.567906
 20
0.616118
  0
VERTEX
  8
PLAN_1
  6
CONTINUOUS
 10
-0.572142
 20
0.619409
  0
VERTEX
  8
PLAN_1
  6
CONTINUOUS
 10
-0.576846
 20
0.622236
  0
VERTEX
  8
PLAN_1
  6
CONTINUOUS
 10
-0.581555
 20
0.624587
  0
VERTEX
  8
PLAN_1
  6
CONTINUOUS
 10
-0.587201
 20
0.626941
  0
VERTEX
  8
PLAN_1
  6
CONTINUOUS
 10
-0.592378
 20
0.627882
  0
VERTEX
  8
PLAN_1
  6
CONTINUOUS
 10
-0.598028
 20
0.628823
  0
VERTEX
  8
PLAN_1
  6
CONTINUOUS
 10
-0.603673
 20
0.629295
  0
VERTEX
  8
PLAN_1
  6
CONTINUOUS
 10
-0.609791
 20
0.628823
  0
VERTEX
  8
PLAN_1
  6
CONTINUOUS
 10
-0.615441
 20
0.627882
  0
VERTEX
  8
PLAN_1
  6
CONTINUOUS
 10
-0.620618
 20
0.626941
  0
VERTEX
  8
PLAN_1
  6
CONTINUOUS
 10
-0.625791
 20
0.624587
  0
VERTEX
  8
PLAN_1
  6
CONTINUOUS
 10
-0.630969
 20
0.622236
  0
VERTEX
  8
PLAN_1
  6
CONTINUOUS
 10
-0.635677
 20
0.619409
  0
VERTEX
  8
PLAN_1
  6
CONTINUOUS
 10
-0.639913
 20
0.616118
  0
VERTEX
  8
PLAN_1
  6
CONTINUOUS
 10
-0.644150
 20
0.612823
  0
VERTEX
  8
PLAN_1
  6
CONTINUOUS
 10
-0.647441
 20
0.608587
  0
VERTEX
  8
PLAN_1
  6
CONTINUOUS
 10
-0.650736
 20
0.604350
  0
VERTEX
  8
PLAN_1
  6
CONTINUOUS
 10
-0.653559
 20
0.599646
  0
VERTEX
  8
PLAN_1
  6
CONTINUOUS
 10
-0.656386
 20
0.594469
  0
VERTEX
  8
PLAN_1
  6
CONTINUOUS
 10
-0.658268
 20
0.589291
  0
VERTEX
  8
PLAN_1
  6
CONTINUOUS
 10
-0.659677
 20
0.584114
  0
VERTEX
  8
PLAN_1
  6
CONTINUOUS
 10
-0.660150
 20
0.578465
  0
VERTEX
  8
PLAN_1
  6
CONTINUOUS
 10
-0.660618
 20
0.572346
  0
VERTEX
  8
PLAN_1
  6
CONTINUOUS
 10
-0.660150
 20
0.566701
  0
VERTEX
  8
PLAN_1
  6
CONTINUOUS
 10
-0.659677
 20
0.561051
  0
VERTEX
  8
PLAN_1
  6
CONTINUOUS
 10
-0.658268
 20
0.555406
  0
VERTEX
  8
PLAN_1
  6
CONTINUOUS
 10
-0.656386
 20
0.550228
  0
VERTEX
  8
PLAN_1
  6
CONTINUOUS
 10
-0.653559
 20
0.545520
  0
VERTEX
  8
PLAN_1
  6
CONTINUOUS
 10
-0.650736
 20
0.540815
  0
VERTEX
  8
PLAN_1
  6
CONTINUOUS
 10
-0.647441
 20
0.536579
  0
VERTEX
  8
PLAN_1
  6
CONTINUOUS
 10
-0.644150
 20
0.532343
  0
VERTEX
  8
PLAN_1
  6
CONTINUOUS
 10
-0.639913
 20
0.528579
  0
VERTEX
  8
PLAN_1
  6
CONTINUOUS
 10
-0.635677
 20
0.525283
  0
VERTEX
  8
PLAN_1
  6
CONTINUOUS
 10
-0.630969
 20
0.522461
  0
VERTEX
  8
PLAN_1
  6
CONTINUOUS
 10
-0.625791
 20
0.520106
  0
VERTEX
  8
PLAN_1
  6
CONTINUOUS
 10
-0.620618
 20
0.518224
  0
VERTEX
  8
PLAN_1
  6
CONTINUOUS
 10
-0.615441
 20
0.516815
  0
VERTEX
  8
PLAN_1
  6
CONTINUOUS
 10
-0.609791
 20
0.515870
  0
VERTEX
  8
PLAN_1
  6
CONTINUOUS
 10
-0.603673
 20
0.515870
  0
SEQEND
  8
0
  0
POLYLINE
  8
PLAN_1
  6
CONTINUOUS
 66
     1
 40
0.004232
 41
0.004232
  0
VERTEX
  8
PLAN_1
  6
CONTINUOUS
 10
-0.604614
 20
0.698476
  0
VERTEX
  8
PLAN_1
  6
CONTINUOUS
 10
-0.604614
 20
0.431630
  0
SEQEND
  8
0
  0
POLYLINE
  8
PLAN_1
  6
CONTINUOUS
 66
     1
 40
0.004232
 41
0.004232
  0
VERTEX
  8
PLAN_1
  6
CONTINUOUS
 10
-0.737335
 20
0.574228
  0
VERTEX
  8
PLAN_1
  6
CONTINUOUS
 10
-0.470484
 20
0.574228
  0
SEQEND
  8
0
  0
POLYLINE
  8
PLAN_1
  6
CONTINUOUS
 66
     1
 40
0.005646
 41
0.005646
  0
VERTEX
  8
PLAN_1
  6
CONTINUOUS
 10
-1.325154
 20
0.393508
  0
VERTEX
  8
PLAN_1
  6
CONTINUOUS
 10
-1.447047
 20
0.371858
  0
VERTEX
  8
PLAN_1
  6
CONTINUOUS
 10
-1.455047
 20
0.370445
  0
SEQEND
  8
0
  0
POLYLINE
  8
PLAN_1
  6
CONTINUOUS
 66
     1
 40
0.005646
 41
0.005646
  0
VERTEX
  8
PLAN_1
  6
CONTINUOUS
 10
-1.455047
 20
0.370445
  0
VERTEX
  8
PLAN_1
  6
CONTINUOUS
 10
-1.458811
 20
0.369035
  0
VERTEX
  8
PLAN_1
  6
CONTINUOUS
 10
-1.462575
 20
0.367622
  0
VERTEX
  8
PLAN_1
  6
CONTINUOUS
 10
-1.465402
 20
0.365268
  0
VERTEX
  8
PLAN_1
  6
CONTINUOUS
 10
-1.467752
 20
0.361976
  0
VERTEX
  8
PLAN_1
  6
CONTINUOUS
 10
-1.469638
 20
0.358681
  0
VERTEX
  8
PLAN_1
  6
CONTINUOUS
 10
-1.471047
 20
0.355386
  0
VERTEX
  8
PLAN_1
  6
CONTINUOUS
 10
-1.471520
 20
0.351622
  0
VERTEX
  8
PLAN_1
  6
CONTINUOUS
 10
-1.471047
 20
0.347386
  0
VERTEX
  8
PLAN_1
  6
CONTINUOUS
 10
-1.470106
 20
0.343622
  0
VERTEX
  8
PLAN_1
  6
CONTINUOUS
 10
-1.468224
 20
0.340327
  0
VERTEX
  8
PLAN_1
  6
CONTINUOUS
 10
-1.465870
 20
0.337031
  0
VERTEX
  8
PLAN_1
  6
CONTINUOUS
 10
-1.463047
 20
0.334677
  0
VERTEX
  8
PLAN_1
  6
CONTINUOUS
 10
-1.459752
 20
0.332795
  0
VERTEX
  8
PLAN_1
  6
CONTINUOUS
 10
-1.455988
 20
0.331854
  0
VERTEX
  8
PLAN_1
  6
CONTINUOUS
 10
-1.452224
 20
0.331386
  0
VERTEX
  8
PLAN_1
  6
CONTINUOUS
 10
-1.448457
 20
0.331386
  0
SEQEND
  8
0
  0
POLYLINE
  8
PLAN_1
  6
CONTINUOUS
 66
     1
 40
0.005646
 41
0.005646
  0
VERTEX
  8
PLAN_1
  6
CONTINUOUS
 10
-1.448457
 20
0.331386
  0
VERTEX
  8
PLAN_1
  6
CONTINUOUS
 10
-1.440457
 20
0.332795
  0
VERTEX
  8
PLAN_1
  6
CONTINUOUS
 10
-1.099248
 20
0.393035
  0
VERTEX
  8
PLAN_1
  6
CONTINUOUS
 10
-1.325154
 20
0.393508
  0
SEQEND
  8
0
  0
POLYLINE
  8
PLAN_1
  6
CONTINUOUS
 66
     1
 40
0.005646
 41
0.005646
  0
VERTEX
  8
PLAN_1
  6
CONTINUOUS
 10
-0.965118
 20
0.245260
  0
VERTEX
  8
PLAN_1
  6
CONTINUOUS
 10
-0.961354
 20
0.246669
  0
VERTEX
  8
PLAN_1
  6
CONTINUOUS
 10
-0.957587
 20
0.248551
  0
VERTEX
  8
PLAN_1
  6
CONTINUOUS
 10
-0.954764
 20
0.250906
  0
VERTEX
  8
PLAN_1
  6
CONTINUOUS
 10
-0.952413
 20
0.253728
  0
VERTEX
  8
PLAN_1
  6
CONTINUOUS
 10
-0.950528
 20
0.257024
  0
VERTEX
  8
PLAN_1
  6
CONTINUOUS
 10
-0.949118
 20
0.260319
  0
VERTEX
  8
PLAN_1
  6
CONTINUOUS
 10
-0.948646
 20
0.264083
  0
VERTEX
  8
PLAN_1
  6
CONTINUOUS
 10
-0.949118
 20
0.268319
  0
VERTEX
  8
PLAN_1
  6
CONTINUOUS
 10
-0.950059
 20
0.272083
  0
VERTEX
  8
PLAN_1
  6
CONTINUOUS
 10
-0.951941
 20
0.275378
  0
VERTEX
  8
PLAN_1
  6
CONTINUOUS
 10
-0.954295
 20
0.278673
  0
VERTEX
  8
PLAN_1
  6
CONTINUOUS
 10
-0.957118
 20
0.281028
  0
VERTEX
  8
PLAN_1
  6
CONTINUOUS
 10
-0.960413
 20
0.282909
  0
VERTEX
  8
PLAN_1
  6
CONTINUOUS
 10
-0.964177
 20
0.283850
  0
VERTEX
  8
PLAN_1
  6
CONTINUOUS
 10
-0.967941
 20
0.284323
  0
VERTEX
  8
PLAN_1
  6
CONTINUOUS
 10
-0.971709
 20
0.284323
  0
SEQEND
  8
0
  0
POLYLINE
  8
PLAN_1
  6
CONTINUOUS
 66
     1
 40
0.005646
 41
0.005646
  0
VERTEX
  8
PLAN_1
  6
CONTINUOUS
 10
-0.971709
 20
0.284323
  0
VERTEX
  8
PLAN_1
  6
CONTINUOUS
 10
-0.983945
 20
0.281969
  0
VERTEX
  8
PLAN_1
  6
CONTINUOUS
 10
-1.447047
 20
0.200079
  0
VERTEX
  8
PLAN_1
  6
CONTINUOUS
 10
-1.455047
 20
0.198665
  0
SEQEND
  8
0
  0
POLYLINE
  8
PLAN_1
  6
CONTINUOUS
 66
     1
 40
0.005646
 41
0.005646
  0
VERTEX
  8
PLAN_1
  6
CONTINUOUS
 10
-1.455047
 20
0.198665
  0
VERTEX
  8
PLAN_1
  6
CONTINUOUS
 10
-1.458811
 20
0.197724
  0
VERTEX
  8
PLAN_1
  6
CONTINUOUS
 10
-1.462106
 20
0.195843
  0
VERTEX
  8
PLAN_1
  6
CONTINUOUS
 10
-1.465402
 20
0.193488
  0
VERTEX
  8
PLAN_1
  6
CONTINUOUS
 10
-1.467752
 20
0.190665
  0
VERTEX
  8
PLAN_1
  6
CONTINUOUS
 10
-1.469638
 20
0.187370
  0
VERTEX
  8
PLAN_1
  6
CONTINUOUS
 10
-1.470579
 20
0.184075
  0
VERTEX
  8
PLAN_1
  6
CONTINUOUS
 10
-1.471047
 20
0.179843
  0
VERTEX
  8
PLAN_1
  6
CONTINUOUS
 10
-1.471047
 20
0.176075
  0
VERTEX
  8
PLAN_1
  6
CONTINUOUS
 10
-1.469638
 20
0.172311
  0
VERTEX
  8
PLAN_1
  6
CONTINUOUS
 10
-1.468224
 20
0.169016
  0
VERTEX
  8
PLAN_1
  6
CONTINUOUS
 10
-1.465870
 20
0.165720
  0
VERTEX
  8
PLAN_1
  6
CONTINUOUS
 10
-1.462575
 20
0.163370
  0
VERTEX
  8
PLAN_1
  6
CONTINUOUS
 10
-1.459283
 20
0.161484
  0
VERTEX
  8
PLAN_1
  6
CONTINUOUS
 10
-1.455988
 20
0.160075
  0
VERTEX
  8
PLAN_1
  6
CONTINUOUS
 10
-1.452224
 20
0.159602
  0
VERTEX
  8
PLAN_1
  6
CONTINUOUS
 10
-1.447988
 20
0.160075
  0
SEQEND
  8
0
  0
POLYLINE
  8
PLAN_1
  6
CONTINUOUS
 66
     1
 40
0.005646
 41
0.005646
  0
VERTEX
  8
PLAN_1
  6
CONTINUOUS
 10
-1.447988
 20
0.160075
  0
VERTEX
  8
PLAN_1
  6
CONTINUOUS
 10
-1.439984
 20
0.161484
  0
VERTEX
  8
PLAN_1
  6
CONTINUOUS
 10
-0.977354
 20
0.243374
  0
VERTEX
  8
PLAN_1
  6
CONTINUOUS
 10
-0.965118
 20
0.245260
  0
SEQEND
  8
0
  0
POLYLINE
  8
PLAN_1
  6
CONTINUOUS
 66
     1
 40
0.005646
 41
0.005646
  0
VERTEX
  8
PLAN_1
  6
CONTINUOUS
 10
-0.960413
 20
-0.011236
  0
VERTEX
  8
PLAN_1
  6
CONTINUOUS
 10
-0.956646
 20
-0.010764
  0
VERTEX
  8
PLAN_1
  6
CONTINUOUS
 10
-0.952882
 20
-0.009823
  0
VERTEX
  8
PLAN_1
  6
CONTINUOUS
 10
-0.949587
 20
-0.007941
  0
VERTEX
  8
PLAN_1
  6
CONTINUOUS
 10
-0.946764
 20
-0.005587
  0
VERTEX
  8
PLAN_1
  6
CONTINUOUS
 10
-0.944409
 20
-0.002764
  0
VERTEX
  8
PLAN_1
  6
CONTINUOUS
 10
-0.942528
 20
0.001000
  0
VERTEX
  8
PLAN_1
  6
CONTINUOUS
 10
-0.941118
 20
0.004295
  0
VERTEX
  8
PLAN_1
  6
CONTINUOUS
 10
-0.941118
 20
0.008531
  0
VERTEX
  8
PLAN_1
  6
CONTINUOUS
 10
-0.941118
 20
0.012295
  0
VERTEX
  8
PLAN_1
  6
CONTINUOUS
 10
-0.942528
 20
0.016059
  0
VERTEX
  8
PLAN_1
  6
CONTINUOUS
 10
-0.944409
 20
0.019354
  0
VERTEX
  8
PLAN_1
  6
CONTINUOUS
 10
-0.946764
 20
0.022177
  0
VERTEX
  8
PLAN_1
  6
CONTINUOUS
 10
-0.949587
 20
0.025004
  0
VERTEX
  8
PLAN_1
  6
CONTINUOUS
 10
-0.952882
 20
0.026413
  0
VERTEX
  8
PLAN_1
  6
CONTINUOUS
 10
-0.956646
 20
0.027827
  0
VERTEX
  8
PLAN_1
  6
CONTINUOUS
 10
-0.960413
 20
0.028295
  0
SEQEND
  8
0
  0
POLYLINE
  8
PLAN_1
  6
CONTINUOUS
 66
     1
 40
0.005646
 41
0.005646
  0
VERTEX
  8
PLAN_1
  6
CONTINUOUS
 10
-0.960413
 20
0.028295
  0
VERTEX
  8
PLAN_1
  6
CONTINUOUS
 10
-0.973118
 20
0.028295
  0
VERTEX
  8
PLAN_1
  6
CONTINUOUS
 10
-1.443280
 20
0.027827
  0
VERTEX
  8
PLAN_1
  6
CONTINUOUS
 10
-1.451280
 20
0.027827
  0
SEQEND
  8
0
  0
POLYLINE
  8
PLAN_1
  6
CONTINUOUS
 66
     1
 40
0.005646
 41
0.005646
  0
VERTEX
  8
PLAN_1
  6
CONTINUOUS
 10
-1.451280
 20
0.027827
  0
VERTEX
  8
PLAN_1
  6
CONTINUOUS
 10
-1.455047
 20
0.027354
  0
VERTEX
  8
PLAN_1
  6
CONTINUOUS
 10
-1.458811
 20
0.026413
  0
VERTEX
  8
PLAN_1
  6
CONTINUOUS
 10
-1.462106
 20
0.024531
  0
VERTEX
  8
PLAN_1
  6
CONTINUOUS
 10
-1.464929
 20
0.022177
  0
VERTEX
  8
PLAN_1
  6
CONTINUOUS
 10
-1.467283
 20
0.019354
  0
VERTEX
  8
PLAN_1
  6
CONTINUOUS
 10
-1.469165
 20
0.016059
  0
VERTEX
  8
PLAN_1
  6
CONTINUOUS
 10
-1.470579
 20
0.012295
  0
VERTEX
  8
PLAN_1
  6
CONTINUOUS
 10
-1.471047
 20
0.008059
  0
VERTEX
  8
PLAN_1
  6
CONTINUOUS
 10
-1.470579
 20
0.004295
  0
VERTEX
  8
PLAN_1
  6
CONTINUOUS
 10
-1.469165
 20
0.000531
  0
VERTEX
  8
PLAN_1
  6
CONTINUOUS
 10
-1.467283
 20
-0.002764
  0
VERTEX
  8
PLAN_1
  6
CONTINUOUS
 10
-1.464929
 20
-0.005587
  0
VERTEX
  8
PLAN_1
  6
CONTINUOUS
 10
-1.462106
 20
-0.007941
  0
VERTEX
  8
PLAN_1
  6
CONTINUOUS
 10
-1.458811
 20
-0.009823
  0
VERTEX
  8
PLAN_1
  6
CONTINUOUS
 10
-1.455047
 20
-0.011236
  0
VERTEX
  8
PLAN_1
  6
CONTINUOUS
 10
-1.451280
 20
-0.011236
  0
SEQEND
  8
0
  0
POLYLINE
  8
PLAN_1
  6
CONTINUOUS
 66
     1
 40
0.005646
 41
0.005646
  0
VERTEX
  8
PLAN_1
  6
CONTINUOUS
 10
-1.451280
 20
-0.011236
  0
VERTEX
  8
PLAN_1
  6
CONTINUOUS
 10
-1.443280
 20
-0.011236
  0
VERTEX
  8
PLAN_1
  6
CONTINUOUS
 10
-0.973118
 20
-0.011236
  0
VERTEX
  8
PLAN_1
  6
CONTINUOUS
 10
-0.960413
 20
-0.011236
  0
SEQEND
  8
0
  0
POLYLINE
  8
PLAN_1
  6
CONTINUOUS
 66
     1
 40
0.008469
 41
0.008469
  0
VERTEX
  8
PLAN_1
  6
CONTINUOUS
 10
-1.207024
 20
1.509846
  0
VERTEX
  8
PLAN_1
  6
CONTINUOUS
 10
-1.156197
 20
1.511260
  0
VERTEX
  8
PLAN_1
  6
CONTINUOUS
 10
-1.106307
 20
1.515024
  0
VERTEX
  8
PLAN_1
  6
CONTINUOUS
 10
-1.056894
 20
1.521142
  0
VERTEX
  8
PLAN_1
  6
CONTINUOUS
 10
-1.008417
 20
1.529614
  0
VERTEX
  8
PLAN_1
  6
CONTINUOUS
 10
-0.960882
 20
1.540909
  0
VERTEX
  8
PLAN_1
  6
CONTINUOUS
 10
-0.914291
 20
1.554087
  0
VERTEX
  8
PLAN_1
  6
CONTINUOUS
 10
-0.868638
 20
1.569618
  0
VERTEX
  8
PLAN_1
  6
CONTINUOUS
 10
-0.823929
 20
1.587031
  0
VERTEX
  8
PLAN_1
  6
CONTINUOUS
 10
-0.780161
 20
1.606795
  0
VERTEX
  8
PLAN_1
  6
CONTINUOUS
 10
-0.737803
 20
1.628445
  0
VERTEX
  8
PLAN_1
  6
CONTINUOUS
 10
-0.696858
 20
1.652449
  0
VERTEX
  8
PLAN_1
  6
CONTINUOUS
 10
-0.656854
 20
1.677862
  0
VERTEX
  8
PLAN_1
  6
CONTINUOUS
 10
-0.618264
 20
1.705157
  0
VERTEX
  8
PLAN_1
  6
CONTINUOUS
 10
-0.581083
 20
1.734339
  0
VERTEX
  8
PLAN_1
  6
CONTINUOUS
 10
-0.545315
 20
1.765398
  0
VERTEX
  8
PLAN_1
  6
CONTINUOUS
 10
-0.510961
 20
1.797874
  0
VERTEX
  8
PLAN_1
  6
CONTINUOUS
 10
-0.478484
 20
1.832228
  0
VERTEX
  8
PLAN_1
  6
CONTINUOUS
 10
-0.447425
 20
1.867996
  0
VERTEX
  8
PLAN_1
  6
CONTINUOUS
 10
-0.418244
 20
1.905177
  0
VERTEX
  8
PLAN_1
  6
CONTINUOUS
 10
-0.390949
 20
1.943768
  0
VERTEX
  8
PLAN_1
  6
CONTINUOUS
 10
-0.365535
 20
1.983772
  0
VERTEX
  8
PLAN_1
  6
CONTINUOUS
 10
-0.341531
 20
2.024717
  0
VERTEX
  8
PLAN_1
  6
CONTINUOUS
 10
-0.319882
 20
2.067075
  0
VERTEX
  8
PLAN_1
  6
CONTINUOUS
 10
-0.300114
 20
2.110843
  0
VERTEX
  8
PLAN_1
  6
CONTINUOUS
 10
-0.282701
 20
2.155551
  0
VERTEX
  8
PLAN_1
  6
CONTINUOUS
 10
-0.267173
 20
2.201205
  0
VERTEX
  8
PLAN_1
  6
CONTINUOUS
 10
-0.253992
 20
2.247795
  0
VERTEX
  8
PLAN_1
  6
CONTINUOUS
 10
-0.242697
 20
2.295331
  0
VERTEX
  8
PLAN_1
  6
CONTINUOUS
 10
-0.234228
 20
2.343807
  0
VERTEX
  8
PLAN_1
  6
CONTINUOUS
 10
-0.228110
 20
2.393220
  0
VERTEX
  8
PLAN_1
  6
CONTINUOUS
 10
-0.224343
 20
2.443110
  0
VERTEX
  8
PLAN_1
  6
CONTINUOUS
 10
-0.222933
 20
2.493937
  0
VERTEX
  8
PLAN_1
  6
CONTINUOUS
 10
-0.224343
 20
2.544295
  0
VERTEX
  8
PLAN_1
  6
CONTINUOUS
 10
-0.228110
 20
2.594181
  0
VERTEX
  8
PLAN_1
  6
CONTINUOUS
 10
-0.234228
 20
2.643598
  0
VERTEX
  8
PLAN_1
  6
CONTINUOUS
 10
-0.242697
 20
2.692075
  0
VERTEX
  8
PLAN_1
  6
CONTINUOUS
 10
-0.253992
 20
2.739606
  0
VERTEX
  8
PLAN_1
  6
CONTINUOUS
 10
-0.267173
 20
2.786201
  0
VERTEX
  8
PLAN_1
  6
CONTINUOUS
 10
-0.282701
 20
2.832323
  0
VERTEX
  8
PLAN_1
  6
CONTINUOUS
 10
-0.300114
 20
2.876559
  0
VERTEX
  8
PLAN_1
  6
CONTINUOUS
 10
-0.319882
 20
2.920331
  0
VERTEX
  8
PLAN_1
  6
CONTINUOUS
 10
-0.341531
 20
2.962685
  0
VERTEX
  8
PLAN_1
  6
CONTINUOUS
 10
-0.365535
 20
3.004102
  0
VERTEX
  8
PLAN_1
  6
CONTINUOUS
 10
-0.390949
 20
3.044106
  0
VERTEX
  8
PLAN_1
  6
CONTINUOUS
 10
-0.418244
 20
3.082697
  0
VERTEX
  8
PLAN_1
  6
CONTINUOUS
 10
-0.447425
 20
3.119878
  0
VERTEX
  8
PLAN_1
  6
CONTINUOUS
 10
-0.478484
 20
3.155173
  0
VERTEX
  8
PLAN_1
  6
CONTINUOUS
 10
-0.510961
 20
3.189531
  0
VERTEX
  8
PLAN_1
  6
CONTINUOUS
 10
-0.545315
 20
3.222004
  0
VERTEX
  8
PLAN_1
  6
CONTINUOUS
 10
-0.581083
 20
3.253067
  0
VERTEX
  8
PLAN_1
  6
CONTINUOUS
 10
-0.618264
 20
3.282244
  0
VERTEX
  8
PLAN_1
  6
CONTINUOUS
 10
-0.656854
 20
3.309543
  0
VERTEX
  8
PLAN_1
  6
CONTINUOUS
 10
-0.696858
 20
3.335425
  0
VERTEX
  8
PLAN_1
  6
CONTINUOUS
 10
-0.737803
 20
3.358957
  0
VERTEX
  8
PLAN_1
  6
CONTINUOUS
 10
-0.780161
 20
3.380606
  0
VERTEX
  8
PLAN_1
  6
CONTINUOUS
 10
-0.823929
 20
3.400374
  0
VERTEX
  8
PLAN_1
  6
CONTINUOUS
 10
-0.868638
 20
3.418260
  0
VERTEX
  8
PLAN_1
  6
CONTINUOUS
 10
-0.914291
 20
3.433319
  0
VERTEX
  8
PLAN_1
  6
CONTINUOUS
 10
-0.960882
 20
3.446969
  0
VERTEX
  8
PLAN_1
  6
CONTINUOUS
 10
-1.008417
 20
3.457791
  0
VERTEX
  8
PLAN_1
  6
CONTINUOUS
 10
-1.056894
 20
3.466264
  0
VERTEX
  8
PLAN_1
  6
CONTINUOUS
 10
-1.106307
 20
3.472850
  0
VERTEX
  8
PLAN_1
  6
CONTINUOUS
 10
-1.156197
 20
3.476618
  0
VERTEX
  8
PLAN_1
  6
CONTINUOUS
 10
-1.207024
 20
3.477559
  0
VERTEX
  8
PLAN_1
  6
CONTINUOUS
 10
-1.257382
 20
3.476618
  0
VERTEX
  8
PLAN_1
  6
CONTINUOUS
 10
-1.307268
 20
3.472850
  0
VERTEX
  8
PLAN_1
  6
CONTINUOUS
 10
-1.356685
 20
3.466264
  0
VERTEX
  8
PLAN_1
  6
CONTINUOUS
 10
-1.405157
 20
3.457791
  0
VERTEX
  8
PLAN_1
  6
CONTINUOUS
 10
-1.452693
 20
3.446969
  0
VERTEX
  8
PLAN_1
  6
CONTINUOUS
 10
-1.499287
 20
3.433319
  0
VERTEX
  8
PLAN_1
  6
CONTINUOUS
 10
-1.545409
 20
3.418260
  0
VERTEX
  8
PLAN_1
  6
CONTINUOUS
 10
-1.590118
 20
3.400374
  0
VERTEX
  8
PLAN_1
  6
CONTINUOUS
 10
-1.633417
 20
3.380606
  0
VERTEX
  8
PLAN_1
  6
CONTINUOUS
 10
-1.675772
 20
3.358957
  0
VERTEX
  8
PLAN_1
  6
CONTINUOUS
 10
-1.717189
 20
3.335425
  0
VERTEX
  8
PLAN_1
  6
CONTINUOUS
 10
-1.757193
 20
3.309543
  0
VERTEX
  8
PLAN_1
  6
CONTINUOUS
 10
-1.795783
 20
3.282244
  0
VERTEX
  8
PLAN_1
  6
CONTINUOUS
 10
-1.832965
 20
3.253067
  0
VERTEX
  8
PLAN_1
  6
CONTINUOUS
 10
-1.868732
 20
3.222004
  0
VERTEX
  8
PLAN_1
  6
CONTINUOUS
 10
-1.902618
 20
3.189531
  0
VERTEX
  8
PLAN_1
  6
CONTINUOUS
 10
-1.935091
 20
3.155173
  0
VERTEX
  8
PLAN_1
  6
CONTINUOUS
 10
-1.966154
 20
3.119878
  0
VERTEX
  8
PLAN_1
  6
CONTINUOUS
 10
-1.995331
 20
3.082697
  0
VERTEX
  8
PLAN_1
  6
CONTINUOUS
 10
-2.022630
 20
3.044106
  0
VERTEX
  8
PLAN_1
  6
CONTINUOUS
 10
-2.048512
 20
3.004102
  0
VERTEX
  8
PLAN_1
  6
CONTINUOUS
 10
-2.072043
 20
2.962685
  0
VERTEX
  8
PLAN_1
  6
CONTINUOUS
 10
-2.093693
 20
2.920331
  0
VERTEX
  8
PLAN_1
  6
CONTINUOUS
 10
-2.113461
 20
2.876559
  0
VERTEX
  8
PLAN_1
  6
CONTINUOUS
 10
-2.131343
 20
2.832323
  0
VERTEX
  8
PLAN_1
  6
CONTINUOUS
 10
-2.146406
 20
2.786201
  0
VERTEX
  8
PLAN_1
  6
CONTINUOUS
 10
-2.160051
 20
2.739606
  0
VERTEX
  8
PLAN_1
  6
CONTINUOUS
 10
-2.170878
 20
2.692075
  0
VERTEX
  8
PLAN_1
  6
CONTINUOUS
 10
-2.179350
 20
2.643598
  0
VERTEX
  8
PLAN_1
  6
CONTINUOUS
 10
-2.185937
 20
2.594181
  0
VERTEX
  8
PLAN_1
  6
CONTINUOUS
 10
-2.189701
 20
2.544295
  0
VERTEX
  8
PLAN_1
  6
CONTINUOUS
 10
-2.190646
 20
2.493937
  0
VERTEX
  8
PLAN_1
  6
CONTINUOUS
 10
-2.189701
 20
2.443110
  0
VERTEX
  8
PLAN_1
  6
CONTINUOUS
 10
-2.185937
 20
2.393220
  0
VERTEX
  8
PLAN_1
  6
CONTINUOUS
 10
-2.179350
 20
2.343807
  0
VERTEX
  8
PLAN_1
  6
CONTINUOUS
 10
-2.170878
 20
2.295331
  0
VERTEX
  8
PLAN_1
  6
CONTINUOUS
 10
-2.160051
 20
2.247795
  0
VERTEX
  8
PLAN_1
  6
CONTINUOUS
 10
-2.146406
 20
2.201205
  0
VERTEX
  8
PLAN_1
  6
CONTINUOUS
 10
-2.131343
 20
2.155551
  0
VERTEX
  8
PLAN_1
  6
CONTINUOUS
 10
-2.113461
 20
2.110843
  0
VERTEX
  8
PLAN_1
  6
CONTINUOUS
 10
-2.093693
 20
2.067075
  0
VERTEX
  8
PLAN_1
  6
CONTINUOUS
 10
-2.072043
 20
2.024717
  0
VERTEX
  8
PLAN_1
  6
CONTINUOUS
 10
-2.048512
 20
1.983772
  0
VERTEX
  8
PLAN_1
  6
CONTINUOUS
 10
-2.022630
 20
1.943768
  0
VERTEX
  8
PLAN_1
  6
CONTINUOUS
 10
-1.995331
 20
1.905177
  0
VERTEX
  8
PLAN_1
  6
CONTINUOUS
 10
-1.966154
 20
1.867996
  0
VERTEX
  8
PLAN_1
  6
CONTINUOUS
 10
-1.935091
 20
1.832228
  0
VERTEX
  8
PLAN_1
  6
CONTINUOUS
 10
-1.902618
 20
1.797874
  0
VERTEX
  8
PLAN_1
  6
CONTINUOUS
 10
-1.868732
 20
1.765398
  0
VERTEX
  8
PLAN_1
  6
CONTINUOUS
 10
-1.832965
 20
1.734339
  0
VERTEX
  8
PLAN_1
  6
CONTINUOUS
 10
-1.795783
 20
1.705157
  0
VERTEX
  8
PLAN_1
  6
CONTINUOUS
 10
-1.757193
 20
1.677862
  0
VERTEX
  8
PLAN_1
  6
CONTINUOUS
 10
-1.717189
 20
1.652449
  0
VERTEX
  8
PLAN_1
  6
CONTINUOUS
 10
-1.675772
 20
1.628445
  0
VERTEX
  8
PLAN_1
  6
CONTINUOUS
 10
-1.633417
 20
1.606795
  0
VERTEX
  8
PLAN_1
  6
CONTINUOUS
 10
-1.590118
 20
1.587031
  0
VERTEX
  8
PLAN_1
  6
CONTINUOUS
 10
-1.545409
 20
1.569618
  0
VERTEX
  8
PLAN_1
  6
CONTINUOUS
 10
-1.499287
 20
1.554087
  0
VERTEX
  8
PLAN_1
  6
CONTINUOUS
 10
-1.452693
 20
1.540909
  0
VERTEX
  8
PLAN_1
  6
CONTINUOUS
 10
-1.405157
 20
1.529614
  0
VERTEX
  8
PLAN_1
  6
CONTINUOUS
 10
-1.356685
 20
1.521142
  0
VERTEX
  8
PLAN_1
  6
CONTINUOUS
 10
-1.307268
 20
1.515024
  0
VERTEX
  8
PLAN_1
  6
CONTINUOUS
 10
-1.257382
 20
1.511260
  0
VERTEX
  8
PLAN_1
  6
CONTINUOUS
 10
-1.207024
 20
1.509846
  0
SEQEND
  8
0
  0
POLYLINE
  8
PLAN_1
  6
CONTINUOUS
 66
     1
 40
0.008469
 41
0.008469
  0
VERTEX
  8
PLAN_1
  6
CONTINUOUS
 10
-1.252205
 20
2.824791
  0
VERTEX
  8
PLAN_1
  6
CONTINUOUS
 10
-1.265854
 20
2.822437
  0
VERTEX
  8
PLAN_1
  6
CONTINUOUS
 10
-1.279500
 20
2.819614
  0
VERTEX
  8
PLAN_1
  6
CONTINUOUS
 10
-1.293150
 20
2.816319
  0
VERTEX
  8
PLAN_1
  6
CONTINUOUS
 10
-1.306327
 20
2.812555
  0
VERTEX
  8
PLAN_1
  6
CONTINUOUS
 10
-1.319035
 20
2.808319
  0
VERTEX
  8
PLAN_1
  6
CONTINUOUS
 10
-1.331740
 20
2.803614
  0
VERTEX
  8
PLAN_1
  6
CONTINUOUS
 10
-1.344449
 20
2.797965
  0
VERTEX
  8
PLAN_1
  6
CONTINUOUS
 10
-1.356685
 20
2.792319
  0
VERTEX
  8
PLAN_1
  6
CONTINUOUS
 10
-1.368449
 20
2.786201
  0
VERTEX
  8
PLAN_1
  6
CONTINUOUS
 10
-1.380217
 20
2.779142
  0
VERTEX
  8
PLAN_1
  6
CONTINUOUS
 10
-1.391512
 20
2.772079
  0
VERTEX
  8
PLAN_1
  6
CONTINUOUS
 10
-1.402335
 20
2.764551
  0
VERTEX
  8
PLAN_1
  6
CONTINUOUS
 10
-1.413161
 20
2.756079
  0
VERTEX
  8
PLAN_1
  6
CONTINUOUS
 10
-1.423516
 20
2.747606
  0
VERTEX
  8
PLAN_1
  6
CONTINUOUS
 10
-1.433398
 20
2.739138
  0
VERTEX
  8
PLAN_1
  6
CONTINUOUS
 10
-1.443280
 20
2.729724
  0
VERTEX
  8
PLAN_1
  6
CONTINUOUS
 10
-1.452224
 20
2.719839
  0
VERTEX
  8
PLAN_1
  6
CONTINUOUS
 10
-1.461165
 20
2.709957
  0
VERTEX
  8
PLAN_1
  6
CONTINUOUS
 10
-1.469638
 20
2.699602
  0
VERTEX
  8
PLAN_1
  6
CONTINUOUS
 10
-1.477638
 20
2.688780
  0
VERTEX
  8
PLAN_1
  6
CONTINUOUS
 10
-1.485165
 20
2.677953
  0
VERTEX
  8
PLAN_1
  6
CONTINUOUS
 10
-1.492697
 20
2.666657
  0
VERTEX
  8
PLAN_1
  6
CONTINUOUS
 10
-1.499287
 20
2.654894
  0
VERTEX
  8
PLAN_1
  6
CONTINUOUS
 10
-1.505406
 20
2.643126
  0
VERTEX
  8
PLAN_1
  6
CONTINUOUS
 10
-1.511524
 20
2.630890
  0
VERTEX
  8
PLAN_1
  6
CONTINUOUS
 10
-1.516701
 20
2.618185
  0
VERTEX
  8
PLAN_1
  6
CONTINUOUS
 10
-1.521406
 20
2.605476
  0
VERTEX
  8
PLAN_1
  6
CONTINUOUS
 10
-1.526110
 20
2.592772
  0
VERTEX
  8
PLAN_1
  6
CONTINUOUS
 10
-1.529878
 20
2.579591
  0
VERTEX
  8
PLAN_1
  6
CONTINUOUS
 10
-1.533169
 20
2.565945
  0
VERTEX
  8
PLAN_1
  6
CONTINUOUS
 10
-1.535524
 20
2.552295
  0
VERTEX
  8
PLAN_1
  6
CONTINUOUS
 10
-1.537878
 20
2.538646
  0
SEQEND
  8
0
  0
POLYLINE
  8
PLAN_1
  6
CONTINUOUS
 66
     1
 40
0.008469
 41
0.008469
  0
VERTEX
  8
PLAN_1
  6
CONTINUOUS
 10
-1.537878
 20
2.538646
  0
VERTEX
  8
PLAN_1
  6
CONTINUOUS
 10
-2.091343
 20
2.538646
  0
SEQEND
  8
0
  0
POLYLINE
  8
PLAN_1
  6
CONTINUOUS
 66
     1
 40
0.008469
 41
0.008469
  0
VERTEX
  8
PLAN_1
  6
CONTINUOUS
 10
-2.091343
 20
2.538646
  0
VERTEX
  8
PLAN_1
  6
CONTINUOUS
 10
-2.088047
 20
2.581004
  0
VERTEX
  8
PLAN_1
  6
CONTINUOUS
 10
-2.083339
 20
2.622890
  0
VERTEX
  8
PLAN_1
  6
CONTINUOUS
 10
-2.076280
 20
2.663835
  0
VERTEX
  8
PLAN_1
  6
CONTINUOUS
 10
-2.067339
 20
2.704311
  0
VERTEX
  8
PLAN_1
  6
CONTINUOUS
 10
-2.056516
 20
2.743843
  0
VERTEX
  8
PLAN_1
  6
CONTINUOUS
 10
-2.044276
 20
2.782433
  0
VERTEX
  8
PLAN_1
  6
CONTINUOUS
 10
-2.030157
 20
2.820555
  0
VERTEX
  8
PLAN_1
  6
CONTINUOUS
 10
-2.014157
 20
2.857736
  0
VERTEX
  8
PLAN_1
  6
CONTINUOUS
 10
-1.996744
 20
2.894445
  0
VERTEX
  8
PLAN_1
  6
CONTINUOUS
 10
-1.977917
 20
2.929744
  0
VERTEX
  8
PLAN_1
  6
CONTINUOUS
 10
-1.957209
 20
2.964098
  0
VERTEX
  8
PLAN_1
  6
CONTINUOUS
 10
-1.935091
 20
2.997512
  0
VERTEX
  8
PLAN_1
  6
CONTINUOUS
 10
-1.912031
 20
3.029988
  0
VERTEX
  8
PLAN_1
  6
CONTINUOUS
 10
-1.887087
 20
3.061047
  0
VERTEX
  8
PLAN_1
  6
CONTINUOUS
 10
-1.860732
 20
3.091169
  0
VERTEX
  8
PLAN_1
  6
CONTINUOUS
 10
-1.832965
 20
3.119878
  0
VERTEX
  8
PLAN_1
  6
CONTINUOUS
 10
-1.804256
 20
3.147646
  0
VERTEX
  8
PLAN_1
  6
CONTINUOUS
 10
-1.774134
 20
3.173531
  0
VERTEX
  8
PLAN_1
  6
CONTINUOUS
 10
-1.743075
 20
3.198472
  0
VERTEX
  8
PLAN_1
  6
CONTINUOUS
 10
-1.710598
 20
3.222004
  0
VERTEX
  8
PLAN_1
  6
CONTINUOUS
 10
-1.677185
 20
3.244126
  0
VERTEX
  8
PLAN_1
  6
CONTINUOUS
 10
-1.642827
 20
3.264831
  0
VERTEX
  8
PLAN_1
  6
CONTINUOUS
 10
-1.607531
 20
3.283657
  0
VERTEX
  8
PLAN_1
  6
CONTINUOUS
 10
-1.571291
 20
3.301071
  0
VERTEX
  8
PLAN_1
  6
CONTINUOUS
 10
-1.534114
 20
3.317071
  0
VERTEX
  8
PLAN_1
  6
CONTINUOUS
 10
-1.495992
 20
3.331193
  0
VERTEX
  8
PLAN_1
  6
CONTINUOUS
 10
-1.456929
 20
3.343429
  0
VERTEX
  8
PLAN_1
  6
CONTINUOUS
 10
-1.417398
 20
3.354252
  0
VERTEX
  8
PLAN_1
  6
CONTINUOUS
 10
-1.376921
 20
3.363193
  0
VERTEX
  8
PLAN_1
  6
CONTINUOUS
 10
-1.335976
 20
3.369783
  0
VERTEX
  8
PLAN_1
  6
CONTINUOUS
 10
-1.294559
 20
3.374961
  0
VERTEX
  8
PLAN_1
  6
CONTINUOUS
 10
-1.252205
 20
3.378256
  0
SEQEND
  8
0
  0
POLYLINE
  8
PLAN_1
  6
CONTINUOUS
 66
     1
 40
0.008469
 41
0.008469
  0
VERTEX
  8
PLAN_1
  6
CONTINUOUS
 10
-1.252205
 20
3.378256
  0
VERTEX
  8
PLAN_1
  6
CONTINUOUS
 10
-1.252205
 20
2.824791
  0
SEQEND
  8
0
  0
POLYLINE
  8
PLAN_1
  6
CONTINUOUS
 66
     1
 40
0.008469
 41
0.008469
  0
VERTEX
  8
PLAN_1
  6
CONTINUOUS
 10
-1.537878
 20
2.448287
  0
VERTEX
  8
PLAN_1
  6
CONTINUOUS
 10
-1.535524
 20
2.434638
  0
VERTEX
  8
PLAN_1
  6
CONTINUOUS
 10
-1.532701
 20
2.420988
  0
VERTEX
  8
PLAN_1
  6
CONTINUOUS
 10
-1.529406
 20
2.407811
  0
VERTEX
  8
PLAN_1
  6
CONTINUOUS
 10
-1.525642
 20
2.394634
  0
VERTEX
  8
PLAN_1
  6
CONTINUOUS
 10
-1.521406
 20
2.381457
  0
VERTEX
  8
PLAN_1
  6
CONTINUOUS
 10
-1.516701
 20
2.368748
  0
VERTEX
  8
PLAN_1
  6
CONTINUOUS
 10
-1.511051
 20
2.356512
  0
VERTEX
  8
PLAN_1
  6
CONTINUOUS
 10
-1.505406
 20
2.344276
  0
VERTEX
  8
PLAN_1
  6
CONTINUOUS
 10
-1.499287
 20
2.332039
  0
VERTEX
  8
PLAN_1
  6
CONTINUOUS
 10
-1.492224
 20
2.320744
  0
VERTEX
  8
PLAN_1
  6
CONTINUOUS
 10
-1.485165
 20
2.309449
  0
VERTEX
  8
PLAN_1
  6
CONTINUOUS
 10
-1.477638
 20
2.298154
  0
VERTEX
  8
PLAN_1
  6
CONTINUOUS
 10
-1.469638
 20
2.287331
  0
VERTEX
  8
PLAN_1
  6
CONTINUOUS
 10
-1.461165
 20
2.277445
  0
VERTEX
  8
PLAN_1
  6
CONTINUOUS
 10
-1.452224
 20
2.267094
  0
VERTEX
  8
PLAN_1
  6
CONTINUOUS
 10
-1.442811
 20
2.257681
  0
VERTEX
  8
PLAN_1
  6
CONTINUOUS
 10
-1.432925
 20
2.248268
  0
VERTEX
  8
PLAN_1
  6
CONTINUOUS
 10
-1.423043
 20
2.239327
  0
VERTEX
  8
PLAN_1
  6
CONTINUOUS
 10
-1.412689
 20
2.230854
  0
VERTEX
  8
PLAN_1
  6
CONTINUOUS
 10
-1.401866
 20
2.222854
  0
VERTEX
  8
PLAN_1
  6
CONTINUOUS
 10
-1.391039
 20
2.215323
  0
VERTEX
  8
PLAN_1
  6
CONTINUOUS
 10
-1.379744
 20
2.208264
  0
VERTEX
  8
PLAN_1
  6
CONTINUOUS
 10
-1.367980
 20
2.201205
  0
VERTEX
  8
PLAN_1
  6
CONTINUOUS
 10
-1.356213
 20
2.195087
  0
VERTEX
  8
PLAN_1
  6
CONTINUOUS
 10
-1.343976
 20
2.189437
  0
VERTEX
  8
PLAN_1
  6
CONTINUOUS
 10
-1.331272
 20
2.183791
  0
VERTEX
  8
PLAN_1
  6
CONTINUOUS
 10
-1.318563
 20
2.179083
  0
VERTEX
  8
PLAN_1
  6
CONTINUOUS
 10
-1.305854
 20
2.174850
  0
VERTEX
  8
PLAN_1
  6
CONTINUOUS
 10
-1.292677
 20
2.171083
  0
VERTEX
  8
PLAN_1
  6
CONTINUOUS
 10
-1.279031
 20
2.167791
  0
VERTEX
  8
PLAN_1
  6
CONTINUOUS
 10
-1.265382
 20
2.164965
  0
VERTEX
  8
PLAN_1
  6
CONTINUOUS
 10
-1.251732
 20
2.162614
  0
SEQEND
  8
0
  0
POLYLINE
  8
PLAN_1
  6
CONTINUOUS
 66
     1
 40
0.008469
 41
0.008469
  0
VERTEX
  8
PLAN_1
  6
CONTINUOUS
 10
-1.251732
 20
2.162614
  0
VERTEX
  8
PLAN_1
  6
CONTINUOUS
 10
-1.252205
 20
1.609150
  0
SEQEND
  8
0
  0
POLYLINE
  8
PLAN_1
  6
CONTINUOUS
 66
     1
 40
0.008469
 41
0.008469
  0
VERTEX
  8
PLAN_1
  6
CONTINUOUS
 10
-1.252205
 20
1.609150
  0
VERTEX
  8
PLAN_1
  6
CONTINUOUS
 10
-1.294091
 20
1.612445
  0
VERTEX
  8
PLAN_1
  6
CONTINUOUS
 10
-1.335976
 20
1.617622
  0
VERTEX
  8
PLAN_1
  6
CONTINUOUS
 10
-1.376921
 20
1.624681
  0
VERTEX
  8
PLAN_1
  6
CONTINUOUS
 10
-1.417398
 20
1.633154
  0
VERTEX
  8
PLAN_1
  6
CONTINUOUS
 10
-1.456929
 20
1.643976
  0
VERTEX
  8
PLAN_1
  6
CONTINUOUS
 10
-1.495992
 20
1.656213
  0
VERTEX
  8
PLAN_1
  6
CONTINUOUS
 10
-1.533642
 20
1.670331
  0
VERTEX
  8
PLAN_1
  6
CONTINUOUS
 10
-1.571291
 20
1.686335
  0
VERTEX
  8
PLAN_1
  6
CONTINUOUS
 10
-1.607531
 20
1.703748
  0
VERTEX
  8
PLAN_1
  6
CONTINUOUS
 10
-1.642827
 20
1.722571
  0
VERTEX
  8
PLAN_1
  6
CONTINUOUS
 10
-1.677185
 20
1.743280
  0
VERTEX
  8
PLAN_1
  6
CONTINUOUS
 10
-1.710598
 20
1.765398
  0
VERTEX
  8
PLAN_1
  6
CONTINUOUS
 10
-1.743075
 20
1.788929
  0
VERTEX
  8
PLAN_1
  6
CONTINUOUS
 10
-1.774134
 20
1.813874
  0
VERTEX
  8
PLAN_1
  6
CONTINUOUS
 10
-1.804256
 20
1.839760
  0
VERTEX
  8
PLAN_1
  6
CONTINUOUS
 10
-1.832965
 20
1.867528
  0
VERTEX
  8
PLAN_1
  6
CONTINUOUS
 10
-1.860732
 20
1.896236
  0
VERTEX
  8
PLAN_1
  6
CONTINUOUS
 10
-1.886614
 20
1.926354
  0
VERTEX
  8
PLAN_1
  6
CONTINUOUS
 10
-1.911559
 20
1.957417
  0
VERTEX
  8
PLAN_1
  6
CONTINUOUS
 10
-1.935091
 20
1.989890
  0
VERTEX
  8
PLAN_1
  6
CONTINUOUS
 10
-1.957209
 20
2.023307
  0
VERTEX
  8
PLAN_1
  6
CONTINUOUS
 10
-1.977917
 20
2.057661
  0
VERTEX
  8
PLAN_1
  6
CONTINUOUS
 10
-1.996744
 20
2.092961
  0
VERTEX
  8
PLAN_1
  6
CONTINUOUS
 10
-2.014157
 20
2.129669
  0
VERTEX
  8
PLAN_1
  6
CONTINUOUS
 10
-2.030157
 20
2.166846
  0
VERTEX
  8
PLAN_1
  6
CONTINUOUS
 10
-2.044276
 20
2.204969
  0
VERTEX
  8
PLAN_1
  6
CONTINUOUS
 10
-2.056516
 20
2.243563
  0
VERTEX
  8
PLAN_1
  6
CONTINUOUS
 10
-2.067339
 20
2.283094
  0
VERTEX
  8
PLAN_1
  6
CONTINUOUS
 10
-2.076280
 20
2.323567
  0
VERTEX
  8
PLAN_1
  6
CONTINUOUS
 10
-2.083339
 20
2.364512
  0
VERTEX
  8
PLAN_1
  6
CONTINUOUS
 10
-2.088047
 20
2.406402
  0
VERTEX
  8
PLAN_1
  6
CONTINUOUS
 10
-2.091343
 20
2.448756
  0
SEQEND
  8
0
  0
POLYLINE
  8
PLAN_1
  6
CONTINUOUS
 66
     1
 40
0.008469
 41
0.008469
  0
VERTEX
  8
PLAN_1
  6
CONTINUOUS
 10
-2.091343
 20
2.448756
  0
VERTEX
  8
PLAN_1
  6
CONTINUOUS
 10
-1.537878
 20
2.448287
  0
SEQEND
  8
0
  0
POLYLINE
  8
PLAN_1
  6
CONTINUOUS
 66
     1
 40
0.008469
 41
0.008469
  0
VERTEX
  8
PLAN_1
  6
CONTINUOUS
 10
-1.161843
 20
2.824791
  0
VERTEX
  8
PLAN_1
  6
CONTINUOUS
 10
-1.147724
 20
2.822437
  0
VERTEX
  8
PLAN_1
  6
CONTINUOUS
 10
-1.134075
 20
2.819614
  0
VERTEX
  8
PLAN_1
  6
CONTINUOUS
 10
-1.120898
 20
2.816319
  0
VERTEX
  8
PLAN_1
  6
CONTINUOUS
 10
-1.107720
 20
2.812555
  0
VERTEX
  8
PLAN_1
  6
CONTINUOUS
 10
-1.094543
 20
2.808319
  0
VERTEX
  8
PLAN_1
  6
CONTINUOUS
 10
-1.081835
 20
2.803614
  0
VERTEX
  8
PLAN_1
  6
CONTINUOUS
 10
-1.069598
 20
2.797965
  0
VERTEX
  8
PLAN_1
  6
CONTINUOUS
 10
-1.057362
 20
2.792319
  0
VERTEX
  8
PLAN_1
  6
CONTINUOUS
 10
-1.045126
 20
2.786201
  0
VERTEX
  8
PLAN_1
  6
CONTINUOUS
 10
-1.033831
 20
2.779142
  0
VERTEX
  8
PLAN_1
  6
CONTINUOUS
 10
-1.022535
 20
2.772079
  0
VERTEX
  8
PLAN_1
  6
CONTINUOUS
 10
-1.011240
 20
2.764551
  0
VERTEX
  8
PLAN_1
  6
CONTINUOUS
 10
-1.000886
 20
2.756079
  0
VERTEX
  8
PLAN_1
  6
CONTINUOUS
 10
-0.990531
 20
2.747606
  0
VERTEX
  8
PLAN_1
  6
CONTINUOUS
 10
-0.980177
 20
2.739138
  0
VERTEX
  8
PLAN_1
  6
CONTINUOUS
 10
-0.970768
 20
2.729724
  0
VERTEX
  8
PLAN_1
  6
CONTINUOUS
 10
-0.961354
 20
2.719839
  0
VERTEX
  8
PLAN_1
  6
CONTINUOUS
 10
-0.952413
 20
2.709957
  0
VERTEX
  8
PLAN_1
  6
CONTINUOUS
 10
-0.943941
 20
2.699602
  0
VERTEX
  8
PLAN_1
  6
CONTINUOUS
 10
-0.935941
 20
2.688780
  0
VERTEX
  8
PLAN_1
  6
CONTINUOUS
 10
-0.928409
 20
2.677953
  0
VERTEX
  8
PLAN_1
  6
CONTINUOUS
 10
-0.921350
 20
2.666657
  0
VERTEX
  8
PLAN_1
  6
CONTINUOUS
 10
-0.914291
 20
2.654894
  0
VERTEX
  8
PLAN_1
  6
CONTINUOUS
 10
-0.908173
 20
2.643126
  0
VERTEX
  8
PLAN_1
  6
CONTINUOUS
 10
-0.902524
 20
2.630890
  0
VERTEX
  8
PLAN_1
  6
CONTINUOUS
 10
-0.896878
 20
2.618185
  0
VERTEX
  8
PLAN_1
  6
CONTINUOUS
 10
-0.892169
 20
2.605476
  0
VERTEX
  8
PLAN_1
  6
CONTINUOUS
 10
-0.887933
 20
2.592772
  0
VERTEX
  8
PLAN_1
  6
CONTINUOUS
 10
-0.884169
 20
2.579591
  0
VERTEX
  8
PLAN_1
  6
CONTINUOUS
 10
-0.880874
 20
2.565945
  0
VERTEX
  8
PLAN_1
  6
CONTINUOUS
 10
-0.878051
 20
2.552295
  0
VERTEX
  8
PLAN_1
  6
CONTINUOUS
 10
-0.875697
 20
2.538646
  0
SEQEND
  8
0
  0
POLYLINE
  8
PLAN_1
  6
CONTINUOUS
 66
     1
 40
0.008469
 41
0.008469
  0
VERTEX
  8
PLAN_1
  6
CONTINUOUS
 10
-0.875697
 20
2.538646
  0
VERTEX
  8
PLAN_1
  6
CONTINUOUS
 10
-0.322236
 20
2.538646
  0
SEQEND
  8
0
  0
POLYLINE
  8
PLAN_1
  6
CONTINUOUS
 66
     1
 40
0.008469
 41
0.008469
  0
VERTEX
  8
PLAN_1
  6
CONTINUOUS
 10
-0.322236
 20
2.538646
  0
VERTEX
  8
PLAN_1
  6
CONTINUOUS
 10
-0.325531
 20
2.581004
  0
VERTEX
  8
PLAN_1
  6
CONTINUOUS
 10
-0.330709
 20
2.622890
  0
VERTEX
  8
PLAN_1
  6
CONTINUOUS
 10
-0.337768
 20
2.663835
  0
VERTEX
  8
PLAN_1
  6
CONTINUOUS
 10
-0.346236
 20
2.704311
  0
VERTEX
  8
PLAN_1
  6
CONTINUOUS
 10
-0.357063
 20
2.743843
  0
VERTEX
  8
PLAN_1
  6
CONTINUOUS
 10
-0.369299
 20
2.782433
  0
VERTEX
  8
PLAN_1
  6
CONTINUOUS
 10
-0.383417
 20
2.820555
  0
VERTEX
  8
PLAN_1
  6
CONTINUOUS
 10
-0.399417
 20
2.857736
  0
VERTEX
  8
PLAN_1
  6
CONTINUOUS
 10
-0.416831
 20
2.894445
  0
VERTEX
  8
PLAN_1
  6
CONTINUOUS
 10
-0.435657
 20
2.929744
  0
VERTEX
  8
PLAN_1
  6
CONTINUOUS
 10
-0.456366
 20
2.964098
  0
VERTEX
  8
PLAN_1
  6
CONTINUOUS
 10
-0.478484
 20
2.997512
  0
VERTEX
  8
PLAN_1
  6
CONTINUOUS
 10
-0.502016
 20
3.029988
  0
VERTEX
  8
PLAN_1
  6
CONTINUOUS
 10
-0.526961
 20
3.061047
  0
VERTEX
  8
PLAN_1
  6
CONTINUOUS
 10
-0.553315
 20
3.091169
  0
VERTEX
  8
PLAN_1
  6
CONTINUOUS
 10
-0.580614
 20
3.119878
  0
VERTEX
  8
PLAN_1
  6
CONTINUOUS
 10
-0.609323
 20
3.147646
  0
VERTEX
  8
PLAN_1
  6
CONTINUOUS
 10
-0.639441
 20
3.173531
  0
VERTEX
  8
PLAN_1
  6
CONTINUOUS
 10
-0.670504
 20
3.198472
  0
VERTEX
  8
PLAN_1
  6
CONTINUOUS
 10
-0.702976
 20
3.222004
  0
VERTEX
  8
PLAN_1
  6
CONTINUOUS
 10
-0.736390
 20
3.244126
  0
VERTEX
  8
PLAN_1
  6
CONTINUOUS
 10
-0.770748
 20
3.264831
  0
VERTEX
  8
PLAN_1
  6
CONTINUOUS
 10
-0.806043
 20
3.283657
  0
VERTEX
  8
PLAN_1
  6
CONTINUOUS
 10
-0.842756
 20
3.301071
  0
VERTEX
  8
PLAN_1
  6
CONTINUOUS
 10
-0.879933
 20
3.317071
  0
VERTEX
  8
PLAN_1
  6
CONTINUOUS
 10
-0.918055
 20
3.331193
  0
VERTEX
  8
PLAN_1
  6
CONTINUOUS
 10
-0.956646
 20
3.343429
  0
VERTEX
  8
PLAN_1
  6
CONTINUOUS
 10
-0.996181
 20
3.354252
  0
VERTEX
  8
PLAN_1
  6
CONTINUOUS
 10
-1.036654
 20
3.363193
  0
VERTEX
  8
PLAN_1
  6
CONTINUOUS
 10
-1.077598
 20
3.369783
  0
VERTEX
  8
PLAN_1
  6
CONTINUOUS
 10
-1.119484
 20
3.374961
  0
VERTEX
  8
PLAN_1
  6
CONTINUOUS
 10
-1.161843
 20
3.378256
  0
SEQEND
  8
0
  0
POLYLINE
  8
PLAN_1
  6
CONTINUOUS
 66
     1
 40
0.008469
 41
0.008469
  0
VERTEX
  8
PLAN_1
  6
CONTINUOUS
 10
-1.161843
 20
3.378256
  0
VERTEX
  8
PLAN_1
  6
CONTINUOUS
 10
-1.161843
 20
2.824791
  0
SEQEND
  8
0
  0
POLYLINE
  8
PLAN_1
  6
CONTINUOUS
 66
     1
 40
0.008469
 41
0.008469
  0
VERTEX
  8
PLAN_1
  6
CONTINUOUS
 10
-0.876169
 20
2.448287
  0
VERTEX
  8
PLAN_1
  6
CONTINUOUS
 10
-0.878051
 20
2.434638
  0
VERTEX
  8
PLAN_1
  6
CONTINUOUS
 10
-0.880874
 20
2.420988
  0
VERTEX
  8
PLAN_1
  6
CONTINUOUS
 10
-0.884169
 20
2.407811
  0
VERTEX
  8
PLAN_1
  6
CONTINUOUS
 10
-0.887933
 20
2.394634
  0
VERTEX
  8
PLAN_1
  6
CONTINUOUS
 10
-0.892169
 20
2.381457
  0
VERTEX
  8
PLAN_1
  6
CONTINUOUS
 10
-0.897346
 20
2.368748
  0
VERTEX
  8
PLAN_1
  6
CONTINUOUS
 10
-0.902524
 20
2.356512
  0
VERTEX
  8
PLAN_1
  6
CONTINUOUS
 10
-0.908173
 20
2.344276
  0
VERTEX
  8
PLAN_1
  6
CONTINUOUS
 10
-0.914760
 20
2.332039
  0
VERTEX
  8
PLAN_1
  6
CONTINUOUS
 10
-0.921350
 20
2.320744
  0
VERTEX
  8
PLAN_1
  6
CONTINUOUS
 10
-0.928882
 20
2.309449
  0
VERTEX
  8
PLAN_1
  6
CONTINUOUS
 10
-0.936409
 20
2.298154
  0
VERTEX
  8
PLAN_1
  6
CONTINUOUS
 10
-0.944409
 20
2.287331
  0
VERTEX
  8
PLAN_1
  6
CONTINUOUS
 10
-0.952882
 20
2.277445
  0
VERTEX
  8
PLAN_1
  6
CONTINUOUS
 10
-0.961823
 20
2.267094
  0
VERTEX
  8
PLAN_1
  6
CONTINUOUS
 10
-0.970768
 20
2.257681
  0
VERTEX
  8
PLAN_1
  6
CONTINUOUS
 10
-0.980650
 20
2.248268
  0
VERTEX
  8
PLAN_1
  6
CONTINUOUS
 10
-0.990531
 20
2.239327
  0
VERTEX
  8
PLAN_1
  6
CONTINUOUS
 10
-1.000886
 20
2.230854
  0
VERTEX
  8
PLAN_1
  6
CONTINUOUS
 10
-1.011713
 20
2.222854
  0
VERTEX
  8
PLAN_1
  6
CONTINUOUS
 10
-1.022535
 20
2.215323
  0
VERTEX
  8
PLAN_1
  6
CONTINUOUS
 10
-1.034303
 20
2.208264
  0
VERTEX
  8
PLAN_1
  6
CONTINUOUS
 10
-1.045598
 20
2.201205
  0
VERTEX
  8
PLAN_1
  6
CONTINUOUS
 10
-1.057835
 20
2.195087
  0
VERTEX
  8
PLAN_1
  6
CONTINUOUS
 10
-1.070071
 20
2.189437
  0
VERTEX
  8
PLAN_1
  6
CONTINUOUS
 10
-1.082307
 20
2.183791
  0
VERTEX
  8
PLAN_1
  6
CONTINUOUS
 10
-1.095012
 20
2.179083
  0
VERTEX
  8
PLAN_1
  6
CONTINUOUS
 10
-1.108189
 20
2.174850
  0
VERTEX
  8
PLAN_1
  6
CONTINUOUS
 10
-1.121370
 20
2.171083
  0
VERTEX
  8
PLAN_1
  6
CONTINUOUS
 10
-1.134547
 20
2.167791
  0
VERTEX
  8
PLAN_1
  6
CONTINUOUS
 10
-1.148193
 20
2.164965
  0
VERTEX
  8
PLAN_1
  6
CONTINUOUS
 10
-1.161843
 20
2.162614
  0
SEQEND
  8
0
  0
POLYLINE
  8
PLAN_1
  6
CONTINUOUS
 66
     1
 40
0.008469
 41
0.008469
  0
VERTEX
  8
PLAN_1
  6
CONTINUOUS
 10
-1.161843
 20
2.162614
  0
VERTEX
  8
PLAN_1
  6
CONTINUOUS
 10
-1.161843
 20
1.609150
  0
SEQEND
  8
0
  0
POLYLINE
  8
PLAN_1
  6
CONTINUOUS
 66
     1
 40
0.008469
 41
0.008469
  0
VERTEX
  8
PLAN_1
  6
CONTINUOUS
 10
-1.161843
 20
1.609150
  0
VERTEX
  8
PLAN_1
  6
CONTINUOUS
 10
-1.119484
 20
1.612445
  0
VERTEX
  8
PLAN_1
  6
CONTINUOUS
 10
-1.078071
 20
1.617622
  0
VERTEX
  8
PLAN_1
  6
CONTINUOUS
 10
-1.037126
 20
1.624681
  0
VERTEX
  8
PLAN_1
  6
CONTINUOUS
 10
-0.996650
 20
1.633154
  0
VERTEX
  8
PLAN_1
  6
CONTINUOUS
 10
-0.957118
 20
1.643976
  0
VERTEX
  8
PLAN_1
  6
CONTINUOUS
 10
-0.918055
 20
1.656213
  0
VERTEX
  8
PLAN_1
  6
CONTINUOUS
 10
-0.879933
 20
1.670331
  0
VERTEX
  8
PLAN_1
  6
CONTINUOUS
 10
-0.842756
 20
1.686335
  0
VERTEX
  8
PLAN_1
  6
CONTINUOUS
 10
-0.806516
 20
1.703748
  0
VERTEX
  8
PLAN_1
  6
CONTINUOUS
 10
-0.770748
 20
1.722571
  0
VERTEX
  8
PLAN_1
  6
CONTINUOUS
 10
-0.736390
 20
1.743280
  0
VERTEX
  8
PLAN_1
  6
CONTINUOUS
 10
-0.702976
 20
1.765398
  0
VERTEX
  8
PLAN_1
  6
CONTINUOUS
 10
-0.670972
 20
1.788929
  0
VERTEX
  8
PLAN_1
  6
CONTINUOUS
 10
-0.639441
 20
1.813874
  0
VERTEX
  8
PLAN_1
  6
CONTINUOUS
 10
-0.609791
 20
1.839760
  0
VERTEX
  8
PLAN_1
  6
CONTINUOUS
 10
-0.580614
 20
1.867528
  0
VERTEX
  8
PLAN_1
  6
CONTINUOUS
 10
-0.553315
 20
1.896236
  0
VERTEX
  8
PLAN_1
  6
CONTINUOUS
 10
-0.526961
 20
1.926354
  0
VERTEX
  8
PLAN_1
  6
CONTINUOUS
 10
-0.502016
 20
1.957417
  0
VERTEX
  8
PLAN_1
  6
CONTINUOUS
 10
-0.478484
 20
1.989890
  0
VERTEX
  8
PLAN_1
  6
CONTINUOUS
 10
-0.456366
 20
2.023307
  0
VERTEX
  8
PLAN_1
  6
CONTINUOUS
 10
-0.436130
 20
2.057661
  0
VERTEX
  8
PLAN_1
  6
CONTINUOUS
 10
-0.416831
 20
2.092961
  0
VERTEX
  8
PLAN_1
  6
CONTINUOUS
 10
-0.399417
 20
2.129669
  0
VERTEX
  8
PLAN_1
  6
CONTINUOUS
 10
-0.383890
 20
2.166846
  0
VERTEX
  8
PLAN_1
  6
CONTINUOUS
 10
-0.369768
 20
2.204969
  0
VERTEX
  8
PLAN_1
  6
CONTINUOUS
 10
-0.357063
 20
2.243563
  0
VERTEX
  8
PLAN_1
  6
CONTINUOUS
 10
-0.346709
 20
2.283094
  0
VERTEX
  8
PLAN_1
  6
CONTINUOUS
 10
-0.337768
 20
2.323567
  0
VERTEX
  8
PLAN_1
  6
CONTINUOUS
 10
-0.330709
 20
2.364512
  0
VERTEX
  8
PLAN_1
  6
CONTINUOUS
 10
-0.325531
 20
2.406402
  0
VERTEX
  8
PLAN_1
  6
CONTINUOUS
 10
-0.322236
 20
2.448756
  0
SEQEND
  8
0
  0
POLYLINE
  8
PLAN_1
  6
CONTINUOUS
 66
     1
 40
0.008469
 41
0.008469
  0
VERTEX
  8
PLAN_1
  6
CONTINUOUS
 10
-0.322236
 20
2.448756
  0
VERTEX
  8
PLAN_1
  6
CONTINUOUS
 10
-0.876169
 20
2.448287
  0
SEQEND
  8
0
  0
POLYLINE
  8
PLAN_1
  6
CONTINUOUS
 66
     1
 40
0.008469
 41
0.008469
  0
VERTEX
  8
PLAN_1
  6
CONTINUOUS
 10
-1.438102
 20
2.538646
  0
VERTEX
  8
PLAN_1
  6
CONTINUOUS
 10
-1.436693
 20
2.547591
  0
VERTEX
  8
PLAN_1
  6
CONTINUOUS
 10
-1.434339
 20
2.556059
  0
VERTEX
  8
PLAN_1
  6
CONTINUOUS
 10
-1.431984
 20
2.564531
  0
VERTEX
  8
PLAN_1
  6
CONTINUOUS
 10
-1.429161
 20
2.573004
  0
VERTEX
  8
PLAN_1
  6
CONTINUOUS
 10
-1.425866
 20
2.581004
  0
VERTEX
  8
PLAN_1
  6
CONTINUOUS
 10
-1.422571
 20
2.589476
  0
VERTEX
  8
PLAN_1
  6
CONTINUOUS
 10
-1.418807
 20
2.597004
  0
VERTEX
  8
PLAN_1
  6
CONTINUOUS
 10
-1.414571
 20
2.605008
  0
VERTEX
  8
PLAN_1
  6
CONTINUOUS
 10
-1.410335
 20
2.612535
  0
VERTEX
  8
PLAN_1
  6
CONTINUOUS
 10
-1.406102
 20
2.620067
  0
VERTEX
  8
PLAN_1
  6
CONTINUOUS
 10
-1.401394
 20
2.627126
  0
VERTEX
  8
PLAN_1
  6
CONTINUOUS
 10
-1.396217
 20
2.634185
  0
VERTEX
  8
PLAN_1
  6
CONTINUOUS
 10
-1.391039
 20
2.641244
  0
VERTEX
  8
PLAN_1
  6
CONTINUOUS
 10
-1.385394
 20
2.647835
  0
VERTEX
  8
PLAN_1
  6
CONTINUOUS
 10
-1.379744
 20
2.653953
  0
VERTEX
  8
PLAN_1
  6
CONTINUOUS
 10
-1.373626
 20
2.660539
  0
VERTEX
  8
PLAN_1
  6
CONTINUOUS
 10
-1.367508
 20
2.666189
  0
VERTEX
  8
PLAN_1
  6
CONTINUOUS
 10
-1.360921
 20
2.672307
  0
VERTEX
  8
PLAN_1
  6
CONTINUOUS
 10
-1.354331
 20
2.677484
  0
VERTEX
  8
PLAN_1
  6
CONTINUOUS
 10
-1.347272
 20
2.683130
  0
VERTEX
  8
PLAN_1
  6
CONTINUOUS
 10
-1.340213
 20
2.687839
  0
VERTEX
  8
PLAN_1
  6
CONTINUOUS
 10
-1.333154
 20
2.693016
  0
VERTEX
  8
PLAN_1
  6
CONTINUOUS
 10
-1.325622
 20
2.697252
  0
VERTEX
  8
PLAN_1
  6
CONTINUOUS
 10
-1.318091
 20
2.701484
  0
VERTEX
  8
PLAN_1
  6
CONTINUOUS
 10
-1.310563
 20
2.705720
  0
VERTEX
  8
PLAN_1
  6
CONTINUOUS
 10
-1.302563
 20
2.709488
  0
VERTEX
  8
PLAN_1
  6
CONTINUOUS
 10
-1.294559
 20
2.712780
  0
VERTEX
  8
PLAN_1
  6
CONTINUOUS
 10
-1.286091
 20
2.715606
  0
VERTEX
  8
PLAN_1
  6
CONTINUOUS
 10
-1.277618
 20
2.718429
  0
VERTEX
  8
PLAN_1
  6
CONTINUOUS
 10
-1.269146
 20
2.721252
  0
VERTEX
  8
PLAN_1
  6
CONTINUOUS
 10
-1.260677
 20
2.723134
  0
VERTEX
  8
PLAN_1
  6
CONTINUOUS
 10
-1.251732
 20
2.725016
  0
VERTEX
  8
PLAN_1
  6
CONTINUOUS
 10
-1.246087
 20
2.726429
  0
VERTEX
  8
PLAN_1
  6
CONTINUOUS
 10
-1.240909
 20
2.726902
  0
VERTEX
  8
PLAN_1
  6
CONTINUOUS
 10
-1.235260
 20
2.727843
  0
VERTEX
  8
PLAN_1
  6
CONTINUOUS
 10
-1.229614
 20
2.728311
  0
VERTEX
  8
PLAN_1
  6
CONTINUOUS
 10
-1.223965
 20
2.728783
  0
VERTEX
  8
PLAN_1
  6
CONTINUOUS
 10
-1.217846
 20
2.729252
  0
VERTEX
  8
PLAN_1
  6
CONTINUOUS
 10
-1.212201
 20
2.729724
  0
VERTEX
  8
PLAN_1
  6
CONTINUOUS
 10
-1.206551
 20
2.729724
  0
VERTEX
  8
PLAN_1
  6
CONTINUOUS
 10
-1.195728
 20
2.729252
  0
VERTEX
  8
PLAN_1
  6
CONTINUOUS
 10
-1.185374
 20
2.728311
  0
VERTEX
  8
PLAN_1
  6
CONTINUOUS
 10
-1.174551
 20
2.726902
  0
VERTEX
  8
PLAN_1
  6
CONTINUOUS
 10
-1.164197
 20
2.724547
  0
VERTEX
  8
PLAN_1
  6
CONTINUOUS
 10
-1.153370
 20
2.722193
  0
VERTEX
  8
PLAN_1
  6
CONTINUOUS
 10
-1.143016
 20
2.718898
  0
VERTEX
  8
PLAN_1
  6
CONTINUOUS
 10
-1.132665
 20
2.715134
  0
VERTEX
  8
PLAN_1
  6
CONTINUOUS
 10
-1.122311
 20
2.710898
  0
VERTEX
  8
PLAN_1
  6
CONTINUOUS
 10
-1.111957
 20
2.706193
  0
VERTEX
  8
PLAN_1
  6
CONTINUOUS
 10
-1.102071
 20
2.701016
  0
VERTEX
  8
PLAN_1
  6
CONTINUOUS
 10
-1.092189
 20
2.695366
  0
VERTEX
  8
PLAN_1
  6
CONTINUOUS
 10
-1.082307
 20
2.689248
  0
VERTEX
  8
PLAN_1
  6
CONTINUOUS
 10
-1.072894
 20
2.682661
  0
VERTEX
  8
PLAN_1
  6
CONTINUOUS
 10
-1.063480
 20
2.675602
  0
VERTEX
  8
PLAN_1
  6
CONTINUOUS
 10
-1.055008
 20
2.668071
  0
VERTEX
  8
PLAN_1
  6
CONTINUOUS
 10
-1.046067
 20
2.660539
  0
VERTEX
  8
PLAN_1
  6
CONTINUOUS
 10
-1.038067
 20
2.652071
  0
VERTEX
  8
PLAN_1
  6
CONTINUOUS
 10
-1.030067
 20
2.643598
  0
VERTEX
  8
PLAN_1
  6
CONTINUOUS
 10
-1.022535
 20
2.634657
  0
VERTEX
  8
PLAN_1
  6
CONTINUOUS
 10
-1.015476
 20
2.625244
  0
VERTEX
  8
PLAN_1
  6
CONTINUOUS
 10
-1.008886
 20
2.615831
  0
VERTEX
  8
PLAN_1
  6
CONTINUOUS
 10
-1.002299
 20
2.605949
  0
VERTEX
  8
PLAN_1
  6
CONTINUOUS
 10
-0.996650
 20
2.595594
  0
VERTEX
  8
PLAN_1
  6
CONTINUOUS
 10
-0.991472
 20
2.585240
  0
VERTEX
  8
PLAN_1
  6
CONTINUOUS
 10
-0.986768
 20
2.574413
  0
VERTEX
  8
PLAN_1
  6
CONTINUOUS
 10
-0.982531
 20
2.563591
  0
VERTEX
  8
PLAN_1
  6
CONTINUOUS
 10
-0.978768
 20
2.552295
  0
VERTEX
  8
PLAN_1
  6
CONTINUOUS
 10
-0.975945
 20
2.541000
  0
VERTEX
  8
PLAN_1
  6
CONTINUOUS
 10
-0.973591
 20
2.529236
  0
VERTEX
  8
PLAN_1
  6
CONTINUOUS
 10
-0.971709
 20
2.517469
  0
VERTEX
  8
PLAN_1
  6
CONTINUOUS
 10
-0.970768
 20
2.505705
  0
VERTEX
  8
PLAN_1
  6
CONTINUOUS
 10
-0.970295
 20
2.493469
  0
VERTEX
  8
PLAN_1
  6
CONTINUOUS
 10
-0.970768
 20
2.481228
  0
VERTEX
  8
PLAN_1
  6
CONTINUOUS
 10
-0.971709
 20
2.469465
  0
VERTEX
  8
PLAN_1
  6
CONTINUOUS
 10
-0.973118
 20
2.457228
  0
VERTEX
  8
PLAN_1
  6
CONTINUOUS
 10
-0.975000
 20
2.445933
  0
VERTEX
  8
PLAN_1
  6
CONTINUOUS
 10
-0.977827
 20
2.434165
  0
VERTEX
  8
PLAN_1
  6
CONTINUOUS
 10
-0.981122
 20
2.423343
  0
VERTEX
  8
PLAN_1
  6
CONTINUOUS
 10
-0.984886
 20
2.412047
  0
VERTEX
  8
PLAN_1
  6
CONTINUOUS
 10
-0.989122
 20
2.401693
  0
VERTEX
  8
PLAN_1
  6
CONTINUOUS
 10
-0.993827
 20
2.390870
  0
VERTEX
  8
PLAN_1
  6
CONTINUOUS
 10
-0.999004
 20
2.380984
  0
VERTEX
  8
PLAN_1
  6
CONTINUOUS
 10
-1.004654
 20
2.371102
  0
VERTEX
  8
PLAN_1
  6
CONTINUOUS
 10
-1.010772
 20
2.361220
  0
VERTEX
  8
PLAN_1
  6
CONTINUOUS
 10
-1.017358
 20
2.352276
  0
VERTEX
  8
PLAN_1
  6
CONTINUOUS
 10
-1.024417
 20
2.343335
  0
VERTEX
  8
PLAN_1
  6
CONTINUOUS
 10
-1.031949
 20
2.334394
  0
VERTEX
  8
PLAN_1
  6
CONTINUOUS
 10
-1.039480
 20
2.326394
  0
VERTEX
  8
PLAN_1
  6
CONTINUOUS
 10
-1.047949
 20
2.318390
  0
VERTEX
  8
PLAN_1
  6
CONTINUOUS
 10
-1.056421
 20
2.311331
  0
VERTEX
  8
PLAN_1
  6
CONTINUOUS
 10
-1.065362
 20
2.304272
  0
VERTEX
  8
PLAN_1
  6
CONTINUOUS
 10
-1.074307
 20
2.297685
  0
VERTEX
  8
PLAN_1
  6
CONTINUOUS
 10
-1.084189
 20
2.291567
  0
VERTEX
  8
PLAN_1
  6
CONTINUOUS
 10
-1.094071
 20
2.285917
  0
VERTEX
  8
PLAN_1
  6
CONTINUOUS
 10
-1.103957
 20
2.280740
  0
VERTEX
  8
PLAN_1
  6
CONTINUOUS
 10
-1.114780
 20
2.276035
  0
VERTEX
  8
PLAN_1
  6
CONTINUOUS
 10
-1.125134
 20
2.271799
  0
VERTEX
  8
PLAN_1
  6
CONTINUOUS
 10
-1.136429
 20
2.268035
  0
VERTEX
  8
PLAN_1
  6
CONTINUOUS
 10
-1.147724
 20
2.264740
  0
VERTEX
  8
PLAN_1
  6
CONTINUOUS
 10
-1.159020
 20
2.261917
  0
VERTEX
  8
PLAN_1
  6
CONTINUOUS
 10
-1.170783
 20
2.260031
  0
VERTEX
  8
PLAN_1
  6
CONTINUOUS
 10
-1.182551
 20
2.258622
  0
VERTEX
  8
PLAN_1
  6
CONTINUOUS
 10
-1.194315
 20
2.257681
  0
VERTEX
  8
PLAN_1
  6
CONTINUOUS
 10
-1.206551
 20
2.257209
  0
VERTEX
  8
PLAN_1
  6
CONTINUOUS
 10
-1.218787
 20
2.257681
  0
VERTEX
  8
PLAN_1
  6
CONTINUOUS
 10
-1.230555
 20
2.258622
  0
VERTEX
  8
PLAN_1
  6
CONTINUOUS
 10
-1.242319
 20
2.260031
  0
VERTEX
  8
PLAN_1
  6
CONTINUOUS
 10
-1.254087
 20
2.261917
  0
VERTEX
  8
PLAN_1
  6
CONTINUOUS
 10
-1.265382
 20
2.264740
  0
VERTEX
  8
PLAN_1
  6
CONTINUOUS
 10
-1.276677
 20
2.268035
  0
VERTEX
  8
PLAN_1
  6
CONTINUOUS
 10
-1.287500
 20
2.271799
  0
VERTEX
  8
PLAN_1
  6
CONTINUOUS
 10
-1.298327
 20
2.276035
  0
VERTEX
  8
PLAN_1
  6
CONTINUOUS
 10
-1.309150
 20
2.280740
  0
VERTEX
  8
PLAN_1
  6
CONTINUOUS
 10
-1.319035
 20
2.285917
  0
VERTEX
  8
PLAN_1
  6
CONTINUOUS
 10
-1.328917
 20
2.291567
  0
VERTEX
  8
PLAN_1
  6
CONTINUOUS
 10
-1.338331
 20
2.297685
  0
VERTEX
  8
PLAN_1
  6
CONTINUOUS
 10
-1.347744
 20
2.304272
  0
VERTEX
  8
PLAN_1
  6
CONTINUOUS
 10
-1.356685
 20
2.311331
  0
VERTEX
  8
PLAN_1
  6
CONTINUOUS
 10
-1.365157
 20
2.318390
  0
VERTEX
  8
PLAN_1
  6
CONTINUOUS
 10
-1.373626
 20
2.326394
  0
VERTEX
  8
PLAN_1
  6
CONTINUOUS
 10
-1.381157
 20
2.334394
  0
VERTEX
  8
PLAN_1
  6
CONTINUOUS
 10
-1.388689
 20
2.343335
  0
VERTEX
  8
PLAN_1
  6
CONTINUOUS
 10
-1.395748
 20
2.352276
  0
VERTEX
  8
PLAN_1
  6
CONTINUOUS
 10
-1.402335
 20
2.361220
  0
VERTEX
  8
PLAN_1
  6
CONTINUOUS
 10
-1.408453
 20
2.371102
  0
VERTEX
  8
PLAN_1
  6
CONTINUOUS
 10
-1.414102
 20
2.380984
  0
VERTEX
  8
PLAN_1
  6
CONTINUOUS
 10
-1.419280
 20
2.390870
  0
VERTEX
  8
PLAN_1
  6
CONTINUOUS
 10
-1.423984
 20
2.401693
  0
VERTEX
  8
PLAN_1
  6
CONTINUOUS
 10
-1.428220
 20
2.412047
  0
VERTEX
  8
PLAN_1
  6
CONTINUOUS
 10
-1.431984
 20
2.423343
  0
VERTEX
  8
PLAN_1
  6
CONTINUOUS
 10
-1.435280
 20
2.434165
  0
VERTEX
  8
PLAN_1
  6
CONTINUOUS
 10
-1.438102
 20
2.445933
  0
VERTEX
  8
PLAN_1
  6
CONTINUOUS
 10
-1.439984
 20
2.457228
  0
VERTEX
  8
PLAN_1
  6
CONTINUOUS
 10
-1.441398
 20
2.469465
  0
VERTEX
  8
PLAN_1
  6
CONTINUOUS
 10
-1.442339
 20
2.481228
  0
VERTEX
  8
PLAN_1
  6
CONTINUOUS
 10
-1.442811
 20
2.493469
  0
VERTEX
  8
PLAN_1
  6
CONTINUOUS
 10
-1.442811
 20
2.499114
  0
VERTEX
  8
PLAN_1
  6
CONTINUOUS
 10
-1.442339
 20
2.504760
  0
VERTEX
  8
PLAN_1
  6
CONTINUOUS
 10
-1.441870
 20
2.510882
  0
VERTEX
  8
PLAN_1
  6
CONTINUOUS
 10
-1.441398
 20
2.516528
  0
VERTEX
  8
PLAN_1
  6
CONTINUOUS
 10
-1.440929
 20
2.522173
  0
VERTEX
  8
PLAN_1
  6
CONTINUOUS
 10
-1.439984
 20
2.527823
  0
VERTEX
  8
PLAN_1
  6
CONTINUOUS
 10
-1.439516
 20
2.533000
  0
VERTEX
  8
PLAN_1
  6
CONTINUOUS
 10
-1.438102
 20
2.538646
  0
SEQEND
  8
0
  0
POLYLINE
  8
PLAN_1
  6
CONTINUOUS
 66
     1
 40
0.008469
 41
0.008469
  0
VERTEX
  8
PLAN_1
  6
CONTINUOUS
 10
-0.673799
 20
1.664685
  0
VERTEX
  8
PLAN_1
  6
CONTINUOUS
 10
-0.673799
 20
0.765776
  0
VERTEX
  8
PLAN_1
  6
CONTINUOUS
 10
-1.735071
 20
0.765776
  0
VERTEX
  8
PLAN_1
  6
CONTINUOUS
 10
-1.735071
 20
1.664685
  0
SEQEND
  8
0
  0
POLYLINE
  8
PLAN_1
  6
CONTINUOUS
 66
     1
 40
0.008469
 41
0.008469
  0
VERTEX
  8
PLAN_1
  6
CONTINUOUS
 10
-1.440457
 20
1.538083
  0
VERTEX
  8
PLAN_1
  6
CONTINUOUS
 10
-1.440929
 20
1.536673
  0
VERTEX
  8
PLAN_1
  6
CONTINUOUS
 10
-1.441398
 20
1.535260
  0
VERTEX
  8
PLAN_1
  6
CONTINUOUS
 10
-1.442339
 20
1.534319
  0
VERTEX
  8
PLAN_1
  6
CONTINUOUS
 10
-1.442811
 20
1.533378
  0
VERTEX
  8
PLAN_1
  6
CONTINUOUS
 10
-1.443280
 20
1.531965
  0
VERTEX
  8
PLAN_1
  6
CONTINUOUS
 10
-1.443752
 20
1.531024
  0
VERTEX
  8
PLAN_1
  6
CONTINUOUS
 10
-1.444693
 20
1.530083
  0
VERTEX
  8
PLAN_1
  6
CONTINUOUS
 10
-1.445161
 20
1.529142
  0
VERTEX
  8
PLAN_1
  6
CONTINUOUS
 10
-1.454106
 20
1.516433
  0
VERTEX
  8
PLAN_1
  6
CONTINUOUS
 10
-1.464929
 20
1.500433
  0
VERTEX
  8
PLAN_1
  6
CONTINUOUS
 10
-1.471047
 20
1.491492
  0
VERTEX
  8
PLAN_1
  6
CONTINUOUS
 10
-1.476697
 20
1.482079
  0
VERTEX
  8
PLAN_1
  6
CONTINUOUS
 10
-1.482815
 20
1.471724
  0
VERTEX
  8
PLAN_1
  6
CONTINUOUS
 10
-1.488461
 20
1.460902
  0
VERTEX
  8
PLAN_1
  6
CONTINUOUS
 10
-1.494110
 20
1.449606
  0
VERTEX
  8
PLAN_1
  6
CONTINUOUS
 10
-1.499756
 20
1.437370
  0
VERTEX
  8
PLAN_1
  6
CONTINUOUS
 10
-1.504465
 20
1.424661
  0
VERTEX
  8
PLAN_1
  6
CONTINUOUS
 10
-1.509169
 20
1.411484
  0
VERTEX
  8
PLAN_1
  6
CONTINUOUS
 10
-1.513406
 20
1.397835
  0
VERTEX
  8
PLAN_1
  6
CONTINUOUS
 10
-1.516701
 20
1.383717
  0
VERTEX
  8
PLAN_1
  6
CONTINUOUS
 10
-1.519524
 20
1.368657
  0
VERTEX
  8
PLAN_1
  6
CONTINUOUS
 10
-1.521406
 20
1.353594
  0
SEQEND
  8
0
  0
POLYLINE
  8
PLAN_1
  6
CONTINUOUS
 66
     1
 40
0.008469
 41
0.008469
  0
VERTEX
  8
PLAN_1
  6
CONTINUOUS
 10
-1.521406
 20
1.353594
  0
VERTEX
  8
PLAN_1
  6
CONTINUOUS
 10
-1.407043
 20
1.353594
  0
VERTEX
  8
PLAN_1
  6
CONTINUOUS
 10
-1.407043
 20
1.274531
  0
VERTEX
  8
PLAN_1
  6
CONTINUOUS
 10
-1.520465
 20
1.271705
  0
SEQEND
  8
0
  0
POLYLINE
  8
PLAN_1
  6
CONTINUOUS
 66
     1
 40
0.008469
 41
0.008469
  0
VERTEX
  8
PLAN_1
  6
CONTINUOUS
 10
-1.520465
 20
1.271705
  0
VERTEX
  8
PLAN_1
  6
CONTINUOUS
 10
-1.518110
 20
1.258528
  0
VERTEX
  8
PLAN_1
  6
CONTINUOUS
 10
-1.515756
 20
1.245350
  0
VERTEX
  8
PLAN_1
  6
CONTINUOUS
 10
-1.512933
 20
1.232173
  0
VERTEX
  8
PLAN_1
  6
CONTINUOUS
 10
-1.509638
 20
1.219937
  0
VERTEX
  8
PLAN_1
  6
CONTINUOUS
 10
-1.505874
 20
1.207228
  0
VERTEX
  8
PLAN_1
  6
CONTINUOUS
 10
-1.501169
 20
1.194992
  0
VERTEX
  8
PLAN_1
  6
CONTINUOUS
 10
-1.496461
 20
1.182756
  0
VERTEX
  8
PLAN_1
  6
CONTINUOUS
 10
-1.490815
 20
1.170992
  0
VERTEX
  8
PLAN_1
  6
CONTINUOUS
 10
-1.485165
 20
1.159697
  0
VERTEX
  8
PLAN_1
  6
CONTINUOUS
 10
-1.479047
 20
1.148402
  0
VERTEX
  8
PLAN_1
  6
CONTINUOUS
 10
-1.472461
 20
1.137575
  0
VERTEX
  8
PLAN_1
  6
CONTINUOUS
 10
-1.465402
 20
1.126752
  0
VERTEX
  8
PLAN_1
  6
CONTINUOUS
 10
-1.457870
 20
1.116398
  0
VERTEX
  8
PLAN_1
  6
CONTINUOUS
 10
-1.449870
 20
1.106516
  0
VERTEX
  8
PLAN_1
  6
CONTINUOUS
 10
-1.441870
 20
1.097102
  0
VERTEX
  8
PLAN_1
  6
CONTINUOUS
 10
-1.432925
 20
1.087689
  0
VERTEX
  8
PLAN_1
  6
CONTINUOUS
 10
-1.423984
 20
1.078748
  0
VERTEX
  8
PLAN_1
  6
CONTINUOUS
 10
-1.414571
 20
1.070276
  0
VERTEX
  8
PLAN_1
  6
CONTINUOUS
 10
-1.405157
 20
1.062276
  0
VERTEX
  8
PLAN_1
  6
CONTINUOUS
 10
-1.395276
 20
1.054276
  0
VERTEX
  8
PLAN_1
  6
CONTINUOUS
 10
-1.384921
 20
1.046744
  0
VERTEX
  8
PLAN_1
  6
CONTINUOUS
 10
-1.374098
 20
1.040157
  0
VERTEX
  8
PLAN_1
  6
CONTINUOUS
 10
-1.363272
 20
1.033567
  0
VERTEX
  8
PLAN_1
  6
CONTINUOUS
 10
-1.351976
 20
1.027449
  0
VERTEX
  8
PLAN_1
  6
CONTINUOUS
 10
-1.340213
 20
1.021799
  0
VERTEX
  8
PLAN_1
  6
CONTINUOUS
 10
-1.328445
 20
1.017094
  0
VERTEX
  8
PLAN_1
  6
CONTINUOUS
 10
-1.316209
 20
1.012390
  0
VERTEX
  8
PLAN_1
  6
CONTINUOUS
 10
-1.303972
 20
1.008154
  0
VERTEX
  8
PLAN_1
  6
CONTINUOUS
 10
-1.291268
 20
1.004386
  0
VERTEX
  8
PLAN_1
  6
CONTINUOUS
 10
-1.278559
 20
1.001563
  0
VERTEX
  8
PLAN_1
  6
CONTINUOUS
 10
-1.265854
 20
0.998740
  0
VERTEX
  8
PLAN_1
  6
CONTINUOUS
 10
-1.252205
 20
0.996858
  0
SEQEND
  8
0
  0
POLYLINE
  8
PLAN_1
  6
CONTINUOUS
 66
     1
 40
0.008469
 41
0.008469
  0
VERTEX
  8
PLAN_1
  6
CONTINUOUS
 10
-1.252205
 20
0.996858
  0
VERTEX
  8
PLAN_1
  6
CONTINUOUS
 10
-1.251732
 20
1.114984
  0
VERTEX
  8
PLAN_1
  6
CONTINUOUS
 10
-1.168902
 20
1.114984
  0
VERTEX
  8
PLAN_1
  6
CONTINUOUS
 10
-1.168902
 20
1.001094
  0
SEQEND
  8
0
  0
POLYLINE
  8
PLAN_1
  6
CONTINUOUS
 66
     1
 40
0.008469
 41
0.008469
  0
VERTEX
  8
PLAN_1
  6
CONTINUOUS
 10
-1.168902
 20
1.001094
  0
VERTEX
  8
PLAN_1
  6
CONTINUOUS
 10
-1.156197
 20
1.002976
  0
VERTEX
  8
PLAN_1
  6
CONTINUOUS
 10
-1.143016
 20
1.005331
  0
VERTEX
  8
PLAN_1
  6
CONTINUOUS
 10
-1.130311
 20
1.008154
  0
VERTEX
  8
PLAN_1
  6
CONTINUOUS
 10
-1.117602
 20
1.011917
  0
VERTEX
  8
PLAN_1
  6
CONTINUOUS
 10
-1.105366
 20
1.015681
  0
VERTEX
  8
PLAN_1
  6
CONTINUOUS
 10
-1.093130
 20
1.019917
  0
VERTEX
  8
PLAN_1
  6
CONTINUOUS
 10
-1.081366
 20
1.025094
  0
VERTEX
  8
PLAN_1
  6
CONTINUOUS
 10
-1.070071
 20
1.030272
  0
VERTEX
  8
PLAN_1
  6
CONTINUOUS
 10
-1.058776
 20
1.036390
  0
VERTEX
  8
PLAN_1
  6
CONTINUOUS
 10
-1.047480
 20
1.042508
  0
VERTEX
  8
PLAN_1
  6
CONTINUOUS
 10
-1.036654
 20
1.049098
  0
VERTEX
  8
PLAN_1
  6
CONTINUOUS
 10
-1.026299
 20
1.056157
  0
VERTEX
  8
PLAN_1
  6
CONTINUOUS
 10
-1.015949
 20
1.063689
  0
VERTEX
  8
PLAN_1
  6
CONTINUOUS
 10
-1.006063
 20
1.071689
  0
VERTEX
  8
PLAN_1
  6
CONTINUOUS
 10
-0.996650
 20
1.080157
  0
VERTEX
  8
PLAN_1
  6
CONTINUOUS
 10
-0.987240
 20
1.088630
  0
VERTEX
  8
PLAN_1
  6
CONTINUOUS
 10
-0.978768
 20
1.097571
  0
VERTEX
  8
PLAN_1
  6
CONTINUOUS
 10
-0.970295
 20
1.106984
  0
VERTEX
  8
PLAN_1
  6
CONTINUOUS
 10
-0.961823
 20
1.116870
  0
VERTEX
  8
PLAN_1
  6
CONTINUOUS
 10
-0.954295
 20
1.126752
  0
VERTEX
  8
PLAN_1
  6
CONTINUOUS
 10
-0.946764
 20
1.137106
  0
VERTEX
  8
PLAN_1
  6
CONTINUOUS
 10
-0.940173
 20
1.147929
  0
VERTEX
  8
PLAN_1
  6
CONTINUOUS
 10
-0.933587
 20
1.158756
  0
VERTEX
  8
PLAN_1
  6
CONTINUOUS
 10
-0.927469
 20
1.170051
  0
VERTEX
  8
PLAN_1
  6
CONTINUOUS
 10
-0.921819
 20
1.181346
  0
VERTEX
  8
PLAN_1
  6
CONTINUOUS
 10
-0.916642
 20
1.193110
  0
VERTEX
  8
PLAN_1
  6
CONTINUOUS
 10
-0.911937
 20
1.204878
  0
VERTEX
  8
PLAN_1
  6
CONTINUOUS
 10
-0.907701
 20
1.217114
  0
VERTEX
  8
PLAN_1
  6
CONTINUOUS
 10
-0.903937
 20
1.229819
  0
VERTEX
  8
PLAN_1
  6
CONTINUOUS
 10
-0.901114
 20
1.242528
  0
VERTEX
  8
PLAN_1
  6
CONTINUOUS
 10
-0.898287
 20
1.255236
  0
VERTEX
  8
PLAN_1
  6
CONTINUOUS
 10
-0.895937
 20
1.267941
  0
SEQEND
  8
0
  0
POLYLINE
  8
PLAN_1
  6
CONTINUOUS
 66
     1
 40
0.008469
 41
0.008469
  0
VERTEX
  8
PLAN_1
  6
CONTINUOUS
 10
-0.895937
 20
1.267941
  0
VERTEX
  8
PLAN_1
  6
CONTINUOUS
 10
-1.009358
 20
1.267941
  0
VERTEX
  8
PLAN_1
  6
CONTINUOUS
 10
-1.009358
 20
1.346535
  0
VERTEX
  8
PLAN_1
  6
CONTINUOUS
 10
-0.894996
 20
1.346535
  0
SEQEND
  8
0
  0
POLYLINE
  8
PLAN_1
  6
CONTINUOUS
 66
     1
 40
0.008469
 41
0.008469
  0
VERTEX
  8
PLAN_1
  6
CONTINUOUS
 10
-0.894996
 20
1.346535
  0
VERTEX
  8
PLAN_1
  6
CONTINUOUS
 10
-0.896878
 20
1.362067
  0
VERTEX
  8
PLAN_1
  6
CONTINUOUS
 10
-0.899701
 20
1.376657
  0
VERTEX
  8
PLAN_1
  6
CONTINUOUS
 10
-0.902996
 20
1.390776
  0
VERTEX
  8
PLAN_1
  6
CONTINUOUS
 10
-0.907232
 20
1.404894
  0
VERTEX
  8
PLAN_1
  6
CONTINUOUS
 10
-0.911937
 20
1.418075
  0
VERTEX
  8
PLAN_1
  6
CONTINUOUS
 10
-0.916642
 20
1.430311
  0
VERTEX
  8
PLAN_1
  6
CONTINUOUS
 10
-0.922291
 20
1.442547
  0
VERTEX
  8
PLAN_1
  6
CONTINUOUS
 10
-0.927937
 20
1.453843
  0
VERTEX
  8
PLAN_1
  6
CONTINUOUS
 10
-0.933587
 20
1.464665
  0
VERTEX
  8
PLAN_1
  6
CONTINUOUS
 10
-0.939705
 20
1.475020
  0
VERTEX
  8
PLAN_1
  6
CONTINUOUS
 10
-0.945350
 20
1.484433
  0
VERTEX
  8
PLAN_1
  6
CONTINUOUS
 10
-0.951469
 20
1.493374
  0
VERTEX
  8
PLAN_1
  6
CONTINUOUS
 10
-0.962295
 20
1.509374
  0
VERTEX
  8
PLAN_1
  6
CONTINUOUS
 10
-0.971236
 20
1.522555
  0
VERTEX
  8
PLAN_1
  6
CONTINUOUS
 10
-0.972177
 20
1.523496
  0
VERTEX
  8
PLAN_1
  6
CONTINUOUS
 10
-0.973118
 20
1.525378
  0
VERTEX
  8
PLAN_1
  6
CONTINUOUS
 10
-0.974059
 20
1.526787
  0
VERTEX
  8
PLAN_1
  6
CONTINUOUS
 10
-0.975000
 20
1.528673
  0
VERTEX
  8
PLAN_1
  6
CONTINUOUS
 10
-0.975472
 20
1.530555
  0
VERTEX
  8
PLAN_1
  6
CONTINUOUS
 10
-0.976413
 20
1.532437
  0
VERTEX
  8
PLAN_1
  6
CONTINUOUS
 10
-0.977354
 20
1.534791
  0
VERTEX
  8
PLAN_1
  6
CONTINUOUS
 10
-0.978295
 20
1.536673
  0
SEQEND
  8
0
  0
POLYLINE
  8
PLAN_1
  6
CONTINUOUS
 66
     1
 40
0.008469
 41
0.008469
  0
VERTEX
  8
PLAN_1
  6
CONTINUOUS
 10
-1.244205
 20
1.510787
  0
VERTEX
  8
PLAN_1
  6
CONTINUOUS
 10
-1.252673
 20
1.508906
  0
VERTEX
  8
PLAN_1
  6
CONTINUOUS
 10
-1.261146
 20
1.507024
  0
VERTEX
  8
PLAN_1
  6
CONTINUOUS
 10
-1.269146
 20
1.504197
  0
VERTEX
  8
PLAN_1
  6
CONTINUOUS
 10
-1.277146
 20
1.501374
  0
VERTEX
  8
PLAN_1
  6
CONTINUOUS
 10
-1.285150
 20
1.498079
  0
VERTEX
  8
PLAN_1
  6
CONTINUOUS
 10
-1.292677
 20
1.494787
  0
VERTEX
  8
PLAN_1
  6
CONTINUOUS
 10
-1.300209
 20
1.491020
  0
VERTEX
  8
PLAN_1
  6
CONTINUOUS
 10
-1.307740
 20
1.486783
  0
VERTEX
  8
PLAN_1
  6
CONTINUOUS
 10
-1.314799
 20
1.482551
  0
VERTEX
  8
PLAN_1
  6
CONTINUOUS
 10
-1.321386
 20
1.477843
  0
VERTEX
  8
PLAN_1
  6
CONTINUOUS
 10
-1.328445
 20
1.472665
  0
VERTEX
  8
PLAN_1
  6
CONTINUOUS
 10
-1.334563
 20
1.467488
  0
VERTEX
  8
PLAN_1
  6
CONTINUOUS
 10
-1.341154
 20
1.461843
  0
VERTEX
  8
PLAN_1
  6
CONTINUOUS
 10
-1.346799
 20
1.456193
  0
VERTEX
  8
PLAN_1
  6
CONTINUOUS
 10
-1.352449
 20
1.450075
  0
VERTEX
  8
PLAN_1
  6
CONTINUOUS
 10
-1.358094
 20
1.443488
  0
VERTEX
  8
PLAN_1
  6
CONTINUOUS
 10
-1.363272
 20
1.437370
  0
VERTEX
  8
PLAN_1
  6
CONTINUOUS
 10
-1.368449
 20
1.430311
  0
VERTEX
  8
PLAN_1
  6
CONTINUOUS
 10
-1.373157
 20
1.423248
  0
VERTEX
  8
PLAN_1
  6
CONTINUOUS
 10
-1.377394
 20
1.416189
  0
VERTEX
  8
PLAN_1
  6
CONTINUOUS
 10
-1.381626
 20
1.409130
  0
VERTEX
  8
PLAN_1
  6
CONTINUOUS
 10
-1.385394
 20
1.401602
  0
VERTEX
  8
PLAN_1
  6
CONTINUOUS
 10
-1.388689
 20
1.393598
  0
VERTEX
  8
PLAN_1
  6
CONTINUOUS
 10
-1.391512
 20
1.385598
  0
VERTEX
  8
PLAN_1
  6
CONTINUOUS
 10
-1.394335
 20
1.377598
  0
VERTEX
  8
PLAN_1
  6
CONTINUOUS
 10
-1.397157
 20
1.369598
  0
VERTEX
  8
PLAN_1
  6
CONTINUOUS
 10
-1.399039
 20
1.361126
  0
VERTEX
  8
PLAN_1
  6
CONTINUOUS
 10
-1.400925
 20
1.352654
  0
VERTEX
  8
PLAN_1
  6
CONTINUOUS
 10
-1.401866
 20
1.344185
  0
VERTEX
  8
PLAN_1
  6
CONTINUOUS
 10
-1.403276
 20
1.335240
  0
VERTEX
  8
PLAN_1
  6
CONTINUOUS
 10
-1.403748
 20
1.326299
  0
VERTEX
  8
PLAN_1
  6
CONTINUOUS
 10
-1.403748
 20
1.317358
  0
VERTEX
  8
PLAN_1
  6
CONTINUOUS
 10
-1.403748
 20
1.307476
  0
VERTEX
  8
PLAN_1
  6
CONTINUOUS
 10
-1.402807
 20
1.297591
  0
VERTEX
  8
PLAN_1
  6
CONTINUOUS
 10
-1.401394
 20
1.287709
  0
VERTEX
  8
PLAN_1
  6
CONTINUOUS
 10
-1.399984
 20
1.277823
  0
VERTEX
  8
PLAN_1
  6
CONTINUOUS
 10
-1.397630
 20
1.268413
  0
VERTEX
  8
PLAN_1
  6
CONTINUOUS
 10
-1.394807
 20
1.259000
  0
VERTEX
  8
PLAN_1
  6
CONTINUOUS
 10
-1.391980
 20
1.250059
  0
VERTEX
  8
PLAN_1
  6
CONTINUOUS
 10
-1.388217
 20
1.241114
  0
VERTEX
  8
PLAN_1
  6
CONTINUOUS
 10
-1.384453
 20
1.232173
  0
VERTEX
  8
PLAN_1
  6
CONTINUOUS
 10
-1.380217
 20
1.223701
  0
VERTEX
  8
PLAN_1
  6
CONTINUOUS
 10
-1.375508
 20
1.215701
  0
VERTEX
  8
PLAN_1
  6
CONTINUOUS
 10
-1.370331
 20
1.207701
  0
VERTEX
  8
PLAN_1
  6
CONTINUOUS
 10
-1.364685
 20
1.199701
  0
VERTEX
  8
PLAN_1
  6
CONTINUOUS
 10
-1.359039
 20
1.192169
  0
VERTEX
  8
PLAN_1
  6
CONTINUOUS
 10
-1.352917
 20
1.185110
  0
VERTEX
  8
PLAN_1
  6
CONTINUOUS
 10
-1.346331
 20
1.178520
  0
VERTEX
  8
PLAN_1
  6
CONTINUOUS
 10
-1.339272
 20
1.171933
  0
VERTEX
  8
PLAN_1
  6
CONTINUOUS
 10
-1.332213
 20
1.165815
  0
VERTEX
  8
PLAN_1
  6
CONTINUOUS
 10
-1.324681
 20
1.159697
  0
VERTEX
  8
PLAN_1
  6
CONTINUOUS
 10
-1.317150
 20
1.154520
  0
VERTEX
  8
PLAN_1
  6
CONTINUOUS
 10
-1.309150
 20
1.149343
  0
VERTEX
  8
PLAN_1
  6
CONTINUOUS
 10
-1.300677
 20
1.144638
  0
VERTEX
  8
PLAN_1
  6
CONTINUOUS
 10
-1.292209
 20
1.140402
  0
VERTEX
  8
PLAN_1
  6
CONTINUOUS
 10
-1.283736
 20
1.136165
  0
VERTEX
  8
PLAN_1
  6
CONTINUOUS
 10
-1.274795
 20
1.132870
  0
VERTEX
  8
PLAN_1
  6
CONTINUOUS
 10
-1.265382
 20
1.129575
  0
VERTEX
  8
PLAN_1
  6
CONTINUOUS
 10
-1.256441
 20
1.126752
  0
VERTEX
  8
PLAN_1
  6
CONTINUOUS
 10
-1.246555
 20
1.124870
  0
VERTEX
  8
PLAN_1
  6
CONTINUOUS
 10
-1.237146
 20
1.122988
  0
VERTEX
  8
PLAN_1
  6
CONTINUOUS
 10
-1.227260
 20
1.121575
  0
VERTEX
  8
PLAN_1
  6
CONTINUOUS
 10
-1.217378
 20
1.121102
  0
VERTEX
  8
PLAN_1
  6
CONTINUOUS
 10
-1.207024
 20
1.120634
  0
VERTEX
  8
PLAN_1
  6
CONTINUOUS
 10
-1.197142
 20
1.121102
  0
VERTEX
  8
PLAN_1
  6
CONTINUOUS
 10
-1.186787
 20
1.121575
  0
VERTEX
  8
PLAN_1
  6
CONTINUOUS
 10
-1.176902
 20
1.122988
  0
VERTEX
  8
PLAN_1
  6
CONTINUOUS
 10
-1.167492
 20
1.124870
  0
VERTEX
  8
PLAN_1
  6
CONTINUOUS
 10
-1.158079
 20
1.126752
  0
VERTEX
  8
PLAN_1
  6
CONTINUOUS
 10
-1.148665
 20
1.129575
  0
VERTEX
  8
PLAN_1
  6
CONTINUOUS
 10
-1.139252
 20
1.132870
  0
VERTEX
  8
PLAN_1
  6
CONTINUOUS
 10
-1.130311
 20
1.136165
  0
VERTEX
  8
PLAN_1
  6
CONTINUOUS
 10
-1.121839
 20
1.140402
  0
VERTEX
  8
PLAN_1
  6
CONTINUOUS
 10
-1.113366
 20
1.144638
  0
VERTEX
  8
PLAN_1
  6
CONTINUOUS
 10
-1.104898
 20
1.149343
  0
VERTEX
  8
PLAN_1
  6
CONTINUOUS
 10
-1.096894
 20
1.154520
  0
VERTEX
  8
PLAN_1
  6
CONTINUOUS
 10
-1.089366
 20
1.159697
  0
VERTEX
  8
PLAN_1
  6
CONTINUOUS
 10
-1.081835
 20
1.165815
  0
VERTEX
  8
PLAN_1
  6
CONTINUOUS
 10
-1.074776
 20
1.171933
  0
VERTEX
  8
PLAN_1
  6
CONTINUOUS
 10
-1.067717
 20
1.178520
  0
VERTEX
  8
PLAN_1
  6
CONTINUOUS
 10
-1.061598
 20
1.185110
  0
VERTEX
  8
PLAN_1
  6
CONTINUOUS
 10
-1.055008
 20
1.192169
  0
VERTEX
  8
PLAN_1
  6
CONTINUOUS
 10
-1.049362
 20
1.199701
  0
VERTEX
  8
PLAN_1
  6
CONTINUOUS
 10
-1.043713
 20
1.207701
  0
VERTEX
  8
PLAN_1
  6
CONTINUOUS
 10
-1.039008
 20
1.215701
  0
VERTEX
  8
PLAN_1
  6
CONTINUOUS
 10
-1.033831
 20
1.223701
  0
VERTEX
  8
PLAN_1
  6
CONTINUOUS
 10
-1.029594
 20
1.232173
  0
VERTEX
  8
PLAN_1
  6
CONTINUOUS
 10
-1.025831
 20
1.241114
  0
VERTEX
  8
PLAN_1
  6
CONTINUOUS
 10
-1.022067
 20
1.250059
  0
VERTEX
  8
PLAN_1
  6
CONTINUOUS
 10
-1.019240
 20
1.259000
  0
VERTEX
  8
PLAN_1
  6
CONTINUOUS
 10
-1.016417
 20
1.268413
  0
VERTEX
  8
PLAN_1
  6
CONTINUOUS
 10
-1.014063
 20
1.277823
  0
VERTEX
  8
PLAN_1
  6
CONTINUOUS
 10
-1.012654
 20
1.287709
  0
VERTEX
  8
PLAN_1
  6
CONTINUOUS
 10
-1.011240
 20
1.297591
  0
VERTEX
  8
PLAN_1
  6
CONTINUOUS
 10
-1.010772
 20
1.307476
  0
VERTEX
  8
PLAN_1
  6
CONTINUOUS
 10
-1.010299
 20
1.317358
  0
VERTEX
  8
PLAN_1
  6
CONTINUOUS
 10
-1.010299
 20
1.326299
  0
VERTEX
  8
PLAN_1
  6
CONTINUOUS
 10
-1.011240
 20
1.335240
  0
VERTEX
  8
PLAN_1
  6
CONTINUOUS
 10
-1.012181
 20
1.343713
  0
VERTEX
  8
PLAN_1
  6
CONTINUOUS
 10
-1.013122
 20
1.352185
  0
VERTEX
  8
PLAN_1
  6
CONTINUOUS
 10
-1.015004
 20
1.360657
  0
VERTEX
  8
PLAN_1
  6
CONTINUOUS
 10
-1.016890
 20
1.369126
  0
VERTEX
  8
PLAN_1
  6
CONTINUOUS
 10
-1.019713
 20
1.377126
  0
VERTEX
  8
PLAN_1
  6
CONTINUOUS
 10
-1.022067
 20
1.385130
  0
VERTEX
  8
PLAN_1
  6
CONTINUOUS
 10
-1.025358
 20
1.393130
  0
VERTEX
  8
PLAN_1
  6
CONTINUOUS
 10
-1.028654
 20
1.400661
  0
VERTEX
  8
PLAN_1
  6
CONTINUOUS
 10
-1.032417
 20
1.408189
  0
VERTEX
  8
PLAN_1
  6
CONTINUOUS
 10
-1.036185
 20
1.415720
  0
VERTEX
  8
PLAN_1
  6
CONTINUOUS
 10
-1.040421
 20
1.422780
  0
VERTEX
  8
PLAN_1
  6
CONTINUOUS
 10
-1.045126
 20
1.429366
  0
VERTEX
  8
PLAN_1
  6
CONTINUOUS
 10
-1.050303
 20
1.436429
  0
VERTEX
  8
PLAN_1
  6
CONTINUOUS
 10
-1.055008
 20
1.442547
  0
VERTEX
  8
PLAN_1
  6
CONTINUOUS
 10
-1.060657
 20
1.449134
  0
VERTEX
  8
PLAN_1
  6
CONTINUOUS
 10
-1.066303
 20
1.455252
  0
VERTEX
  8
PLAN_1
  6
CONTINUOUS
 10
-1.071953
 20
1.460902
  0
VERTEX
  8
PLAN_1
  6
CONTINUOUS
 10
-1.078071
 20
1.466547
  0
VERTEX
  8
PLAN_1
  6
CONTINUOUS
 10
-1.084657
 20
1.471724
  0
VERTEX
  8
PLAN_1
  6
CONTINUOUS
 10
-1.091248
 20
1.476902
  0
VERTEX
  8
PLAN_1
  6
CONTINUOUS
 10
-1.097839
 20
1.481606
  0
VERTEX
  8
PLAN_1
  6
CONTINUOUS
 10
-1.104898
 20
1.485843
  0
VERTEX
  8
PLAN_1
  6
CONTINUOUS
 10
-1.112425
 20
1.490079
  0
VERTEX
  8
PLAN_1
  6
CONTINUOUS
 10
-1.119484
 20
1.493846
  0
VERTEX
  8
PLAN_1
  6
CONTINUOUS
 10
-1.127016
 20
1.497610
  0
VERTEX
  8
PLAN_1
  6
CONTINUOUS
 10
-1.135016
 20
1.500906
  0
VERTEX
  8
PLAN_1
  6
CONTINUOUS
 10
-1.143016
 20
1.503728
  0
VERTEX
  8
PLAN_1
  6
CONTINUOUS
 10
-1.151020
 20
1.506083
  0
VERTEX
  8
PLAN_1
  6
CONTINUOUS
 10
-1.159020
 20
1.508433
  0
VERTEX
  8
PLAN_1
  6
CONTINUOUS
 10
-1.167492
 20
1.510315
  0
SEQEND
  8
0
  0
POLYLINE
  8
PLAN_1
  6
CONTINUOUS
 66
     1
 40
0.005646
 41
0.005646
  0
VERTEX
  8
PLAN_1
  6
CONTINUOUS
 10
-1.228673
 20
0.027827
  0
VERTEX
  8
PLAN_1
  6
CONTINUOUS
 10
-0.976886
 20
0.072067
  0
VERTEX
  8
PLAN_1
  6
CONTINUOUS
 10
-0.965118
 20
0.074417
  0
SEQEND
  8
0
  0
POLYLINE
  8
PLAN_1
  6
CONTINUOUS
 66
     1
 40
0.005646
 41
0.005646
  0
VERTEX
  8
PLAN_1
  6
CONTINUOUS
 10
-0.965118
 20
0.074417
  0
VERTEX
  8
PLAN_1
  6
CONTINUOUS
 10
-0.960882
 20
0.075362
  0
VERTEX
  8
PLAN_1
  6
CONTINUOUS
 10
-0.957587
 20
0.077244
  0
VERTEX
  8
PLAN_1
  6
CONTINUOUS
 10
-0.954764
 20
0.079594
  0
VERTEX
  8
PLAN_1
  6
CONTINUOUS
 10
-0.952413
 20
0.082421
  0
VERTEX
  8
PLAN_1
  6
CONTINUOUS
 10
-0.950528
 20
0.085713
  0
VERTEX
  8
PLAN_1
  6
CONTINUOUS
 10
-0.949118
 20
0.089008
  0
VERTEX
  8
PLAN_1
  6
CONTINUOUS
 10
-0.948646
 20
0.093244
  0
VERTEX
  8
PLAN_1
  6
CONTINUOUS
 10
-0.949118
 20
0.097008
  0
VERTEX
  8
PLAN_1
  6
CONTINUOUS
 10
-0.950059
 20
0.100776
  0
VERTEX
  8
PLAN_1
  6
CONTINUOUS
 10
-0.951941
 20
0.104067
  0
VERTEX
  8
PLAN_1
  6
CONTINUOUS
 10
-0.954295
 20
0.107362
  0
VERTEX
  8
PLAN_1
  6
CONTINUOUS
 10
-0.957118
 20
0.109717
  0
VERTEX
  8
PLAN_1
  6
CONTINUOUS
 10
-0.960413
 20
0.111598
  0
VERTEX
  8
PLAN_1
  6
CONTINUOUS
 10
-0.964177
 20
0.113012
  0
VERTEX
  8
PLAN_1
  6
CONTINUOUS
 10
-0.967941
 20
0.113480
  0
VERTEX
  8
PLAN_1
  6
CONTINUOUS
 10
-0.971709
 20
0.113012
  0
SEQEND
  8
0
  0
POLYLINE
  8
PLAN_1
  6
CONTINUOUS
 66
     1
 40
0.005646
 41
0.005646
  0
VERTEX
  8
PLAN_1
  6
CONTINUOUS
 10
-0.971709
 20
0.113012
  0
VERTEX
  8
PLAN_1
  6
CONTINUOUS
 10
-0.983945
 20
0.110657
  0
VERTEX
  8
PLAN_1
  6
CONTINUOUS
 10
-1.447047
 20
0.028768
  0
VERTEX
  8
PLAN_1
  6
CONTINUOUS
 10
-1.455047
 20
0.027827
  0
SEQEND
  8
0
  0
POLYLINE
  8
PLAN_1
  6
CONTINUOUS
 66
     1
 40
0.005646
 41
0.005646
  0
VERTEX
  8
PLAN_1
  6
CONTINUOUS
 10
-1.455047
 20
0.027827
  0
VERTEX
  8
PLAN_1
  6
CONTINUOUS
 10
-1.458811
 20
0.026413
  0
VERTEX
  8
PLAN_1
  6
CONTINUOUS
 10
-1.462106
 20
0.024531
  0
VERTEX
  8
PLAN_1
  6
CONTINUOUS
 10
-1.464929
 20
0.022177
  0
VERTEX
  8
PLAN_1
  6
CONTINUOUS
 10
-1.467752
 20
0.019354
  0
VERTEX
  8
PLAN_1
  6
CONTINUOUS
 10
-1.469638
 20
0.016059
  0
VERTEX
  8
PLAN_1
  6
CONTINUOUS
 10
-1.470579
 20
0.012768
  0
VERTEX
  8
PLAN_1
  6
CONTINUOUS
 10
-1.471047
 20
0.009000
  0
VERTEX
  8
PLAN_1
  6
CONTINUOUS
 10
-1.471047
 20
0.004764
  0
VERTEX
  8
PLAN_1
  6
CONTINUOUS
 10
-1.469638
 20
0.001000
  0
VERTEX
  8
PLAN_1
  6
CONTINUOUS
 10
-1.467752
 20
-0.002295
  0
VERTEX
  8
PLAN_1
  6
CONTINUOUS
 10
-1.465402
 20
-0.005587
  0
VERTEX
  8
PLAN_1
  6
CONTINUOUS
 10
-1.462575
 20
-0.007941
  0
VERTEX
  8
PLAN_1
  6
CONTINUOUS
 10
-1.459283
 20
-0.009823
  0
VERTEX
  8
PLAN_1
  6
CONTINUOUS
 10
-1.455988
 20
-0.010764
  0
VERTEX
  8
PLAN_1
  6
CONTINUOUS
 10
-1.452224
 20
-0.011236
  0
VERTEX
  8
PLAN_1
  6
CONTINUOUS
 10
-1.447988
 20
-0.011236
  0
SEQEND
  8
0
  0
POLYLINE
  8
PLAN_1
  6
CONTINUOUS
 66
     1
 40
0.005646
 41
0.005646
  0
VERTEX
  8
PLAN_1
  6
CONTINUOUS
 10
-1.337390
 20
0.178898
  0
VERTEX
  8
PLAN_1
  6
CONTINUOUS
 10
-0.976886
 20
0.115362
  0
VERTEX
  8
PLAN_1
  6
CONTINUOUS
 10
-0.964650
 20
0.113012
  0
SEQEND
  8
0
  0
POLYLINE
  8
PLAN_1
  6
CONTINUOUS
 66
     1
 40
0.005646
 41
0.005646
  0
VERTEX
  8
PLAN_1
  6
CONTINUOUS
 10
-0.964650
 20
0.113012
  0
VERTEX
  8
PLAN_1
  6
CONTINUOUS
 10
-0.960882
 20
0.112071
  0
VERTEX
  8
PLAN_1
  6
CONTINUOUS
 10
-0.957587
 20
0.110189
  0
VERTEX
  8
PLAN_1
  6
CONTINUOUS
 10
-0.954764
 20
0.107835
  0
VERTEX
  8
PLAN_1
  6
CONTINUOUS
 10
-0.951941
 20
0.105012
  0
VERTEX
  8
PLAN_1
  6
CONTINUOUS
 10
-0.950059
 20
0.101717
  0
VERTEX
  8
PLAN_1
  6
CONTINUOUS
 10
-0.949118
 20
0.097949
  0
VERTEX
  8
PLAN_1
  6
CONTINUOUS
 10
-0.948646
 20
0.094185
  0
VERTEX
  8
PLAN_1
  6
CONTINUOUS
 10
-0.948646
 20
0.090421
  0
VERTEX
  8
PLAN_1
  6
CONTINUOUS
 10
-0.950059
 20
0.086185
  0
VERTEX
  8
PLAN_1
  6
CONTINUOUS
 10
-0.951469
 20
0.082890
  0
VERTEX
  8
PLAN_1
  6
CONTINUOUS
 10
-0.954295
 20
0.080067
  0
VERTEX
  8
PLAN_1
  6
CONTINUOUS
 10
-0.957118
 20
0.077713
  0
VERTEX
  8
PLAN_1
  6
CONTINUOUS
 10
-0.960413
 20
0.075831
  0
VERTEX
  8
PLAN_1
  6
CONTINUOUS
 10
-0.963709
 20
0.074417
  0
VERTEX
  8
PLAN_1
  6
CONTINUOUS
 10
-0.967472
 20
0.073949
  0
VERTEX
  8
PLAN_1
  6
CONTINUOUS
 10
-0.971709
 20
0.074417
  0
SEQEND
  8
0
  0
POLYLINE
  8
PLAN_1
  6
CONTINUOUS
 66
     1
 40
0.005646
 41
0.005646
  0
VERTEX
  8
PLAN_1
  6
CONTINUOUS
 10
-1.081835
 20
0.093717
  0
VERTEX
  8
PLAN_1
  6
CONTINUOUS
 10
-1.447047
 20
0.158193
  0
VERTEX
  8
PLAN_1
  6
CONTINUOUS
 10
-1.454575
 20
0.159602
  0
SEQEND
  8
0
  0
POLYLINE
  8
PLAN_1
  6
CONTINUOUS
 66
     1
 40
0.005646
 41
0.005646
  0
VERTEX
  8
PLAN_1
  6
CONTINUOUS
 10
-1.454575
 20
0.159602
  0
VERTEX
  8
PLAN_1
  6
CONTINUOUS
 10
-1.458343
 20
0.160543
  0
VERTEX
  8
PLAN_1
  6
CONTINUOUS
 10
-1.462106
 20
0.162429
  0
VERTEX
  8
PLAN_1
  6
CONTINUOUS
 10
-1.464929
 20
0.164780
  0
VERTEX
  8
PLAN_1
  6
CONTINUOUS
 10
-1.467283
 20
0.167602
  0
VERTEX
  8
PLAN_1
  6
CONTINUOUS
 10
-1.469165
 20
0.170898
  0
VERTEX
  8
PLAN_1
  6
CONTINUOUS
 10
-1.470579
 20
0.174665
  0
VERTEX
  8
PLAN_1
  6
CONTINUOUS
 10
-1.471047
 20
0.178429
  0
VERTEX
  8
PLAN_1
  6
CONTINUOUS
 10
-1.470579
 20
0.182193
  0
VERTEX
  8
PLAN_1
  6
CONTINUOUS
 10
-1.469638
 20
0.186429
  0
VERTEX
  8
PLAN_1
  6
CONTINUOUS
 10
-1.467752
 20
0.189724
  0
VERTEX
  8
PLAN_1
  6
CONTINUOUS
 10
-1.465402
 20
0.192547
  0
VERTEX
  8
PLAN_1
  6
CONTINUOUS
 10
-1.462575
 20
0.194902
  0
VERTEX
  8
PLAN_1
  6
CONTINUOUS
 10
-1.459283
 20
0.196783
  0
VERTEX
  8
PLAN_1
  6
CONTINUOUS
 10
-1.455516
 20
0.198197
  0
VERTEX
  8
PLAN_1
  6
CONTINUOUS
 10
-1.451752
 20
0.198665
  0
VERTEX
  8
PLAN_1
  6
CONTINUOUS
 10
-1.447988
 20
0.198197
  0
SEQEND
  8
0
  0
POLYLINE
  8
PLAN_1
  6
CONTINUOUS
 66
     1
 40
0.005646
 41
0.005646
  0
VERTEX
  8
PLAN_1
  6
CONTINUOUS
 10
-1.341626
 20
0.351150
  0
VERTEX
  8
PLAN_1
  6
CONTINUOUS
 10
-0.976886
 20
0.286673
  0
VERTEX
  8
PLAN_1
  6
CONTINUOUS
 10
-0.964650
 20
0.284791
  0
SEQEND
  8
0
  0
POLYLINE
  8
PLAN_1
  6
CONTINUOUS
 66
     1
 40
0.005646
 41
0.005646
  0
VERTEX
  8
PLAN_1
  6
CONTINUOUS
 10
-0.964650
 20
0.284791
  0
VERTEX
  8
PLAN_1
  6
CONTINUOUS
 10
-0.960882
 20
0.283378
  0
VERTEX
  8
PLAN_1
  6
CONTINUOUS
 10
-0.957587
 20
0.281969
  0
VERTEX
  8
PLAN_1
  6
CONTINUOUS
 10
-0.954295
 20
0.279614
  0
VERTEX
  8
PLAN_1
  6
CONTINUOUS
 10
-0.951941
 20
0.276319
  0
VERTEX
  8
PLAN_1
  6
CONTINUOUS
 10
-0.950059
 20
0.273028
  0
VERTEX
  8
PLAN_1
  6
CONTINUOUS
 10
-0.949118
 20
0.269732
  0
VERTEX
  8
PLAN_1
  6
CONTINUOUS
 10
-0.948646
 20
0.265965
  0
VERTEX
  8
PLAN_1
  6
CONTINUOUS
 10
-0.948646
 20
0.261732
  0
VERTEX
  8
PLAN_1
  6
CONTINUOUS
 10
-0.950059
 20
0.257965
  0
VERTEX
  8
PLAN_1
  6
CONTINUOUS
 10
-0.951469
 20
0.254669
  0
VERTEX
  8
PLAN_1
  6
CONTINUOUS
 10
-0.953823
 20
0.251378
  0
VERTEX
  8
PLAN_1
  6
CONTINUOUS
 10
-0.957118
 20
0.249024
  0
VERTEX
  8
PLAN_1
  6
CONTINUOUS
 10
-0.960413
 20
0.247142
  0
VERTEX
  8
PLAN_1
  6
CONTINUOUS
 10
-0.963709
 20
0.246201
  0
VERTEX
  8
PLAN_1
  6
CONTINUOUS
 10
-0.967472
 20
0.245728
  0
VERTEX
  8
PLAN_1
  6
CONTINUOUS
 10
-0.971709
 20
0.245728
  0
SEQEND
  8
0
  0
POLYLINE
  8
PLAN_1
  6
CONTINUOUS
 66
     1
 40
0.005646
 41
0.005646
  0
VERTEX
  8
PLAN_1
  6
CONTINUOUS
 10
-1.081835
 20
0.265496
  0
VERTEX
  8
PLAN_1
  6
CONTINUOUS
 10
-1.446575
 20
0.329972
  0
VERTEX
  8
PLAN_1
  6
CONTINUOUS
 10
-1.454575
 20
0.331386
  0
SEQEND
  8
0
  0
POLYLINE
  8
PLAN_1
  6
CONTINUOUS
 66
     1
 40
0.005646
 41
0.005646
  0
VERTEX
  8
PLAN_1
  6
CONTINUOUS
 10
-1.454575
 20
0.331386
  0
VERTEX
  8
PLAN_1
  6
CONTINUOUS
 10
-1.458343
 20
0.332327
  0
VERTEX
  8
PLAN_1
  6
CONTINUOUS
 10
-1.462106
 20
0.334209
  0
VERTEX
  8
PLAN_1
  6
CONTINUOUS
 10
-1.464929
 20
0.336559
  0
VERTEX
  8
PLAN_1
  6
CONTINUOUS
 10
-1.467283
 20
0.339386
  0
VERTEX
  8
PLAN_1
  6
CONTINUOUS
 10
-1.469165
 20
0.342681
  0
VERTEX
  8
PLAN_1
  6
CONTINUOUS
 10
-1.470579
 20
0.346445
  0
VERTEX
  8
PLAN_1
  6
CONTINUOUS
 10
-1.471047
 20
0.350209
  0
VERTEX
  8
PLAN_1
  6
CONTINUOUS
 10
-1.470579
 20
0.353972
  0
VERTEX
  8
PLAN_1
  6
CONTINUOUS
 10
-1.469638
 20
0.357740
  0
VERTEX
  8
PLAN_1
  6
CONTINUOUS
 10
-1.467752
 20
0.361504
  0
VERTEX
  8
PLAN_1
  6
CONTINUOUS
 10
-1.465402
 20
0.364327
  0
VERTEX
  8
PLAN_1
  6
CONTINUOUS
 10
-1.462575
 20
0.366681
  0
VERTEX
  8
PLAN_1
  6
CONTINUOUS
 10
-1.459283
 20
0.368563
  0
VERTEX
  8
PLAN_1
  6
CONTINUOUS
 10
-1.455516
 20
0.369976
  0
VERTEX
  8
PLAN_1
  6
CONTINUOUS
 10
-1.451752
 20
0.370445
  0
VERTEX
  8
PLAN_1
  6
CONTINUOUS
 10
-1.447988
 20
0.369976
  0
SEQEND
  8
0
  0
POLYLINE
  8
PLAN_1
 62
     2
  6
CONTINUOUS
 66
     1
 40
0.004232
 41
0.004232
  0
VERTEX
  8
PLAN_1
 62
     2
  6
CONTINUOUS
 10
0.092862
 20
0.603409
  0
VERTEX
  8
PLAN_1
 62
     2
  6
CONTINUOUS
 10
0.092862
 20
3.448850
  0
SEQEND
  8
0
  0
SOLID
  8
PLAN_1
 62
     2
 10
0.092862
 20
3.478028
 11
0.077331
 21
3.419201
 12
0.092862
 22
3.478028
 13
0.108862
 23
3.419201
  0
POLYLINE
  8
PLAN_1
 62
     2
  6
CONTINUOUS
 66
     1
 40
0.003000
 41
0.003000
  0
VERTEX
  8
PLAN_1
 62
     2
  6
CONTINUOUS
 10
0.092862
 20
3.478028
  0
VERTEX
  8
PLAN_1
 62
     2
  6
CONTINUOUS
 10
0.077331
 20
3.419201
  0
VERTEX
  8
PLAN_1
 62
     2
  6
CONTINUOUS
 10
0.108862
 20
3.419201
  0
VERTEX
  8
PLAN_1
 62
     2
  6
CONTINUOUS
 10
0.092862
 20
3.478028
  0
SEQEND
  8
0
  0
SOLID
  8
PLAN_1
 62
     2
 10
0.092862
 20
0.573760
 11
0.077331
 21
0.632587
 12
0.092862
 22
0.573760
 13
0.108862
 23
0.632587
  0
POLYLINE
  8
PLAN_1
 62
     2
  6
CONTINUOUS
 66
     1
 40
0.003000
 41
0.003000
  0
VERTEX
  8
PLAN_1
 62
     2
  6
CONTINUOUS
 10
0.092862
 20
0.573760
  0
VERTEX
  8
PLAN_1
 62
     2
  6
CONTINUOUS
 10
0.077331
 20
0.632587
  0
VERTEX
  8
PLAN_1
 62
     2
  6
CONTINUOUS
 10
0.108862
 20
0.632587
  0
VERTEX
  8
PLAN_1
 62
     2
  6
CONTINUOUS
 10
0.092862
 20
0.573760
  0
SEQEND
  8
0
  0
POLYLINE
  8
PLAN_1
 62
     2
  6
CONTINUOUS
 66
     1
 40
0.003000
 41
0.003000
  0
VERTEX
  8
PLAN_1
 62
     2
  6
CONTINUOUS
 10
-0.002205
 20
1.928709
  0
VERTEX
  8
PLAN_1
 62
     2
  6
CONTINUOUS
 10
-0.002205
 20
1.979067
  0
VERTEX
  8
PLAN_1
 62
     2
  6
CONTINUOUS
 10
0.005795
 20
1.979067
  0
VERTEX
  8
PLAN_1
 62
     2
  6
CONTINUOUS
 10
0.009559
 20
1.975772
  0
VERTEX
  8
PLAN_1
 62
     2
  6
CONTINUOUS
 10
0.014268
 20
1.972008
  0
VERTEX
  8
PLAN_1
 62
     2
  6
CONTINUOUS
 10
0.020854
 20
1.967772
  0
VERTEX
  8
PLAN_1
 62
     2
  6
CONTINUOUS
 10
0.028386
 20
1.963063
  0
VERTEX
  8
PLAN_1
 62
     2
  6
CONTINUOUS
 10
0.036858
 20
1.958831
  0
VERTEX
  8
PLAN_1
 62
     2
  6
CONTINUOUS
 10
0.046740
 20
1.955063
  0
VERTEX
  8
PLAN_1
 62
     2
  6
CONTINUOUS
 10
0.051917
 20
1.953181
  0
VERTEX
  8
PLAN_1
 62
     2
  6
CONTINUOUS
 10
0.057563
 20
1.951299
  0
VERTEX
  8
PLAN_1
 62
     2
  6
CONTINUOUS
 10
0.063213
 20
1.950358
  0
VERTEX
  8
PLAN_1
 62
     2
  6
CONTINUOUS
 10
0.069331
 20
1.948945
  0
VERTEX
  8
PLAN_1
 62
     2
  6
CONTINUOUS
 10
0.069331
 20
1.939063
  0
VERTEX
  8
PLAN_1
 62
     2
  6
CONTINUOUS
 10
0.061799
 20
1.940472
  0
VERTEX
  8
PLAN_1
 62
     2
  6
CONTINUOUS
 10
0.053327
 20
1.942827
  0
VERTEX
  8
PLAN_1
 62
     2
  6
CONTINUOUS
 10
0.044858
 20
1.945650
  0
VERTEX
  8
PLAN_1
 62
     2
  6
CONTINUOUS
 10
0.036858
 20
1.949417
  0
VERTEX
  8
PLAN_1
 62
     2
  6
CONTINUOUS
 10
0.028386
 20
1.953654
  0
VERTEX
  8
PLAN_1
 62
     2
  6
CONTINUOUS
 10
0.020854
 20
1.958358
  0
VERTEX
  8
PLAN_1
 62
     2
  6
CONTINUOUS
 10
0.013327
 20
1.963535
  0
VERTEX
  8
PLAN_1
 62
     2
  6
CONTINUOUS
 10
0.006736
 20
1.968713
  0
VERTEX
  8
PLAN_1
 62
     2
  6
CONTINUOUS
 10
0.006736
 20
1.928709
  0
VERTEX
  8
PLAN_1
 62
     2
  6
CONTINUOUS
 10
-0.002205
 20
1.928709
  0
SEQEND
  8
0
  0
POLYLINE
  8
PLAN_1
 62
     2
  6
CONTINUOUS
 66
     1
 40
0.003000
 41
0.003000
  0
VERTEX
  8
PLAN_1
 62
     2
  6
CONTINUOUS
 10
0.015677
 20
2.026130
  0
VERTEX
  8
PLAN_1
 62
     2
  6
CONTINUOUS
 10
0.013327
 20
2.025189
  0
VERTEX
  8
PLAN_1
 62
     2
  6
CONTINUOUS
 10
0.011441
 20
2.024717
  0
VERTEX
  8
PLAN_1
 62
     2
  6
CONTINUOUS
 10
0.009559
 20
2.023307
  0
VERTEX
  8
PLAN_1
 62
     2
  6
CONTINUOUS
 10
0.007677
 20
2.022362
  0
VERTEX
  8
PLAN_1
 62
     2
  6
CONTINUOUS
 10
0.006264
 20
2.020480
  0
VERTEX
  8
PLAN_1
 62
     2
  6
CONTINUOUS
 10
0.005323
 20
2.018598
  0
VERTEX
  8
PLAN_1
 62
     2
  6
CONTINUOUS
 10
0.004854
 20
2.016244
  0
VERTEX
  8
PLAN_1
 62
     2
  6
CONTINUOUS
 10
0.004382
 20
2.013421
  0
VERTEX
  8
PLAN_1
 62
     2
  6
CONTINUOUS
 10
0.004854
 20
2.010598
  0
VERTEX
  8
PLAN_1
 62
     2
  6
CONTINUOUS
 10
0.005323
 20
2.008244
  0
VERTEX
  8
PLAN_1
 62
     2
  6
CONTINUOUS
 10
0.006264
 20
2.006362
  0
VERTEX
  8
PLAN_1
 62
     2
  6
CONTINUOUS
 10
0.007677
 20
2.004480
  0
VERTEX
  8
PLAN_1
 62
     2
  6
CONTINUOUS
 10
0.009091
 20
2.003067
  0
VERTEX
  8
PLAN_1
 62
     2
  6
CONTINUOUS
 10
0.010972
 20
2.001657
  0
VERTEX
  8
PLAN_1
 62
     2
  6
CONTINUOUS
 10
0.012854
 20
2.000244
  0
VERTEX
  8
PLAN_1
 62
     2
  6
CONTINUOUS
 10
0.015209
 20
1.999303
  0
VERTEX
  8
PLAN_1
 62
     2
  6
CONTINUOUS
 10
0.019445
 20
1.997890
  0
VERTEX
  8
PLAN_1
 62
     2
  6
CONTINUOUS
 10
0.024150
 20
1.996480
  0
VERTEX
  8
PLAN_1
 62
     2
  6
CONTINUOUS
 10
0.028386
 20
1.996008
  0
VERTEX
  8
PLAN_1
 62
     2
  6
CONTINUOUS
 10
0.031681
 20
1.996008
  0
VERTEX
  8
PLAN_1
 62
     2
  6
CONTINUOUS
 10
0.030268
 20
1.996949
  0
VERTEX
  8
PLAN_1
 62
     2
  6
CONTINUOUS
 10
0.028854
 20
1.998362
  0
VERTEX
  8
PLAN_1
 62
     2
  6
CONTINUOUS
 10
0.026972
 20
2.000244
  0
VERTEX
  8
PLAN_1
 62
     2
  6
CONTINUOUS
 10
0.026031
 20
2.002126
  0
VERTEX
  8
PLAN_1
 62
     2
  6
CONTINUOUS
 10
0.024618
 20
2.004480
  0
VERTEX
  8
PLAN_1
 62
     2
  6
CONTINUOUS
 10
0.023677
 20
2.006835
  0
VERTEX
  8
PLAN_1
 62
     2
  6
CONTINUOUS
 10
0.023209
 20
2.010126
  0
VERTEX
  8
PLAN_1
 62
     2
  6
CONTINUOUS
 10
0.022736
 20
2.013421
  0
VERTEX
  8
PLAN_1
 62
     2
  6
CONTINUOUS
 10
0.023209
 20
2.017189
  0
VERTEX
  8
PLAN_1
 62
     2
  6
CONTINUOUS
 10
0.024150
 20
2.020953
  0
VERTEX
  8
PLAN_1
 62
     2
  6
CONTINUOUS
 10
0.025563
 20
2.024717
  0
VERTEX
  8
PLAN_1
 62
     2
  6
CONTINUOUS
 10
0.027913
 20
2.028484
  0
VERTEX
  8
PLAN_1
 62
     2
  6
CONTINUOUS
 10
0.029327
 20
2.029894
  0
VERTEX
  8
PLAN_1
 62
     2
  6
CONTINUOUS
 10
0.031209
 20
2.031776
  0
VERTEX
  8
PLAN_1
 62
     2
  6
CONTINUOUS
 10
0.033091
 20
2.032717
  0
VERTEX
  8
PLAN_1
 62
     2
  6
CONTINUOUS
 10
0.034972
 20
2.034130
  0
VERTEX
  8
PLAN_1
 62
     2
  6
CONTINUOUS
 10
0.037327
 20
2.035071
  0
VERTEX
  8
PLAN_1
 62
     2
  6
CONTINUOUS
 10
0.040150
 20
2.036012
  0
VERTEX
  8
PLAN_1
 62
     2
  6
CONTINUOUS
 10
0.042976
 20
2.036484
  0
VERTEX
  8
PLAN_1
 62
     2
  6
CONTINUOUS
 10
0.045799
 20
2.036484
  0
VERTEX
  8
PLAN_1
 62
     2
  6
CONTINUOUS
 10
0.048622
 20
2.036484
  0
VERTEX
  8
PLAN_1
 62
     2
  6
CONTINUOUS
 10
0.051445
 20
2.036012
  0
VERTEX
  8
PLAN_1
 62
     2
  6
CONTINUOUS
 10
0.053799
 20
2.035543
  0
VERTEX
  8
PLAN_1
 62
     2
  6
CONTINUOUS
 10
0.056154
 20
2.034602
  0
VERTEX
  8
PLAN_1
 62
     2
  6
CONTINUOUS
 10
0.058035
 20
2.033657
  0
VERTEX
  8
PLAN_1
 62
     2
  6
CONTINUOUS
 10
0.060390
 20
2.032717
  0
VERTEX
  8
PLAN_1
 62
     2
  6
CONTINUOUS
 10
0.062272
 20
2.031307
  0
VERTEX
  8
PLAN_1
 62
     2
  6
CONTINUOUS
 10
0.064154
 20
2.029425
  0
VERTEX
  8
PLAN_1
 62
     2
  6
CONTINUOUS
 10
0.066035
 20
2.028012
  0
VERTEX
  8
PLAN_1
 62
     2
  6
CONTINUOUS
 10
0.067449
 20
2.026598
  0
VERTEX
  8
PLAN_1
 62
     2
  6
CONTINUOUS
 10
0.068390
 20
2.024717
  0
VERTEX
  8
PLAN_1
 62
     2
  6
CONTINUOUS
 10
0.069331
 20
2.022835
  0
VERTEX
  8
PLAN_1
 62
     2
  6
CONTINUOUS
 10
0.070272
 20
2.020480
  0
VERTEX
  8
PLAN_1
 62
     2
  6
CONTINUOUS
 10
0.070740
 20
2.017657
  0
VERTEX
  8
PLAN_1
 62
     2
  6
CONTINUOUS
 10
0.071213
 20
2.014362
  0
VERTEX
  8
PLAN_1
 62
     2
  6
CONTINUOUS
 10
0.071213
 20
2.011071
  0
VERTEX
  8
PLAN_1
 62
     2
  6
CONTINUOUS
 10
0.071213
 20
2.008717
  0
VERTEX
  8
PLAN_1
 62
     2
  6
CONTINUOUS
 10
0.070740
 20
2.006362
  0
VERTEX
  8
PLAN_1
 62
     2
  6
CONTINUOUS
 10
0.070272
 20
2.004008
  0
VERTEX
  8
PLAN_1
 62
     2
  6
CONTINUOUS
 10
0.069331
 20
2.001185
  0
VERTEX
  8
PLAN_1
 62
     2
  6
CONTINUOUS
 10
0.067917
 20
1.998831
  0
VERTEX
  8
PLAN_1
 62
     2
  6
CONTINUOUS
 10
0.066035
 20
1.996480
  0
VERTEX
  8
PLAN_1
 62
     2
  6
CONTINUOUS
 10
0.063681
 20
1.994126
  0
VERTEX
  8
PLAN_1
 62
     2
  6
CONTINUOUS
 10
0.060858
 20
1.992244
  0
VERTEX
  8
PLAN_1
 62
     2
  6
CONTINUOUS
 10
0.058035
 20
1.990831
  0
VERTEX
  8
PLAN_1
 62
     2
  6
CONTINUOUS
 10
0.055213
 20
1.989421
  0
VERTEX
  8
PLAN_1
 62
     2
  6
CONTINUOUS
 10
0.052386
 20
1.988480
  0
VERTEX
  8
PLAN_1
 62
     2
  6
CONTINUOUS
 10
0.049094
 20
1.987539
  0
VERTEX
  8
PLAN_1
 62
     2
  6
CONTINUOUS
 10
0.045799
 20
1.987067
  0
VERTEX
  8
PLAN_1
 62
     2
  6
CONTINUOUS
 10
0.042504
 20
1.986594
  0
VERTEX
  8
PLAN_1
 62
     2
  6
CONTINUOUS
 10
0.038740
 20
1.986594
  0
VERTEX
  8
PLAN_1
 62
     2
  6
CONTINUOUS
 10
0.035445
 20
1.986594
  0
VERTEX
  8
PLAN_1
 62
     2
  6
CONTINUOUS
 10
0.029327
 20
1.986594
  0
VERTEX
  8
PLAN_1
 62
     2
  6
CONTINUOUS
 10
0.022736
 20
1.987539
  0
VERTEX
  8
PLAN_1
 62
     2
  6
CONTINUOUS
 10
0.019445
 20
1.988480
  0
VERTEX
  8
PLAN_1
 62
     2
  6
CONTINUOUS
 10
0.016150
 20
1.989421
  0
VERTEX
  8
PLAN_1
 62
     2
  6
CONTINUOUS
 10
0.012854
 20
1.990362
  0
VERTEX
  8
PLAN_1
 62
     2
  6
CONTINUOUS
 10
0.010031
 20
1.991772
  0
VERTEX
  8
PLAN_1
 62
     2
  6
CONTINUOUS
 10
0.007205
 20
1.993657
  0
VERTEX
  8
PLAN_1
 62
     2
  6
CONTINUOUS
 10
0.004382
 20
1.995539
  0
VERTEX
  8
PLAN_1
 62
     2
  6
CONTINUOUS
 10
0.002031
 20
1.997421
  0
VERTEX
  8
PLAN_1
 62
     2
  6
CONTINUOUS
 10
0.000146
 20
2.000244
  0
VERTEX
  8
PLAN_1
 62
     2
  6
CONTINUOUS
 10
-0.001264
 20
2.003067
  0
VERTEX
  8
PLAN_1
 62
     2
  6
CONTINUOUS
 10
-0.002677
 20
2.005894
  0
VERTEX
  8
PLAN_1
 62
     2
  6
CONTINUOUS
 10
-0.003618
 20
2.009657
  0
VERTEX
  8
PLAN_1
 62
     2
  6
CONTINUOUS
 10
-0.003618
 20
2.013421
  0
VERTEX
  8
PLAN_1
 62
     2
  6
CONTINUOUS
 10
-0.003618
 20
2.016717
  0
VERTEX
  8
PLAN_1
 62
     2
  6
CONTINUOUS
 10
-0.002677
 20
2.020480
  0
VERTEX
  8
PLAN_1
 62
     2
  6
CONTINUOUS
 10
-0.001264
 20
2.023776
  0
VERTEX
  8
PLAN_1
 62
     2
  6
CONTINUOUS
 10
0.000618
 20
2.027071
  0
VERTEX
  8
PLAN_1
 62
     2
  6
CONTINUOUS
 10
0.002972
 20
2.029894
  0
VERTEX
  8
PLAN_1
 62
     2
  6
CONTINUOUS
 10
0.006264
 20
2.032248
  0
VERTEX
  8
PLAN_1
 62
     2
  6
CONTINUOUS
 10
0.008618
 20
2.033189
  0
VERTEX
  8
PLAN_1
 62
     2
  6
CONTINUOUS
 10
0.010500
 20
2.034130
  0
VERTEX
  8
PLAN_1
 62
     2
  6
CONTINUOUS
 10
0.012854
 20
2.034602
  0
VERTEX
  8
PLAN_1
 62
     2
  6
CONTINUOUS
 10
0.015677
 20
2.035071
  0
VERTEX
  8
PLAN_1
 62
     2
  6
CONTINUOUS
 10
0.015677
 20
2.026130
  0
SEQEND
  8
0
  0
POLYLINE
  8
PLAN_1
 62
     2
  6
CONTINUOUS
 66
     1
 40
0.003000
 41
0.003000
  0
VERTEX
  8
PLAN_1
 62
     2
  6
CONTINUOUS
 10
0.063213
 20
2.012480
  0
VERTEX
  8
PLAN_1
 62
     2
  6
CONTINUOUS
 10
0.062740
 20
2.015776
  0
VERTEX
  8
PLAN_1
 62
     2
  6
CONTINUOUS
 10
0.061799
 20
2.018598
  0
VERTEX
  8
PLAN_1
 62
     2
  6
CONTINUOUS
 10
0.060390
 20
2.020953
  0
VERTEX
  8
PLAN_1
 62
     2
  6
CONTINUOUS
 10
0.058504
 20
2.022835
  0
VERTEX
  8
PLAN_1
 62
     2
  6
CONTINUOUS
 10
0.056154
 20
2.024717
  0
VERTEX
  8
PLAN_1
 62
     2
  6
CONTINUOUS
 10
0.053327
 20
2.026130
  0
VERTEX
  8
PLAN_1
 62
     2
  6
CONTINUOUS
 10
0.050035
 20
2.026598
  0
VERTEX
  8
PLAN_1
 62
     2
  6
CONTINUOUS
 10
0.046268
 20
2.027071
  0
VERTEX
  8
PLAN_1
 62
     2
  6
CONTINUOUS
 10
0.043917
 20
2.026598
  0
VERTEX
  8
PLAN_1
 62
     2
  6
CONTINUOUS
 10
0.041091
 20
2.026130
  0
VERTEX
  8
PLAN_1
 62
     2
  6
CONTINUOUS
 10
0.038740
 20
2.025189
  0
VERTEX
  8
PLAN_1
 62
     2
  6
CONTINUOUS
 10
0.036386
 20
2.023776
  0
VERTEX
  8
PLAN_1
 62
     2
  6
CONTINUOUS
 10
0.034031
 20
2.021894
  0
VERTEX
  8
PLAN_1
 62
     2
  6
CONTINUOUS
 10
0.032622
 20
2.019071
  0
VERTEX
  8
PLAN_1
 62
     2
  6
CONTINUOUS
 10
0.031209
 20
2.016244
  0
VERTEX
  8
PLAN_1
 62
     2
  6
CONTINUOUS
 10
0.031209
 20
2.012012
  0
VERTEX
  8
PLAN_1
 62
     2
  6
CONTINUOUS
 10
0.031209
 20
2.008717
  0
VERTEX
  8
PLAN_1
 62
     2
  6
CONTINUOUS
 10
0.032150
 20
2.005421
  0
VERTEX
  8
PLAN_1
 62
     2
  6
CONTINUOUS
 10
0.033563
 20
2.003067
  0
VERTEX
  8
PLAN_1
 62
     2
  6
CONTINUOUS
 10
0.035913
 20
2.000717
  0
VERTEX
  8
PLAN_1
 62
     2
  6
CONTINUOUS
 10
0.038268
 20
1.999303
  0
VERTEX
  8
PLAN_1
 62
     2
  6
CONTINUOUS
 10
0.040622
 20
1.998362
  0
VERTEX
  8
PLAN_1
 62
     2
  6
CONTINUOUS
 10
0.043917
 20
1.997421
  0
VERTEX
  8
PLAN_1
 62
     2
  6
CONTINUOUS
 10
0.046740
 20
1.997421
  0
VERTEX
  8
PLAN_1
 62
     2
  6
CONTINUOUS
 10
0.050035
 20
1.997421
  0
VERTEX
  8
PLAN_1
 62
     2
  6
CONTINUOUS
 10
0.052858
 20
1.997890
  0
VERTEX
  8
PLAN_1
 62
     2
  6
CONTINUOUS
 10
0.055681
 20
1.999303
  0
VERTEX
  8
PLAN_1
 62
     2
  6
CONTINUOUS
 10
0.058035
 20
2.000717
  0
VERTEX
  8
PLAN_1
 62
     2
  6
CONTINUOUS
 10
0.059917
 20
2.003067
  0
VERTEX
  8
PLAN_1
 62
     2
  6
CONTINUOUS
 10
0.061799
 20
2.005894
  0
VERTEX
  8
PLAN_1
 62
     2
  6
CONTINUOUS
 10
0.062740
 20
2.008717
  0
VERTEX
  8
PLAN_1
 62
     2
  6
CONTINUOUS
 10
0.063213
 20
2.012480
  0
SEQEND
  8
0
  0
POLYLINE
  8
PLAN_1
 62
     2
  6
CONTINUOUS
 66
     1
 40
0.003000
 41
0.003000
  0
VERTEX
  8
PLAN_1
 62
     2
  6
CONTINUOUS
 10
0.058504
 20
2.049661
  0
VERTEX
  8
PLAN_1
 62
     2
  6
CONTINUOUS
 10
0.058504
 20
2.060484
  0
VERTEX
  8
PLAN_1
 62
     2
  6
CONTINUOUS
 10
0.068390
 20
2.060484
  0
VERTEX
  8
PLAN_1
 62
     2
  6
CONTINUOUS
 10
0.073094
 20
2.060016
  0
VERTEX
  8
PLAN_1
 62
     2
  6
CONTINUOUS
 10
0.076858
 20
2.059075
  0
VERTEX
  8
PLAN_1
 62
     2
  6
CONTINUOUS
 10
0.079685
 20
2.057189
  0
VERTEX
  8
PLAN_1
 62
     2
  6
CONTINUOUS
 10
0.082035
 20
2.055780
  0
VERTEX
  8
PLAN_1
 62
     2
  6
CONTINUOUS
 10
0.082980
 20
2.053898
  0
VERTEX
  8
PLAN_1
 62
     2
  6
CONTINUOUS
 10
0.083921
 20
2.052016
  0
VERTEX
  8
PLAN_1
 62
     2
  6
CONTINUOUS
 10
0.084390
 20
2.050602
  0
VERTEX
  8
PLAN_1
 62
     2
  6
CONTINUOUS
 10
0.084862
 20
2.049661
  0
VERTEX
  8
PLAN_1
 62
     2
  6
CONTINUOUS
 10
0.080154
 20
2.049661
  0
VERTEX
  8
PLAN_1
 62
     2
  6
CONTINUOUS
 10
0.079685
 20
2.051071
  0
VERTEX
  8
PLAN_1
 62
     2
  6
CONTINUOUS
 10
0.078744
 20
2.052016
  0
VERTEX
  8
PLAN_1
 62
     2
  6
CONTINUOUS
 10
0.077803
 20
2.052957
  0
VERTEX
  8
PLAN_1
 62
     2
  6
CONTINUOUS
 10
0.076390
 20
2.053898
  0
VERTEX
  8
PLAN_1
 62
     2
  6
CONTINUOUS
 10
0.074976
 20
2.054366
  0
VERTEX
  8
PLAN_1
 62
     2
  6
CONTINUOUS
 10
0.073094
 20
2.054839
  0
VERTEX
  8
PLAN_1
 62
     2
  6
CONTINUOUS
 10
0.071213
 20
2.054839
  0
VERTEX
  8
PLAN_1
 62
     2
  6
CONTINUOUS
 10
0.069331
 20
2.054839
  0
VERTEX
  8
PLAN_1
 62
     2
  6
CONTINUOUS
 10
0.069331
 20
2.049661
  0
VERTEX
  8
PLAN_1
 62
     2
  6
CONTINUOUS
 10
0.058504
 20
2.049661
  0
SEQEND
  8
0
  0
POLYLINE
  8
PLAN_1
 62
     2
  6
CONTINUOUS
 66
     1
 40
0.003000
 41
0.003000
  0
VERTEX
  8
PLAN_1
 62
     2
  6
CONTINUOUS
 10
0.026972
 20
2.084488
  0
VERTEX
  8
PLAN_1
 62
     2
  6
CONTINUOUS
 10
0.026031
 20
2.085898
  0
VERTEX
  8
PLAN_1
 62
     2
  6
CONTINUOUS
 10
0.025091
 20
2.087311
  0
VERTEX
  8
PLAN_1
 62
     2
  6
CONTINUOUS
 10
0.024150
 20
2.088724
  0
VERTEX
  8
PLAN_1
 62
     2
  6
CONTINUOUS
 10
0.023677
 20
2.090606
  0
VERTEX
  8
PLAN_1
 62
     2
  6
CONTINUOUS
 10
0.023209
 20
2.092488
  0
VERTEX
  8
PLAN_1
 62
     2
  6
CONTINUOUS
 10
0.022736
 20
2.094370
  0
VERTEX
  8
PLAN_1
 62
     2
  6
CONTINUOUS
 10
0.022268
 20
2.096252
  0
VERTEX
  8
PLAN_1
 62
     2
  6
CONTINUOUS
 10
0.022268
 20
2.098606
  0
VERTEX
  8
PLAN_1
 62
     2
  6
CONTINUOUS
 10
0.022736
 20
2.103311
  0
VERTEX
  8
PLAN_1
 62
     2
  6
CONTINUOUS
 10
0.023677
 20
2.107547
  0
VERTEX
  8
PLAN_1
 62
     2
  6
CONTINUOUS
 10
0.025563
 20
2.111783
  0
VERTEX
  8
PLAN_1
 62
     2
  6
CONTINUOUS
 10
0.028386
 20
2.115079
  0
VERTEX
  8
PLAN_1
 62
     2
  6
CONTINUOUS
 10
0.029795
 20
2.116961
  0
VERTEX
  8
PLAN_1
 62
     2
  6
CONTINUOUS
 10
0.031681
 20
2.118374
  0
VERTEX
  8
PLAN_1
 62
     2
  6
CONTINUOUS
 10
0.033563
 20
2.119783
  0
VERTEX
  8
PLAN_1
 62
     2
  6
CONTINUOUS
 10
0.035913
 20
2.120724
  0
VERTEX
  8
PLAN_1
 62
     2
  6
CONTINUOUS
 10
0.037799
 20
2.121669
  0
VERTEX
  8
PLAN_1
 62
     2
  6
CONTINUOUS
 10
0.040150
 20
2.122138
  0
VERTEX
  8
PLAN_1
 62
     2
  6
CONTINUOUS
 10
0.042976
 20
2.122610
  0
VERTEX
  8
PLAN_1
 62
     2
  6
CONTINUOUS
 10
0.045799
 20
2.122610
  0
VERTEX
  8
PLAN_1
 62
     2
  6
CONTINUOUS
 10
0.049094
 20
2.122610
  0
VERTEX
  8
PLAN_1
 62
     2
  6
CONTINUOUS
 10
0.053327
 20
2.121669
  0
VERTEX
  8
PLAN_1
 62
     2
  6
CONTINUOUS
 10
0.057563
 20
2.120256
  0
VERTEX
  8
PLAN_1
 62
     2
  6
CONTINUOUS
 10
0.061799
 20
2.118374
  0
VERTEX
  8
PLAN_1
 62
     2
  6
CONTINUOUS
 10
0.063681
 20
2.116492
  0
VERTEX
  8
PLAN_1
 62
     2
  6
CONTINUOUS
 10
0.065567
 20
2.114606
  0
VERTEX
  8
PLAN_1
 62
     2
  6
CONTINUOUS
 10
0.066976
 20
2.112724
  0
VERTEX
  8
PLAN_1
 62
     2
  6
CONTINUOUS
 10
0.068390
 20
2.109902
  0
VERTEX
  8
PLAN_1
 62
     2
  6
CONTINUOUS
 10
0.069799
 20
2.107079
  0
VERTEX
  8
PLAN_1
 62
     2
  6
CONTINUOUS
 10
0.070740
 20
2.103783
  0
VERTEX
  8
PLAN_1
 62
     2
  6
CONTINUOUS
 10
0.071213
 20
2.100488
  0
VERTEX
  8
PLAN_1
 62
     2
  6
CONTINUOUS
 10
0.071213
 20
2.096252
  0
VERTEX
  8
PLAN_1
 62
     2
  6
CONTINUOUS
 10
0.071213
 20
2.092488
  0
VERTEX
  8
PLAN_1
 62
     2
  6
CONTINUOUS
 10
0.070740
 20
2.088724
  0
VERTEX
  8
PLAN_1
 62
     2
  6
CONTINUOUS
 10
0.069331
 20
2.084957
  0
VERTEX
  8
PLAN_1
 62
     2
  6
CONTINUOUS
 10
0.067449
 20
2.081665
  0
VERTEX
  8
PLAN_1
 62
     2
  6
CONTINUOUS
 10
0.066035
 20
2.079780
  0
VERTEX
  8
PLAN_1
 62
     2
  6
CONTINUOUS
 10
0.064622
 20
2.078370
  0
VERTEX
  8
PLAN_1
 62
     2
  6
CONTINUOUS
 10
0.063213
 20
2.076957
  0
VERTEX
  8
PLAN_1
 62
     2
  6
CONTINUOUS
 10
0.061331
 20
2.075547
  0
VERTEX
  8
PLAN_1
 62
     2
  6
CONTINUOUS
 10
0.058976
 20
2.074602
  0
VERTEX
  8
PLAN_1
 62
     2
  6
CONTINUOUS
 10
0.056622
 20
2.073661
  0
VERTEX
  8
PLAN_1
 62
     2
  6
CONTINUOUS
 10
0.054272
 20
2.073193
  0
VERTEX
  8
PLAN_1
 62
     2
  6
CONTINUOUS
 10
0.051445
 20
2.072720
  0
VERTEX
  8
PLAN_1
 62
     2
  6
CONTINUOUS
 10
0.051445
 20
2.082134
  0
VERTEX
  8
PLAN_1
 62
     2
  6
CONTINUOUS
 10
0.054272
 20
2.082606
  0
VERTEX
  8
PLAN_1
 62
     2
  6
CONTINUOUS
 10
0.056622
 20
2.084016
  0
VERTEX
  8
PLAN_1
 62
     2
  6
CONTINUOUS
 10
0.058976
 20
2.085429
  0
VERTEX
  8
PLAN_1
 62
     2
  6
CONTINUOUS
 10
0.060390
 20
2.087311
  0
VERTEX
  8
PLAN_1
 62
     2
  6
CONTINUOUS
 10
0.061799
 20
2.089193
  0
VERTEX
  8
PLAN_1
 62
     2
  6
CONTINUOUS
 10
0.062740
 20
2.092016
  0
VERTEX
  8
PLAN_1
 62
     2
  6
CONTINUOUS
 10
0.063213
 20
2.094843
  0
VERTEX
  8
PLAN_1
 62
     2
  6
CONTINUOUS
 10
0.063681
 20
2.097665
  0
VERTEX
  8
PLAN_1
 62
     2
  6
CONTINUOUS
 10
0.063213
 20
2.100961
  0
VERTEX
  8
PLAN_1
 62
     2
  6
CONTINUOUS
 10
0.062272
 20
2.104256
  0
VERTEX
  8
PLAN_1
 62
     2
  6
CONTINUOUS
 10
0.060390
 20
2.106606
  0
VERTEX
  8
PLAN_1
 62
     2
  6
CONTINUOUS
 10
0.058504
 20
2.108961
  0
VERTEX
  8
PLAN_1
 62
     2
  6
CONTINUOUS
 10
0.056154
 20
2.110843
  0
VERTEX
  8
PLAN_1
 62
     2
  6
CONTINUOUS
 10
0.053327
 20
2.111783
  0
VERTEX
  8
PLAN_1
 62
     2
  6
CONTINUOUS
 10
0.050035
 20
2.112724
  0
VERTEX
  8
PLAN_1
 62
     2
  6
CONTINUOUS
 10
0.046740
 20
2.113197
  0
VERTEX
  8
PLAN_1
 62
     2
  6
CONTINUOUS
 10
0.042976
 20
2.112724
  0
VERTEX
  8
PLAN_1
 62
     2
  6
CONTINUOUS
 10
0.039681
 20
2.111783
  0
VERTEX
  8
PLAN_1
 62
     2
  6
CONTINUOUS
 10
0.036858
 20
2.110374
  0
VERTEX
  8
PLAN_1
 62
     2
  6
CONTINUOUS
 10
0.034504
 20
2.108488
  0
VERTEX
  8
PLAN_1
 62
     2
  6
CONTINUOUS
 10
0.033091
 20
2.106138
  0
VERTEX
  8
PLAN_1
 62
     2
  6
CONTINUOUS
 10
0.031681
 20
2.103311
  0
VERTEX
  8
PLAN_1
 62
     2
  6
CONTINUOUS
 10
0.030740
 20
2.100020
  0
VERTEX
  8
PLAN_1
 62
     2
  6
CONTINUOUS
 10
0.030740
 20
2.096724
  0
VERTEX
  8
PLAN_1
 62
     2
  6
CONTINUOUS
 10
0.030740
 20
2.094843
  0
VERTEX
  8
PLAN_1
 62
     2
  6
CONTINUOUS
 10
0.030740
 20
2.092961
  0
VERTEX
  8
PLAN_1
 62
     2
  6
CONTINUOUS
 10
0.031681
 20
2.091075
  0
VERTEX
  8
PLAN_1
 62
     2
  6
CONTINUOUS
 10
0.032150
 20
2.089193
  0
VERTEX
  8
PLAN_1
 62
     2
  6
CONTINUOUS
 10
0.033091
 20
2.087783
  0
VERTEX
  8
PLAN_1
 62
     2
  6
CONTINUOUS
 10
0.034504
 20
2.085898
  0
VERTEX
  8
PLAN_1
 62
     2
  6
CONTINUOUS
 10
0.035913
 20
2.084488
  0
VERTEX
  8
PLAN_1
 62
     2
  6
CONTINUOUS
 10
0.037327
 20
2.083075
  0
VERTEX
  8
PLAN_1
 62
     2
  6
CONTINUOUS
 10
0.036858
 20
2.075547
  0
VERTEX
  8
PLAN_1
 62
     2
  6
CONTINUOUS
 10
-0.002205
 20
2.080724
  0
VERTEX
  8
PLAN_1
 62
     2
  6
CONTINUOUS
 10
-0.002205
 20
2.118843
  0
VERTEX
  8
PLAN_1
 62
     2
  6
CONTINUOUS
 10
0.006736
 20
2.118843
  0
VERTEX
  8
PLAN_1
 62
     2
  6
CONTINUOUS
 10
0.006736
 20
2.087783
  0
VERTEX
  8
PLAN_1
 62
     2
  6
CONTINUOUS
 10
0.026972
 20
2.084488
  0
SEQEND
  8
0
  0
POLYLINE
  8
PLAN_1
 62
     2
  6
CONTINUOUS
 66
     1
 40
0.004232
 41
0.004232
  0
VERTEX
  8
PLAN_1
 62
     2
  6
CONTINUOUS
 10
-0.064331
 20
1.337126
  0
VERTEX
  8
PLAN_1
 62
     2
  6
CONTINUOUS
 10
-0.064331
 20
3.448378
  0
SEQEND
  8
0
  0
SOLID
  8
PLAN_1
 62
     2
 10
-0.064331
 20
3.478028
 11
-0.080331
 21
3.418728
 12
-0.064331
 22
3.478028
 13
-0.048799
 23
3.418728
  0
POLYLINE
  8
PLAN_1
 62
     2
  6
CONTINUOUS
 66
     1
 40
0.003000
 41
0.003000
  0
VERTEX
  8
PLAN_1
 62
     2
  6
CONTINUOUS
 10
-0.064331
 20
3.478028
  0
VERTEX
  8
PLAN_1
 62
     2
  6
CONTINUOUS
 10
-0.080331
 20
3.418728
  0
VERTEX
  8
PLAN_1
 62
     2
  6
CONTINUOUS
 10
-0.048799
 20
3.418728
  0
VERTEX
  8
PLAN_1
 62
     2
  6
CONTINUOUS
 10
-0.064331
 20
3.478028
  0
SEQEND
  8
0
  0
SOLID
  8
PLAN_1
 62
     2
 10
-0.064331
 20
1.307945
 11
-0.080331
 21
1.366776
 12
-0.064331
 22
1.307945
 13
-0.048799
 23
1.366776
  0
POLYLINE
  8
PLAN_1
 62
     2
  6
CONTINUOUS
 66
     1
 40
0.003000
 41
0.003000
  0
VERTEX
  8
PLAN_1
 62
     2
  6
CONTINUOUS
 10
-0.064331
 20
1.307945
  0
VERTEX
  8
PLAN_1
 62
     2
  6
CONTINUOUS
 10
-0.080331
 20
1.366776
  0
VERTEX
  8
PLAN_1
 62
     2
  6
CONTINUOUS
 10
-0.048799
 20
1.366776
  0
VERTEX
  8
PLAN_1
 62
     2
  6
CONTINUOUS
 10
-0.064331
 20
1.307945
  0
SEQEND
  8
0
  0
POLYLINE
  8
PLAN_1
 62
     2
  6
CONTINUOUS
 66
     1
 40
0.003000
 41
0.003000
  0
VERTEX
  8
PLAN_1
 62
     2
  6
CONTINUOUS
 10
-0.130689
 20
2.306626
  0
VERTEX
  8
PLAN_1
 62
     2
  6
CONTINUOUS
 10
-0.131630
 20
2.308039
  0
VERTEX
  8
PLAN_1
 62
     2
  6
CONTINUOUS
 10
-0.132098
 20
2.309449
  0
VERTEX
  8
PLAN_1
 62
     2
  6
CONTINUOUS
 10
-0.133043
 20
2.310862
  0
VERTEX
  8
PLAN_1
 62
     2
  6
CONTINUOUS
 10
-0.133512
 20
2.312744
  0
VERTEX
  8
PLAN_1
 62
     2
  6
CONTINUOUS
 10
-0.134453
 20
2.314626
  0
VERTEX
  8
PLAN_1
 62
     2
  6
CONTINUOUS
 10
-0.134925
 20
2.316508
  0
VERTEX
  8
PLAN_1
 62
     2
  6
CONTINUOUS
 10
-0.134925
 20
2.318862
  0
VERTEX
  8
PLAN_1
 62
     2
  6
CONTINUOUS
 10
-0.134925
 20
2.321217
  0
VERTEX
  8
PLAN_1
 62
     2
  6
CONTINUOUS
 10
-0.134925
 20
2.325453
  0
VERTEX
  8
PLAN_1
 62
     2
  6
CONTINUOUS
 10
-0.133512
 20
2.329685
  0
VERTEX
  8
PLAN_1
 62
     2
  6
CONTINUOUS
 10
-0.131630
 20
2.333921
  0
VERTEX
  8
PLAN_1
 62
     2
  6
CONTINUOUS
 10
-0.129276
 20
2.337689
  0
VERTEX
  8
PLAN_1
 62
     2
  6
CONTINUOUS
 10
-0.127394
 20
2.339098
  0
VERTEX
  8
PLAN_1
 62
     2
  6
CONTINUOUS
 10
-0.125980
 20
2.340512
  0
VERTEX
  8
PLAN_1
 62
     2
  6
CONTINUOUS
 10
-0.123630
 20
2.341921
  0
VERTEX
  8
PLAN_1
 62
     2
  6
CONTINUOUS
 10
-0.121748
 20
2.342866
  0
VERTEX
  8
PLAN_1
 62
     2
  6
CONTINUOUS
 10
-0.119394
 20
2.343807
  0
VERTEX
  8
PLAN_1
 62
     2
  6
CONTINUOUS
 10
-0.117039
 20
2.344276
  0
VERTEX
  8
PLAN_1
 62
     2
  6
CONTINUOUS
 10
-0.114685
 20
2.344748
  0
VERTEX
  8
PLAN_1
 62
     2
  6
CONTINUOUS
 10
-0.111862
 20
2.345217
  0
VERTEX
  8
PLAN_1
 62
     2
  6
CONTINUOUS
 10
-0.108098
 20
2.344748
  0
VERTEX
  8
PLAN_1
 62
     2
  6
CONTINUOUS
 10
-0.104335
 20
2.344276
  0
VERTEX
  8
PLAN_1
 62
     2
  6
CONTINUOUS
 10
-0.100098
 20
2.342866
  0
VERTEX
  8
PLAN_1
 62
     2
  6
CONTINUOUS
 10
-0.095862
 20
2.340512
  0
VERTEX
  8
PLAN_1
 62
     2
  6
CONTINUOUS
 10
-0.093980
 20
2.338630
  0
VERTEX
  8
PLAN_1
 62
     2
  6
CONTINUOUS
 10
-0.092098
 20
2.336748
  0
VERTEX
  8
PLAN_1
 62
     2
  6
CONTINUOUS
 10
-0.090213
 20
2.334862
  0
VERTEX
  8
PLAN_1
 62
     2
  6
CONTINUOUS
 10
-0.088803
 20
2.332512
  0
VERTEX
  8
PLAN_1
 62
     2
  6
CONTINUOUS
 10
-0.087862
 20
2.329217
  0
VERTEX
  8
PLAN_1
 62
     2
  6
CONTINUOUS
 10
-0.086921
 20
2.326394
  0
VERTEX
  8
PLAN_1
 62
     2
  6
CONTINUOUS
 10
-0.086449
 20
2.322626
  0
VERTEX
  8
PLAN_1
 62
     2
  6
CONTINUOUS
 10
-0.085980
 20
2.318390
  0
VERTEX
  8
PLAN_1
 62
     2
  6
CONTINUOUS
 10
-0.086449
 20
2.314626
  0
VERTEX
  8
PLAN_1
 62
     2
  6
CONTINUOUS
 10
-0.086921
 20
2.310862
  0
VERTEX
  8
PLAN_1
 62
     2
  6
CONTINUOUS
 10
-0.088331
 20
2.307094
  0
VERTEX
  8
PLAN_1
 62
     2
  6
CONTINUOUS
 10
-0.090213
 20
2.303803
  0
VERTEX
  8
PLAN_1
 62
     2
  6
CONTINUOUS
 10
-0.091154
 20
2.301921
  0
VERTEX
  8
PLAN_1
 62
     2
  6
CONTINUOUS
 10
-0.092567
 20
2.300508
  0
VERTEX
  8
PLAN_1
 62
     2
  6
CONTINUOUS
 10
-0.094449
 20
2.299094
  0
VERTEX
  8
PLAN_1
 62
     2
  6
CONTINUOUS
 10
-0.096331
 20
2.298154
  0
VERTEX
  8
PLAN_1
 62
     2
  6
CONTINUOUS
 10
-0.098217
 20
2.296744
  0
VERTEX
  8
PLAN_1
 62
     2
  6
CONTINUOUS
 10
-0.100567
 20
2.295803
  0
VERTEX
  8
PLAN_1
 62
     2
  6
CONTINUOUS
 10
-0.103394
 20
2.295331
  0
VERTEX
  8
PLAN_1
 62
     2
  6
CONTINUOUS
 10
-0.106217
 20
2.294858
  0
VERTEX
  8
PLAN_1
 62
     2
  6
CONTINUOUS
 10
-0.106217
 20
2.304272
  0
VERTEX
  8
PLAN_1
 62
     2
  6
CONTINUOUS
 10
-0.103394
 20
2.304744
  0
VERTEX
  8
PLAN_1
 62
     2
  6
CONTINUOUS
 10
-0.100567
 20
2.306154
  0
VERTEX
  8
PLAN_1
 62
     2
  6
CONTINUOUS
 10
-0.098685
 20
2.307567
  0
VERTEX
  8
PLAN_1
 62
     2
  6
CONTINUOUS
 10
-0.096803
 20
2.309449
  0
VERTEX
  8
PLAN_1
 62
     2
  6
CONTINUOUS
 10
-0.095390
 20
2.311803
  0
VERTEX
  8
PLAN_1
 62
     2
  6
CONTINUOUS
 10
-0.094449
 20
2.314157
  0
VERTEX
  8
PLAN_1
 62
     2
  6
CONTINUOUS
 10
-0.093980
 20
2.316980
  0
VERTEX
  8
PLAN_1
 62
     2
  6
CONTINUOUS
 10
-0.093980
 20
2.319803
  0
VERTEX
  8
PLAN_1
 62
     2
  6
CONTINUOUS
 10
-0.094449
 20
2.323098
  0
VERTEX
  8
PLAN_1
 62
     2
  6
CONTINUOUS
 10
-0.095390
 20
2.326394
  0
VERTEX
  8
PLAN_1
 62
     2
  6
CONTINUOUS
 10
-0.096803
 20
2.328744
  0
VERTEX
  8
PLAN_1
 62
     2
  6
CONTINUOUS
 10
-0.098685
 20
2.331098
  0
VERTEX
  8
PLAN_1
 62
     2
  6
CONTINUOUS
 10
-0.101508
 20
2.332980
  0
VERTEX
  8
PLAN_1
 62
     2
  6
CONTINUOUS
 10
-0.104335
 20
2.334394
  0
VERTEX
  8
PLAN_1
 62
     2
  6
CONTINUOUS
 10
-0.107157
 20
2.334862
  0
VERTEX
  8
PLAN_1
 62
     2
  6
CONTINUOUS
 10
-0.110453
 20
2.335335
  0
VERTEX
  8
PLAN_1
 62
     2
  6
CONTINUOUS
 10
-0.114217
 20
2.334862
  0
VERTEX
  8
PLAN_1
 62
     2
  6
CONTINUOUS
 10
-0.117512
 20
2.333921
  0
VERTEX
  8
PLAN_1
 62
     2
  6
CONTINUOUS
 10
-0.120335
 20
2.332512
  0
VERTEX
  8
PLAN_1
 62
     2
  6
CONTINUOUS
 10
-0.122689
 20
2.330630
  0
VERTEX
  8
PLAN_1
 62
     2
  6
CONTINUOUS
 10
-0.124571
 20
2.328276
  0
VERTEX
  8
PLAN_1
 62
     2
  6
CONTINUOUS
 10
-0.125980
 20
2.325453
  0
VERTEX
  8
PLAN_1
 62
     2
  6
CONTINUOUS
 10
-0.126453
 20
2.322157
  0
VERTEX
  8
PLAN_1
 62
     2
  6
CONTINUOUS
 10
-0.126925
 20
2.318862
  0
VERTEX
  8
PLAN_1
 62
     2
  6
CONTINUOUS
 10
-0.126925
 20
2.316980
  0
VERTEX
  8
PLAN_1
 62
     2
  6
CONTINUOUS
 10
-0.126453
 20
2.315098
  0
VERTEX
  8
PLAN_1
 62
     2
  6
CONTINUOUS
 10
-0.125980
 20
2.313217
  0
VERTEX
  8
PLAN_1
 62
     2
  6
CONTINUOUS
 10
-0.125039
 20
2.311331
  0
VERTEX
  8
PLAN_1
 62
     2
  6
CONTINUOUS
 10
-0.124098
 20
2.309921
  0
VERTEX
  8
PLAN_1
 62
     2
  6
CONTINUOUS
 10
-0.123157
 20
2.308508
  0
VERTEX
  8
PLAN_1
 62
     2
  6
CONTINUOUS
 10
-0.121748
 20
2.306626
  0
VERTEX
  8
PLAN_1
 62
     2
  6
CONTINUOUS
 10
-0.119862
 20
2.305685
  0
VERTEX
  8
PLAN_1
 62
     2
  6
CONTINUOUS
 10
-0.120335
 20
2.297685
  0
VERTEX
  8
PLAN_1
 62
     2
  6
CONTINUOUS
 10
-0.159398
 20
2.303331
  0
VERTEX
  8
PLAN_1
 62
     2
  6
CONTINUOUS
 10
-0.159398
 20
2.340980
  0
VERTEX
  8
PLAN_1
 62
     2
  6
CONTINUOUS
 10
-0.150457
 20
2.340980
  0
VERTEX
  8
PLAN_1
 62
     2
  6
CONTINUOUS
 10
-0.150457
 20
2.309921
  0
VERTEX
  8
PLAN_1
 62
     2
  6
CONTINUOUS
 10
-0.130689
 20
2.306626
  0
SEQEND
  8
0
  0
POLYLINE
  8
PLAN_1
 62
     2
  6
CONTINUOUS
 66
     1
 40
0.003000
 41
0.003000
  0
VERTEX
  8
PLAN_1
 62
     2
  6
CONTINUOUS
 10
-0.105744
 20
2.393220
  0
VERTEX
  8
PLAN_1
 62
     2
  6
CONTINUOUS
 10
-0.087862
 20
2.393220
  0
VERTEX
  8
PLAN_1
 62
     2
  6
CONTINUOUS
 10
-0.087862
 20
2.383811
  0
VERTEX
  8
PLAN_1
 62
     2
  6
CONTINUOUS
 10
-0.105744
 20
2.383811
  0
VERTEX
  8
PLAN_1
 62
     2
  6
CONTINUOUS
 10
-0.105744
 20
2.352276
  0
VERTEX
  8
PLAN_1
 62
     2
  6
CONTINUOUS
 10
-0.114685
 20
2.352276
  0
VERTEX
  8
PLAN_1
 62
     2
  6
CONTINUOUS
 10
-0.161280
 20
2.385693
  0
VERTEX
  8
PLAN_1
 62
     2
  6
CONTINUOUS
 10
-0.161280
 20
2.393220
  0
VERTEX
  8
PLAN_1
 62
     2
  6
CONTINUOUS
 10
-0.113744
 20
2.393220
  0
VERTEX
  8
PLAN_1
 62
     2
  6
CONTINUOUS
 10
-0.113744
 20
2.404047
  0
VERTEX
  8
PLAN_1
 62
     2
  6
CONTINUOUS
 10
-0.105744
 20
2.404047
  0
VERTEX
  8
PLAN_1
 62
     2
  6
CONTINUOUS
 10
-0.105744
 20
2.393220
  0
SEQEND
  8
0
  0
SOLID
  8
PLAN_1
 62
     2
 10
-0.113744
 20
2.360280
 11
-0.113744
 21
2.383811
 12
-0.113744
 22
2.360280
 13
-0.146689
 23
2.383811
  0
POLYLINE
  8
PLAN_1
 62
     2
  6
CONTINUOUS
 66
     1
 40
0.003000
 41
0.003000
  0
VERTEX
  8
PLAN_1
 62
     2
  6
CONTINUOUS
 10
-0.113744
 20
2.360280
  0
VERTEX
  8
PLAN_1
 62
     2
  6
CONTINUOUS
 10
-0.113744
 20
2.383811
  0
VERTEX
  8
PLAN_1
 62
     2
  6
CONTINUOUS
 10
-0.146689
 20
2.383811
  0
VERTEX
  8
PLAN_1
 62
     2
  6
CONTINUOUS
 10
-0.113744
 20
2.360280
  0
SEQEND
  8
0
  0
POLYLINE
  8
PLAN_1
 62
     2
  6
CONTINUOUS
 66
     1
 40
0.003000
 41
0.003000
  0
VERTEX
  8
PLAN_1
 62
     2
  6
CONTINUOUS
 10
-0.099157
 20
2.416283
  0
VERTEX
  8
PLAN_1
 62
     2
  6
CONTINUOUS
 10
-0.099157
 20
2.427106
  0
VERTEX
  8
PLAN_1
 62
     2
  6
CONTINUOUS
 10
-0.088803
 20
2.427106
  0
VERTEX
  8
PLAN_1
 62
     2
  6
CONTINUOUS
 10
-0.084094
 20
2.426638
  0
VERTEX
  8
PLAN_1
 62
     2
  6
CONTINUOUS
 10
-0.080331
 20
2.425697
  0
VERTEX
  8
PLAN_1
 62
     2
  6
CONTINUOUS
 10
-0.077508
 20
2.424283
  0
VERTEX
  8
PLAN_1
 62
     2
  6
CONTINUOUS
 10
-0.075626
 20
2.422402
  0
VERTEX
  8
PLAN_1
 62
     2
  6
CONTINUOUS
 10
-0.074213
 20
2.420520
  0
VERTEX
  8
PLAN_1
 62
     2
  6
CONTINUOUS
 10
-0.073272
 20
2.419106
  0
VERTEX
  8
PLAN_1
 62
     2
  6
CONTINUOUS
 10
-0.072799
 20
2.417224
  0
VERTEX
  8
PLAN_1
 62
     2
  6
CONTINUOUS
 10
-0.072799
 20
2.416283
  0
VERTEX
  8
PLAN_1
 62
     2
  6
CONTINUOUS
 10
-0.077508
 20
2.416283
  0
VERTEX
  8
PLAN_1
 62
     2
  6
CONTINUOUS
 10
-0.077976
 20
2.417697
  0
VERTEX
  8
PLAN_1
 62
     2
  6
CONTINUOUS
 10
-0.078449
 20
2.419106
  0
VERTEX
  8
PLAN_1
 62
     2
  6
CONTINUOUS
 10
-0.079858
 20
2.420047
  0
VERTEX
  8
PLAN_1
 62
     2
  6
CONTINUOUS
 10
-0.081272
 20
2.420988
  0
VERTEX
  8
PLAN_1
 62
     2
  6
CONTINUOUS
 10
-0.082685
 20
2.421461
  0
VERTEX
  8
PLAN_1
 62
     2
  6
CONTINUOUS
 10
-0.084567
 20
2.421461
  0
VERTEX
  8
PLAN_1
 62
     2
  6
CONTINUOUS
 10
-0.085980
 20
2.421929
  0
VERTEX
  8
PLAN_1
 62
     2
  6
CONTINUOUS
 10
-0.087862
 20
2.421929
  0
VERTEX
  8
PLAN_1
 62
     2
  6
CONTINUOUS
 10
-0.087862
 20
2.416283
  0
VERTEX
  8
PLAN_1
 62
     2
  6
CONTINUOUS
 10
-0.099157
 20
2.416283
  0
SEQEND
  8
0
  0
POLYLINE
  8
PLAN_1
 62
     2
  6
CONTINUOUS
 66
     1
 40
0.003000
 41
0.003000
  0
VERTEX
  8
PLAN_1
 62
     2
  6
CONTINUOUS
 10
-0.130689
 20
2.451579
  0
VERTEX
  8
PLAN_1
 62
     2
  6
CONTINUOUS
 10
-0.131630
 20
2.452992
  0
VERTEX
  8
PLAN_1
 62
     2
  6
CONTINUOUS
 10
-0.132098
 20
2.454406
  0
VERTEX
  8
PLAN_1
 62
     2
  6
CONTINUOUS
 10
-0.133043
 20
2.455815
  0
VERTEX
  8
PLAN_1
 62
     2
  6
CONTINUOUS
 10
-0.133512
 20
2.457228
  0
VERTEX
  8
PLAN_1
 62
     2
  6
CONTINUOUS
 10
-0.134453
 20
2.459110
  0
VERTEX
  8
PLAN_1
 62
     2
  6
CONTINUOUS
 10
-0.134925
 20
2.460992
  0
VERTEX
  8
PLAN_1
 62
     2
  6
CONTINUOUS
 10
-0.134925
 20
2.463346
  0
VERTEX
  8
PLAN_1
 62
     2
  6
CONTINUOUS
 10
-0.134925
 20
2.465701
  0
VERTEX
  8
PLAN_1
 62
     2
  6
CONTINUOUS
 10
-0.134925
 20
2.469933
  0
VERTEX
  8
PLAN_1
 62
     2
  6
CONTINUOUS
 10
-0.133512
 20
2.474642
  0
VERTEX
  8
PLAN_1
 62
     2
  6
CONTINUOUS
 10
-0.131630
 20
2.478406
  0
VERTEX
  8
PLAN_1
 62
     2
  6
CONTINUOUS
 10
-0.129276
 20
2.482173
  0
VERTEX
  8
PLAN_1
 62
     2
  6
CONTINUOUS
 10
-0.127394
 20
2.483583
  0
VERTEX
  8
PLAN_1
 62
     2
  6
CONTINUOUS
 10
-0.125980
 20
2.485465
  0
VERTEX
  8
PLAN_1
 62
     2
  6
CONTINUOUS
 10
-0.123630
 20
2.486406
  0
VERTEX
  8
PLAN_1
 62
     2
  6
CONTINUOUS
 10
-0.121748
 20
2.487819
  0
VERTEX
  8
PLAN_1
 62
     2
  6
CONTINUOUS
 10
-0.119394
 20
2.488760
  0
VERTEX
  8
PLAN_1
 62
     2
  6
CONTINUOUS
 10
-0.117039
 20
2.489232
  0
VERTEX
  8
PLAN_1
 62
     2
  6
CONTINUOUS
 10
-0.114685
 20
2.489701
  0
VERTEX
  8
PLAN_1
 62
     2
  6
CONTINUOUS
 10
-0.111862
 20
2.489701
  0
VERTEX
  8
PLAN_1
 62
     2
  6
CONTINUOUS
 10
-0.108098
 20
2.489701
  0
VERTEX
  8
PLAN_1
 62
     2
  6
CONTINUOUS
 10
-0.104335
 20
2.488760
  0
VERTEX
  8
PLAN_1
 62
     2
  6
CONTINUOUS
 10
-0.100098
 20
2.487346
  0
VERTEX
  8
PLAN_1
 62
     2
  6
CONTINUOUS
 10
-0.095862
 20
2.484996
  0
VERTEX
  8
PLAN_1
 62
     2
  6
CONTINUOUS
 10
-0.093980
 20
2.483583
  0
VERTEX
  8
PLAN_1
 62
     2
  6
CONTINUOUS
 10
-0.092098
 20
2.481701
  0
VERTEX
  8
PLAN_1
 62
     2
  6
CONTINUOUS
 10
-0.090213
 20
2.479346
  0
VERTEX
  8
PLAN_1
 62
     2
  6
CONTINUOUS
 10
-0.088803
 20
2.476996
  0
VERTEX
  8
PLAN_1
 62
     2
  6
CONTINUOUS
 10
-0.087862
 20
2.474169
  0
VERTEX
  8
PLAN_1
 62
     2
  6
CONTINUOUS
 10
-0.086921
 20
2.470878
  0
VERTEX
  8
PLAN_1
 62
     2
  6
CONTINUOUS
 10
-0.086449
 20
2.467110
  0
VERTEX
  8
PLAN_1
 62
     2
  6
CONTINUOUS
 10
-0.085980
 20
2.463346
  0
VERTEX
  8
PLAN_1
 62
     2
  6
CONTINUOUS
 10
-0.086449
 20
2.459583
  0
VERTEX
  8
PLAN_1
 62
     2
  6
CONTINUOUS
 10
-0.086921
 20
2.455815
  0
VERTEX
  8
PLAN_1
 62
     2
  6
CONTINUOUS
 10
-0.088331
 20
2.452051
  0
VERTEX
  8
PLAN_1
 62
     2
  6
CONTINUOUS
 10
-0.090213
 20
2.448287
  0
VERTEX
  8
PLAN_1
 62
     2
  6
CONTINUOUS
 10
-0.091154
 20
2.446874
  0
VERTEX
  8
PLAN_1
 62
     2
  6
CONTINUOUS
 10
-0.092567
 20
2.445461
  0
VERTEX
  8
PLAN_1
 62
     2
  6
CONTINUOUS
 10
-0.094449
 20
2.444051
  0
VERTEX
  8
PLAN_1
 62
     2
  6
CONTINUOUS
 10
-0.096331
 20
2.442638
  0
VERTEX
  8
PLAN_1
 62
     2
  6
CONTINUOUS
 10
-0.098217
 20
2.441697
  0
VERTEX
  8
PLAN_1
 62
     2
  6
CONTINUOUS
 10
-0.100567
 20
2.440756
  0
VERTEX
  8
PLAN_1
 62
     2
  6
CONTINUOUS
 10
-0.103394
 20
2.439815
  0
VERTEX
  8
PLAN_1
 62
     2
  6
CONTINUOUS
 10
-0.106217
 20
2.439815
  0
VERTEX
  8
PLAN_1
 62
     2
  6
CONTINUOUS
 10
-0.106217
 20
2.449228
  0
VERTEX
  8
PLAN_1
 62
     2
  6
CONTINUOUS
 10
-0.103394
 20
2.449697
  0
VERTEX
  8
PLAN_1
 62
     2
  6
CONTINUOUS
 10
-0.100567
 20
2.450638
  0
VERTEX
  8
PLAN_1
 62
     2
  6
CONTINUOUS
 10
-0.098685
 20
2.452051
  0
VERTEX
  8
PLAN_1
 62
     2
  6
CONTINUOUS
 10
-0.096803
 20
2.453933
  0
VERTEX
  8
PLAN_1
 62
     2
  6
CONTINUOUS
 10
-0.095390
 20
2.456287
  0
VERTEX
  8
PLAN_1
 62
     2
  6
CONTINUOUS
 10
-0.094449
 20
2.458642
  0
VERTEX
  8
PLAN_1
 62
     2
  6
CONTINUOUS
 10
-0.093980
 20
2.461465
  0
VERTEX
  8
PLAN_1
 62
     2
  6
CONTINUOUS
 10
-0.093980
 20
2.464760
  0
VERTEX
  8
PLAN_1
 62
     2
  6
CONTINUOUS
 10
-0.094449
 20
2.468051
  0
VERTEX
  8
PLAN_1
 62
     2
  6
CONTINUOUS
 10
-0.095390
 20
2.470878
  0
VERTEX
  8
PLAN_1
 62
     2
  6
CONTINUOUS
 10
-0.096803
 20
2.473701
  0
VERTEX
  8
PLAN_1
 62
     2
  6
CONTINUOUS
 10
-0.098685
 20
2.475583
  0
VERTEX
  8
PLAN_1
 62
     2
  6
CONTINUOUS
 10
-0.101508
 20
2.477465
  0
VERTEX
  8
PLAN_1
 62
     2
  6
CONTINUOUS
 10
-0.104335
 20
2.478878
  0
VERTEX
  8
PLAN_1
 62
     2
  6
CONTINUOUS
 10
-0.107157
 20
2.479819
  0
VERTEX
  8
PLAN_1
 62
     2
  6
CONTINUOUS
 10
-0.110453
 20
2.479819
  0
VERTEX
  8
PLAN_1
 62
     2
  6
CONTINUOUS
 10
-0.114217
 20
2.479819
  0
VERTEX
  8
PLAN_1
 62
     2
  6
CONTINUOUS
 10
-0.117512
 20
2.478878
  0
VERTEX
  8
PLAN_1
 62
     2
  6
CONTINUOUS
 10
-0.120335
 20
2.476996
  0
VERTEX
  8
PLAN_1
 62
     2
  6
CONTINUOUS
 10
-0.122689
 20
2.475110
  0
VERTEX
  8
PLAN_1
 62
     2
  6
CONTINUOUS
 10
-0.124571
 20
2.472760
  0
VERTEX
  8
PLAN_1
 62
     2
  6
CONTINUOUS
 10
-0.125980
 20
2.469933
  0
VERTEX
  8
PLAN_1
 62
     2
  6
CONTINUOUS
 10
-0.126453
 20
2.467110
  0
VERTEX
  8
PLAN_1
 62
     2
  6
CONTINUOUS
 10
-0.126925
 20
2.463815
  0
VERTEX
  8
PLAN_1
 62
     2
  6
CONTINUOUS
 10
-0.126925
 20
2.461933
  0
VERTEX
  8
PLAN_1
 62
     2
  6
CONTINUOUS
 10
-0.126453
 20
2.460051
  0
VERTEX
  8
PLAN_1
 62
     2
  6
CONTINUOUS
 10
-0.125980
 20
2.458169
  0
VERTEX
  8
PLAN_1
 62
     2
  6
CONTINUOUS
 10
-0.125039
 20
2.456287
  0
VERTEX
  8
PLAN_1
 62
     2
  6
CONTINUOUS
 10
-0.124098
 20
2.454406
  0
VERTEX
  8
PLAN_1
 62
     2
  6
CONTINUOUS
 10
-0.123157
 20
2.452992
  0
VERTEX
  8
PLAN_1
 62
     2
  6
CONTINUOUS
 10
-0.121748
 20
2.451579
  0
VERTEX
  8
PLAN_1
 62
     2
  6
CONTINUOUS
 10
-0.119862
 20
2.450169
  0
VERTEX
  8
PLAN_1
 62
     2
  6
CONTINUOUS
 10
-0.120335
 20
2.442169
  0
VERTEX
  8
PLAN_1
 62
     2
  6
CONTINUOUS
 10
-0.159398
 20
2.447815
  0
VERTEX
  8
PLAN_1
 62
     2
  6
CONTINUOUS
 10
-0.159398
 20
2.485465
  0
VERTEX
  8
PLAN_1
 62
     2
  6
CONTINUOUS
 10
-0.150457
 20
2.485465
  0
VERTEX
  8
PLAN_1
 62
     2
  6
CONTINUOUS
 10
-0.150457
 20
2.454874
  0
VERTEX
  8
PLAN_1
 62
     2
  6
CONTINUOUS
 10
-0.130689
 20
2.451579
  0
SEQEND
  8
0
  0
SOLID
  8
PLAN_1
 62
     2
 10
-1.207024
 20
3.477559
 11
-1.237614
 21
3.530740
 12
-1.207024
 22
3.477559
 13
-1.259732
 23
3.508150
  0
POLYLINE
  8
PLAN_1
 62
     2
  6
CONTINUOUS
 66
     1
 40
0.003000
 41
0.003000
  0
VERTEX
  8
PLAN_1
 62
     2
  6
CONTINUOUS
 10
-1.207024
 20
3.477559
  0
VERTEX
  8
PLAN_1
 62
     2
  6
CONTINUOUS
 10
-1.237614
 20
3.530740
  0
VERTEX
  8
PLAN_1
 62
     2
  6
CONTINUOUS
 10
-1.259732
 20
3.508150
  0
VERTEX
  8
PLAN_1
 62
     2
  6
CONTINUOUS
 10
-1.207024
 20
3.477559
  0
SEQEND
  8
0
  0
POLYLINE
  8
PLAN_1
 62
     2
  6
CONTINUOUS
 66
     1
 40
0.004232
 41
0.004232
  0
VERTEX
  8
PLAN_1
 62
     2
  6
CONTINUOUS
 10
-1.233378
 20
3.504382
  0
VERTEX
  8
PLAN_1
 62
     2
  6
CONTINUOUS
 10
-1.362803
 20
3.628630
  0
VERTEX
  8
PLAN_1
 62
     2
  6
CONTINUOUS
 10
-1.651299
 20
3.628630
  0
SEQEND
  8
0
  0
POLYLINE
  8
PLAN_1
 62
     2
  6
CONTINUOUS
 66
     1
 40
0.003000
 41
0.003000
  0
VERTEX
  8
PLAN_1
 62
     2
  6
CONTINUOUS
 10
-1.556232
 20
3.716638
  0
VERTEX
  8
PLAN_1
 62
     2
  6
CONTINUOUS
 10
-1.554350
 20
3.713343
  0
VERTEX
  8
PLAN_1
 62
     2
  6
CONTINUOUS
 10
-1.552469
 20
3.710051
  0
VERTEX
  8
PLAN_1
 62
     2
  6
CONTINUOUS
 10
-1.551055
 20
3.706756
  0
VERTEX
  8
PLAN_1
 62
     2
  6
CONTINUOUS
 10
-1.549642
 20
3.703461
  0
VERTEX
  8
PLAN_1
 62
     2
  6
CONTINUOUS
 10
-1.548701
 20
3.699697
  0
VERTEX
  8
PLAN_1
 62
     2
  6
CONTINUOUS
 10
-1.548232
 20
3.696402
  0
VERTEX
  8
PLAN_1
 62
     2
  6
CONTINUOUS
 10
-1.547760
 20
3.693106
  0
VERTEX
  8
PLAN_1
 62
     2
  6
CONTINUOUS
 10
-1.547760
 20
3.689811
  0
VERTEX
  8
PLAN_1
 62
     2
  6
CONTINUOUS
 10
-1.548232
 20
3.683224
  0
VERTEX
  8
PLAN_1
 62
     2
  6
CONTINUOUS
 10
-1.549642
 20
3.676634
  0
VERTEX
  8
PLAN_1
 62
     2
  6
CONTINUOUS
 10
-1.550583
 20
3.673343
  0
VERTEX
  8
PLAN_1
 62
     2
  6
CONTINUOUS
 10
-1.551996
 20
3.670047
  0
VERTEX
  8
PLAN_1
 62
     2
  6
CONTINUOUS
 10
-1.553409
 20
3.667220
  0
VERTEX
  8
PLAN_1
 62
     2
  6
CONTINUOUS
 10
-1.555291
 20
3.663929
  0
VERTEX
  8
PLAN_1
 62
     2
  6
CONTINUOUS
 10
-1.557646
 20
3.661102
  0
VERTEX
  8
PLAN_1
 62
     2
  6
CONTINUOUS
 10
-1.560469
 20
3.658752
  0
VERTEX
  8
PLAN_1
 62
     2
  6
CONTINUOUS
 10
-1.563291
 20
3.656398
  0
VERTEX
  8
PLAN_1
 62
     2
  6
CONTINUOUS
 10
-1.566587
 20
3.654516
  0
VERTEX
  8
PLAN_1
 62
     2
  6
CONTINUOUS
 10
-1.570350
 20
3.652634
  0
VERTEX
  8
PLAN_1
 62
     2
  6
CONTINUOUS
 10
-1.574587
 20
3.651220
  0
VERTEX
  8
PLAN_1
 62
     2
  6
CONTINUOUS
 10
-1.579291
 20
3.650752
  0
VERTEX
  8
PLAN_1
 62
     2
  6
CONTINUOUS
 10
-1.584000
 20
3.650280
  0
VERTEX
  8
PLAN_1
 62
     2
  6
CONTINUOUS
 10
-1.588236
 20
3.650752
  0
VERTEX
  8
PLAN_1
 62
     2
  6
CONTINUOUS
 10
-1.592000
 20
3.651220
  0
VERTEX
  8
PLAN_1
 62
     2
  6
CONTINUOUS
 10
-1.595295
 20
3.651693
  0
VERTEX
  8
PLAN_1
 62
     2
  6
CONTINUOUS
 10
-1.598591
 20
3.653102
  0
VERTEX
  8
PLAN_1
 62
     2
  6
CONTINUOUS
 10
-1.601413
 20
3.654043
  0
VERTEX
  8
PLAN_1
 62
     2
  6
CONTINUOUS
 10
-1.604236
 20
3.655929
  0
VERTEX
  8
PLAN_1
 62
     2
  6
CONTINUOUS
 10
-1.606591
 20
3.657339
  0
VERTEX
  8
PLAN_1
 62
     2
  6
CONTINUOUS
 10
-1.608945
 20
3.659693
  0
VERTEX
  8
PLAN_1
 62
     2
  6
CONTINUOUS
 10
-1.616945
 20
3.650280
  0
VERTEX
  8
PLAN_1
 62
     2
  6
CONTINUOUS
 10
-1.620236
 20
3.653102
  0
VERTEX
  8
PLAN_1
 62
     2
  6
CONTINUOUS
 10
-1.611768
 20
3.662516
  0
VERTEX
  8
PLAN_1
 62
     2
  6
CONTINUOUS
 10
-1.614118
 20
3.665811
  0
VERTEX
  8
PLAN_1
 62
     2
  6
CONTINUOUS
 10
-1.616004
 20
3.669106
  0
VERTEX
  8
PLAN_1
 62
     2
  6
CONTINUOUS
 10
-1.617413
 20
3.672398
  0
VERTEX
  8
PLAN_1
 62
     2
  6
CONTINUOUS
 10
-1.618354
 20
3.676165
  0
VERTEX
  8
PLAN_1
 62
     2
  6
CONTINUOUS
 10
-1.619295
 20
3.679461
  0
VERTEX
  8
PLAN_1
 62
     2
  6
CONTINUOUS
 10
-1.620236
 20
3.683224
  0
VERTEX
  8
PLAN_1
 62
     2
  6
CONTINUOUS
 10
-1.620236
 20
3.686520
  0
VERTEX
  8
PLAN_1
 62
     2
  6
CONTINUOUS
 10
-1.620709
 20
3.689811
  0
VERTEX
  8
PLAN_1
 62
     2
  6
CONTINUOUS
 10
-1.620236
 20
3.695929
  0
VERTEX
  8
PLAN_1
 62
     2
  6
CONTINUOUS
 10
-1.618827
 20
3.702520
  0
VERTEX
  8
PLAN_1
 62
     2
  6
CONTINUOUS
 10
-1.617886
 20
3.705815
  0
VERTEX
  8
PLAN_1
 62
     2
  6
CONTINUOUS
 10
-1.616472
 20
3.709110
  0
VERTEX
  8
PLAN_1
 62
     2
  6
CONTINUOUS
 10
-1.614591
 20
3.712402
  0
VERTEX
  8
PLAN_1
 62
     2
  6
CONTINUOUS
 10
-1.612709
 20
3.715228
  0
VERTEX
  8
PLAN_1
 62
     2
  6
CONTINUOUS
 10
-1.610354
 20
3.718051
  0
VERTEX
  8
PLAN_1
 62
     2
  6
CONTINUOUS
 10
-1.608000
 20
3.720874
  0
VERTEX
  8
PLAN_1
 62
     2
  6
CONTINUOUS
 10
-1.605177
 20
3.723228
  0
VERTEX
  8
PLAN_1
 62
     2
  6
CONTINUOUS
 10
-1.601413
 20
3.725110
  0
VERTEX
  8
PLAN_1
 62
     2
  6
CONTINUOUS
 10
-1.598118
 20
3.726992
  0
VERTEX
  8
PLAN_1
 62
     2
  6
CONTINUOUS
 10
-1.593882
 20
3.727933
  0
VERTEX
  8
PLAN_1
 62
     2
  6
CONTINUOUS
 10
-1.589177
 20
3.728874
  0
VERTEX
  8
PLAN_1
 62
     2
  6
CONTINUOUS
 10
-1.584000
 20
3.728874
  0
VERTEX
  8
PLAN_1
 62
     2
  6
CONTINUOUS
 10
-1.580236
 20
3.728874
  0
VERTEX
  8
PLAN_1
 62
     2
  6
CONTINUOUS
 10
-1.576469
 20
3.728406
  0
VERTEX
  8
PLAN_1
 62
     2
  6
CONTINUOUS
 10
-1.572705
 20
3.727465
  0
VERTEX
  8
PLAN_1
 62
     2
  6
CONTINUOUS
 10
-1.569409
 20
3.726524
  0
VERTEX
  8
PLAN_1
 62
     2
  6
CONTINUOUS
 10
-1.566587
 20
3.725110
  0
VERTEX
  8
PLAN_1
 62
     2
  6
CONTINUOUS
 10
-1.563764
 20
3.723697
  0
VERTEX
  8
PLAN_1
 62
     2
  6
CONTINUOUS
 10
-1.561409
 20
3.721815
  0
VERTEX
  8
PLAN_1
 62
     2
  6
CONTINUOUS
 10
-1.559528
 20
3.719933
  0
VERTEX
  8
PLAN_1
 62
     2
  6
CONTINUOUS
 10
-1.551055
 20
3.728874
  0
VERTEX
  8
PLAN_1
 62
     2
  6
CONTINUOUS
 10
-1.547760
 20
3.726051
  0
VERTEX
  8
PLAN_1
 62
     2
  6
CONTINUOUS
 10
-1.556232
 20
3.716638
  0
SEQEND
  8
0
  0
POLYLINE
  8
PLAN_1
 62
     2
  6
CONTINUOUS
 66
     1
 40
0.003000
 41
0.003000
  0
VERTEX
  8
PLAN_1
 62
     2
  6
CONTINUOUS
 10
-1.601882
 20
3.666752
  0
VERTEX
  8
PLAN_1
 62
     2
  6
CONTINUOUS
 10
-1.600472
 20
3.664870
  0
VERTEX
  8
PLAN_1
 62
     2
  6
CONTINUOUS
 10
-1.598591
 20
3.663457
  0
VERTEX
  8
PLAN_1
 62
     2
  6
CONTINUOUS
 10
-1.596236
 20
3.662516
  0
VERTEX
  8
PLAN_1
 62
     2
  6
CONTINUOUS
 10
-1.594354
 20
3.661102
  0
VERTEX
  8
PLAN_1
 62
     2
  6
CONTINUOUS
 10
-1.592000
 20
3.660634
  0
VERTEX
  8
PLAN_1
 62
     2
  6
CONTINUOUS
 10
-1.589646
 20
3.659693
  0
VERTEX
  8
PLAN_1
 62
     2
  6
CONTINUOUS
 10
-1.586823
 20
3.659693
  0
VERTEX
  8
PLAN_1
 62
     2
  6
CONTINUOUS
 10
-1.584000
 20
3.659220
  0
VERTEX
  8
PLAN_1
 62
     2
  6
CONTINUOUS
 10
-1.581177
 20
3.659693
  0
VERTEX
  8
PLAN_1
 62
     2
  6
CONTINUOUS
 10
-1.578350
 20
3.660161
  0
VERTEX
  8
PLAN_1
 62
     2
  6
CONTINUOUS
 10
-1.575528
 20
3.660634
  0
VERTEX
  8
PLAN_1
 62
     2
  6
CONTINUOUS
 10
-1.573173
 20
3.661575
  0
VERTEX
  8
PLAN_1
 62
     2
  6
CONTINUOUS
 10
-1.570823
 20
3.662988
  0
VERTEX
  8
PLAN_1
 62
     2
  6
CONTINUOUS
 10
-1.568941
 20
3.664398
  0
VERTEX
  8
PLAN_1
 62
     2
  6
CONTINUOUS
 10
-1.567055
 20
3.665811
  0
VERTEX
  8
PLAN_1
 62
     2
  6
CONTINUOUS
 10
-1.565173
 20
3.668165
  0
VERTEX
  8
PLAN_1
 62
     2
  6
CONTINUOUS
 10
-1.563291
 20
3.670047
  0
VERTEX
  8
PLAN_1
 62
     2
  6
CONTINUOUS
 10
-1.562350
 20
3.672398
  0
VERTEX
  8
PLAN_1
 62
     2
  6
CONTINUOUS
 10
-1.560937
 20
3.674752
  0
VERTEX
  8
PLAN_1
 62
     2
  6
CONTINUOUS
 10
-1.559996
 20
3.677575
  0
VERTEX
  8
PLAN_1
 62
     2
  6
CONTINUOUS
 10
-1.558587
 20
3.683224
  0
VERTEX
  8
PLAN_1
 62
     2
  6
CONTINUOUS
 10
-1.558114
 20
3.689811
  0
VERTEX
  8
PLAN_1
 62
     2
  6
CONTINUOUS
 10
-1.558114
 20
3.692638
  0
VERTEX
  8
PLAN_1
 62
     2
  6
CONTINUOUS
 10
-1.558587
 20
3.694988
  0
VERTEX
  8
PLAN_1
 62
     2
  6
CONTINUOUS
 10
-1.559055
 20
3.697815
  0
VERTEX
  8
PLAN_1
 62
     2
  6
CONTINUOUS
 10
-1.559528
 20
3.700165
  0
VERTEX
  8
PLAN_1
 62
     2
  6
CONTINUOUS
 10
-1.559996
 20
3.702520
  0
VERTEX
  8
PLAN_1
 62
     2
  6
CONTINUOUS
 10
-1.560937
 20
3.704874
  0
VERTEX
  8
PLAN_1
 62
     2
  6
CONTINUOUS
 10
-1.561878
 20
3.706756
  0
VERTEX
  8
PLAN_1
 62
     2
  6
CONTINUOUS
 10
-1.563291
 20
3.708638
  0
VERTEX
  8
PLAN_1
 62
     2
  6
CONTINUOUS
 10
-1.601882
 20
3.666752
  0
SEQEND
  8
0
  0
POLYLINE
  8
PLAN_1
 62
     2
  6
CONTINUOUS
 66
     1
 40
0.003000
 41
0.003000
  0
VERTEX
  8
PLAN_1
 62
     2
  6
CONTINUOUS
 10
-1.566114
 20
3.712402
  0
VERTEX
  8
PLAN_1
 62
     2
  6
CONTINUOUS
 10
-1.567528
 20
3.714287
  0
VERTEX
  8
PLAN_1
 62
     2
  6
CONTINUOUS
 10
-1.569409
 20
3.715697
  0
VERTEX
  8
PLAN_1
 62
     2
  6
CONTINUOUS
 10
-1.571764
 20
3.717110
  0
VERTEX
  8
PLAN_1
 62
     2
  6
CONTINUOUS
 10
-1.573646
 20
3.718051
  0
VERTEX
  8
PLAN_1
 62
     2
  6
CONTINUOUS
 10
-1.576000
 20
3.718992
  0
VERTEX
  8
PLAN_1
 62
     2
  6
CONTINUOUS
 10
-1.578823
 20
3.719461
  0
VERTEX
  8
PLAN_1
 62
     2
  6
CONTINUOUS
 10
-1.581177
 20
3.719933
  0
VERTEX
  8
PLAN_1
 62
     2
  6
CONTINUOUS
 10
-1.584000
 20
3.719933
  0
VERTEX
  8
PLAN_1
 62
     2
  6
CONTINUOUS
 10
-1.587295
 20
3.719933
  0
VERTEX
  8
PLAN_1
 62
     2
  6
CONTINUOUS
 10
-1.590118
 20
3.719461
  0
VERTEX
  8
PLAN_1
 62
     2
  6
CONTINUOUS
 10
-1.592472
 20
3.718992
  0
VERTEX
  8
PLAN_1
 62
     2
  6
CONTINUOUS
 10
-1.595295
 20
3.718051
  0
VERTEX
  8
PLAN_1
 62
     2
  6
CONTINUOUS
 10
-1.597177
 20
3.716638
  0
VERTEX
  8
PLAN_1
 62
     2
  6
CONTINUOUS
 10
-1.599531
 20
3.715228
  0
VERTEX
  8
PLAN_1
 62
     2
  6
CONTINUOUS
 10
-1.601413
 20
3.713343
  0
VERTEX
  8
PLAN_1
 62
     2
  6
CONTINUOUS
 10
-1.603295
 20
3.711461
  0
VERTEX
  8
PLAN_1
 62
     2
  6
CONTINUOUS
 10
-1.604709
 20
3.709579
  0
VERTEX
  8
PLAN_1
 62
     2
  6
CONTINUOUS
 10
-1.606118
 20
3.707224
  0
VERTEX
  8
PLAN_1
 62
     2
  6
CONTINUOUS
 10
-1.607531
 20
3.704402
  0
VERTEX
  8
PLAN_1
 62
     2
  6
CONTINUOUS
 10
-1.608472
 20
3.702047
  0
VERTEX
  8
PLAN_1
 62
     2
  6
CONTINUOUS
 10
-1.608945
 20
3.699224
  0
VERTEX
  8
PLAN_1
 62
     2
  6
CONTINUOUS
 10
-1.609886
 20
3.695929
  0
VERTEX
  8
PLAN_1
 62
     2
  6
CONTINUOUS
 10
-1.609886
 20
3.693106
  0
VERTEX
  8
PLAN_1
 62
     2
  6
CONTINUOUS
 10
-1.610354
 20
3.689811
  0
VERTEX
  8
PLAN_1
 62
     2
  6
CONTINUOUS
 10
-1.609886
 20
3.686988
  0
VERTEX
  8
PLAN_1
 62
     2
  6
CONTINUOUS
 10
-1.609886
 20
3.684165
  0
VERTEX
  8
PLAN_1
 62
     2
  6
CONTINUOUS
 10
-1.609413
 20
3.681811
  0
VERTEX
  8
PLAN_1
 62
     2
  6
CONTINUOUS
 10
-1.608945
 20
3.678988
  0
VERTEX
  8
PLAN_1
 62
     2
  6
CONTINUOUS
 10
-1.608000
 20
3.676634
  0
VERTEX
  8
PLAN_1
 62
     2
  6
CONTINUOUS
 10
-1.607059
 20
3.674283
  0
VERTEX
  8
PLAN_1
 62
     2
  6
CONTINUOUS
 10
-1.606118
 20
3.672398
  0
VERTEX
  8
PLAN_1
 62
     2
  6
CONTINUOUS
 10
-1.604709
 20
3.670047
  0
VERTEX
  8
PLAN_1
 62
     2
  6
CONTINUOUS
 10
-1.566114
 20
3.712402
  0
SEQEND
  8
0
  0
POLYLINE
  8
PLAN_1
 62
     2
  6
CONTINUOUS
 66
     1
 40
0.003000
 41
0.003000
  0
VERTEX
  8
PLAN_1
 62
     2
  6
CONTINUOUS
 10
-1.528465
 20
3.694988
  0
VERTEX
  8
PLAN_1
 62
     2
  6
CONTINUOUS
 10
-1.527051
 20
3.695929
  0
VERTEX
  8
PLAN_1
 62
     2
  6
CONTINUOUS
 10
-1.525642
 20
3.696874
  0
VERTEX
  8
PLAN_1
 62
     2
  6
CONTINUOUS
 10
-1.524228
 20
3.697343
  0
VERTEX
  8
PLAN_1
 62
     2
  6
CONTINUOUS
 10
-1.522346
 20
3.698283
  0
VERTEX
  8
PLAN_1
 62
     2
  6
CONTINUOUS
 10
-1.520933
 20
3.698756
  0
VERTEX
  8
PLAN_1
 62
     2
  6
CONTINUOUS
 10
-1.518583
 20
3.699224
  0
VERTEX
  8
PLAN_1
 62
     2
  6
CONTINUOUS
 10
-1.516701
 20
3.699224
  0
VERTEX
  8
PLAN_1
 62
     2
  6
CONTINUOUS
 10
-1.514346
 20
3.699697
  0
VERTEX
  8
PLAN_1
 62
     2
  6
CONTINUOUS
 10
-1.509638
 20
3.699224
  0
VERTEX
  8
PLAN_1
 62
     2
  6
CONTINUOUS
 10
-1.505406
 20
3.697815
  0
VERTEX
  8
PLAN_1
 62
     2
  6
CONTINUOUS
 10
-1.501169
 20
3.695929
  0
VERTEX
  8
PLAN_1
 62
     2
  6
CONTINUOUS
 10
-1.497874
 20
3.693579
  0
VERTEX
  8
PLAN_1
 62
     2
  6
CONTINUOUS
 10
-1.495992
 20
3.691697
  0
VERTEX
  8
PLAN_1
 62
     2
  6
CONTINUOUS
 10
-1.494579
 20
3.690283
  0
VERTEX
  8
PLAN_1
 62
     2
  6
CONTINUOUS
 10
-1.493169
 20
3.688402
  0
VERTEX
  8
PLAN_1
 62
     2
  6
CONTINUOUS
 10
-1.492224
 20
3.686047
  0
VERTEX
  8
PLAN_1
 62
     2
  6
CONTINUOUS
 10
-1.491283
 20
3.683693
  0
VERTEX
  8
PLAN_1
 62
     2
  6
CONTINUOUS
 10
-1.490815
 20
3.681343
  0
VERTEX
  8
PLAN_1
 62
     2
  6
CONTINUOUS
 10
-1.490343
 20
3.678988
  0
VERTEX
  8
PLAN_1
 62
     2
  6
CONTINUOUS
 10
-1.490343
 20
3.676165
  0
VERTEX
  8
PLAN_1
 62
     2
  6
CONTINUOUS
 10
-1.490343
 20
3.672870
  0
VERTEX
  8
PLAN_1
 62
     2
  6
CONTINUOUS
 10
-1.491283
 20
3.668634
  0
VERTEX
  8
PLAN_1
 62
     2
  6
CONTINUOUS
 10
-1.492697
 20
3.664398
  0
VERTEX
  8
PLAN_1
 62
     2
  6
CONTINUOUS
 10
-1.495051
 20
3.660161
  0
VERTEX
  8
PLAN_1
 62
     2
  6
CONTINUOUS
 10
-1.496461
 20
3.658280
  0
VERTEX
  8
PLAN_1
 62
     2
  6
CONTINUOUS
 10
-1.498343
 20
3.656398
  0
VERTEX
  8
PLAN_1
 62
     2
  6
CONTINUOUS
 10
-1.500228
 20
3.654516
  0
VERTEX
  8
PLAN_1
 62
     2
  6
CONTINUOUS
 10
-1.503051
 20
3.653102
  0
VERTEX
  8
PLAN_1
 62
     2
  6
CONTINUOUS
 10
-1.505874
 20
3.652161
  0
VERTEX
  8
PLAN_1
 62
     2
  6
CONTINUOUS
 10
-1.509169
 20
3.651220
  0
VERTEX
  8
PLAN_1
 62
     2
  6
CONTINUOUS
 10
-1.512465
 20
3.650752
  0
VERTEX
  8
PLAN_1
 62
     2
  6
CONTINUOUS
 10
-1.516701
 20
3.650280
  0
VERTEX
  8
PLAN_1
 62
     2
  6
CONTINUOUS
 10
-1.520465
 20
3.650752
  0
VERTEX
  8
PLAN_1
 62
     2
  6
CONTINUOUS
 10
-1.524228
 20
3.651220
  0
VERTEX
  8
PLAN_1
 62
     2
  6
CONTINUOUS
 10
-1.527996
 20
3.652634
  0
VERTEX
  8
PLAN_1
 62
     2
  6
CONTINUOUS
 10
-1.531287
 20
3.654516
  0
VERTEX
  8
PLAN_1
 62
     2
  6
CONTINUOUS
 10
-1.533169
 20
3.655457
  0
VERTEX
  8
PLAN_1
 62
     2
  6
CONTINUOUS
 10
-1.534583
 20
3.656870
  0
VERTEX
  8
PLAN_1
 62
     2
  6
CONTINUOUS
 10
-1.535996
 20
3.658752
  0
VERTEX
  8
PLAN_1
 62
     2
  6
CONTINUOUS
 10
-1.537406
 20
3.660634
  0
VERTEX
  8
PLAN_1
 62
     2
  6
CONTINUOUS
 10
-1.538346
 20
3.662516
  0
VERTEX
  8
PLAN_1
 62
     2
  6
CONTINUOUS
 10
-1.539291
 20
3.664870
  0
VERTEX
  8
PLAN_1
 62
     2
  6
CONTINUOUS
 10
-1.539760
 20
3.667693
  0
VERTEX
  8
PLAN_1
 62
     2
  6
CONTINUOUS
 10
-1.540232
 20
3.670516
  0
VERTEX
  8
PLAN_1
 62
     2
  6
CONTINUOUS
 10
-1.530819
 20
3.670516
  0
VERTEX
  8
PLAN_1
 62
     2
  6
CONTINUOUS
 10
-1.530346
 20
3.667693
  0
VERTEX
  8
PLAN_1
 62
     2
  6
CONTINUOUS
 10
-1.529406
 20
3.664870
  0
VERTEX
  8
PLAN_1
 62
     2
  6
CONTINUOUS
 10
-1.527524
 20
3.662988
  0
VERTEX
  8
PLAN_1
 62
     2
  6
CONTINUOUS
 10
-1.525642
 20
3.661102
  0
VERTEX
  8
PLAN_1
 62
     2
  6
CONTINUOUS
 10
-1.523760
 20
3.660161
  0
VERTEX
  8
PLAN_1
 62
     2
  6
CONTINUOUS
 10
-1.520933
 20
3.659220
  0
VERTEX
  8
PLAN_1
 62
     2
  6
CONTINUOUS
 10
-1.518110
 20
3.658280
  0
VERTEX
  8
PLAN_1
 62
     2
  6
CONTINUOUS
 10
-1.515287
 20
3.658280
  0
VERTEX
  8
PLAN_1
 62
     2
  6
CONTINUOUS
 10
-1.511992
 20
3.658752
  0
VERTEX
  8
PLAN_1
 62
     2
  6
CONTINUOUS
 10
-1.509169
 20
3.659693
  0
VERTEX
  8
PLAN_1
 62
     2
  6
CONTINUOUS
 10
-1.506346
 20
3.661102
  0
VERTEX
  8
PLAN_1
 62
     2
  6
CONTINUOUS
 10
-1.503992
 20
3.663457
  0
VERTEX
  8
PLAN_1
 62
     2
  6
CONTINUOUS
 10
-1.502110
 20
3.665811
  0
VERTEX
  8
PLAN_1
 62
     2
  6
CONTINUOUS
 10
-1.501169
 20
3.668634
  0
VERTEX
  8
PLAN_1
 62
     2
  6
CONTINUOUS
 10
-1.500228
 20
3.671929
  0
VERTEX
  8
PLAN_1
 62
     2
  6
CONTINUOUS
 10
-1.499756
 20
3.675224
  0
VERTEX
  8
PLAN_1
 62
     2
  6
CONTINUOUS
 10
-1.500228
 20
3.678988
  0
VERTEX
  8
PLAN_1
 62
     2
  6
CONTINUOUS
 10
-1.501169
 20
3.681811
  0
VERTEX
  8
PLAN_1
 62
     2
  6
CONTINUOUS
 10
-1.502579
 20
3.684634
  0
VERTEX
  8
PLAN_1
 62
     2
  6
CONTINUOUS
 10
-1.504465
 20
3.686988
  0
VERTEX
  8
PLAN_1
 62
     2
  6
CONTINUOUS
 10
-1.507287
 20
3.688870
  0
VERTEX
  8
PLAN_1
 62
     2
  6
CONTINUOUS
 10
-1.509638
 20
3.690283
  0
VERTEX
  8
PLAN_1
 62
     2
  6
CONTINUOUS
 10
-1.512933
 20
3.691224
  0
VERTEX
  8
PLAN_1
 62
     2
  6
CONTINUOUS
 10
-1.516228
 20
3.691224
  0
VERTEX
  8
PLAN_1
 62
     2
  6
CONTINUOUS
 10
-1.518110
 20
3.691224
  0
VERTEX
  8
PLAN_1
 62
     2
  6
CONTINUOUS
 10
-1.519992
 20
3.690756
  0
VERTEX
  8
PLAN_1
 62
     2
  6
CONTINUOUS
 10
-1.521878
 20
3.690283
  0
VERTEX
  8
PLAN_1
 62
     2
  6
CONTINUOUS
 10
-1.523760
 20
3.689343
  0
VERTEX
  8
PLAN_1
 62
     2
  6
CONTINUOUS
 10
-1.525169
 20
3.688402
  0
VERTEX
  8
PLAN_1
 62
     2
  6
CONTINUOUS
 10
-1.527051
 20
3.687461
  0
VERTEX
  8
PLAN_1
 62
     2
  6
CONTINUOUS
 10
-1.528465
 20
3.686047
  0
VERTEX
  8
PLAN_1
 62
     2
  6
CONTINUOUS
 10
-1.529878
 20
3.684165
  0
VERTEX
  8
PLAN_1
 62
     2
  6
CONTINUOUS
 10
-1.537406
 20
3.684634
  0
VERTEX
  8
PLAN_1
 62
     2
  6
CONTINUOUS
 10
-1.532228
 20
3.724169
  0
VERTEX
  8
PLAN_1
 62
     2
  6
CONTINUOUS
 10
-1.494110
 20
3.724169
  0
VERTEX
  8
PLAN_1
 62
     2
  6
CONTINUOUS
 10
-1.494110
 20
3.715228
  0
VERTEX
  8
PLAN_1
 62
     2
  6
CONTINUOUS
 10
-1.525169
 20
3.715228
  0
VERTEX
  8
PLAN_1
 62
     2
  6
CONTINUOUS
 10
-1.528465
 20
3.694988
  0
SEQEND
  8
0
  0
POLYLINE
  8
PLAN_1
 62
     2
  6
CONTINUOUS
 66
     1
 40
0.003000
 41
0.003000
  0
VERTEX
  8
PLAN_1
 62
     2
  6
CONTINUOUS
 10
-1.456929
 20
3.650280
  0
VERTEX
  8
PLAN_1
 62
     2
  6
CONTINUOUS
 10
-1.460693
 20
3.650752
  0
VERTEX
  8
PLAN_1
 62
     2
  6
CONTINUOUS
 10
-1.463988
 20
3.651220
  0
VERTEX
  8
PLAN_1
 62
     2
  6
CONTINUOUS
 10
-1.466811
 20
3.652634
  0
VERTEX
  8
PLAN_1
 62
     2
  6
CONTINUOUS
 10
-1.469638
 20
3.654043
  0
VERTEX
  8
PLAN_1
 62
     2
  6
CONTINUOUS
 10
-1.471988
 20
3.655929
  0
VERTEX
  8
PLAN_1
 62
     2
  6
CONTINUOUS
 10
-1.473870
 20
3.658280
  0
VERTEX
  8
PLAN_1
 62
     2
  6
CONTINUOUS
 10
-1.475756
 20
3.660634
  0
VERTEX
  8
PLAN_1
 62
     2
  6
CONTINUOUS
 10
-1.477165
 20
3.663457
  0
VERTEX
  8
PLAN_1
 62
     2
  6
CONTINUOUS
 10
-1.479520
 20
3.669575
  0
VERTEX
  8
PLAN_1
 62
     2
  6
CONTINUOUS
 10
-1.480933
 20
3.675693
  0
VERTEX
  8
PLAN_1
 62
     2
  6
CONTINUOUS
 10
-1.481874
 20
3.681811
  0
VERTEX
  8
PLAN_1
 62
     2
  6
CONTINUOUS
 10
-1.481874
 20
3.687929
  0
VERTEX
  8
PLAN_1
 62
     2
  6
CONTINUOUS
 10
-1.481874
 20
3.694047
  0
VERTEX
  8
PLAN_1
 62
     2
  6
CONTINUOUS
 10
-1.480933
 20
3.700165
  0
VERTEX
  8
PLAN_1
 62
     2
  6
CONTINUOUS
 10
-1.479520
 20
3.706283
  0
VERTEX
  8
PLAN_1
 62
     2
  6
CONTINUOUS
 10
-1.477165
 20
3.712402
  0
VERTEX
  8
PLAN_1
 62
     2
  6
CONTINUOUS
 10
-1.475756
 20
3.715228
  0
VERTEX
  8
PLAN_1
 62
     2
  6
CONTINUOUS
 10
-1.473870
 20
3.717579
  0
VERTEX
  8
PLAN_1
 62
     2
  6
CONTINUOUS
 10
-1.471988
 20
3.719933
  0
VERTEX
  8
PLAN_1
 62
     2
  6
CONTINUOUS
 10
-1.469638
 20
3.721815
  0
VERTEX
  8
PLAN_1
 62
     2
  6
CONTINUOUS
 10
-1.466811
 20
3.723228
  0
VERTEX
  8
PLAN_1
 62
     2
  6
CONTINUOUS
 10
-1.463988
 20
3.724638
  0
VERTEX
  8
PLAN_1
 62
     2
  6
CONTINUOUS
 10
-1.460693
 20
3.725110
  0
VERTEX
  8
PLAN_1
 62
     2
  6
CONTINUOUS
 10
-1.456929
 20
3.725579
  0
VERTEX
  8
PLAN_1
 62
     2
  6
CONTINUOUS
 10
-1.453165
 20
3.725110
  0
VERTEX
  8
PLAN_1
 62
     2
  6
CONTINUOUS
 10
-1.449870
 20
3.724638
  0
VERTEX
  8
PLAN_1
 62
     2
  6
CONTINUOUS
 10
-1.446575
 20
3.723228
  0
VERTEX
  8
PLAN_1
 62
     2
  6
CONTINUOUS
 10
-1.444220
 20
3.721815
  0
VERTEX
  8
PLAN_1
 62
     2
  6
CONTINUOUS
 10
-1.441870
 20
3.719933
  0
VERTEX
  8
PLAN_1
 62
     2
  6
CONTINUOUS
 10
-1.439516
 20
3.717579
  0
VERTEX
  8
PLAN_1
 62
     2
  6
CONTINUOUS
 10
-1.438102
 20
3.715228
  0
VERTEX
  8
PLAN_1
 62
     2
  6
CONTINUOUS
 10
-1.436220
 20
3.712402
  0
VERTEX
  8
PLAN_1
 62
     2
  6
CONTINUOUS
 10
-1.434339
 20
3.706283
  0
VERTEX
  8
PLAN_1
 62
     2
  6
CONTINUOUS
 10
-1.432925
 20
3.700165
  0
VERTEX
  8
PLAN_1
 62
     2
  6
CONTINUOUS
 10
-1.431984
 20
3.694047
  0
VERTEX
  8
PLAN_1
 62
     2
  6
CONTINUOUS
 10
-1.431516
 20
3.687929
  0
VERTEX
  8
PLAN_1
 62
     2
  6
CONTINUOUS
 10
-1.431984
 20
3.681811
  0
VERTEX
  8
PLAN_1
 62
     2
  6
CONTINUOUS
 10
-1.432925
 20
3.675693
  0
VERTEX
  8
PLAN_1
 62
     2
  6
CONTINUOUS
 10
-1.434339
 20
3.669575
  0
VERTEX
  8
PLAN_1
 62
     2
  6
CONTINUOUS
 10
-1.436220
 20
3.663457
  0
VERTEX
  8
PLAN_1
 62
     2
  6
CONTINUOUS
 10
-1.438102
 20
3.660634
  0
VERTEX
  8
PLAN_1
 62
     2
  6
CONTINUOUS
 10
-1.439516
 20
3.658280
  0
VERTEX
  8
PLAN_1
 62
     2
  6
CONTINUOUS
 10
-1.441870
 20
3.655929
  0
VERTEX
  8
PLAN_1
 62
     2
  6
CONTINUOUS
 10
-1.444220
 20
3.654043
  0
VERTEX
  8
PLAN_1
 62
     2
  6
CONTINUOUS
 10
-1.446575
 20
3.652634
  0
VERTEX
  8
PLAN_1
 62
     2
  6
CONTINUOUS
 10
-1.449870
 20
3.651220
  0
VERTEX
  8
PLAN_1
 62
     2
  6
CONTINUOUS
 10
-1.453165
 20
3.650752
  0
VERTEX
  8
PLAN_1
 62
     2
  6
CONTINUOUS
 10
-1.456929
 20
3.650280
  0
SEQEND
  8
0
  0
POLYLINE
  8
PLAN_1
 62
     2
  6
CONTINUOUS
 66
     1
 40
0.003000
 41
0.003000
  0
VERTEX
  8
PLAN_1
 62
     2
  6
CONTINUOUS
 10
-1.456929
 20
3.717110
  0
VERTEX
  8
PLAN_1
 62
     2
  6
CONTINUOUS
 10
-1.458811
 20
3.717110
  0
VERTEX
  8
PLAN_1
 62
     2
  6
CONTINUOUS
 10
-1.460693
 20
3.716638
  0
VERTEX
  8
PLAN_1
 62
     2
  6
CONTINUOUS
 10
-1.462106
 20
3.716169
  0
VERTEX
  8
PLAN_1
 62
     2
  6
CONTINUOUS
 10
-1.463520
 20
3.715228
  0
VERTEX
  8
PLAN_1
 62
     2
  6
CONTINUOUS
 10
-1.464929
 20
3.714287
  0
VERTEX
  8
PLAN_1
 62
     2
  6
CONTINUOUS
 10
-1.466343
 20
3.712874
  0
VERTEX
  8
PLAN_1
 62
     2
  6
CONTINUOUS
 10
-1.467283
 20
3.711461
  0
VERTEX
  8
PLAN_1
 62
     2
  6
CONTINUOUS
 10
-1.468224
 20
3.709579
  0
VERTEX
  8
PLAN_1
 62
     2
  6
CONTINUOUS
 10
-1.470106
 20
3.705343
  0
VERTEX
  8
PLAN_1
 62
     2
  6
CONTINUOUS
 10
-1.471047
 20
3.700165
  0
VERTEX
  8
PLAN_1
 62
     2
  6
CONTINUOUS
 10
-1.471988
 20
3.694520
  0
VERTEX
  8
PLAN_1
 62
     2
  6
CONTINUOUS
 10
-1.471988
 20
3.687929
  0
VERTEX
  8
PLAN_1
 62
     2
  6
CONTINUOUS
 10
-1.471988
 20
3.681343
  0
VERTEX
  8
PLAN_1
 62
     2
  6
CONTINUOUS
 10
-1.471047
 20
3.675693
  0
VERTEX
  8
PLAN_1
 62
     2
  6
CONTINUOUS
 10
-1.470106
 20
3.670516
  0
VERTEX
  8
PLAN_1
 62
     2
  6
CONTINUOUS
 10
-1.468224
 20
3.666280
  0
VERTEX
  8
PLAN_1
 62
     2
  6
CONTINUOUS
 10
-1.467283
 20
3.664870
  0
VERTEX
  8
PLAN_1
 62
     2
  6
CONTINUOUS
 10
-1.466343
 20
3.662988
  0
VERTEX
  8
PLAN_1
 62
     2
  6
CONTINUOUS
 10
-1.464929
 20
3.661575
  0
VERTEX
  8
PLAN_1
 62
     2
  6
CONTINUOUS
 10
-1.463520
 20
3.660634
  0
VERTEX
  8
PLAN_1
 62
     2
  6
CONTINUOUS
 10
-1.462106
 20
3.659693
  0
VERTEX
  8
PLAN_1
 62
     2
  6
CONTINUOUS
 10
-1.460693
 20
3.659220
  0
VERTEX
  8
PLAN_1
 62
     2
  6
CONTINUOUS
 10
-1.458811
 20
3.658752
  0
VERTEX
  8
PLAN_1
 62
     2
  6
CONTINUOUS
 10
-1.456929
 20
3.658752
  0
VERTEX
  8
PLAN_1
 62
     2
  6
CONTINUOUS
 10
-1.455047
 20
3.658752
  0
VERTEX
  8
PLAN_1
 62
     2
  6
CONTINUOUS
 10
-1.453165
 20
3.659220
  0
VERTEX
  8
PLAN_1
 62
     2
  6
CONTINUOUS
 10
-1.451752
 20
3.659693
  0
VERTEX
  8
PLAN_1
 62
     2
  6
CONTINUOUS
 10
-1.449870
 20
3.660634
  0
VERTEX
  8
PLAN_1
 62
     2
  6
CONTINUOUS
 10
-1.448457
 20
3.661575
  0
VERTEX
  8
PLAN_1
 62
     2
  6
CONTINUOUS
 10
-1.447516
 20
3.662988
  0
VERTEX
  8
PLAN_1
 62
     2
  6
CONTINUOUS
 10
-1.446106
 20
3.664870
  0
VERTEX
  8
PLAN_1
 62
     2
  6
CONTINUOUS
 10
-1.445161
 20
3.666280
  0
VERTEX
  8
PLAN_1
 62
     2
  6
CONTINUOUS
 10
-1.443752
 20
3.670516
  0
VERTEX
  8
PLAN_1
 62
     2
  6
CONTINUOUS
 10
-1.442339
 20
3.675693
  0
VERTEX
  8
PLAN_1
 62
     2
  6
CONTINUOUS
 10
-1.441870
 20
3.681343
  0
VERTEX
  8
PLAN_1
 62
     2
  6
CONTINUOUS
 10
-1.441398
 20
3.687929
  0
VERTEX
  8
PLAN_1
 62
     2
  6
CONTINUOUS
 10
-1.441870
 20
3.694520
  0
VERTEX
  8
PLAN_1
 62
     2
  6
CONTINUOUS
 10
-1.442339
 20
3.700165
  0
VERTEX
  8
PLAN_1
 62
     2
  6
CONTINUOUS
 10
-1.443752
 20
3.705343
  0
VERTEX
  8
PLAN_1
 62
     2
  6
CONTINUOUS
 10
-1.445161
 20
3.709579
  0
VERTEX
  8
PLAN_1
 62
     2
  6
CONTINUOUS
 10
-1.446106
 20
3.711461
  0
VERTEX
  8
PLAN_1
 62
     2
  6
CONTINUOUS
 10
-1.447516
 20
3.712874
  0
VERTEX
  8
PLAN_1
 62
     2
  6
CONTINUOUS
 10
-1.448457
 20
3.714287
  0
VERTEX
  8
PLAN_1
 62
     2
  6
CONTINUOUS
 10
-1.449870
 20
3.715228
  0
VERTEX
  8
PLAN_1
 62
     2
  6
CONTINUOUS
 10
-1.451752
 20
3.716169
  0
VERTEX
  8
PLAN_1
 62
     2
  6
CONTINUOUS
 10
-1.453165
 20
3.716638
  0
VERTEX
  8
PLAN_1
 62
     2
  6
CONTINUOUS
 10
-1.455047
 20
3.717110
  0
VERTEX
  8
PLAN_1
 62
     2
  6
CONTINUOUS
 10
-1.456929
 20
3.717110
  0
SEQEND
  8
0
  0
POLYLINE
  8
PLAN_1
 62
     2
  6
CONTINUOUS
 66
     1
 40
0.004232
 41
0.004232
  0
VERTEX
  8
PLAN_1
 62
     2
  6
CONTINUOUS
 10
-1.065362
 20
3.478028
  0
VERTEX
  8
PLAN_1
 62
     2
  6
CONTINUOUS
 10
0.116862
 20
3.478028
  0
SEQEND
  8
0
  0
POLYLINE
  8
PLAN_1
 62
     2
  6
CONTINUOUS
 66
     1
 40
0.004232
 41
0.004232
  0
VERTEX
  8
PLAN_1
 62
     2
  6
CONTINUOUS
 10
-0.986768
 20
1.307945
  0
VERTEX
  8
PLAN_1
 62
     2
  6
CONTINUOUS
 10
-0.040799
 20
1.307945
  0
SEQEND
  8
0
  0
POLYLINE
  8
PLAN_1
 62
     2
  6
CONTINUOUS
 66
     1
 40
0.004232
 41
0.004232
  0
VERTEX
  8
PLAN_1
 62
     2
  6
CONTINUOUS
 10
-0.386240
 20
0.573760
  0
VERTEX
  8
PLAN_1
 62
     2
  6
CONTINUOUS
 10
0.116862
 20
0.573760
  0
SEQEND
  8
0
  0
ENDSEC
  0
EOF
