  0
SECTION
  2
HEADER
  9
$ACADVER
  1
AC1006
  9
$EXTMIN
 10
-2.055551
 20
-3.895000
  9
$EXTMAX
 10
2.049567
 20
3.900756
  9
$LTSCALE
 40
0.000394
  9
$PDMODE
 70
    35
  9
$PDSIZE
 40
0.000315
  0
ENDSEC
  0
SECTION
  2
TABLES
  0
TABLE
  2
LTYPE
 70
     9
  0
LTYPE
  2
CONTINUOUS
 70
    64
  3
Solid line
 72
    65
 73
     0
 40
0.000000
  0
LTYPE
  2
DASHED
 70
    64
  3
__ __ __ __ __ __ __ __ __ __ __ __ __ __ __
 72
    65
 73
     2
 40
0.000003
 49
0.000002
 49
-0.000001
  0
LTYPE
  2
HIDDEN
 70
    64
  3
 _ _ _ _ _ _ _ _ _ _ _ _ _ _ _ _ _ _ _ _ _ _
 72
    65
 73
     2
 40
0.000001
 49
0.000001
 49
-0.000000
  0
LTYPE
  2
CENTER
 70
    64
  3
____ _ ____ _ ____ _ ____ _ ____ _ ____ _ ____
 72
    65
 73
     4
 40
0.000008
 49
0.000005
 49
-0.000001
 49
0.000001
 49
-0.000001
  0
LTYPE
  2
PHANTOM
 70
    64
  3
_____ _ _ _____ _ _ _____ _ _ _____ _ _ ____
 72
    65
 73
     6
 40
0.000010
 49
0.000005
 49
-0.000001
 49
0.000001
 49
-0.000001
 49
0.000001
 49
-0.000001
  0
LTYPE
  2
DOT
 70
    64
  3
...............................................
 72
    65
 73
     2
 40
0.000001
 49
0.000000
 49
-0.000001
  0
LTYPE
  2
DASHDOT
 70
    64
  3
__ . __ . __ . __ . __ . __ . __ . __ . __ . __
 72
    65
 73
     4
 40
0.000004
 49
0.000002
 49
-0.000001
 49
0.000000
 49
-0.000001
  0
LTYPE
  2
BORDER
 70
    64
  3
__ __ . __ __ . __ __ . __ __ . __ __ . __ __
 72
    65
 73
     6
 40
0.000007
 49
0.000002
 49
-0.000001
 49
0.000002
 49
-0.000001
 49
0.000000
 49
-0.000001
  0
LTYPE
  2
DIVIDE
 70
    64
  3
__ . . __ . . __ . . __ . . __ . . __ . . __
 72
    65
 73
     6
 40
0.000005
 49
0.000002
 49
-0.000001
 49
0.000000
 49
-0.000001
 49
0.000000
 49
-0.000001
  0
LTYPE
  2
DOTDOT
 70
    64
  3
 . .  . .  . .  . .  . .  . . 
 72
    65
 73
     5
 40
0.000002
 49
-0.000001
 49
0.000000
 49
-0.000001
 49
0.000000
 49
-0.000001
  0
ENDTAB
  0
TABLE
  2
STYLE
 70
     0
  0
ENDTAB
  0
TABLE
  2
LAYER
 70
     3
  0
LAYER
  2
FOREGROUND
 70
    64
 62
     7
  6
CONTINUOUS
  0
LAYER
  2
BACKGROUND
 70
    65
 62
    -7
  6
CONTINUOUS
  0
LAYER
  2
PLAN_1
 70
    64
 62
     7
  6
CONTINUOUS
  0
ENDTAB
  0
ENDSEC
  0
SECTION
  2
ENTITIES
  0
POLYLINE
  8
PLAN_1
  6
CONTINUOUS
 66
     1
 40
0.003000
 41
0.003000
  0
VERTEX
  8
PLAN_1
  6
CONTINUOUS
 10
0.260874
 20
-3.860406
  0
VERTEX
  8
PLAN_1
  6
CONTINUOUS
 10
0.104465
 20
-3.860406
  0
VERTEX
  8
PLAN_1
  6
CONTINUOUS
 10
0.104465
 20
-3.837992
  0
VERTEX
  8
PLAN_1
  6
CONTINUOUS
 10
0.226280
 20
-3.684996
  0
VERTEX
  8
PLAN_1
  6
CONTINUOUS
 10
0.113236
 20
-3.684996
  0
VERTEX
  8
PLAN_1
  6
CONTINUOUS
 10
0.113236
 20
-3.661118
  0
VERTEX
  8
PLAN_1
  6
CONTINUOUS
 10
0.260874
 20
-3.661118
  0
VERTEX
  8
PLAN_1
  6
CONTINUOUS
 10
0.260874
 20
-3.684508
  0
VERTEX
  8
PLAN_1
  6
CONTINUOUS
 10
0.138575
 20
-3.836531
  0
VERTEX
  8
PLAN_1
  6
CONTINUOUS
 10
0.260874
 20
-3.836531
  0
VERTEX
  8
PLAN_1
  6
CONTINUOUS
 10
0.260874
 20
-3.860406
  0
SEQEND
  8
0
  0
POLYLINE
  8
PLAN_1
  6
CONTINUOUS
 66
     1
 40
0.003000
 41
0.003000
  0
VERTEX
  8
PLAN_1
  6
CONTINUOUS
 10
0.428488
 20
-3.721051
  0
VERTEX
  8
PLAN_1
  6
CONTINUOUS
 10
0.427028
 20
-3.714717
  0
VERTEX
  8
PLAN_1
  6
CONTINUOUS
 10
0.424591
 20
-3.709358
  0
VERTEX
  8
PLAN_1
  6
CONTINUOUS
 10
0.422154
 20
-3.703996
  0
VERTEX
  8
PLAN_1
  6
CONTINUOUS
 10
0.419228
 20
-3.699614
  0
VERTEX
  8
PLAN_1
  6
CONTINUOUS
 10
0.416307
 20
-3.695717
  0
VERTEX
  8
PLAN_1
  6
CONTINUOUS
 10
0.412409
 20
-3.692303
  0
VERTEX
  8
PLAN_1
  6
CONTINUOUS
 10
0.408996
 20
-3.689382
  0
VERTEX
  8
PLAN_1
  6
CONTINUOUS
 10
0.405098
 20
-3.686945
  0
VERTEX
  8
PLAN_1
  6
CONTINUOUS
 10
0.401201
 20
-3.684996
  0
VERTEX
  8
PLAN_1
  6
CONTINUOUS
 10
0.396815
 20
-3.683531
  0
VERTEX
  8
PLAN_1
  6
CONTINUOUS
 10
0.392433
 20
-3.682071
  0
VERTEX
  8
PLAN_1
  6
CONTINUOUS
 10
0.388531
 20
-3.681098
  0
VERTEX
  8
PLAN_1
  6
CONTINUOUS
 10
0.380248
 20
-3.680122
  0
VERTEX
  8
PLAN_1
  6
CONTINUOUS
 10
0.372941
 20
-3.679634
  0
VERTEX
  8
PLAN_1
  6
CONTINUOUS
 10
0.366118
 20
-3.680122
  0
VERTEX
  8
PLAN_1
  6
CONTINUOUS
 10
0.359787
 20
-3.680610
  0
VERTEX
  8
PLAN_1
  6
CONTINUOUS
 10
0.353453
 20
-3.682559
  0
VERTEX
  8
PLAN_1
  6
CONTINUOUS
 10
0.347118
 20
-3.684508
  0
VERTEX
  8
PLAN_1
  6
CONTINUOUS
 10
0.341756
 20
-3.687433
  0
VERTEX
  8
PLAN_1
  6
CONTINUOUS
 10
0.336398
 20
-3.690843
  0
VERTEX
  8
PLAN_1
  6
CONTINUOUS
 10
0.331039
 20
-3.694740
  0
VERTEX
  8
PLAN_1
  6
CONTINUOUS
 10
0.326654
 20
-3.699614
  0
VERTEX
  8
PLAN_1
  6
CONTINUOUS
 10
0.322268
 20
-3.704972
  0
VERTEX
  8
PLAN_1
  6
CONTINUOUS
 10
0.318858
 20
-3.710819
  0
VERTEX
  8
PLAN_1
  6
CONTINUOUS
 10
0.315445
 20
-3.717154
  0
VERTEX
  8
PLAN_1
  6
CONTINUOUS
 10
0.312524
 20
-3.723976
  0
VERTEX
  8
PLAN_1
  6
CONTINUOUS
 10
0.310575
 20
-3.731772
  0
VERTEX
  8
PLAN_1
  6
CONTINUOUS
 10
0.308626
 20
-3.740055
  0
VERTEX
  8
PLAN_1
  6
CONTINUOUS
 10
0.307650
 20
-3.749311
  0
VERTEX
  8
PLAN_1
  6
CONTINUOUS
 10
0.307650
 20
-3.758571
  0
VERTEX
  8
PLAN_1
  6
CONTINUOUS
 10
0.307650
 20
-3.767339
  0
VERTEX
  8
PLAN_1
  6
CONTINUOUS
 10
0.308138
 20
-3.775622
  0
VERTEX
  8
PLAN_1
  6
CONTINUOUS
 10
0.309598
 20
-3.783906
  0
VERTEX
  8
PLAN_1
  6
CONTINUOUS
 10
0.311059
 20
-3.791705
  0
VERTEX
  8
PLAN_1
  6
CONTINUOUS
 10
0.313008
 20
-3.798524
  0
VERTEX
  8
PLAN_1
  6
CONTINUOUS
 10
0.315445
 20
-3.805346
  0
VERTEX
  8
PLAN_1
  6
CONTINUOUS
 10
0.318370
 20
-3.812169
  0
VERTEX
  8
PLAN_1
  6
CONTINUOUS
 10
0.321780
 20
-3.818016
  0
VERTEX
  8
PLAN_1
  6
CONTINUOUS
 10
0.326165
 20
-3.822886
  0
VERTEX
  8
PLAN_1
  6
CONTINUOUS
 10
0.331039
 20
-3.827760
  0
VERTEX
  8
PLAN_1
  6
CONTINUOUS
 10
0.336398
 20
-3.832146
  0
VERTEX
  8
PLAN_1
  6
CONTINUOUS
 10
0.342244
 20
-3.835555
  0
VERTEX
  8
PLAN_1
  6
CONTINUOUS
 10
0.349067
 20
-3.837992
  0
VERTEX
  8
PLAN_1
  6
CONTINUOUS
 10
0.356374
 20
-3.839941
  0
VERTEX
  8
PLAN_1
  6
CONTINUOUS
 10
0.364657
 20
-3.841402
  0
VERTEX
  8
PLAN_1
  6
CONTINUOUS
 10
0.373429
 20
-3.841890
  0
VERTEX
  8
PLAN_1
  6
CONTINUOUS
 10
0.376839
 20
-3.841402
  0
VERTEX
  8
PLAN_1
  6
CONTINUOUS
 10
0.380736
 20
-3.841402
  0
VERTEX
  8
PLAN_1
  6
CONTINUOUS
 10
0.384634
 20
-3.840429
  0
VERTEX
  8
PLAN_1
  6
CONTINUOUS
 10
0.388531
 20
-3.839453
  0
VERTEX
  8
PLAN_1
  6
CONTINUOUS
 10
0.392433
 20
-3.838480
  0
VERTEX
  8
PLAN_1
  6
CONTINUOUS
 10
0.396815
 20
-3.836531
  0
VERTEX
  8
PLAN_1
  6
CONTINUOUS
 10
0.401201
 20
-3.834583
  0
VERTEX
  8
PLAN_1
  6
CONTINUOUS
 10
0.405098
 20
-3.831657
  0
VERTEX
  8
PLAN_1
  6
CONTINUOUS
 10
0.408996
 20
-3.828732
  0
VERTEX
  8
PLAN_1
  6
CONTINUOUS
 10
0.412898
 20
-3.824835
  0
VERTEX
  8
PLAN_1
  6
CONTINUOUS
 10
0.416795
 20
-3.820449
  0
VERTEX
  8
PLAN_1
  6
CONTINUOUS
 10
0.420205
 20
-3.815091
  0
VERTEX
  8
PLAN_1
  6
CONTINUOUS
 10
0.423126
 20
-3.809244
  0
VERTEX
  8
PLAN_1
  6
CONTINUOUS
 10
0.426051
 20
-3.802909
  0
VERTEX
  8
PLAN_1
  6
CONTINUOUS
 10
0.428488
 20
-3.795114
  0
VERTEX
  8
PLAN_1
  6
CONTINUOUS
 10
0.430437
 20
-3.786831
  0
VERTEX
  8
PLAN_1
  6
CONTINUOUS
 10
0.456748
 20
-3.786831
  0
VERTEX
  8
PLAN_1
  6
CONTINUOUS
 10
0.455287
 20
-3.793654
  0
VERTEX
  8
PLAN_1
  6
CONTINUOUS
 10
0.453823
 20
-3.800472
  0
VERTEX
  8
PLAN_1
  6
CONTINUOUS
 10
0.452362
 20
-3.806319
  0
VERTEX
  8
PLAN_1
  6
CONTINUOUS
 10
0.450413
 20
-3.812169
  0
VERTEX
  8
PLAN_1
  6
CONTINUOUS
 10
0.447976
 20
-3.817528
  0
VERTEX
  8
PLAN_1
  6
CONTINUOUS
 10
0.445543
 20
-3.822398
  0
VERTEX
  8
PLAN_1
  6
CONTINUOUS
 10
0.443106
 20
-3.826783
  0
VERTEX
  8
PLAN_1
  6
CONTINUOUS
 10
0.440181
 20
-3.831169
  0
VERTEX
  8
PLAN_1
  6
CONTINUOUS
 10
0.437260
 20
-3.835067
  0
VERTEX
  8
PLAN_1
  6
CONTINUOUS
 10
0.434335
 20
-3.838480
  0
VERTEX
  8
PLAN_1
  6
CONTINUOUS
 10
0.431409
 20
-3.841890
  0
VERTEX
  8
PLAN_1
  6
CONTINUOUS
 10
0.428000
 20
-3.844815
  0
VERTEX
  8
PLAN_1
  6
CONTINUOUS
 10
0.421177
 20
-3.850173
  0
VERTEX
  8
PLAN_1
  6
CONTINUOUS
 10
0.414358
 20
-3.854559
  0
VERTEX
  8
PLAN_1
  6
CONTINUOUS
 10
0.407535
 20
-3.857969
  0
VERTEX
  8
PLAN_1
  6
CONTINUOUS
 10
0.400713
 20
-3.860406
  0
VERTEX
  8
PLAN_1
  6
CONTINUOUS
 10
0.393894
 20
-3.862354
  0
VERTEX
  8
PLAN_1
  6
CONTINUOUS
 10
0.387559
 20
-3.863815
  0
VERTEX
  8
PLAN_1
  6
CONTINUOUS
 10
0.376839
 20
-3.865280
  0
VERTEX
  8
PLAN_1
  6
CONTINUOUS
 10
0.369531
 20
-3.865764
  0
VERTEX
  8
PLAN_1
  6
CONTINUOUS
 10
0.360760
 20
-3.865280
  0
VERTEX
  8
PLAN_1
  6
CONTINUOUS
 10
0.352476
 20
-3.864303
  0
VERTEX
  8
PLAN_1
  6
CONTINUOUS
 10
0.344193
 20
-3.862354
  0
VERTEX
  8
PLAN_1
  6
CONTINUOUS
 10
0.336398
 20
-3.859917
  0
VERTEX
  8
PLAN_1
  6
CONTINUOUS
 10
0.328602
 20
-3.856508
  0
VERTEX
  8
PLAN_1
  6
CONTINUOUS
 10
0.321291
 20
-3.852122
  0
VERTEX
  8
PLAN_1
  6
CONTINUOUS
 10
0.317394
 20
-3.849685
  0
VERTEX
  8
PLAN_1
  6
CONTINUOUS
 10
0.313984
 20
-3.847248
  0
VERTEX
  8
PLAN_1
  6
CONTINUOUS
 10
0.310575
 20
-3.844327
  0
VERTEX
  8
PLAN_1
  6
CONTINUOUS
 10
0.307650
 20
-3.841402
  0
VERTEX
  8
PLAN_1
  6
CONTINUOUS
 10
0.304724
 20
-3.837992
  0
VERTEX
  8
PLAN_1
  6
CONTINUOUS
 10
0.301803
 20
-3.834583
  0
VERTEX
  8
PLAN_1
  6
CONTINUOUS
 10
0.298878
 20
-3.830681
  0
VERTEX
  8
PLAN_1
  6
CONTINUOUS
 10
0.295957
 20
-3.826783
  0
VERTEX
  8
PLAN_1
  6
CONTINUOUS
 10
0.293520
 20
-3.822398
  0
VERTEX
  8
PLAN_1
  6
CONTINUOUS
 10
0.291571
 20
-3.818016
  0
VERTEX
  8
PLAN_1
  6
CONTINUOUS
 10
0.289134
 20
-3.813630
  0
VERTEX
  8
PLAN_1
  6
CONTINUOUS
 10
0.287185
 20
-3.808268
  0
VERTEX
  8
PLAN_1
  6
CONTINUOUS
 10
0.285724
 20
-3.803398
  0
VERTEX
  8
PLAN_1
  6
CONTINUOUS
 10
0.284260
 20
-3.797551
  0
VERTEX
  8
PLAN_1
  6
CONTINUOUS
 10
0.282799
 20
-3.792189
  0
VERTEX
  8
PLAN_1
  6
CONTINUOUS
 10
0.281827
 20
-3.785854
  0
VERTEX
  8
PLAN_1
  6
CONTINUOUS
 10
0.280850
 20
-3.780008
  0
VERTEX
  8
PLAN_1
  6
CONTINUOUS
 10
0.280362
 20
-3.773189
  0
VERTEX
  8
PLAN_1
  6
CONTINUOUS
 10
0.279878
 20
-3.766366
  0
VERTEX
  8
PLAN_1
  6
CONTINUOUS
 10
0.279878
 20
-3.759543
  0
VERTEX
  8
PLAN_1
  6
CONTINUOUS
 10
0.280362
 20
-3.748339
  0
VERTEX
  8
PLAN_1
  6
CONTINUOUS
 10
0.281339
 20
-3.737618
  0
VERTEX
  8
PLAN_1
  6
CONTINUOUS
 10
0.283287
 20
-3.727386
  0
VERTEX
  8
PLAN_1
  6
CONTINUOUS
 10
0.286213
 20
-3.717642
  0
VERTEX
  8
PLAN_1
  6
CONTINUOUS
 10
0.289622
 20
-3.708382
  0
VERTEX
  8
PLAN_1
  6
CONTINUOUS
 10
0.294008
 20
-3.699614
  0
VERTEX
  8
PLAN_1
  6
CONTINUOUS
 10
0.298878
 20
-3.691815
  0
VERTEX
  8
PLAN_1
  6
CONTINUOUS
 10
0.304724
 20
-3.684508
  0
VERTEX
  8
PLAN_1
  6
CONTINUOUS
 10
0.307650
 20
-3.681098
  0
VERTEX
  8
PLAN_1
  6
CONTINUOUS
 10
0.311059
 20
-3.678173
  0
VERTEX
  8
PLAN_1
  6
CONTINUOUS
 10
0.314472
 20
-3.675252
  0
VERTEX
  8
PLAN_1
  6
CONTINUOUS
 10
0.317882
 20
-3.672327
  0
VERTEX
  8
PLAN_1
  6
CONTINUOUS
 10
0.321780
 20
-3.669890
  0
VERTEX
  8
PLAN_1
  6
CONTINUOUS
 10
0.325677
 20
-3.667453
  0
VERTEX
  8
PLAN_1
  6
CONTINUOUS
 10
0.329575
 20
-3.665504
  0
VERTEX
  8
PLAN_1
  6
CONTINUOUS
 10
0.333961
 20
-3.663555
  0
VERTEX
  8
PLAN_1
  6
CONTINUOUS
 10
0.337858
 20
-3.661606
  0
VERTEX
  8
PLAN_1
  6
CONTINUOUS
 10
0.342732
 20
-3.660146
  0
VERTEX
  8
PLAN_1
  6
CONTINUOUS
 10
0.347118
 20
-3.658685
  0
VERTEX
  8
PLAN_1
  6
CONTINUOUS
 10
0.351988
 20
-3.657709
  0
VERTEX
  8
PLAN_1
  6
CONTINUOUS
 10
0.356862
 20
-3.656736
  0
VERTEX
  8
PLAN_1
  6
CONTINUOUS
 10
0.362220
 20
-3.656248
  0
VERTEX
  8
PLAN_1
  6
CONTINUOUS
 10
0.367583
 20
-3.655760
  0
VERTEX
  8
PLAN_1
  6
CONTINUOUS
 10
0.372941
 20
-3.655760
  0
VERTEX
  8
PLAN_1
  6
CONTINUOUS
 10
0.382201
 20
-3.656248
  0
VERTEX
  8
PLAN_1
  6
CONTINUOUS
 10
0.390969
 20
-3.657220
  0
VERTEX
  8
PLAN_1
  6
CONTINUOUS
 10
0.399252
 20
-3.658685
  0
VERTEX
  8
PLAN_1
  6
CONTINUOUS
 10
0.406563
 20
-3.661118
  0
VERTEX
  8
PLAN_1
  6
CONTINUOUS
 10
0.413870
 20
-3.664043
  0
VERTEX
  8
PLAN_1
  6
CONTINUOUS
 10
0.420205
 20
-3.667453
  0
VERTEX
  8
PLAN_1
  6
CONTINUOUS
 10
0.426051
 20
-3.671350
  0
VERTEX
  8
PLAN_1
  6
CONTINUOUS
 10
0.431409
 20
-3.675736
  0
VERTEX
  8
PLAN_1
  6
CONTINUOUS
 10
0.436283
 20
-3.680610
  0
VERTEX
  8
PLAN_1
  6
CONTINUOUS
 10
0.440669
 20
-3.685484
  0
VERTEX
  8
PLAN_1
  6
CONTINUOUS
 10
0.444079
 20
-3.690843
  0
VERTEX
  8
PLAN_1
  6
CONTINUOUS
 10
0.447492
 20
-3.696689
  0
VERTEX
  8
PLAN_1
  6
CONTINUOUS
 10
0.449925
 20
-3.702535
  0
VERTEX
  8
PLAN_1
  6
CONTINUOUS
 10
0.451874
 20
-3.708382
  0
VERTEX
  8
PLAN_1
  6
CONTINUOUS
 10
0.453823
 20
-3.714717
  0
VERTEX
  8
PLAN_1
  6
CONTINUOUS
 10
0.454799
 20
-3.721051
  0
VERTEX
  8
PLAN_1
  6
CONTINUOUS
 10
0.428488
 20
-3.721051
  0
SEQEND
  8
0
  0
POLYLINE
  8
PLAN_1
  6
CONTINUOUS
 66
     1
 40
0.003000
 41
0.003000
  0
VERTEX
  8
PLAN_1
  6
CONTINUOUS
 10
0.516193
 20
-3.860406
  0
VERTEX
  8
PLAN_1
  6
CONTINUOUS
 10
0.488906
 20
-3.860406
  0
VERTEX
  8
PLAN_1
  6
CONTINUOUS
 10
0.488906
 20
-3.661118
  0
VERTEX
  8
PLAN_1
  6
CONTINUOUS
 10
0.516193
 20
-3.661118
  0
VERTEX
  8
PLAN_1
  6
CONTINUOUS
 10
0.516193
 20
-3.757594
  0
VERTEX
  8
PLAN_1
  6
CONTINUOUS
 10
0.612669
 20
-3.661118
  0
VERTEX
  8
PLAN_1
  6
CONTINUOUS
 10
0.649701
 20
-3.661118
  0
VERTEX
  8
PLAN_1
  6
CONTINUOUS
 10
0.566866
 20
-3.741516
  0
VERTEX
  8
PLAN_1
  6
CONTINUOUS
 10
0.652134
 20
-3.860406
  0
VERTEX
  8
PLAN_1
  6
CONTINUOUS
 10
0.617055
 20
-3.860406
  0
VERTEX
  8
PLAN_1
  6
CONTINUOUS
 10
0.547378
 20
-3.760520
  0
VERTEX
  8
PLAN_1
  6
CONTINUOUS
 10
0.516193
 20
-3.790240
  0
VERTEX
  8
PLAN_1
  6
CONTINUOUS
 10
0.516193
 20
-3.860406
  0
SEQEND
  8
0
  0
POLYLINE
  8
PLAN_1
  6
CONTINUOUS
 66
     1
 40
0.003000
 41
0.003000
  0
VERTEX
  8
PLAN_1
  6
CONTINUOUS
 10
0.824134
 20
-3.860406
  0
VERTEX
  8
PLAN_1
  6
CONTINUOUS
 10
0.676984
 20
-3.860406
  0
VERTEX
  8
PLAN_1
  6
CONTINUOUS
 10
0.676984
 20
-3.661118
  0
VERTEX
  8
PLAN_1
  6
CONTINUOUS
 10
0.822185
 20
-3.661118
  0
VERTEX
  8
PLAN_1
  6
CONTINUOUS
 10
0.822185
 20
-3.684996
  0
VERTEX
  8
PLAN_1
  6
CONTINUOUS
 10
0.704272
 20
-3.684996
  0
VERTEX
  8
PLAN_1
  6
CONTINUOUS
 10
0.704272
 20
-3.745902
  0
VERTEX
  8
PLAN_1
  6
CONTINUOUS
 10
0.813413
 20
-3.745902
  0
VERTEX
  8
PLAN_1
  6
CONTINUOUS
 10
0.813413
 20
-3.769776
  0
VERTEX
  8
PLAN_1
  6
CONTINUOUS
 10
0.704272
 20
-3.769776
  0
VERTEX
  8
PLAN_1
  6
CONTINUOUS
 10
0.704272
 20
-3.836531
  0
VERTEX
  8
PLAN_1
  6
CONTINUOUS
 10
0.824134
 20
-3.836531
  0
VERTEX
  8
PLAN_1
  6
CONTINUOUS
 10
0.824134
 20
-3.860406
  0
SEQEND
  8
0
  0
POLYLINE
  8
PLAN_1
  6
CONTINUOUS
 66
     1
 40
0.003000
 41
0.003000
  0
VERTEX
  8
PLAN_1
  6
CONTINUOUS
 10
0.915736
 20
-3.865764
  0
VERTEX
  8
PLAN_1
  6
CONTINUOUS
 10
0.910378
 20
-3.865280
  0
VERTEX
  8
PLAN_1
  6
CONTINUOUS
 10
0.905504
 20
-3.864791
  0
VERTEX
  8
PLAN_1
  6
CONTINUOUS
 10
0.901122
 20
-3.864303
  0
VERTEX
  8
PLAN_1
  6
CONTINUOUS
 10
0.896736
 20
-3.862843
  0
VERTEX
  8
PLAN_1
  6
CONTINUOUS
 10
0.892839
 20
-3.861378
  0
VERTEX
  8
PLAN_1
  6
CONTINUOUS
 10
0.888937
 20
-3.859917
  0
VERTEX
  8
PLAN_1
  6
CONTINUOUS
 10
0.885039
 20
-3.857969
  0
VERTEX
  8
PLAN_1
  6
CONTINUOUS
 10
0.881630
 20
-3.855531
  0
VERTEX
  8
PLAN_1
  6
CONTINUOUS
 10
0.878220
 20
-3.853094
  0
VERTEX
  8
PLAN_1
  6
CONTINUOUS
 10
0.875295
 20
-3.850661
  0
VERTEX
  8
PLAN_1
  6
CONTINUOUS
 10
0.872374
 20
-3.847736
  0
VERTEX
  8
PLAN_1
  6
CONTINUOUS
 10
0.869937
 20
-3.844327
  0
VERTEX
  8
PLAN_1
  6
CONTINUOUS
 10
0.865063
 20
-3.837992
  0
VERTEX
  8
PLAN_1
  6
CONTINUOUS
 10
0.861165
 20
-3.830681
  0
VERTEX
  8
PLAN_1
  6
CONTINUOUS
 10
0.857756
 20
-3.822886
  0
VERTEX
  8
PLAN_1
  6
CONTINUOUS
 10
0.855319
 20
-3.815091
  0
VERTEX
  8
PLAN_1
  6
CONTINUOUS
 10
0.852882
 20
-3.806807
  0
VERTEX
  8
PLAN_1
  6
CONTINUOUS
 10
0.851421
 20
-3.798035
  0
VERTEX
  8
PLAN_1
  6
CONTINUOUS
 10
0.849961
 20
-3.789752
  0
VERTEX
  8
PLAN_1
  6
CONTINUOUS
 10
0.849472
 20
-3.781472
  0
VERTEX
  8
PLAN_1
  6
CONTINUOUS
 10
0.848984
 20
-3.773189
  0
VERTEX
  8
PLAN_1
  6
CONTINUOUS
 10
0.848984
 20
-3.765390
  0
VERTEX
  8
PLAN_1
  6
CONTINUOUS
 10
0.848984
 20
-3.757594
  0
VERTEX
  8
PLAN_1
  6
CONTINUOUS
 10
0.849472
 20
-3.749311
  0
VERTEX
  8
PLAN_1
  6
CONTINUOUS
 10
0.849961
 20
-3.741028
  0
VERTEX
  8
PLAN_1
  6
CONTINUOUS
 10
0.851421
 20
-3.732744
  0
VERTEX
  8
PLAN_1
  6
CONTINUOUS
 10
0.852882
 20
-3.723976
  0
VERTEX
  8
PLAN_1
  6
CONTINUOUS
 10
0.855319
 20
-3.715693
  0
VERTEX
  8
PLAN_1
  6
CONTINUOUS
 10
0.857756
 20
-3.707898
  0
VERTEX
  8
PLAN_1
  6
CONTINUOUS
 10
0.861165
 20
-3.700098
  0
VERTEX
  8
PLAN_1
  6
CONTINUOUS
 10
0.865063
 20
-3.692791
  0
VERTEX
  8
PLAN_1
  6
CONTINUOUS
 10
0.869937
 20
-3.685969
  0
VERTEX
  8
PLAN_1
  6
CONTINUOUS
 10
0.872374
 20
-3.683047
  0
VERTEX
  8
PLAN_1
  6
CONTINUOUS
 10
0.875295
 20
-3.680122
  0
VERTEX
  8
PLAN_1
  6
CONTINUOUS
 10
0.878220
 20
-3.677685
  0
VERTEX
  8
PLAN_1
  6
CONTINUOUS
 10
0.881630
 20
-3.675252
  0
VERTEX
  8
PLAN_1
  6
CONTINUOUS
 10
0.885039
 20
-3.672815
  0
VERTEX
  8
PLAN_1
  6
CONTINUOUS
 10
0.888937
 20
-3.670866
  0
VERTEX
  8
PLAN_1
  6
CONTINUOUS
 10
0.892839
 20
-3.669402
  0
VERTEX
  8
PLAN_1
  6
CONTINUOUS
 10
0.896736
 20
-3.667941
  0
VERTEX
  8
PLAN_1
  6
CONTINUOUS
 10
0.901122
 20
-3.666480
  0
VERTEX
  8
PLAN_1
  6
CONTINUOUS
 10
0.905504
 20
-3.665992
  0
VERTEX
  8
PLAN_1
  6
CONTINUOUS
 10
0.910378
 20
-3.665504
  0
VERTEX
  8
PLAN_1
  6
CONTINUOUS
 10
0.915736
 20
-3.665020
  0
VERTEX
  8
PLAN_1
  6
CONTINUOUS
 10
0.921098
 20
-3.665504
  0
VERTEX
  8
PLAN_1
  6
CONTINUOUS
 10
0.925484
 20
-3.665992
  0
VERTEX
  8
PLAN_1
  6
CONTINUOUS
 10
0.930354
 20
-3.666480
  0
VERTEX
  8
PLAN_1
  6
CONTINUOUS
 10
0.934740
 20
-3.667941
  0
VERTEX
  8
PLAN_1
  6
CONTINUOUS
 10
0.938638
 20
-3.669402
  0
VERTEX
  8
PLAN_1
  6
CONTINUOUS
 10
0.942535
 20
-3.670866
  0
VERTEX
  8
PLAN_1
  6
CONTINUOUS
 10
0.946433
 20
-3.672815
  0
VERTEX
  8
PLAN_1
  6
CONTINUOUS
 10
0.949846
 20
-3.675252
  0
VERTEX
  8
PLAN_1
  6
CONTINUOUS
 10
0.953256
 20
-3.677685
  0
VERTEX
  8
PLAN_1
  6
CONTINUOUS
 10
0.956181
 20
-3.680122
  0
VERTEX
  8
PLAN_1
  6
CONTINUOUS
 10
0.959102
 20
-3.683047
  0
VERTEX
  8
PLAN_1
  6
CONTINUOUS
 10
0.961539
 20
-3.685969
  0
VERTEX
  8
PLAN_1
  6
CONTINUOUS
 10
0.966413
 20
-3.692791
  0
VERTEX
  8
PLAN_1
  6
CONTINUOUS
 10
0.970311
 20
-3.700098
  0
VERTEX
  8
PLAN_1
  6
CONTINUOUS
 10
0.973720
 20
-3.707898
  0
VERTEX
  8
PLAN_1
  6
CONTINUOUS
 10
0.976157
 20
-3.715693
  0
VERTEX
  8
PLAN_1
  6
CONTINUOUS
 10
0.978594
 20
-3.723976
  0
VERTEX
  8
PLAN_1
  6
CONTINUOUS
 10
0.980055
 20
-3.732744
  0
VERTEX
  8
PLAN_1
  6
CONTINUOUS
 10
0.981028
 20
-3.741028
  0
VERTEX
  8
PLAN_1
  6
CONTINUOUS
 10
0.982004
 20
-3.749311
  0
VERTEX
  8
PLAN_1
  6
CONTINUOUS
 10
0.982492
 20
-3.757594
  0
VERTEX
  8
PLAN_1
  6
CONTINUOUS
 10
0.982492
 20
-3.765390
  0
VERTEX
  8
PLAN_1
  6
CONTINUOUS
 10
0.982492
 20
-3.773189
  0
VERTEX
  8
PLAN_1
  6
CONTINUOUS
 10
0.982004
 20
-3.781472
  0
VERTEX
  8
PLAN_1
  6
CONTINUOUS
 10
0.981028
 20
-3.789752
  0
VERTEX
  8
PLAN_1
  6
CONTINUOUS
 10
0.980055
 20
-3.798035
  0
VERTEX
  8
PLAN_1
  6
CONTINUOUS
 10
0.978594
 20
-3.806807
  0
VERTEX
  8
PLAN_1
  6
CONTINUOUS
 10
0.976157
 20
-3.815091
  0
VERTEX
  8
PLAN_1
  6
CONTINUOUS
 10
0.973720
 20
-3.822886
  0
VERTEX
  8
PLAN_1
  6
CONTINUOUS
 10
0.970311
 20
-3.830681
  0
VERTEX
  8
PLAN_1
  6
CONTINUOUS
 10
0.966413
 20
-3.837992
  0
VERTEX
  8
PLAN_1
  6
CONTINUOUS
 10
0.961539
 20
-3.844327
  0
VERTEX
  8
PLAN_1
  6
CONTINUOUS
 10
0.959102
 20
-3.847736
  0
VERTEX
  8
PLAN_1
  6
CONTINUOUS
 10
0.956181
 20
-3.850661
  0
VERTEX
  8
PLAN_1
  6
CONTINUOUS
 10
0.953256
 20
-3.853094
  0
VERTEX
  8
PLAN_1
  6
CONTINUOUS
 10
0.949846
 20
-3.855531
  0
VERTEX
  8
PLAN_1
  6
CONTINUOUS
 10
0.946433
 20
-3.857969
  0
VERTEX
  8
PLAN_1
  6
CONTINUOUS
 10
0.942535
 20
-3.859917
  0
VERTEX
  8
PLAN_1
  6
CONTINUOUS
 10
0.938638
 20
-3.861378
  0
VERTEX
  8
PLAN_1
  6
CONTINUOUS
 10
0.934740
 20
-3.862843
  0
VERTEX
  8
PLAN_1
  6
CONTINUOUS
 10
0.930354
 20
-3.864303
  0
VERTEX
  8
PLAN_1
  6
CONTINUOUS
 10
0.925484
 20
-3.864791
  0
VERTEX
  8
PLAN_1
  6
CONTINUOUS
 10
0.921098
 20
-3.865280
  0
VERTEX
  8
PLAN_1
  6
CONTINUOUS
 10
0.915736
 20
-3.865764
  0
SEQEND
  8
0
  0
POLYLINE
  8
PLAN_1
  6
CONTINUOUS
 66
     1
 40
0.003000
 41
0.003000
  0
VERTEX
  8
PLAN_1
  6
CONTINUOUS
 10
0.915736
 20
-3.686945
  0
VERTEX
  8
PLAN_1
  6
CONTINUOUS
 10
0.910866
 20
-3.687433
  0
VERTEX
  8
PLAN_1
  6
CONTINUOUS
 10
0.905992
 20
-3.688406
  0
VERTEX
  8
PLAN_1
  6
CONTINUOUS
 10
0.901606
 20
-3.690354
  0
VERTEX
  8
PLAN_1
  6
CONTINUOUS
 10
0.897709
 20
-3.692303
  0
VERTEX
  8
PLAN_1
  6
CONTINUOUS
 10
0.893811
 20
-3.695228
  0
VERTEX
  8
PLAN_1
  6
CONTINUOUS
 10
0.890402
 20
-3.699126
  0
VERTEX
  8
PLAN_1
  6
CONTINUOUS
 10
0.887476
 20
-3.703024
  0
VERTEX
  8
PLAN_1
  6
CONTINUOUS
 10
0.885039
 20
-3.707898
  0
VERTEX
  8
PLAN_1
  6
CONTINUOUS
 10
0.882606
 20
-3.713256
  0
VERTEX
  8
PLAN_1
  6
CONTINUOUS
 10
0.880657
 20
-3.719102
  0
VERTEX
  8
PLAN_1
  6
CONTINUOUS
 10
0.878705
 20
-3.725437
  0
VERTEX
  8
PLAN_1
  6
CONTINUOUS
 10
0.877244
 20
-3.732744
  0
VERTEX
  8
PLAN_1
  6
CONTINUOUS
 10
0.876272
 20
-3.740055
  0
VERTEX
  8
PLAN_1
  6
CONTINUOUS
 10
0.875295
 20
-3.747850
  0
VERTEX
  8
PLAN_1
  6
CONTINUOUS
 10
0.875295
 20
-3.756622
  0
VERTEX
  8
PLAN_1
  6
CONTINUOUS
 10
0.874807
 20
-3.765390
  0
VERTEX
  8
PLAN_1
  6
CONTINUOUS
 10
0.875295
 20
-3.774161
  0
VERTEX
  8
PLAN_1
  6
CONTINUOUS
 10
0.875295
 20
-3.782933
  0
VERTEX
  8
PLAN_1
  6
CONTINUOUS
 10
0.876272
 20
-3.790728
  0
VERTEX
  8
PLAN_1
  6
CONTINUOUS
 10
0.877244
 20
-3.798035
  0
VERTEX
  8
PLAN_1
  6
CONTINUOUS
 10
0.878705
 20
-3.805346
  0
VERTEX
  8
PLAN_1
  6
CONTINUOUS
 10
0.880657
 20
-3.811681
  0
VERTEX
  8
PLAN_1
  6
CONTINUOUS
 10
0.882606
 20
-3.817528
  0
VERTEX
  8
PLAN_1
  6
CONTINUOUS
 10
0.885039
 20
-3.822886
  0
VERTEX
  8
PLAN_1
  6
CONTINUOUS
 10
0.887476
 20
-3.827760
  0
VERTEX
  8
PLAN_1
  6
CONTINUOUS
 10
0.890402
 20
-3.831657
  0
VERTEX
  8
PLAN_1
  6
CONTINUOUS
 10
0.893811
 20
-3.835555
  0
VERTEX
  8
PLAN_1
  6
CONTINUOUS
 10
0.897709
 20
-3.838480
  0
VERTEX
  8
PLAN_1
  6
CONTINUOUS
 10
0.901606
 20
-3.840429
  0
VERTEX
  8
PLAN_1
  6
CONTINUOUS
 10
0.905992
 20
-3.842378
  0
VERTEX
  8
PLAN_1
  6
CONTINUOUS
 10
0.910866
 20
-3.843350
  0
VERTEX
  8
PLAN_1
  6
CONTINUOUS
 10
0.915736
 20
-3.843839
  0
VERTEX
  8
PLAN_1
  6
CONTINUOUS
 10
0.920610
 20
-3.843350
  0
VERTEX
  8
PLAN_1
  6
CONTINUOUS
 10
0.925484
 20
-3.842378
  0
VERTEX
  8
PLAN_1
  6
CONTINUOUS
 10
0.929866
 20
-3.840429
  0
VERTEX
  8
PLAN_1
  6
CONTINUOUS
 10
0.933768
 20
-3.838480
  0
VERTEX
  8
PLAN_1
  6
CONTINUOUS
 10
0.937665
 20
-3.835555
  0
VERTEX
  8
PLAN_1
  6
CONTINUOUS
 10
0.941075
 20
-3.831657
  0
VERTEX
  8
PLAN_1
  6
CONTINUOUS
 10
0.944000
 20
-3.827760
  0
VERTEX
  8
PLAN_1
  6
CONTINUOUS
 10
0.946433
 20
-3.822886
  0
VERTEX
  8
PLAN_1
  6
CONTINUOUS
 10
0.948870
 20
-3.817528
  0
VERTEX
  8
PLAN_1
  6
CONTINUOUS
 10
0.950819
 20
-3.811681
  0
VERTEX
  8
PLAN_1
  6
CONTINUOUS
 10
0.952768
 20
-3.805346
  0
VERTEX
  8
PLAN_1
  6
CONTINUOUS
 10
0.954232
 20
-3.798035
  0
VERTEX
  8
PLAN_1
  6
CONTINUOUS
 10
0.955205
 20
-3.790728
  0
VERTEX
  8
PLAN_1
  6
CONTINUOUS
 10
0.955693
 20
-3.782933
  0
VERTEX
  8
PLAN_1
  6
CONTINUOUS
 10
0.956181
 20
-3.774161
  0
VERTEX
  8
PLAN_1
  6
CONTINUOUS
 10
0.956665
 20
-3.765390
  0
VERTEX
  8
PLAN_1
  6
CONTINUOUS
 10
0.956181
 20
-3.756622
  0
VERTEX
  8
PLAN_1
  6
CONTINUOUS
 10
0.955693
 20
-3.747850
  0
VERTEX
  8
PLAN_1
  6
CONTINUOUS
 10
0.955205
 20
-3.740055
  0
VERTEX
  8
PLAN_1
  6
CONTINUOUS
 10
0.954232
 20
-3.732744
  0
VERTEX
  8
PLAN_1
  6
CONTINUOUS
 10
0.952768
 20
-3.725437
  0
VERTEX
  8
PLAN_1
  6
CONTINUOUS
 10
0.950819
 20
-3.719102
  0
VERTEX
  8
PLAN_1
  6
CONTINUOUS
 10
0.948870
 20
-3.713256
  0
VERTEX
  8
PLAN_1
  6
CONTINUOUS
 10
0.946433
 20
-3.707898
  0
VERTEX
  8
PLAN_1
  6
CONTINUOUS
 10
0.944000
 20
-3.703024
  0
VERTEX
  8
PLAN_1
  6
CONTINUOUS
 10
0.941075
 20
-3.699126
  0
VERTEX
  8
PLAN_1
  6
CONTINUOUS
 10
0.937665
 20
-3.695228
  0
VERTEX
  8
PLAN_1
  6
CONTINUOUS
 10
0.933768
 20
-3.692303
  0
VERTEX
  8
PLAN_1
  6
CONTINUOUS
 10
0.929866
 20
-3.690354
  0
VERTEX
  8
PLAN_1
  6
CONTINUOUS
 10
0.925484
 20
-3.688406
  0
VERTEX
  8
PLAN_1
  6
CONTINUOUS
 10
0.920610
 20
-3.687433
  0
VERTEX
  8
PLAN_1
  6
CONTINUOUS
 10
0.915736
 20
-3.686945
  0
SEQEND
  8
0
  0
POLYLINE
  8
PLAN_1
  6
CONTINUOUS
 66
     1
 40
0.003000
 41
0.003000
  0
VERTEX
  8
PLAN_1
  6
CONTINUOUS
 10
1.104791
 20
-3.756622
  0
VERTEX
  8
PLAN_1
  6
CONTINUOUS
 10
1.109177
 20
-3.758571
  0
VERTEX
  8
PLAN_1
  6
CONTINUOUS
 10
1.113563
 20
-3.761008
  0
VERTEX
  8
PLAN_1
  6
CONTINUOUS
 10
1.117461
 20
-3.763929
  0
VERTEX
  8
PLAN_1
  6
CONTINUOUS
 10
1.120870
 20
-3.766366
  0
VERTEX
  8
PLAN_1
  6
CONTINUOUS
 10
1.123795
 20
-3.769287
  0
VERTEX
  8
PLAN_1
  6
CONTINUOUS
 10
1.126228
 20
-3.772701
  0
VERTEX
  8
PLAN_1
  6
CONTINUOUS
 10
1.128665
 20
-3.775622
  0
VERTEX
  8
PLAN_1
  6
CONTINUOUS
 10
1.130614
 20
-3.779035
  0
VERTEX
  8
PLAN_1
  6
CONTINUOUS
 10
1.133539
 20
-3.785370
  0
VERTEX
  8
PLAN_1
  6
CONTINUOUS
 10
1.135000
 20
-3.791705
  0
VERTEX
  8
PLAN_1
  6
CONTINUOUS
 10
1.135976
 20
-3.798035
  0
VERTEX
  8
PLAN_1
  6
CONTINUOUS
 10
1.136461
 20
-3.803886
  0
VERTEX
  8
PLAN_1
  6
CONTINUOUS
 10
1.136461
 20
-3.809732
  0
VERTEX
  8
PLAN_1
  6
CONTINUOUS
 10
1.135488
 20
-3.815579
  0
VERTEX
  8
PLAN_1
  6
CONTINUOUS
 10
1.134512
 20
-3.821425
  0
VERTEX
  8
PLAN_1
  6
CONTINUOUS
 10
1.132563
 20
-3.826783
  0
VERTEX
  8
PLAN_1
  6
CONTINUOUS
 10
1.130614
 20
-3.832146
  0
VERTEX
  8
PLAN_1
  6
CONTINUOUS
 10
1.127693
 20
-3.837016
  0
VERTEX
  8
PLAN_1
  6
CONTINUOUS
 10
1.124280
 20
-3.841890
  0
VERTEX
  8
PLAN_1
  6
CONTINUOUS
 10
1.120870
 20
-3.846764
  0
VERTEX
  8
PLAN_1
  6
CONTINUOUS
 10
1.116484
 20
-3.850661
  0
VERTEX
  8
PLAN_1
  6
CONTINUOUS
 10
1.111610
 20
-3.854559
  0
VERTEX
  8
PLAN_1
  6
CONTINUOUS
 10
1.106252
 20
-3.857480
  0
VERTEX
  8
PLAN_1
  6
CONTINUOUS
 10
1.100406
 20
-3.860406
  0
VERTEX
  8
PLAN_1
  6
CONTINUOUS
 10
1.093583
 20
-3.862354
  0
VERTEX
  8
PLAN_1
  6
CONTINUOUS
 10
1.086276
 20
-3.864303
  0
VERTEX
  8
PLAN_1
  6
CONTINUOUS
 10
1.078965
 20
-3.865280
  0
VERTEX
  8
PLAN_1
  6
CONTINUOUS
 10
1.070197
 20
-3.865764
  0
VERTEX
  8
PLAN_1
  6
CONTINUOUS
 10
1.065811
 20
-3.865280
  0
VERTEX
  8
PLAN_1
  6
CONTINUOUS
 10
1.060937
 20
-3.864791
  0
VERTEX
  8
PLAN_1
  6
CONTINUOUS
 10
1.055091
 20
-3.863815
  0
VERTEX
  8
PLAN_1
  6
CONTINUOUS
 10
1.048756
 20
-3.862843
  0
VERTEX
  8
PLAN_1
  6
CONTINUOUS
 10
1.042421
 20
-3.860894
  0
VERTEX
  8
PLAN_1
  6
CONTINUOUS
 10
1.036087
 20
-3.857969
  0
VERTEX
  8
PLAN_1
  6
CONTINUOUS
 10
1.029756
 20
-3.854559
  0
VERTEX
  8
PLAN_1
  6
CONTINUOUS
 10
1.023421
 20
-3.850661
  0
VERTEX
  8
PLAN_1
  6
CONTINUOUS
 10
1.020008
 20
-3.847736
  0
VERTEX
  8
PLAN_1
  6
CONTINUOUS
 10
1.017087
 20
-3.844327
  0
VERTEX
  8
PLAN_1
  6
CONTINUOUS
 10
1.014161
 20
-3.841402
  0
VERTEX
  8
PLAN_1
  6
CONTINUOUS
 10
1.011724
 20
-3.837992
  0
VERTEX
  8
PLAN_1
  6
CONTINUOUS
 10
1.009776
 20
-3.834583
  0
VERTEX
  8
PLAN_1
  6
CONTINUOUS
 10
1.008315
 20
-3.831657
  0
VERTEX
  8
PLAN_1
  6
CONTINUOUS
 10
1.006854
 20
-3.828248
  0
VERTEX
  8
PLAN_1
  6
CONTINUOUS
 10
1.005878
 20
-3.824835
  0
VERTEX
  8
PLAN_1
  6
CONTINUOUS
 10
1.004417
 20
-3.818988
  0
VERTEX
  8
PLAN_1
  6
CONTINUOUS
 10
1.003929
 20
-3.813142
  0
VERTEX
  8
PLAN_1
  6
CONTINUOUS
 10
1.003441
 20
-3.808268
  0
VERTEX
  8
PLAN_1
  6
CONTINUOUS
 10
1.003441
 20
-3.804370
  0
VERTEX
  8
PLAN_1
  6
CONTINUOUS
 10
1.003441
 20
-3.799984
  0
VERTEX
  8
PLAN_1
  6
CONTINUOUS
 10
1.003929
 20
-3.795602
  0
VERTEX
  8
PLAN_1
  6
CONTINUOUS
 10
1.004906
 20
-3.791705
  0
VERTEX
  8
PLAN_1
  6
CONTINUOUS
 10
1.005878
 20
-3.787803
  0
VERTEX
  8
PLAN_1
  6
CONTINUOUS
 10
1.006854
 20
-3.784394
  0
VERTEX
  8
PLAN_1
  6
CONTINUOUS
 10
1.008315
 20
-3.780984
  0
VERTEX
  8
PLAN_1
  6
CONTINUOUS
 10
1.010264
 20
-3.777571
  0
VERTEX
  8
PLAN_1
  6
CONTINUOUS
 10
1.012213
 20
-3.774650
  0
VERTEX
  8
PLAN_1
  6
CONTINUOUS
 10
1.014650
 20
-3.771724
  0
VERTEX
  8
PLAN_1
  6
CONTINUOUS
 10
1.017087
 20
-3.769287
  0
VERTEX
  8
PLAN_1
  6
CONTINUOUS
 10
1.020008
 20
-3.766854
  0
VERTEX
  8
PLAN_1
  6
CONTINUOUS
 10
1.022933
 20
-3.764417
  0
VERTEX
  8
PLAN_1
  6
CONTINUOUS
 10
1.029268
 20
-3.760031
  0
VERTEX
  8
PLAN_1
  6
CONTINUOUS
 10
1.036575
 20
-3.756622
  0
VERTEX
  8
PLAN_1
  6
CONTINUOUS
 10
1.030728
 20
-3.754185
  0
VERTEX
  8
PLAN_1
  6
CONTINUOUS
 10
1.025370
 20
-3.750776
  0
VERTEX
  8
PLAN_1
  6
CONTINUOUS
 10
1.020984
 20
-3.746874
  0
VERTEX
  8
PLAN_1
  6
CONTINUOUS
 10
1.017087
 20
-3.742004
  0
VERTEX
  8
PLAN_1
  6
CONTINUOUS
 10
1.015622
 20
-3.739567
  0
VERTEX
  8
PLAN_1
  6
CONTINUOUS
 10
1.014161
 20
-3.737130
  0
VERTEX
  8
PLAN_1
  6
CONTINUOUS
 10
1.012701
 20
-3.734209
  0
VERTEX
  8
PLAN_1
  6
CONTINUOUS
 10
1.011724
 20
-3.731283
  0
VERTEX
  8
PLAN_1
  6
CONTINUOUS
 10
1.010752
 20
-3.725437
  0
VERTEX
  8
PLAN_1
  6
CONTINUOUS
 10
1.010264
 20
-3.718614
  0
VERTEX
  8
PLAN_1
  6
CONTINUOUS
 10
1.010264
 20
-3.714717
  0
VERTEX
  8
PLAN_1
  6
CONTINUOUS
 10
1.010752
 20
-3.710819
  0
VERTEX
  8
PLAN_1
  6
CONTINUOUS
 10
1.011724
 20
-3.706433
  0
VERTEX
  8
PLAN_1
  6
CONTINUOUS
 10
1.012701
 20
-3.702047
  0
VERTEX
  8
PLAN_1
  6
CONTINUOUS
 10
1.014650
 20
-3.697177
  0
VERTEX
  8
PLAN_1
  6
CONTINUOUS
 10
1.016598
 20
-3.692791
  0
VERTEX
  8
PLAN_1
  6
CONTINUOUS
 10
1.019035
 20
-3.688406
  0
VERTEX
  8
PLAN_1
  6
CONTINUOUS
 10
1.022445
 20
-3.684508
  0
VERTEX
  8
PLAN_1
  6
CONTINUOUS
 10
1.025854
 20
-3.680610
  0
VERTEX
  8
PLAN_1
  6
CONTINUOUS
 10
1.030240
 20
-3.676713
  0
VERTEX
  8
PLAN_1
  6
CONTINUOUS
 10
1.035114
 20
-3.673299
  0
VERTEX
  8
PLAN_1
  6
CONTINUOUS
 10
1.040472
 20
-3.670866
  0
VERTEX
  8
PLAN_1
  6
CONTINUOUS
 10
1.046319
 20
-3.668429
  0
VERTEX
  8
PLAN_1
  6
CONTINUOUS
 10
1.053142
 20
-3.666480
  0
VERTEX
  8
PLAN_1
  6
CONTINUOUS
 10
1.060937
 20
-3.665504
  0
VERTEX
  8
PLAN_1
  6
CONTINUOUS
 10
1.069220
 20
-3.665020
  0
VERTEX
  8
PLAN_1
  6
CONTINUOUS
 10
1.077016
 20
-3.665504
  0
VERTEX
  8
PLAN_1
  6
CONTINUOUS
 10
1.084327
 20
-3.666480
  0
VERTEX
  8
PLAN_1
  6
CONTINUOUS
 10
1.091150
 20
-3.667941
  0
VERTEX
  8
PLAN_1
  6
CONTINUOUS
 10
1.096996
 20
-3.669890
  0
VERTEX
  8
PLAN_1
  6
CONTINUOUS
 10
1.102354
 20
-3.672327
  0
VERTEX
  8
PLAN_1
  6
CONTINUOUS
 10
1.107228
 20
-3.675252
  0
VERTEX
  8
PLAN_1
  6
CONTINUOUS
 10
1.111610
 20
-3.678173
  0
VERTEX
  8
PLAN_1
  6
CONTINUOUS
 10
1.115512
 20
-3.681583
  0
VERTEX
  8
PLAN_1
  6
CONTINUOUS
 10
1.118921
 20
-3.685484
  0
VERTEX
  8
PLAN_1
  6
CONTINUOUS
 10
1.121843
 20
-3.689382
  0
VERTEX
  8
PLAN_1
  6
CONTINUOUS
 10
1.124280
 20
-3.693764
  0
VERTEX
  8
PLAN_1
  6
CONTINUOUS
 10
1.126228
 20
-3.698150
  0
VERTEX
  8
PLAN_1
  6
CONTINUOUS
 10
1.127693
 20
-3.702535
  0
VERTEX
  8
PLAN_1
  6
CONTINUOUS
 10
1.128665
 20
-3.706921
  0
VERTEX
  8
PLAN_1
  6
CONTINUOUS
 10
1.129154
 20
-3.711307
  0
VERTEX
  8
PLAN_1
  6
CONTINUOUS
 10
1.129642
 20
-3.715205
  0
VERTEX
  8
PLAN_1
  6
CONTINUOUS
 10
1.129154
 20
-3.720563
  0
VERTEX
  8
PLAN_1
  6
CONTINUOUS
 10
1.128665
 20
-3.724949
  0
VERTEX
  8
PLAN_1
  6
CONTINUOUS
 10
1.128177
 20
-3.729335
  0
VERTEX
  8
PLAN_1
  6
CONTINUOUS
 10
1.126717
 20
-3.733232
  0
VERTEX
  8
PLAN_1
  6
CONTINUOUS
 10
1.125256
 20
-3.736642
  0
VERTEX
  8
PLAN_1
  6
CONTINUOUS
 10
1.123795
 20
-3.739567
  0
VERTEX
  8
PLAN_1
  6
CONTINUOUS
 10
1.122331
 20
-3.742492
  0
VERTEX
  8
PLAN_1
  6
CONTINUOUS
 10
1.120382
 20
-3.744925
  0
VERTEX
  8
PLAN_1
  6
CONTINUOUS
 10
1.115996
 20
-3.748827
  0
VERTEX
  8
PLAN_1
  6
CONTINUOUS
 10
1.112098
 20
-3.752236
  0
VERTEX
  8
PLAN_1
  6
CONTINUOUS
 10
1.108201
 20
-3.754673
  0
VERTEX
  8
PLAN_1
  6
CONTINUOUS
 10
1.104791
 20
-3.756622
  0
SEQEND
  8
0
  0
POLYLINE
  8
PLAN_1
  6
CONTINUOUS
 66
     1
 40
0.003000
 41
0.003000
  0
VERTEX
  8
PLAN_1
  6
CONTINUOUS
 10
1.029756
 20
-3.804858
  0
VERTEX
  8
PLAN_1
  6
CONTINUOUS
 10
1.029756
 20
-3.810705
  0
VERTEX
  8
PLAN_1
  6
CONTINUOUS
 10
1.031217
 20
-3.817528
  0
VERTEX
  8
PLAN_1
  6
CONTINUOUS
 10
1.032189
 20
-3.820449
  0
VERTEX
  8
PLAN_1
  6
CONTINUOUS
 10
1.033654
 20
-3.823862
  0
VERTEX
  8
PLAN_1
  6
CONTINUOUS
 10
1.035602
 20
-3.827272
  0
VERTEX
  8
PLAN_1
  6
CONTINUOUS
 10
1.037551
 20
-3.830197
  0
VERTEX
  8
PLAN_1
  6
CONTINUOUS
 10
1.040472
 20
-3.832630
  0
VERTEX
  8
PLAN_1
  6
CONTINUOUS
 10
1.043398
 20
-3.835555
  0
VERTEX
  8
PLAN_1
  6
CONTINUOUS
 10
1.046807
 20
-3.837992
  0
VERTEX
  8
PLAN_1
  6
CONTINUOUS
 10
1.050220
 20
-3.839941
  0
VERTEX
  8
PLAN_1
  6
CONTINUOUS
 10
1.054602
 20
-3.841402
  0
VERTEX
  8
PLAN_1
  6
CONTINUOUS
 10
1.059965
 20
-3.842378
  0
VERTEX
  8
PLAN_1
  6
CONTINUOUS
 10
1.065323
 20
-3.843350
  0
VERTEX
  8
PLAN_1
  6
CONTINUOUS
 10
1.071169
 20
-3.843839
  0
VERTEX
  8
PLAN_1
  6
CONTINUOUS
 10
1.077992
 20
-3.843350
  0
VERTEX
  8
PLAN_1
  6
CONTINUOUS
 10
1.084815
 20
-3.842378
  0
VERTEX
  8
PLAN_1
  6
CONTINUOUS
 10
1.088224
 20
-3.841402
  0
VERTEX
  8
PLAN_1
  6
CONTINUOUS
 10
1.091634
 20
-3.839941
  0
VERTEX
  8
PLAN_1
  6
CONTINUOUS
 10
1.094559
 20
-3.838480
  0
VERTEX
  8
PLAN_1
  6
CONTINUOUS
 10
1.097480
 20
-3.836531
  0
VERTEX
  8
PLAN_1
  6
CONTINUOUS
 10
1.100406
 20
-3.834583
  0
VERTEX
  8
PLAN_1
  6
CONTINUOUS
 10
1.102843
 20
-3.831657
  0
VERTEX
  8
PLAN_1
  6
CONTINUOUS
 10
1.104791
 20
-3.828732
  0
VERTEX
  8
PLAN_1
  6
CONTINUOUS
 10
1.106740
 20
-3.825323
  0
VERTEX
  8
PLAN_1
  6
CONTINUOUS
 10
1.108201
 20
-3.821425
  0
VERTEX
  8
PLAN_1
  6
CONTINUOUS
 10
1.109661
 20
-3.817039
  0
VERTEX
  8
PLAN_1
  6
CONTINUOUS
 10
1.110150
 20
-3.812169
  0
VERTEX
  8
PLAN_1
  6
CONTINUOUS
 10
1.110150
 20
-3.806807
  0
VERTEX
  8
PLAN_1
  6
CONTINUOUS
 10
1.110150
 20
-3.801937
  0
VERTEX
  8
PLAN_1
  6
CONTINUOUS
 10
1.109661
 20
-3.797551
  0
VERTEX
  8
PLAN_1
  6
CONTINUOUS
 10
1.108689
 20
-3.793654
  0
VERTEX
  8
PLAN_1
  6
CONTINUOUS
 10
1.107228
 20
-3.789752
  0
VERTEX
  8
PLAN_1
  6
CONTINUOUS
 10
1.105280
 20
-3.786343
  0
VERTEX
  8
PLAN_1
  6
CONTINUOUS
 10
1.103331
 20
-3.782933
  0
VERTEX
  8
PLAN_1
  6
CONTINUOUS
 10
1.100894
 20
-3.780496
  0
VERTEX
  8
PLAN_1
  6
CONTINUOUS
 10
1.098457
 20
-3.778059
  0
VERTEX
  8
PLAN_1
  6
CONTINUOUS
 10
1.095531
 20
-3.775622
  0
VERTEX
  8
PLAN_1
  6
CONTINUOUS
 10
1.092610
 20
-3.773673
  0
VERTEX
  8
PLAN_1
  6
CONTINUOUS
 10
1.089197
 20
-3.772213
  0
VERTEX
  8
PLAN_1
  6
CONTINUOUS
 10
1.085787
 20
-3.770752
  0
VERTEX
  8
PLAN_1
  6
CONTINUOUS
 10
1.081890
 20
-3.769776
  0
VERTEX
  8
PLAN_1
  6
CONTINUOUS
 10
1.077992
 20
-3.769287
  0
VERTEX
  8
PLAN_1
  6
CONTINUOUS
 10
1.074094
 20
-3.768803
  0
VERTEX
  8
PLAN_1
  6
CONTINUOUS
 10
1.069709
 20
-3.768803
  0
VERTEX
  8
PLAN_1
  6
CONTINUOUS
 10
1.064835
 20
-3.768803
  0
VERTEX
  8
PLAN_1
  6
CONTINUOUS
 10
1.060453
 20
-3.769287
  0
VERTEX
  8
PLAN_1
  6
CONTINUOUS
 10
1.056067
 20
-3.770264
  0
VERTEX
  8
PLAN_1
  6
CONTINUOUS
 10
1.052169
 20
-3.771724
  0
VERTEX
  8
PLAN_1
  6
CONTINUOUS
 10
1.048272
 20
-3.773673
  0
VERTEX
  8
PLAN_1
  6
CONTINUOUS
 10
1.044858
 20
-3.775138
  0
VERTEX
  8
PLAN_1
  6
CONTINUOUS
 10
1.041937
 20
-3.777571
  0
VERTEX
  8
PLAN_1
  6
CONTINUOUS
 10
1.039500
 20
-3.780008
  0
VERTEX
  8
PLAN_1
  6
CONTINUOUS
 10
1.037063
 20
-3.782445
  0
VERTEX
  8
PLAN_1
  6
CONTINUOUS
 10
1.035114
 20
-3.785370
  0
VERTEX
  8
PLAN_1
  6
CONTINUOUS
 10
1.033165
 20
-3.788291
  0
VERTEX
  8
PLAN_1
  6
CONTINUOUS
 10
1.032189
 20
-3.791705
  0
VERTEX
  8
PLAN_1
  6
CONTINUOUS
 10
1.030728
 20
-3.794626
  0
VERTEX
  8
PLAN_1
  6
CONTINUOUS
 10
1.030240
 20
-3.798035
  0
VERTEX
  8
PLAN_1
  6
CONTINUOUS
 10
1.029756
 20
-3.801449
  0
VERTEX
  8
PLAN_1
  6
CONTINUOUS
 10
1.029756
 20
-3.804858
  0
SEQEND
  8
0
  0
POLYLINE
  8
PLAN_1
  6
CONTINUOUS
 66
     1
 40
0.003000
 41
0.003000
  0
VERTEX
  8
PLAN_1
  6
CONTINUOUS
 10
1.104303
 20
-3.716177
  0
VERTEX
  8
PLAN_1
  6
CONTINUOUS
 10
1.103815
 20
-3.711795
  0
VERTEX
  8
PLAN_1
  6
CONTINUOUS
 10
1.102843
 20
-3.706433
  0
VERTEX
  8
PLAN_1
  6
CONTINUOUS
 10
1.101382
 20
-3.703996
  0
VERTEX
  8
PLAN_1
  6
CONTINUOUS
 10
1.100406
 20
-3.701563
  0
VERTEX
  8
PLAN_1
  6
CONTINUOUS
 10
1.098945
 20
-3.699614
  0
VERTEX
  8
PLAN_1
  6
CONTINUOUS
 10
1.096996
 20
-3.697177
  0
VERTEX
  8
PLAN_1
  6
CONTINUOUS
 10
1.094559
 20
-3.695228
  0
VERTEX
  8
PLAN_1
  6
CONTINUOUS
 10
1.092122
 20
-3.693280
  0
VERTEX
  8
PLAN_1
  6
CONTINUOUS
 10
1.089197
 20
-3.691331
  0
VERTEX
  8
PLAN_1
  6
CONTINUOUS
 10
1.085787
 20
-3.689866
  0
VERTEX
  8
PLAN_1
  6
CONTINUOUS
 10
1.081890
 20
-3.688894
  0
VERTEX
  8
PLAN_1
  6
CONTINUOUS
 10
1.077504
 20
-3.687917
  0
VERTEX
  8
PLAN_1
  6
CONTINUOUS
 10
1.073118
 20
-3.687433
  0
VERTEX
  8
PLAN_1
  6
CONTINUOUS
 10
1.067760
 20
-3.686945
  0
VERTEX
  8
PLAN_1
  6
CONTINUOUS
 10
1.063374
 20
-3.687433
  0
VERTEX
  8
PLAN_1
  6
CONTINUOUS
 10
1.058988
 20
-3.687917
  0
VERTEX
  8
PLAN_1
  6
CONTINUOUS
 10
1.055091
 20
-3.688894
  0
VERTEX
  8
PLAN_1
  6
CONTINUOUS
 10
1.051681
 20
-3.689866
  0
VERTEX
  8
PLAN_1
  6
CONTINUOUS
 10
1.048756
 20
-3.691815
  0
VERTEX
  8
PLAN_1
  6
CONTINUOUS
 10
1.046319
 20
-3.693280
  0
VERTEX
  8
PLAN_1
  6
CONTINUOUS
 10
1.043886
 20
-3.695717
  0
VERTEX
  8
PLAN_1
  6
CONTINUOUS
 10
1.041937
 20
-3.697665
  0
VERTEX
  8
PLAN_1
  6
CONTINUOUS
 10
1.039988
 20
-3.700098
  0
VERTEX
  8
PLAN_1
  6
CONTINUOUS
 10
1.039012
 20
-3.702535
  0
VERTEX
  8
PLAN_1
  6
CONTINUOUS
 10
1.037551
 20
-3.704972
  0
VERTEX
  8
PLAN_1
  6
CONTINUOUS
 10
1.037063
 20
-3.707409
  0
VERTEX
  8
PLAN_1
  6
CONTINUOUS
 10
1.035602
 20
-3.712768
  0
VERTEX
  8
PLAN_1
  6
CONTINUOUS
 10
1.035602
 20
-3.717642
  0
VERTEX
  8
PLAN_1
  6
CONTINUOUS
 10
1.035602
 20
-3.721051
  0
VERTEX
  8
PLAN_1
  6
CONTINUOUS
 10
1.036087
 20
-3.724461
  0
VERTEX
  8
PLAN_1
  6
CONTINUOUS
 10
1.037063
 20
-3.727386
  0
VERTEX
  8
PLAN_1
  6
CONTINUOUS
 10
1.038039
 20
-3.730311
  0
VERTEX
  8
PLAN_1
  6
CONTINUOUS
 10
1.039988
 20
-3.732744
  0
VERTEX
  8
PLAN_1
  6
CONTINUOUS
 10
1.041449
 20
-3.735181
  0
VERTEX
  8
PLAN_1
  6
CONTINUOUS
 10
1.043398
 20
-3.737618
  0
VERTEX
  8
PLAN_1
  6
CONTINUOUS
 10
1.045835
 20
-3.739567
  0
VERTEX
  8
PLAN_1
  6
CONTINUOUS
 10
1.048272
 20
-3.741516
  0
VERTEX
  8
PLAN_1
  6
CONTINUOUS
 10
1.051193
 20
-3.742976
  0
VERTEX
  8
PLAN_1
  6
CONTINUOUS
 10
1.053630
 20
-3.744441
  0
VERTEX
  8
PLAN_1
  6
CONTINUOUS
 10
1.056551
 20
-3.745413
  0
VERTEX
  8
PLAN_1
  6
CONTINUOUS
 10
1.059965
 20
-3.746390
  0
VERTEX
  8
PLAN_1
  6
CONTINUOUS
 10
1.062886
 20
-3.746874
  0
VERTEX
  8
PLAN_1
  6
CONTINUOUS
 10
1.066299
 20
-3.747362
  0
VERTEX
  8
PLAN_1
  6
CONTINUOUS
 10
1.069709
 20
-3.747362
  0
VERTEX
  8
PLAN_1
  6
CONTINUOUS
 10
1.073606
 20
-3.747362
  0
VERTEX
  8
PLAN_1
  6
CONTINUOUS
 10
1.077016
 20
-3.746874
  0
VERTEX
  8
PLAN_1
  6
CONTINUOUS
 10
1.080429
 20
-3.746390
  0
VERTEX
  8
PLAN_1
  6
CONTINUOUS
 10
1.083839
 20
-3.745413
  0
VERTEX
  8
PLAN_1
  6
CONTINUOUS
 10
1.086764
 20
-3.743953
  0
VERTEX
  8
PLAN_1
  6
CONTINUOUS
 10
1.089685
 20
-3.742492
  0
VERTEX
  8
PLAN_1
  6
CONTINUOUS
 10
1.092610
 20
-3.740543
  0
VERTEX
  8
PLAN_1
  6
CONTINUOUS
 10
1.095047
 20
-3.738594
  0
VERTEX
  8
PLAN_1
  6
CONTINUOUS
 10
1.096996
 20
-3.736157
  0
VERTEX
  8
PLAN_1
  6
CONTINUOUS
 10
1.098945
 20
-3.734209
  0
VERTEX
  8
PLAN_1
  6
CONTINUOUS
 10
1.100406
 20
-3.731283
  0
VERTEX
  8
PLAN_1
  6
CONTINUOUS
 10
1.101866
 20
-3.728846
  0
VERTEX
  8
PLAN_1
  6
CONTINUOUS
 10
1.102843
 20
-3.725925
  0
VERTEX
  8
PLAN_1
  6
CONTINUOUS
 10
1.103815
 20
-3.722512
  0
VERTEX
  8
PLAN_1
  6
CONTINUOUS
 10
1.104303
 20
-3.719591
  0
VERTEX
  8
PLAN_1
  6
CONTINUOUS
 10
1.104303
 20
-3.716177
  0
SEQEND
  8
0
  0
SOLID
  8
PLAN_1
 10
1.147181
 20
-3.895000
 11
1.147181
 21
-3.881358
 12
1.301638
 22
-3.895000
 13
1.301638
 23
-3.881358
  0
POLYLINE
  8
PLAN_1
  6
CONTINUOUS
 66
     1
 40
0.003000
 41
0.003000
  0
VERTEX
  8
PLAN_1
  6
CONTINUOUS
 10
1.147181
 20
-3.895000
  0
VERTEX
  8
PLAN_1
  6
CONTINUOUS
 10
1.147181
 20
-3.881358
  0
VERTEX
  8
PLAN_1
  6
CONTINUOUS
 10
1.301638
 20
-3.881358
  0
VERTEX
  8
PLAN_1
  6
CONTINUOUS
 10
1.301638
 20
-3.895000
  0
VERTEX
  8
PLAN_1
  6
CONTINUOUS
 10
1.147181
 20
-3.895000
  0
SEQEND
  8
0
  0
POLYLINE
  8
PLAN_1
  6
CONTINUOUS
 66
     1
 40
0.003000
 41
0.003000
  0
VERTEX
  8
PLAN_1
  6
CONTINUOUS
 10
1.352799
 20
-3.860406
  0
VERTEX
  8
PLAN_1
  6
CONTINUOUS
 10
1.325516
 20
-3.860406
  0
VERTEX
  8
PLAN_1
  6
CONTINUOUS
 10
1.325516
 20
-3.661118
  0
VERTEX
  8
PLAN_1
  6
CONTINUOUS
 10
1.463406
 20
-3.661118
  0
VERTEX
  8
PLAN_1
  6
CONTINUOUS
 10
1.463406
 20
-3.684996
  0
VERTEX
  8
PLAN_1
  6
CONTINUOUS
 10
1.352799
 20
-3.684996
  0
VERTEX
  8
PLAN_1
  6
CONTINUOUS
 10
1.352799
 20
-3.745902
  0
VERTEX
  8
PLAN_1
  6
CONTINUOUS
 10
1.450252
 20
-3.745902
  0
VERTEX
  8
PLAN_1
  6
CONTINUOUS
 10
1.450252
 20
-3.769776
  0
VERTEX
  8
PLAN_1
  6
CONTINUOUS
 10
1.352799
 20
-3.769776
  0
VERTEX
  8
PLAN_1
  6
CONTINUOUS
 10
1.352799
 20
-3.860406
  0
SEQEND
  8
0
  0
SOLID
  8
PLAN_1
 10
1.482898
 20
-3.860406
 11
1.454150
 21
-3.860406
 12
1.482898
 22
-3.830681
 13
1.454150
 23
-3.830681
  0
POLYLINE
  8
PLAN_1
  6
CONTINUOUS
 66
     1
 40
0.003000
 41
0.003000
  0
VERTEX
  8
PLAN_1
  6
CONTINUOUS
 10
1.482898
 20
-3.860406
  0
VERTEX
  8
PLAN_1
  6
CONTINUOUS
 10
1.454150
 20
-3.860406
  0
VERTEX
  8
PLAN_1
  6
CONTINUOUS
 10
1.454150
 20
-3.830681
  0
VERTEX
  8
PLAN_1
  6
CONTINUOUS
 10
1.482898
 20
-3.830681
  0
VERTEX
  8
PLAN_1
  6
CONTINUOUS
 10
1.482898
 20
-3.860406
  0
SEQEND
  8
0
  0
POLYLINE
  8
PLAN_1
  6
CONTINUOUS
 66
     1
 40
0.003000
 41
0.003000
  0
VERTEX
  8
PLAN_1
  6
CONTINUOUS
 10
1.677795
 20
-3.860406
  0
VERTEX
  8
PLAN_1
  6
CONTINUOUS
 10
1.530646
 20
-3.860406
  0
VERTEX
  8
PLAN_1
  6
CONTINUOUS
 10
1.530646
 20
-3.661118
  0
VERTEX
  8
PLAN_1
  6
CONTINUOUS
 10
1.675846
 20
-3.661118
  0
VERTEX
  8
PLAN_1
  6
CONTINUOUS
 10
1.675846
 20
-3.684996
  0
VERTEX
  8
PLAN_1
  6
CONTINUOUS
 10
1.557933
 20
-3.684996
  0
VERTEX
  8
PLAN_1
  6
CONTINUOUS
 10
1.557933
 20
-3.745902
  0
VERTEX
  8
PLAN_1
  6
CONTINUOUS
 10
1.667079
 20
-3.745902
  0
VERTEX
  8
PLAN_1
  6
CONTINUOUS
 10
1.667079
 20
-3.769776
  0
VERTEX
  8
PLAN_1
  6
CONTINUOUS
 10
1.557933
 20
-3.769776
  0
VERTEX
  8
PLAN_1
  6
CONTINUOUS
 10
1.557933
 20
-3.836531
  0
VERTEX
  8
PLAN_1
  6
CONTINUOUS
 10
1.677795
 20
-3.836531
  0
VERTEX
  8
PLAN_1
  6
CONTINUOUS
 10
1.677795
 20
-3.860406
  0
SEQEND
  8
0
  0
POLYLINE
  8
PLAN_1
  6
CONTINUOUS
 66
     1
 40
0.003000
 41
0.003000
  0
VERTEX
  8
PLAN_1
  6
CONTINUOUS
 10
1.743087
 20
-3.860406
  0
VERTEX
  8
PLAN_1
  6
CONTINUOUS
 10
1.716291
 20
-3.860406
  0
VERTEX
  8
PLAN_1
  6
CONTINUOUS
 10
1.716291
 20
-3.661118
  0
VERTEX
  8
PLAN_1
  6
CONTINUOUS
 10
1.805945
 20
-3.661118
  0
VERTEX
  8
PLAN_1
  6
CONTINUOUS
 10
1.812280
 20
-3.661118
  0
VERTEX
  8
PLAN_1
  6
CONTINUOUS
 10
1.819098
 20
-3.662094
  0
VERTEX
  8
PLAN_1
  6
CONTINUOUS
 10
1.824945
 20
-3.663555
  0
VERTEX
  8
PLAN_1
  6
CONTINUOUS
 10
1.830791
 20
-3.665020
  0
VERTEX
  8
PLAN_1
  6
CONTINUOUS
 10
1.835665
 20
-3.667453
  0
VERTEX
  8
PLAN_1
  6
CONTINUOUS
 10
1.840539
 20
-3.670378
  0
VERTEX
  8
PLAN_1
  6
CONTINUOUS
 10
1.844925
 20
-3.673299
  0
VERTEX
  8
PLAN_1
  6
CONTINUOUS
 10
1.849307
 20
-3.676713
  0
VERTEX
  8
PLAN_1
  6
CONTINUOUS
 10
1.852720
 20
-3.681098
  0
VERTEX
  8
PLAN_1
  6
CONTINUOUS
 10
1.855642
 20
-3.684996
  0
VERTEX
  8
PLAN_1
  6
CONTINUOUS
 10
1.858567
 20
-3.689866
  0
VERTEX
  8
PLAN_1
  6
CONTINUOUS
 10
1.861004
 20
-3.694740
  0
VERTEX
  8
PLAN_1
  6
CONTINUOUS
 10
1.862465
 20
-3.700098
  0
VERTEX
  8
PLAN_1
  6
CONTINUOUS
 10
1.863925
 20
-3.705461
  0
VERTEX
  8
PLAN_1
  6
CONTINUOUS
 10
1.864413
 20
-3.711307
  0
VERTEX
  8
PLAN_1
  6
CONTINUOUS
 10
1.864902
 20
-3.717154
  0
VERTEX
  8
PLAN_1
  6
CONTINUOUS
 10
1.864902
 20
-3.722512
  0
VERTEX
  8
PLAN_1
  6
CONTINUOUS
 10
1.863925
 20
-3.727386
  0
VERTEX
  8
PLAN_1
  6
CONTINUOUS
 10
1.862953
 20
-3.732744
  0
VERTEX
  8
PLAN_1
  6
CONTINUOUS
 10
1.861488
 20
-3.738106
  0
VERTEX
  8
PLAN_1
  6
CONTINUOUS
 10
1.860028
 20
-3.742976
  0
VERTEX
  8
PLAN_1
  6
CONTINUOUS
 10
1.857591
 20
-3.747850
  0
VERTEX
  8
PLAN_1
  6
CONTINUOUS
 10
1.854669
 20
-3.752724
  0
VERTEX
  8
PLAN_1
  6
CONTINUOUS
 10
1.851744
 20
-3.757106
  0
VERTEX
  8
PLAN_1
  6
CONTINUOUS
 10
1.847846
 20
-3.761008
  0
VERTEX
  8
PLAN_1
  6
CONTINUOUS
 10
1.843461
 20
-3.764906
  0
VERTEX
  8
PLAN_1
  6
CONTINUOUS
 10
1.838591
 20
-3.768315
  0
VERTEX
  8
PLAN_1
  6
CONTINUOUS
 10
1.833228
 20
-3.770752
  0
VERTEX
  8
PLAN_1
  6
CONTINUOUS
 10
1.827382
 20
-3.773189
  0
VERTEX
  8
PLAN_1
  6
CONTINUOUS
 10
1.820559
 20
-3.774650
  0
VERTEX
  8
PLAN_1
  6
CONTINUOUS
 10
1.813740
 20
-3.775622
  0
VERTEX
  8
PLAN_1
  6
CONTINUOUS
 10
1.805945
 20
-3.776110
  0
VERTEX
  8
PLAN_1
  6
CONTINUOUS
 10
1.743087
 20
-3.776110
  0
VERTEX
  8
PLAN_1
  6
CONTINUOUS
 10
1.743087
 20
-3.860406
  0
SEQEND
  8
0
  0
POLYLINE
  8
PLAN_1
  6
CONTINUOUS
 66
     1
 40
0.003000
 41
0.003000
  0
VERTEX
  8
PLAN_1
  6
CONTINUOUS
 10
1.743087
 20
-3.753209
  0
VERTEX
  8
PLAN_1
  6
CONTINUOUS
 10
1.796685
 20
-3.753209
  0
VERTEX
  8
PLAN_1
  6
CONTINUOUS
 10
1.801071
 20
-3.753209
  0
VERTEX
  8
PLAN_1
  6
CONTINUOUS
 10
1.805457
 20
-3.752724
  0
VERTEX
  8
PLAN_1
  6
CONTINUOUS
 10
1.809354
 20
-3.752236
  0
VERTEX
  8
PLAN_1
  6
CONTINUOUS
 10
1.813252
 20
-3.751260
  0
VERTEX
  8
PLAN_1
  6
CONTINUOUS
 10
1.816661
 20
-3.750287
  0
VERTEX
  8
PLAN_1
  6
CONTINUOUS
 10
1.820075
 20
-3.748827
  0
VERTEX
  8
PLAN_1
  6
CONTINUOUS
 10
1.822996
 20
-3.747362
  0
VERTEX
  8
PLAN_1
  6
CONTINUOUS
 10
1.825921
 20
-3.745413
  0
VERTEX
  8
PLAN_1
  6
CONTINUOUS
 10
1.828358
 20
-3.742976
  0
VERTEX
  8
PLAN_1
  6
CONTINUOUS
 10
1.830791
 20
-3.740543
  0
VERTEX
  8
PLAN_1
  6
CONTINUOUS
 10
1.832744
 20
-3.737618
  0
VERTEX
  8
PLAN_1
  6
CONTINUOUS
 10
1.834205
 20
-3.734209
  0
VERTEX
  8
PLAN_1
  6
CONTINUOUS
 10
1.835665
 20
-3.730795
  0
VERTEX
  8
PLAN_1
  6
CONTINUOUS
 10
1.836154
 20
-3.726409
  0
VERTEX
  8
PLAN_1
  6
CONTINUOUS
 10
1.837126
 20
-3.722028
  0
VERTEX
  8
PLAN_1
  6
CONTINUOUS
 10
1.837126
 20
-3.717154
  0
VERTEX
  8
PLAN_1
  6
CONTINUOUS
 10
1.837126
 20
-3.712768
  0
VERTEX
  8
PLAN_1
  6
CONTINUOUS
 10
1.836154
 20
-3.708870
  0
VERTEX
  8
PLAN_1
  6
CONTINUOUS
 10
1.835177
 20
-3.704972
  0
VERTEX
  8
PLAN_1
  6
CONTINUOUS
 10
1.834205
 20
-3.701563
  0
VERTEX
  8
PLAN_1
  6
CONTINUOUS
 10
1.832256
 20
-3.698638
  0
VERTEX
  8
PLAN_1
  6
CONTINUOUS
 10
1.830307
 20
-3.695717
  0
VERTEX
  8
PLAN_1
  6
CONTINUOUS
 10
1.828358
 20
-3.693280
  0
VERTEX
  8
PLAN_1
  6
CONTINUOUS
 10
1.825921
 20
-3.691331
  0
VERTEX
  8
PLAN_1
  6
CONTINUOUS
 10
1.822996
 20
-3.689382
  0
VERTEX
  8
PLAN_1
  6
CONTINUOUS
 10
1.820075
 20
-3.687917
  0
VERTEX
  8
PLAN_1
  6
CONTINUOUS
 10
1.816661
 20
-3.686457
  0
VERTEX
  8
PLAN_1
  6
CONTINUOUS
 10
1.813252
 20
-3.685484
  0
VERTEX
  8
PLAN_1
  6
CONTINUOUS
 10
1.805945
 20
-3.684508
  0
VERTEX
  8
PLAN_1
  6
CONTINUOUS
 10
1.797661
 20
-3.684020
  0
VERTEX
  8
PLAN_1
  6
CONTINUOUS
 10
1.743087
 20
-3.684020
  0
VERTEX
  8
PLAN_1
  6
CONTINUOUS
 10
1.743087
 20
-3.753209
  0
SEQEND
  8
0
  0
POLYLINE
  8
PLAN_1
  6
CONTINUOUS
 66
     1
 40
0.003000
 41
0.003000
  0
VERTEX
  8
PLAN_1
  6
CONTINUOUS
 10
2.018870
 20
-3.719102
  0
VERTEX
  8
PLAN_1
  6
CONTINUOUS
 10
2.018386
 20
-3.713744
  0
VERTEX
  8
PLAN_1
  6
CONTINUOUS
 10
2.016921
 20
-3.708870
  0
VERTEX
  8
PLAN_1
  6
CONTINUOUS
 10
2.015461
 20
-3.703996
  0
VERTEX
  8
PLAN_1
  6
CONTINUOUS
 10
2.013512
 20
-3.700098
  0
VERTEX
  8
PLAN_1
  6
CONTINUOUS
 10
2.011075
 20
-3.696201
  0
VERTEX
  8
PLAN_1
  6
CONTINUOUS
 10
2.008638
 20
-3.692791
  0
VERTEX
  8
PLAN_1
  6
CONTINUOUS
 10
2.005228
 20
-3.689866
  0
VERTEX
  8
PLAN_1
  6
CONTINUOUS
 10
2.001819
 20
-3.687433
  0
VERTEX
  8
PLAN_1
  6
CONTINUOUS
 10
1.998406
 20
-3.685484
  0
VERTEX
  8
PLAN_1
  6
CONTINUOUS
 10
1.994508
 20
-3.683531
  0
VERTEX
  8
PLAN_1
  6
CONTINUOUS
 10
1.990610
 20
-3.682071
  0
VERTEX
  8
PLAN_1
  6
CONTINUOUS
 10
1.986224
 20
-3.680610
  0
VERTEX
  8
PLAN_1
  6
CONTINUOUS
 10
1.982327
 20
-3.679634
  0
VERTEX
  8
PLAN_1
  6
CONTINUOUS
 10
1.977941
 20
-3.679150
  0
VERTEX
  8
PLAN_1
  6
CONTINUOUS
 10
1.973559
 20
-3.678661
  0
VERTEX
  8
PLAN_1
  6
CONTINUOUS
 10
1.969173
 20
-3.678661
  0
VERTEX
  8
PLAN_1
  6
CONTINUOUS
 10
1.962350
 20
-3.679150
  0
VERTEX
  8
PLAN_1
  6
CONTINUOUS
 10
1.955043
 20
-3.680122
  0
VERTEX
  8
PLAN_1
  6
CONTINUOUS
 10
1.951146
 20
-3.680610
  0
VERTEX
  8
PLAN_1
  6
CONTINUOUS
 10
1.947244
 20
-3.682071
  0
VERTEX
  8
PLAN_1
  6
CONTINUOUS
 10
1.943835
 20
-3.683047
  0
VERTEX
  8
PLAN_1
  6
CONTINUOUS
 10
1.940425
 20
-3.684996
  0
VERTEX
  8
PLAN_1
  6
CONTINUOUS
 10
1.937012
 20
-3.686945
  0
VERTEX
  8
PLAN_1
  6
CONTINUOUS
 10
1.933602
 20
-3.689382
  0
VERTEX
  8
PLAN_1
  6
CONTINUOUS
 10
1.931165
 20
-3.692303
  0
VERTEX
  8
PLAN_1
  6
CONTINUOUS
 10
1.928732
 20
-3.695717
  0
VERTEX
  8
PLAN_1
  6
CONTINUOUS
 10
1.926780
 20
-3.699126
  0
VERTEX
  8
PLAN_1
  6
CONTINUOUS
 10
1.925319
 20
-3.703512
  0
VERTEX
  8
PLAN_1
  6
CONTINUOUS
 10
1.924346
 20
-3.708382
  0
VERTEX
  8
PLAN_1
  6
CONTINUOUS
 10
1.923858
 20
-3.713744
  0
VERTEX
  8
PLAN_1
  6
CONTINUOUS
 10
1.923858
 20
-3.716665
  0
VERTEX
  8
PLAN_1
  6
CONTINUOUS
 10
1.924346
 20
-3.719591
  0
VERTEX
  8
PLAN_1
  6
CONTINUOUS
 10
1.924831
 20
-3.722028
  0
VERTEX
  8
PLAN_1
  6
CONTINUOUS
 10
1.925807
 20
-3.724461
  0
VERTEX
  8
PLAN_1
  6
CONTINUOUS
 10
1.926780
 20
-3.726409
  0
VERTEX
  8
PLAN_1
  6
CONTINUOUS
 10
1.928244
 20
-3.728362
  0
VERTEX
  8
PLAN_1
  6
CONTINUOUS
 10
1.929705
 20
-3.730311
  0
VERTEX
  8
PLAN_1
  6
CONTINUOUS
 10
1.931165
 20
-3.731772
  0
VERTEX
  8
PLAN_1
  6
CONTINUOUS
 10
1.935063
 20
-3.734209
  0
VERTEX
  8
PLAN_1
  6
CONTINUOUS
 10
1.938965
 20
-3.736157
  0
VERTEX
  8
PLAN_1
  6
CONTINUOUS
 10
1.942862
 20
-3.737618
  0
VERTEX
  8
PLAN_1
  6
CONTINUOUS
 10
1.947244
 20
-3.739079
  0
VERTEX
  8
PLAN_1
  6
CONTINUOUS
 10
2.004256
 20
-3.752236
  0
VERTEX
  8
PLAN_1
  6
CONTINUOUS
 10
2.009126
 20
-3.753209
  0
VERTEX
  8
PLAN_1
  6
CONTINUOUS
 10
2.013512
 20
-3.754673
  0
VERTEX
  8
PLAN_1
  6
CONTINUOUS
 10
2.017898
 20
-3.756622
  0
VERTEX
  8
PLAN_1
  6
CONTINUOUS
 10
2.022283
 20
-3.758571
  0
VERTEX
  8
PLAN_1
  6
CONTINUOUS
 10
2.026181
 20
-3.760520
  0
VERTEX
  8
PLAN_1
  6
CONTINUOUS
 10
2.030079
 20
-3.763441
  0
VERTEX
  8
PLAN_1
  6
CONTINUOUS
 10
2.033488
 20
-3.765878
  0
VERTEX
  8
PLAN_1
  6
CONTINUOUS
 10
2.036413
 20
-3.769287
  0
VERTEX
  8
PLAN_1
  6
CONTINUOUS
 10
2.039335
 20
-3.772701
  0
VERTEX
  8
PLAN_1
  6
CONTINUOUS
 10
2.042260
 20
-3.776110
  0
VERTEX
  8
PLAN_1
  6
CONTINUOUS
 10
2.044209
 20
-3.780008
  0
VERTEX
  8
PLAN_1
  6
CONTINUOUS
 10
2.046157
 20
-3.784394
  0
VERTEX
  8
PLAN_1
  6
CONTINUOUS
 10
2.047618
 20
-3.789268
  0
VERTEX
  8
PLAN_1
  6
CONTINUOUS
 10
2.048594
 20
-3.794138
  0
VERTEX
  8
PLAN_1
  6
CONTINUOUS
 10
2.049567
 20
-3.799500
  0
VERTEX
  8
PLAN_1
  6
CONTINUOUS
 10
2.049567
 20
-3.805346
  0
VERTEX
  8
PLAN_1
  6
CONTINUOUS
 10
2.049567
 20
-3.809732
  0
VERTEX
  8
PLAN_1
  6
CONTINUOUS
 10
2.049083
 20
-3.813630
  0
VERTEX
  8
PLAN_1
  6
CONTINUOUS
 10
2.048594
 20
-3.817528
  0
VERTEX
  8
PLAN_1
  6
CONTINUOUS
 10
2.047618
 20
-3.821425
  0
VERTEX
  8
PLAN_1
  6
CONTINUOUS
 10
2.046646
 20
-3.824835
  0
VERTEX
  8
PLAN_1
  6
CONTINUOUS
 10
2.045185
 20
-3.828248
  0
VERTEX
  8
PLAN_1
  6
CONTINUOUS
 10
2.043720
 20
-3.831657
  0
VERTEX
  8
PLAN_1
  6
CONTINUOUS
 10
2.042260
 20
-3.834583
  0
VERTEX
  8
PLAN_1
  6
CONTINUOUS
 10
2.038362
 20
-3.840429
  0
VERTEX
  8
PLAN_1
  6
CONTINUOUS
 10
2.033976
 20
-3.845299
  0
VERTEX
  8
PLAN_1
  6
CONTINUOUS
 10
2.029102
 20
-3.849685
  0
VERTEX
  8
PLAN_1
  6
CONTINUOUS
 10
2.023256
 20
-3.853094
  0
VERTEX
  8
PLAN_1
  6
CONTINUOUS
 10
2.017409
 20
-3.856508
  0
VERTEX
  8
PLAN_1
  6
CONTINUOUS
 10
2.011075
 20
-3.858945
  0
VERTEX
  8
PLAN_1
  6
CONTINUOUS
 10
2.004740
 20
-3.860894
  0
VERTEX
  8
PLAN_1
  6
CONTINUOUS
 10
1.997921
 20
-3.862843
  0
VERTEX
  8
PLAN_1
  6
CONTINUOUS
 10
1.991587
 20
-3.864303
  0
VERTEX
  8
PLAN_1
  6
CONTINUOUS
 10
1.984764
 20
-3.864791
  0
VERTEX
  8
PLAN_1
  6
CONTINUOUS
 10
1.977941
 20
-3.865280
  0
VERTEX
  8
PLAN_1
  6
CONTINUOUS
 10
1.971610
 20
-3.865764
  0
VERTEX
  8
PLAN_1
  6
CONTINUOUS
 10
1.964787
 20
-3.865280
  0
VERTEX
  8
PLAN_1
  6
CONTINUOUS
 10
1.958941
 20
-3.865280
  0
VERTEX
  8
PLAN_1
  6
CONTINUOUS
 10
1.953094
 20
-3.864303
  0
VERTEX
  8
PLAN_1
  6
CONTINUOUS
 10
1.947732
 20
-3.863815
  0
VERTEX
  8
PLAN_1
  6
CONTINUOUS
 10
1.938476
 20
-3.861866
  0
VERTEX
  8
PLAN_1
  6
CONTINUOUS
 10
1.931165
 20
-3.858945
  0
VERTEX
  8
PLAN_1
  6
CONTINUOUS
 10
1.924346
 20
-3.856020
  0
VERTEX
  8
PLAN_1
  6
CONTINUOUS
 10
1.919472
 20
-3.852610
  0
VERTEX
  8
PLAN_1
  6
CONTINUOUS
 10
1.915087
 20
-3.849685
  0
VERTEX
  8
PLAN_1
  6
CONTINUOUS
 10
1.911189
 20
-3.846276
  0
VERTEX
  8
PLAN_1
  6
CONTINUOUS
 10
1.905831
 20
-3.840429
  0
VERTEX
  8
PLAN_1
  6
CONTINUOUS
 10
1.900957
 20
-3.834583
  0
VERTEX
  8
PLAN_1
  6
CONTINUOUS
 10
1.897547
 20
-3.828732
  0
VERTEX
  8
PLAN_1
  6
CONTINUOUS
 10
1.894622
 20
-3.822398
  0
VERTEX
  8
PLAN_1
  6
CONTINUOUS
 10
1.893161
 20
-3.816067
  0
VERTEX
  8
PLAN_1
  6
CONTINUOUS
 10
1.891701
 20
-3.809732
  0
VERTEX
  8
PLAN_1
  6
CONTINUOUS
 10
1.891213
 20
-3.802909
  0
VERTEX
  8
PLAN_1
  6
CONTINUOUS
 10
1.891213
 20
-3.796087
  0
VERTEX
  8
PLAN_1
  6
CONTINUOUS
 10
1.916547
 20
-3.796087
  0
VERTEX
  8
PLAN_1
  6
CONTINUOUS
 10
1.916547
 20
-3.802421
  0
VERTEX
  8
PLAN_1
  6
CONTINUOUS
 10
1.917524
 20
-3.808268
  0
VERTEX
  8
PLAN_1
  6
CONTINUOUS
 10
1.918984
 20
-3.813630
  0
VERTEX
  8
PLAN_1
  6
CONTINUOUS
 10
1.921421
 20
-3.818500
  0
VERTEX
  8
PLAN_1
  6
CONTINUOUS
 10
1.923858
 20
-3.822886
  0
VERTEX
  8
PLAN_1
  6
CONTINUOUS
 10
1.926780
 20
-3.826299
  0
VERTEX
  8
PLAN_1
  6
CONTINUOUS
 10
1.930193
 20
-3.829709
  0
VERTEX
  8
PLAN_1
  6
CONTINUOUS
 10
1.934091
 20
-3.832630
  0
VERTEX
  8
PLAN_1
  6
CONTINUOUS
 10
1.938476
 20
-3.835067
  0
VERTEX
  8
PLAN_1
  6
CONTINUOUS
 10
1.942862
 20
-3.837504
  0
VERTEX
  8
PLAN_1
  6
CONTINUOUS
 10
1.947244
 20
-3.838965
  0
VERTEX
  8
PLAN_1
  6
CONTINUOUS
 10
1.952118
 20
-3.840429
  0
VERTEX
  8
PLAN_1
  6
CONTINUOUS
 10
1.956504
 20
-3.841402
  0
VERTEX
  8
PLAN_1
  6
CONTINUOUS
 10
1.961378
 20
-3.841890
  0
VERTEX
  8
PLAN_1
  6
CONTINUOUS
 10
1.966248
 20
-3.842378
  0
VERTEX
  8
PLAN_1
  6
CONTINUOUS
 10
1.971122
 20
-3.842378
  0
VERTEX
  8
PLAN_1
  6
CONTINUOUS
 10
1.978917
 20
-3.842378
  0
VERTEX
  8
PLAN_1
  6
CONTINUOUS
 10
1.987689
 20
-3.841402
  0
VERTEX
  8
PLAN_1
  6
CONTINUOUS
 10
1.992075
 20
-3.840429
  0
VERTEX
  8
PLAN_1
  6
CONTINUOUS
 10
1.996457
 20
-3.839453
  0
VERTEX
  8
PLAN_1
  6
CONTINUOUS
 10
2.000354
 20
-3.837992
  0
VERTEX
  8
PLAN_1
  6
CONTINUOUS
 10
2.004740
 20
-3.836531
  0
VERTEX
  8
PLAN_1
  6
CONTINUOUS
 10
2.008638
 20
-3.834583
  0
VERTEX
  8
PLAN_1
  6
CONTINUOUS
 10
2.012051
 20
-3.832146
  0
VERTEX
  8
PLAN_1
  6
CONTINUOUS
 10
2.015461
 20
-3.829220
  0
VERTEX
  8
PLAN_1
  6
CONTINUOUS
 10
2.017898
 20
-3.826299
  0
VERTEX
  8
PLAN_1
  6
CONTINUOUS
 10
2.020335
 20
-3.822886
  0
VERTEX
  8
PLAN_1
  6
CONTINUOUS
 10
2.021795
 20
-3.818500
  0
VERTEX
  8
PLAN_1
  6
CONTINUOUS
 10
2.023256
 20
-3.814118
  0
VERTEX
  8
PLAN_1
  6
CONTINUOUS
 10
2.023256
 20
-3.808756
  0
VERTEX
  8
PLAN_1
  6
CONTINUOUS
 10
2.023256
 20
-3.805346
  0
VERTEX
  8
PLAN_1
  6
CONTINUOUS
 10
2.022768
 20
-3.801937
  0
VERTEX
  8
PLAN_1
  6
CONTINUOUS
 10
2.022283
 20
-3.798524
  0
VERTEX
  8
PLAN_1
  6
CONTINUOUS
 10
2.021307
 20
-3.795602
  0
VERTEX
  8
PLAN_1
  6
CONTINUOUS
 10
2.020335
 20
-3.793165
  0
VERTEX
  8
PLAN_1
  6
CONTINUOUS
 10
2.018870
 20
-3.790728
  0
VERTEX
  8
PLAN_1
  6
CONTINUOUS
 10
2.016921
 20
-3.788291
  0
VERTEX
  8
PLAN_1
  6
CONTINUOUS
 10
2.014488
 20
-3.786343
  0
VERTEX
  8
PLAN_1
  6
CONTINUOUS
 10
2.012051
 20
-3.784394
  0
VERTEX
  8
PLAN_1
  6
CONTINUOUS
 10
2.008638
 20
-3.782933
  0
VERTEX
  8
PLAN_1
  6
CONTINUOUS
 10
2.005228
 20
-3.780984
  0
VERTEX
  8
PLAN_1
  6
CONTINUOUS
 10
2.001331
 20
-3.779520
  0
VERTEX
  8
PLAN_1
  6
CONTINUOUS
 10
1.992075
 20
-3.776598
  0
VERTEX
  8
PLAN_1
  6
CONTINUOUS
 10
1.980866
 20
-3.773673
  0
VERTEX
  8
PLAN_1
  6
CONTINUOUS
 10
1.940425
 20
-3.764417
  0
VERTEX
  8
PLAN_1
  6
CONTINUOUS
 10
1.934579
 20
-3.762957
  0
VERTEX
  8
PLAN_1
  6
CONTINUOUS
 10
1.928244
 20
-3.760520
  0
VERTEX
  8
PLAN_1
  6
CONTINUOUS
 10
1.924346
 20
-3.759059
  0
VERTEX
  8
PLAN_1
  6
CONTINUOUS
 10
1.920933
 20
-3.757106
  0
VERTEX
  8
PLAN_1
  6
CONTINUOUS
 10
1.917524
 20
-3.755157
  0
VERTEX
  8
PLAN_1
  6
CONTINUOUS
 10
1.914114
 20
-3.752724
  0
VERTEX
  8
PLAN_1
  6
CONTINUOUS
 10
1.910701
 20
-3.749799
  0
VERTEX
  8
PLAN_1
  6
CONTINUOUS
 10
1.907780
 20
-3.746874
  0
VERTEX
  8
PLAN_1
  6
CONTINUOUS
 10
1.904854
 20
-3.742976
  0
VERTEX
  8
PLAN_1
  6
CONTINUOUS
 10
1.902417
 20
-3.739079
  0
VERTEX
  8
PLAN_1
  6
CONTINUOUS
 10
1.900469
 20
-3.734209
  0
VERTEX
  8
PLAN_1
  6
CONTINUOUS
 10
1.899008
 20
-3.729335
  0
VERTEX
  8
PLAN_1
  6
CONTINUOUS
 10
1.898035
 20
-3.723488
  0
VERTEX
  8
PLAN_1
  6
CONTINUOUS
 10
1.897547
 20
-3.717154
  0
VERTEX
  8
PLAN_1
  6
CONTINUOUS
 10
1.898035
 20
-3.711307
  0
VERTEX
  8
PLAN_1
  6
CONTINUOUS
 10
1.898520
 20
-3.705945
  0
VERTEX
  8
PLAN_1
  6
CONTINUOUS
 10
1.899984
 20
-3.700098
  0
VERTEX
  8
PLAN_1
  6
CONTINUOUS
 10
1.901445
 20
-3.694740
  0
VERTEX
  8
PLAN_1
  6
CONTINUOUS
 10
1.903882
 20
-3.689382
  0
VERTEX
  8
PLAN_1
  6
CONTINUOUS
 10
1.906803
 20
-3.684020
  0
VERTEX
  8
PLAN_1
  6
CONTINUOUS
 10
1.910217
 20
-3.679150
  0
VERTEX
  8
PLAN_1
  6
CONTINUOUS
 10
1.914114
 20
-3.674764
  0
VERTEX
  8
PLAN_1
  6
CONTINUOUS
 10
1.918500
 20
-3.670866
  0
VERTEX
  8
PLAN_1
  6
CONTINUOUS
 10
1.923370
 20
-3.666969
  0
VERTEX
  8
PLAN_1
  6
CONTINUOUS
 10
1.929217
 20
-3.663555
  0
VERTEX
  8
PLAN_1
  6
CONTINUOUS
 10
1.935063
 20
-3.661118
  0
VERTEX
  8
PLAN_1
  6
CONTINUOUS
 10
1.941886
 20
-3.658685
  0
VERTEX
  8
PLAN_1
  6
CONTINUOUS
 10
1.949681
 20
-3.657220
  0
VERTEX
  8
PLAN_1
  6
CONTINUOUS
 10
1.957476
 20
-3.656248
  0
VERTEX
  8
PLAN_1
  6
CONTINUOUS
 10
1.966248
 20
-3.655760
  0
VERTEX
  8
PLAN_1
  6
CONTINUOUS
 10
1.972583
 20
-3.655760
  0
VERTEX
  8
PLAN_1
  6
CONTINUOUS
 10
1.978429
 20
-3.656248
  0
VERTEX
  8
PLAN_1
  6
CONTINUOUS
 10
1.984276
 20
-3.656736
  0
VERTEX
  8
PLAN_1
  6
CONTINUOUS
 10
1.989638
 20
-3.657709
  0
VERTEX
  8
PLAN_1
  6
CONTINUOUS
 10
1.994508
 20
-3.658685
  0
VERTEX
  8
PLAN_1
  6
CONTINUOUS
 10
1.999382
 20
-3.659657
  0
VERTEX
  8
PLAN_1
  6
CONTINUOUS
 10
2.003768
 20
-3.661118
  0
VERTEX
  8
PLAN_1
  6
CONTINUOUS
 10
2.007665
 20
-3.662583
  0
VERTEX
  8
PLAN_1
  6
CONTINUOUS
 10
2.014972
 20
-3.665992
  0
VERTEX
  8
PLAN_1
  6
CONTINUOUS
 10
2.021307
 20
-3.669890
  0
VERTEX
  8
PLAN_1
  6
CONTINUOUS
 10
2.026669
 20
-3.674276
  0
VERTEX
  8
PLAN_1
  6
CONTINUOUS
 10
2.031051
 20
-3.679150
  0
VERTEX
  8
PLAN_1
  6
CONTINUOUS
 10
2.034465
 20
-3.684508
  0
VERTEX
  8
PLAN_1
  6
CONTINUOUS
 10
2.037386
 20
-3.689382
  0
VERTEX
  8
PLAN_1
  6
CONTINUOUS
 10
2.039335
 20
-3.694740
  0
VERTEX
  8
PLAN_1
  6
CONTINUOUS
 10
2.041283
 20
-3.700098
  0
VERTEX
  8
PLAN_1
  6
CONTINUOUS
 10
2.042260
 20
-3.705461
  0
VERTEX
  8
PLAN_1
  6
CONTINUOUS
 10
2.043232
 20
-3.710331
  0
VERTEX
  8
PLAN_1
  6
CONTINUOUS
 10
2.043720
 20
-3.715205
  0
VERTEX
  8
PLAN_1
  6
CONTINUOUS
 10
2.044209
 20
-3.719102
  0
VERTEX
  8
PLAN_1
  6
CONTINUOUS
 10
2.018870
 20
-3.719102
  0
SEQEND
  8
0
  0
POLYLINE
  8
PLAN_1
 62
     5
  6
CONTINUOUS
 66
     1
 40
0.003000
 41
0.003000
  0
VERTEX
  8
PLAN_1
 62
     5
  6
CONTINUOUS
 10
-2.054051
 20
-0.331252
  0
VERTEX
  8
PLAN_1
 62
     5
  6
CONTINUOUS
 10
-2.054051
 20
-0.322969
  0
SEQEND
  8
0
  0
POLYLINE
  8
PLAN_1
 62
     5
  6
CONTINUOUS
 66
     1
 40
0.003000
 41
0.003000
  0
VERTEX
  8
PLAN_1
 62
     5
  6
CONTINUOUS
 10
-2.054051
 20
-0.314685
  0
VERTEX
  8
PLAN_1
 62
     5
  6
CONTINUOUS
 10
-2.054051
 20
-0.306406
  0
SEQEND
  8
0
  0
POLYLINE
  8
PLAN_1
 62
     5
  6
CONTINUOUS
 66
     1
 40
0.003000
 41
0.003000
  0
VERTEX
  8
PLAN_1
 62
     5
  6
CONTINUOUS
 10
-2.054051
 20
-0.298122
  0
VERTEX
  8
PLAN_1
 62
     5
  6
CONTINUOUS
 10
-2.054051
 20
-0.289839
  0
SEQEND
  8
0
  0
POLYLINE
  8
PLAN_1
 62
     5
  6
CONTINUOUS
 66
     1
 40
0.003000
 41
0.003000
  0
VERTEX
  8
PLAN_1
 62
     5
  6
CONTINUOUS
 10
-2.054051
 20
-0.281067
  0
VERTEX
  8
PLAN_1
 62
     5
  6
CONTINUOUS
 10
-2.054051
 20
-0.272783
  0
SEQEND
  8
0
  0
POLYLINE
  8
PLAN_1
 62
     5
  6
CONTINUOUS
 66
     1
 40
0.003000
 41
0.003000
  0
VERTEX
  8
PLAN_1
 62
     5
  6
CONTINUOUS
 10
-2.054051
 20
-0.264500
  0
VERTEX
  8
PLAN_1
 62
     5
  6
CONTINUOUS
 10
-2.054051
 20
-0.256217
  0
SEQEND
  8
0
  0
POLYLINE
  8
PLAN_1
 62
     5
  6
CONTINUOUS
 66
     1
 40
0.003000
 41
0.003000
  0
VERTEX
  8
PLAN_1
 62
     5
  6
CONTINUOUS
 10
-2.054051
 20
-0.247933
  0
VERTEX
  8
PLAN_1
 62
     5
  6
CONTINUOUS
 10
-2.054051
 20
-0.239650
  0
SEQEND
  8
0
  0
POLYLINE
  8
PLAN_1
 62
     5
  6
CONTINUOUS
 66
     1
 40
0.003000
 41
0.003000
  0
VERTEX
  8
PLAN_1
 62
     5
  6
CONTINUOUS
 10
-2.054051
 20
-0.231366
  0
VERTEX
  8
PLAN_1
 62
     5
  6
CONTINUOUS
 10
-2.054051
 20
-0.223083
  0
SEQEND
  8
0
  0
POLYLINE
  8
PLAN_1
 62
     5
  6
CONTINUOUS
 66
     1
 40
0.003000
 41
0.003000
  0
VERTEX
  8
PLAN_1
 62
     5
  6
CONTINUOUS
 10
-2.054051
 20
-0.214799
  0
VERTEX
  8
PLAN_1
 62
     5
  6
CONTINUOUS
 10
-2.054051
 20
-0.206516
  0
SEQEND
  8
0
  0
POLYLINE
  8
PLAN_1
 62
     5
  6
CONTINUOUS
 66
     1
 40
0.003000
 41
0.003000
  0
VERTEX
  8
PLAN_1
 62
     5
  6
CONTINUOUS
 10
-2.054051
 20
-0.198232
  0
VERTEX
  8
PLAN_1
 62
     5
  6
CONTINUOUS
 10
-2.054051
 20
-0.189465
  0
SEQEND
  8
0
  0
POLYLINE
  8
PLAN_1
 62
     5
  6
CONTINUOUS
 66
     1
 40
0.003000
 41
0.003000
  0
VERTEX
  8
PLAN_1
 62
     5
  6
CONTINUOUS
 10
-2.054051
 20
-0.181181
  0
VERTEX
  8
PLAN_1
 62
     5
  6
CONTINUOUS
 10
-2.054051
 20
-0.172898
  0
SEQEND
  8
0
  0
POLYLINE
  8
PLAN_1
 62
     5
  6
CONTINUOUS
 66
     1
 40
0.003000
 41
0.003000
  0
VERTEX
  8
PLAN_1
 62
     5
  6
CONTINUOUS
 10
-2.054051
 20
-0.164614
  0
VERTEX
  8
PLAN_1
 62
     5
  6
CONTINUOUS
 10
-2.054051
 20
-0.156331
  0
SEQEND
  8
0
  0
POLYLINE
  8
PLAN_1
 62
     5
  6
CONTINUOUS
 66
     1
 40
0.003000
 41
0.003000
  0
VERTEX
  8
PLAN_1
 62
     5
  6
CONTINUOUS
 10
-2.054051
 20
-0.148047
  0
VERTEX
  8
PLAN_1
 62
     5
  6
CONTINUOUS
 10
-2.054051
 20
-0.139764
  0
SEQEND
  8
0
  0
POLYLINE
  8
PLAN_1
 62
     5
  6
CONTINUOUS
 66
     1
 40
0.003000
 41
0.003000
  0
VERTEX
  8
PLAN_1
 62
     5
  6
CONTINUOUS
 10
-2.054051
 20
-0.131480
  0
VERTEX
  8
PLAN_1
 62
     5
  6
CONTINUOUS
 10
-2.054051
 20
-0.123197
  0
SEQEND
  8
0
  0
POLYLINE
  8
PLAN_1
 62
     5
  6
CONTINUOUS
 66
     1
 40
0.003000
 41
0.003000
  0
VERTEX
  8
PLAN_1
 62
     5
  6
CONTINUOUS
 10
-2.054051
 20
-0.114913
  0
VERTEX
  8
PLAN_1
 62
     5
  6
CONTINUOUS
 10
-2.054051
 20
-0.106146
  0
SEQEND
  8
0
  0
POLYLINE
  8
PLAN_1
 62
     5
  6
CONTINUOUS
 66
     1
 40
0.003000
 41
0.003000
  0
VERTEX
  8
PLAN_1
 62
     5
  6
CONTINUOUS
 10
-2.054051
 20
-0.097862
  0
VERTEX
  8
PLAN_1
 62
     5
  6
CONTINUOUS
 10
-2.054051
 20
-0.089579
  0
SEQEND
  8
0
  0
POLYLINE
  8
PLAN_1
 62
     5
  6
CONTINUOUS
 66
     1
 40
0.003000
 41
0.003000
  0
VERTEX
  8
PLAN_1
 62
     5
  6
CONTINUOUS
 10
-2.054051
 20
-0.081295
  0
VERTEX
  8
PLAN_1
 62
     5
  6
CONTINUOUS
 10
-2.054051
 20
-0.073012
  0
SEQEND
  8
0
  0
POLYLINE
  8
PLAN_1
 62
     5
  6
CONTINUOUS
 66
     1
 40
0.003000
 41
0.003000
  0
VERTEX
  8
PLAN_1
 62
     5
  6
CONTINUOUS
 10
-2.054051
 20
-0.064728
  0
VERTEX
  8
PLAN_1
 62
     5
  6
CONTINUOUS
 10
-2.054051
 20
-0.056445
  0
SEQEND
  8
0
  0
POLYLINE
  8
PLAN_1
 62
     5
  6
CONTINUOUS
 66
     1
 40
0.003000
 41
0.003000
  0
VERTEX
  8
PLAN_1
 62
     5
  6
CONTINUOUS
 10
-2.054051
 20
-0.048161
  0
VERTEX
  8
PLAN_1
 62
     5
  6
CONTINUOUS
 10
-2.054051
 20
-0.039878
  0
SEQEND
  8
0
  0
POLYLINE
  8
PLAN_1
 62
     5
  6
CONTINUOUS
 66
     1
 40
0.003000
 41
0.003000
  0
VERTEX
  8
PLAN_1
 62
     5
  6
CONTINUOUS
 10
-2.054051
 20
-0.031594
  0
VERTEX
  8
PLAN_1
 62
     5
  6
CONTINUOUS
 10
-2.054051
 20
-0.023311
  0
SEQEND
  8
0
  0
POLYLINE
  8
PLAN_1
 62
     5
  6
CONTINUOUS
 66
     1
 40
0.003000
 41
0.003000
  0
VERTEX
  8
PLAN_1
 62
     5
  6
CONTINUOUS
 10
-2.054051
 20
-0.014539
  0
VERTEX
  8
PLAN_1
 62
     5
  6
CONTINUOUS
 10
-2.054051
 20
-0.006256
  0
SEQEND
  8
0
  0
POLYLINE
  8
PLAN_1
 62
     5
  6
CONTINUOUS
 66
     1
 40
0.003000
 41
0.003000
  0
VERTEX
  8
PLAN_1
 62
     5
  6
CONTINUOUS
 10
-2.054051
 20
0.002024
  0
VERTEX
  8
PLAN_1
 62
     5
  6
CONTINUOUS
 10
-2.054051
 20
0.010307
  0
SEQEND
  8
0
  0
POLYLINE
  8
PLAN_1
 62
     5
  6
CONTINUOUS
 66
     1
 40
0.003000
 41
0.003000
  0
VERTEX
  8
PLAN_1
 62
     5
  6
CONTINUOUS
 10
-2.054051
 20
0.018591
  0
VERTEX
  8
PLAN_1
 62
     5
  6
CONTINUOUS
 10
-2.054051
 20
0.026874
  0
SEQEND
  8
0
  0
POLYLINE
  8
PLAN_1
 62
     5
  6
CONTINUOUS
 66
     1
 40
0.003000
 41
0.003000
  0
VERTEX
  8
PLAN_1
 62
     5
  6
CONTINUOUS
 10
-2.054051
 20
0.035157
  0
VERTEX
  8
PLAN_1
 62
     5
  6
CONTINUOUS
 10
-2.054051
 20
0.043441
  0
SEQEND
  8
0
  0
POLYLINE
  8
PLAN_1
 62
     5
  6
CONTINUOUS
 66
     1
 40
0.003000
 41
0.003000
  0
VERTEX
  8
PLAN_1
 62
     5
  6
CONTINUOUS
 10
-2.054051
 20
0.051724
  0
VERTEX
  8
PLAN_1
 62
     5
  6
CONTINUOUS
 10
-2.054051
 20
0.060008
  0
SEQEND
  8
0
  0
POLYLINE
  8
PLAN_1
 62
     5
  6
CONTINUOUS
 66
     1
 40
0.003000
 41
0.003000
  0
VERTEX
  8
PLAN_1
 62
     5
  6
CONTINUOUS
 10
-2.054051
 20
0.068780
  0
VERTEX
  8
PLAN_1
 62
     5
  6
CONTINUOUS
 10
-2.054051
 20
0.077063
  0
SEQEND
  8
0
  0
POLYLINE
  8
PLAN_1
 62
     5
  6
CONTINUOUS
 66
     1
 40
0.003000
 41
0.003000
  0
VERTEX
  8
PLAN_1
 62
     5
  6
CONTINUOUS
 10
-2.054051
 20
0.085346
  0
VERTEX
  8
PLAN_1
 62
     5
  6
CONTINUOUS
 10
-2.054051
 20
0.093630
  0
SEQEND
  8
0
  0
POLYLINE
  8
PLAN_1
 62
     5
  6
CONTINUOUS
 66
     1
 40
0.003000
 41
0.003000
  0
VERTEX
  8
PLAN_1
 62
     5
  6
CONTINUOUS
 10
-2.054051
 20
0.101913
  0
VERTEX
  8
PLAN_1
 62
     5
  6
CONTINUOUS
 10
-2.054051
 20
0.110197
  0
SEQEND
  8
0
  0
POLYLINE
  8
PLAN_1
 62
     5
  6
CONTINUOUS
 66
     1
 40
0.003000
 41
0.003000
  0
VERTEX
  8
PLAN_1
 62
     5
  6
CONTINUOUS
 10
-2.054051
 20
0.118476
  0
VERTEX
  8
PLAN_1
 62
     5
  6
CONTINUOUS
 10
-2.054051
 20
0.126760
  0
SEQEND
  8
0
  0
POLYLINE
  8
PLAN_1
 62
     5
  6
CONTINUOUS
 66
     1
 40
0.003000
 41
0.003000
  0
VERTEX
  8
PLAN_1
 62
     5
  6
CONTINUOUS
 10
-2.054051
 20
0.135043
  0
VERTEX
  8
PLAN_1
 62
     5
  6
CONTINUOUS
 10
-2.054051
 20
0.143327
  0
SEQEND
  8
0
  0
POLYLINE
  8
PLAN_1
 62
     5
  6
CONTINUOUS
 66
     1
 40
0.003000
 41
0.003000
  0
VERTEX
  8
PLAN_1
 62
     5
  6
CONTINUOUS
 10
-2.054051
 20
0.151610
  0
VERTEX
  8
PLAN_1
 62
     5
  6
CONTINUOUS
 10
-2.054051
 20
0.160382
  0
SEQEND
  8
0
  0
POLYLINE
  8
PLAN_1
 62
     5
  6
CONTINUOUS
 66
     1
 40
0.003000
 41
0.003000
  0
VERTEX
  8
PLAN_1
 62
     5
  6
CONTINUOUS
 10
-2.054051
 20
0.168665
  0
VERTEX
  8
PLAN_1
 62
     5
  6
CONTINUOUS
 10
-2.054051
 20
0.176949
  0
SEQEND
  8
0
  0
POLYLINE
  8
PLAN_1
 62
     5
  6
CONTINUOUS
 66
     1
 40
0.003000
 41
0.003000
  0
VERTEX
  8
PLAN_1
 62
     5
  6
CONTINUOUS
 10
-2.054051
 20
0.185232
  0
VERTEX
  8
PLAN_1
 62
     5
  6
CONTINUOUS
 10
-2.054051
 20
0.193516
  0
SEQEND
  8
0
  0
POLYLINE
  8
PLAN_1
 62
     5
  6
CONTINUOUS
 66
     1
 40
0.003000
 41
0.003000
  0
VERTEX
  8
PLAN_1
 62
     5
  6
CONTINUOUS
 10
-2.054051
 20
0.201799
  0
VERTEX
  8
PLAN_1
 62
     5
  6
CONTINUOUS
 10
-2.054051
 20
0.210083
  0
SEQEND
  8
0
  0
POLYLINE
  8
PLAN_1
 62
     5
  6
CONTINUOUS
 66
     1
 40
0.003000
 41
0.003000
  0
VERTEX
  8
PLAN_1
 62
     5
  6
CONTINUOUS
 10
-2.054051
 20
0.218366
  0
VERTEX
  8
PLAN_1
 62
     5
  6
CONTINUOUS
 10
-2.054051
 20
0.226650
  0
SEQEND
  8
0
  0
POLYLINE
  8
PLAN_1
 62
     5
  6
CONTINUOUS
 66
     1
 40
0.003000
 41
0.003000
  0
VERTEX
  8
PLAN_1
 62
     5
  6
CONTINUOUS
 10
-2.054051
 20
0.234929
  0
VERTEX
  8
PLAN_1
 62
     5
  6
CONTINUOUS
 10
-2.054051
 20
0.243701
  0
SEQEND
  8
0
  0
POLYLINE
  8
PLAN_1
 62
     5
  6
CONTINUOUS
 66
     1
 40
0.003000
 41
0.003000
  0
VERTEX
  8
PLAN_1
 62
     5
  6
CONTINUOUS
 10
-2.054051
 20
0.251984
  0
VERTEX
  8
PLAN_1
 62
     5
  6
CONTINUOUS
 10
-2.054051
 20
0.260268
  0
SEQEND
  8
0
  0
POLYLINE
  8
PLAN_1
 62
     5
  6
CONTINUOUS
 66
     1
 40
0.003000
 41
0.003000
  0
VERTEX
  8
PLAN_1
 62
     5
  6
CONTINUOUS
 10
-2.054051
 20
0.268551
  0
VERTEX
  8
PLAN_1
 62
     5
  6
CONTINUOUS
 10
-2.054051
 20
0.276835
  0
SEQEND
  8
0
  0
POLYLINE
  8
PLAN_1
 62
     5
  6
CONTINUOUS
 66
     1
 40
0.003000
 41
0.003000
  0
VERTEX
  8
PLAN_1
 62
     5
  6
CONTINUOUS
 10
-2.054051
 20
0.285118
  0
VERTEX
  8
PLAN_1
 62
     5
  6
CONTINUOUS
 10
-2.054051
 20
0.293402
  0
SEQEND
  8
0
  0
POLYLINE
  8
PLAN_1
 62
     5
  6
CONTINUOUS
 66
     1
 40
0.003000
 41
0.003000
  0
VERTEX
  8
PLAN_1
 62
     5
  6
CONTINUOUS
 10
-2.054051
 20
0.301685
  0
VERTEX
  8
PLAN_1
 62
     5
  6
CONTINUOUS
 10
-2.054051
 20
0.309969
  0
SEQEND
  8
0
  0
POLYLINE
  8
PLAN_1
 62
     5
  6
CONTINUOUS
 66
     1
 40
0.003000
 41
0.003000
  0
VERTEX
  8
PLAN_1
 62
     5
  6
CONTINUOUS
 10
-2.054051
 20
0.318252
  0
VERTEX
  8
PLAN_1
 62
     5
  6
CONTINUOUS
 10
-2.054051
 20
0.327020
  0
SEQEND
  8
0
  0
POLYLINE
  8
PLAN_1
 62
     5
  6
CONTINUOUS
 66
     1
 40
0.003000
 41
0.003000
  0
VERTEX
  8
PLAN_1
 62
     5
  6
CONTINUOUS
 10
-2.054051
 20
0.335303
  0
VERTEX
  8
PLAN_1
 62
     5
  6
CONTINUOUS
 10
-2.054051
 20
0.343587
  0
SEQEND
  8
0
  0
POLYLINE
  8
PLAN_1
 62
     5
  6
CONTINUOUS
 66
     1
 40
0.003000
 41
0.003000
  0
VERTEX
  8
PLAN_1
 62
     5
  6
CONTINUOUS
 10
-2.054051
 20
0.351870
  0
VERTEX
  8
PLAN_1
 62
     5
  6
CONTINUOUS
 10
-2.054051
 20
0.360154
  0
SEQEND
  8
0
  0
POLYLINE
  8
PLAN_1
 62
     5
  6
CONTINUOUS
 66
     1
 40
0.003000
 41
0.003000
  0
VERTEX
  8
PLAN_1
 62
     5
  6
CONTINUOUS
 10
-2.054051
 20
0.368437
  0
VERTEX
  8
PLAN_1
 62
     5
  6
CONTINUOUS
 10
-2.054051
 20
0.376720
  0
SEQEND
  8
0
  0
POLYLINE
  8
PLAN_1
 62
     5
  6
CONTINUOUS
 66
     1
 40
0.003000
 41
0.003000
  0
VERTEX
  8
PLAN_1
 62
     5
  6
CONTINUOUS
 10
-2.054051
 20
0.385004
  0
VERTEX
  8
PLAN_1
 62
     5
  6
CONTINUOUS
 10
-2.054051
 20
0.393287
  0
SEQEND
  8
0
  0
POLYLINE
  8
PLAN_1
 62
     5
  6
CONTINUOUS
 66
     1
 40
0.003000
 41
0.003000
  0
VERTEX
  8
PLAN_1
 62
     5
  6
CONTINUOUS
 10
-2.054051
 20
0.401571
  0
VERTEX
  8
PLAN_1
 62
     5
  6
CONTINUOUS
 10
-2.054051
 20
0.409854
  0
SEQEND
  8
0
  0
POLYLINE
  8
PLAN_1
 62
     5
  6
CONTINUOUS
 66
     1
 40
0.003000
 41
0.003000
  0
VERTEX
  8
PLAN_1
 62
     5
  6
CONTINUOUS
 10
-2.054051
 20
0.418626
  0
VERTEX
  8
PLAN_1
 62
     5
  6
CONTINUOUS
 10
-2.054051
 20
0.426909
  0
SEQEND
  8
0
  0
POLYLINE
  8
PLAN_1
 62
     5
  6
CONTINUOUS
 66
     1
 40
0.003000
 41
0.003000
  0
VERTEX
  8
PLAN_1
 62
     5
  6
CONTINUOUS
 10
-2.054051
 20
0.435189
  0
VERTEX
  8
PLAN_1
 62
     5
  6
CONTINUOUS
 10
-2.054051
 20
0.443472
  0
SEQEND
  8
0
  0
POLYLINE
  8
PLAN_1
 62
     5
  6
CONTINUOUS
 66
     1
 40
0.003000
 41
0.003000
  0
VERTEX
  8
PLAN_1
 62
     5
  6
CONTINUOUS
 10
-2.054051
 20
0.451756
  0
VERTEX
  8
PLAN_1
 62
     5
  6
CONTINUOUS
 10
-2.054051
 20
0.460039
  0
SEQEND
  8
0
  0
POLYLINE
  8
PLAN_1
 62
     5
  6
CONTINUOUS
 66
     1
 40
0.003000
 41
0.003000
  0
VERTEX
  8
PLAN_1
 62
     5
  6
CONTINUOUS
 10
-2.054051
 20
0.468323
  0
VERTEX
  8
PLAN_1
 62
     5
  6
CONTINUOUS
 10
-2.054051
 20
0.476606
  0
SEQEND
  8
0
  0
POLYLINE
  8
PLAN_1
 62
     5
  6
CONTINUOUS
 66
     1
 40
0.003000
 41
0.003000
  0
VERTEX
  8
PLAN_1
 62
     5
  6
CONTINUOUS
 10
-2.054051
 20
0.484890
  0
VERTEX
  8
PLAN_1
 62
     5
  6
CONTINUOUS
 10
-2.054051
 20
0.493173
  0
SEQEND
  8
0
  0
POLYLINE
  8
PLAN_1
 62
     5
  6
CONTINUOUS
 66
     1
 40
0.003000
 41
0.003000
  0
VERTEX
  8
PLAN_1
 62
     5
  6
CONTINUOUS
 10
-2.054051
 20
0.501945
  0
VERTEX
  8
PLAN_1
 62
     5
  6
CONTINUOUS
 10
-2.054051
 20
0.510228
  0
SEQEND
  8
0
  0
POLYLINE
  8
PLAN_1
 62
     5
  6
CONTINUOUS
 66
     1
 40
0.003000
 41
0.003000
  0
VERTEX
  8
PLAN_1
 62
     5
  6
CONTINUOUS
 10
-2.054051
 20
0.517535
  0
VERTEX
  8
PLAN_1
 62
     5
  6
CONTINUOUS
 10
-2.054051
 20
0.522409
  0
VERTEX
  8
PLAN_1
 62
     5
  6
CONTINUOUS
 10
-2.054051
 20
0.526307
  0
SEQEND
  8
0
  0
POLYLINE
  8
PLAN_1
 62
     5
  6
CONTINUOUS
 66
     1
 40
0.003000
 41
0.003000
  0
VERTEX
  8
PLAN_1
 62
     5
  6
CONTINUOUS
 10
-2.052591
 20
0.534102
  0
VERTEX
  8
PLAN_1
 62
     5
  6
CONTINUOUS
 10
-2.052102
 20
0.536051
  0
VERTEX
  8
PLAN_1
 62
     5
  6
CONTINUOUS
 10
-2.050642
 20
0.539949
  0
VERTEX
  8
PLAN_1
 62
     5
  6
CONTINUOUS
 10
-2.049177
 20
0.541898
  0
SEQEND
  8
0
  0
POLYLINE
  8
PLAN_1
 62
     5
  6
CONTINUOUS
 66
     1
 40
0.003000
 41
0.003000
  0
VERTEX
  8
PLAN_1
 62
     5
  6
CONTINUOUS
 10
-2.044791
 20
0.548720
  0
VERTEX
  8
PLAN_1
 62
     5
  6
CONTINUOUS
 10
-2.043331
 20
0.550669
  0
VERTEX
  8
PLAN_1
 62
     5
  6
CONTINUOUS
 10
-2.039921
 20
0.553594
  0
VERTEX
  8
PLAN_1
 62
     5
  6
CONTINUOUS
 10
-2.038461
 20
0.554567
  0
SEQEND
  8
0
  0
POLYLINE
  8
PLAN_1
 62
     5
  6
CONTINUOUS
 66
     1
 40
0.003000
 41
0.003000
  0
VERTEX
  8
PLAN_1
 62
     5
  6
CONTINUOUS
 10
-2.031638
 20
0.558953
  0
VERTEX
  8
PLAN_1
 62
     5
  6
CONTINUOUS
 10
-2.029201
 20
0.560413
  0
VERTEX
  8
PLAN_1
 62
     5
  6
CONTINUOUS
 10
-2.024815
 20
0.561874
  0
VERTEX
  8
PLAN_1
 62
     5
  6
CONTINUOUS
 10
-2.023843
 20
0.561874
  0
SEQEND
  8
0
  0
POLYLINE
  8
PLAN_1
 62
     5
  6
CONTINUOUS
 66
     1
 40
0.003000
 41
0.003000
  0
VERTEX
  8
PLAN_1
 62
     5
  6
CONTINUOUS
 10
-2.015559
 20
0.563339
  0
VERTEX
  8
PLAN_1
 62
     5
  6
CONTINUOUS
 10
-2.011173
 20
0.563827
  0
SEQEND
  8
0
  0
POLYLINE
  8
PLAN_1
 62
     5
  6
CONTINUOUS
 66
     1
 40
0.003000
 41
0.003000
  0
VERTEX
  8
PLAN_1
 62
     5
  6
CONTINUOUS
 10
-2.015559
 20
0.563339
  0
VERTEX
  8
PLAN_1
 62
     5
  6
CONTINUOUS
 10
-2.011173
 20
0.563827
  0
SEQEND
  8
0
  0
POLYLINE
  8
PLAN_1
 62
     5
  6
CONTINUOUS
 66
     1
 40
0.003000
 41
0.003000
  0
VERTEX
  8
PLAN_1
 62
     5
  6
CONTINUOUS
 10
-2.011173
 20
0.563827
  0
VERTEX
  8
PLAN_1
 62
     5
  6
CONTINUOUS
 10
-2.002890
 20
0.563827
  0
SEQEND
  8
0
  0
POLYLINE
  8
PLAN_1
 62
     5
  6
CONTINUOUS
 66
     1
 40
0.003000
 41
0.003000
  0
VERTEX
  8
PLAN_1
 62
     5
  6
CONTINUOUS
 10
-1.994606
 20
0.563827
  0
VERTEX
  8
PLAN_1
 62
     5
  6
CONTINUOUS
 10
-1.986323
 20
0.563827
  0
SEQEND
  8
0
  0
POLYLINE
  8
PLAN_1
 62
     5
  6
CONTINUOUS
 66
     1
 40
0.003000
 41
0.003000
  0
VERTEX
  8
PLAN_1
 62
     5
  6
CONTINUOUS
 10
-1.978039
 20
0.563827
  0
VERTEX
  8
PLAN_1
 62
     5
  6
CONTINUOUS
 10
-1.969756
 20
0.563827
  0
SEQEND
  8
0
  0
POLYLINE
  8
PLAN_1
 62
     5
  6
CONTINUOUS
 66
     1
 40
0.003000
 41
0.003000
  0
VERTEX
  8
PLAN_1
 62
     5
  6
CONTINUOUS
 10
-1.961472
 20
0.563827
  0
VERTEX
  8
PLAN_1
 62
     5
  6
CONTINUOUS
 10
-1.953189
 20
0.563827
  0
SEQEND
  8
0
  0
POLYLINE
  8
PLAN_1
 62
     5
  6
CONTINUOUS
 66
     1
 40
0.003000
 41
0.003000
  0
VERTEX
  8
PLAN_1
 62
     5
  6
CONTINUOUS
 10
-1.944421
 20
0.563827
  0
VERTEX
  8
PLAN_1
 62
     5
  6
CONTINUOUS
 10
-1.936138
 20
0.563827
  0
SEQEND
  8
0
  0
POLYLINE
  8
PLAN_1
 62
     5
  6
CONTINUOUS
 66
     1
 40
0.003000
 41
0.003000
  0
VERTEX
  8
PLAN_1
 62
     5
  6
CONTINUOUS
 10
-1.927854
 20
0.563827
  0
VERTEX
  8
PLAN_1
 62
     5
  6
CONTINUOUS
 10
-1.919571
 20
0.563827
  0
SEQEND
  8
0
  0
POLYLINE
  8
PLAN_1
 62
     5
  6
CONTINUOUS
 66
     1
 40
0.003000
 41
0.003000
  0
VERTEX
  8
PLAN_1
 62
     5
  6
CONTINUOUS
 10
-1.911287
 20
0.563827
  0
VERTEX
  8
PLAN_1
 62
     5
  6
CONTINUOUS
 10
-1.903004
 20
0.563827
  0
SEQEND
  8
0
  0
POLYLINE
  8
PLAN_1
 62
     5
  6
CONTINUOUS
 66
     1
 40
0.003000
 41
0.003000
  0
VERTEX
  8
PLAN_1
 62
     5
  6
CONTINUOUS
 10
-1.894720
 20
0.563827
  0
VERTEX
  8
PLAN_1
 62
     5
  6
CONTINUOUS
 10
-1.886437
 20
0.563827
  0
SEQEND
  8
0
  0
POLYLINE
  8
PLAN_1
 62
     5
  6
CONTINUOUS
 66
     1
 40
0.003000
 41
0.003000
  0
VERTEX
  8
PLAN_1
 62
     5
  6
CONTINUOUS
 10
-1.878154
 20
0.563827
  0
VERTEX
  8
PLAN_1
 62
     5
  6
CONTINUOUS
 10
-1.869870
 20
0.563827
  0
SEQEND
  8
0
  0
POLYLINE
  8
PLAN_1
 62
     5
  6
CONTINUOUS
 66
     1
 40
0.003000
 41
0.003000
  0
VERTEX
  8
PLAN_1
 62
     5
  6
CONTINUOUS
 10
-1.861587
 20
0.563827
  0
VERTEX
  8
PLAN_1
 62
     5
  6
CONTINUOUS
 10
-1.852815
 20
0.563827
  0
SEQEND
  8
0
  0
POLYLINE
  8
PLAN_1
 62
     5
  6
CONTINUOUS
 66
     1
 40
0.003000
 41
0.003000
  0
VERTEX
  8
PLAN_1
 62
     5
  6
CONTINUOUS
 10
-1.844535
 20
0.563827
  0
VERTEX
  8
PLAN_1
 62
     5
  6
CONTINUOUS
 10
-1.836252
 20
0.563827
  0
SEQEND
  8
0
  0
POLYLINE
  8
PLAN_1
 62
     5
  6
CONTINUOUS
 66
     1
 40
0.003000
 41
0.003000
  0
VERTEX
  8
PLAN_1
 62
     5
  6
CONTINUOUS
 10
-1.827969
 20
0.563827
  0
VERTEX
  8
PLAN_1
 62
     5
  6
CONTINUOUS
 10
-1.819685
 20
0.563827
  0
SEQEND
  8
0
  0
POLYLINE
  8
PLAN_1
 62
     5
  6
CONTINUOUS
 66
     1
 40
0.003000
 41
0.003000
  0
VERTEX
  8
PLAN_1
 62
     5
  6
CONTINUOUS
 10
-1.811402
 20
0.563827
  0
VERTEX
  8
PLAN_1
 62
     5
  6
CONTINUOUS
 10
-1.803118
 20
0.563827
  0
SEQEND
  8
0
  0
POLYLINE
  8
PLAN_1
 62
     5
  6
CONTINUOUS
 66
     1
 40
0.003000
 41
0.003000
  0
VERTEX
  8
PLAN_1
 62
     5
  6
CONTINUOUS
 10
-1.794835
 20
0.563827
  0
VERTEX
  8
PLAN_1
 62
     5
  6
CONTINUOUS
 10
-1.786551
 20
0.563827
  0
SEQEND
  8
0
  0
POLYLINE
  8
PLAN_1
 62
     5
  6
CONTINUOUS
 66
     1
 40
0.003000
 41
0.003000
  0
VERTEX
  8
PLAN_1
 62
     5
  6
CONTINUOUS
 10
-1.778268
 20
0.563827
  0
VERTEX
  8
PLAN_1
 62
     5
  6
CONTINUOUS
 10
-1.769496
 20
0.563827
  0
SEQEND
  8
0
  0
POLYLINE
  8
PLAN_1
 62
     5
  6
CONTINUOUS
 66
     1
 40
0.003000
 41
0.003000
  0
VERTEX
  8
PLAN_1
 62
     5
  6
CONTINUOUS
 10
-1.761213
 20
0.563827
  0
VERTEX
  8
PLAN_1
 62
     5
  6
CONTINUOUS
 10
-1.752929
 20
0.563827
  0
SEQEND
  8
0
  0
POLYLINE
  8
PLAN_1
 62
     5
  6
CONTINUOUS
 66
     1
 40
0.003000
 41
0.003000
  0
VERTEX
  8
PLAN_1
 62
     5
  6
CONTINUOUS
 10
-1.744646
 20
0.563827
  0
VERTEX
  8
PLAN_1
 62
     5
  6
CONTINUOUS
 10
-1.736362
 20
0.563827
  0
SEQEND
  8
0
  0
POLYLINE
  8
PLAN_1
 62
     5
  6
CONTINUOUS
 66
     1
 40
0.003000
 41
0.003000
  0
VERTEX
  8
PLAN_1
 62
     5
  6
CONTINUOUS
 10
-1.728083
 20
0.563827
  0
VERTEX
  8
PLAN_1
 62
     5
  6
CONTINUOUS
 10
-1.719799
 20
0.563827
  0
SEQEND
  8
0
  0
POLYLINE
  8
PLAN_1
 62
     5
  6
CONTINUOUS
 66
     1
 40
0.003000
 41
0.003000
  0
VERTEX
  8
PLAN_1
 62
     5
  6
CONTINUOUS
 10
-1.711516
 20
0.563827
  0
VERTEX
  8
PLAN_1
 62
     5
  6
CONTINUOUS
 10
-1.703232
 20
0.563827
  0
SEQEND
  8
0
  0
POLYLINE
  8
PLAN_1
 62
     5
  6
CONTINUOUS
 66
     1
 40
0.003000
 41
0.003000
  0
VERTEX
  8
PLAN_1
 62
     5
  6
CONTINUOUS
 10
-1.694949
 20
0.563827
  0
VERTEX
  8
PLAN_1
 62
     5
  6
CONTINUOUS
 10
-1.686665
 20
0.563827
  0
SEQEND
  8
0
  0
POLYLINE
  8
PLAN_1
 62
     5
  6
CONTINUOUS
 66
     1
 40
0.003000
 41
0.003000
  0
VERTEX
  8
PLAN_1
 62
     5
  6
CONTINUOUS
 10
-1.677894
 20
0.563827
  0
VERTEX
  8
PLAN_1
 62
     5
  6
CONTINUOUS
 10
-1.669610
 20
0.563827
  0
SEQEND
  8
0
  0
POLYLINE
  8
PLAN_1
 62
     5
  6
CONTINUOUS
 66
     1
 40
0.003000
 41
0.003000
  0
VERTEX
  8
PLAN_1
 62
     5
  6
CONTINUOUS
 10
-1.661327
 20
0.563827
  0
VERTEX
  8
PLAN_1
 62
     5
  6
CONTINUOUS
 10
-1.653043
 20
0.563827
  0
SEQEND
  8
0
  0
POLYLINE
  8
PLAN_1
 62
     5
  6
CONTINUOUS
 66
     1
 40
0.003000
 41
0.003000
  0
VERTEX
  8
PLAN_1
 62
     5
  6
CONTINUOUS
 10
-1.644760
 20
0.563827
  0
VERTEX
  8
PLAN_1
 62
     5
  6
CONTINUOUS
 10
-1.636476
 20
0.563827
  0
SEQEND
  8
0
  0
POLYLINE
  8
PLAN_1
 62
     5
  6
CONTINUOUS
 66
     1
 40
0.003000
 41
0.003000
  0
VERTEX
  8
PLAN_1
 62
     5
  6
CONTINUOUS
 10
-1.628193
 20
0.563827
  0
VERTEX
  8
PLAN_1
 62
     5
  6
CONTINUOUS
 10
-1.619909
 20
0.563827
  0
SEQEND
  8
0
  0
POLYLINE
  8
PLAN_1
 62
     5
  6
CONTINUOUS
 66
     1
 40
0.003000
 41
0.003000
  0
VERTEX
  8
PLAN_1
 62
     5
  6
CONTINUOUS
 10
-1.611630
 20
0.563827
  0
VERTEX
  8
PLAN_1
 62
     5
  6
CONTINUOUS
 10
-1.603346
 20
0.563827
  0
SEQEND
  8
0
  0
POLYLINE
  8
PLAN_1
 62
     5
  6
CONTINUOUS
 66
     1
 40
0.003000
 41
0.003000
  0
VERTEX
  8
PLAN_1
 62
     5
  6
CONTINUOUS
 10
-1.594575
 20
0.563827
  0
VERTEX
  8
PLAN_1
 62
     5
  6
CONTINUOUS
 10
-1.586291
 20
0.563827
  0
SEQEND
  8
0
  0
POLYLINE
  8
PLAN_1
 62
     5
  6
CONTINUOUS
 66
     1
 40
0.003000
 41
0.003000
  0
VERTEX
  8
PLAN_1
 62
     5
  6
CONTINUOUS
 10
-1.578008
 20
0.563827
  0
VERTEX
  8
PLAN_1
 62
     5
  6
CONTINUOUS
 10
-1.569724
 20
0.563827
  0
SEQEND
  8
0
  0
POLYLINE
  8
PLAN_1
 62
     5
  6
CONTINUOUS
 66
     1
 40
0.003000
 41
0.003000
  0
VERTEX
  8
PLAN_1
 62
     5
  6
CONTINUOUS
 10
-1.561441
 20
0.563827
  0
VERTEX
  8
PLAN_1
 62
     5
  6
CONTINUOUS
 10
-1.553157
 20
0.563827
  0
SEQEND
  8
0
  0
POLYLINE
  8
PLAN_1
 62
     5
  6
CONTINUOUS
 66
     1
 40
0.003000
 41
0.003000
  0
VERTEX
  8
PLAN_1
 62
     5
  6
CONTINUOUS
 10
-1.544874
 20
0.563827
  0
VERTEX
  8
PLAN_1
 62
     5
  6
CONTINUOUS
 10
-1.536591
 20
0.563827
  0
SEQEND
  8
0
  0
POLYLINE
  8
PLAN_1
 62
     5
  6
CONTINUOUS
 66
     1
 40
0.003000
 41
0.003000
  0
VERTEX
  8
PLAN_1
 62
     5
  6
CONTINUOUS
 10
-1.528307
 20
0.563827
  0
VERTEX
  8
PLAN_1
 62
     5
  6
CONTINUOUS
 10
-1.520024
 20
0.563827
  0
SEQEND
  8
0
  0
POLYLINE
  8
PLAN_1
 62
     5
  6
CONTINUOUS
 66
     1
 40
0.003000
 41
0.003000
  0
VERTEX
  8
PLAN_1
 62
     5
  6
CONTINUOUS
 10
-1.511740
 20
0.563827
  0
VERTEX
  8
PLAN_1
 62
     5
  6
CONTINUOUS
 10
-1.502972
 20
0.563827
  0
SEQEND
  8
0
  0
POLYLINE
  8
PLAN_1
 62
     5
  6
CONTINUOUS
 66
     1
 40
0.003000
 41
0.003000
  0
VERTEX
  8
PLAN_1
 62
     5
  6
CONTINUOUS
 10
-1.494689
 20
0.563827
  0
VERTEX
  8
PLAN_1
 62
     5
  6
CONTINUOUS
 10
-1.486406
 20
0.563827
  0
SEQEND
  8
0
  0
POLYLINE
  8
PLAN_1
 62
     5
  6
CONTINUOUS
 66
     1
 40
0.003000
 41
0.003000
  0
VERTEX
  8
PLAN_1
 62
     5
  6
CONTINUOUS
 10
-1.478122
 20
0.563827
  0
VERTEX
  8
PLAN_1
 62
     5
  6
CONTINUOUS
 10
-1.469839
 20
0.563827
  0
SEQEND
  8
0
  0
POLYLINE
  8
PLAN_1
 62
     5
  6
CONTINUOUS
 66
     1
 40
0.003000
 41
0.003000
  0
VERTEX
  8
PLAN_1
 62
     5
  6
CONTINUOUS
 10
-1.461555
 20
0.563827
  0
VERTEX
  8
PLAN_1
 62
     5
  6
CONTINUOUS
 10
-1.453272
 20
0.563827
  0
SEQEND
  8
0
  0
POLYLINE
  8
PLAN_1
 62
     5
  6
CONTINUOUS
 66
     1
 40
0.003000
 41
0.003000
  0
VERTEX
  8
PLAN_1
 62
     5
  6
CONTINUOUS
 10
-1.444988
 20
0.563827
  0
VERTEX
  8
PLAN_1
 62
     5
  6
CONTINUOUS
 10
-1.436705
 20
0.563827
  0
SEQEND
  8
0
  0
POLYLINE
  8
PLAN_1
 62
     5
  6
CONTINUOUS
 66
     1
 40
0.003000
 41
0.003000
  0
VERTEX
  8
PLAN_1
 62
     5
  6
CONTINUOUS
 10
-1.428421
 20
0.563827
  0
VERTEX
  8
PLAN_1
 62
     5
  6
CONTINUOUS
 10
-1.419650
 20
0.563827
  0
SEQEND
  8
0
  0
POLYLINE
  8
PLAN_1
 62
     5
  6
CONTINUOUS
 66
     1
 40
0.003000
 41
0.003000
  0
VERTEX
  8
PLAN_1
 62
     5
  6
CONTINUOUS
 10
-1.411370
 20
0.563827
  0
VERTEX
  8
PLAN_1
 62
     5
  6
CONTINUOUS
 10
-1.403087
 20
0.563827
  0
SEQEND
  8
0
  0
POLYLINE
  8
PLAN_1
 62
     5
  6
CONTINUOUS
 66
     1
 40
0.003000
 41
0.003000
  0
VERTEX
  8
PLAN_1
 62
     5
  6
CONTINUOUS
 10
-1.394803
 20
0.563827
  0
VERTEX
  8
PLAN_1
 62
     5
  6
CONTINUOUS
 10
-1.386520
 20
0.563827
  0
SEQEND
  8
0
  0
POLYLINE
  8
PLAN_1
 62
     5
  6
CONTINUOUS
 66
     1
 40
0.003000
 41
0.003000
  0
VERTEX
  8
PLAN_1
 62
     5
  6
CONTINUOUS
 10
-1.378236
 20
0.563827
  0
VERTEX
  8
PLAN_1
 62
     5
  6
CONTINUOUS
 10
-1.369953
 20
0.563827
  0
SEQEND
  8
0
  0
POLYLINE
  8
PLAN_1
 62
     5
  6
CONTINUOUS
 66
     1
 40
0.003000
 41
0.003000
  0
VERTEX
  8
PLAN_1
 62
     5
  6
CONTINUOUS
 10
-1.361669
 20
0.563827
  0
VERTEX
  8
PLAN_1
 62
     5
  6
CONTINUOUS
 10
-1.353386
 20
0.563827
  0
SEQEND
  8
0
  0
POLYLINE
  8
PLAN_1
 62
     5
  6
CONTINUOUS
 66
     1
 40
0.003000
 41
0.003000
  0
VERTEX
  8
PLAN_1
 62
     5
  6
CONTINUOUS
 10
-1.345102
 20
0.563827
  0
VERTEX
  8
PLAN_1
 62
     5
  6
CONTINUOUS
 10
-1.336819
 20
0.563827
  0
SEQEND
  8
0
  0
POLYLINE
  8
PLAN_1
 62
     5
  6
CONTINUOUS
 66
     1
 40
0.003000
 41
0.003000
  0
VERTEX
  8
PLAN_1
 62
     5
  6
CONTINUOUS
 10
-1.328047
 20
0.563827
  0
VERTEX
  8
PLAN_1
 62
     5
  6
CONTINUOUS
 10
-1.319764
 20
0.563827
  0
SEQEND
  8
0
  0
POLYLINE
  8
PLAN_1
 62
     5
  6
CONTINUOUS
 66
     1
 40
0.003000
 41
0.003000
  0
VERTEX
  8
PLAN_1
 62
     5
  6
CONTINUOUS
 10
-1.311480
 20
0.563827
  0
VERTEX
  8
PLAN_1
 62
     5
  6
CONTINUOUS
 10
-1.303197
 20
0.563827
  0
SEQEND
  8
0
  0
POLYLINE
  8
PLAN_1
 62
     5
  6
CONTINUOUS
 66
     1
 40
0.003000
 41
0.003000
  0
VERTEX
  8
PLAN_1
 62
     5
  6
CONTINUOUS
 10
-1.294917
 20
0.563827
  0
VERTEX
  8
PLAN_1
 62
     5
  6
CONTINUOUS
 10
-1.286634
 20
0.563827
  0
SEQEND
  8
0
  0
POLYLINE
  8
PLAN_1
 62
     5
  6
CONTINUOUS
 66
     1
 40
0.003000
 41
0.003000
  0
VERTEX
  8
PLAN_1
 62
     5
  6
CONTINUOUS
 10
-1.278350
 20
0.563827
  0
VERTEX
  8
PLAN_1
 62
     5
  6
CONTINUOUS
 10
-1.270067
 20
0.563827
  0
SEQEND
  8
0
  0
POLYLINE
  8
PLAN_1
 62
     5
  6
CONTINUOUS
 66
     1
 40
0.003000
 41
0.003000
  0
VERTEX
  8
PLAN_1
 62
     5
  6
CONTINUOUS
 10
-1.261783
 20
0.563827
  0
VERTEX
  8
PLAN_1
 62
     5
  6
CONTINUOUS
 10
-1.253500
 20
0.563827
  0
SEQEND
  8
0
  0
POLYLINE
  8
PLAN_1
 62
     5
  6
CONTINUOUS
 66
     1
 40
0.003000
 41
0.003000
  0
VERTEX
  8
PLAN_1
 62
     5
  6
CONTINUOUS
 10
-1.244728
 20
0.563827
  0
VERTEX
  8
PLAN_1
 62
     5
  6
CONTINUOUS
 10
-1.236445
 20
0.563827
  0
SEQEND
  8
0
  0
POLYLINE
  8
PLAN_1
 62
     5
  6
CONTINUOUS
 66
     1
 40
0.003000
 41
0.003000
  0
VERTEX
  8
PLAN_1
 62
     5
  6
CONTINUOUS
 10
-1.228161
 20
0.563827
  0
VERTEX
  8
PLAN_1
 62
     5
  6
CONTINUOUS
 10
-1.219878
 20
0.563827
  0
SEQEND
  8
0
  0
POLYLINE
  8
PLAN_1
 62
     5
  6
CONTINUOUS
 66
     1
 40
0.003000
 41
0.003000
  0
VERTEX
  8
PLAN_1
 62
     5
  6
CONTINUOUS
 10
-1.211594
 20
0.563827
  0
VERTEX
  8
PLAN_1
 62
     5
  6
CONTINUOUS
 10
-1.203311
 20
0.563827
  0
SEQEND
  8
0
  0
POLYLINE
  8
PLAN_1
 62
     5
  6
CONTINUOUS
 66
     1
 40
0.003000
 41
0.003000
  0
VERTEX
  8
PLAN_1
 62
     5
  6
CONTINUOUS
 10
-1.195028
 20
0.563827
  0
VERTEX
  8
PLAN_1
 62
     5
  6
CONTINUOUS
 10
-1.186744
 20
0.563827
  0
SEQEND
  8
0
  0
POLYLINE
  8
PLAN_1
 62
     5
  6
CONTINUOUS
 66
     1
 40
0.003000
 41
0.003000
  0
VERTEX
  8
PLAN_1
 62
     5
  6
CONTINUOUS
 10
-1.178465
 20
0.563827
  0
VERTEX
  8
PLAN_1
 62
     5
  6
CONTINUOUS
 10
-1.170181
 20
0.563827
  0
SEQEND
  8
0
  0
POLYLINE
  8
PLAN_1
 62
     5
  6
CONTINUOUS
 66
     1
 40
0.003000
 41
0.003000
  0
VERTEX
  8
PLAN_1
 62
     5
  6
CONTINUOUS
 10
-1.161898
 20
0.563827
  0
VERTEX
  8
PLAN_1
 62
     5
  6
CONTINUOUS
 10
-1.153126
 20
0.563827
  0
SEQEND
  8
0
  0
POLYLINE
  8
PLAN_1
 62
     5
  6
CONTINUOUS
 66
     1
 40
0.003000
 41
0.003000
  0
VERTEX
  8
PLAN_1
 62
     5
  6
CONTINUOUS
 10
-1.144843
 20
0.563827
  0
VERTEX
  8
PLAN_1
 62
     5
  6
CONTINUOUS
 10
-1.136559
 20
0.563827
  0
SEQEND
  8
0
  0
POLYLINE
  8
PLAN_1
 62
     5
  6
CONTINUOUS
 66
     1
 40
0.003000
 41
0.003000
  0
VERTEX
  8
PLAN_1
 62
     5
  6
CONTINUOUS
 10
-1.128276
 20
0.563827
  0
VERTEX
  8
PLAN_1
 62
     5
  6
CONTINUOUS
 10
-1.119992
 20
0.563827
  0
SEQEND
  8
0
  0
POLYLINE
  8
PLAN_1
 62
     5
  6
CONTINUOUS
 66
     1
 40
0.003000
 41
0.003000
  0
VERTEX
  8
PLAN_1
 62
     5
  6
CONTINUOUS
 10
-1.111709
 20
0.563827
  0
VERTEX
  8
PLAN_1
 62
     5
  6
CONTINUOUS
 10
-1.103425
 20
0.563827
  0
SEQEND
  8
0
  0
POLYLINE
  8
PLAN_1
 62
     5
  6
CONTINUOUS
 66
     1
 40
0.003000
 41
0.003000
  0
VERTEX
  8
PLAN_1
 62
     5
  6
CONTINUOUS
 10
-1.095142
 20
0.563827
  0
VERTEX
  8
PLAN_1
 62
     5
  6
CONTINUOUS
 10
-1.086858
 20
0.563827
  0
SEQEND
  8
0
  0
POLYLINE
  8
PLAN_1
 62
     5
  6
CONTINUOUS
 66
     1
 40
0.003000
 41
0.003000
  0
VERTEX
  8
PLAN_1
 62
     5
  6
CONTINUOUS
 10
-1.078575
 20
0.563827
  0
VERTEX
  8
PLAN_1
 62
     5
  6
CONTINUOUS
 10
-1.069807
 20
0.563827
  0
SEQEND
  8
0
  0
POLYLINE
  8
PLAN_1
 62
     5
  6
CONTINUOUS
 66
     1
 40
0.003000
 41
0.003000
  0
VERTEX
  8
PLAN_1
 62
     5
  6
CONTINUOUS
 10
-1.061524
 20
0.563827
  0
VERTEX
  8
PLAN_1
 62
     5
  6
CONTINUOUS
 10
-1.053240
 20
0.563827
  0
SEQEND
  8
0
  0
POLYLINE
  8
PLAN_1
 62
     5
  6
CONTINUOUS
 66
     1
 40
0.003000
 41
0.003000
  0
VERTEX
  8
PLAN_1
 62
     5
  6
CONTINUOUS
 10
-1.044957
 20
0.563827
  0
VERTEX
  8
PLAN_1
 62
     5
  6
CONTINUOUS
 10
-1.036673
 20
0.563827
  0
SEQEND
  8
0
  0
POLYLINE
  8
PLAN_1
 62
     5
  6
CONTINUOUS
 66
     1
 40
0.003000
 41
0.003000
  0
VERTEX
  8
PLAN_1
 62
     5
  6
CONTINUOUS
 10
-1.028390
 20
0.563827
  0
VERTEX
  8
PLAN_1
 62
     5
  6
CONTINUOUS
 10
-1.020106
 20
0.563827
  0
SEQEND
  8
0
  0
POLYLINE
  8
PLAN_1
 62
     5
  6
CONTINUOUS
 66
     1
 40
0.003000
 41
0.003000
  0
VERTEX
  8
PLAN_1
 62
     5
  6
CONTINUOUS
 10
-1.011823
 20
0.563827
  0
VERTEX
  8
PLAN_1
 62
     5
  6
CONTINUOUS
 10
-1.003539
 20
0.563827
  0
SEQEND
  8
0
  0
POLYLINE
  8
PLAN_1
 62
     5
  6
CONTINUOUS
 66
     1
 40
0.003000
 41
0.003000
  0
VERTEX
  8
PLAN_1
 62
     5
  6
CONTINUOUS
 10
-0.995256
 20
0.563827
  0
VERTEX
  8
PLAN_1
 62
     5
  6
CONTINUOUS
 10
-0.986972
 20
0.563827
  0
SEQEND
  8
0
  0
POLYLINE
  8
PLAN_1
 62
     5
  6
CONTINUOUS
 66
     1
 40
0.003000
 41
0.003000
  0
VERTEX
  8
PLAN_1
 62
     5
  6
CONTINUOUS
 10
-0.978205
 20
0.563827
  0
VERTEX
  8
PLAN_1
 62
     5
  6
CONTINUOUS
 10
-0.969921
 20
0.563827
  0
SEQEND
  8
0
  0
POLYLINE
  8
PLAN_1
 62
     5
  6
CONTINUOUS
 66
     1
 40
0.003000
 41
0.003000
  0
VERTEX
  8
PLAN_1
 62
     5
  6
CONTINUOUS
 10
-0.961638
 20
0.563827
  0
VERTEX
  8
PLAN_1
 62
     5
  6
CONTINUOUS
 10
-0.953354
 20
0.563827
  0
SEQEND
  8
0
  0
POLYLINE
  8
PLAN_1
 62
     5
  6
CONTINUOUS
 66
     1
 40
0.003000
 41
0.003000
  0
VERTEX
  8
PLAN_1
 62
     5
  6
CONTINUOUS
 10
-0.945071
 20
0.563827
  0
VERTEX
  8
PLAN_1
 62
     5
  6
CONTINUOUS
 10
-0.936787
 20
0.563827
  0
SEQEND
  8
0
  0
POLYLINE
  8
PLAN_1
 62
     5
  6
CONTINUOUS
 66
     1
 40
0.003000
 41
0.003000
  0
VERTEX
  8
PLAN_1
 62
     5
  6
CONTINUOUS
 10
-0.928504
 20
0.563827
  0
VERTEX
  8
PLAN_1
 62
     5
  6
CONTINUOUS
 10
-0.920220
 20
0.563827
  0
SEQEND
  8
0
  0
POLYLINE
  8
PLAN_1
 62
     5
  6
CONTINUOUS
 66
     1
 40
0.003000
 41
0.003000
  0
VERTEX
  8
PLAN_1
 62
     5
  6
CONTINUOUS
 10
-0.911937
 20
0.563827
  0
VERTEX
  8
PLAN_1
 62
     5
  6
CONTINUOUS
 10
-0.903654
 20
0.563827
  0
SEQEND
  8
0
  0
POLYLINE
  8
PLAN_1
 62
     5
  6
CONTINUOUS
 66
     1
 40
0.003000
 41
0.003000
  0
VERTEX
  8
PLAN_1
 62
     5
  6
CONTINUOUS
 10
-0.894882
 20
0.563827
  0
VERTEX
  8
PLAN_1
 62
     5
  6
CONTINUOUS
 10
-0.886598
 20
0.563827
  0
SEQEND
  8
0
  0
POLYLINE
  8
PLAN_1
 62
     5
  6
CONTINUOUS
 66
     1
 40
0.003000
 41
0.003000
  0
VERTEX
  8
PLAN_1
 62
     5
  6
CONTINUOUS
 10
-0.878315
 20
0.563827
  0
VERTEX
  8
PLAN_1
 62
     5
  6
CONTINUOUS
 10
-0.870035
 20
0.563827
  0
SEQEND
  8
0
  0
POLYLINE
  8
PLAN_1
 62
     5
  6
CONTINUOUS
 66
     1
 40
0.003000
 41
0.003000
  0
VERTEX
  8
PLAN_1
 62
     5
  6
CONTINUOUS
 10
-0.861752
 20
0.563827
  0
VERTEX
  8
PLAN_1
 62
     5
  6
CONTINUOUS
 10
-0.853469
 20
0.563827
  0
SEQEND
  8
0
  0
POLYLINE
  8
PLAN_1
 62
     5
  6
CONTINUOUS
 66
     1
 40
0.003000
 41
0.003000
  0
VERTEX
  8
PLAN_1
 62
     5
  6
CONTINUOUS
 10
-0.845185
 20
0.563827
  0
VERTEX
  8
PLAN_1
 62
     5
  6
CONTINUOUS
 10
-0.836902
 20
0.563827
  0
SEQEND
  8
0
  0
POLYLINE
  8
PLAN_1
 62
     5
  6
CONTINUOUS
 66
     1
 40
0.003000
 41
0.003000
  0
VERTEX
  8
PLAN_1
 62
     5
  6
CONTINUOUS
 10
-0.828618
 20
0.563827
  0
VERTEX
  8
PLAN_1
 62
     5
  6
CONTINUOUS
 10
-0.820335
 20
0.563827
  0
SEQEND
  8
0
  0
POLYLINE
  8
PLAN_1
 62
     5
  6
CONTINUOUS
 66
     1
 40
0.003000
 41
0.003000
  0
VERTEX
  8
PLAN_1
 62
     5
  6
CONTINUOUS
 10
-0.812051
 20
0.563827
  0
VERTEX
  8
PLAN_1
 62
     5
  6
CONTINUOUS
 10
-0.803280
 20
0.563827
  0
SEQEND
  8
0
  0
POLYLINE
  8
PLAN_1
 62
     5
  6
CONTINUOUS
 66
     1
 40
0.003000
 41
0.003000
  0
VERTEX
  8
PLAN_1
 62
     5
  6
CONTINUOUS
 10
-0.794996
 20
0.563827
  0
VERTEX
  8
PLAN_1
 62
     5
  6
CONTINUOUS
 10
-0.786713
 20
0.563827
  0
SEQEND
  8
0
  0
POLYLINE
  8
PLAN_1
 62
     5
  6
CONTINUOUS
 66
     1
 40
0.003000
 41
0.003000
  0
VERTEX
  8
PLAN_1
 62
     5
  6
CONTINUOUS
 10
-0.778429
 20
0.563827
  0
VERTEX
  8
PLAN_1
 62
     5
  6
CONTINUOUS
 10
-0.770146
 20
0.563827
  0
SEQEND
  8
0
  0
POLYLINE
  8
PLAN_1
 62
     5
  6
CONTINUOUS
 66
     1
 40
0.003000
 41
0.003000
  0
VERTEX
  8
PLAN_1
 62
     5
  6
CONTINUOUS
 10
-0.761862
 20
0.563827
  0
VERTEX
  8
PLAN_1
 62
     5
  6
CONTINUOUS
 10
-0.753583
 20
0.563827
  0
SEQEND
  8
0
  0
POLYLINE
  8
PLAN_1
 62
     5
  6
CONTINUOUS
 66
     1
 40
0.003000
 41
0.003000
  0
VERTEX
  8
PLAN_1
 62
     5
  6
CONTINUOUS
 10
-0.745299
 20
0.563827
  0
VERTEX
  8
PLAN_1
 62
     5
  6
CONTINUOUS
 10
-0.737016
 20
0.563827
  0
SEQEND
  8
0
  0
POLYLINE
  8
PLAN_1
 62
     5
  6
CONTINUOUS
 66
     1
 40
0.003000
 41
0.003000
  0
VERTEX
  8
PLAN_1
 62
     5
  6
CONTINUOUS
 10
-0.728732
 20
0.563827
  0
VERTEX
  8
PLAN_1
 62
     5
  6
CONTINUOUS
 10
-0.719961
 20
0.563827
  0
SEQEND
  8
0
  0
POLYLINE
  8
PLAN_1
 62
     5
  6
CONTINUOUS
 66
     1
 40
0.003000
 41
0.003000
  0
VERTEX
  8
PLAN_1
 62
     5
  6
CONTINUOUS
 10
-0.711677
 20
0.563827
  0
VERTEX
  8
PLAN_1
 62
     5
  6
CONTINUOUS
 10
-0.703394
 20
0.563827
  0
SEQEND
  8
0
  0
POLYLINE
  8
PLAN_1
 62
     5
  6
CONTINUOUS
 66
     1
 40
0.003000
 41
0.003000
  0
VERTEX
  8
PLAN_1
 62
     5
  6
CONTINUOUS
 10
-0.695110
 20
0.563827
  0
VERTEX
  8
PLAN_1
 62
     5
  6
CONTINUOUS
 10
-0.686827
 20
0.563827
  0
SEQEND
  8
0
  0
POLYLINE
  8
PLAN_1
 62
     5
  6
CONTINUOUS
 66
     1
 40
0.003000
 41
0.003000
  0
VERTEX
  8
PLAN_1
 62
     5
  6
CONTINUOUS
 10
-0.678543
 20
0.563827
  0
VERTEX
  8
PLAN_1
 62
     5
  6
CONTINUOUS
 10
-0.670260
 20
0.563827
  0
SEQEND
  8
0
  0
POLYLINE
  8
PLAN_1
 62
     5
  6
CONTINUOUS
 66
     1
 40
0.003000
 41
0.003000
  0
VERTEX
  8
PLAN_1
 62
     5
  6
CONTINUOUS
 10
-0.661976
 20
0.563827
  0
VERTEX
  8
PLAN_1
 62
     5
  6
CONTINUOUS
 10
-0.653693
 20
0.563827
  0
SEQEND
  8
0
  0
POLYLINE
  8
PLAN_1
 62
     5
  6
CONTINUOUS
 66
     1
 40
0.003000
 41
0.003000
  0
VERTEX
  8
PLAN_1
 62
     5
  6
CONTINUOUS
 10
-0.645409
 20
0.563827
  0
VERTEX
  8
PLAN_1
 62
     5
  6
CONTINUOUS
 10
-0.637130
 20
0.563827
  0
SEQEND
  8
0
  0
POLYLINE
  8
PLAN_1
 62
     5
  6
CONTINUOUS
 66
     1
 40
0.003000
 41
0.003000
  0
VERTEX
  8
PLAN_1
 62
     5
  6
CONTINUOUS
 10
-0.628358
 20
0.563827
  0
VERTEX
  8
PLAN_1
 62
     5
  6
CONTINUOUS
 10
-0.620075
 20
0.563827
  0
SEQEND
  8
0
  0
POLYLINE
  8
PLAN_1
 62
     5
  6
CONTINUOUS
 66
     1
 40
0.003000
 41
0.003000
  0
VERTEX
  8
PLAN_1
 62
     5
  6
CONTINUOUS
 10
-0.611791
 20
0.563827
  0
VERTEX
  8
PLAN_1
 62
     5
  6
CONTINUOUS
 10
-0.603508
 20
0.563827
  0
SEQEND
  8
0
  0
POLYLINE
  8
PLAN_1
 62
     5
  6
CONTINUOUS
 66
     1
 40
0.003000
 41
0.003000
  0
VERTEX
  8
PLAN_1
 62
     5
  6
CONTINUOUS
 10
-0.595224
 20
0.563827
  0
VERTEX
  8
PLAN_1
 62
     5
  6
CONTINUOUS
 10
-0.586941
 20
0.563827
  0
SEQEND
  8
0
  0
POLYLINE
  8
PLAN_1
 62
     5
  6
CONTINUOUS
 66
     1
 40
0.003000
 41
0.003000
  0
VERTEX
  8
PLAN_1
 62
     5
  6
CONTINUOUS
 10
-0.578657
 20
0.563827
  0
VERTEX
  8
PLAN_1
 62
     5
  6
CONTINUOUS
 10
-0.570374
 20
0.563827
  0
SEQEND
  8
0
  0
POLYLINE
  8
PLAN_1
 62
     5
  6
CONTINUOUS
 66
     1
 40
0.003000
 41
0.003000
  0
VERTEX
  8
PLAN_1
 62
     5
  6
CONTINUOUS
 10
-0.562091
 20
0.563827
  0
VERTEX
  8
PLAN_1
 62
     5
  6
CONTINUOUS
 10
-0.553807
 20
0.563827
  0
SEQEND
  8
0
  0
POLYLINE
  8
PLAN_1
 62
     5
  6
CONTINUOUS
 66
     1
 40
0.003000
 41
0.003000
  0
VERTEX
  8
PLAN_1
 62
     5
  6
CONTINUOUS
 10
-0.545039
 20
0.563827
  0
VERTEX
  8
PLAN_1
 62
     5
  6
CONTINUOUS
 10
-0.536756
 20
0.563827
  0
SEQEND
  8
0
  0
POLYLINE
  8
PLAN_1
 62
     5
  6
CONTINUOUS
 66
     1
 40
0.003000
 41
0.003000
  0
VERTEX
  8
PLAN_1
 62
     5
  6
CONTINUOUS
 10
-0.528472
 20
0.563827
  0
VERTEX
  8
PLAN_1
 62
     5
  6
CONTINUOUS
 10
-0.520189
 20
0.563827
  0
SEQEND
  8
0
  0
POLYLINE
  8
PLAN_1
 62
     5
  6
CONTINUOUS
 66
     1
 40
0.003000
 41
0.003000
  0
VERTEX
  8
PLAN_1
 62
     5
  6
CONTINUOUS
 10
-0.511906
 20
0.563827
  0
VERTEX
  8
PLAN_1
 62
     5
  6
CONTINUOUS
 10
-0.503622
 20
0.563827
  0
SEQEND
  8
0
  0
POLYLINE
  8
PLAN_1
 62
     5
  6
CONTINUOUS
 66
     1
 40
0.003000
 41
0.003000
  0
VERTEX
  8
PLAN_1
 62
     5
  6
CONTINUOUS
 10
-0.495339
 20
0.563827
  0
VERTEX
  8
PLAN_1
 62
     5
  6
CONTINUOUS
 10
-0.487055
 20
0.563827
  0
SEQEND
  8
0
  0
POLYLINE
  8
PLAN_1
 62
     5
  6
CONTINUOUS
 66
     1
 40
0.003000
 41
0.003000
  0
VERTEX
  8
PLAN_1
 62
     5
  6
CONTINUOUS
 10
-0.478772
 20
0.563827
  0
VERTEX
  8
PLAN_1
 62
     5
  6
CONTINUOUS
 10
-0.470488
 20
0.563827
  0
SEQEND
  8
0
  0
POLYLINE
  8
PLAN_1
 62
     5
  6
CONTINUOUS
 66
     1
 40
0.003000
 41
0.003000
  0
VERTEX
  8
PLAN_1
 62
     5
  6
CONTINUOUS
 10
-0.462205
 20
0.563827
  0
VERTEX
  8
PLAN_1
 62
     5
  6
CONTINUOUS
 10
-0.453433
 20
0.563827
  0
SEQEND
  8
0
  0
POLYLINE
  8
PLAN_1
 62
     5
  6
CONTINUOUS
 66
     1
 40
0.003000
 41
0.003000
  0
VERTEX
  8
PLAN_1
 62
     5
  6
CONTINUOUS
 10
-0.445150
 20
0.563827
  0
VERTEX
  8
PLAN_1
 62
     5
  6
CONTINUOUS
 10
-0.436870
 20
0.563827
  0
SEQEND
  8
0
  0
POLYLINE
  8
PLAN_1
 62
     5
  6
CONTINUOUS
 66
     1
 40
0.003000
 41
0.003000
  0
VERTEX
  8
PLAN_1
 62
     5
  6
CONTINUOUS
 10
-0.428587
 20
0.563827
  0
VERTEX
  8
PLAN_1
 62
     5
  6
CONTINUOUS
 10
-0.420303
 20
0.563827
  0
SEQEND
  8
0
  0
POLYLINE
  8
PLAN_1
 62
     5
  6
CONTINUOUS
 66
     1
 40
0.003000
 41
0.003000
  0
VERTEX
  8
PLAN_1
 62
     5
  6
CONTINUOUS
 10
-0.412020
 20
0.563827
  0
VERTEX
  8
PLAN_1
 62
     5
  6
CONTINUOUS
 10
-0.403736
 20
0.563827
  0
SEQEND
  8
0
  0
POLYLINE
  8
PLAN_1
 62
     5
  6
CONTINUOUS
 66
     1
 40
0.003000
 41
0.003000
  0
VERTEX
  8
PLAN_1
 62
     5
  6
CONTINUOUS
 10
-0.395453
 20
0.563827
  0
VERTEX
  8
PLAN_1
 62
     5
  6
CONTINUOUS
 10
-0.387169
 20
0.563827
  0
SEQEND
  8
0
  0
POLYLINE
  8
PLAN_1
 62
     5
  6
CONTINUOUS
 66
     1
 40
0.003000
 41
0.003000
  0
VERTEX
  8
PLAN_1
 62
     5
  6
CONTINUOUS
 10
-0.378886
 20
0.563827
  0
VERTEX
  8
PLAN_1
 62
     5
  6
CONTINUOUS
 10
-0.370114
 20
0.563827
  0
SEQEND
  8
0
  0
POLYLINE
  8
PLAN_1
 62
     5
  6
CONTINUOUS
 66
     1
 40
0.003000
 41
0.003000
  0
VERTEX
  8
PLAN_1
 62
     5
  6
CONTINUOUS
 10
-0.361831
 20
0.563827
  0
VERTEX
  8
PLAN_1
 62
     5
  6
CONTINUOUS
 10
-0.353547
 20
0.563827
  0
SEQEND
  8
0
  0
POLYLINE
  8
PLAN_1
 62
     5
  6
CONTINUOUS
 66
     1
 40
0.003000
 41
0.003000
  0
VERTEX
  8
PLAN_1
 62
     5
  6
CONTINUOUS
 10
-0.345264
 20
0.563827
  0
VERTEX
  8
PLAN_1
 62
     5
  6
CONTINUOUS
 10
-0.336980
 20
0.563827
  0
SEQEND
  8
0
  0
POLYLINE
  8
PLAN_1
 62
     5
  6
CONTINUOUS
 66
     1
 40
0.003000
 41
0.003000
  0
VERTEX
  8
PLAN_1
 62
     5
  6
CONTINUOUS
 10
-0.328697
 20
0.563827
  0
VERTEX
  8
PLAN_1
 62
     5
  6
CONTINUOUS
 10
-0.320417
 20
0.563827
  0
SEQEND
  8
0
  0
POLYLINE
  8
PLAN_1
 62
     5
  6
CONTINUOUS
 66
     1
 40
0.003000
 41
0.003000
  0
VERTEX
  8
PLAN_1
 62
     5
  6
CONTINUOUS
 10
-0.312134
 20
0.563827
  0
VERTEX
  8
PLAN_1
 62
     5
  6
CONTINUOUS
 10
-0.303850
 20
0.563827
  0
SEQEND
  8
0
  0
POLYLINE
  8
PLAN_1
 62
     5
  6
CONTINUOUS
 66
     1
 40
0.003000
 41
0.003000
  0
VERTEX
  8
PLAN_1
 62
     5
  6
CONTINUOUS
 10
-0.295567
 20
0.563827
  0
VERTEX
  8
PLAN_1
 62
     5
  6
CONTINUOUS
 10
-0.287283
 20
0.563827
  0
SEQEND
  8
0
  0
POLYLINE
  8
PLAN_1
 62
     5
  6
CONTINUOUS
 66
     1
 40
0.003000
 41
0.003000
  0
VERTEX
  8
PLAN_1
 62
     5
  6
CONTINUOUS
 10
-0.278512
 20
0.563827
  0
VERTEX
  8
PLAN_1
 62
     5
  6
CONTINUOUS
 10
-0.270228
 20
0.563827
  0
SEQEND
  8
0
  0
POLYLINE
  8
PLAN_1
 62
     5
  6
CONTINUOUS
 66
     1
 40
0.003000
 41
0.003000
  0
VERTEX
  8
PLAN_1
 62
     5
  6
CONTINUOUS
 10
-0.261945
 20
0.563827
  0
VERTEX
  8
PLAN_1
 62
     5
  6
CONTINUOUS
 10
-0.253661
 20
0.563827
  0
SEQEND
  8
0
  0
POLYLINE
  8
PLAN_1
 62
     5
  6
CONTINUOUS
 66
     1
 40
0.003000
 41
0.003000
  0
VERTEX
  8
PLAN_1
 62
     5
  6
CONTINUOUS
 10
-0.245378
 20
0.563827
  0
VERTEX
  8
PLAN_1
 62
     5
  6
CONTINUOUS
 10
-0.237094
 20
0.563827
  0
SEQEND
  8
0
  0
POLYLINE
  8
PLAN_1
 62
     5
  6
CONTINUOUS
 66
     1
 40
0.003000
 41
0.003000
  0
VERTEX
  8
PLAN_1
 62
     5
  6
CONTINUOUS
 10
-0.228811
 20
0.563827
  0
VERTEX
  8
PLAN_1
 62
     5
  6
CONTINUOUS
 10
-0.220528
 20
0.563827
  0
SEQEND
  8
0
  0
POLYLINE
  8
PLAN_1
 62
     5
  6
CONTINUOUS
 66
     1
 40
0.003000
 41
0.003000
  0
VERTEX
  8
PLAN_1
 62
     5
  6
CONTINUOUS
 10
-0.212244
 20
0.563827
  0
VERTEX
  8
PLAN_1
 62
     5
  6
CONTINUOUS
 10
-0.211272
 20
0.563827
  0
SEQEND
  8
0
  0
POLYLINE
  8
PLAN_1
 62
     5
  6
CONTINUOUS
 66
     1
 40
0.003000
 41
0.003000
  0
VERTEX
  8
PLAN_1
 62
     5
  6
CONTINUOUS
 10
-0.212244
 20
0.563827
  0
VERTEX
  8
PLAN_1
 62
     5
  6
CONTINUOUS
 10
-0.211272
 20
0.563827
  0
SEQEND
  8
0
  0
POLYLINE
  8
PLAN_1
 62
     5
  6
CONTINUOUS
 66
     1
 40
0.003000
 41
0.003000
  0
VERTEX
  8
PLAN_1
 62
     5
  6
CONTINUOUS
 10
-0.211272
 20
0.563827
  0
VERTEX
  8
PLAN_1
 62
     5
  6
CONTINUOUS
 10
-0.206886
 20
0.563339
  0
VERTEX
  8
PLAN_1
 62
     5
  6
CONTINUOUS
 10
-0.202988
 20
0.562850
  0
SEQEND
  8
0
  0
POLYLINE
  8
PLAN_1
 62
     5
  6
CONTINUOUS
 66
     1
 40
0.003000
 41
0.003000
  0
VERTEX
  8
PLAN_1
 62
     5
  6
CONTINUOUS
 10
-0.195193
 20
0.560902
  0
VERTEX
  8
PLAN_1
 62
     5
  6
CONTINUOUS
 10
-0.193732
 20
0.559925
  0
VERTEX
  8
PLAN_1
 62
     5
  6
CONTINUOUS
 10
-0.189831
 20
0.558465
  0
VERTEX
  8
PLAN_1
 62
     5
  6
CONTINUOUS
 10
-0.187882
 20
0.557004
  0
SEQEND
  8
0
  0
POLYLINE
  8
PLAN_1
 62
     5
  6
CONTINUOUS
 66
     1
 40
0.003000
 41
0.003000
  0
VERTEX
  8
PLAN_1
 62
     5
  6
CONTINUOUS
 10
-0.181063
 20
0.552130
  0
VERTEX
  8
PLAN_1
 62
     5
  6
CONTINUOUS
 10
-0.179114
 20
0.550181
  0
VERTEX
  8
PLAN_1
 62
     5
  6
CONTINUOUS
 10
-0.175701
 20
0.547260
  0
VERTEX
  8
PLAN_1
 62
     5
  6
CONTINUOUS
 10
-0.175217
 20
0.546283
  0
SEQEND
  8
0
  0
POLYLINE
  8
PLAN_1
 62
     5
  6
CONTINUOUS
 66
     1
 40
0.003000
 41
0.003000
  0
VERTEX
  8
PLAN_1
 62
     5
  6
CONTINUOUS
 10
-0.170343
 20
0.539461
  0
VERTEX
  8
PLAN_1
 62
     5
  6
CONTINUOUS
 10
-0.168394
 20
0.536051
  0
VERTEX
  8
PLAN_1
 62
     5
  6
CONTINUOUS
 10
-0.166933
 20
0.531665
  0
SEQEND
  8
0
  0
POLYLINE
  8
PLAN_1
 62
     5
  6
CONTINUOUS
 66
     1
 40
0.003000
 41
0.003000
  0
VERTEX
  8
PLAN_1
 62
     5
  6
CONTINUOUS
 10
-0.164496
 20
0.523870
  0
VERTEX
  8
PLAN_1
 62
     5
  6
CONTINUOUS
 10
-0.164496
 20
0.522898
  0
VERTEX
  8
PLAN_1
 62
     5
  6
CONTINUOUS
 10
-0.164008
 20
0.518024
  0
SEQEND
  8
0
  0
POLYLINE
  8
PLAN_1
 62
     5
  6
CONTINUOUS
 66
     1
 40
0.003000
 41
0.003000
  0
VERTEX
  8
PLAN_1
 62
     5
  6
CONTINUOUS
 10
-0.164496
 20
0.523870
  0
VERTEX
  8
PLAN_1
 62
     5
  6
CONTINUOUS
 10
-0.164496
 20
0.522898
  0
VERTEX
  8
PLAN_1
 62
     5
  6
CONTINUOUS
 10
-0.164008
 20
0.518024
  0
SEQEND
  8
0
  0
POLYLINE
  8
PLAN_1
 62
     5
  6
CONTINUOUS
 66
     1
 40
0.003000
 41
0.003000
  0
VERTEX
  8
PLAN_1
 62
     5
  6
CONTINUOUS
 10
-0.164008
 20
0.518024
  0
VERTEX
  8
PLAN_1
 62
     5
  6
CONTINUOUS
 10
-0.164008
 20
0.509740
  0
SEQEND
  8
0
  0
POLYLINE
  8
PLAN_1
 62
     5
  6
CONTINUOUS
 66
     1
 40
0.003000
 41
0.003000
  0
VERTEX
  8
PLAN_1
 62
     5
  6
CONTINUOUS
 10
-0.164008
 20
0.501457
  0
VERTEX
  8
PLAN_1
 62
     5
  6
CONTINUOUS
 10
-0.164008
 20
0.493173
  0
SEQEND
  8
0
  0
POLYLINE
  8
PLAN_1
 62
     5
  6
CONTINUOUS
 66
     1
 40
0.003000
 41
0.003000
  0
VERTEX
  8
PLAN_1
 62
     5
  6
CONTINUOUS
 10
-0.164008
 20
0.484890
  0
VERTEX
  8
PLAN_1
 62
     5
  6
CONTINUOUS
 10
-0.164008
 20
0.476606
  0
SEQEND
  8
0
  0
POLYLINE
  8
PLAN_1
 62
     5
  6
CONTINUOUS
 66
     1
 40
0.003000
 41
0.003000
  0
VERTEX
  8
PLAN_1
 62
     5
  6
CONTINUOUS
 10
-0.164008
 20
0.468323
  0
VERTEX
  8
PLAN_1
 62
     5
  6
CONTINUOUS
 10
-0.164008
 20
0.460039
  0
SEQEND
  8
0
  0
POLYLINE
  8
PLAN_1
 62
     5
  6
CONTINUOUS
 66
     1
 40
0.003000
 41
0.003000
  0
VERTEX
  8
PLAN_1
 62
     5
  6
CONTINUOUS
 10
-0.164008
 20
0.451756
  0
VERTEX
  8
PLAN_1
 62
     5
  6
CONTINUOUS
 10
-0.164008
 20
0.442988
  0
SEQEND
  8
0
  0
POLYLINE
  8
PLAN_1
 62
     5
  6
CONTINUOUS
 66
     1
 40
0.003000
 41
0.003000
  0
VERTEX
  8
PLAN_1
 62
     5
  6
CONTINUOUS
 10
-0.164008
 20
0.434705
  0
VERTEX
  8
PLAN_1
 62
     5
  6
CONTINUOUS
 10
-0.164008
 20
0.426421
  0
SEQEND
  8
0
  0
POLYLINE
  8
PLAN_1
 62
     5
  6
CONTINUOUS
 66
     1
 40
0.003000
 41
0.003000
  0
VERTEX
  8
PLAN_1
 62
     5
  6
CONTINUOUS
 10
-0.164008
 20
0.418138
  0
VERTEX
  8
PLAN_1
 62
     5
  6
CONTINUOUS
 10
-0.164008
 20
0.409854
  0
SEQEND
  8
0
  0
POLYLINE
  8
PLAN_1
 62
     5
  6
CONTINUOUS
 66
     1
 40
0.003000
 41
0.003000
  0
VERTEX
  8
PLAN_1
 62
     5
  6
CONTINUOUS
 10
-0.164008
 20
0.401571
  0
VERTEX
  8
PLAN_1
 62
     5
  6
CONTINUOUS
 10
-0.164008
 20
0.393287
  0
SEQEND
  8
0
  0
POLYLINE
  8
PLAN_1
 62
     5
  6
CONTINUOUS
 66
     1
 40
0.003000
 41
0.003000
  0
VERTEX
  8
PLAN_1
 62
     5
  6
CONTINUOUS
 10
-0.164008
 20
0.385004
  0
VERTEX
  8
PLAN_1
 62
     5
  6
CONTINUOUS
 10
-0.164008
 20
0.376720
  0
SEQEND
  8
0
  0
POLYLINE
  8
PLAN_1
 62
     5
  6
CONTINUOUS
 66
     1
 40
0.003000
 41
0.003000
  0
VERTEX
  8
PLAN_1
 62
     5
  6
CONTINUOUS
 10
-0.164008
 20
0.368437
  0
VERTEX
  8
PLAN_1
 62
     5
  6
CONTINUOUS
 10
-0.164008
 20
0.359665
  0
SEQEND
  8
0
  0
POLYLINE
  8
PLAN_1
 62
     5
  6
CONTINUOUS
 66
     1
 40
0.003000
 41
0.003000
  0
VERTEX
  8
PLAN_1
 62
     5
  6
CONTINUOUS
 10
-0.164008
 20
0.351382
  0
VERTEX
  8
PLAN_1
 62
     5
  6
CONTINUOUS
 10
-0.164008
 20
0.343102
  0
SEQEND
  8
0
  0
POLYLINE
  8
PLAN_1
 62
     5
  6
CONTINUOUS
 66
     1
 40
0.003000
 41
0.003000
  0
VERTEX
  8
PLAN_1
 62
     5
  6
CONTINUOUS
 10
-0.164008
 20
0.334819
  0
VERTEX
  8
PLAN_1
 62
     5
  6
CONTINUOUS
 10
-0.164008
 20
0.326535
  0
SEQEND
  8
0
  0
POLYLINE
  8
PLAN_1
 62
     5
  6
CONTINUOUS
 66
     1
 40
0.003000
 41
0.003000
  0
VERTEX
  8
PLAN_1
 62
     5
  6
CONTINUOUS
 10
-0.164008
 20
0.318252
  0
VERTEX
  8
PLAN_1
 62
     5
  6
CONTINUOUS
 10
-0.164008
 20
0.309969
  0
SEQEND
  8
0
  0
POLYLINE
  8
PLAN_1
 62
     5
  6
CONTINUOUS
 66
     1
 40
0.003000
 41
0.003000
  0
VERTEX
  8
PLAN_1
 62
     5
  6
CONTINUOUS
 10
-0.164008
 20
0.301685
  0
VERTEX
  8
PLAN_1
 62
     5
  6
CONTINUOUS
 10
-0.164008
 20
0.293402
  0
SEQEND
  8
0
  0
POLYLINE
  8
PLAN_1
 62
     5
  6
CONTINUOUS
 66
     1
 40
0.003000
 41
0.003000
  0
VERTEX
  8
PLAN_1
 62
     5
  6
CONTINUOUS
 10
-0.164008
 20
0.285118
  0
VERTEX
  8
PLAN_1
 62
     5
  6
CONTINUOUS
 10
-0.164008
 20
0.276835
  0
SEQEND
  8
0
  0
POLYLINE
  8
PLAN_1
 62
     5
  6
CONTINUOUS
 66
     1
 40
0.003000
 41
0.003000
  0
VERTEX
  8
PLAN_1
 62
     5
  6
CONTINUOUS
 10
-0.164008
 20
0.268063
  0
VERTEX
  8
PLAN_1
 62
     5
  6
CONTINUOUS
 10
-0.164008
 20
0.259780
  0
SEQEND
  8
0
  0
POLYLINE
  8
PLAN_1
 62
     5
  6
CONTINUOUS
 66
     1
 40
0.003000
 41
0.003000
  0
VERTEX
  8
PLAN_1
 62
     5
  6
CONTINUOUS
 10
-0.164008
 20
0.251496
  0
VERTEX
  8
PLAN_1
 62
     5
  6
CONTINUOUS
 10
-0.164008
 20
0.243213
  0
SEQEND
  8
0
  0
POLYLINE
  8
PLAN_1
 62
     5
  6
CONTINUOUS
 66
     1
 40
0.003000
 41
0.003000
  0
VERTEX
  8
PLAN_1
 62
     5
  6
CONTINUOUS
 10
-0.164008
 20
0.234929
  0
VERTEX
  8
PLAN_1
 62
     5
  6
CONTINUOUS
 10
-0.164008
 20
0.226650
  0
SEQEND
  8
0
  0
POLYLINE
  8
PLAN_1
 62
     5
  6
CONTINUOUS
 66
     1
 40
0.003000
 41
0.003000
  0
VERTEX
  8
PLAN_1
 62
     5
  6
CONTINUOUS
 10
-0.164008
 20
0.218366
  0
VERTEX
  8
PLAN_1
 62
     5
  6
CONTINUOUS
 10
-0.164008
 20
0.210083
  0
SEQEND
  8
0
  0
POLYLINE
  8
PLAN_1
 62
     5
  6
CONTINUOUS
 66
     1
 40
0.003000
 41
0.003000
  0
VERTEX
  8
PLAN_1
 62
     5
  6
CONTINUOUS
 10
-0.164008
 20
0.201799
  0
VERTEX
  8
PLAN_1
 62
     5
  6
CONTINUOUS
 10
-0.164008
 20
0.193516
  0
SEQEND
  8
0
  0
POLYLINE
  8
PLAN_1
 62
     5
  6
CONTINUOUS
 66
     1
 40
0.003000
 41
0.003000
  0
VERTEX
  8
PLAN_1
 62
     5
  6
CONTINUOUS
 10
-0.164008
 20
0.184744
  0
VERTEX
  8
PLAN_1
 62
     5
  6
CONTINUOUS
 10
-0.164008
 20
0.176461
  0
SEQEND
  8
0
  0
POLYLINE
  8
PLAN_1
 62
     5
  6
CONTINUOUS
 66
     1
 40
0.003000
 41
0.003000
  0
VERTEX
  8
PLAN_1
 62
     5
  6
CONTINUOUS
 10
-0.164008
 20
0.168177
  0
VERTEX
  8
PLAN_1
 62
     5
  6
CONTINUOUS
 10
-0.164008
 20
0.159894
  0
SEQEND
  8
0
  0
POLYLINE
  8
PLAN_1
 62
     5
  6
CONTINUOUS
 66
     1
 40
0.003000
 41
0.003000
  0
VERTEX
  8
PLAN_1
 62
     5
  6
CONTINUOUS
 10
-0.164008
 20
0.151610
  0
VERTEX
  8
PLAN_1
 62
     5
  6
CONTINUOUS
 10
-0.164008
 20
0.143327
  0
SEQEND
  8
0
  0
POLYLINE
  8
PLAN_1
 62
     5
  6
CONTINUOUS
 66
     1
 40
0.003000
 41
0.003000
  0
VERTEX
  8
PLAN_1
 62
     5
  6
CONTINUOUS
 10
-0.164008
 20
0.135043
  0
VERTEX
  8
PLAN_1
 62
     5
  6
CONTINUOUS
 10
-0.164008
 20
0.126760
  0
SEQEND
  8
0
  0
POLYLINE
  8
PLAN_1
 62
     5
  6
CONTINUOUS
 66
     1
 40
0.003000
 41
0.003000
  0
VERTEX
  8
PLAN_1
 62
     5
  6
CONTINUOUS
 10
-0.164008
 20
0.118476
  0
VERTEX
  8
PLAN_1
 62
     5
  6
CONTINUOUS
 10
-0.164008
 20
0.110197
  0
SEQEND
  8
0
  0
POLYLINE
  8
PLAN_1
 62
     5
  6
CONTINUOUS
 66
     1
 40
0.003000
 41
0.003000
  0
VERTEX
  8
PLAN_1
 62
     5
  6
CONTINUOUS
 10
-0.164008
 20
0.101913
  0
VERTEX
  8
PLAN_1
 62
     5
  6
CONTINUOUS
 10
-0.164008
 20
0.093142
  0
SEQEND
  8
0
  0
POLYLINE
  8
PLAN_1
 62
     5
  6
CONTINUOUS
 66
     1
 40
0.003000
 41
0.003000
  0
VERTEX
  8
PLAN_1
 62
     5
  6
CONTINUOUS
 10
-0.164008
 20
0.084858
  0
VERTEX
  8
PLAN_1
 62
     5
  6
CONTINUOUS
 10
-0.164008
 20
0.076575
  0
SEQEND
  8
0
  0
POLYLINE
  8
PLAN_1
 62
     5
  6
CONTINUOUS
 66
     1
 40
0.003000
 41
0.003000
  0
VERTEX
  8
PLAN_1
 62
     5
  6
CONTINUOUS
 10
-0.164008
 20
0.068291
  0
VERTEX
  8
PLAN_1
 62
     5
  6
CONTINUOUS
 10
-0.164008
 20
0.060008
  0
SEQEND
  8
0
  0
POLYLINE
  8
PLAN_1
 62
     5
  6
CONTINUOUS
 66
     1
 40
0.003000
 41
0.003000
  0
VERTEX
  8
PLAN_1
 62
     5
  6
CONTINUOUS
 10
-0.164008
 20
0.051724
  0
VERTEX
  8
PLAN_1
 62
     5
  6
CONTINUOUS
 10
-0.164008
 20
0.043441
  0
SEQEND
  8
0
  0
POLYLINE
  8
PLAN_1
 62
     5
  6
CONTINUOUS
 66
     1
 40
0.003000
 41
0.003000
  0
VERTEX
  8
PLAN_1
 62
     5
  6
CONTINUOUS
 10
-0.164008
 20
0.035157
  0
VERTEX
  8
PLAN_1
 62
     5
  6
CONTINUOUS
 10
-0.164008
 20
0.026874
  0
SEQEND
  8
0
  0
POLYLINE
  8
PLAN_1
 62
     5
  6
CONTINUOUS
 66
     1
 40
0.003000
 41
0.003000
  0
VERTEX
  8
PLAN_1
 62
     5
  6
CONTINUOUS
 10
-0.164008
 20
0.018591
  0
VERTEX
  8
PLAN_1
 62
     5
  6
CONTINUOUS
 10
-0.164008
 20
0.009823
  0
SEQEND
  8
0
  0
POLYLINE
  8
PLAN_1
 62
     5
  6
CONTINUOUS
 66
     1
 40
0.003000
 41
0.003000
  0
VERTEX
  8
PLAN_1
 62
     5
  6
CONTINUOUS
 10
-0.164008
 20
0.001539
  0
VERTEX
  8
PLAN_1
 62
     5
  6
CONTINUOUS
 10
-0.164008
 20
-0.006744
  0
SEQEND
  8
0
  0
POLYLINE
  8
PLAN_1
 62
     5
  6
CONTINUOUS
 66
     1
 40
0.003000
 41
0.003000
  0
VERTEX
  8
PLAN_1
 62
     5
  6
CONTINUOUS
 10
-0.164008
 20
-0.015028
  0
VERTEX
  8
PLAN_1
 62
     5
  6
CONTINUOUS
 10
-0.164008
 20
-0.023311
  0
SEQEND
  8
0
  0
POLYLINE
  8
PLAN_1
 62
     5
  6
CONTINUOUS
 66
     1
 40
0.003000
 41
0.003000
  0
VERTEX
  8
PLAN_1
 62
     5
  6
CONTINUOUS
 10
-0.164008
 20
-0.031594
  0
VERTEX
  8
PLAN_1
 62
     5
  6
CONTINUOUS
 10
-0.164008
 20
-0.039878
  0
SEQEND
  8
0
  0
POLYLINE
  8
PLAN_1
 62
     5
  6
CONTINUOUS
 66
     1
 40
0.003000
 41
0.003000
  0
VERTEX
  8
PLAN_1
 62
     5
  6
CONTINUOUS
 10
-0.164008
 20
-0.048161
  0
VERTEX
  8
PLAN_1
 62
     5
  6
CONTINUOUS
 10
-0.164008
 20
-0.056445
  0
SEQEND
  8
0
  0
POLYLINE
  8
PLAN_1
 62
     5
  6
CONTINUOUS
 66
     1
 40
0.003000
 41
0.003000
  0
VERTEX
  8
PLAN_1
 62
     5
  6
CONTINUOUS
 10
-0.164008
 20
-0.064728
  0
VERTEX
  8
PLAN_1
 62
     5
  6
CONTINUOUS
 10
-0.164008
 20
-0.073012
  0
SEQEND
  8
0
  0
POLYLINE
  8
PLAN_1
 62
     5
  6
CONTINUOUS
 66
     1
 40
0.003000
 41
0.003000
  0
VERTEX
  8
PLAN_1
 62
     5
  6
CONTINUOUS
 10
-0.164008
 20
-0.081780
  0
VERTEX
  8
PLAN_1
 62
     5
  6
CONTINUOUS
 10
-0.164008
 20
-0.090063
  0
SEQEND
  8
0
  0
POLYLINE
  8
PLAN_1
 62
     5
  6
CONTINUOUS
 66
     1
 40
0.003000
 41
0.003000
  0
VERTEX
  8
PLAN_1
 62
     5
  6
CONTINUOUS
 10
-0.164008
 20
-0.098346
  0
VERTEX
  8
PLAN_1
 62
     5
  6
CONTINUOUS
 10
-0.164008
 20
-0.106630
  0
SEQEND
  8
0
  0
POLYLINE
  8
PLAN_1
 62
     5
  6
CONTINUOUS
 66
     1
 40
0.003000
 41
0.003000
  0
VERTEX
  8
PLAN_1
 62
     5
  6
CONTINUOUS
 10
-0.164008
 20
-0.114913
  0
VERTEX
  8
PLAN_1
 62
     5
  6
CONTINUOUS
 10
-0.164008
 20
-0.123197
  0
SEQEND
  8
0
  0
POLYLINE
  8
PLAN_1
 62
     5
  6
CONTINUOUS
 66
     1
 40
0.003000
 41
0.003000
  0
VERTEX
  8
PLAN_1
 62
     5
  6
CONTINUOUS
 10
-0.164008
 20
-0.131480
  0
VERTEX
  8
PLAN_1
 62
     5
  6
CONTINUOUS
 10
-0.164008
 20
-0.139764
  0
SEQEND
  8
0
  0
POLYLINE
  8
PLAN_1
 62
     5
  6
CONTINUOUS
 66
     1
 40
0.003000
 41
0.003000
  0
VERTEX
  8
PLAN_1
 62
     5
  6
CONTINUOUS
 10
-0.164008
 20
-0.148047
  0
VERTEX
  8
PLAN_1
 62
     5
  6
CONTINUOUS
 10
-0.164008
 20
-0.156331
  0
SEQEND
  8
0
  0
POLYLINE
  8
PLAN_1
 62
     5
  6
CONTINUOUS
 66
     1
 40
0.003000
 41
0.003000
  0
VERTEX
  8
PLAN_1
 62
     5
  6
CONTINUOUS
 10
-0.164008
 20
-0.165102
  0
VERTEX
  8
PLAN_1
 62
     5
  6
CONTINUOUS
 10
-0.164008
 20
-0.173386
  0
SEQEND
  8
0
  0
POLYLINE
  8
PLAN_1
 62
     5
  6
CONTINUOUS
 66
     1
 40
0.003000
 41
0.003000
  0
VERTEX
  8
PLAN_1
 62
     5
  6
CONTINUOUS
 10
-0.164008
 20
-0.181669
  0
VERTEX
  8
PLAN_1
 62
     5
  6
CONTINUOUS
 10
-0.164008
 20
-0.189953
  0
SEQEND
  8
0
  0
POLYLINE
  8
PLAN_1
 62
     5
  6
CONTINUOUS
 66
     1
 40
0.003000
 41
0.003000
  0
VERTEX
  8
PLAN_1
 62
     5
  6
CONTINUOUS
 10
-0.164008
 20
-0.198232
  0
VERTEX
  8
PLAN_1
 62
     5
  6
CONTINUOUS
 10
-0.164008
 20
-0.206516
  0
SEQEND
  8
0
  0
POLYLINE
  8
PLAN_1
 62
     5
  6
CONTINUOUS
 66
     1
 40
0.003000
 41
0.003000
  0
VERTEX
  8
PLAN_1
 62
     5
  6
CONTINUOUS
 10
-0.164008
 20
-0.214799
  0
VERTEX
  8
PLAN_1
 62
     5
  6
CONTINUOUS
 10
-0.164008
 20
-0.223083
  0
SEQEND
  8
0
  0
POLYLINE
  8
PLAN_1
 62
     5
  6
CONTINUOUS
 66
     1
 40
0.003000
 41
0.003000
  0
VERTEX
  8
PLAN_1
 62
     5
  6
CONTINUOUS
 10
-0.164008
 20
-0.231366
  0
VERTEX
  8
PLAN_1
 62
     5
  6
CONTINUOUS
 10
-0.164008
 20
-0.239650
  0
SEQEND
  8
0
  0
POLYLINE
  8
PLAN_1
 62
     5
  6
CONTINUOUS
 66
     1
 40
0.003000
 41
0.003000
  0
VERTEX
  8
PLAN_1
 62
     5
  6
CONTINUOUS
 10
-0.164008
 20
-0.247933
  0
VERTEX
  8
PLAN_1
 62
     5
  6
CONTINUOUS
 10
-0.164008
 20
-0.256705
  0
SEQEND
  8
0
  0
POLYLINE
  8
PLAN_1
 62
     5
  6
CONTINUOUS
 66
     1
 40
0.003000
 41
0.003000
  0
VERTEX
  8
PLAN_1
 62
     5
  6
CONTINUOUS
 10
-0.164008
 20
-0.264988
  0
VERTEX
  8
PLAN_1
 62
     5
  6
CONTINUOUS
 10
-0.164008
 20
-0.273272
  0
SEQEND
  8
0
  0
POLYLINE
  8
PLAN_1
 62
     5
  6
CONTINUOUS
 66
     1
 40
0.003000
 41
0.003000
  0
VERTEX
  8
PLAN_1
 62
     5
  6
CONTINUOUS
 10
-0.164008
 20
-0.281555
  0
VERTEX
  8
PLAN_1
 62
     5
  6
CONTINUOUS
 10
-0.164008
 20
-0.289839
  0
SEQEND
  8
0
  0
POLYLINE
  8
PLAN_1
 62
     5
  6
CONTINUOUS
 66
     1
 40
0.003000
 41
0.003000
  0
VERTEX
  8
PLAN_1
 62
     5
  6
CONTINUOUS
 10
-0.164008
 20
-0.298122
  0
VERTEX
  8
PLAN_1
 62
     5
  6
CONTINUOUS
 10
-0.164008
 20
-0.306406
  0
SEQEND
  8
0
  0
POLYLINE
  8
PLAN_1
 62
     5
  6
CONTINUOUS
 66
     1
 40
0.003000
 41
0.003000
  0
VERTEX
  8
PLAN_1
 62
     5
  6
CONTINUOUS
 10
-0.164008
 20
-0.314685
  0
VERTEX
  8
PLAN_1
 62
     5
  6
CONTINUOUS
 10
-0.164008
 20
-0.322969
  0
SEQEND
  8
0
  0
POLYLINE
  8
PLAN_1
 62
     5
  6
CONTINUOUS
 66
     1
 40
0.003000
 41
0.003000
  0
VERTEX
  8
PLAN_1
 62
     5
  6
CONTINUOUS
 10
-0.541626
 20
0.248575
  0
VERTEX
  8
PLAN_1
 62
     5
  6
CONTINUOUS
 10
-0.533343
 20
0.248575
  0
SEQEND
  8
0
  0
POLYLINE
  8
PLAN_1
 62
     5
  6
CONTINUOUS
 66
     1
 40
0.003000
 41
0.003000
  0
VERTEX
  8
PLAN_1
 62
     5
  6
CONTINUOUS
 10
-0.525059
 20
0.248575
  0
VERTEX
  8
PLAN_1
 62
     5
  6
CONTINUOUS
 10
-0.516291
 20
0.248575
  0
SEQEND
  8
0
  0
POLYLINE
  8
PLAN_1
 62
     5
  6
CONTINUOUS
 66
     1
 40
0.003000
 41
0.003000
  0
VERTEX
  8
PLAN_1
 62
     5
  6
CONTINUOUS
 10
-0.508008
 20
0.248575
  0
VERTEX
  8
PLAN_1
 62
     5
  6
CONTINUOUS
 10
-0.499724
 20
0.248575
  0
SEQEND
  8
0
  0
POLYLINE
  8
PLAN_1
 62
     5
  6
CONTINUOUS
 66
     1
 40
0.003000
 41
0.003000
  0
VERTEX
  8
PLAN_1
 62
     5
  6
CONTINUOUS
 10
-0.491441
 20
0.248575
  0
VERTEX
  8
PLAN_1
 62
     5
  6
CONTINUOUS
 10
-0.483157
 20
0.248575
  0
SEQEND
  8
0
  0
POLYLINE
  8
PLAN_1
 62
     5
  6
CONTINUOUS
 66
     1
 40
0.003000
 41
0.003000
  0
VERTEX
  8
PLAN_1
 62
     5
  6
CONTINUOUS
 10
-0.474874
 20
0.248575
  0
VERTEX
  8
PLAN_1
 62
     5
  6
CONTINUOUS
 10
-0.466591
 20
0.248575
  0
SEQEND
  8
0
  0
POLYLINE
  8
PLAN_1
 62
     5
  6
CONTINUOUS
 66
     1
 40
0.003000
 41
0.003000
  0
VERTEX
  8
PLAN_1
 62
     5
  6
CONTINUOUS
 10
-0.458307
 20
0.248575
  0
VERTEX
  8
PLAN_1
 62
     5
  6
CONTINUOUS
 10
-0.450024
 20
0.248575
  0
SEQEND
  8
0
  0
POLYLINE
  8
PLAN_1
 62
     5
  6
CONTINUOUS
 66
     1
 40
0.003000
 41
0.003000
  0
VERTEX
  8
PLAN_1
 62
     5
  6
CONTINUOUS
 10
-0.441740
 20
0.248575
  0
VERTEX
  8
PLAN_1
 62
     5
  6
CONTINUOUS
 10
-0.433457
 20
0.248575
  0
SEQEND
  8
0
  0
POLYLINE
  8
PLAN_1
 62
     5
  6
CONTINUOUS
 66
     1
 40
0.003000
 41
0.003000
  0
VERTEX
  8
PLAN_1
 62
     5
  6
CONTINUOUS
 10
-0.424689
 20
0.248575
  0
VERTEX
  8
PLAN_1
 62
     5
  6
CONTINUOUS
 10
-0.416406
 20
0.248575
  0
SEQEND
  8
0
  0
POLYLINE
  8
PLAN_1
 62
     5
  6
CONTINUOUS
 66
     1
 40
0.003000
 41
0.003000
  0
VERTEX
  8
PLAN_1
 62
     5
  6
CONTINUOUS
 10
-0.408122
 20
0.248575
  0
VERTEX
  8
PLAN_1
 62
     5
  6
CONTINUOUS
 10
-0.399839
 20
0.248575
  0
SEQEND
  8
0
  0
POLYLINE
  8
PLAN_1
 62
     5
  6
CONTINUOUS
 66
     1
 40
0.003000
 41
0.003000
  0
VERTEX
  8
PLAN_1
 62
     5
  6
CONTINUOUS
 10
-0.391555
 20
0.248575
  0
VERTEX
  8
PLAN_1
 62
     5
  6
CONTINUOUS
 10
-0.383272
 20
0.248575
  0
SEQEND
  8
0
  0
POLYLINE
  8
PLAN_1
 62
     5
  6
CONTINUOUS
 66
     1
 40
0.003000
 41
0.003000
  0
VERTEX
  8
PLAN_1
 62
     5
  6
CONTINUOUS
 10
-0.374988
 20
0.248575
  0
VERTEX
  8
PLAN_1
 62
     5
  6
CONTINUOUS
 10
-0.366705
 20
0.248575
  0
SEQEND
  8
0
  0
POLYLINE
  8
PLAN_1
 62
     5
  6
CONTINUOUS
 66
     1
 40
0.003000
 41
0.003000
  0
VERTEX
  8
PLAN_1
 62
     5
  6
CONTINUOUS
 10
-0.358421
 20
0.248575
  0
VERTEX
  8
PLAN_1
 62
     5
  6
CONTINUOUS
 10
-0.350138
 20
0.248575
  0
SEQEND
  8
0
  0
POLYLINE
  8
PLAN_1
 62
     5
  6
CONTINUOUS
 66
     1
 40
0.003000
 41
0.003000
  0
VERTEX
  8
PLAN_1
 62
     5
  6
CONTINUOUS
 10
-0.341366
 20
0.248575
  0
VERTEX
  8
PLAN_1
 62
     5
  6
CONTINUOUS
 10
-0.333083
 20
0.248575
  0
SEQEND
  8
0
  0
POLYLINE
  8
PLAN_1
 62
     5
  6
CONTINUOUS
 66
     1
 40
0.003000
 41
0.003000
  0
VERTEX
  8
PLAN_1
 62
     5
  6
CONTINUOUS
 10
-0.324799
 20
0.248575
  0
VERTEX
  8
PLAN_1
 62
     5
  6
CONTINUOUS
 10
-0.316516
 20
0.248575
  0
SEQEND
  8
0
  0
POLYLINE
  8
PLAN_1
 62
     5
  6
CONTINUOUS
 66
     1
 40
0.003000
 41
0.003000
  0
VERTEX
  8
PLAN_1
 62
     5
  6
CONTINUOUS
 10
-0.308236
 20
0.248575
  0
VERTEX
  8
PLAN_1
 62
     5
  6
CONTINUOUS
 10
-0.299953
 20
0.248575
  0
SEQEND
  8
0
  0
POLYLINE
  8
PLAN_1
 62
     5
  6
CONTINUOUS
 66
     1
 40
0.003000
 41
0.003000
  0
VERTEX
  8
PLAN_1
 62
     5
  6
CONTINUOUS
 10
-0.291669
 20
0.248575
  0
VERTEX
  8
PLAN_1
 62
     5
  6
CONTINUOUS
 10
-0.283386
 20
0.248575
  0
SEQEND
  8
0
  0
POLYLINE
  8
PLAN_1
 62
     5
  6
CONTINUOUS
 66
     1
 40
0.003000
 41
0.003000
  0
VERTEX
  8
PLAN_1
 62
     5
  6
CONTINUOUS
 10
-0.275102
 20
0.248575
  0
VERTEX
  8
PLAN_1
 62
     5
  6
CONTINUOUS
 10
-0.266819
 20
0.248575
  0
SEQEND
  8
0
  0
POLYLINE
  8
PLAN_1
 62
     5
  6
CONTINUOUS
 66
     1
 40
0.003000
 41
0.003000
  0
VERTEX
  8
PLAN_1
 62
     5
  6
CONTINUOUS
 10
-0.258535
 20
0.248575
  0
VERTEX
  8
PLAN_1
 62
     5
  6
CONTINUOUS
 10
-0.249764
 20
0.248575
  0
SEQEND
  8
0
  0
POLYLINE
  8
PLAN_1
 62
     5
  6
CONTINUOUS
 66
     1
 40
0.003000
 41
0.003000
  0
VERTEX
  8
PLAN_1
 62
     5
  6
CONTINUOUS
 10
-0.241480
 20
0.248575
  0
VERTEX
  8
PLAN_1
 62
     5
  6
CONTINUOUS
 10
-0.233197
 20
0.248575
  0
SEQEND
  8
0
  0
POLYLINE
  8
PLAN_1
 62
     5
  6
CONTINUOUS
 66
     1
 40
0.003000
 41
0.003000
  0
VERTEX
  8
PLAN_1
 62
     5
  6
CONTINUOUS
 10
-0.224913
 20
0.248575
  0
VERTEX
  8
PLAN_1
 62
     5
  6
CONTINUOUS
 10
-0.216630
 20
0.248575
  0
SEQEND
  8
0
  0
POLYLINE
  8
PLAN_1
 62
     5
  6
CONTINUOUS
 66
     1
 40
0.003000
 41
0.003000
  0
VERTEX
  8
PLAN_1
 62
     5
  6
CONTINUOUS
 10
-0.208346
 20
0.248575
  0
VERTEX
  8
PLAN_1
 62
     5
  6
CONTINUOUS
 10
-0.200063
 20
0.248575
  0
SEQEND
  8
0
  0
POLYLINE
  8
PLAN_1
 62
     5
  6
CONTINUOUS
 66
     1
 40
0.003000
 41
0.003000
  0
VERTEX
  8
PLAN_1
 62
     5
  6
CONTINUOUS
 10
-0.191783
 20
0.248575
  0
VERTEX
  8
PLAN_1
 62
     5
  6
CONTINUOUS
 10
-0.183500
 20
0.248575
  0
SEQEND
  8
0
  0
POLYLINE
  8
PLAN_1
 62
     5
  6
CONTINUOUS
 66
     1
 40
0.003000
 41
0.003000
  0
VERTEX
  8
PLAN_1
 62
     5
  6
CONTINUOUS
 10
-0.175217
 20
0.248575
  0
VERTEX
  8
PLAN_1
 62
     5
  6
CONTINUOUS
 10
-0.170343
 20
0.248575
  0
SEQEND
  8
0
  0
POLYLINE
  8
PLAN_1
 62
     5
  6
CONTINUOUS
 66
     1
 40
0.003000
 41
0.003000
  0
VERTEX
  8
PLAN_1
 62
     5
  6
CONTINUOUS
 10
-0.175217
 20
0.248575
  0
VERTEX
  8
PLAN_1
 62
     5
  6
CONTINUOUS
 10
-0.170343
 20
0.248575
  0
SEQEND
  8
0
  0
POLYLINE
  8
PLAN_1
 62
     5
  6
CONTINUOUS
 66
     1
 40
0.003000
 41
0.003000
  0
VERTEX
  8
PLAN_1
 62
     5
  6
CONTINUOUS
 10
-0.382295
 20
0.096551
  0
VERTEX
  8
PLAN_1
 62
     5
  6
CONTINUOUS
 10
-0.382295
 20
0.104835
  0
SEQEND
  8
0
  0
POLYLINE
  8
PLAN_1
 62
     5
  6
CONTINUOUS
 66
     1
 40
0.003000
 41
0.003000
  0
VERTEX
  8
PLAN_1
 62
     5
  6
CONTINUOUS
 10
-0.382295
 20
0.113118
  0
VERTEX
  8
PLAN_1
 62
     5
  6
CONTINUOUS
 10
-0.382295
 20
0.121402
  0
SEQEND
  8
0
  0
POLYLINE
  8
PLAN_1
 62
     5
  6
CONTINUOUS
 66
     1
 40
0.003000
 41
0.003000
  0
VERTEX
  8
PLAN_1
 62
     5
  6
CONTINUOUS
 10
-0.382295
 20
0.130173
  0
VERTEX
  8
PLAN_1
 62
     5
  6
CONTINUOUS
 10
-0.382295
 20
0.138457
  0
SEQEND
  8
0
  0
POLYLINE
  8
PLAN_1
 62
     5
  6
CONTINUOUS
 66
     1
 40
0.003000
 41
0.003000
  0
VERTEX
  8
PLAN_1
 62
     5
  6
CONTINUOUS
 10
-0.382295
 20
0.146740
  0
VERTEX
  8
PLAN_1
 62
     5
  6
CONTINUOUS
 10
-0.382295
 20
0.155024
  0
SEQEND
  8
0
  0
POLYLINE
  8
PLAN_1
 62
     5
  6
CONTINUOUS
 66
     1
 40
0.003000
 41
0.003000
  0
VERTEX
  8
PLAN_1
 62
     5
  6
CONTINUOUS
 10
-0.382295
 20
0.163307
  0
VERTEX
  8
PLAN_1
 62
     5
  6
CONTINUOUS
 10
-0.382295
 20
0.171587
  0
SEQEND
  8
0
  0
POLYLINE
  8
PLAN_1
 62
     5
  6
CONTINUOUS
 66
     1
 40
0.003000
 41
0.003000
  0
VERTEX
  8
PLAN_1
 62
     5
  6
CONTINUOUS
 10
-0.382295
 20
0.179870
  0
VERTEX
  8
PLAN_1
 62
     5
  6
CONTINUOUS
 10
-0.382295
 20
0.188154
  0
SEQEND
  8
0
  0
POLYLINE
  8
PLAN_1
 62
     5
  6
CONTINUOUS
 66
     1
 40
0.003000
 41
0.003000
  0
VERTEX
  8
PLAN_1
 62
     5
  6
CONTINUOUS
 10
-0.382295
 20
0.196437
  0
VERTEX
  8
PLAN_1
 62
     5
  6
CONTINUOUS
 10
-0.382295
 20
0.204720
  0
SEQEND
  8
0
  0
POLYLINE
  8
PLAN_1
 62
     5
  6
CONTINUOUS
 66
     1
 40
0.003000
 41
0.003000
  0
VERTEX
  8
PLAN_1
 62
     5
  6
CONTINUOUS
 10
-0.382295
 20
0.213004
  0
VERTEX
  8
PLAN_1
 62
     5
  6
CONTINUOUS
 10
-0.382295
 20
0.221776
  0
SEQEND
  8
0
  0
POLYLINE
  8
PLAN_1
 62
     5
  6
CONTINUOUS
 66
     1
 40
0.003000
 41
0.003000
  0
VERTEX
  8
PLAN_1
 62
     5
  6
CONTINUOUS
 10
-0.382295
 20
0.230059
  0
VERTEX
  8
PLAN_1
 62
     5
  6
CONTINUOUS
 10
-0.382295
 20
0.238343
  0
SEQEND
  8
0
  0
POLYLINE
  8
PLAN_1
 62
     5
  6
CONTINUOUS
 66
     1
 40
0.003000
 41
0.003000
  0
VERTEX
  8
PLAN_1
 62
     5
  6
CONTINUOUS
 10
-0.382295
 20
0.246626
  0
VERTEX
  8
PLAN_1
 62
     5
  6
CONTINUOUS
 10
-0.382295
 20
0.254909
  0
SEQEND
  8
0
  0
POLYLINE
  8
PLAN_1
 62
     5
  6
CONTINUOUS
 66
     1
 40
0.003000
 41
0.003000
  0
VERTEX
  8
PLAN_1
 62
     5
  6
CONTINUOUS
 10
-0.382295
 20
0.263193
  0
VERTEX
  8
PLAN_1
 62
     5
  6
CONTINUOUS
 10
-0.382295
 20
0.271476
  0
SEQEND
  8
0
  0
POLYLINE
  8
PLAN_1
 62
     5
  6
CONTINUOUS
 66
     1
 40
0.003000
 41
0.003000
  0
VERTEX
  8
PLAN_1
 62
     5
  6
CONTINUOUS
 10
-0.382295
 20
0.279760
  0
VERTEX
  8
PLAN_1
 62
     5
  6
CONTINUOUS
 10
-0.382295
 20
0.288039
  0
SEQEND
  8
0
  0
POLYLINE
  8
PLAN_1
 62
     5
  6
CONTINUOUS
 66
     1
 40
0.003000
 41
0.003000
  0
VERTEX
  8
PLAN_1
 62
     5
  6
CONTINUOUS
 10
-0.382295
 20
0.296323
  0
VERTEX
  8
PLAN_1
 62
     5
  6
CONTINUOUS
 10
-0.382295
 20
0.305094
  0
SEQEND
  8
0
  0
POLYLINE
  8
PLAN_1
 62
     5
  6
CONTINUOUS
 66
     1
 40
0.003000
 41
0.003000
  0
VERTEX
  8
PLAN_1
 62
     5
  6
CONTINUOUS
 10
-0.382295
 20
0.313378
  0
VERTEX
  8
PLAN_1
 62
     5
  6
CONTINUOUS
 10
-0.382295
 20
0.321661
  0
SEQEND
  8
0
  0
POLYLINE
  8
PLAN_1
 62
     5
  6
CONTINUOUS
 66
     1
 40
0.003000
 41
0.003000
  0
VERTEX
  8
PLAN_1
 62
     5
  6
CONTINUOUS
 10
-0.382295
 20
0.329945
  0
VERTEX
  8
PLAN_1
 62
     5
  6
CONTINUOUS
 10
-0.382295
 20
0.338228
  0
SEQEND
  8
0
  0
POLYLINE
  8
PLAN_1
 62
     5
  6
CONTINUOUS
 66
     1
 40
0.003000
 41
0.003000
  0
VERTEX
  8
PLAN_1
 62
     5
  6
CONTINUOUS
 10
-0.382295
 20
0.346512
  0
VERTEX
  8
PLAN_1
 62
     5
  6
CONTINUOUS
 10
-0.382295
 20
0.354795
  0
SEQEND
  8
0
  0
POLYLINE
  8
PLAN_1
 62
     5
  6
CONTINUOUS
 66
     1
 40
0.003000
 41
0.003000
  0
VERTEX
  8
PLAN_1
 62
     5
  6
CONTINUOUS
 10
-0.382295
 20
0.363079
  0
VERTEX
  8
PLAN_1
 62
     5
  6
CONTINUOUS
 10
-0.382295
 20
0.371362
  0
SEQEND
  8
0
  0
POLYLINE
  8
PLAN_1
 62
     5
  6
CONTINUOUS
 66
     1
 40
0.003000
 41
0.003000
  0
VERTEX
  8
PLAN_1
 62
     5
  6
CONTINUOUS
 10
-0.382295
 20
0.379646
  0
VERTEX
  8
PLAN_1
 62
     5
  6
CONTINUOUS
 10
-0.382295
 20
0.387929
  0
SEQEND
  8
0
  0
POLYLINE
  8
PLAN_1
 62
     5
  6
CONTINUOUS
 66
     1
 40
0.003000
 41
0.003000
  0
VERTEX
  8
PLAN_1
 62
     5
  6
CONTINUOUS
 10
-0.382295
 20
0.396697
  0
VERTEX
  8
PLAN_1
 62
     5
  6
CONTINUOUS
 10
-0.382295
 20
0.404980
  0
SEQEND
  8
0
  0
POLYLINE
  8
PLAN_1
 62
     5
  6
CONTINUOUS
 66
     1
 40
0.003000
 41
0.003000
  0
VERTEX
  8
PLAN_1
 62
     5
  6
CONTINUOUS
 10
-2.004350
 20
0.248575
  0
VERTEX
  8
PLAN_1
 62
     5
  6
CONTINUOUS
 10
-1.996067
 20
0.248575
  0
SEQEND
  8
0
  0
POLYLINE
  8
PLAN_1
 62
     5
  6
CONTINUOUS
 66
     1
 40
0.003000
 41
0.003000
  0
VERTEX
  8
PLAN_1
 62
     5
  6
CONTINUOUS
 10
-1.987783
 20
0.248575
  0
VERTEX
  8
PLAN_1
 62
     5
  6
CONTINUOUS
 10
-1.979500
 20
0.248575
  0
SEQEND
  8
0
  0
POLYLINE
  8
PLAN_1
 62
     5
  6
CONTINUOUS
 66
     1
 40
0.003000
 41
0.003000
  0
VERTEX
  8
PLAN_1
 62
     5
  6
CONTINUOUS
 10
-1.971217
 20
0.248575
  0
VERTEX
  8
PLAN_1
 62
     5
  6
CONTINUOUS
 10
-1.962449
 20
0.248575
  0
SEQEND
  8
0
  0
POLYLINE
  8
PLAN_1
 62
     5
  6
CONTINUOUS
 66
     1
 40
0.003000
 41
0.003000
  0
VERTEX
  8
PLAN_1
 62
     5
  6
CONTINUOUS
 10
-1.954165
 20
0.248575
  0
VERTEX
  8
PLAN_1
 62
     5
  6
CONTINUOUS
 10
-1.945882
 20
0.248575
  0
SEQEND
  8
0
  0
POLYLINE
  8
PLAN_1
 62
     5
  6
CONTINUOUS
 66
     1
 40
0.003000
 41
0.003000
  0
VERTEX
  8
PLAN_1
 62
     5
  6
CONTINUOUS
 10
-1.937598
 20
0.248575
  0
VERTEX
  8
PLAN_1
 62
     5
  6
CONTINUOUS
 10
-1.929315
 20
0.248575
  0
SEQEND
  8
0
  0
POLYLINE
  8
PLAN_1
 62
     5
  6
CONTINUOUS
 66
     1
 40
0.003000
 41
0.003000
  0
VERTEX
  8
PLAN_1
 62
     5
  6
CONTINUOUS
 10
-1.921031
 20
0.248575
  0
VERTEX
  8
PLAN_1
 62
     5
  6
CONTINUOUS
 10
-1.912748
 20
0.248575
  0
SEQEND
  8
0
  0
POLYLINE
  8
PLAN_1
 62
     5
  6
CONTINUOUS
 66
     1
 40
0.003000
 41
0.003000
  0
VERTEX
  8
PLAN_1
 62
     5
  6
CONTINUOUS
 10
-1.904465
 20
0.248575
  0
VERTEX
  8
PLAN_1
 62
     5
  6
CONTINUOUS
 10
-1.896181
 20
0.248575
  0
SEQEND
  8
0
  0
POLYLINE
  8
PLAN_1
 62
     5
  6
CONTINUOUS
 66
     1
 40
0.003000
 41
0.003000
  0
VERTEX
  8
PLAN_1
 62
     5
  6
CONTINUOUS
 10
-1.887898
 20
0.248575
  0
VERTEX
  8
PLAN_1
 62
     5
  6
CONTINUOUS
 10
-1.879614
 20
0.248575
  0
SEQEND
  8
0
  0
POLYLINE
  8
PLAN_1
 62
     5
  6
CONTINUOUS
 66
     1
 40
0.003000
 41
0.003000
  0
VERTEX
  8
PLAN_1
 62
     5
  6
CONTINUOUS
 10
-1.870846
 20
0.248575
  0
VERTEX
  8
PLAN_1
 62
     5
  6
CONTINUOUS
 10
-1.862563
 20
0.248575
  0
SEQEND
  8
0
  0
POLYLINE
  8
PLAN_1
 62
     5
  6
CONTINUOUS
 66
     1
 40
0.003000
 41
0.003000
  0
VERTEX
  8
PLAN_1
 62
     5
  6
CONTINUOUS
 10
-1.854280
 20
0.248575
  0
VERTEX
  8
PLAN_1
 62
     5
  6
CONTINUOUS
 10
-1.845996
 20
0.248575
  0
SEQEND
  8
0
  0
POLYLINE
  8
PLAN_1
 62
     5
  6
CONTINUOUS
 66
     1
 40
0.003000
 41
0.003000
  0
VERTEX
  8
PLAN_1
 62
     5
  6
CONTINUOUS
 10
-1.837713
 20
0.248575
  0
VERTEX
  8
PLAN_1
 62
     5
  6
CONTINUOUS
 10
-1.829429
 20
0.248575
  0
SEQEND
  8
0
  0
POLYLINE
  8
PLAN_1
 62
     5
  6
CONTINUOUS
 66
     1
 40
0.003000
 41
0.003000
  0
VERTEX
  8
PLAN_1
 62
     5
  6
CONTINUOUS
 10
-1.821146
 20
0.248575
  0
VERTEX
  8
PLAN_1
 62
     5
  6
CONTINUOUS
 10
-1.812862
 20
0.248575
  0
SEQEND
  8
0
  0
POLYLINE
  8
PLAN_1
 62
     5
  6
CONTINUOUS
 66
     1
 40
0.003000
 41
0.003000
  0
VERTEX
  8
PLAN_1
 62
     5
  6
CONTINUOUS
 10
-1.804579
 20
0.248575
  0
VERTEX
  8
PLAN_1
 62
     5
  6
CONTINUOUS
 10
-1.796295
 20
0.248575
  0
SEQEND
  8
0
  0
POLYLINE
  8
PLAN_1
 62
     5
  6
CONTINUOUS
 66
     1
 40
0.003000
 41
0.003000
  0
VERTEX
  8
PLAN_1
 62
     5
  6
CONTINUOUS
 10
-1.787524
 20
0.248575
  0
VERTEX
  8
PLAN_1
 62
     5
  6
CONTINUOUS
 10
-1.779240
 20
0.248575
  0
SEQEND
  8
0
  0
POLYLINE
  8
PLAN_1
 62
     5
  6
CONTINUOUS
 66
     1
 40
0.003000
 41
0.003000
  0
VERTEX
  8
PLAN_1
 62
     5
  6
CONTINUOUS
 10
-1.770961
 20
0.248575
  0
VERTEX
  8
PLAN_1
 62
     5
  6
CONTINUOUS
 10
-1.762677
 20
0.248575
  0
SEQEND
  8
0
  0
POLYLINE
  8
PLAN_1
 62
     5
  6
CONTINUOUS
 66
     1
 40
0.003000
 41
0.003000
  0
VERTEX
  8
PLAN_1
 62
     5
  6
CONTINUOUS
 10
-1.754394
 20
0.248575
  0
VERTEX
  8
PLAN_1
 62
     5
  6
CONTINUOUS
 10
-1.746110
 20
0.248575
  0
SEQEND
  8
0
  0
POLYLINE
  8
PLAN_1
 62
     5
  6
CONTINUOUS
 66
     1
 40
0.003000
 41
0.003000
  0
VERTEX
  8
PLAN_1
 62
     5
  6
CONTINUOUS
 10
-1.737827
 20
0.248575
  0
VERTEX
  8
PLAN_1
 62
     5
  6
CONTINUOUS
 10
-1.729543
 20
0.248575
  0
SEQEND
  8
0
  0
POLYLINE
  8
PLAN_1
 62
     5
  6
CONTINUOUS
 66
     1
 40
0.003000
 41
0.003000
  0
VERTEX
  8
PLAN_1
 62
     5
  6
CONTINUOUS
 10
-1.721260
 20
0.248575
  0
VERTEX
  8
PLAN_1
 62
     5
  6
CONTINUOUS
 10
-1.712976
 20
0.248575
  0
SEQEND
  8
0
  0
POLYLINE
  8
PLAN_1
 62
     5
  6
CONTINUOUS
 66
     1
 40
0.003000
 41
0.003000
  0
VERTEX
  8
PLAN_1
 62
     5
  6
CONTINUOUS
 10
-1.704693
 20
0.248575
  0
VERTEX
  8
PLAN_1
 62
     5
  6
CONTINUOUS
 10
-1.695921
 20
0.248575
  0
SEQEND
  8
0
  0
POLYLINE
  8
PLAN_1
 62
     5
  6
CONTINUOUS
 66
     1
 40
0.003000
 41
0.003000
  0
VERTEX
  8
PLAN_1
 62
     5
  6
CONTINUOUS
 10
-1.687638
 20
0.248575
  0
VERTEX
  8
PLAN_1
 62
     5
  6
CONTINUOUS
 10
-1.680331
 20
0.248575
  0
SEQEND
  8
0
  0
POLYLINE
  8
PLAN_1
 62
     5
  6
CONTINUOUS
 66
     1
 40
0.003000
 41
0.003000
  0
VERTEX
  8
PLAN_1
 62
     5
  6
CONTINUOUS
 10
-1.687638
 20
0.248575
  0
VERTEX
  8
PLAN_1
 62
     5
  6
CONTINUOUS
 10
-1.680331
 20
0.248575
  0
SEQEND
  8
0
  0
POLYLINE
  8
PLAN_1
 62
     5
  6
CONTINUOUS
 66
     1
 40
0.003000
 41
0.003000
  0
VERTEX
  8
PLAN_1
 62
     5
  6
CONTINUOUS
 10
-1.845020
 20
0.079500
  0
VERTEX
  8
PLAN_1
 62
     5
  6
CONTINUOUS
 10
-1.845020
 20
0.087783
  0
SEQEND
  8
0
  0
POLYLINE
  8
PLAN_1
 62
     5
  6
CONTINUOUS
 66
     1
 40
0.003000
 41
0.003000
  0
VERTEX
  8
PLAN_1
 62
     5
  6
CONTINUOUS
 10
-1.845020
 20
0.096063
  0
VERTEX
  8
PLAN_1
 62
     5
  6
CONTINUOUS
 10
-1.845020
 20
0.104346
  0
SEQEND
  8
0
  0
POLYLINE
  8
PLAN_1
 62
     5
  6
CONTINUOUS
 66
     1
 40
0.003000
 41
0.003000
  0
VERTEX
  8
PLAN_1
 62
     5
  6
CONTINUOUS
 10
-1.845020
 20
0.112630
  0
VERTEX
  8
PLAN_1
 62
     5
  6
CONTINUOUS
 10
-1.845020
 20
0.120913
  0
SEQEND
  8
0
  0
POLYLINE
  8
PLAN_1
 62
     5
  6
CONTINUOUS
 66
     1
 40
0.003000
 41
0.003000
  0
VERTEX
  8
PLAN_1
 62
     5
  6
CONTINUOUS
 10
-1.845020
 20
0.129197
  0
VERTEX
  8
PLAN_1
 62
     5
  6
CONTINUOUS
 10
-1.845020
 20
0.137480
  0
SEQEND
  8
0
  0
POLYLINE
  8
PLAN_1
 62
     5
  6
CONTINUOUS
 66
     1
 40
0.003000
 41
0.003000
  0
VERTEX
  8
PLAN_1
 62
     5
  6
CONTINUOUS
 10
-1.845020
 20
0.146252
  0
VERTEX
  8
PLAN_1
 62
     5
  6
CONTINUOUS
 10
-1.845020
 20
0.154535
  0
SEQEND
  8
0
  0
POLYLINE
  8
PLAN_1
 62
     5
  6
CONTINUOUS
 66
     1
 40
0.003000
 41
0.003000
  0
VERTEX
  8
PLAN_1
 62
     5
  6
CONTINUOUS
 10
-1.845020
 20
0.162819
  0
VERTEX
  8
PLAN_1
 62
     5
  6
CONTINUOUS
 10
-1.845020
 20
0.171102
  0
SEQEND
  8
0
  0
POLYLINE
  8
PLAN_1
 62
     5
  6
CONTINUOUS
 66
     1
 40
0.003000
 41
0.003000
  0
VERTEX
  8
PLAN_1
 62
     5
  6
CONTINUOUS
 10
-1.845020
 20
0.179386
  0
VERTEX
  8
PLAN_1
 62
     5
  6
CONTINUOUS
 10
-1.845020
 20
0.187669
  0
SEQEND
  8
0
  0
POLYLINE
  8
PLAN_1
 62
     5
  6
CONTINUOUS
 66
     1
 40
0.003000
 41
0.003000
  0
VERTEX
  8
PLAN_1
 62
     5
  6
CONTINUOUS
 10
-1.845020
 20
0.195953
  0
VERTEX
  8
PLAN_1
 62
     5
  6
CONTINUOUS
 10
-1.845020
 20
0.204236
  0
SEQEND
  8
0
  0
POLYLINE
  8
PLAN_1
 62
     5
  6
CONTINUOUS
 66
     1
 40
0.003000
 41
0.003000
  0
VERTEX
  8
PLAN_1
 62
     5
  6
CONTINUOUS
 10
-1.845020
 20
0.212516
  0
VERTEX
  8
PLAN_1
 62
     5
  6
CONTINUOUS
 10
-1.845020
 20
0.220799
  0
SEQEND
  8
0
  0
POLYLINE
  8
PLAN_1
 62
     5
  6
CONTINUOUS
 66
     1
 40
0.003000
 41
0.003000
  0
VERTEX
  8
PLAN_1
 62
     5
  6
CONTINUOUS
 10
-1.845020
 20
0.229083
  0
VERTEX
  8
PLAN_1
 62
     5
  6
CONTINUOUS
 10
-1.845020
 20
0.237854
  0
SEQEND
  8
0
  0
POLYLINE
  8
PLAN_1
 62
     5
  6
CONTINUOUS
 66
     1
 40
0.003000
 41
0.003000
  0
VERTEX
  8
PLAN_1
 62
     5
  6
CONTINUOUS
 10
-1.845020
 20
0.246138
  0
VERTEX
  8
PLAN_1
 62
     5
  6
CONTINUOUS
 10
-1.845020
 20
0.254421
  0
SEQEND
  8
0
  0
POLYLINE
  8
PLAN_1
 62
     5
  6
CONTINUOUS
 66
     1
 40
0.003000
 41
0.003000
  0
VERTEX
  8
PLAN_1
 62
     5
  6
CONTINUOUS
 10
-1.845020
 20
0.262705
  0
VERTEX
  8
PLAN_1
 62
     5
  6
CONTINUOUS
 10
-1.845020
 20
0.270988
  0
SEQEND
  8
0
  0
POLYLINE
  8
PLAN_1
 62
     5
  6
CONTINUOUS
 66
     1
 40
0.003000
 41
0.003000
  0
VERTEX
  8
PLAN_1
 62
     5
  6
CONTINUOUS
 10
-1.845020
 20
0.279272
  0
VERTEX
  8
PLAN_1
 62
     5
  6
CONTINUOUS
 10
-1.845020
 20
0.287555
  0
SEQEND
  8
0
  0
POLYLINE
  8
PLAN_1
 62
     5
  6
CONTINUOUS
 66
     1
 40
0.003000
 41
0.003000
  0
VERTEX
  8
PLAN_1
 62
     5
  6
CONTINUOUS
 10
-1.845020
 20
0.295839
  0
VERTEX
  8
PLAN_1
 62
     5
  6
CONTINUOUS
 10
-1.845020
 20
0.304122
  0
SEQEND
  8
0
  0
POLYLINE
  8
PLAN_1
 62
     5
  6
CONTINUOUS
 66
     1
 40
0.003000
 41
0.003000
  0
VERTEX
  8
PLAN_1
 62
     5
  6
CONTINUOUS
 10
-1.845020
 20
0.312406
  0
VERTEX
  8
PLAN_1
 62
     5
  6
CONTINUOUS
 10
-1.845020
 20
0.321173
  0
SEQEND
  8
0
  0
POLYLINE
  8
PLAN_1
 62
     5
  6
CONTINUOUS
 66
     1
 40
0.003000
 41
0.003000
  0
VERTEX
  8
PLAN_1
 62
     5
  6
CONTINUOUS
 10
-1.845020
 20
0.329457
  0
VERTEX
  8
PLAN_1
 62
     5
  6
CONTINUOUS
 10
-1.845020
 20
0.337740
  0
SEQEND
  8
0
  0
POLYLINE
  8
PLAN_1
 62
     5
  6
CONTINUOUS
 66
     1
 40
0.003000
 41
0.003000
  0
VERTEX
  8
PLAN_1
 62
     5
  6
CONTINUOUS
 10
-1.845020
 20
0.346024
  0
VERTEX
  8
PLAN_1
 62
     5
  6
CONTINUOUS
 10
-1.845020
 20
0.354307
  0
SEQEND
  8
0
  0
POLYLINE
  8
PLAN_1
 62
     5
  6
CONTINUOUS
 66
     1
 40
0.003000
 41
0.003000
  0
VERTEX
  8
PLAN_1
 62
     5
  6
CONTINUOUS
 10
-1.845020
 20
0.362591
  0
VERTEX
  8
PLAN_1
 62
     5
  6
CONTINUOUS
 10
-1.845020
 20
0.370874
  0
SEQEND
  8
0
  0
POLYLINE
  8
PLAN_1
 62
     5
  6
CONTINUOUS
 66
     1
 40
0.003000
 41
0.003000
  0
VERTEX
  8
PLAN_1
 62
     5
  6
CONTINUOUS
 10
-1.845020
 20
0.379157
  0
VERTEX
  8
PLAN_1
 62
     5
  6
CONTINUOUS
 10
-1.845020
 20
0.387441
  0
SEQEND
  8
0
  0
POLYLINE
  8
PLAN_1
 62
     5
  6
CONTINUOUS
 66
     1
 40
0.003000
 41
0.003000
  0
VERTEX
  8
PLAN_1
 62
     5
  6
CONTINUOUS
 10
-1.845020
 20
0.395724
  0
VERTEX
  8
PLAN_1
 62
     5
  6
CONTINUOUS
 10
-1.845020
 20
0.399134
  0
SEQEND
  8
0
  0
POLYLINE
  8
PLAN_1
 62
     5
  6
CONTINUOUS
 66
     1
 40
0.003000
 41
0.003000
  0
VERTEX
  8
PLAN_1
 62
     5
  6
CONTINUOUS
 10
-1.845020
 20
0.395724
  0
VERTEX
  8
PLAN_1
 62
     5
  6
CONTINUOUS
 10
-1.845020
 20
0.399134
  0
SEQEND
  8
0
  0
POLYLINE
  8
PLAN_1
  6
CONTINUOUS
 66
     1
 40
0.008280
 41
0.008280
  0
VERTEX
  8
PLAN_1
  6
CONTINUOUS
 10
-1.895209
 20
1.768795
  0
VERTEX
  8
PLAN_1
  6
CONTINUOUS
 10
-1.895209
 20
0.563827
  0
VERTEX
  8
PLAN_1
  6
CONTINUOUS
 10
-0.332598
 20
0.563827
  0
VERTEX
  8
PLAN_1
  6
CONTINUOUS
 10
-0.332598
 20
1.768795
  0
VERTEX
  8
PLAN_1
  6
CONTINUOUS
 10
-1.895209
 20
1.768795
  0
SEQEND
  8
0
  0
POLYLINE
  8
PLAN_1
  6
CONTINUOUS
 66
     1
 40
0.008280
 41
0.008280
  0
VERTEX
  8
PLAN_1
  6
CONTINUOUS
 10
-1.894720
 20
0.792346
  0
VERTEX
  8
PLAN_1
  6
CONTINUOUS
 10
-1.503945
 20
0.792346
  0
VERTEX
  8
PLAN_1
  6
CONTINUOUS
 10
-1.503945
 20
0.563827
  0
SEQEND
  8
0
  0
POLYLINE
  8
PLAN_1
  6
CONTINUOUS
 66
     1
 40
0.008280
 41
0.008280
  0
VERTEX
  8
PLAN_1
  6
CONTINUOUS
 10
-0.728732
 20
0.563827
  0
VERTEX
  8
PLAN_1
  6
CONTINUOUS
 10
-0.728732
 20
0.791370
  0
VERTEX
  8
PLAN_1
  6
CONTINUOUS
 10
-0.332110
 20
0.791370
  0
SEQEND
  8
0
  0
POLYLINE
  8
PLAN_1
  6
CONTINUOUS
 66
     1
 40
0.008280
 41
0.008280
  0
VERTEX
  8
PLAN_1
  6
CONTINUOUS
 10
-1.611142
 20
0.791858
  0
VERTEX
  8
PLAN_1
  6
CONTINUOUS
 10
-1.611142
 20
0.563827
  0
SEQEND
  8
0
  0
POLYLINE
  8
PLAN_1
  6
CONTINUOUS
 66
     1
 40
0.008280
 41
0.008280
  0
VERTEX
  8
PLAN_1
  6
CONTINUOUS
 10
-0.611303
 20
0.791858
  0
VERTEX
  8
PLAN_1
  6
CONTINUOUS
 10
-0.611303
 20
0.563827
  0
SEQEND
  8
0
  0
POLYLINE
  8
PLAN_1
  6
CONTINUOUS
 66
     1
 40
0.008280
 41
0.008280
  0
VERTEX
  8
PLAN_1
  6
CONTINUOUS
 10
-1.022055
 20
-0.166563
  0
VERTEX
  8
PLAN_1
  6
CONTINUOUS
 10
-1.022055
 20
-0.034520
  0
VERTEX
  8
PLAN_1
  6
CONTINUOUS
 10
-1.186260
 20
-0.034520
  0
VERTEX
  8
PLAN_1
  6
CONTINUOUS
 10
-1.186260
 20
-0.166563
  0
VERTEX
  8
PLAN_1
  6
CONTINUOUS
 10
-1.022055
 20
-0.166563
  0
SEQEND
  8
0
  0
POLYLINE
  8
PLAN_1
  6
CONTINUOUS
 66
     1
 40
0.008280
 41
0.008280
  0
VERTEX
  8
PLAN_1
  6
CONTINUOUS
 10
-0.473413
 20
0.536539
  0
VERTEX
  8
PLAN_1
  6
CONTINUOUS
 10
-0.473413
 20
0.563827
  0
VERTEX
  8
PLAN_1
  6
CONTINUOUS
 10
-1.753906
 20
0.563827
  0
VERTEX
  8
PLAN_1
  6
CONTINUOUS
 10
-1.753906
 20
0.536539
  0
VERTEX
  8
PLAN_1
  6
CONTINUOUS
 10
-0.473413
 20
0.536539
  0
SEQEND
  8
0
  0
POLYLINE
  8
PLAN_1
  6
CONTINUOUS
 66
     1
 40
0.008280
 41
0.008280
  0
VERTEX
  8
PLAN_1
  6
CONTINUOUS
 10
-0.720933
 20
-0.034520
  0
VERTEX
  8
PLAN_1
  6
CONTINUOUS
 10
-0.720933
 20
0.536539
  0
VERTEX
  8
PLAN_1
  6
CONTINUOUS
 10
-1.506870
 20
0.536539
  0
VERTEX
  8
PLAN_1
  6
CONTINUOUS
 10
-1.506870
 20
-0.034520
  0
VERTEX
  8
PLAN_1
  6
CONTINUOUS
 10
-0.720933
 20
-0.034520
  0
SEQEND
  8
0
  0
POLYLINE
  8
PLAN_1
  6
CONTINUOUS
 66
     1
 40
0.008280
 41
0.008280
  0
VERTEX
  8
PLAN_1
  6
CONTINUOUS
 10
-1.892772
 20
1.524681
  0
VERTEX
  8
PLAN_1
  6
CONTINUOUS
 10
-0.335520
 20
1.524681
  0
SEQEND
  8
0
  0
POLYLINE
  8
PLAN_1
  6
CONTINUOUS
 66
     1
 40
0.005358
 41
0.005358
  0
VERTEX
  8
PLAN_1
  6
CONTINUOUS
 10
-0.969921
 20
2.582988
  0
VERTEX
  8
PLAN_1
  6
CONTINUOUS
 10
-0.965047
 20
2.587374
  0
VERTEX
  8
PLAN_1
  6
CONTINUOUS
 10
-0.961638
 20
2.591760
  0
VERTEX
  8
PLAN_1
  6
CONTINUOUS
 10
-0.959201
 20
2.596146
  0
VERTEX
  8
PLAN_1
  6
CONTINUOUS
 10
-0.957740
 20
2.600531
  0
VERTEX
  8
PLAN_1
  6
CONTINUOUS
 10
-0.957252
 20
2.604429
  0
VERTEX
  8
PLAN_1
  6
CONTINUOUS
 10
-0.957252
 20
2.607839
  0
VERTEX
  8
PLAN_1
  6
CONTINUOUS
 10
-0.957740
 20
2.611736
  0
VERTEX
  8
PLAN_1
  6
CONTINUOUS
 10
-0.959201
 20
2.615146
  0
VERTEX
  8
PLAN_1
  6
CONTINUOUS
 10
-0.960661
 20
2.618071
  0
VERTEX
  8
PLAN_1
  6
CONTINUOUS
 10
-0.962122
 20
2.620508
  0
VERTEX
  8
PLAN_1
  6
CONTINUOUS
 10
-0.964071
 20
2.622945
  0
VERTEX
  8
PLAN_1
  6
CONTINUOUS
 10
-0.966024
 20
2.624894
  0
VERTEX
  8
PLAN_1
  6
CONTINUOUS
 10
-0.968457
 20
2.627815
  0
VERTEX
  8
PLAN_1
  6
CONTINUOUS
 10
-0.969921
 20
2.628791
  0
SEQEND
  8
0
  0
POLYLINE
  8
PLAN_1
  6
CONTINUOUS
 66
     1
 40
0.005358
 41
0.005358
  0
VERTEX
  8
PLAN_1
  6
CONTINUOUS
 10
-0.969921
 20
2.628791
  0
VERTEX
  8
PLAN_1
  6
CONTINUOUS
 10
-1.250575
 20
2.628791
  0
SEQEND
  8
0
  0
POLYLINE
  8
PLAN_1
  6
CONTINUOUS
 66
     1
 40
0.005358
 41
0.005358
  0
VERTEX
  8
PLAN_1
  6
CONTINUOUS
 10
-1.250575
 20
2.628791
  0
VERTEX
  8
PLAN_1
  6
CONTINUOUS
 10
-1.251551
 20
2.627815
  0
VERTEX
  8
PLAN_1
  6
CONTINUOUS
 10
-1.254472
 20
2.625378
  0
VERTEX
  8
PLAN_1
  6
CONTINUOUS
 10
-1.257398
 20
2.620996
  0
VERTEX
  8
PLAN_1
  6
CONTINUOUS
 10
-1.260319
 20
2.615634
  0
VERTEX
  8
PLAN_1
  6
CONTINUOUS
 10
-1.261295
 20
2.612224
  0
VERTEX
  8
PLAN_1
  6
CONTINUOUS
 10
-1.261783
 20
2.608815
  0
VERTEX
  8
PLAN_1
  6
CONTINUOUS
 10
-1.261783
 20
2.604913
  0
VERTEX
  8
PLAN_1
  6
CONTINUOUS
 10
-1.261295
 20
2.601016
  0
VERTEX
  8
PLAN_1
  6
CONTINUOUS
 10
-1.260319
 20
2.596630
  0
VERTEX
  8
PLAN_1
  6
CONTINUOUS
 10
-1.257886
 20
2.592248
  0
VERTEX
  8
PLAN_1
  6
CONTINUOUS
 10
-1.254961
 20
2.587862
  0
VERTEX
  8
PLAN_1
  6
CONTINUOUS
 10
-1.250575
 20
2.582988
  0
SEQEND
  8
0
  0
POLYLINE
  8
PLAN_1
  6
CONTINUOUS
 66
     1
 40
0.005358
 41
0.005358
  0
VERTEX
  8
PLAN_1
  6
CONTINUOUS
 10
-1.250575
 20
2.582988
  0
VERTEX
  8
PLAN_1
  6
CONTINUOUS
 10
-0.969921
 20
2.582988
  0
SEQEND
  8
0
  0
POLYLINE
  8
PLAN_1
  6
CONTINUOUS
 66
     1
 40
0.005358
 41
0.005358
  0
VERTEX
  8
PLAN_1
  6
CONTINUOUS
 10
-0.969433
 20
2.538161
  0
VERTEX
  8
PLAN_1
  6
CONTINUOUS
 10
-0.964559
 20
2.542547
  0
VERTEX
  8
PLAN_1
  6
CONTINUOUS
 10
-0.961150
 20
2.546933
  0
VERTEX
  8
PLAN_1
  6
CONTINUOUS
 10
-0.958713
 20
2.550831
  0
VERTEX
  8
PLAN_1
  6
CONTINUOUS
 10
-0.957252
 20
2.555217
  0
VERTEX
  8
PLAN_1
  6
CONTINUOUS
 10
-0.956764
 20
2.559114
  0
VERTEX
  8
PLAN_1
  6
CONTINUOUS
 10
-0.956764
 20
2.563012
  0
VERTEX
  8
PLAN_1
  6
CONTINUOUS
 10
-0.957252
 20
2.566421
  0
VERTEX
  8
PLAN_1
  6
CONTINUOUS
 10
-0.958713
 20
2.569835
  0
VERTEX
  8
PLAN_1
  6
CONTINUOUS
 10
-0.960173
 20
2.572756
  0
VERTEX
  8
PLAN_1
  6
CONTINUOUS
 10
-0.961638
 20
2.575193
  0
VERTEX
  8
PLAN_1
  6
CONTINUOUS
 10
-0.963587
 20
2.577630
  0
VERTEX
  8
PLAN_1
  6
CONTINUOUS
 10
-0.965535
 20
2.579579
  0
VERTEX
  8
PLAN_1
  6
CONTINUOUS
 10
-0.968457
 20
2.582500
  0
VERTEX
  8
PLAN_1
  6
CONTINUOUS
 10
-0.969433
 20
2.583476
  0
SEQEND
  8
0
  0
POLYLINE
  8
PLAN_1
  6
CONTINUOUS
 66
     1
 40
0.005358
 41
0.005358
  0
VERTEX
  8
PLAN_1
  6
CONTINUOUS
 10
-0.969433
 20
2.583476
  0
VERTEX
  8
PLAN_1
  6
CONTINUOUS
 10
-1.250087
 20
2.583476
  0
SEQEND
  8
0
  0
POLYLINE
  8
PLAN_1
  6
CONTINUOUS
 66
     1
 40
0.005358
 41
0.005358
  0
VERTEX
  8
PLAN_1
  6
CONTINUOUS
 10
-1.250087
 20
2.583476
  0
VERTEX
  8
PLAN_1
  6
CONTINUOUS
 10
-1.251063
 20
2.582500
  0
VERTEX
  8
PLAN_1
  6
CONTINUOUS
 10
-1.253988
 20
2.580067
  0
VERTEX
  8
PLAN_1
  6
CONTINUOUS
 10
-1.256909
 20
2.575681
  0
VERTEX
  8
PLAN_1
  6
CONTINUOUS
 10
-1.259835
 20
2.570319
  0
VERTEX
  8
PLAN_1
  6
CONTINUOUS
 10
-1.260807
 20
2.566909
  0
VERTEX
  8
PLAN_1
  6
CONTINUOUS
 10
-1.261295
 20
2.563500
  0
VERTEX
  8
PLAN_1
  6
CONTINUOUS
 10
-1.261295
 20
2.559602
  0
VERTEX
  8
PLAN_1
  6
CONTINUOUS
 10
-1.260807
 20
2.555705
  0
VERTEX
  8
PLAN_1
  6
CONTINUOUS
 10
-1.259835
 20
2.551803
  0
VERTEX
  8
PLAN_1
  6
CONTINUOUS
 10
-1.257398
 20
2.547421
  0
VERTEX
  8
PLAN_1
  6
CONTINUOUS
 10
-1.254472
 20
2.542547
  0
VERTEX
  8
PLAN_1
  6
CONTINUOUS
 10
-1.250087
 20
2.538161
  0
SEQEND
  8
0
  0
POLYLINE
  8
PLAN_1
  6
CONTINUOUS
 66
     1
 40
0.005358
 41
0.005358
  0
VERTEX
  8
PLAN_1
  6
CONTINUOUS
 10
-1.250087
 20
2.538161
  0
VERTEX
  8
PLAN_1
  6
CONTINUOUS
 10
-0.969433
 20
2.538161
  0
SEQEND
  8
0
  0
POLYLINE
  8
PLAN_1
  6
CONTINUOUS
 66
     1
 40
0.005358
 41
0.005358
  0
VERTEX
  8
PLAN_1
  6
CONTINUOUS
 10
-0.969433
 20
2.491874
  0
VERTEX
  8
PLAN_1
  6
CONTINUOUS
 10
-0.965047
 20
2.496260
  0
VERTEX
  8
PLAN_1
  6
CONTINUOUS
 10
-0.961150
 20
2.500642
  0
VERTEX
  8
PLAN_1
  6
CONTINUOUS
 10
-0.958713
 20
2.505028
  0
VERTEX
  8
PLAN_1
  6
CONTINUOUS
 10
-0.957252
 20
2.508925
  0
VERTEX
  8
PLAN_1
  6
CONTINUOUS
 10
-0.956764
 20
2.513311
  0
VERTEX
  8
PLAN_1
  6
CONTINUOUS
 10
-0.956764
 20
2.516724
  0
VERTEX
  8
PLAN_1
  6
CONTINUOUS
 10
-0.957740
 20
2.520622
  0
VERTEX
  8
PLAN_1
  6
CONTINUOUS
 10
-0.958713
 20
2.523543
  0
VERTEX
  8
PLAN_1
  6
CONTINUOUS
 10
-0.960173
 20
2.526957
  0
VERTEX
  8
PLAN_1
  6
CONTINUOUS
 10
-0.962122
 20
2.529390
  0
VERTEX
  8
PLAN_1
  6
CONTINUOUS
 10
-0.963587
 20
2.531827
  0
VERTEX
  8
PLAN_1
  6
CONTINUOUS
 10
-0.965535
 20
2.533776
  0
VERTEX
  8
PLAN_1
  6
CONTINUOUS
 10
-0.968457
 20
2.536701
  0
VERTEX
  8
PLAN_1
  6
CONTINUOUS
 10
-0.969433
 20
2.537673
  0
SEQEND
  8
0
  0
POLYLINE
  8
PLAN_1
  6
CONTINUOUS
 66
     1
 40
0.005358
 41
0.005358
  0
VERTEX
  8
PLAN_1
  6
CONTINUOUS
 10
-0.969433
 20
2.537673
  0
VERTEX
  8
PLAN_1
  6
CONTINUOUS
 10
-1.250575
 20
2.537673
  0
SEQEND
  8
0
  0
POLYLINE
  8
PLAN_1
  6
CONTINUOUS
 66
     1
 40
0.005358
 41
0.005358
  0
VERTEX
  8
PLAN_1
  6
CONTINUOUS
 10
-1.250575
 20
2.537673
  0
VERTEX
  8
PLAN_1
  6
CONTINUOUS
 10
-1.251551
 20
2.536701
  0
VERTEX
  8
PLAN_1
  6
CONTINUOUS
 10
-1.253988
 20
2.534264
  0
VERTEX
  8
PLAN_1
  6
CONTINUOUS
 10
-1.257398
 20
2.529878
  0
VERTEX
  8
PLAN_1
  6
CONTINUOUS
 10
-1.259835
 20
2.524520
  0
VERTEX
  8
PLAN_1
  6
CONTINUOUS
 10
-1.260807
 20
2.521106
  0
VERTEX
  8
PLAN_1
  6
CONTINUOUS
 10
-1.261783
 20
2.517697
  0
VERTEX
  8
PLAN_1
  6
CONTINUOUS
 10
-1.261783
 20
2.513799
  0
VERTEX
  8
PLAN_1
  6
CONTINUOUS
 10
-1.261295
 20
2.509902
  0
VERTEX
  8
PLAN_1
  6
CONTINUOUS
 10
-1.259835
 20
2.505516
  0
VERTEX
  8
PLAN_1
  6
CONTINUOUS
 10
-1.257886
 20
2.501130
  0
VERTEX
  8
PLAN_1
  6
CONTINUOUS
 10
-1.254472
 20
2.496744
  0
VERTEX
  8
PLAN_1
  6
CONTINUOUS
 10
-1.250575
 20
2.491874
  0
SEQEND
  8
0
  0
POLYLINE
  8
PLAN_1
  6
CONTINUOUS
 66
     1
 40
0.005358
 41
0.005358
  0
VERTEX
  8
PLAN_1
  6
CONTINUOUS
 10
-1.250575
 20
2.491874
  0
VERTEX
  8
PLAN_1
  6
CONTINUOUS
 10
-0.969433
 20
2.491874
  0
SEQEND
  8
0
  0
POLYLINE
  8
PLAN_1
  6
CONTINUOUS
 66
     1
 40
0.005358
 41
0.005358
  0
VERTEX
  8
PLAN_1
  6
CONTINUOUS
 10
-0.968945
 20
2.446559
  0
VERTEX
  8
PLAN_1
  6
CONTINUOUS
 10
-0.964559
 20
2.451433
  0
VERTEX
  8
PLAN_1
  6
CONTINUOUS
 10
-0.961150
 20
2.455331
  0
VERTEX
  8
PLAN_1
  6
CONTINUOUS
 10
-0.958713
 20
2.459713
  0
VERTEX
  8
PLAN_1
  6
CONTINUOUS
 10
-0.957252
 20
2.464098
  0
VERTEX
  8
PLAN_1
  6
CONTINUOUS
 10
-0.956276
 20
2.467996
  0
VERTEX
  8
PLAN_1
  6
CONTINUOUS
 10
-0.956764
 20
2.471409
  0
VERTEX
  8
PLAN_1
  6
CONTINUOUS
 10
-0.957252
 20
2.475307
  0
VERTEX
  8
PLAN_1
  6
CONTINUOUS
 10
-0.958224
 20
2.478717
  0
VERTEX
  8
PLAN_1
  6
CONTINUOUS
 10
-0.959689
 20
2.481642
  0
VERTEX
  8
PLAN_1
  6
CONTINUOUS
 10
-0.961638
 20
2.484079
  0
VERTEX
  8
PLAN_1
  6
CONTINUOUS
 10
-0.963587
 20
2.486512
  0
VERTEX
  8
PLAN_1
  6
CONTINUOUS
 10
-0.965047
 20
2.488461
  0
VERTEX
  8
PLAN_1
  6
CONTINUOUS
 10
-0.967972
 20
2.491386
  0
VERTEX
  8
PLAN_1
  6
CONTINUOUS
 10
-0.968945
 20
2.492362
  0
SEQEND
  8
0
  0
POLYLINE
  8
PLAN_1
  6
CONTINUOUS
 66
     1
 40
0.005358
 41
0.005358
  0
VERTEX
  8
PLAN_1
  6
CONTINUOUS
 10
-0.968945
 20
2.492362
  0
VERTEX
  8
PLAN_1
  6
CONTINUOUS
 10
-1.250087
 20
2.492362
  0
SEQEND
  8
0
  0
POLYLINE
  8
PLAN_1
  6
CONTINUOUS
 66
     1
 40
0.005358
 41
0.005358
  0
VERTEX
  8
PLAN_1
  6
CONTINUOUS
 10
-1.250087
 20
2.492362
  0
VERTEX
  8
PLAN_1
  6
CONTINUOUS
 10
-1.251063
 20
2.491386
  0
VERTEX
  8
PLAN_1
  6
CONTINUOUS
 10
-1.253500
 20
2.488949
  0
VERTEX
  8
PLAN_1
  6
CONTINUOUS
 10
-1.256909
 20
2.484563
  0
VERTEX
  8
PLAN_1
  6
CONTINUOUS
 10
-1.259346
 20
2.479205
  0
VERTEX
  8
PLAN_1
  6
CONTINUOUS
 10
-1.260807
 20
2.475795
  0
VERTEX
  8
PLAN_1
  6
CONTINUOUS
 10
-1.261295
 20
2.472382
  0
VERTEX
  8
PLAN_1
  6
CONTINUOUS
 10
-1.261295
 20
2.468484
  0
VERTEX
  8
PLAN_1
  6
CONTINUOUS
 10
-1.260807
 20
2.464587
  0
VERTEX
  8
PLAN_1
  6
CONTINUOUS
 10
-1.259346
 20
2.460201
  0
VERTEX
  8
PLAN_1
  6
CONTINUOUS
 10
-1.257398
 20
2.455815
  0
VERTEX
  8
PLAN_1
  6
CONTINUOUS
 10
-1.254472
 20
2.451433
  0
VERTEX
  8
PLAN_1
  6
CONTINUOUS
 10
-1.250087
 20
2.446559
  0
SEQEND
  8
0
  0
POLYLINE
  8
PLAN_1
  6
CONTINUOUS
 66
     1
 40
0.005358
 41
0.005358
  0
VERTEX
  8
PLAN_1
  6
CONTINUOUS
 10
-1.250087
 20
2.446559
  0
VERTEX
  8
PLAN_1
  6
CONTINUOUS
 10
-0.968945
 20
2.446559
  0
SEQEND
  8
0
  0
POLYLINE
  8
PLAN_1
  6
CONTINUOUS
 66
     1
 40
0.005358
 41
0.005358
  0
VERTEX
  8
PLAN_1
  6
CONTINUOUS
 10
-0.969433
 20
2.401732
  0
VERTEX
  8
PLAN_1
  6
CONTINUOUS
 10
-0.965047
 20
2.406118
  0
VERTEX
  8
PLAN_1
  6
CONTINUOUS
 10
-0.961150
 20
2.410504
  0
VERTEX
  8
PLAN_1
  6
CONTINUOUS
 10
-0.958713
 20
2.414402
  0
VERTEX
  8
PLAN_1
  6
CONTINUOUS
 10
-0.957252
 20
2.418787
  0
VERTEX
  8
PLAN_1
  6
CONTINUOUS
 10
-0.956764
 20
2.422685
  0
VERTEX
  8
PLAN_1
  6
CONTINUOUS
 10
-0.956764
 20
2.426583
  0
VERTEX
  8
PLAN_1
  6
CONTINUOUS
 10
-0.957740
 20
2.429992
  0
VERTEX
  8
PLAN_1
  6
CONTINUOUS
 10
-0.958713
 20
2.433402
  0
VERTEX
  8
PLAN_1
  6
CONTINUOUS
 10
-0.960173
 20
2.436327
  0
VERTEX
  8
PLAN_1
  6
CONTINUOUS
 10
-0.962122
 20
2.438764
  0
VERTEX
  8
PLAN_1
  6
CONTINUOUS
 10
-0.963587
 20
2.441201
  0
VERTEX
  8
PLAN_1
  6
CONTINUOUS
 10
-0.965535
 20
2.443634
  0
VERTEX
  8
PLAN_1
  6
CONTINUOUS
 10
-0.968457
 20
2.446071
  0
VERTEX
  8
PLAN_1
  6
CONTINUOUS
 10
-0.969433
 20
2.447047
  0
SEQEND
  8
0
  0
POLYLINE
  8
PLAN_1
  6
CONTINUOUS
 66
     1
 40
0.005358
 41
0.005358
  0
VERTEX
  8
PLAN_1
  6
CONTINUOUS
 10
-0.969433
 20
2.447047
  0
VERTEX
  8
PLAN_1
  6
CONTINUOUS
 10
-1.250575
 20
2.447047
  0
SEQEND
  8
0
  0
POLYLINE
  8
PLAN_1
  6
CONTINUOUS
 66
     1
 40
0.005358
 41
0.005358
  0
VERTEX
  8
PLAN_1
  6
CONTINUOUS
 10
-1.250575
 20
2.447047
  0
VERTEX
  8
PLAN_1
  6
CONTINUOUS
 10
-1.251551
 20
2.446071
  0
VERTEX
  8
PLAN_1
  6
CONTINUOUS
 10
-1.253988
 20
2.443634
  0
VERTEX
  8
PLAN_1
  6
CONTINUOUS
 10
-1.257398
 20
2.439252
  0
VERTEX
  8
PLAN_1
  6
CONTINUOUS
 10
-1.259835
 20
2.433890
  0
VERTEX
  8
PLAN_1
  6
CONTINUOUS
 10
-1.260807
 20
2.430480
  0
VERTEX
  8
PLAN_1
  6
CONTINUOUS
 10
-1.261783
 20
2.427067
  0
VERTEX
  8
PLAN_1
  6
CONTINUOUS
 10
-1.261783
 20
2.423169
  0
VERTEX
  8
PLAN_1
  6
CONTINUOUS
 10
-1.261295
 20
2.419272
  0
VERTEX
  8
PLAN_1
  6
CONTINUOUS
 10
-1.259835
 20
2.415374
  0
VERTEX
  8
PLAN_1
  6
CONTINUOUS
 10
-1.257886
 20
2.410988
  0
VERTEX
  8
PLAN_1
  6
CONTINUOUS
 10
-1.254472
 20
2.406118
  0
VERTEX
  8
PLAN_1
  6
CONTINUOUS
 10
-1.250575
 20
2.401732
  0
SEQEND
  8
0
  0
POLYLINE
  8
PLAN_1
  6
CONTINUOUS
 66
     1
 40
0.005358
 41
0.005358
  0
VERTEX
  8
PLAN_1
  6
CONTINUOUS
 10
-1.250575
 20
2.401732
  0
VERTEX
  8
PLAN_1
  6
CONTINUOUS
 10
-0.969433
 20
2.401732
  0
SEQEND
  8
0
  0
POLYLINE
  8
PLAN_1
  6
CONTINUOUS
 66
     1
 40
0.005358
 41
0.005358
  0
VERTEX
  8
PLAN_1
  6
CONTINUOUS
 10
-0.968945
 20
2.356417
  0
VERTEX
  8
PLAN_1
  6
CONTINUOUS
 10
-0.964559
 20
2.360803
  0
VERTEX
  8
PLAN_1
  6
CONTINUOUS
 10
-0.961150
 20
2.365189
  0
VERTEX
  8
PLAN_1
  6
CONTINUOUS
 10
-0.958713
 20
2.369087
  0
VERTEX
  8
PLAN_1
  6
CONTINUOUS
 10
-0.957252
 20
2.373472
  0
VERTEX
  8
PLAN_1
  6
CONTINUOUS
 10
-0.956276
 20
2.377370
  0
VERTEX
  8
PLAN_1
  6
CONTINUOUS
 10
-0.956764
 20
2.381268
  0
VERTEX
  8
PLAN_1
  6
CONTINUOUS
 10
-0.957252
 20
2.384677
  0
VERTEX
  8
PLAN_1
  6
CONTINUOUS
 10
-0.958224
 20
2.388091
  0
VERTEX
  8
PLAN_1
  6
CONTINUOUS
 10
-0.959689
 20
2.391012
  0
VERTEX
  8
PLAN_1
  6
CONTINUOUS
 10
-0.961638
 20
2.393937
  0
VERTEX
  8
PLAN_1
  6
CONTINUOUS
 10
-0.963587
 20
2.395886
  0
VERTEX
  8
PLAN_1
  6
CONTINUOUS
 10
-0.965047
 20
2.398323
  0
VERTEX
  8
PLAN_1
  6
CONTINUOUS
 10
-0.967972
 20
2.400756
  0
VERTEX
  8
PLAN_1
  6
CONTINUOUS
 10
-0.968945
 20
2.401732
  0
SEQEND
  8
0
  0
POLYLINE
  8
PLAN_1
  6
CONTINUOUS
 66
     1
 40
0.005358
 41
0.005358
  0
VERTEX
  8
PLAN_1
  6
CONTINUOUS
 10
-0.968945
 20
2.401732
  0
VERTEX
  8
PLAN_1
  6
CONTINUOUS
 10
-1.250087
 20
2.401732
  0
SEQEND
  8
0
  0
POLYLINE
  8
PLAN_1
  6
CONTINUOUS
 66
     1
 40
0.005358
 41
0.005358
  0
VERTEX
  8
PLAN_1
  6
CONTINUOUS
 10
-1.250087
 20
2.401732
  0
VERTEX
  8
PLAN_1
  6
CONTINUOUS
 10
-1.251063
 20
2.401244
  0
VERTEX
  8
PLAN_1
  6
CONTINUOUS
 10
-1.253500
 20
2.398323
  0
VERTEX
  8
PLAN_1
  6
CONTINUOUS
 10
-1.256909
 20
2.394421
  0
VERTEX
  8
PLAN_1
  6
CONTINUOUS
 10
-1.259346
 20
2.388575
  0
VERTEX
  8
PLAN_1
  6
CONTINUOUS
 10
-1.260807
 20
2.385165
  0
VERTEX
  8
PLAN_1
  6
CONTINUOUS
 10
-1.261295
 20
2.381756
  0
VERTEX
  8
PLAN_1
  6
CONTINUOUS
 10
-1.261295
 20
2.378343
  0
VERTEX
  8
PLAN_1
  6
CONTINUOUS
 10
-1.260807
 20
2.373957
  0
VERTEX
  8
PLAN_1
  6
CONTINUOUS
 10
-1.259346
 20
2.370059
  0
VERTEX
  8
PLAN_1
  6
CONTINUOUS
 10
-1.257398
 20
2.365677
  0
VERTEX
  8
PLAN_1
  6
CONTINUOUS
 10
-1.254472
 20
2.360803
  0
VERTEX
  8
PLAN_1
  6
CONTINUOUS
 10
-1.250087
 20
2.356417
  0
SEQEND
  8
0
  0
POLYLINE
  8
PLAN_1
  6
CONTINUOUS
 66
     1
 40
0.005358
 41
0.005358
  0
VERTEX
  8
PLAN_1
  6
CONTINUOUS
 10
-1.250087
 20
2.356417
  0
VERTEX
  8
PLAN_1
  6
CONTINUOUS
 10
-0.968945
 20
2.356417
  0
SEQEND
  8
0
  0
POLYLINE
  8
PLAN_1
  6
CONTINUOUS
 66
     1
 40
0.005358
 41
0.005358
  0
VERTEX
  8
PLAN_1
  6
CONTINUOUS
 10
-0.969433
 20
2.311102
  0
VERTEX
  8
PLAN_1
  6
CONTINUOUS
 10
-0.965047
 20
2.315488
  0
VERTEX
  8
PLAN_1
  6
CONTINUOUS
 10
-0.961150
 20
2.319874
  0
VERTEX
  8
PLAN_1
  6
CONTINUOUS
 10
-0.958713
 20
2.323772
  0
VERTEX
  8
PLAN_1
  6
CONTINUOUS
 10
-0.957252
 20
2.328157
  0
VERTEX
  8
PLAN_1
  6
CONTINUOUS
 10
-0.956764
 20
2.332055
  0
VERTEX
  8
PLAN_1
  6
CONTINUOUS
 10
-0.956764
 20
2.335953
  0
VERTEX
  8
PLAN_1
  6
CONTINUOUS
 10
-0.957740
 20
2.339362
  0
VERTEX
  8
PLAN_1
  6
CONTINUOUS
 10
-0.958713
 20
2.342776
  0
VERTEX
  8
PLAN_1
  6
CONTINUOUS
 10
-0.960173
 20
2.345697
  0
VERTEX
  8
PLAN_1
  6
CONTINUOUS
 10
-0.962122
 20
2.348622
  0
VERTEX
  8
PLAN_1
  6
CONTINUOUS
 10
-0.963587
 20
2.351059
  0
VERTEX
  8
PLAN_1
  6
CONTINUOUS
 10
-0.965535
 20
2.353008
  0
VERTEX
  8
PLAN_1
  6
CONTINUOUS
 10
-0.968457
 20
2.355929
  0
VERTEX
  8
PLAN_1
  6
CONTINUOUS
 10
-0.969433
 20
2.356906
  0
SEQEND
  8
0
  0
POLYLINE
  8
PLAN_1
  6
CONTINUOUS
 66
     1
 40
0.005358
 41
0.005358
  0
VERTEX
  8
PLAN_1
  6
CONTINUOUS
 10
-0.969433
 20
2.356906
  0
VERTEX
  8
PLAN_1
  6
CONTINUOUS
 10
-1.250575
 20
2.356906
  0
SEQEND
  8
0
  0
POLYLINE
  8
PLAN_1
  6
CONTINUOUS
 66
     1
 40
0.005358
 41
0.005358
  0
VERTEX
  8
PLAN_1
  6
CONTINUOUS
 10
-1.250575
 20
2.356906
  0
VERTEX
  8
PLAN_1
  6
CONTINUOUS
 10
-1.251551
 20
2.355929
  0
VERTEX
  8
PLAN_1
  6
CONTINUOUS
 10
-1.253988
 20
2.353008
  0
VERTEX
  8
PLAN_1
  6
CONTINUOUS
 10
-1.257398
 20
2.349110
  0
VERTEX
  8
PLAN_1
  6
CONTINUOUS
 10
-1.259835
 20
2.343260
  0
VERTEX
  8
PLAN_1
  6
CONTINUOUS
 10
-1.260807
 20
2.340339
  0
VERTEX
  8
PLAN_1
  6
CONTINUOUS
 10
-1.261783
 20
2.336441
  0
VERTEX
  8
PLAN_1
  6
CONTINUOUS
 10
-1.261783
 20
2.333031
  0
VERTEX
  8
PLAN_1
  6
CONTINUOUS
 10
-1.261295
 20
2.328646
  0
VERTEX
  8
PLAN_1
  6
CONTINUOUS
 10
-1.259835
 20
2.324748
  0
VERTEX
  8
PLAN_1
  6
CONTINUOUS
 10
-1.257886
 20
2.320362
  0
VERTEX
  8
PLAN_1
  6
CONTINUOUS
 10
-1.254472
 20
2.315488
  0
VERTEX
  8
PLAN_1
  6
CONTINUOUS
 10
-1.250575
 20
2.311102
  0
SEQEND
  8
0
  0
POLYLINE
  8
PLAN_1
  6
CONTINUOUS
 66
     1
 40
0.005358
 41
0.005358
  0
VERTEX
  8
PLAN_1
  6
CONTINUOUS
 10
-1.250575
 20
2.311102
  0
VERTEX
  8
PLAN_1
  6
CONTINUOUS
 10
-0.969433
 20
2.311102
  0
SEQEND
  8
0
  0
POLYLINE
  8
PLAN_1
  6
CONTINUOUS
 66
     1
 40
0.005358
 41
0.005358
  0
VERTEX
  8
PLAN_1
  6
CONTINUOUS
 10
-0.968945
 20
2.265787
  0
VERTEX
  8
PLAN_1
  6
CONTINUOUS
 10
-0.964559
 20
2.270173
  0
VERTEX
  8
PLAN_1
  6
CONTINUOUS
 10
-0.961150
 20
2.274559
  0
VERTEX
  8
PLAN_1
  6
CONTINUOUS
 10
-0.958713
 20
2.278945
  0
VERTEX
  8
PLAN_1
  6
CONTINUOUS
 10
-0.957252
 20
2.282843
  0
VERTEX
  8
PLAN_1
  6
CONTINUOUS
 10
-0.956276
 20
2.286740
  0
VERTEX
  8
PLAN_1
  6
CONTINUOUS
 10
-0.956764
 20
2.290638
  0
VERTEX
  8
PLAN_1
  6
CONTINUOUS
 10
-0.957252
 20
2.294051
  0
VERTEX
  8
PLAN_1
  6
CONTINUOUS
 10
-0.958224
 20
2.297461
  0
VERTEX
  8
PLAN_1
  6
CONTINUOUS
 10
-0.959689
 20
2.300382
  0
VERTEX
  8
PLAN_1
  6
CONTINUOUS
 10
-0.961638
 20
2.303307
  0
VERTEX
  8
PLAN_1
  6
CONTINUOUS
 10
-0.963587
 20
2.305744
  0
VERTEX
  8
PLAN_1
  6
CONTINUOUS
 10
-0.965047
 20
2.307693
  0
VERTEX
  8
PLAN_1
  6
CONTINUOUS
 10
-0.967972
 20
2.310614
  0
VERTEX
  8
PLAN_1
  6
CONTINUOUS
 10
-0.968945
 20
2.311591
  0
SEQEND
  8
0
  0
POLYLINE
  8
PLAN_1
  6
CONTINUOUS
 66
     1
 40
0.005358
 41
0.005358
  0
VERTEX
  8
PLAN_1
  6
CONTINUOUS
 10
-0.968945
 20
2.311591
  0
VERTEX
  8
PLAN_1
  6
CONTINUOUS
 10
-1.250087
 20
2.311591
  0
SEQEND
  8
0
  0
POLYLINE
  8
PLAN_1
  6
CONTINUOUS
 66
     1
 40
0.005358
 41
0.005358
  0
VERTEX
  8
PLAN_1
  6
CONTINUOUS
 10
-1.250087
 20
2.311591
  0
VERTEX
  8
PLAN_1
  6
CONTINUOUS
 10
-1.251063
 20
2.310614
  0
VERTEX
  8
PLAN_1
  6
CONTINUOUS
 10
-1.253500
 20
2.307693
  0
VERTEX
  8
PLAN_1
  6
CONTINUOUS
 10
-1.256909
 20
2.303795
  0
VERTEX
  8
PLAN_1
  6
CONTINUOUS
 10
-1.259346
 20
2.297949
  0
VERTEX
  8
PLAN_1
  6
CONTINUOUS
 10
-1.260807
 20
2.295024
  0
VERTEX
  8
PLAN_1
  6
CONTINUOUS
 10
-1.261295
 20
2.291126
  0
VERTEX
  8
PLAN_1
  6
CONTINUOUS
 10
-1.261295
 20
2.287717
  0
VERTEX
  8
PLAN_1
  6
CONTINUOUS
 10
-1.260807
 20
2.283819
  0
VERTEX
  8
PLAN_1
  6
CONTINUOUS
 10
-1.259346
 20
2.279433
  0
VERTEX
  8
PLAN_1
  6
CONTINUOUS
 10
-1.257398
 20
2.275047
  0
VERTEX
  8
PLAN_1
  6
CONTINUOUS
 10
-1.254472
 20
2.270661
  0
VERTEX
  8
PLAN_1
  6
CONTINUOUS
 10
-1.250087
 20
2.265787
  0
SEQEND
  8
0
  0
POLYLINE
  8
PLAN_1
  6
CONTINUOUS
 66
     1
 40
0.005358
 41
0.005358
  0
VERTEX
  8
PLAN_1
  6
CONTINUOUS
 10
-1.250087
 20
2.265787
  0
VERTEX
  8
PLAN_1
  6
CONTINUOUS
 10
-0.968945
 20
2.265787
  0
SEQEND
  8
0
  0
POLYLINE
  8
PLAN_1
  6
CONTINUOUS
 66
     1
 40
0.005358
 41
0.005358
  0
VERTEX
  8
PLAN_1
  6
CONTINUOUS
 10
-0.969433
 20
2.220476
  0
VERTEX
  8
PLAN_1
  6
CONTINUOUS
 10
-0.965047
 20
2.224858
  0
VERTEX
  8
PLAN_1
  6
CONTINUOUS
 10
-0.961150
 20
2.229244
  0
VERTEX
  8
PLAN_1
  6
CONTINUOUS
 10
-0.958713
 20
2.233630
  0
VERTEX
  8
PLAN_1
  6
CONTINUOUS
 10
-0.957252
 20
2.237528
  0
VERTEX
  8
PLAN_1
  6
CONTINUOUS
 10
-0.956764
 20
2.241425
  0
VERTEX
  8
PLAN_1
  6
CONTINUOUS
 10
-0.956764
 20
2.245323
  0
VERTEX
  8
PLAN_1
  6
CONTINUOUS
 10
-0.957740
 20
2.248736
  0
VERTEX
  8
PLAN_1
  6
CONTINUOUS
 10
-0.958713
 20
2.252146
  0
VERTEX
  8
PLAN_1
  6
CONTINUOUS
 10
-0.960173
 20
2.255071
  0
VERTEX
  8
PLAN_1
  6
CONTINUOUS
 10
-0.962122
 20
2.257992
  0
VERTEX
  8
PLAN_1
  6
CONTINUOUS
 10
-0.963587
 20
2.260429
  0
VERTEX
  8
PLAN_1
  6
CONTINUOUS
 10
-0.965535
 20
2.262378
  0
VERTEX
  8
PLAN_1
  6
CONTINUOUS
 10
-0.968457
 20
2.265303
  0
VERTEX
  8
PLAN_1
  6
CONTINUOUS
 10
-0.969433
 20
2.266276
  0
SEQEND
  8
0
  0
POLYLINE
  8
PLAN_1
  6
CONTINUOUS
 66
     1
 40
0.005358
 41
0.005358
  0
VERTEX
  8
PLAN_1
  6
CONTINUOUS
 10
-0.969433
 20
2.266276
  0
VERTEX
  8
PLAN_1
  6
CONTINUOUS
 10
-1.250575
 20
2.266276
  0
SEQEND
  8
0
  0
POLYLINE
  8
PLAN_1
  6
CONTINUOUS
 66
     1
 40
0.005358
 41
0.005358
  0
VERTEX
  8
PLAN_1
  6
CONTINUOUS
 10
-1.250575
 20
2.266276
  0
VERTEX
  8
PLAN_1
  6
CONTINUOUS
 10
-1.251551
 20
2.265303
  0
VERTEX
  8
PLAN_1
  6
CONTINUOUS
 10
-1.253988
 20
2.262378
  0
VERTEX
  8
PLAN_1
  6
CONTINUOUS
 10
-1.257398
 20
2.258480
  0
VERTEX
  8
PLAN_1
  6
CONTINUOUS
 10
-1.259835
 20
2.252634
  0
VERTEX
  8
PLAN_1
  6
CONTINUOUS
 10
-1.260807
 20
2.249709
  0
VERTEX
  8
PLAN_1
  6
CONTINUOUS
 10
-1.261783
 20
2.246299
  0
VERTEX
  8
PLAN_1
  6
CONTINUOUS
 10
-1.261783
 20
2.242402
  0
VERTEX
  8
PLAN_1
  6
CONTINUOUS
 10
-1.261295
 20
2.238504
  0
VERTEX
  8
PLAN_1
  6
CONTINUOUS
 10
-1.259835
 20
2.234118
  0
VERTEX
  8
PLAN_1
  6
CONTINUOUS
 10
-1.257886
 20
2.229732
  0
VERTEX
  8
PLAN_1
  6
CONTINUOUS
 10
-1.254472
 20
2.225346
  0
VERTEX
  8
PLAN_1
  6
CONTINUOUS
 10
-1.250575
 20
2.220476
  0
SEQEND
  8
0
  0
POLYLINE
  8
PLAN_1
  6
CONTINUOUS
 66
     1
 40
0.005358
 41
0.005358
  0
VERTEX
  8
PLAN_1
  6
CONTINUOUS
 10
-1.250575
 20
2.220476
  0
VERTEX
  8
PLAN_1
  6
CONTINUOUS
 10
-0.969433
 20
2.220476
  0
SEQEND
  8
0
  0
POLYLINE
  8
PLAN_1
  6
CONTINUOUS
 66
     1
 40
0.005358
 41
0.005358
  0
VERTEX
  8
PLAN_1
  6
CONTINUOUS
 10
-0.968945
 20
2.175161
  0
VERTEX
  8
PLAN_1
  6
CONTINUOUS
 10
-0.964559
 20
2.179547
  0
VERTEX
  8
PLAN_1
  6
CONTINUOUS
 10
-0.961150
 20
2.183929
  0
VERTEX
  8
PLAN_1
  6
CONTINUOUS
 10
-0.958713
 20
2.188315
  0
VERTEX
  8
PLAN_1
  6
CONTINUOUS
 10
-0.957252
 20
2.192213
  0
VERTEX
  8
PLAN_1
  6
CONTINUOUS
 10
-0.956276
 20
2.196114
  0
VERTEX
  8
PLAN_1
  6
CONTINUOUS
 10
-0.956764
 20
2.200012
  0
VERTEX
  8
PLAN_1
  6
CONTINUOUS
 10
-0.957252
 20
2.203421
  0
VERTEX
  8
PLAN_1
  6
CONTINUOUS
 10
-0.958224
 20
2.206831
  0
VERTEX
  8
PLAN_1
  6
CONTINUOUS
 10
-0.959689
 20
2.209756
  0
VERTEX
  8
PLAN_1
  6
CONTINUOUS
 10
-0.961638
 20
2.212677
  0
VERTEX
  8
PLAN_1
  6
CONTINUOUS
 10
-0.963587
 20
2.215114
  0
VERTEX
  8
PLAN_1
  6
CONTINUOUS
 10
-0.965047
 20
2.217063
  0
VERTEX
  8
PLAN_1
  6
CONTINUOUS
 10
-0.967972
 20
2.219988
  0
VERTEX
  8
PLAN_1
  6
CONTINUOUS
 10
-0.968945
 20
2.220961
  0
SEQEND
  8
0
  0
POLYLINE
  8
PLAN_1
  6
CONTINUOUS
 66
     1
 40
0.005358
 41
0.005358
  0
VERTEX
  8
PLAN_1
  6
CONTINUOUS
 10
-0.968945
 20
2.220961
  0
VERTEX
  8
PLAN_1
  6
CONTINUOUS
 10
-1.250087
 20
2.220961
  0
SEQEND
  8
0
  0
POLYLINE
  8
PLAN_1
  6
CONTINUOUS
 66
     1
 40
0.005358
 41
0.005358
  0
VERTEX
  8
PLAN_1
  6
CONTINUOUS
 10
-1.250087
 20
2.220961
  0
VERTEX
  8
PLAN_1
  6
CONTINUOUS
 10
-1.251063
 20
2.219988
  0
VERTEX
  8
PLAN_1
  6
CONTINUOUS
 10
-1.253500
 20
2.217551
  0
VERTEX
  8
PLAN_1
  6
CONTINUOUS
 10
-1.256909
 20
2.213165
  0
VERTEX
  8
PLAN_1
  6
CONTINUOUS
 10
-1.259346
 20
2.207807
  0
VERTEX
  8
PLAN_1
  6
CONTINUOUS
 10
-1.260807
 20
2.204394
  0
VERTEX
  8
PLAN_1
  6
CONTINUOUS
 10
-1.261295
 20
2.200984
  0
VERTEX
  8
PLAN_1
  6
CONTINUOUS
 10
-1.261295
 20
2.197087
  0
VERTEX
  8
PLAN_1
  6
CONTINUOUS
 10
-1.260807
 20
2.193189
  0
VERTEX
  8
PLAN_1
  6
CONTINUOUS
 10
-1.259346
 20
2.188803
  0
VERTEX
  8
PLAN_1
  6
CONTINUOUS
 10
-1.257398
 20
2.184417
  0
VERTEX
  8
PLAN_1
  6
CONTINUOUS
 10
-1.254472
 20
2.180031
  0
VERTEX
  8
PLAN_1
  6
CONTINUOUS
 10
-1.250087
 20
2.175161
  0
SEQEND
  8
0
  0
POLYLINE
  8
PLAN_1
  6
CONTINUOUS
 66
     1
 40
0.005358
 41
0.005358
  0
VERTEX
  8
PLAN_1
  6
CONTINUOUS
 10
-1.250087
 20
2.175161
  0
VERTEX
  8
PLAN_1
  6
CONTINUOUS
 10
-0.968945
 20
2.175161
  0
SEQEND
  8
0
  0
POLYLINE
  8
PLAN_1
  6
CONTINUOUS
 66
     1
 40
0.005358
 41
0.005358
  0
VERTEX
  8
PLAN_1
  6
CONTINUOUS
 10
-0.969433
 20
2.129846
  0
VERTEX
  8
PLAN_1
  6
CONTINUOUS
 10
-0.965047
 20
2.134232
  0
VERTEX
  8
PLAN_1
  6
CONTINUOUS
 10
-0.961150
 20
2.138618
  0
VERTEX
  8
PLAN_1
  6
CONTINUOUS
 10
-0.958713
 20
2.143004
  0
VERTEX
  8
PLAN_1
  6
CONTINUOUS
 10
-0.957252
 20
2.146902
  0
VERTEX
  8
PLAN_1
  6
CONTINUOUS
 10
-0.956764
 20
2.151283
  0
VERTEX
  8
PLAN_1
  6
CONTINUOUS
 10
-0.956764
 20
2.154697
  0
VERTEX
  8
PLAN_1
  6
CONTINUOUS
 10
-0.957740
 20
2.158594
  0
VERTEX
  8
PLAN_1
  6
CONTINUOUS
 10
-0.958713
 20
2.161516
  0
VERTEX
  8
PLAN_1
  6
CONTINUOUS
 10
-0.960173
 20
2.164929
  0
VERTEX
  8
PLAN_1
  6
CONTINUOUS
 10
-0.962122
 20
2.167366
  0
VERTEX
  8
PLAN_1
  6
CONTINUOUS
 10
-0.963587
 20
2.169799
  0
VERTEX
  8
PLAN_1
  6
CONTINUOUS
 10
-0.965535
 20
2.171748
  0
VERTEX
  8
PLAN_1
  6
CONTINUOUS
 10
-0.968457
 20
2.174673
  0
VERTEX
  8
PLAN_1
  6
CONTINUOUS
 10
-0.969433
 20
2.175650
  0
SEQEND
  8
0
  0
POLYLINE
  8
PLAN_1
  6
CONTINUOUS
 66
     1
 40
0.005358
 41
0.005358
  0
VERTEX
  8
PLAN_1
  6
CONTINUOUS
 10
-0.969433
 20
2.175650
  0
VERTEX
  8
PLAN_1
  6
CONTINUOUS
 10
-1.250575
 20
2.175650
  0
SEQEND
  8
0
  0
POLYLINE
  8
PLAN_1
  6
CONTINUOUS
 66
     1
 40
0.005358
 41
0.005358
  0
VERTEX
  8
PLAN_1
  6
CONTINUOUS
 10
-1.250575
 20
2.175650
  0
VERTEX
  8
PLAN_1
  6
CONTINUOUS
 10
-1.251551
 20
2.174673
  0
VERTEX
  8
PLAN_1
  6
CONTINUOUS
 10
-1.253988
 20
2.172236
  0
VERTEX
  8
PLAN_1
  6
CONTINUOUS
 10
-1.257398
 20
2.167850
  0
VERTEX
  8
PLAN_1
  6
CONTINUOUS
 10
-1.259835
 20
2.162492
  0
VERTEX
  8
PLAN_1
  6
CONTINUOUS
 10
-1.260807
 20
2.159083
  0
VERTEX
  8
PLAN_1
  6
CONTINUOUS
 10
-1.261783
 20
2.155669
  0
VERTEX
  8
PLAN_1
  6
CONTINUOUS
 10
-1.261783
 20
2.151772
  0
VERTEX
  8
PLAN_1
  6
CONTINUOUS
 10
-1.261295
 20
2.147874
  0
VERTEX
  8
PLAN_1
  6
CONTINUOUS
 10
-1.259835
 20
2.143488
  0
VERTEX
  8
PLAN_1
  6
CONTINUOUS
 10
-1.257886
 20
2.139102
  0
VERTEX
  8
PLAN_1
  6
CONTINUOUS
 10
-1.254472
 20
2.134720
  0
VERTEX
  8
PLAN_1
  6
CONTINUOUS
 10
-1.250575
 20
2.129846
  0
SEQEND
  8
0
  0
POLYLINE
  8
PLAN_1
  6
CONTINUOUS
 66
     1
 40
0.005358
 41
0.005358
  0
VERTEX
  8
PLAN_1
  6
CONTINUOUS
 10
-1.250575
 20
2.129846
  0
VERTEX
  8
PLAN_1
  6
CONTINUOUS
 10
-0.969433
 20
2.129846
  0
SEQEND
  8
0
  0
POLYLINE
  8
PLAN_1
  6
CONTINUOUS
 66
     1
 40
0.005358
 41
0.005358
  0
VERTEX
  8
PLAN_1
  6
CONTINUOUS
 10
-0.968945
 20
2.084531
  0
VERTEX
  8
PLAN_1
  6
CONTINUOUS
 10
-0.964559
 20
2.088917
  0
VERTEX
  8
PLAN_1
  6
CONTINUOUS
 10
-0.961150
 20
2.093303
  0
VERTEX
  8
PLAN_1
  6
CONTINUOUS
 10
-0.958713
 20
2.097689
  0
VERTEX
  8
PLAN_1
  6
CONTINUOUS
 10
-0.957252
 20
2.102075
  0
VERTEX
  8
PLAN_1
  6
CONTINUOUS
 10
-0.956276
 20
2.105972
  0
VERTEX
  8
PLAN_1
  6
CONTINUOUS
 10
-0.956764
 20
2.109382
  0
VERTEX
  8
PLAN_1
  6
CONTINUOUS
 10
-0.957252
 20
2.113280
  0
VERTEX
  8
PLAN_1
  6
CONTINUOUS
 10
-0.958224
 20
2.116205
  0
VERTEX
  8
PLAN_1
  6
CONTINUOUS
 10
-0.959689
 20
2.119614
  0
VERTEX
  8
PLAN_1
  6
CONTINUOUS
 10
-0.961638
 20
2.122051
  0
VERTEX
  8
PLAN_1
  6
CONTINUOUS
 10
-0.963587
 20
2.124488
  0
VERTEX
  8
PLAN_1
  6
CONTINUOUS
 10
-0.965047
 20
2.126437
  0
VERTEX
  8
PLAN_1
  6
CONTINUOUS
 10
-0.967972
 20
2.129358
  0
VERTEX
  8
PLAN_1
  6
CONTINUOUS
 10
-0.968945
 20
2.130335
  0
SEQEND
  8
0
  0
POLYLINE
  8
PLAN_1
  6
CONTINUOUS
 66
     1
 40
0.005358
 41
0.005358
  0
VERTEX
  8
PLAN_1
  6
CONTINUOUS
 10
-0.968945
 20
2.130335
  0
VERTEX
  8
PLAN_1
  6
CONTINUOUS
 10
-1.250087
 20
2.130335
  0
SEQEND
  8
0
  0
POLYLINE
  8
PLAN_1
  6
CONTINUOUS
 66
     1
 40
0.005358
 41
0.005358
  0
VERTEX
  8
PLAN_1
  6
CONTINUOUS
 10
-1.250087
 20
2.130335
  0
VERTEX
  8
PLAN_1
  6
CONTINUOUS
 10
-1.251063
 20
2.129358
  0
VERTEX
  8
PLAN_1
  6
CONTINUOUS
 10
-1.253500
 20
2.126921
  0
VERTEX
  8
PLAN_1
  6
CONTINUOUS
 10
-1.256909
 20
2.122539
  0
VERTEX
  8
PLAN_1
  6
CONTINUOUS
 10
-1.259346
 20
2.117177
  0
VERTEX
  8
PLAN_1
  6
CONTINUOUS
 10
-1.260807
 20
2.113768
  0
VERTEX
  8
PLAN_1
  6
CONTINUOUS
 10
-1.261295
 20
2.110354
  0
VERTEX
  8
PLAN_1
  6
CONTINUOUS
 10
-1.261295
 20
2.106457
  0
VERTEX
  8
PLAN_1
  6
CONTINUOUS
 10
-1.260807
 20
2.102559
  0
VERTEX
  8
PLAN_1
  6
CONTINUOUS
 10
-1.259346
 20
2.098173
  0
VERTEX
  8
PLAN_1
  6
CONTINUOUS
 10
-1.257398
 20
2.093791
  0
VERTEX
  8
PLAN_1
  6
CONTINUOUS
 10
-1.254472
 20
2.089406
  0
VERTEX
  8
PLAN_1
  6
CONTINUOUS
 10
-1.250087
 20
2.084531
  0
SEQEND
  8
0
  0
POLYLINE
  8
PLAN_1
  6
CONTINUOUS
 66
     1
 40
0.005358
 41
0.005358
  0
VERTEX
  8
PLAN_1
  6
CONTINUOUS
 10
-1.250087
 20
2.084531
  0
VERTEX
  8
PLAN_1
  6
CONTINUOUS
 10
-0.968945
 20
2.084531
  0
SEQEND
  8
0
  0
POLYLINE
  8
PLAN_1
  6
CONTINUOUS
 66
     1
 40
0.005358
 41
0.005358
  0
VERTEX
  8
PLAN_1
  6
CONTINUOUS
 10
-0.969433
 20
2.039217
  0
VERTEX
  8
PLAN_1
  6
CONTINUOUS
 10
-0.965047
 20
2.044091
  0
VERTEX
  8
PLAN_1
  6
CONTINUOUS
 10
-0.961150
 20
2.047988
  0
VERTEX
  8
PLAN_1
  6
CONTINUOUS
 10
-0.958713
 20
2.052374
  0
VERTEX
  8
PLAN_1
  6
CONTINUOUS
 10
-0.957252
 20
2.056760
  0
VERTEX
  8
PLAN_1
  6
CONTINUOUS
 10
-0.956764
 20
2.060657
  0
VERTEX
  8
PLAN_1
  6
CONTINUOUS
 10
-0.956764
 20
2.064067
  0
VERTEX
  8
PLAN_1
  6
CONTINUOUS
 10
-0.957740
 20
2.067965
  0
VERTEX
  8
PLAN_1
  6
CONTINUOUS
 10
-0.958713
 20
2.071378
  0
VERTEX
  8
PLAN_1
  6
CONTINUOUS
 10
-0.960173
 20
2.074299
  0
VERTEX
  8
PLAN_1
  6
CONTINUOUS
 10
-0.962122
 20
2.076736
  0
VERTEX
  8
PLAN_1
  6
CONTINUOUS
 10
-0.963587
 20
2.079173
  0
VERTEX
  8
PLAN_1
  6
CONTINUOUS
 10
-0.965535
 20
2.081122
  0
VERTEX
  8
PLAN_1
  6
CONTINUOUS
 10
-0.968457
 20
2.084043
  0
VERTEX
  8
PLAN_1
  6
CONTINUOUS
 10
-0.969433
 20
2.085020
  0
SEQEND
  8
0
  0
POLYLINE
  8
PLAN_1
  6
CONTINUOUS
 66
     1
 40
0.005358
 41
0.005358
  0
VERTEX
  8
PLAN_1
  6
CONTINUOUS
 10
-0.969433
 20
2.085020
  0
VERTEX
  8
PLAN_1
  6
CONTINUOUS
 10
-1.250575
 20
2.085020
  0
SEQEND
  8
0
  0
POLYLINE
  8
PLAN_1
  6
CONTINUOUS
 66
     1
 40
0.005358
 41
0.005358
  0
VERTEX
  8
PLAN_1
  6
CONTINUOUS
 10
-1.250575
 20
2.085020
  0
VERTEX
  8
PLAN_1
  6
CONTINUOUS
 10
-1.251551
 20
2.084043
  0
VERTEX
  8
PLAN_1
  6
CONTINUOUS
 10
-1.253988
 20
2.081610
  0
VERTEX
  8
PLAN_1
  6
CONTINUOUS
 10
-1.257398
 20
2.077224
  0
VERTEX
  8
PLAN_1
  6
CONTINUOUS
 10
-1.259835
 20
2.071862
  0
VERTEX
  8
PLAN_1
  6
CONTINUOUS
 10
-1.260807
 20
2.068453
  0
VERTEX
  8
PLAN_1
  6
CONTINUOUS
 10
-1.261783
 20
2.065043
  0
VERTEX
  8
PLAN_1
  6
CONTINUOUS
 10
-1.261783
 20
2.061146
  0
VERTEX
  8
PLAN_1
  6
CONTINUOUS
 10
-1.261295
 20
2.057244
  0
VERTEX
  8
PLAN_1
  6
CONTINUOUS
 10
-1.259835
 20
2.052862
  0
VERTEX
  8
PLAN_1
  6
CONTINUOUS
 10
-1.257886
 20
2.048476
  0
VERTEX
  8
PLAN_1
  6
CONTINUOUS
 10
-1.254472
 20
2.044091
  0
VERTEX
  8
PLAN_1
  6
CONTINUOUS
 10
-1.250575
 20
2.039217
  0
SEQEND
  8
0
  0
POLYLINE
  8
PLAN_1
  6
CONTINUOUS
 66
     1
 40
0.005358
 41
0.005358
  0
VERTEX
  8
PLAN_1
  6
CONTINUOUS
 10
-1.250575
 20
2.039217
  0
VERTEX
  8
PLAN_1
  6
CONTINUOUS
 10
-0.969433
 20
2.039217
  0
SEQEND
  8
0
  0
POLYLINE
  8
PLAN_1
  6
CONTINUOUS
 66
     1
 40
0.005358
 41
0.005358
  0
VERTEX
  8
PLAN_1
  6
CONTINUOUS
 10
-0.968945
 20
1.994390
  0
VERTEX
  8
PLAN_1
  6
CONTINUOUS
 10
-0.964559
 20
1.998776
  0
VERTEX
  8
PLAN_1
  6
CONTINUOUS
 10
-0.961150
 20
2.003161
  0
VERTEX
  8
PLAN_1
  6
CONTINUOUS
 10
-0.958713
 20
2.007059
  0
VERTEX
  8
PLAN_1
  6
CONTINUOUS
 10
-0.957252
 20
2.011445
  0
VERTEX
  8
PLAN_1
  6
CONTINUOUS
 10
-0.956276
 20
2.015343
  0
VERTEX
  8
PLAN_1
  6
CONTINUOUS
 10
-0.956764
 20
2.019240
  0
VERTEX
  8
PLAN_1
  6
CONTINUOUS
 10
-0.957252
 20
2.022650
  0
VERTEX
  8
PLAN_1
  6
CONTINUOUS
 10
-0.958224
 20
2.026063
  0
VERTEX
  8
PLAN_1
  6
CONTINUOUS
 10
-0.959689
 20
2.028984
  0
VERTEX
  8
PLAN_1
  6
CONTINUOUS
 10
-0.961638
 20
2.031421
  0
VERTEX
  8
PLAN_1
  6
CONTINUOUS
 10
-0.963587
 20
2.033858
  0
VERTEX
  8
PLAN_1
  6
CONTINUOUS
 10
-0.965047
 20
2.036295
  0
VERTEX
  8
PLAN_1
  6
CONTINUOUS
 10
-0.967972
 20
2.038732
  0
VERTEX
  8
PLAN_1
  6
CONTINUOUS
 10
-0.968945
 20
2.039705
  0
SEQEND
  8
0
  0
POLYLINE
  8
PLAN_1
  6
CONTINUOUS
 66
     1
 40
0.005358
 41
0.005358
  0
VERTEX
  8
PLAN_1
  6
CONTINUOUS
 10
-0.968945
 20
2.039705
  0
VERTEX
  8
PLAN_1
  6
CONTINUOUS
 10
-1.250087
 20
2.039705
  0
SEQEND
  8
0
  0
POLYLINE
  8
PLAN_1
  6
CONTINUOUS
 66
     1
 40
0.005358
 41
0.005358
  0
VERTEX
  8
PLAN_1
  6
CONTINUOUS
 10
-1.250087
 20
2.039705
  0
VERTEX
  8
PLAN_1
  6
CONTINUOUS
 10
-1.251063
 20
2.038732
  0
VERTEX
  8
PLAN_1
  6
CONTINUOUS
 10
-1.253500
 20
2.036295
  0
VERTEX
  8
PLAN_1
  6
CONTINUOUS
 10
-1.256909
 20
2.031909
  0
VERTEX
  8
PLAN_1
  6
CONTINUOUS
 10
-1.259346
 20
2.026551
  0
VERTEX
  8
PLAN_1
  6
CONTINUOUS
 10
-1.260807
 20
2.023138
  0
VERTEX
  8
PLAN_1
  6
CONTINUOUS
 10
-1.261295
 20
2.019728
  0
VERTEX
  8
PLAN_1
  6
CONTINUOUS
 10
-1.261295
 20
2.015831
  0
VERTEX
  8
PLAN_1
  6
CONTINUOUS
 10
-1.260807
 20
2.011933
  0
VERTEX
  8
PLAN_1
  6
CONTINUOUS
 10
-1.259346
 20
2.008035
  0
VERTEX
  8
PLAN_1
  6
CONTINUOUS
 10
-1.257398
 20
2.003650
  0
VERTEX
  8
PLAN_1
  6
CONTINUOUS
 10
-1.254472
 20
1.998776
  0
VERTEX
  8
PLAN_1
  6
CONTINUOUS
 10
-1.250087
 20
1.994390
  0
SEQEND
  8
0
  0
POLYLINE
  8
PLAN_1
  6
CONTINUOUS
 66
     1
 40
0.005358
 41
0.005358
  0
VERTEX
  8
PLAN_1
  6
CONTINUOUS
 10
-1.250087
 20
1.994390
  0
VERTEX
  8
PLAN_1
  6
CONTINUOUS
 10
-0.968945
 20
1.994390
  0
SEQEND
  8
0
  0
POLYLINE
  8
PLAN_1
  6
CONTINUOUS
 66
     1
 40
0.005358
 41
0.005358
  0
VERTEX
  8
PLAN_1
  6
CONTINUOUS
 10
-1.153614
 20
3.217874
  0
VERTEX
  8
PLAN_1
  6
CONTINUOUS
 10
-1.250087
 20
3.217874
  0
SEQEND
  8
0
  0
POLYLINE
  8
PLAN_1
  6
CONTINUOUS
 66
     1
 40
0.005358
 41
0.005358
  0
VERTEX
  8
PLAN_1
  6
CONTINUOUS
 10
-1.250087
 20
3.217874
  0
VERTEX
  8
PLAN_1
  6
CONTINUOUS
 10
-1.251063
 20
3.216902
  0
VERTEX
  8
PLAN_1
  6
CONTINUOUS
 10
-1.253500
 20
3.214465
  0
VERTEX
  8
PLAN_1
  6
CONTINUOUS
 10
-1.256421
 20
3.210079
  0
VERTEX
  8
PLAN_1
  6
CONTINUOUS
 10
-1.259346
 20
3.204720
  0
VERTEX
  8
PLAN_1
  6
CONTINUOUS
 10
-1.260319
 20
3.201307
  0
VERTEX
  8
PLAN_1
  6
CONTINUOUS
 10
-1.261295
 20
3.197898
  0
VERTEX
  8
PLAN_1
  6
CONTINUOUS
 10
-1.261295
 20
3.194000
  0
VERTEX
  8
PLAN_1
  6
CONTINUOUS
 10
-1.260807
 20
3.190102
  0
VERTEX
  8
PLAN_1
  6
CONTINUOUS
 10
-1.259346
 20
3.185717
  0
VERTEX
  8
PLAN_1
  6
CONTINUOUS
 10
-1.257398
 20
3.181331
  0
VERTEX
  8
PLAN_1
  6
CONTINUOUS
 10
-1.253988
 20
3.176945
  0
VERTEX
  8
PLAN_1
  6
CONTINUOUS
 10
-1.250087
 20
3.172075
  0
SEQEND
  8
0
  0
POLYLINE
  8
PLAN_1
  6
CONTINUOUS
 66
     1
 40
0.005358
 41
0.005358
  0
VERTEX
  8
PLAN_1
  6
CONTINUOUS
 10
-1.226213
 20
3.172075
  0
VERTEX
  8
PLAN_1
  6
CONTINUOUS
 10
-1.250087
 20
3.172075
  0
SEQEND
  8
0
  0
POLYLINE
  8
PLAN_1
  6
CONTINUOUS
 66
     1
 40
0.005358
 41
0.005358
  0
VERTEX
  8
PLAN_1
  6
CONTINUOUS
 10
-1.250087
 20
3.172075
  0
VERTEX
  8
PLAN_1
  6
CONTINUOUS
 10
-1.250575
 20
3.171587
  0
VERTEX
  8
PLAN_1
  6
CONTINUOUS
 10
-1.251551
 20
3.171098
  0
VERTEX
  8
PLAN_1
  6
CONTINUOUS
 10
-1.253012
 20
3.169638
  0
VERTEX
  8
PLAN_1
  6
CONTINUOUS
 10
-1.254472
 20
3.167689
  0
VERTEX
  8
PLAN_1
  6
CONTINUOUS
 10
-1.256421
 20
3.165252
  0
VERTEX
  8
PLAN_1
  6
CONTINUOUS
 10
-1.257886
 20
3.162331
  0
VERTEX
  8
PLAN_1
  6
CONTINUOUS
 10
-1.259346
 20
3.159406
  0
VERTEX
  8
PLAN_1
  6
CONTINUOUS
 10
-1.260807
 20
3.155996
  0
SEQEND
  8
0
  0
POLYLINE
  8
PLAN_1
  6
CONTINUOUS
 66
     1
 40
0.005358
 41
0.005358
  0
VERTEX
  8
PLAN_1
  6
CONTINUOUS
 10
-0.965047
 20
3.093138
  0
VERTEX
  8
PLAN_1
  6
CONTINUOUS
 10
-0.961638
 20
3.097524
  0
VERTEX
  8
PLAN_1
  6
CONTINUOUS
 10
-0.959201
 20
3.101909
  0
VERTEX
  8
PLAN_1
  6
CONTINUOUS
 10
-0.957740
 20
3.106295
  0
VERTEX
  8
PLAN_1
  6
CONTINUOUS
 10
-0.956764
 20
3.110193
  0
VERTEX
  8
PLAN_1
  6
CONTINUOUS
 10
-0.956276
 20
3.114091
  0
VERTEX
  8
PLAN_1
  6
CONTINUOUS
 10
-0.956764
 20
3.117988
  0
VERTEX
  8
PLAN_1
  6
CONTINUOUS
 10
-0.957252
 20
3.121402
  0
VERTEX
  8
PLAN_1
  6
CONTINUOUS
 10
-0.958713
 20
3.124811
  0
SEQEND
  8
0
  0
POLYLINE
  8
PLAN_1
  6
CONTINUOUS
 66
     1
 40
0.005358
 41
0.005358
  0
VERTEX
  8
PLAN_1
  6
CONTINUOUS
 10
-1.081500
 20
3.047827
  0
VERTEX
  8
PLAN_1
  6
CONTINUOUS
 10
-0.968945
 20
3.047827
  0
SEQEND
  8
0
  0
POLYLINE
  8
PLAN_1
  6
CONTINUOUS
 66
     1
 40
0.005358
 41
0.005358
  0
VERTEX
  8
PLAN_1
  6
CONTINUOUS
 10
-0.968945
 20
3.047827
  0
VERTEX
  8
PLAN_1
  6
CONTINUOUS
 10
-0.964071
 20
3.052209
  0
VERTEX
  8
PLAN_1
  6
CONTINUOUS
 10
-0.960661
 20
3.056594
  0
VERTEX
  8
PLAN_1
  6
CONTINUOUS
 10
-0.958224
 20
3.060980
  0
VERTEX
  8
PLAN_1
  6
CONTINUOUS
 10
-0.956764
 20
3.064878
  0
VERTEX
  8
PLAN_1
  6
CONTINUOUS
 10
-0.956276
 20
3.068776
  0
VERTEX
  8
PLAN_1
  6
CONTINUOUS
 10
-0.956276
 20
3.072673
  0
VERTEX
  8
PLAN_1
  6
CONTINUOUS
 10
-0.956764
 20
3.076087
  0
VERTEX
  8
PLAN_1
  6
CONTINUOUS
 10
-0.958224
 20
3.079496
  0
VERTEX
  8
PLAN_1
  6
CONTINUOUS
 10
-0.959689
 20
3.082421
  0
VERTEX
  8
PLAN_1
  6
CONTINUOUS
 10
-0.961150
 20
3.085343
  0
VERTEX
  8
PLAN_1
  6
CONTINUOUS
 10
-0.963098
 20
3.087780
  0
VERTEX
  8
PLAN_1
  6
CONTINUOUS
 10
-0.965047
 20
3.089728
  0
VERTEX
  8
PLAN_1
  6
CONTINUOUS
 10
-0.967484
 20
3.092654
  0
VERTEX
  8
PLAN_1
  6
CONTINUOUS
 10
-0.968945
 20
3.093626
  0
SEQEND
  8
0
  0
POLYLINE
  8
PLAN_1
  6
CONTINUOUS
 66
     1
 40
0.005358
 41
0.005358
  0
VERTEX
  8
PLAN_1
  6
CONTINUOUS
 10
-0.968945
 20
3.093626
  0
VERTEX
  8
PLAN_1
  6
CONTINUOUS
 10
-1.005000
 20
3.093626
  0
SEQEND
  8
0
  0
POLYLINE
  8
PLAN_1
  6
CONTINUOUS
 66
     1
 40
0.005358
 41
0.005358
  0
VERTEX
  8
PLAN_1
  6
CONTINUOUS
 10
-1.158000
 20
3.002512
  0
VERTEX
  8
PLAN_1
  6
CONTINUOUS
 10
-0.969433
 20
3.002512
  0
SEQEND
  8
0
  0
POLYLINE
  8
PLAN_1
  6
CONTINUOUS
 66
     1
 40
0.005358
 41
0.005358
  0
VERTEX
  8
PLAN_1
  6
CONTINUOUS
 10
-0.969433
 20
3.002512
  0
VERTEX
  8
PLAN_1
  6
CONTINUOUS
 10
-0.964559
 20
3.006898
  0
VERTEX
  8
PLAN_1
  6
CONTINUOUS
 10
-0.961150
 20
3.011283
  0
VERTEX
  8
PLAN_1
  6
CONTINUOUS
 10
-0.958713
 20
3.015665
  0
VERTEX
  8
PLAN_1
  6
CONTINUOUS
 10
-0.957252
 20
3.019563
  0
VERTEX
  8
PLAN_1
  6
CONTINUOUS
 10
-0.956764
 20
3.023465
  0
VERTEX
  8
PLAN_1
  6
CONTINUOUS
 10
-0.956764
 20
3.027362
  0
VERTEX
  8
PLAN_1
  6
CONTINUOUS
 10
-0.957252
 20
3.031260
  0
VERTEX
  8
PLAN_1
  6
CONTINUOUS
 10
-0.958713
 20
3.034181
  0
VERTEX
  8
PLAN_1
  6
CONTINUOUS
 10
-0.960173
 20
3.037594
  0
VERTEX
  8
PLAN_1
  6
CONTINUOUS
 10
-0.961638
 20
3.040028
  0
VERTEX
  8
PLAN_1
  6
CONTINUOUS
 10
-0.963587
 20
3.042465
  0
VERTEX
  8
PLAN_1
  6
CONTINUOUS
 10
-0.965047
 20
3.044413
  0
VERTEX
  8
PLAN_1
  6
CONTINUOUS
 10
-0.967972
 20
3.047339
  0
VERTEX
  8
PLAN_1
  6
CONTINUOUS
 10
-0.969433
 20
3.048311
  0
SEQEND
  8
0
  0
POLYLINE
  8
PLAN_1
  6
CONTINUOUS
 66
     1
 40
0.005358
 41
0.005358
  0
VERTEX
  8
PLAN_1
  6
CONTINUOUS
 10
-0.969433
 20
3.048311
  0
VERTEX
  8
PLAN_1
  6
CONTINUOUS
 10
-1.081500
 20
3.048311
  0
SEQEND
  8
0
  0
POLYLINE
  8
PLAN_1
  6
CONTINUOUS
 66
     1
 40
0.005358
 41
0.005358
  0
VERTEX
  8
PLAN_1
  6
CONTINUOUS
 10
-1.249602
 20
2.957197
  0
VERTEX
  8
PLAN_1
  6
CONTINUOUS
 10
-0.968945
 20
2.957197
  0
SEQEND
  8
0
  0
POLYLINE
  8
PLAN_1
  6
CONTINUOUS
 66
     1
 40
0.005358
 41
0.005358
  0
VERTEX
  8
PLAN_1
  6
CONTINUOUS
 10
-0.968945
 20
2.957197
  0
VERTEX
  8
PLAN_1
  6
CONTINUOUS
 10
-0.964071
 20
2.961583
  0
VERTEX
  8
PLAN_1
  6
CONTINUOUS
 10
-0.960661
 20
2.965969
  0
VERTEX
  8
PLAN_1
  6
CONTINUOUS
 10
-0.958224
 20
2.970354
  0
VERTEX
  8
PLAN_1
  6
CONTINUOUS
 10
-0.956764
 20
2.974736
  0
VERTEX
  8
PLAN_1
  6
CONTINUOUS
 10
-0.956276
 20
2.978634
  0
VERTEX
  8
PLAN_1
  6
CONTINUOUS
 10
-0.956276
 20
2.982047
  0
VERTEX
  8
PLAN_1
  6
CONTINUOUS
 10
-0.956764
 20
2.985945
  0
VERTEX
  8
PLAN_1
  6
CONTINUOUS
 10
-0.958224
 20
2.988866
  0
VERTEX
  8
PLAN_1
  6
CONTINUOUS
 10
-0.959689
 20
2.992280
  0
VERTEX
  8
PLAN_1
  6
CONTINUOUS
 10
-0.961150
 20
2.994717
  0
VERTEX
  8
PLAN_1
  6
CONTINUOUS
 10
-0.963098
 20
2.997150
  0
VERTEX
  8
PLAN_1
  6
CONTINUOUS
 10
-0.965047
 20
2.999098
  0
VERTEX
  8
PLAN_1
  6
CONTINUOUS
 10
-0.967484
 20
3.002024
  0
VERTEX
  8
PLAN_1
  6
CONTINUOUS
 10
-0.968945
 20
3.003000
  0
SEQEND
  8
0
  0
POLYLINE
  8
PLAN_1
  6
CONTINUOUS
 66
     1
 40
0.005358
 41
0.005358
  0
VERTEX
  8
PLAN_1
  6
CONTINUOUS
 10
-0.968945
 20
3.003000
  0
VERTEX
  8
PLAN_1
  6
CONTINUOUS
 10
-1.162382
 20
3.003000
  0
SEQEND
  8
0
  0
POLYLINE
  8
PLAN_1
  6
CONTINUOUS
 66
     1
 40
0.005358
 41
0.005358
  0
VERTEX
  8
PLAN_1
  6
CONTINUOUS
 10
-1.250087
 20
2.957685
  0
VERTEX
  8
PLAN_1
  6
CONTINUOUS
 10
-1.251063
 20
2.956709
  0
VERTEX
  8
PLAN_1
  6
CONTINUOUS
 10
-1.253500
 20
2.954272
  0
VERTEX
  8
PLAN_1
  6
CONTINUOUS
 10
-1.256909
 20
2.949890
  0
VERTEX
  8
PLAN_1
  6
CONTINUOUS
 10
-1.259835
 20
2.944528
  0
VERTEX
  8
PLAN_1
  6
CONTINUOUS
 10
-1.260807
 20
2.941118
  0
VERTEX
  8
PLAN_1
  6
CONTINUOUS
 10
-1.261295
 20
2.937709
  0
VERTEX
  8
PLAN_1
  6
CONTINUOUS
 10
-1.261295
 20
2.933807
  0
VERTEX
  8
PLAN_1
  6
CONTINUOUS
 10
-1.260807
 20
2.929909
  0
VERTEX
  8
PLAN_1
  6
CONTINUOUS
 10
-1.259835
 20
2.925524
  0
VERTEX
  8
PLAN_1
  6
CONTINUOUS
 10
-1.257398
 20
2.921142
  0
VERTEX
  8
PLAN_1
  6
CONTINUOUS
 10
-1.254472
 20
2.916756
  0
VERTEX
  8
PLAN_1
  6
CONTINUOUS
 10
-1.250087
 20
2.911882
  0
SEQEND
  8
0
  0
POLYLINE
  8
PLAN_1
  6
CONTINUOUS
 66
     1
 40
0.005358
 41
0.005358
  0
VERTEX
  8
PLAN_1
  6
CONTINUOUS
 10
-1.250087
 20
2.911882
  0
VERTEX
  8
PLAN_1
  6
CONTINUOUS
 10
-0.969433
 20
2.911882
  0
SEQEND
  8
0
  0
POLYLINE
  8
PLAN_1
  6
CONTINUOUS
 66
     1
 40
0.005358
 41
0.005358
  0
VERTEX
  8
PLAN_1
  6
CONTINUOUS
 10
-0.969433
 20
2.911882
  0
VERTEX
  8
PLAN_1
  6
CONTINUOUS
 10
-0.964559
 20
2.916756
  0
VERTEX
  8
PLAN_1
  6
CONTINUOUS
 10
-0.961150
 20
2.920654
  0
VERTEX
  8
PLAN_1
  6
CONTINUOUS
 10
-0.958713
 20
2.925039
  0
VERTEX
  8
PLAN_1
  6
CONTINUOUS
 10
-0.957252
 20
2.929425
  0
VERTEX
  8
PLAN_1
  6
CONTINUOUS
 10
-0.956764
 20
2.933323
  0
VERTEX
  8
PLAN_1
  6
CONTINUOUS
 10
-0.956764
 20
2.936732
  0
VERTEX
  8
PLAN_1
  6
CONTINUOUS
 10
-0.957252
 20
2.940630
  0
VERTEX
  8
PLAN_1
  6
CONTINUOUS
 10
-0.958713
 20
2.944039
  0
VERTEX
  8
PLAN_1
  6
CONTINUOUS
 10
-0.960173
 20
2.946965
  0
VERTEX
  8
PLAN_1
  6
CONTINUOUS
 10
-0.961638
 20
2.949402
  0
VERTEX
  8
PLAN_1
  6
CONTINUOUS
 10
-0.963587
 20
2.951839
  0
VERTEX
  8
PLAN_1
  6
CONTINUOUS
 10
-0.965047
 20
2.953787
  0
VERTEX
  8
PLAN_1
  6
CONTINUOUS
 10
-0.967972
 20
2.956709
  0
VERTEX
  8
PLAN_1
  6
CONTINUOUS
 10
-0.969433
 20
2.957685
  0
SEQEND
  8
0
  0
POLYLINE
  8
PLAN_1
  6
CONTINUOUS
 66
     1
 40
0.005358
 41
0.005358
  0
VERTEX
  8
PLAN_1
  6
CONTINUOUS
 10
-0.969433
 20
2.957685
  0
VERTEX
  8
PLAN_1
  6
CONTINUOUS
 10
-1.230598
 20
2.957685
  0
SEQEND
  8
0
  0
POLYLINE
  8
PLAN_1
  6
CONTINUOUS
 66
     1
 40
0.005358
 41
0.005358
  0
VERTEX
  8
PLAN_1
  6
CONTINUOUS
 10
-1.230598
 20
2.962071
  0
VERTEX
  8
PLAN_1
  6
CONTINUOUS
 10
-1.250087
 20
2.962071
  0
SEQEND
  8
0
  0
POLYLINE
  8
PLAN_1
  6
CONTINUOUS
 66
     1
 40
0.005358
 41
0.005358
  0
VERTEX
  8
PLAN_1
  6
CONTINUOUS
 10
-0.968945
 20
2.628791
  0
VERTEX
  8
PLAN_1
  6
CONTINUOUS
 10
-0.964071
 20
2.633177
  0
VERTEX
  8
PLAN_1
  6
CONTINUOUS
 10
-0.960661
 20
2.637075
  0
VERTEX
  8
PLAN_1
  6
CONTINUOUS
 10
-0.958224
 20
2.641461
  0
VERTEX
  8
PLAN_1
  6
CONTINUOUS
 10
-0.956764
 20
2.645843
  0
VERTEX
  8
PLAN_1
  6
CONTINUOUS
 10
-0.956276
 20
2.649740
  0
VERTEX
  8
PLAN_1
  6
CONTINUOUS
 10
-0.956276
 20
2.653642
  0
VERTEX
  8
PLAN_1
  6
CONTINUOUS
 10
-0.956764
 20
2.657051
  0
VERTEX
  8
PLAN_1
  6
CONTINUOUS
 10
-0.958224
 20
2.660461
  0
VERTEX
  8
PLAN_1
  6
CONTINUOUS
 10
-0.959689
 20
2.663386
  0
VERTEX
  8
PLAN_1
  6
CONTINUOUS
 10
-0.961150
 20
2.665823
  0
VERTEX
  8
PLAN_1
  6
CONTINUOUS
 10
-0.963098
 20
2.668256
  0
VERTEX
  8
PLAN_1
  6
CONTINUOUS
 10
-0.965047
 20
2.670205
  0
VERTEX
  8
PLAN_1
  6
CONTINUOUS
 10
-0.967484
 20
2.673130
  0
VERTEX
  8
PLAN_1
  6
CONTINUOUS
 10
-0.968945
 20
2.674106
  0
SEQEND
  8
0
  0
POLYLINE
  8
PLAN_1
  6
CONTINUOUS
 66
     1
 40
0.005358
 41
0.005358
  0
VERTEX
  8
PLAN_1
  6
CONTINUOUS
 10
-0.968945
 20
2.674106
  0
VERTEX
  8
PLAN_1
  6
CONTINUOUS
 10
-1.249602
 20
2.674106
  0
SEQEND
  8
0
  0
POLYLINE
  8
PLAN_1
  6
CONTINUOUS
 66
     1
 40
0.005358
 41
0.005358
  0
VERTEX
  8
PLAN_1
  6
CONTINUOUS
 10
-1.249602
 20
2.674106
  0
VERTEX
  8
PLAN_1
  6
CONTINUOUS
 10
-1.250575
 20
2.673130
  0
VERTEX
  8
PLAN_1
  6
CONTINUOUS
 10
-1.253500
 20
2.670693
  0
VERTEX
  8
PLAN_1
  6
CONTINUOUS
 10
-1.256421
 20
2.666307
  0
VERTEX
  8
PLAN_1
  6
CONTINUOUS
 10
-1.259346
 20
2.660949
  0
VERTEX
  8
PLAN_1
  6
CONTINUOUS
 10
-1.260319
 20
2.657539
  0
VERTEX
  8
PLAN_1
  6
CONTINUOUS
 10
-1.260807
 20
2.654126
  0
VERTEX
  8
PLAN_1
  6
CONTINUOUS
 10
-1.260807
 20
2.650228
  0
VERTEX
  8
PLAN_1
  6
CONTINUOUS
 10
-1.260319
 20
2.646331
  0
VERTEX
  8
PLAN_1
  6
CONTINUOUS
 10
-1.259346
 20
2.641945
  0
VERTEX
  8
PLAN_1
  6
CONTINUOUS
 10
-1.256909
 20
2.637559
  0
VERTEX
  8
PLAN_1
  6
CONTINUOUS
 10
-1.253988
 20
2.633177
  0
VERTEX
  8
PLAN_1
  6
CONTINUOUS
 10
-1.249602
 20
2.628791
  0
SEQEND
  8
0
  0
POLYLINE
  8
PLAN_1
  6
CONTINUOUS
 66
     1
 40
0.005358
 41
0.005358
  0
VERTEX
  8
PLAN_1
  6
CONTINUOUS
 10
-1.249602
 20
2.628791
  0
VERTEX
  8
PLAN_1
  6
CONTINUOUS
 10
-0.968945
 20
2.628791
  0
SEQEND
  8
0
  0
POLYLINE
  8
PLAN_1
  6
CONTINUOUS
 66
     1
 40
0.005358
 41
0.005358
  0
VERTEX
  8
PLAN_1
  6
CONTINUOUS
 10
-0.969433
 20
3.852764
  0
VERTEX
  8
PLAN_1
  6
CONTINUOUS
 10
-0.964559
 20
3.857146
  0
VERTEX
  8
PLAN_1
  6
CONTINUOUS
 10
-0.961150
 20
3.861531
  0
VERTEX
  8
PLAN_1
  6
CONTINUOUS
 10
-0.958713
 20
3.865429
  0
VERTEX
  8
PLAN_1
  6
CONTINUOUS
 10
-0.957252
 20
3.869815
  0
VERTEX
  8
PLAN_1
  6
CONTINUOUS
 10
-0.956764
 20
3.873713
  0
VERTEX
  8
PLAN_1
  6
CONTINUOUS
 10
-0.956764
 20
3.877610
  0
VERTEX
  8
PLAN_1
  6
CONTINUOUS
 10
-0.957740
 20
3.881024
  0
VERTEX
  8
PLAN_1
  6
CONTINUOUS
 10
-0.958713
 20
3.884433
  0
VERTEX
  8
PLAN_1
  6
CONTINUOUS
 10
-0.960173
 20
3.887358
  0
VERTEX
  8
PLAN_1
  6
CONTINUOUS
 10
-0.962122
 20
3.889791
  0
VERTEX
  8
PLAN_1
  6
CONTINUOUS
 10
-0.963587
 20
3.892228
  0
VERTEX
  8
PLAN_1
  6
CONTINUOUS
 10
-0.965535
 20
3.894177
  0
VERTEX
  8
PLAN_1
  6
CONTINUOUS
 10
-0.968457
 20
3.897102
  0
VERTEX
  8
PLAN_1
  6
CONTINUOUS
 10
-0.969433
 20
3.898075
  0
SEQEND
  8
0
  0
POLYLINE
  8
PLAN_1
  6
CONTINUOUS
 66
     1
 40
0.005358
 41
0.005358
  0
VERTEX
  8
PLAN_1
  6
CONTINUOUS
 10
-0.969433
 20
3.898075
  0
VERTEX
  8
PLAN_1
  6
CONTINUOUS
 10
-1.250575
 20
3.898075
  0
SEQEND
  8
0
  0
POLYLINE
  8
PLAN_1
  6
CONTINUOUS
 66
     1
 40
0.005358
 41
0.005358
  0
VERTEX
  8
PLAN_1
  6
CONTINUOUS
 10
-1.250575
 20
3.898075
  0
VERTEX
  8
PLAN_1
  6
CONTINUOUS
 10
-1.251551
 20
3.897102
  0
VERTEX
  8
PLAN_1
  6
CONTINUOUS
 10
-1.253988
 20
3.894665
  0
VERTEX
  8
PLAN_1
  6
CONTINUOUS
 10
-1.256909
 20
3.890280
  0
VERTEX
  8
PLAN_1
  6
CONTINUOUS
 10
-1.259835
 20
3.884921
  0
VERTEX
  8
PLAN_1
  6
CONTINUOUS
 10
-1.260807
 20
3.881512
  0
VERTEX
  8
PLAN_1
  6
CONTINUOUS
 10
-1.261295
 20
3.878098
  0
VERTEX
  8
PLAN_1
  6
CONTINUOUS
 10
-1.261783
 20
3.874201
  0
VERTEX
  8
PLAN_1
  6
CONTINUOUS
 10
-1.261295
 20
3.870303
  0
VERTEX
  8
PLAN_1
  6
CONTINUOUS
 10
-1.259835
 20
3.866406
  0
VERTEX
  8
PLAN_1
  6
CONTINUOUS
 10
-1.257886
 20
3.862020
  0
VERTEX
  8
PLAN_1
  6
CONTINUOUS
 10
-1.254472
 20
3.857146
  0
VERTEX
  8
PLAN_1
  6
CONTINUOUS
 10
-1.250575
 20
3.852764
  0
SEQEND
  8
0
  0
POLYLINE
  8
PLAN_1
  6
CONTINUOUS
 66
     1
 40
0.005358
 41
0.005358
  0
VERTEX
  8
PLAN_1
  6
CONTINUOUS
 10
-1.250575
 20
3.852764
  0
VERTEX
  8
PLAN_1
  6
CONTINUOUS
 10
-0.969433
 20
3.852764
  0
SEQEND
  8
0
  0
POLYLINE
  8
PLAN_1
  6
CONTINUOUS
 66
     1
 40
0.005358
 41
0.005358
  0
VERTEX
  8
PLAN_1
  6
CONTINUOUS
 10
-0.968945
 20
3.807449
  0
VERTEX
  8
PLAN_1
  6
CONTINUOUS
 10
-0.964559
 20
3.811835
  0
VERTEX
  8
PLAN_1
  6
CONTINUOUS
 10
-0.960661
 20
3.816217
  0
VERTEX
  8
PLAN_1
  6
CONTINUOUS
 10
-0.958224
 20
3.820118
  0
VERTEX
  8
PLAN_1
  6
CONTINUOUS
 10
-0.956764
 20
3.824500
  0
VERTEX
  8
PLAN_1
  6
CONTINUOUS
 10
-0.956276
 20
3.828402
  0
VERTEX
  8
PLAN_1
  6
CONTINUOUS
 10
-0.956276
 20
3.832299
  0
VERTEX
  8
PLAN_1
  6
CONTINUOUS
 10
-0.957252
 20
3.835709
  0
VERTEX
  8
PLAN_1
  6
CONTINUOUS
 10
-0.958224
 20
3.839118
  0
VERTEX
  8
PLAN_1
  6
CONTINUOUS
 10
-0.959689
 20
3.842043
  0
VERTEX
  8
PLAN_1
  6
CONTINUOUS
 10
-0.961638
 20
3.844965
  0
VERTEX
  8
PLAN_1
  6
CONTINUOUS
 10
-0.963098
 20
3.846913
  0
VERTEX
  8
PLAN_1
  6
CONTINUOUS
 10
-0.965047
 20
3.849350
  0
VERTEX
  8
PLAN_1
  6
CONTINUOUS
 10
-0.967972
 20
3.851787
  0
VERTEX
  8
PLAN_1
  6
CONTINUOUS
 10
-0.968945
 20
3.852764
  0
SEQEND
  8
0
  0
POLYLINE
  8
PLAN_1
  6
CONTINUOUS
 66
     1
 40
0.005358
 41
0.005358
  0
VERTEX
  8
PLAN_1
  6
CONTINUOUS
 10
-0.968945
 20
3.852764
  0
VERTEX
  8
PLAN_1
  6
CONTINUOUS
 10
-1.250087
 20
3.852764
  0
SEQEND
  8
0
  0
POLYLINE
  8
PLAN_1
  6
CONTINUOUS
 66
     1
 40
0.005358
 41
0.005358
  0
VERTEX
  8
PLAN_1
  6
CONTINUOUS
 10
-1.250087
 20
3.852764
  0
VERTEX
  8
PLAN_1
  6
CONTINUOUS
 10
-1.251063
 20
3.852276
  0
VERTEX
  8
PLAN_1
  6
CONTINUOUS
 10
-1.253500
 20
3.849350
  0
VERTEX
  8
PLAN_1
  6
CONTINUOUS
 10
-1.256421
 20
3.844965
  0
VERTEX
  8
PLAN_1
  6
CONTINUOUS
 10
-1.259346
 20
3.839606
  0
VERTEX
  8
PLAN_1
  6
CONTINUOUS
 10
-1.260319
 20
3.836197
  0
VERTEX
  8
PLAN_1
  6
CONTINUOUS
 10
-1.261295
 20
3.832783
  0
VERTEX
  8
PLAN_1
  6
CONTINUOUS
 10
-1.261295
 20
3.828886
  0
VERTEX
  8
PLAN_1
  6
CONTINUOUS
 10
-1.260807
 20
3.824988
  0
VERTEX
  8
PLAN_1
  6
CONTINUOUS
 10
-1.259346
 20
3.821091
  0
VERTEX
  8
PLAN_1
  6
CONTINUOUS
 10
-1.257398
 20
3.816705
  0
VERTEX
  8
PLAN_1
  6
CONTINUOUS
 10
-1.253988
 20
3.811835
  0
VERTEX
  8
PLAN_1
  6
CONTINUOUS
 10
-1.250087
 20
3.807449
  0
SEQEND
  8
0
  0
POLYLINE
  8
PLAN_1
  6
CONTINUOUS
 66
     1
 40
0.005358
 41
0.005358
  0
VERTEX
  8
PLAN_1
  6
CONTINUOUS
 10
-1.250087
 20
3.807449
  0
VERTEX
  8
PLAN_1
  6
CONTINUOUS
 10
-0.968945
 20
3.807449
  0
SEQEND
  8
0
  0
POLYLINE
  8
PLAN_1
  6
CONTINUOUS
 66
     1
 40
0.005358
 41
0.005358
  0
VERTEX
  8
PLAN_1
  6
CONTINUOUS
 10
-0.969433
 20
3.761157
  0
VERTEX
  8
PLAN_1
  6
CONTINUOUS
 10
-0.964559
 20
3.766031
  0
VERTEX
  8
PLAN_1
  6
CONTINUOUS
 10
-0.961150
 20
3.769929
  0
VERTEX
  8
PLAN_1
  6
CONTINUOUS
 10
-0.958713
 20
3.774315
  0
VERTEX
  8
PLAN_1
  6
CONTINUOUS
 10
-0.957252
 20
3.778701
  0
VERTEX
  8
PLAN_1
  6
CONTINUOUS
 10
-0.956764
 20
3.782598
  0
VERTEX
  8
PLAN_1
  6
CONTINUOUS
 10
-0.956764
 20
3.786008
  0
VERTEX
  8
PLAN_1
  6
CONTINUOUS
 10
-0.957252
 20
3.789906
  0
VERTEX
  8
PLAN_1
  6
CONTINUOUS
 10
-0.958713
 20
3.793319
  0
VERTEX
  8
PLAN_1
  6
CONTINUOUS
 10
-0.960173
 20
3.796240
  0
VERTEX
  8
PLAN_1
  6
CONTINUOUS
 10
-0.961638
 20
3.798677
  0
VERTEX
  8
PLAN_1
  6
CONTINUOUS
 10
-0.963587
 20
3.801114
  0
VERTEX
  8
PLAN_1
  6
CONTINUOUS
 10
-0.965047
 20
3.803063
  0
VERTEX
  8
PLAN_1
  6
CONTINUOUS
 10
-0.967972
 20
3.805988
  0
VERTEX
  8
PLAN_1
  6
CONTINUOUS
 10
-0.969433
 20
3.806961
  0
SEQEND
  8
0
  0
POLYLINE
  8
PLAN_1
  6
CONTINUOUS
 66
     1
 40
0.005358
 41
0.005358
  0
VERTEX
  8
PLAN_1
  6
CONTINUOUS
 10
-0.969433
 20
3.806961
  0
VERTEX
  8
PLAN_1
  6
CONTINUOUS
 10
-1.250087
 20
3.806961
  0
SEQEND
  8
0
  0
POLYLINE
  8
PLAN_1
  6
CONTINUOUS
 66
     1
 40
0.005358
 41
0.005358
  0
VERTEX
  8
PLAN_1
  6
CONTINUOUS
 10
-1.250087
 20
3.806961
  0
VERTEX
  8
PLAN_1
  6
CONTINUOUS
 10
-1.251063
 20
3.805988
  0
VERTEX
  8
PLAN_1
  6
CONTINUOUS
 10
-1.253500
 20
3.803551
  0
VERTEX
  8
PLAN_1
  6
CONTINUOUS
 10
-1.256909
 20
3.799165
  0
VERTEX
  8
PLAN_1
  6
CONTINUOUS
 10
-1.259835
 20
3.793803
  0
VERTEX
  8
PLAN_1
  6
CONTINUOUS
 10
-1.260807
 20
3.790394
  0
VERTEX
  8
PLAN_1
  6
CONTINUOUS
 10
-1.261295
 20
3.786984
  0
VERTEX
  8
PLAN_1
  6
CONTINUOUS
 10
-1.261295
 20
3.783087
  0
VERTEX
  8
PLAN_1
  6
CONTINUOUS
 10
-1.260807
 20
3.779189
  0
VERTEX
  8
PLAN_1
  6
CONTINUOUS
 10
-1.259835
 20
3.774803
  0
VERTEX
  8
PLAN_1
  6
CONTINUOUS
 10
-1.257398
 20
3.770417
  0
VERTEX
  8
PLAN_1
  6
CONTINUOUS
 10
-1.254472
 20
3.766031
  0
VERTEX
  8
PLAN_1
  6
CONTINUOUS
 10
-1.250087
 20
3.761157
  0
SEQEND
  8
0
  0
POLYLINE
  8
PLAN_1
  6
CONTINUOUS
 66
     1
 40
0.005358
 41
0.005358
  0
VERTEX
  8
PLAN_1
  6
CONTINUOUS
 10
-1.250087
 20
3.761157
  0
VERTEX
  8
PLAN_1
  6
CONTINUOUS
 10
-0.969433
 20
3.761157
  0
SEQEND
  8
0
  0
POLYLINE
  8
PLAN_1
  6
CONTINUOUS
 66
     1
 40
0.005358
 41
0.005358
  0
VERTEX
  8
PLAN_1
  6
CONTINUOUS
 10
-0.968945
 20
3.716331
  0
VERTEX
  8
PLAN_1
  6
CONTINUOUS
 10
-0.964071
 20
3.720717
  0
VERTEX
  8
PLAN_1
  6
CONTINUOUS
 10
-0.960661
 20
3.725102
  0
VERTEX
  8
PLAN_1
  6
CONTINUOUS
 10
-0.958224
 20
3.729000
  0
VERTEX
  8
PLAN_1
  6
CONTINUOUS
 10
-0.956764
 20
3.733386
  0
VERTEX
  8
PLAN_1
  6
CONTINUOUS
 10
-0.956276
 20
3.737283
  0
VERTEX
  8
PLAN_1
  6
CONTINUOUS
 10
-0.956276
 20
3.741181
  0
VERTEX
  8
PLAN_1
  6
CONTINUOUS
 10
-0.956764
 20
3.744594
  0
VERTEX
  8
PLAN_1
  6
CONTINUOUS
 10
-0.958224
 20
3.748004
  0
VERTEX
  8
PLAN_1
  6
CONTINUOUS
 10
-0.959689
 20
3.750925
  0
VERTEX
  8
PLAN_1
  6
CONTINUOUS
 10
-0.961150
 20
3.753362
  0
VERTEX
  8
PLAN_1
  6
CONTINUOUS
 10
-0.963098
 20
3.755799
  0
VERTEX
  8
PLAN_1
  6
CONTINUOUS
 10
-0.965047
 20
3.758236
  0
VERTEX
  8
PLAN_1
  6
CONTINUOUS
 10
-0.967484
 20
3.760673
  0
VERTEX
  8
PLAN_1
  6
CONTINUOUS
 10
-0.968945
 20
3.761646
  0
SEQEND
  8
0
  0
POLYLINE
  8
PLAN_1
  6
CONTINUOUS
 66
     1
 40
0.005358
 41
0.005358
  0
VERTEX
  8
PLAN_1
  6
CONTINUOUS
 10
-0.968945
 20
3.761646
  0
VERTEX
  8
PLAN_1
  6
CONTINUOUS
 10
-1.249602
 20
3.761646
  0
SEQEND
  8
0
  0
POLYLINE
  8
PLAN_1
  6
CONTINUOUS
 66
     1
 40
0.005358
 41
0.005358
  0
VERTEX
  8
PLAN_1
  6
CONTINUOUS
 10
-1.249602
 20
3.761646
  0
VERTEX
  8
PLAN_1
  6
CONTINUOUS
 10
-1.250575
 20
3.760673
  0
VERTEX
  8
PLAN_1
  6
CONTINUOUS
 10
-1.253500
 20
3.758236
  0
VERTEX
  8
PLAN_1
  6
CONTINUOUS
 10
-1.256421
 20
3.753850
  0
VERTEX
  8
PLAN_1
  6
CONTINUOUS
 10
-1.259346
 20
3.748492
  0
VERTEX
  8
PLAN_1
  6
CONTINUOUS
 10
-1.260319
 20
3.745079
  0
VERTEX
  8
PLAN_1
  6
CONTINUOUS
 10
-1.260807
 20
3.741669
  0
VERTEX
  8
PLAN_1
  6
CONTINUOUS
 10
-1.260807
 20
3.737772
  0
VERTEX
  8
PLAN_1
  6
CONTINUOUS
 10
-1.260319
 20
3.733874
  0
VERTEX
  8
PLAN_1
  6
CONTINUOUS
 10
-1.259346
 20
3.729976
  0
VERTEX
  8
PLAN_1
  6
CONTINUOUS
 10
-1.256909
 20
3.725591
  0
VERTEX
  8
PLAN_1
  6
CONTINUOUS
 10
-1.253988
 20
3.720717
  0
VERTEX
  8
PLAN_1
  6
CONTINUOUS
 10
-1.249602
 20
3.716331
  0
SEQEND
  8
0
  0
POLYLINE
  8
PLAN_1
  6
CONTINUOUS
 66
     1
 40
0.005358
 41
0.005358
  0
VERTEX
  8
PLAN_1
  6
CONTINUOUS
 10
-1.249602
 20
3.716331
  0
VERTEX
  8
PLAN_1
  6
CONTINUOUS
 10
-0.968945
 20
3.716331
  0
SEQEND
  8
0
  0
POLYLINE
  8
PLAN_1
  6
CONTINUOUS
 66
     1
 40
0.005358
 41
0.005358
  0
VERTEX
  8
PLAN_1
  6
CONTINUOUS
 10
-0.969433
 20
3.671020
  0
VERTEX
  8
PLAN_1
  6
CONTINUOUS
 10
-0.964559
 20
3.675402
  0
VERTEX
  8
PLAN_1
  6
CONTINUOUS
 10
-0.961150
 20
3.679787
  0
VERTEX
  8
PLAN_1
  6
CONTINUOUS
 10
-0.958713
 20
3.683685
  0
VERTEX
  8
PLAN_1
  6
CONTINUOUS
 10
-0.957252
 20
3.688071
  0
VERTEX
  8
PLAN_1
  6
CONTINUOUS
 10
-0.956764
 20
3.691969
  0
VERTEX
  8
PLAN_1
  6
CONTINUOUS
 10
-0.956764
 20
3.695866
  0
VERTEX
  8
PLAN_1
  6
CONTINUOUS
 10
-0.957252
 20
3.699280
  0
VERTEX
  8
PLAN_1
  6
CONTINUOUS
 10
-0.958713
 20
3.702689
  0
VERTEX
  8
PLAN_1
  6
CONTINUOUS
 10
-0.960173
 20
3.705614
  0
VERTEX
  8
PLAN_1
  6
CONTINUOUS
 10
-0.961638
 20
3.708535
  0
VERTEX
  8
PLAN_1
  6
CONTINUOUS
 10
-0.963587
 20
3.710484
  0
VERTEX
  8
PLAN_1
  6
CONTINUOUS
 10
-0.965047
 20
3.712921
  0
VERTEX
  8
PLAN_1
  6
CONTINUOUS
 10
-0.967972
 20
3.715358
  0
VERTEX
  8
PLAN_1
  6
CONTINUOUS
 10
-0.969433
 20
3.716331
  0
SEQEND
  8
0
  0
POLYLINE
  8
PLAN_1
  6
CONTINUOUS
 66
     1
 40
0.005358
 41
0.005358
  0
VERTEX
  8
PLAN_1
  6
CONTINUOUS
 10
-0.969433
 20
3.716331
  0
VERTEX
  8
PLAN_1
  6
CONTINUOUS
 10
-1.250087
 20
3.716331
  0
SEQEND
  8
0
  0
POLYLINE
  8
PLAN_1
  6
CONTINUOUS
 66
     1
 40
0.005358
 41
0.005358
  0
VERTEX
  8
PLAN_1
  6
CONTINUOUS
 10
-1.250087
 20
3.716331
  0
VERTEX
  8
PLAN_1
  6
CONTINUOUS
 10
-1.251063
 20
3.715846
  0
VERTEX
  8
PLAN_1
  6
CONTINUOUS
 10
-1.253500
 20
3.712921
  0
VERTEX
  8
PLAN_1
  6
CONTINUOUS
 10
-1.256909
 20
3.709024
  0
VERTEX
  8
PLAN_1
  6
CONTINUOUS
 10
-1.259835
 20
3.703177
  0
VERTEX
  8
PLAN_1
  6
CONTINUOUS
 10
-1.260807
 20
3.699768
  0
VERTEX
  8
PLAN_1
  6
CONTINUOUS
 10
-1.261295
 20
3.696354
  0
VERTEX
  8
PLAN_1
  6
CONTINUOUS
 10
-1.261295
 20
3.692945
  0
VERTEX
  8
PLAN_1
  6
CONTINUOUS
 10
-1.260807
 20
3.688559
  0
VERTEX
  8
PLAN_1
  6
CONTINUOUS
 10
-1.259835
 20
3.684661
  0
VERTEX
  8
PLAN_1
  6
CONTINUOUS
 10
-1.257398
 20
3.680276
  0
VERTEX
  8
PLAN_1
  6
CONTINUOUS
 10
-1.254472
 20
3.675402
  0
VERTEX
  8
PLAN_1
  6
CONTINUOUS
 10
-1.250087
 20
3.671020
  0
SEQEND
  8
0
  0
POLYLINE
  8
PLAN_1
  6
CONTINUOUS
 66
     1
 40
0.005358
 41
0.005358
  0
VERTEX
  8
PLAN_1
  6
CONTINUOUS
 10
-1.250087
 20
3.671020
  0
VERTEX
  8
PLAN_1
  6
CONTINUOUS
 10
-0.969433
 20
3.671020
  0
SEQEND
  8
0
  0
POLYLINE
  8
PLAN_1
  6
CONTINUOUS
 66
     1
 40
0.005358
 41
0.005358
  0
VERTEX
  8
PLAN_1
  6
CONTINUOUS
 10
-0.968945
 20
3.625705
  0
VERTEX
  8
PLAN_1
  6
CONTINUOUS
 10
-0.964071
 20
3.630091
  0
VERTEX
  8
PLAN_1
  6
CONTINUOUS
 10
-0.960661
 20
3.634472
  0
VERTEX
  8
PLAN_1
  6
CONTINUOUS
 10
-0.958224
 20
3.638858
  0
VERTEX
  8
PLAN_1
  6
CONTINUOUS
 10
-0.956764
 20
3.642756
  0
VERTEX
  8
PLAN_1
  6
CONTINUOUS
 10
-0.956276
 20
3.646654
  0
VERTEX
  8
PLAN_1
  6
CONTINUOUS
 10
-0.956276
 20
3.650555
  0
VERTEX
  8
PLAN_1
  6
CONTINUOUS
 10
-0.956764
 20
3.653965
  0
VERTEX
  8
PLAN_1
  6
CONTINUOUS
 10
-0.958224
 20
3.657374
  0
VERTEX
  8
PLAN_1
  6
CONTINUOUS
 10
-0.959689
 20
3.660299
  0
VERTEX
  8
PLAN_1
  6
CONTINUOUS
 10
-0.961150
 20
3.663220
  0
VERTEX
  8
PLAN_1
  6
CONTINUOUS
 10
-0.963098
 20
3.665657
  0
VERTEX
  8
PLAN_1
  6
CONTINUOUS
 10
-0.965047
 20
3.667606
  0
VERTEX
  8
PLAN_1
  6
CONTINUOUS
 10
-0.967484
 20
3.670531
  0
VERTEX
  8
PLAN_1
  6
CONTINUOUS
 10
-0.968945
 20
3.671504
  0
SEQEND
  8
0
  0
POLYLINE
  8
PLAN_1
  6
CONTINUOUS
 66
     1
 40
0.005358
 41
0.005358
  0
VERTEX
  8
PLAN_1
  6
CONTINUOUS
 10
-0.968945
 20
3.671504
  0
VERTEX
  8
PLAN_1
  6
CONTINUOUS
 10
-1.249602
 20
3.671504
  0
SEQEND
  8
0
  0
POLYLINE
  8
PLAN_1
  6
CONTINUOUS
 66
     1
 40
0.005358
 41
0.005358
  0
VERTEX
  8
PLAN_1
  6
CONTINUOUS
 10
-1.249602
 20
3.671504
  0
VERTEX
  8
PLAN_1
  6
CONTINUOUS
 10
-1.250575
 20
3.670531
  0
VERTEX
  8
PLAN_1
  6
CONTINUOUS
 10
-1.253500
 20
3.667606
  0
VERTEX
  8
PLAN_1
  6
CONTINUOUS
 10
-1.256421
 20
3.663709
  0
VERTEX
  8
PLAN_1
  6
CONTINUOUS
 10
-1.259346
 20
3.657862
  0
VERTEX
  8
PLAN_1
  6
CONTINUOUS
 10
-1.260319
 20
3.654937
  0
VERTEX
  8
PLAN_1
  6
CONTINUOUS
 10
-1.260807
 20
3.651039
  0
VERTEX
  8
PLAN_1
  6
CONTINUOUS
 10
-1.260807
 20
3.647630
  0
VERTEX
  8
PLAN_1
  6
CONTINUOUS
 10
-1.260319
 20
3.643244
  0
VERTEX
  8
PLAN_1
  6
CONTINUOUS
 10
-1.259346
 20
3.639346
  0
VERTEX
  8
PLAN_1
  6
CONTINUOUS
 10
-1.256909
 20
3.634961
  0
VERTEX
  8
PLAN_1
  6
CONTINUOUS
 10
-1.253988
 20
3.630091
  0
VERTEX
  8
PLAN_1
  6
CONTINUOUS
 10
-1.249602
 20
3.625705
  0
SEQEND
  8
0
  0
POLYLINE
  8
PLAN_1
  6
CONTINUOUS
 66
     1
 40
0.005358
 41
0.005358
  0
VERTEX
  8
PLAN_1
  6
CONTINUOUS
 10
-1.249602
 20
3.625705
  0
VERTEX
  8
PLAN_1
  6
CONTINUOUS
 10
-0.968945
 20
3.625705
  0
SEQEND
  8
0
  0
POLYLINE
  8
PLAN_1
  6
CONTINUOUS
 66
     1
 40
0.005358
 41
0.005358
  0
VERTEX
  8
PLAN_1
  6
CONTINUOUS
 10
-0.969433
 20
3.580390
  0
VERTEX
  8
PLAN_1
  6
CONTINUOUS
 10
-0.964559
 20
3.584776
  0
VERTEX
  8
PLAN_1
  6
CONTINUOUS
 10
-0.961150
 20
3.589161
  0
VERTEX
  8
PLAN_1
  6
CONTINUOUS
 10
-0.958713
 20
3.593543
  0
VERTEX
  8
PLAN_1
  6
CONTINUOUS
 10
-0.957252
 20
3.597445
  0
VERTEX
  8
PLAN_1
  6
CONTINUOUS
 10
-0.956764
 20
3.601343
  0
VERTEX
  8
PLAN_1
  6
CONTINUOUS
 10
-0.956764
 20
3.605240
  0
VERTEX
  8
PLAN_1
  6
CONTINUOUS
 10
-0.957252
 20
3.608650
  0
VERTEX
  8
PLAN_1
  6
CONTINUOUS
 10
-0.958713
 20
3.612059
  0
VERTEX
  8
PLAN_1
  6
CONTINUOUS
 10
-0.960173
 20
3.614984
  0
VERTEX
  8
PLAN_1
  6
CONTINUOUS
 10
-0.961638
 20
3.617909
  0
VERTEX
  8
PLAN_1
  6
CONTINUOUS
 10
-0.963587
 20
3.620343
  0
VERTEX
  8
PLAN_1
  6
CONTINUOUS
 10
-0.965047
 20
3.622291
  0
VERTEX
  8
PLAN_1
  6
CONTINUOUS
 10
-0.967972
 20
3.625217
  0
VERTEX
  8
PLAN_1
  6
CONTINUOUS
 10
-0.969433
 20
3.626193
  0
SEQEND
  8
0
  0
POLYLINE
  8
PLAN_1
  6
CONTINUOUS
 66
     1
 40
0.005358
 41
0.005358
  0
VERTEX
  8
PLAN_1
  6
CONTINUOUS
 10
-0.969433
 20
3.626193
  0
VERTEX
  8
PLAN_1
  6
CONTINUOUS
 10
-1.250087
 20
3.626193
  0
SEQEND
  8
0
  0
POLYLINE
  8
PLAN_1
  6
CONTINUOUS
 66
     1
 40
0.005358
 41
0.005358
  0
VERTEX
  8
PLAN_1
  6
CONTINUOUS
 10
-1.250087
 20
3.626193
  0
VERTEX
  8
PLAN_1
  6
CONTINUOUS
 10
-1.251063
 20
3.625217
  0
VERTEX
  8
PLAN_1
  6
CONTINUOUS
 10
-1.253500
 20
3.622291
  0
VERTEX
  8
PLAN_1
  6
CONTINUOUS
 10
-1.256909
 20
3.618394
  0
VERTEX
  8
PLAN_1
  6
CONTINUOUS
 10
-1.259835
 20
3.612547
  0
VERTEX
  8
PLAN_1
  6
CONTINUOUS
 10
-1.260807
 20
3.609626
  0
VERTEX
  8
PLAN_1
  6
CONTINUOUS
 10
-1.261295
 20
3.605728
  0
VERTEX
  8
PLAN_1
  6
CONTINUOUS
 10
-1.261295
 20
3.602315
  0
VERTEX
  8
PLAN_1
  6
CONTINUOUS
 10
-1.260807
 20
3.598417
  0
VERTEX
  8
PLAN_1
  6
CONTINUOUS
 10
-1.259835
 20
3.594031
  0
VERTEX
  8
PLAN_1
  6
CONTINUOUS
 10
-1.257398
 20
3.589646
  0
VERTEX
  8
PLAN_1
  6
CONTINUOUS
 10
-1.254472
 20
3.585264
  0
VERTEX
  8
PLAN_1
  6
CONTINUOUS
 10
-1.250087
 20
3.580390
  0
SEQEND
  8
0
  0
POLYLINE
  8
PLAN_1
  6
CONTINUOUS
 66
     1
 40
0.005358
 41
0.005358
  0
VERTEX
  8
PLAN_1
  6
CONTINUOUS
 10
-1.250087
 20
3.580390
  0
VERTEX
  8
PLAN_1
  6
CONTINUOUS
 10
-0.969433
 20
3.580390
  0
SEQEND
  8
0
  0
POLYLINE
  8
PLAN_1
  6
CONTINUOUS
 66
     1
 40
0.005358
 41
0.005358
  0
VERTEX
  8
PLAN_1
  6
CONTINUOUS
 10
-0.968945
 20
3.535075
  0
VERTEX
  8
PLAN_1
  6
CONTINUOUS
 10
-0.964071
 20
3.539461
  0
VERTEX
  8
PLAN_1
  6
CONTINUOUS
 10
-0.960661
 20
3.543846
  0
VERTEX
  8
PLAN_1
  6
CONTINUOUS
 10
-0.958224
 20
3.548232
  0
VERTEX
  8
PLAN_1
  6
CONTINUOUS
 10
-0.956764
 20
3.552130
  0
VERTEX
  8
PLAN_1
  6
CONTINUOUS
 10
-0.956276
 20
3.556028
  0
VERTEX
  8
PLAN_1
  6
CONTINUOUS
 10
-0.956276
 20
3.559925
  0
VERTEX
  8
PLAN_1
  6
CONTINUOUS
 10
-0.956764
 20
3.563335
  0
VERTEX
  8
PLAN_1
  6
CONTINUOUS
 10
-0.958224
 20
3.566748
  0
VERTEX
  8
PLAN_1
  6
CONTINUOUS
 10
-0.959689
 20
3.569669
  0
VERTEX
  8
PLAN_1
  6
CONTINUOUS
 10
-0.961150
 20
3.572594
  0
VERTEX
  8
PLAN_1
  6
CONTINUOUS
 10
-0.963098
 20
3.575031
  0
VERTEX
  8
PLAN_1
  6
CONTINUOUS
 10
-0.965047
 20
3.576980
  0
VERTEX
  8
PLAN_1
  6
CONTINUOUS
 10
-0.967484
 20
3.579902
  0
VERTEX
  8
PLAN_1
  6
CONTINUOUS
 10
-0.968945
 20
3.580878
  0
SEQEND
  8
0
  0
POLYLINE
  8
PLAN_1
  6
CONTINUOUS
 66
     1
 40
0.005358
 41
0.005358
  0
VERTEX
  8
PLAN_1
  6
CONTINUOUS
 10
-0.968945
 20
3.580878
  0
VERTEX
  8
PLAN_1
  6
CONTINUOUS
 10
-1.249602
 20
3.580878
  0
SEQEND
  8
0
  0
POLYLINE
  8
PLAN_1
  6
CONTINUOUS
 66
     1
 40
0.005358
 41
0.005358
  0
VERTEX
  8
PLAN_1
  6
CONTINUOUS
 10
-1.249602
 20
3.580878
  0
VERTEX
  8
PLAN_1
  6
CONTINUOUS
 10
-1.250575
 20
3.579902
  0
VERTEX
  8
PLAN_1
  6
CONTINUOUS
 10
-1.253500
 20
3.576980
  0
VERTEX
  8
PLAN_1
  6
CONTINUOUS
 10
-1.256421
 20
3.573083
  0
VERTEX
  8
PLAN_1
  6
CONTINUOUS
 10
-1.259346
 20
3.567232
  0
VERTEX
  8
PLAN_1
  6
CONTINUOUS
 10
-1.260319
 20
3.564311
  0
VERTEX
  8
PLAN_1
  6
CONTINUOUS
 10
-1.260807
 20
3.560898
  0
VERTEX
  8
PLAN_1
  6
CONTINUOUS
 10
-1.260807
 20
3.557000
  0
VERTEX
  8
PLAN_1
  6
CONTINUOUS
 10
-1.260319
 20
3.553102
  0
VERTEX
  8
PLAN_1
  6
CONTINUOUS
 10
-1.259346
 20
3.548717
  0
VERTEX
  8
PLAN_1
  6
CONTINUOUS
 10
-1.256909
 20
3.544335
  0
VERTEX
  8
PLAN_1
  6
CONTINUOUS
 10
-1.253988
 20
3.539949
  0
VERTEX
  8
PLAN_1
  6
CONTINUOUS
 10
-1.249602
 20
3.535075
  0
SEQEND
  8
0
  0
POLYLINE
  8
PLAN_1
  6
CONTINUOUS
 66
     1
 40
0.005358
 41
0.005358
  0
VERTEX
  8
PLAN_1
  6
CONTINUOUS
 10
-1.249602
 20
3.535075
  0
VERTEX
  8
PLAN_1
  6
CONTINUOUS
 10
-0.968945
 20
3.535075
  0
SEQEND
  8
0
  0
POLYLINE
  8
PLAN_1
  6
CONTINUOUS
 66
     1
 40
0.005358
 41
0.005358
  0
VERTEX
  8
PLAN_1
  6
CONTINUOUS
 10
-0.969433
 20
3.489760
  0
VERTEX
  8
PLAN_1
  6
CONTINUOUS
 10
-0.964559
 20
3.494146
  0
VERTEX
  8
PLAN_1
  6
CONTINUOUS
 10
-0.961150
 20
3.498531
  0
VERTEX
  8
PLAN_1
  6
CONTINUOUS
 10
-0.958713
 20
3.502917
  0
VERTEX
  8
PLAN_1
  6
CONTINUOUS
 10
-0.957252
 20
3.506815
  0
VERTEX
  8
PLAN_1
  6
CONTINUOUS
 10
-0.956764
 20
3.510713
  0
VERTEX
  8
PLAN_1
  6
CONTINUOUS
 10
-0.956764
 20
3.514610
  0
VERTEX
  8
PLAN_1
  6
CONTINUOUS
 10
-0.957252
 20
3.518020
  0
VERTEX
  8
PLAN_1
  6
CONTINUOUS
 10
-0.958713
 20
3.521433
  0
VERTEX
  8
PLAN_1
  6
CONTINUOUS
 10
-0.960173
 20
3.524354
  0
VERTEX
  8
PLAN_1
  6
CONTINUOUS
 10
-0.961638
 20
3.527280
  0
VERTEX
  8
PLAN_1
  6
CONTINUOUS
 10
-0.963587
 20
3.529717
  0
VERTEX
  8
PLAN_1
  6
CONTINUOUS
 10
-0.965047
 20
3.531665
  0
VERTEX
  8
PLAN_1
  6
CONTINUOUS
 10
-0.967972
 20
3.534587
  0
VERTEX
  8
PLAN_1
  6
CONTINUOUS
 10
-0.969433
 20
3.535563
  0
SEQEND
  8
0
  0
POLYLINE
  8
PLAN_1
  6
CONTINUOUS
 66
     1
 40
0.005358
 41
0.005358
  0
VERTEX
  8
PLAN_1
  6
CONTINUOUS
 10
-0.969433
 20
3.535563
  0
VERTEX
  8
PLAN_1
  6
CONTINUOUS
 10
-1.250087
 20
3.535563
  0
SEQEND
  8
0
  0
POLYLINE
  8
PLAN_1
  6
CONTINUOUS
 66
     1
 40
0.005358
 41
0.005358
  0
VERTEX
  8
PLAN_1
  6
CONTINUOUS
 10
-1.250087
 20
3.535563
  0
VERTEX
  8
PLAN_1
  6
CONTINUOUS
 10
-1.251063
 20
3.534587
  0
VERTEX
  8
PLAN_1
  6
CONTINUOUS
 10
-1.253500
 20
3.532154
  0
VERTEX
  8
PLAN_1
  6
CONTINUOUS
 10
-1.256909
 20
3.527768
  0
VERTEX
  8
PLAN_1
  6
CONTINUOUS
 10
-1.259835
 20
3.522406
  0
VERTEX
  8
PLAN_1
  6
CONTINUOUS
 10
-1.260807
 20
3.518996
  0
VERTEX
  8
PLAN_1
  6
CONTINUOUS
 10
-1.261295
 20
3.515587
  0
VERTEX
  8
PLAN_1
  6
CONTINUOUS
 10
-1.261295
 20
3.511689
  0
VERTEX
  8
PLAN_1
  6
CONTINUOUS
 10
-1.260807
 20
3.507787
  0
VERTEX
  8
PLAN_1
  6
CONTINUOUS
 10
-1.259835
 20
3.503406
  0
VERTEX
  8
PLAN_1
  6
CONTINUOUS
 10
-1.257398
 20
3.499020
  0
VERTEX
  8
PLAN_1
  6
CONTINUOUS
 10
-1.254472
 20
3.494634
  0
VERTEX
  8
PLAN_1
  6
CONTINUOUS
 10
-1.250087
 20
3.489760
  0
SEQEND
  8
0
  0
POLYLINE
  8
PLAN_1
  6
CONTINUOUS
 66
     1
 40
0.005358
 41
0.005358
  0
VERTEX
  8
PLAN_1
  6
CONTINUOUS
 10
-1.250087
 20
3.489760
  0
VERTEX
  8
PLAN_1
  6
CONTINUOUS
 10
-0.969433
 20
3.489760
  0
SEQEND
  8
0
  0
POLYLINE
  8
PLAN_1
  6
CONTINUOUS
 66
     1
 40
0.005358
 41
0.005358
  0
VERTEX
  8
PLAN_1
  6
CONTINUOUS
 10
-0.968945
 20
3.444445
  0
VERTEX
  8
PLAN_1
  6
CONTINUOUS
 10
-0.964071
 20
3.448831
  0
VERTEX
  8
PLAN_1
  6
CONTINUOUS
 10
-0.960661
 20
3.453217
  0
VERTEX
  8
PLAN_1
  6
CONTINUOUS
 10
-0.958224
 20
3.457602
  0
VERTEX
  8
PLAN_1
  6
CONTINUOUS
 10
-0.956764
 20
3.461500
  0
VERTEX
  8
PLAN_1
  6
CONTINUOUS
 10
-0.956276
 20
3.465886
  0
VERTEX
  8
PLAN_1
  6
CONTINUOUS
 10
-0.956276
 20
3.469295
  0
VERTEX
  8
PLAN_1
  6
CONTINUOUS
 10
-0.956764
 20
3.473193
  0
VERTEX
  8
PLAN_1
  6
CONTINUOUS
 10
-0.958224
 20
3.476118
  0
VERTEX
  8
PLAN_1
  6
CONTINUOUS
 10
-0.959689
 20
3.479528
  0
VERTEX
  8
PLAN_1
  6
CONTINUOUS
 10
-0.961150
 20
3.481965
  0
VERTEX
  8
PLAN_1
  6
CONTINUOUS
 10
-0.963098
 20
3.484402
  0
VERTEX
  8
PLAN_1
  6
CONTINUOUS
 10
-0.965047
 20
3.486350
  0
VERTEX
  8
PLAN_1
  6
CONTINUOUS
 10
-0.967484
 20
3.489276
  0
VERTEX
  8
PLAN_1
  6
CONTINUOUS
 10
-0.968945
 20
3.490248
  0
SEQEND
  8
0
  0
POLYLINE
  8
PLAN_1
  6
CONTINUOUS
 66
     1
 40
0.005358
 41
0.005358
  0
VERTEX
  8
PLAN_1
  6
CONTINUOUS
 10
-0.968945
 20
3.490248
  0
VERTEX
  8
PLAN_1
  6
CONTINUOUS
 10
-1.249602
 20
3.490248
  0
SEQEND
  8
0
  0
POLYLINE
  8
PLAN_1
  6
CONTINUOUS
 66
     1
 40
0.005358
 41
0.005358
  0
VERTEX
  8
PLAN_1
  6
CONTINUOUS
 10
-1.249602
 20
3.490248
  0
VERTEX
  8
PLAN_1
  6
CONTINUOUS
 10
-1.250575
 20
3.489276
  0
VERTEX
  8
PLAN_1
  6
CONTINUOUS
 10
-1.253500
 20
3.486839
  0
VERTEX
  8
PLAN_1
  6
CONTINUOUS
 10
-1.256421
 20
3.482453
  0
VERTEX
  8
PLAN_1
  6
CONTINUOUS
 10
-1.259346
 20
3.477091
  0
VERTEX
  8
PLAN_1
  6
CONTINUOUS
 10
-1.260319
 20
3.473681
  0
VERTEX
  8
PLAN_1
  6
CONTINUOUS
 10
-1.260807
 20
3.470272
  0
VERTEX
  8
PLAN_1
  6
CONTINUOUS
 10
-1.260807
 20
3.466374
  0
VERTEX
  8
PLAN_1
  6
CONTINUOUS
 10
-1.260319
 20
3.462476
  0
VERTEX
  8
PLAN_1
  6
CONTINUOUS
 10
-1.259346
 20
3.458091
  0
VERTEX
  8
PLAN_1
  6
CONTINUOUS
 10
-1.256909
 20
3.453705
  0
VERTEX
  8
PLAN_1
  6
CONTINUOUS
 10
-1.253988
 20
3.449319
  0
VERTEX
  8
PLAN_1
  6
CONTINUOUS
 10
-1.249602
 20
3.444445
  0
SEQEND
  8
0
  0
POLYLINE
  8
PLAN_1
  6
CONTINUOUS
 66
     1
 40
0.005358
 41
0.005358
  0
VERTEX
  8
PLAN_1
  6
CONTINUOUS
 10
-1.249602
 20
3.444445
  0
VERTEX
  8
PLAN_1
  6
CONTINUOUS
 10
-0.968945
 20
3.444445
  0
SEQEND
  8
0
  0
POLYLINE
  8
PLAN_1
  6
CONTINUOUS
 66
     1
 40
0.005358
 41
0.005358
  0
VERTEX
  8
PLAN_1
  6
CONTINUOUS
 10
-0.969433
 20
3.399134
  0
VERTEX
  8
PLAN_1
  6
CONTINUOUS
 10
-0.964559
 20
3.403520
  0
VERTEX
  8
PLAN_1
  6
CONTINUOUS
 10
-0.961150
 20
3.407902
  0
VERTEX
  8
PLAN_1
  6
CONTINUOUS
 10
-0.958713
 20
3.412287
  0
VERTEX
  8
PLAN_1
  6
CONTINUOUS
 10
-0.957252
 20
3.416673
  0
VERTEX
  8
PLAN_1
  6
CONTINUOUS
 10
-0.956764
 20
3.420571
  0
VERTEX
  8
PLAN_1
  6
CONTINUOUS
 10
-0.956764
 20
3.423980
  0
VERTEX
  8
PLAN_1
  6
CONTINUOUS
 10
-0.957252
 20
3.427882
  0
VERTEX
  8
PLAN_1
  6
CONTINUOUS
 10
-0.958713
 20
3.430803
  0
VERTEX
  8
PLAN_1
  6
CONTINUOUS
 10
-0.960173
 20
3.434213
  0
VERTEX
  8
PLAN_1
  6
CONTINUOUS
 10
-0.961638
 20
3.436650
  0
VERTEX
  8
PLAN_1
  6
CONTINUOUS
 10
-0.963587
 20
3.439087
  0
VERTEX
  8
PLAN_1
  6
CONTINUOUS
 10
-0.965047
 20
3.441035
  0
VERTEX
  8
PLAN_1
  6
CONTINUOUS
 10
-0.967972
 20
3.443961
  0
VERTEX
  8
PLAN_1
  6
CONTINUOUS
 10
-0.969433
 20
3.444933
  0
SEQEND
  8
0
  0
POLYLINE
  8
PLAN_1
  6
CONTINUOUS
 66
     1
 40
0.005358
 41
0.005358
  0
VERTEX
  8
PLAN_1
  6
CONTINUOUS
 10
-0.969433
 20
3.444933
  0
VERTEX
  8
PLAN_1
  6
CONTINUOUS
 10
-1.250087
 20
3.444933
  0
SEQEND
  8
0
  0
POLYLINE
  8
PLAN_1
  6
CONTINUOUS
 66
     1
 40
0.005358
 41
0.005358
  0
VERTEX
  8
PLAN_1
  6
CONTINUOUS
 10
-1.250087
 20
3.444933
  0
VERTEX
  8
PLAN_1
  6
CONTINUOUS
 10
-1.251063
 20
3.443961
  0
VERTEX
  8
PLAN_1
  6
CONTINUOUS
 10
-1.253500
 20
3.441524
  0
VERTEX
  8
PLAN_1
  6
CONTINUOUS
 10
-1.256909
 20
3.437138
  0
VERTEX
  8
PLAN_1
  6
CONTINUOUS
 10
-1.259835
 20
3.431780
  0
VERTEX
  8
PLAN_1
  6
CONTINUOUS
 10
-1.260807
 20
3.428366
  0
VERTEX
  8
PLAN_1
  6
CONTINUOUS
 10
-1.261295
 20
3.424957
  0
VERTEX
  8
PLAN_1
  6
CONTINUOUS
 10
-1.261295
 20
3.421059
  0
VERTEX
  8
PLAN_1
  6
CONTINUOUS
 10
-1.260807
 20
3.417161
  0
VERTEX
  8
PLAN_1
  6
CONTINUOUS
 10
-1.259835
 20
3.412776
  0
VERTEX
  8
PLAN_1
  6
CONTINUOUS
 10
-1.257398
 20
3.408390
  0
VERTEX
  8
PLAN_1
  6
CONTINUOUS
 10
-1.254472
 20
3.404004
  0
VERTEX
  8
PLAN_1
  6
CONTINUOUS
 10
-1.250087
 20
3.399134
  0
SEQEND
  8
0
  0
POLYLINE
  8
PLAN_1
  6
CONTINUOUS
 66
     1
 40
0.005358
 41
0.005358
  0
VERTEX
  8
PLAN_1
  6
CONTINUOUS
 10
-1.250087
 20
3.399134
  0
VERTEX
  8
PLAN_1
  6
CONTINUOUS
 10
-0.969433
 20
3.399134
  0
SEQEND
  8
0
  0
POLYLINE
  8
PLAN_1
  6
CONTINUOUS
 66
     1
 40
0.005358
 41
0.005358
  0
VERTEX
  8
PLAN_1
  6
CONTINUOUS
 10
-0.968945
 20
3.354307
  0
VERTEX
  8
PLAN_1
  6
CONTINUOUS
 10
-0.964071
 20
3.358689
  0
VERTEX
  8
PLAN_1
  6
CONTINUOUS
 10
-0.960661
 20
3.362591
  0
VERTEX
  8
PLAN_1
  6
CONTINUOUS
 10
-0.958224
 20
3.366972
  0
VERTEX
  8
PLAN_1
  6
CONTINUOUS
 10
-0.956764
 20
3.371358
  0
VERTEX
  8
PLAN_1
  6
CONTINUOUS
 10
-0.956276
 20
3.375256
  0
VERTEX
  8
PLAN_1
  6
CONTINUOUS
 10
-0.956276
 20
3.379154
  0
VERTEX
  8
PLAN_1
  6
CONTINUOUS
 10
-0.956764
 20
3.382567
  0
VERTEX
  8
PLAN_1
  6
CONTINUOUS
 10
-0.958224
 20
3.385976
  0
VERTEX
  8
PLAN_1
  6
CONTINUOUS
 10
-0.959689
 20
3.388902
  0
VERTEX
  8
PLAN_1
  6
CONTINUOUS
 10
-0.961150
 20
3.391335
  0
VERTEX
  8
PLAN_1
  6
CONTINUOUS
 10
-0.963098
 20
3.393772
  0
VERTEX
  8
PLAN_1
  6
CONTINUOUS
 10
-0.965047
 20
3.395720
  0
VERTEX
  8
PLAN_1
  6
CONTINUOUS
 10
-0.967484
 20
3.398646
  0
VERTEX
  8
PLAN_1
  6
CONTINUOUS
 10
-0.968945
 20
3.399618
  0
SEQEND
  8
0
  0
POLYLINE
  8
PLAN_1
  6
CONTINUOUS
 66
     1
 40
0.005358
 41
0.005358
  0
VERTEX
  8
PLAN_1
  6
CONTINUOUS
 10
-0.968945
 20
3.399618
  0
VERTEX
  8
PLAN_1
  6
CONTINUOUS
 10
-1.249602
 20
3.399618
  0
SEQEND
  8
0
  0
POLYLINE
  8
PLAN_1
  6
CONTINUOUS
 66
     1
 40
0.005358
 41
0.005358
  0
VERTEX
  8
PLAN_1
  6
CONTINUOUS
 10
-1.249602
 20
3.399618
  0
VERTEX
  8
PLAN_1
  6
CONTINUOUS
 10
-1.250575
 20
3.398646
  0
VERTEX
  8
PLAN_1
  6
CONTINUOUS
 10
-1.253500
 20
3.396209
  0
VERTEX
  8
PLAN_1
  6
CONTINUOUS
 10
-1.256421
 20
3.391823
  0
VERTEX
  8
PLAN_1
  6
CONTINUOUS
 10
-1.259346
 20
3.386465
  0
VERTEX
  8
PLAN_1
  6
CONTINUOUS
 10
-1.260319
 20
3.383055
  0
VERTEX
  8
PLAN_1
  6
CONTINUOUS
 10
-1.260807
 20
3.379642
  0
VERTEX
  8
PLAN_1
  6
CONTINUOUS
 10
-1.260807
 20
3.375744
  0
VERTEX
  8
PLAN_1
  6
CONTINUOUS
 10
-1.260319
 20
3.371846
  0
VERTEX
  8
PLAN_1
  6
CONTINUOUS
 10
-1.259346
 20
3.367461
  0
VERTEX
  8
PLAN_1
  6
CONTINUOUS
 10
-1.256909
 20
3.363075
  0
VERTEX
  8
PLAN_1
  6
CONTINUOUS
 10
-1.253988
 20
3.358689
  0
VERTEX
  8
PLAN_1
  6
CONTINUOUS
 10
-1.249602
 20
3.354307
  0
SEQEND
  8
0
  0
POLYLINE
  8
PLAN_1
  6
CONTINUOUS
 66
     1
 40
0.005358
 41
0.005358
  0
VERTEX
  8
PLAN_1
  6
CONTINUOUS
 10
-1.249602
 20
3.354307
  0
VERTEX
  8
PLAN_1
  6
CONTINUOUS
 10
-0.968945
 20
3.354307
  0
SEQEND
  8
0
  0
POLYLINE
  8
PLAN_1
  6
CONTINUOUS
 66
     1
 40
0.005358
 41
0.005358
  0
VERTEX
  8
PLAN_1
  6
CONTINUOUS
 10
-0.957252
 20
3.326043
  0
VERTEX
  8
PLAN_1
  6
CONTINUOUS
 10
-0.956764
 20
3.328969
  0
VERTEX
  8
PLAN_1
  6
CONTINUOUS
 10
-0.956764
 20
3.331894
  0
VERTEX
  8
PLAN_1
  6
CONTINUOUS
 10
-0.956764
 20
3.334815
  0
VERTEX
  8
PLAN_1
  6
CONTINUOUS
 10
-0.957252
 20
3.337252
  0
VERTEX
  8
PLAN_1
  6
CONTINUOUS
 10
-0.959201
 20
3.342126
  0
VERTEX
  8
PLAN_1
  6
CONTINUOUS
 10
-0.961638
 20
3.346508
  0
VERTEX
  8
PLAN_1
  6
CONTINUOUS
 10
-0.964559
 20
3.349921
  0
VERTEX
  8
PLAN_1
  6
CONTINUOUS
 10
-0.966996
 20
3.352358
  0
VERTEX
  8
PLAN_1
  6
CONTINUOUS
 10
-0.968457
 20
3.353819
  0
VERTEX
  8
PLAN_1
  6
CONTINUOUS
 10
-0.969433
 20
3.354307
  0
SEQEND
  8
0
  0
POLYLINE
  8
PLAN_1
  6
CONTINUOUS
 66
     1
 40
0.005358
 41
0.005358
  0
VERTEX
  8
PLAN_1
  6
CONTINUOUS
 10
-0.969433
 20
3.354307
  0
VERTEX
  8
PLAN_1
  6
CONTINUOUS
 10
-1.250087
 20
3.354307
  0
SEQEND
  8
0
  0
POLYLINE
  8
PLAN_1
  6
CONTINUOUS
 66
     1
 40
0.005358
 41
0.005358
  0
VERTEX
  8
PLAN_1
  6
CONTINUOUS
 10
-1.250087
 20
3.354307
  0
VERTEX
  8
PLAN_1
  6
CONTINUOUS
 10
-1.251063
 20
3.353331
  0
VERTEX
  8
PLAN_1
  6
CONTINUOUS
 10
-1.253500
 20
3.350894
  0
VERTEX
  8
PLAN_1
  6
CONTINUOUS
 10
-1.256909
 20
3.346508
  0
VERTEX
  8
PLAN_1
  6
CONTINUOUS
 10
-1.259835
 20
3.341150
  0
VERTEX
  8
PLAN_1
  6
CONTINUOUS
 10
-1.260807
 20
3.337740
  0
VERTEX
  8
PLAN_1
  6
CONTINUOUS
 10
-1.261295
 20
3.334327
  0
VERTEX
  8
PLAN_1
  6
CONTINUOUS
 10
-1.261295
 20
3.330429
  0
VERTEX
  8
PLAN_1
  6
CONTINUOUS
 10
-1.260807
 20
3.326531
  0
VERTEX
  8
PLAN_1
  6
CONTINUOUS
 10
-1.259835
 20
3.322634
  0
VERTEX
  8
PLAN_1
  6
CONTINUOUS
 10
-1.257398
 20
3.318248
  0
VERTEX
  8
PLAN_1
  6
CONTINUOUS
 10
-1.254472
 20
3.313378
  0
VERTEX
  8
PLAN_1
  6
CONTINUOUS
 10
-1.250087
 20
3.308992
  0
SEQEND
  8
0
  0
POLYLINE
  8
PLAN_1
  6
CONTINUOUS
 66
     1
 40
0.005358
 41
0.005358
  0
VERTEX
  8
PLAN_1
  6
CONTINUOUS
 10
-0.987949
 20
3.308992
  0
VERTEX
  8
PLAN_1
  6
CONTINUOUS
 10
-1.249602
 20
3.308992
  0
SEQEND
  8
0
  0
POLYLINE
  8
PLAN_1
  6
CONTINUOUS
 66
     1
 40
0.005358
 41
0.005358
  0
VERTEX
  8
PLAN_1
  6
CONTINUOUS
 10
-1.249602
 20
3.308992
  0
VERTEX
  8
PLAN_1
  6
CONTINUOUS
 10
-1.250575
 20
3.308504
  0
VERTEX
  8
PLAN_1
  6
CONTINUOUS
 10
-1.253500
 20
3.305579
  0
VERTEX
  8
PLAN_1
  6
CONTINUOUS
 10
-1.256421
 20
3.301681
  0
VERTEX
  8
PLAN_1
  6
CONTINUOUS
 10
-1.259346
 20
3.295835
  0
VERTEX
  8
PLAN_1
  6
CONTINUOUS
 10
-1.260319
 20
3.292425
  0
VERTEX
  8
PLAN_1
  6
CONTINUOUS
 10
-1.260807
 20
3.289016
  0
VERTEX
  8
PLAN_1
  6
CONTINUOUS
 10
-1.260807
 20
3.285602
  0
VERTEX
  8
PLAN_1
  6
CONTINUOUS
 10
-1.260319
 20
3.281217
  0
VERTEX
  8
PLAN_1
  6
CONTINUOUS
 10
-1.259346
 20
3.277319
  0
VERTEX
  8
PLAN_1
  6
CONTINUOUS
 10
-1.256909
 20
3.272933
  0
VERTEX
  8
PLAN_1
  6
CONTINUOUS
 10
-1.253988
 20
3.268063
  0
VERTEX
  8
PLAN_1
  6
CONTINUOUS
 10
-1.249602
 20
3.263677
  0
SEQEND
  8
0
  0
POLYLINE
  8
PLAN_1
  6
CONTINUOUS
 66
     1
 40
0.005358
 41
0.005358
  0
VERTEX
  8
PLAN_1
  6
CONTINUOUS
 10
-1.249602
 20
3.263677
  0
VERTEX
  8
PLAN_1
  6
CONTINUOUS
 10
-1.064445
 20
3.263677
  0
SEQEND
  8
0
  0
POLYLINE
  8
PLAN_1
  6
CONTINUOUS
 66
     1
 40
0.008280
 41
0.008280
  0
VERTEX
  8
PLAN_1
  6
CONTINUOUS
 10
-0.969433
 20
1.994390
  0
VERTEX
  8
PLAN_1
  6
CONTINUOUS
 10
-0.960173
 20
1.993902
  0
VERTEX
  8
PLAN_1
  6
CONTINUOUS
 10
-0.950917
 20
1.992929
  0
VERTEX
  8
PLAN_1
  6
CONTINUOUS
 10
-0.942146
 20
1.990980
  0
VERTEX
  8
PLAN_1
  6
CONTINUOUS
 10
-0.933862
 20
1.988543
  0
VERTEX
  8
PLAN_1
  6
CONTINUOUS
 10
-0.926067
 20
1.985622
  0
VERTEX
  8
PLAN_1
  6
CONTINUOUS
 10
-0.918272
 20
1.982697
  0
VERTEX
  8
PLAN_1
  6
CONTINUOUS
 10
-0.910961
 20
1.979287
  0
VERTEX
  8
PLAN_1
  6
CONTINUOUS
 10
-0.904630
 20
1.975874
  0
VERTEX
  8
PLAN_1
  6
CONTINUOUS
 10
-0.893421
 20
1.969055
  0
VERTEX
  8
PLAN_1
  6
CONTINUOUS
 10
-0.884650
 20
1.962720
  0
VERTEX
  8
PLAN_1
  6
CONTINUOUS
 10
-0.879291
 20
1.958335
  0
VERTEX
  8
PLAN_1
  6
CONTINUOUS
 10
-0.877343
 20
1.956874
  0
SEQEND
  8
0
  0
POLYLINE
  8
PLAN_1
  6
CONTINUOUS
 66
     1
 40
0.008280
 41
0.008280
  0
VERTEX
  8
PLAN_1
  6
CONTINUOUS
 10
-0.877343
 20
1.956874
  0
VERTEX
  8
PLAN_1
  6
CONTINUOUS
 10
-0.877343
 20
1.768795
  0
VERTEX
  8
PLAN_1
  6
CONTINUOUS
 10
-1.353874
 20
1.768795
  0
VERTEX
  8
PLAN_1
  6
CONTINUOUS
 10
-1.353874
 20
1.961256
  0
SEQEND
  8
0
  0
POLYLINE
  8
PLAN_1
  6
CONTINUOUS
 66
     1
 40
0.008280
 41
0.008280
  0
VERTEX
  8
PLAN_1
  6
CONTINUOUS
 10
-1.353874
 20
1.961256
  0
VERTEX
  8
PLAN_1
  6
CONTINUOUS
 10
-1.351437
 20
1.962720
  0
VERTEX
  8
PLAN_1
  6
CONTINUOUS
 10
-1.345591
 20
1.966130
  0
VERTEX
  8
PLAN_1
  6
CONTINUOUS
 10
-1.336331
 20
1.971488
  0
VERTEX
  8
PLAN_1
  6
CONTINUOUS
 10
-1.324150
 20
1.977823
  0
VERTEX
  8
PLAN_1
  6
CONTINUOUS
 10
-1.316843
 20
1.980748
  0
VERTEX
  8
PLAN_1
  6
CONTINUOUS
 10
-1.309047
 20
1.984157
  0
VERTEX
  8
PLAN_1
  6
CONTINUOUS
 10
-1.300764
 20
1.986594
  0
VERTEX
  8
PLAN_1
  6
CONTINUOUS
 10
-1.291992
 20
1.989520
  0
VERTEX
  8
PLAN_1
  6
CONTINUOUS
 10
-1.282736
 20
1.991469
  0
VERTEX
  8
PLAN_1
  6
CONTINUOUS
 10
-1.273476
 20
1.992929
  0
VERTEX
  8
PLAN_1
  6
CONTINUOUS
 10
-1.263732
 20
1.994390
  0
VERTEX
  8
PLAN_1
  6
CONTINUOUS
 10
-1.253500
 20
1.994390
  0
SEQEND
  8
0
  0
POLYLINE
  8
PLAN_1
  6
CONTINUOUS
 66
     1
 40
0.008280
 41
0.008280
  0
VERTEX
  8
PLAN_1
  6
CONTINUOUS
 10
-1.253500
 20
1.994390
  0
VERTEX
  8
PLAN_1
  6
CONTINUOUS
 10
-0.969433
 20
1.994390
  0
SEQEND
  8
0
  0
POLYLINE
  8
PLAN_1
  6
CONTINUOUS
 66
     1
 40
0.005358
 41
0.005358
  0
VERTEX
  8
PLAN_1
  6
CONTINUOUS
 10
-1.068831
 20
3.266114
  0
VERTEX
  8
PLAN_1
  6
CONTINUOUS
 10
-1.249602
 20
3.266114
  0
SEQEND
  8
0
  0
POLYLINE
  8
PLAN_1
  6
CONTINUOUS
 66
     1
 40
0.005358
 41
0.005358
  0
VERTEX
  8
PLAN_1
  6
CONTINUOUS
 10
-1.249602
 20
3.266114
  0
VERTEX
  8
PLAN_1
  6
CONTINUOUS
 10
-1.250575
 20
3.265138
  0
VERTEX
  8
PLAN_1
  6
CONTINUOUS
 10
-1.253500
 20
3.262701
  0
VERTEX
  8
PLAN_1
  6
CONTINUOUS
 10
-1.256421
 20
3.258319
  0
VERTEX
  8
PLAN_1
  6
CONTINUOUS
 10
-1.259346
 20
3.252957
  0
VERTEX
  8
PLAN_1
  6
CONTINUOUS
 10
-1.260319
 20
3.249547
  0
VERTEX
  8
PLAN_1
  6
CONTINUOUS
 10
-1.260807
 20
3.246138
  0
VERTEX
  8
PLAN_1
  6
CONTINUOUS
 10
-1.260807
 20
3.242236
  0
VERTEX
  8
PLAN_1
  6
CONTINUOUS
 10
-1.260319
 20
3.238339
  0
VERTEX
  8
PLAN_1
  6
CONTINUOUS
 10
-1.259346
 20
3.234441
  0
VERTEX
  8
PLAN_1
  6
CONTINUOUS
 10
-1.256909
 20
3.230055
  0
VERTEX
  8
PLAN_1
  6
CONTINUOUS
 10
-1.253988
 20
3.225185
  0
VERTEX
  8
PLAN_1
  6
CONTINUOUS
 10
-1.249602
 20
3.220799
  0
SEQEND
  8
0
  0
POLYLINE
  8
PLAN_1
  6
CONTINUOUS
 66
     1
 40
0.005358
 41
0.005358
  0
VERTEX
  8
PLAN_1
  6
CONTINUOUS
 10
-1.249602
 20
3.220799
  0
VERTEX
  8
PLAN_1
  6
CONTINUOUS
 10
-1.136559
 20
3.220799
  0
SEQEND
  8
0
  0
POLYLINE
  8
PLAN_1
 62
     5
  6
CONTINUOUS
 66
     1
 40
0.003000
 41
0.003000
  0
VERTEX
  8
PLAN_1
 62
     5
  6
CONTINUOUS
 10
-1.350461
 20
3.098012
  0
VERTEX
  8
PLAN_1
 62
     5
  6
CONTINUOUS
 10
-1.343154
 20
3.102398
  0
SEQEND
  8
0
  0
POLYLINE
  8
PLAN_1
 62
     5
  6
CONTINUOUS
 66
     1
 40
0.003000
 41
0.003000
  0
VERTEX
  8
PLAN_1
 62
     5
  6
CONTINUOUS
 10
-1.336331
 20
3.106295
  0
VERTEX
  8
PLAN_1
 62
     5
  6
CONTINUOUS
 10
-1.329024
 20
3.110681
  0
SEQEND
  8
0
  0
POLYLINE
  8
PLAN_1
 62
     5
  6
CONTINUOUS
 66
     1
 40
0.003000
 41
0.003000
  0
VERTEX
  8
PLAN_1
 62
     5
  6
CONTINUOUS
 10
-1.321713
 20
3.114579
  0
VERTEX
  8
PLAN_1
 62
     5
  6
CONTINUOUS
 10
-1.314406
 20
3.118965
  0
SEQEND
  8
0
  0
POLYLINE
  8
PLAN_1
 62
     5
  6
CONTINUOUS
 66
     1
 40
0.003000
 41
0.003000
  0
VERTEX
  8
PLAN_1
 62
     5
  6
CONTINUOUS
 10
-1.307583
 20
3.122862
  0
VERTEX
  8
PLAN_1
 62
     5
  6
CONTINUOUS
 10
-1.300276
 20
3.127248
  0
SEQEND
  8
0
  0
POLYLINE
  8
PLAN_1
 62
     5
  6
CONTINUOUS
 66
     1
 40
0.003000
 41
0.003000
  0
VERTEX
  8
PLAN_1
 62
     5
  6
CONTINUOUS
 10
-1.292965
 20
3.131634
  0
VERTEX
  8
PLAN_1
 62
     5
  6
CONTINUOUS
 10
-1.285657
 20
3.135531
  0
SEQEND
  8
0
  0
POLYLINE
  8
PLAN_1
 62
     5
  6
CONTINUOUS
 66
     1
 40
0.003000
 41
0.003000
  0
VERTEX
  8
PLAN_1
 62
     5
  6
CONTINUOUS
 10
-1.278350
 20
3.139917
  0
VERTEX
  8
PLAN_1
 62
     5
  6
CONTINUOUS
 10
-1.271528
 20
3.143815
  0
SEQEND
  8
0
  0
POLYLINE
  8
PLAN_1
 62
     5
  6
CONTINUOUS
 66
     1
 40
0.003000
 41
0.003000
  0
VERTEX
  8
PLAN_1
 62
     5
  6
CONTINUOUS
 10
-1.264220
 20
3.148197
  0
VERTEX
  8
PLAN_1
 62
     5
  6
CONTINUOUS
 10
-1.256909
 20
3.152583
  0
SEQEND
  8
0
  0
POLYLINE
  8
PLAN_1
 62
     5
  6
CONTINUOUS
 66
     1
 40
0.003000
 41
0.003000
  0
VERTEX
  8
PLAN_1
 62
     5
  6
CONTINUOUS
 10
-1.249602
 20
3.156480
  0
VERTEX
  8
PLAN_1
 62
     5
  6
CONTINUOUS
 10
-1.242780
 20
3.160866
  0
SEQEND
  8
0
  0
POLYLINE
  8
PLAN_1
 62
     5
  6
CONTINUOUS
 66
     1
 40
0.003000
 41
0.003000
  0
VERTEX
  8
PLAN_1
 62
     5
  6
CONTINUOUS
 10
-1.235472
 20
3.164764
  0
VERTEX
  8
PLAN_1
 62
     5
  6
CONTINUOUS
 10
-1.228161
 20
3.169150
  0
SEQEND
  8
0
  0
POLYLINE
  8
PLAN_1
 62
     5
  6
CONTINUOUS
 66
     1
 40
0.003000
 41
0.003000
  0
VERTEX
  8
PLAN_1
 62
     5
  6
CONTINUOUS
 10
-1.220854
 20
3.173535
  0
VERTEX
  8
PLAN_1
 62
     5
  6
CONTINUOUS
 10
-1.213543
 20
3.177433
  0
SEQEND
  8
0
  0
POLYLINE
  8
PLAN_1
 62
     5
  6
CONTINUOUS
 66
     1
 40
0.003000
 41
0.003000
  0
VERTEX
  8
PLAN_1
 62
     5
  6
CONTINUOUS
 10
-1.206724
 20
3.181819
  0
VERTEX
  8
PLAN_1
 62
     5
  6
CONTINUOUS
 10
-1.199413
 20
3.185717
  0
SEQEND
  8
0
  0
POLYLINE
  8
PLAN_1
 62
     5
  6
CONTINUOUS
 66
     1
 40
0.003000
 41
0.003000
  0
VERTEX
  8
PLAN_1
 62
     5
  6
CONTINUOUS
 10
-1.192106
 20
3.190102
  0
VERTEX
  8
PLAN_1
 62
     5
  6
CONTINUOUS
 10
-1.184795
 20
3.194000
  0
SEQEND
  8
0
  0
POLYLINE
  8
PLAN_1
 62
     5
  6
CONTINUOUS
 66
     1
 40
0.003000
 41
0.003000
  0
VERTEX
  8
PLAN_1
 62
     5
  6
CONTINUOUS
 10
-1.177976
 20
3.198386
  0
VERTEX
  8
PLAN_1
 62
     5
  6
CONTINUOUS
 10
-1.170665
 20
3.202772
  0
SEQEND
  8
0
  0
POLYLINE
  8
PLAN_1
 62
     5
  6
CONTINUOUS
 66
     1
 40
0.003000
 41
0.003000
  0
VERTEX
  8
PLAN_1
 62
     5
  6
CONTINUOUS
 10
-1.163358
 20
3.206669
  0
VERTEX
  8
PLAN_1
 62
     5
  6
CONTINUOUS
 10
-1.156051
 20
3.211055
  0
SEQEND
  8
0
  0
POLYLINE
  8
PLAN_1
 62
     5
  6
CONTINUOUS
 66
     1
 40
0.003000
 41
0.003000
  0
VERTEX
  8
PLAN_1
 62
     5
  6
CONTINUOUS
 10
-1.148740
 20
3.214953
  0
VERTEX
  8
PLAN_1
 62
     5
  6
CONTINUOUS
 10
-1.141917
 20
3.219339
  0
SEQEND
  8
0
  0
POLYLINE
  8
PLAN_1
 62
     5
  6
CONTINUOUS
 66
     1
 40
0.003000
 41
0.003000
  0
VERTEX
  8
PLAN_1
 62
     5
  6
CONTINUOUS
 10
-1.134610
 20
3.223724
  0
VERTEX
  8
PLAN_1
 62
     5
  6
CONTINUOUS
 10
-1.127303
 20
3.227622
  0
SEQEND
  8
0
  0
POLYLINE
  8
PLAN_1
 62
     5
  6
CONTINUOUS
 66
     1
 40
0.003000
 41
0.003000
  0
VERTEX
  8
PLAN_1
 62
     5
  6
CONTINUOUS
 10
-1.119992
 20
3.232004
  0
VERTEX
  8
PLAN_1
 62
     5
  6
CONTINUOUS
 10
-1.113173
 20
3.235906
  0
SEQEND
  8
0
  0
POLYLINE
  8
PLAN_1
 62
     5
  6
CONTINUOUS
 66
     1
 40
0.003000
 41
0.003000
  0
VERTEX
  8
PLAN_1
 62
     5
  6
CONTINUOUS
 10
-1.105862
 20
3.240287
  0
VERTEX
  8
PLAN_1
 62
     5
  6
CONTINUOUS
 10
-1.098555
 20
3.244673
  0
SEQEND
  8
0
  0
POLYLINE
  8
PLAN_1
 62
     5
  6
CONTINUOUS
 66
     1
 40
0.003000
 41
0.003000
  0
VERTEX
  8
PLAN_1
 62
     5
  6
CONTINUOUS
 10
-1.091244
 20
3.248571
  0
VERTEX
  8
PLAN_1
 62
     5
  6
CONTINUOUS
 10
-1.083937
 20
3.252957
  0
SEQEND
  8
0
  0
POLYLINE
  8
PLAN_1
 62
     5
  6
CONTINUOUS
 66
     1
 40
0.003000
 41
0.003000
  0
VERTEX
  8
PLAN_1
 62
     5
  6
CONTINUOUS
 10
-1.077114
 20
3.256854
  0
VERTEX
  8
PLAN_1
 62
     5
  6
CONTINUOUS
 10
-1.069807
 20
3.261240
  0
SEQEND
  8
0
  0
POLYLINE
  8
PLAN_1
 62
     5
  6
CONTINUOUS
 66
     1
 40
0.003000
 41
0.003000
  0
VERTEX
  8
PLAN_1
 62
     5
  6
CONTINUOUS
 10
-1.062496
 20
3.265138
  0
VERTEX
  8
PLAN_1
 62
     5
  6
CONTINUOUS
 10
-1.055189
 20
3.269524
  0
SEQEND
  8
0
  0
POLYLINE
  8
PLAN_1
 62
     5
  6
CONTINUOUS
 66
     1
 40
0.003000
 41
0.003000
  0
VERTEX
  8
PLAN_1
 62
     5
  6
CONTINUOUS
 10
-1.048366
 20
3.273909
  0
VERTEX
  8
PLAN_1
 62
     5
  6
CONTINUOUS
 10
-1.041059
 20
3.277807
  0
SEQEND
  8
0
  0
POLYLINE
  8
PLAN_1
 62
     5
  6
CONTINUOUS
 66
     1
 40
0.003000
 41
0.003000
  0
VERTEX
  8
PLAN_1
 62
     5
  6
CONTINUOUS
 10
-1.033748
 20
3.282193
  0
VERTEX
  8
PLAN_1
 62
     5
  6
CONTINUOUS
 10
-1.026441
 20
3.286091
  0
SEQEND
  8
0
  0
POLYLINE
  8
PLAN_1
 62
     5
  6
CONTINUOUS
 66
     1
 40
0.003000
 41
0.003000
  0
VERTEX
  8
PLAN_1
 62
     5
  6
CONTINUOUS
 10
-1.019134
 20
3.290476
  0
VERTEX
  8
PLAN_1
 62
     5
  6
CONTINUOUS
 10
-1.012311
 20
3.294862
  0
SEQEND
  8
0
  0
POLYLINE
  8
PLAN_1
 62
     5
  6
CONTINUOUS
 66
     1
 40
0.003000
 41
0.003000
  0
VERTEX
  8
PLAN_1
 62
     5
  6
CONTINUOUS
 10
-1.005000
 20
3.298760
  0
VERTEX
  8
PLAN_1
 62
     5
  6
CONTINUOUS
 10
-0.997693
 20
3.303146
  0
SEQEND
  8
0
  0
POLYLINE
  8
PLAN_1
 62
     5
  6
CONTINUOUS
 66
     1
 40
0.003000
 41
0.003000
  0
VERTEX
  8
PLAN_1
 62
     5
  6
CONTINUOUS
 10
-0.990386
 20
3.307043
  0
VERTEX
  8
PLAN_1
 62
     5
  6
CONTINUOUS
 10
-0.983075
 20
3.311429
  0
SEQEND
  8
0
  0
POLYLINE
  8
PLAN_1
 62
     5
  6
CONTINUOUS
 66
     1
 40
0.003000
 41
0.003000
  0
VERTEX
  8
PLAN_1
 62
     5
  6
CONTINUOUS
 10
-0.976256
 20
3.315811
  0
VERTEX
  8
PLAN_1
 62
     5
  6
CONTINUOUS
 10
-0.968945
 20
3.319713
  0
SEQEND
  8
0
  0
POLYLINE
  8
PLAN_1
 62
     5
  6
CONTINUOUS
 66
     1
 40
0.003000
 41
0.003000
  0
VERTEX
  8
PLAN_1
 62
     5
  6
CONTINUOUS
 10
-0.961638
 20
3.324094
  0
VERTEX
  8
PLAN_1
 62
     5
  6
CONTINUOUS
 10
-0.954327
 20
3.327992
  0
SEQEND
  8
0
  0
POLYLINE
  8
PLAN_1
 62
     5
  6
CONTINUOUS
 66
     1
 40
0.003000
 41
0.003000
  0
VERTEX
  8
PLAN_1
 62
     5
  6
CONTINUOUS
 10
-0.947508
 20
3.332378
  0
VERTEX
  8
PLAN_1
 62
     5
  6
CONTINUOUS
 10
-0.940197
 20
3.336764
  0
SEQEND
  8
0
  0
POLYLINE
  8
PLAN_1
 62
     5
  6
CONTINUOUS
 66
     1
 40
0.003000
 41
0.003000
  0
VERTEX
  8
PLAN_1
 62
     5
  6
CONTINUOUS
 10
-0.932890
 20
3.340661
  0
VERTEX
  8
PLAN_1
 62
     5
  6
CONTINUOUS
 10
-0.925579
 20
3.345047
  0
SEQEND
  8
0
  0
POLYLINE
  8
PLAN_1
 62
     5
  6
CONTINUOUS
 66
     1
 40
0.003000
 41
0.003000
  0
VERTEX
  8
PLAN_1
 62
     5
  6
CONTINUOUS
 10
-0.918272
 20
3.348945
  0
VERTEX
  8
PLAN_1
 62
     5
  6
CONTINUOUS
 10
-0.911449
 20
3.353331
  0
SEQEND
  8
0
  0
POLYLINE
  8
PLAN_1
 62
     5
  6
CONTINUOUS
 66
     1
 40
0.003000
 41
0.003000
  0
VERTEX
  8
PLAN_1
 62
     5
  6
CONTINUOUS
 10
-0.904142
 20
3.357717
  0
VERTEX
  8
PLAN_1
 62
     5
  6
CONTINUOUS
 10
-0.896831
 20
3.361614
  0
SEQEND
  8
0
  0
POLYLINE
  8
PLAN_1
 62
     5
  6
CONTINUOUS
 66
     1
 40
0.003000
 41
0.003000
  0
VERTEX
  8
PLAN_1
 62
     5
  6
CONTINUOUS
 10
-0.889524
 20
3.366000
  0
VERTEX
  8
PLAN_1
 62
     5
  6
CONTINUOUS
 10
-0.886598
 20
3.367461
  0
SEQEND
  8
0
  0
POLYLINE
  8
PLAN_1
 62
     5
  6
CONTINUOUS
 66
     1
 40
0.003000
 41
0.003000
  0
VERTEX
  8
PLAN_1
 62
     5
  6
CONTINUOUS
 10
-0.889524
 20
3.366000
  0
VERTEX
  8
PLAN_1
 62
     5
  6
CONTINUOUS
 10
-0.886598
 20
3.367461
  0
SEQEND
  8
0
  0
POLYLINE
  8
PLAN_1
 62
     5
  6
CONTINUOUS
 66
     1
 40
0.003000
 41
0.003000
  0
VERTEX
  8
PLAN_1
 62
     5
  6
CONTINUOUS
 10
-1.350461
 20
2.900189
  0
VERTEX
  8
PLAN_1
 62
     5
  6
CONTINUOUS
 10
-1.343154
 20
2.904575
  0
SEQEND
  8
0
  0
POLYLINE
  8
PLAN_1
 62
     5
  6
CONTINUOUS
 66
     1
 40
0.003000
 41
0.003000
  0
VERTEX
  8
PLAN_1
 62
     5
  6
CONTINUOUS
 10
-1.336331
 20
2.908472
  0
VERTEX
  8
PLAN_1
 62
     5
  6
CONTINUOUS
 10
-1.329024
 20
2.912858
  0
SEQEND
  8
0
  0
POLYLINE
  8
PLAN_1
 62
     5
  6
CONTINUOUS
 66
     1
 40
0.003000
 41
0.003000
  0
VERTEX
  8
PLAN_1
 62
     5
  6
CONTINUOUS
 10
-1.321713
 20
2.917244
  0
VERTEX
  8
PLAN_1
 62
     5
  6
CONTINUOUS
 10
-1.314406
 20
2.921142
  0
SEQEND
  8
0
  0
POLYLINE
  8
PLAN_1
 62
     5
  6
CONTINUOUS
 66
     1
 40
0.003000
 41
0.003000
  0
VERTEX
  8
PLAN_1
 62
     5
  6
CONTINUOUS
 10
-1.307583
 20
2.925524
  0
VERTEX
  8
PLAN_1
 62
     5
  6
CONTINUOUS
 10
-1.300276
 20
2.929425
  0
SEQEND
  8
0
  0
POLYLINE
  8
PLAN_1
 62
     5
  6
CONTINUOUS
 66
     1
 40
0.003000
 41
0.003000
  0
VERTEX
  8
PLAN_1
 62
     5
  6
CONTINUOUS
 10
-1.292965
 20
2.933807
  0
VERTEX
  8
PLAN_1
 62
     5
  6
CONTINUOUS
 10
-1.285657
 20
2.938193
  0
SEQEND
  8
0
  0
POLYLINE
  8
PLAN_1
 62
     5
  6
CONTINUOUS
 66
     1
 40
0.003000
 41
0.003000
  0
VERTEX
  8
PLAN_1
 62
     5
  6
CONTINUOUS
 10
-1.278350
 20
2.942091
  0
VERTEX
  8
PLAN_1
 62
     5
  6
CONTINUOUS
 10
-1.271528
 20
2.946476
  0
SEQEND
  8
0
  0
POLYLINE
  8
PLAN_1
 62
     5
  6
CONTINUOUS
 66
     1
 40
0.003000
 41
0.003000
  0
VERTEX
  8
PLAN_1
 62
     5
  6
CONTINUOUS
 10
-1.264220
 20
2.950374
  0
VERTEX
  8
PLAN_1
 62
     5
  6
CONTINUOUS
 10
-1.256909
 20
2.954760
  0
SEQEND
  8
0
  0
POLYLINE
  8
PLAN_1
 62
     5
  6
CONTINUOUS
 66
     1
 40
0.003000
 41
0.003000
  0
VERTEX
  8
PLAN_1
 62
     5
  6
CONTINUOUS
 10
-1.249602
 20
2.959146
  0
VERTEX
  8
PLAN_1
 62
     5
  6
CONTINUOUS
 10
-1.242780
 20
2.963043
  0
SEQEND
  8
0
  0
POLYLINE
  8
PLAN_1
 62
     5
  6
CONTINUOUS
 66
     1
 40
0.003000
 41
0.003000
  0
VERTEX
  8
PLAN_1
 62
     5
  6
CONTINUOUS
 10
-1.235472
 20
2.967429
  0
VERTEX
  8
PLAN_1
 62
     5
  6
CONTINUOUS
 10
-1.228161
 20
2.971327
  0
SEQEND
  8
0
  0
POLYLINE
  8
PLAN_1
 62
     5
  6
CONTINUOUS
 66
     1
 40
0.003000
 41
0.003000
  0
VERTEX
  8
PLAN_1
 62
     5
  6
CONTINUOUS
 10
-1.220854
 20
2.975713
  0
VERTEX
  8
PLAN_1
 62
     5
  6
CONTINUOUS
 10
-1.213543
 20
2.979610
  0
SEQEND
  8
0
  0
POLYLINE
  8
PLAN_1
 62
     5
  6
CONTINUOUS
 66
     1
 40
0.003000
 41
0.003000
  0
VERTEX
  8
PLAN_1
 62
     5
  6
CONTINUOUS
 10
-1.206724
 20
2.983996
  0
VERTEX
  8
PLAN_1
 62
     5
  6
CONTINUOUS
 10
-1.199413
 20
2.988382
  0
SEQEND
  8
0
  0
POLYLINE
  8
PLAN_1
 62
     5
  6
CONTINUOUS
 66
     1
 40
0.003000
 41
0.003000
  0
VERTEX
  8
PLAN_1
 62
     5
  6
CONTINUOUS
 10
-1.192106
 20
2.992280
  0
VERTEX
  8
PLAN_1
 62
     5
  6
CONTINUOUS
 10
-1.184795
 20
2.996665
  0
SEQEND
  8
0
  0
POLYLINE
  8
PLAN_1
 62
     5
  6
CONTINUOUS
 66
     1
 40
0.003000
 41
0.003000
  0
VERTEX
  8
PLAN_1
 62
     5
  6
CONTINUOUS
 10
-1.177976
 20
3.000563
  0
VERTEX
  8
PLAN_1
 62
     5
  6
CONTINUOUS
 10
-1.170665
 20
3.004949
  0
SEQEND
  8
0
  0
POLYLINE
  8
PLAN_1
 62
     5
  6
CONTINUOUS
 66
     1
 40
0.003000
 41
0.003000
  0
VERTEX
  8
PLAN_1
 62
     5
  6
CONTINUOUS
 10
-1.163358
 20
3.009331
  0
VERTEX
  8
PLAN_1
 62
     5
  6
CONTINUOUS
 10
-1.156051
 20
3.013232
  0
SEQEND
  8
0
  0
POLYLINE
  8
PLAN_1
 62
     5
  6
CONTINUOUS
 66
     1
 40
0.003000
 41
0.003000
  0
VERTEX
  8
PLAN_1
 62
     5
  6
CONTINUOUS
 10
-1.148740
 20
3.017614
  0
VERTEX
  8
PLAN_1
 62
     5
  6
CONTINUOUS
 10
-1.141917
 20
3.021512
  0
SEQEND
  8
0
  0
POLYLINE
  8
PLAN_1
 62
     5
  6
CONTINUOUS
 66
     1
 40
0.003000
 41
0.003000
  0
VERTEX
  8
PLAN_1
 62
     5
  6
CONTINUOUS
 10
-1.134610
 20
3.025898
  0
VERTEX
  8
PLAN_1
 62
     5
  6
CONTINUOUS
 10
-1.127303
 20
3.030283
  0
SEQEND
  8
0
  0
POLYLINE
  8
PLAN_1
 62
     5
  6
CONTINUOUS
 66
     1
 40
0.003000
 41
0.003000
  0
VERTEX
  8
PLAN_1
 62
     5
  6
CONTINUOUS
 10
-1.119992
 20
3.034181
  0
VERTEX
  8
PLAN_1
 62
     5
  6
CONTINUOUS
 10
-1.113173
 20
3.038567
  0
SEQEND
  8
0
  0
POLYLINE
  8
PLAN_1
 62
     5
  6
CONTINUOUS
 66
     1
 40
0.003000
 41
0.003000
  0
VERTEX
  8
PLAN_1
 62
     5
  6
CONTINUOUS
 10
-1.105862
 20
3.042465
  0
VERTEX
  8
PLAN_1
 62
     5
  6
CONTINUOUS
 10
-1.098555
 20
3.046850
  0
SEQEND
  8
0
  0
POLYLINE
  8
PLAN_1
 62
     5
  6
CONTINUOUS
 66
     1
 40
0.003000
 41
0.003000
  0
VERTEX
  8
PLAN_1
 62
     5
  6
CONTINUOUS
 10
-1.091244
 20
3.050748
  0
VERTEX
  8
PLAN_1
 62
     5
  6
CONTINUOUS
 10
-1.083937
 20
3.055134
  0
SEQEND
  8
0
  0
POLYLINE
  8
PLAN_1
 62
     5
  6
CONTINUOUS
 66
     1
 40
0.003000
 41
0.003000
  0
VERTEX
  8
PLAN_1
 62
     5
  6
CONTINUOUS
 10
-1.077114
 20
3.059520
  0
VERTEX
  8
PLAN_1
 62
     5
  6
CONTINUOUS
 10
-1.069807
 20
3.063417
  0
SEQEND
  8
0
  0
POLYLINE
  8
PLAN_1
 62
     5
  6
CONTINUOUS
 66
     1
 40
0.003000
 41
0.003000
  0
VERTEX
  8
PLAN_1
 62
     5
  6
CONTINUOUS
 10
-1.062496
 20
3.067803
  0
VERTEX
  8
PLAN_1
 62
     5
  6
CONTINUOUS
 10
-1.055189
 20
3.071701
  0
SEQEND
  8
0
  0
POLYLINE
  8
PLAN_1
 62
     5
  6
CONTINUOUS
 66
     1
 40
0.003000
 41
0.003000
  0
VERTEX
  8
PLAN_1
 62
     5
  6
CONTINUOUS
 10
-1.048366
 20
3.076087
  0
VERTEX
  8
PLAN_1
 62
     5
  6
CONTINUOUS
 10
-1.041059
 20
3.080472
  0
SEQEND
  8
0
  0
POLYLINE
  8
PLAN_1
 62
     5
  6
CONTINUOUS
 66
     1
 40
0.003000
 41
0.003000
  0
VERTEX
  8
PLAN_1
 62
     5
  6
CONTINUOUS
 10
-1.033748
 20
3.084370
  0
VERTEX
  8
PLAN_1
 62
     5
  6
CONTINUOUS
 10
-1.026441
 20
3.088756
  0
SEQEND
  8
0
  0
POLYLINE
  8
PLAN_1
 62
     5
  6
CONTINUOUS
 66
     1
 40
0.003000
 41
0.003000
  0
VERTEX
  8
PLAN_1
 62
     5
  6
CONTINUOUS
 10
-1.019134
 20
3.092654
  0
VERTEX
  8
PLAN_1
 62
     5
  6
CONTINUOUS
 10
-1.012311
 20
3.097039
  0
SEQEND
  8
0
  0
POLYLINE
  8
PLAN_1
 62
     5
  6
CONTINUOUS
 66
     1
 40
0.003000
 41
0.003000
  0
VERTEX
  8
PLAN_1
 62
     5
  6
CONTINUOUS
 10
-1.005000
 20
3.101421
  0
VERTEX
  8
PLAN_1
 62
     5
  6
CONTINUOUS
 10
-0.997693
 20
3.105319
  0
SEQEND
  8
0
  0
POLYLINE
  8
PLAN_1
 62
     5
  6
CONTINUOUS
 66
     1
 40
0.003000
 41
0.003000
  0
VERTEX
  8
PLAN_1
 62
     5
  6
CONTINUOUS
 10
-0.990386
 20
3.109705
  0
VERTEX
  8
PLAN_1
 62
     5
  6
CONTINUOUS
 10
-0.983075
 20
3.113602
  0
SEQEND
  8
0
  0
POLYLINE
  8
PLAN_1
 62
     5
  6
CONTINUOUS
 66
     1
 40
0.003000
 41
0.003000
  0
VERTEX
  8
PLAN_1
 62
     5
  6
CONTINUOUS
 10
-0.976256
 20
3.117988
  0
VERTEX
  8
PLAN_1
 62
     5
  6
CONTINUOUS
 10
-0.968945
 20
3.122374
  0
SEQEND
  8
0
  0
POLYLINE
  8
PLAN_1
 62
     5
  6
CONTINUOUS
 66
     1
 40
0.003000
 41
0.003000
  0
VERTEX
  8
PLAN_1
 62
     5
  6
CONTINUOUS
 10
-0.961638
 20
3.126272
  0
VERTEX
  8
PLAN_1
 62
     5
  6
CONTINUOUS
 10
-0.954327
 20
3.130657
  0
SEQEND
  8
0
  0
POLYLINE
  8
PLAN_1
 62
     5
  6
CONTINUOUS
 66
     1
 40
0.003000
 41
0.003000
  0
VERTEX
  8
PLAN_1
 62
     5
  6
CONTINUOUS
 10
-0.947508
 20
3.134555
  0
VERTEX
  8
PLAN_1
 62
     5
  6
CONTINUOUS
 10
-0.940197
 20
3.138941
  0
SEQEND
  8
0
  0
POLYLINE
  8
PLAN_1
 62
     5
  6
CONTINUOUS
 66
     1
 40
0.003000
 41
0.003000
  0
VERTEX
  8
PLAN_1
 62
     5
  6
CONTINUOUS
 10
-0.932890
 20
3.143327
  0
VERTEX
  8
PLAN_1
 62
     5
  6
CONTINUOUS
 10
-0.925579
 20
3.147224
  0
SEQEND
  8
0
  0
POLYLINE
  8
PLAN_1
 62
     5
  6
CONTINUOUS
 66
     1
 40
0.003000
 41
0.003000
  0
VERTEX
  8
PLAN_1
 62
     5
  6
CONTINUOUS
 10
-0.918272
 20
3.151610
  0
VERTEX
  8
PLAN_1
 62
     5
  6
CONTINUOUS
 10
-0.911449
 20
3.155508
  0
SEQEND
  8
0
  0
POLYLINE
  8
PLAN_1
 62
     5
  6
CONTINUOUS
 66
     1
 40
0.003000
 41
0.003000
  0
VERTEX
  8
PLAN_1
 62
     5
  6
CONTINUOUS
 10
-0.904142
 20
3.159894
  0
VERTEX
  8
PLAN_1
 62
     5
  6
CONTINUOUS
 10
-0.896831
 20
3.164280
  0
SEQEND
  8
0
  0
POLYLINE
  8
PLAN_1
 62
     5
  6
CONTINUOUS
 66
     1
 40
0.003000
 41
0.003000
  0
VERTEX
  8
PLAN_1
 62
     5
  6
CONTINUOUS
 10
-0.889524
 20
3.168177
  0
VERTEX
  8
PLAN_1
 62
     5
  6
CONTINUOUS
 10
-0.886598
 20
3.170126
  0
SEQEND
  8
0
  0
POLYLINE
  8
PLAN_1
 62
     5
  6
CONTINUOUS
 66
     1
 40
0.003000
 41
0.003000
  0
VERTEX
  8
PLAN_1
 62
     5
  6
CONTINUOUS
 10
-0.889524
 20
3.168177
  0
VERTEX
  8
PLAN_1
 62
     5
  6
CONTINUOUS
 10
-0.886598
 20
3.170126
  0
SEQEND
  8
0
  0
POLYLINE
  8
PLAN_1
  6
CONTINUOUS
 66
     1
 40
0.005358
 41
0.005358
  0
VERTEX
  8
PLAN_1
  6
CONTINUOUS
 10
-0.969921
 20
2.817354
  0
VERTEX
  8
PLAN_1
  6
CONTINUOUS
 10
-0.965047
 20
2.821740
  0
VERTEX
  8
PLAN_1
  6
CONTINUOUS
 10
-0.961638
 20
2.826126
  0
VERTEX
  8
PLAN_1
  6
CONTINUOUS
 10
-0.959201
 20
2.830024
  0
VERTEX
  8
PLAN_1
  6
CONTINUOUS
 10
-0.957740
 20
2.834409
  0
VERTEX
  8
PLAN_1
  6
CONTINUOUS
 10
-0.957252
 20
2.838307
  0
VERTEX
  8
PLAN_1
  6
CONTINUOUS
 10
-0.957252
 20
2.842205
  0
VERTEX
  8
PLAN_1
  6
CONTINUOUS
 10
-0.957740
 20
2.845618
  0
VERTEX
  8
PLAN_1
  6
CONTINUOUS
 10
-0.959201
 20
2.849028
  0
VERTEX
  8
PLAN_1
  6
CONTINUOUS
 10
-0.960661
 20
2.851949
  0
VERTEX
  8
PLAN_1
  6
CONTINUOUS
 10
-0.962122
 20
2.854874
  0
VERTEX
  8
PLAN_1
  6
CONTINUOUS
 10
-0.964071
 20
2.857311
  0
VERTEX
  8
PLAN_1
  6
CONTINUOUS
 10
-0.966024
 20
2.859260
  0
VERTEX
  8
PLAN_1
  6
CONTINUOUS
 10
-0.968457
 20
2.861697
  0
VERTEX
  8
PLAN_1
  6
CONTINUOUS
 10
-0.969921
 20
2.862669
  0
SEQEND
  8
0
  0
POLYLINE
  8
PLAN_1
  6
CONTINUOUS
 66
     1
 40
0.005358
 41
0.005358
  0
VERTEX
  8
PLAN_1
  6
CONTINUOUS
 10
-0.969921
 20
2.862669
  0
VERTEX
  8
PLAN_1
  6
CONTINUOUS
 10
-1.250575
 20
2.862669
  0
SEQEND
  8
0
  0
POLYLINE
  8
PLAN_1
  6
CONTINUOUS
 66
     1
 40
0.005358
 41
0.005358
  0
VERTEX
  8
PLAN_1
  6
CONTINUOUS
 10
-1.250575
 20
2.862669
  0
VERTEX
  8
PLAN_1
  6
CONTINUOUS
 10
-1.251551
 20
2.862181
  0
VERTEX
  8
PLAN_1
  6
CONTINUOUS
 10
-1.254472
 20
2.859260
  0
VERTEX
  8
PLAN_1
  6
CONTINUOUS
 10
-1.257398
 20
2.855362
  0
VERTEX
  8
PLAN_1
  6
CONTINUOUS
 10
-1.260319
 20
2.849516
  0
VERTEX
  8
PLAN_1
  6
CONTINUOUS
 10
-1.261295
 20
2.846102
  0
VERTEX
  8
PLAN_1
  6
CONTINUOUS
 10
-1.261783
 20
2.842693
  0
VERTEX
  8
PLAN_1
  6
CONTINUOUS
 10
-1.261783
 20
2.839283
  0
VERTEX
  8
PLAN_1
  6
CONTINUOUS
 10
-1.261295
 20
2.834898
  0
VERTEX
  8
PLAN_1
  6
CONTINUOUS
 10
-1.260319
 20
2.831000
  0
VERTEX
  8
PLAN_1
  6
CONTINUOUS
 10
-1.257886
 20
2.826614
  0
VERTEX
  8
PLAN_1
  6
CONTINUOUS
 10
-1.254961
 20
2.821740
  0
VERTEX
  8
PLAN_1
  6
CONTINUOUS
 10
-1.250575
 20
2.817354
  0
SEQEND
  8
0
  0
POLYLINE
  8
PLAN_1
  6
CONTINUOUS
 66
     1
 40
0.005358
 41
0.005358
  0
VERTEX
  8
PLAN_1
  6
CONTINUOUS
 10
-1.250575
 20
2.817354
  0
VERTEX
  8
PLAN_1
  6
CONTINUOUS
 10
-0.969921
 20
2.817354
  0
SEQEND
  8
0
  0
POLYLINE
  8
PLAN_1
  6
CONTINUOUS
 66
     1
 40
0.005358
 41
0.005358
  0
VERTEX
  8
PLAN_1
  6
CONTINUOUS
 10
-0.969433
 20
2.772043
  0
VERTEX
  8
PLAN_1
  6
CONTINUOUS
 10
-0.964559
 20
2.776425
  0
VERTEX
  8
PLAN_1
  6
CONTINUOUS
 10
-0.961150
 20
2.780811
  0
VERTEX
  8
PLAN_1
  6
CONTINUOUS
 10
-0.958713
 20
2.785197
  0
VERTEX
  8
PLAN_1
  6
CONTINUOUS
 10
-0.957252
 20
2.789094
  0
VERTEX
  8
PLAN_1
  6
CONTINUOUS
 10
-0.956764
 20
2.792992
  0
VERTEX
  8
PLAN_1
  6
CONTINUOUS
 10
-0.956764
 20
2.796890
  0
VERTEX
  8
PLAN_1
  6
CONTINUOUS
 10
-0.957252
 20
2.800303
  0
VERTEX
  8
PLAN_1
  6
CONTINUOUS
 10
-0.958713
 20
2.803713
  0
VERTEX
  8
PLAN_1
  6
CONTINUOUS
 10
-0.960173
 20
2.806638
  0
VERTEX
  8
PLAN_1
  6
CONTINUOUS
 10
-0.961638
 20
2.809559
  0
VERTEX
  8
PLAN_1
  6
CONTINUOUS
 10
-0.963587
 20
2.811996
  0
VERTEX
  8
PLAN_1
  6
CONTINUOUS
 10
-0.965535
 20
2.813945
  0
VERTEX
  8
PLAN_1
  6
CONTINUOUS
 10
-0.968457
 20
2.816870
  0
VERTEX
  8
PLAN_1
  6
CONTINUOUS
 10
-0.969433
 20
2.817843
  0
SEQEND
  8
0
  0
POLYLINE
  8
PLAN_1
  6
CONTINUOUS
 66
     1
 40
0.005358
 41
0.005358
  0
VERTEX
  8
PLAN_1
  6
CONTINUOUS
 10
-0.969433
 20
2.817843
  0
VERTEX
  8
PLAN_1
  6
CONTINUOUS
 10
-1.250087
 20
2.817843
  0
SEQEND
  8
0
  0
POLYLINE
  8
PLAN_1
  6
CONTINUOUS
 66
     1
 40
0.005358
 41
0.005358
  0
VERTEX
  8
PLAN_1
  6
CONTINUOUS
 10
-1.250087
 20
2.817843
  0
VERTEX
  8
PLAN_1
  6
CONTINUOUS
 10
-1.251063
 20
2.816870
  0
VERTEX
  8
PLAN_1
  6
CONTINUOUS
 10
-1.253988
 20
2.813945
  0
VERTEX
  8
PLAN_1
  6
CONTINUOUS
 10
-1.256909
 20
2.810047
  0
VERTEX
  8
PLAN_1
  6
CONTINUOUS
 10
-1.259835
 20
2.804201
  0
VERTEX
  8
PLAN_1
  6
CONTINUOUS
 10
-1.260807
 20
2.801276
  0
VERTEX
  8
PLAN_1
  6
CONTINUOUS
 10
-1.261295
 20
2.797378
  0
VERTEX
  8
PLAN_1
  6
CONTINUOUS
 10
-1.261295
 20
2.793969
  0
VERTEX
  8
PLAN_1
  6
CONTINUOUS
 10
-1.260807
 20
2.789583
  0
VERTEX
  8
PLAN_1
  6
CONTINUOUS
 10
-1.259835
 20
2.785685
  0
VERTEX
  8
PLAN_1
  6
CONTINUOUS
 10
-1.257398
 20
2.781299
  0
VERTEX
  8
PLAN_1
  6
CONTINUOUS
 10
-1.254472
 20
2.776913
  0
VERTEX
  8
PLAN_1
  6
CONTINUOUS
 10
-1.250087
 20
2.772043
  0
SEQEND
  8
0
  0
POLYLINE
  8
PLAN_1
  6
CONTINUOUS
 66
     1
 40
0.005358
 41
0.005358
  0
VERTEX
  8
PLAN_1
  6
CONTINUOUS
 10
-1.250087
 20
2.772043
  0
VERTEX
  8
PLAN_1
  6
CONTINUOUS
 10
-0.969433
 20
2.772043
  0
SEQEND
  8
0
  0
POLYLINE
  8
PLAN_1
  6
CONTINUOUS
 66
     1
 40
0.005358
 41
0.005358
  0
VERTEX
  8
PLAN_1
  6
CONTINUOUS
 10
-0.969433
 20
2.726240
  0
VERTEX
  8
PLAN_1
  6
CONTINUOUS
 10
-0.965047
 20
2.730626
  0
VERTEX
  8
PLAN_1
  6
CONTINUOUS
 10
-0.961150
 20
2.735012
  0
VERTEX
  8
PLAN_1
  6
CONTINUOUS
 10
-0.958713
 20
2.738909
  0
VERTEX
  8
PLAN_1
  6
CONTINUOUS
 10
-0.957252
 20
2.743295
  0
VERTEX
  8
PLAN_1
  6
CONTINUOUS
 10
-0.956764
 20
2.747193
  0
VERTEX
  8
PLAN_1
  6
CONTINUOUS
 10
-0.956764
 20
2.751091
  0
VERTEX
  8
PLAN_1
  6
CONTINUOUS
 10
-0.957740
 20
2.754500
  0
VERTEX
  8
PLAN_1
  6
CONTINUOUS
 10
-0.958713
 20
2.757913
  0
VERTEX
  8
PLAN_1
  6
CONTINUOUS
 10
-0.960173
 20
2.760835
  0
VERTEX
  8
PLAN_1
  6
CONTINUOUS
 10
-0.962122
 20
2.763760
  0
VERTEX
  8
PLAN_1
  6
CONTINUOUS
 10
-0.963587
 20
2.765709
  0
VERTEX
  8
PLAN_1
  6
CONTINUOUS
 10
-0.965535
 20
2.768146
  0
VERTEX
  8
PLAN_1
  6
CONTINUOUS
 10
-0.968457
 20
2.770579
  0
VERTEX
  8
PLAN_1
  6
CONTINUOUS
 10
-0.969433
 20
2.771555
  0
SEQEND
  8
0
  0
POLYLINE
  8
PLAN_1
  6
CONTINUOUS
 66
     1
 40
0.005358
 41
0.005358
  0
VERTEX
  8
PLAN_1
  6
CONTINUOUS
 10
-0.969433
 20
2.771555
  0
VERTEX
  8
PLAN_1
  6
CONTINUOUS
 10
-1.250575
 20
2.771555
  0
SEQEND
  8
0
  0
POLYLINE
  8
PLAN_1
  6
CONTINUOUS
 66
     1
 40
0.005358
 41
0.005358
  0
VERTEX
  8
PLAN_1
  6
CONTINUOUS
 10
-1.250575
 20
2.771555
  0
VERTEX
  8
PLAN_1
  6
CONTINUOUS
 10
-1.251551
 20
2.771067
  0
VERTEX
  8
PLAN_1
  6
CONTINUOUS
 10
-1.253988
 20
2.768146
  0
VERTEX
  8
PLAN_1
  6
CONTINUOUS
 10
-1.257398
 20
2.764244
  0
VERTEX
  8
PLAN_1
  6
CONTINUOUS
 10
-1.259835
 20
2.758398
  0
VERTEX
  8
PLAN_1
  6
CONTINUOUS
 10
-1.260807
 20
2.754988
  0
VERTEX
  8
PLAN_1
  6
CONTINUOUS
 10
-1.261783
 20
2.751579
  0
VERTEX
  8
PLAN_1
  6
CONTINUOUS
 10
-1.261783
 20
2.748165
  0
VERTEX
  8
PLAN_1
  6
CONTINUOUS
 10
-1.261295
 20
2.743780
  0
VERTEX
  8
PLAN_1
  6
CONTINUOUS
 10
-1.259835
 20
2.739882
  0
VERTEX
  8
PLAN_1
  6
CONTINUOUS
 10
-1.257886
 20
2.735496
  0
VERTEX
  8
PLAN_1
  6
CONTINUOUS
 10
-1.254472
 20
2.730626
  0
VERTEX
  8
PLAN_1
  6
CONTINUOUS
 10
-1.250575
 20
2.726240
  0
SEQEND
  8
0
  0
POLYLINE
  8
PLAN_1
  6
CONTINUOUS
 66
     1
 40
0.005358
 41
0.005358
  0
VERTEX
  8
PLAN_1
  6
CONTINUOUS
 10
-1.250575
 20
2.726240
  0
VERTEX
  8
PLAN_1
  6
CONTINUOUS
 10
-0.969433
 20
2.726240
  0
SEQEND
  8
0
  0
POLYLINE
  8
PLAN_1
  6
CONTINUOUS
 66
     1
 40
0.005358
 41
0.005358
  0
VERTEX
  8
PLAN_1
  6
CONTINUOUS
 10
-0.968945
 20
2.680925
  0
VERTEX
  8
PLAN_1
  6
CONTINUOUS
 10
-0.964559
 20
2.685311
  0
VERTEX
  8
PLAN_1
  6
CONTINUOUS
 10
-0.961150
 20
2.689697
  0
VERTEX
  8
PLAN_1
  6
CONTINUOUS
 10
-0.958713
 20
2.693594
  0
VERTEX
  8
PLAN_1
  6
CONTINUOUS
 10
-0.957252
 20
2.697980
  0
VERTEX
  8
PLAN_1
  6
CONTINUOUS
 10
-0.956276
 20
2.701878
  0
VERTEX
  8
PLAN_1
  6
CONTINUOUS
 10
-0.956764
 20
2.705776
  0
VERTEX
  8
PLAN_1
  6
CONTINUOUS
 10
-0.957252
 20
2.709185
  0
VERTEX
  8
PLAN_1
  6
CONTINUOUS
 10
-0.958224
 20
2.712598
  0
VERTEX
  8
PLAN_1
  6
CONTINUOUS
 10
-0.959689
 20
2.715520
  0
VERTEX
  8
PLAN_1
  6
CONTINUOUS
 10
-0.961638
 20
2.718445
  0
VERTEX
  8
PLAN_1
  6
CONTINUOUS
 10
-0.963587
 20
2.720882
  0
VERTEX
  8
PLAN_1
  6
CONTINUOUS
 10
-0.965047
 20
2.722831
  0
VERTEX
  8
PLAN_1
  6
CONTINUOUS
 10
-0.967972
 20
2.725752
  0
VERTEX
  8
PLAN_1
  6
CONTINUOUS
 10
-0.968945
 20
2.726728
  0
SEQEND
  8
0
  0
POLYLINE
  8
PLAN_1
  6
CONTINUOUS
 66
     1
 40
0.005358
 41
0.005358
  0
VERTEX
  8
PLAN_1
  6
CONTINUOUS
 10
-0.968945
 20
2.726728
  0
VERTEX
  8
PLAN_1
  6
CONTINUOUS
 10
-1.250087
 20
2.726728
  0
SEQEND
  8
0
  0
POLYLINE
  8
PLAN_1
  6
CONTINUOUS
 66
     1
 40
0.005358
 41
0.005358
  0
VERTEX
  8
PLAN_1
  6
CONTINUOUS
 10
-1.250087
 20
2.726728
  0
VERTEX
  8
PLAN_1
  6
CONTINUOUS
 10
-1.251063
 20
2.725752
  0
VERTEX
  8
PLAN_1
  6
CONTINUOUS
 10
-1.253500
 20
2.722831
  0
VERTEX
  8
PLAN_1
  6
CONTINUOUS
 10
-1.256909
 20
2.718933
  0
VERTEX
  8
PLAN_1
  6
CONTINUOUS
 10
-1.259346
 20
2.713083
  0
VERTEX
  8
PLAN_1
  6
CONTINUOUS
 10
-1.260807
 20
2.710161
  0
VERTEX
  8
PLAN_1
  6
CONTINUOUS
 10
-1.261295
 20
2.706264
  0
VERTEX
  8
PLAN_1
  6
CONTINUOUS
 10
-1.261295
 20
2.702850
  0
VERTEX
  8
PLAN_1
  6
CONTINUOUS
 10
-1.260807
 20
2.698469
  0
VERTEX
  8
PLAN_1
  6
CONTINUOUS
 10
-1.259346
 20
2.694571
  0
VERTEX
  8
PLAN_1
  6
CONTINUOUS
 10
-1.257398
 20
2.690185
  0
VERTEX
  8
PLAN_1
  6
CONTINUOUS
 10
-1.254472
 20
2.685311
  0
VERTEX
  8
PLAN_1
  6
CONTINUOUS
 10
-1.250087
 20
2.680925
  0
SEQEND
  8
0
  0
POLYLINE
  8
PLAN_1
  6
CONTINUOUS
 66
     1
 40
0.005358
 41
0.005358
  0
VERTEX
  8
PLAN_1
  6
CONTINUOUS
 10
-1.250087
 20
2.680925
  0
VERTEX
  8
PLAN_1
  6
CONTINUOUS
 10
-0.968945
 20
2.680925
  0
SEQEND
  8
0
  0
POLYLINE
  8
PLAN_1
  6
CONTINUOUS
 66
     1
 40
0.005358
 41
0.005358
  0
VERTEX
  8
PLAN_1
  6
CONTINUOUS
 10
-0.968945
 20
2.862669
  0
VERTEX
  8
PLAN_1
  6
CONTINUOUS
 10
-0.964071
 20
2.867055
  0
VERTEX
  8
PLAN_1
  6
CONTINUOUS
 10
-0.960661
 20
2.871441
  0
VERTEX
  8
PLAN_1
  6
CONTINUOUS
 10
-0.958224
 20
2.875827
  0
VERTEX
  8
PLAN_1
  6
CONTINUOUS
 10
-0.956764
 20
2.879724
  0
VERTEX
  8
PLAN_1
  6
CONTINUOUS
 10
-0.956276
 20
2.883622
  0
VERTEX
  8
PLAN_1
  6
CONTINUOUS
 10
-0.956276
 20
2.887520
  0
VERTEX
  8
PLAN_1
  6
CONTINUOUS
 10
-0.956764
 20
2.890929
  0
VERTEX
  8
PLAN_1
  6
CONTINUOUS
 10
-0.958224
 20
2.894343
  0
VERTEX
  8
PLAN_1
  6
CONTINUOUS
 10
-0.959689
 20
2.897264
  0
VERTEX
  8
PLAN_1
  6
CONTINUOUS
 10
-0.961150
 20
2.900189
  0
VERTEX
  8
PLAN_1
  6
CONTINUOUS
 10
-0.963098
 20
2.902626
  0
VERTEX
  8
PLAN_1
  6
CONTINUOUS
 10
-0.965047
 20
2.904575
  0
VERTEX
  8
PLAN_1
  6
CONTINUOUS
 10
-0.967484
 20
2.907496
  0
VERTEX
  8
PLAN_1
  6
CONTINUOUS
 10
-0.968945
 20
2.908472
  0
SEQEND
  8
0
  0
POLYLINE
  8
PLAN_1
  6
CONTINUOUS
 66
     1
 40
0.005358
 41
0.005358
  0
VERTEX
  8
PLAN_1
  6
CONTINUOUS
 10
-0.968945
 20
2.908472
  0
VERTEX
  8
PLAN_1
  6
CONTINUOUS
 10
-1.249602
 20
2.908472
  0
SEQEND
  8
0
  0
POLYLINE
  8
PLAN_1
  6
CONTINUOUS
 66
     1
 40
0.005358
 41
0.005358
  0
VERTEX
  8
PLAN_1
  6
CONTINUOUS
 10
-1.249602
 20
2.908472
  0
VERTEX
  8
PLAN_1
  6
CONTINUOUS
 10
-1.250575
 20
2.907496
  0
VERTEX
  8
PLAN_1
  6
CONTINUOUS
 10
-1.253500
 20
2.904575
  0
VERTEX
  8
PLAN_1
  6
CONTINUOUS
 10
-1.256421
 20
2.900677
  0
VERTEX
  8
PLAN_1
  6
CONTINUOUS
 10
-1.259346
 20
2.894831
  0
VERTEX
  8
PLAN_1
  6
CONTINUOUS
 10
-1.260319
 20
2.891906
  0
VERTEX
  8
PLAN_1
  6
CONTINUOUS
 10
-1.260807
 20
2.888008
  0
VERTEX
  8
PLAN_1
  6
CONTINUOUS
 10
-1.260807
 20
2.884598
  0
VERTEX
  8
PLAN_1
  6
CONTINUOUS
 10
-1.260319
 20
2.880213
  0
VERTEX
  8
PLAN_1
  6
CONTINUOUS
 10
-1.259346
 20
2.876315
  0
VERTEX
  8
PLAN_1
  6
CONTINUOUS
 10
-1.256909
 20
2.871929
  0
VERTEX
  8
PLAN_1
  6
CONTINUOUS
 10
-1.253988
 20
2.867055
  0
VERTEX
  8
PLAN_1
  6
CONTINUOUS
 10
-1.249602
 20
2.862669
  0
SEQEND
  8
0
  0
POLYLINE
  8
PLAN_1
  6
CONTINUOUS
 66
     1
 40
0.005358
 41
0.005358
  0
VERTEX
  8
PLAN_1
  6
CONTINUOUS
 10
-1.249602
 20
2.862669
  0
VERTEX
  8
PLAN_1
  6
CONTINUOUS
 10
-0.968945
 20
2.862669
  0
SEQEND
  8
0
  0
POLYLINE
  8
PLAN_1
 62
     2
  6
CONTINUOUS
 66
     1
 40
0.004382
 41
0.004382
  0
VERTEX
  8
PLAN_1
 62
     2
  6
CONTINUOUS
 10
-0.007602
 20
0.278295
  0
VERTEX
  8
PLAN_1
 62
     2
  6
CONTINUOUS
 10
-0.007602
 20
3.868843
  0
SEQEND
  8
0
  0
SOLID
  8
PLAN_1
 62
     2
 10
-0.007602
 20
3.898075
 11
-0.023193
 21
3.839118
 12
-0.007602
 22
3.898075
 13
0.007992
 23
3.839118
  0
POLYLINE
  8
PLAN_1
 62
     2
  6
CONTINUOUS
 66
     1
 40
0.003000
 41
0.003000
  0
VERTEX
  8
PLAN_1
 62
     2
  6
CONTINUOUS
 10
-0.007602
 20
3.898075
  0
VERTEX
  8
PLAN_1
 62
     2
  6
CONTINUOUS
 10
-0.023193
 20
3.839118
  0
VERTEX
  8
PLAN_1
 62
     2
  6
CONTINUOUS
 10
0.007992
 20
3.839118
  0
VERTEX
  8
PLAN_1
 62
     2
  6
CONTINUOUS
 10
-0.007602
 20
3.898075
  0
SEQEND
  8
0
  0
SOLID
  8
PLAN_1
 62
     2
 10
-0.007602
 20
0.248575
 11
-0.023193
 21
0.308020
 12
-0.007602
 22
0.248575
 13
0.007992
 23
0.308020
  0
POLYLINE
  8
PLAN_1
 62
     2
  6
CONTINUOUS
 66
     1
 40
0.003000
 41
0.003000
  0
VERTEX
  8
PLAN_1
 62
     2
  6
CONTINUOUS
 10
-0.007602
 20
0.248575
  0
VERTEX
  8
PLAN_1
 62
     2
  6
CONTINUOUS
 10
-0.023193
 20
0.308020
  0
VERTEX
  8
PLAN_1
 62
     2
  6
CONTINUOUS
 10
0.007992
 20
0.308020
  0
VERTEX
  8
PLAN_1
 62
     2
  6
CONTINUOUS
 10
-0.007602
 20
0.248575
  0
SEQEND
  8
0
  0
POLYLINE
  8
PLAN_1
 62
     2
  6
CONTINUOUS
 66
     1
 40
0.003000
 41
0.003000
  0
VERTEX
  8
PLAN_1
 62
     2
  6
CONTINUOUS
 10
-0.031476
 20
2.024114
  0
VERTEX
  8
PLAN_1
 62
     2
  6
CONTINUOUS
 10
-0.031476
 20
2.014366
  0
VERTEX
  8
PLAN_1
 62
     2
  6
CONTINUOUS
 10
-0.083126
 20
2.014366
  0
VERTEX
  8
PLAN_1
 62
     2
  6
CONTINUOUS
 10
-0.083126
 20
1.997315
  0
VERTEX
  8
PLAN_1
 62
     2
  6
CONTINUOUS
 10
-0.090433
 20
1.997315
  0
VERTEX
  8
PLAN_1
 62
     2
  6
CONTINUOUS
 10
-0.090921
 20
2.001213
  0
VERTEX
  8
PLAN_1
 62
     2
  6
CONTINUOUS
 10
-0.091409
 20
2.004622
  0
VERTEX
  8
PLAN_1
 62
     2
  6
CONTINUOUS
 10
-0.091894
 20
2.008035
  0
VERTEX
  8
PLAN_1
 62
     2
  6
CONTINUOUS
 10
-0.093358
 20
2.010469
  0
VERTEX
  8
PLAN_1
 62
     2
  6
CONTINUOUS
 10
-0.094819
 20
2.012417
  0
VERTEX
  8
PLAN_1
 62
     2
  6
CONTINUOUS
 10
-0.097256
 20
2.014366
  0
VERTEX
  8
PLAN_1
 62
     2
  6
CONTINUOUS
 10
-0.100177
 20
2.015831
  0
VERTEX
  8
PLAN_1
 62
     2
  6
CONTINUOUS
 10
-0.104563
 20
2.016803
  0
VERTEX
  8
PLAN_1
 62
     2
  6
CONTINUOUS
 10
-0.104563
 20
2.024114
  0
VERTEX
  8
PLAN_1
 62
     2
  6
CONTINUOUS
 10
-0.031476
 20
2.024114
  0
SEQEND
  8
0
  0
POLYLINE
  8
PLAN_1
 62
     2
  6
CONTINUOUS
 66
     1
 40
0.003000
 41
0.003000
  0
VERTEX
  8
PLAN_1
 62
     2
  6
CONTINUOUS
 10
-0.049016
 20
2.088429
  0
VERTEX
  8
PLAN_1
 62
     2
  6
CONTINUOUS
 10
-0.031476
 20
2.088429
  0
VERTEX
  8
PLAN_1
 62
     2
  6
CONTINUOUS
 10
-0.031476
 20
2.079173
  0
VERTEX
  8
PLAN_1
 62
     2
  6
CONTINUOUS
 10
-0.049016
 20
2.079173
  0
VERTEX
  8
PLAN_1
 62
     2
  6
CONTINUOUS
 10
-0.049016
 20
2.047016
  0
VERTEX
  8
PLAN_1
 62
     2
  6
CONTINUOUS
 10
-0.057787
 20
2.047016
  0
VERTEX
  8
PLAN_1
 62
     2
  6
CONTINUOUS
 10
-0.104563
 20
2.080634
  0
VERTEX
  8
PLAN_1
 62
     2
  6
CONTINUOUS
 10
-0.104563
 20
2.088429
  0
VERTEX
  8
PLAN_1
 62
     2
  6
CONTINUOUS
 10
-0.056815
 20
2.088429
  0
VERTEX
  8
PLAN_1
 62
     2
  6
CONTINUOUS
 10
-0.056815
 20
2.099150
  0
VERTEX
  8
PLAN_1
 62
     2
  6
CONTINUOUS
 10
-0.049016
 20
2.099150
  0
VERTEX
  8
PLAN_1
 62
     2
  6
CONTINUOUS
 10
-0.049016
 20
2.088429
  0
SEQEND
  8
0
  0
SOLID
  8
PLAN_1
 62
     2
 10
-0.056815
 20
2.055783
 11
-0.056815
 21
2.079173
 12
-0.089945
 22
2.078685
 13
-0.089945
 23
2.079173
  0
POLYLINE
  8
PLAN_1
 62
     2
  6
CONTINUOUS
 66
     1
 40
0.003000
 41
0.003000
  0
VERTEX
  8
PLAN_1
 62
     2
  6
CONTINUOUS
 10
-0.056815
 20
2.055783
  0
VERTEX
  8
PLAN_1
 62
     2
  6
CONTINUOUS
 10
-0.056815
 20
2.079173
  0
VERTEX
  8
PLAN_1
 62
     2
  6
CONTINUOUS
 10
-0.089945
 20
2.079173
  0
VERTEX
  8
PLAN_1
 62
     2
  6
CONTINUOUS
 10
-0.089945
 20
2.078685
  0
VERTEX
  8
PLAN_1
 62
     2
  6
CONTINUOUS
 10
-0.056815
 20
2.055783
  0
SEQEND
  8
0
  0
POLYLINE
  8
PLAN_1
 62
     2
  6
CONTINUOUS
 66
     1
 40
0.003000
 41
0.003000
  0
VERTEX
  8
PLAN_1
 62
     2
  6
CONTINUOUS
 10
-0.031476
 20
2.139591
  0
VERTEX
  8
PLAN_1
 62
     2
  6
CONTINUOUS
 10
-0.031476
 20
2.129846
  0
VERTEX
  8
PLAN_1
 62
     2
  6
CONTINUOUS
 10
-0.083126
 20
2.129846
  0
VERTEX
  8
PLAN_1
 62
     2
  6
CONTINUOUS
 10
-0.083126
 20
2.112791
  0
VERTEX
  8
PLAN_1
 62
     2
  6
CONTINUOUS
 10
-0.090433
 20
2.112791
  0
VERTEX
  8
PLAN_1
 62
     2
  6
CONTINUOUS
 10
-0.090921
 20
2.117177
  0
VERTEX
  8
PLAN_1
 62
     2
  6
CONTINUOUS
 10
-0.091409
 20
2.120587
  0
VERTEX
  8
PLAN_1
 62
     2
  6
CONTINUOUS
 10
-0.091894
 20
2.123512
  0
VERTEX
  8
PLAN_1
 62
     2
  6
CONTINUOUS
 10
-0.093358
 20
2.125949
  0
VERTEX
  8
PLAN_1
 62
     2
  6
CONTINUOUS
 10
-0.094819
 20
2.128386
  0
VERTEX
  8
PLAN_1
 62
     2
  6
CONTINUOUS
 10
-0.097256
 20
2.129846
  0
VERTEX
  8
PLAN_1
 62
     2
  6
CONTINUOUS
 10
-0.100177
 20
2.131307
  0
VERTEX
  8
PLAN_1
 62
     2
  6
CONTINUOUS
 10
-0.104563
 20
2.132772
  0
VERTEX
  8
PLAN_1
 62
     2
  6
CONTINUOUS
 10
-0.104563
 20
2.139591
  0
VERTEX
  8
PLAN_1
 62
     2
  6
CONTINUOUS
 10
-0.031476
 20
2.139591
  0
SEQEND
  8
0
  0
POLYLINE
  8
PLAN_1
 62
     2
  6
CONTINUOUS
 66
     1
 40
0.004382
 41
0.004382
  0
VERTEX
  8
PLAN_1
 62
     2
  6
CONTINUOUS
 10
-0.613252
 20
2.473358
  0
VERTEX
  8
PLAN_1
 62
     2
  6
CONTINUOUS
 10
-1.300764
 20
2.473358
  0
SEQEND
  8
0
  0
SOLID
  8
PLAN_1
 62
     2
 10
-1.271039
 20
2.473358
 11
-1.329996
 21
2.488949
 12
-1.271039
 22
2.473358
 13
-1.329996
 23
2.457280
  0
POLYLINE
  8
PLAN_1
 62
     2
  6
CONTINUOUS
 66
     1
 40
0.003000
 41
0.003000
  0
VERTEX
  8
PLAN_1
 62
     2
  6
CONTINUOUS
 10
-1.271039
 20
2.473358
  0
VERTEX
  8
PLAN_1
 62
     2
  6
CONTINUOUS
 10
-1.329996
 20
2.488949
  0
VERTEX
  8
PLAN_1
 62
     2
  6
CONTINUOUS
 10
-1.329996
 20
2.457280
  0
VERTEX
  8
PLAN_1
 62
     2
  6
CONTINUOUS
 10
-1.271039
 20
2.473358
  0
SEQEND
  8
0
  0
SOLID
  8
PLAN_1
 62
     2
 10
-0.955303
 20
2.473358
 11
-0.895858
 21
2.488949
 12
-0.955303
 22
2.473358
 13
-0.895858
 23
2.457280
  0
POLYLINE
  8
PLAN_1
 62
     2
  6
CONTINUOUS
 66
     1
 40
0.003000
 41
0.003000
  0
VERTEX
  8
PLAN_1
 62
     2
  6
CONTINUOUS
 10
-0.955303
 20
2.473358
  0
VERTEX
  8
PLAN_1
 62
     2
  6
CONTINUOUS
 10
-0.895858
 20
2.488949
  0
VERTEX
  8
PLAN_1
 62
     2
  6
CONTINUOUS
 10
-0.895858
 20
2.457280
  0
VERTEX
  8
PLAN_1
 62
     2
  6
CONTINUOUS
 10
-0.955303
 20
2.473358
  0
SEQEND
  8
0
  0
POLYLINE
  8
PLAN_1
 62
     2
  6
CONTINUOUS
 66
     1
 40
0.003000
 41
0.003000
  0
VERTEX
  8
PLAN_1
 62
     2
  6
CONTINUOUS
 10
-0.734091
 20
2.561063
  0
VERTEX
  8
PLAN_1
 62
     2
  6
CONTINUOUS
 10
-0.731654
 20
2.557654
  0
VERTEX
  8
PLAN_1
 62
     2
  6
CONTINUOUS
 10
-0.730193
 20
2.554728
  0
VERTEX
  8
PLAN_1
 62
     2
  6
CONTINUOUS
 10
-0.728732
 20
2.551319
  0
VERTEX
  8
PLAN_1
 62
     2
  6
CONTINUOUS
 10
-0.727268
 20
2.547906
  0
VERTEX
  8
PLAN_1
 62
     2
  6
CONTINUOUS
 10
-0.726295
 20
2.544496
  0
VERTEX
  8
PLAN_1
 62
     2
  6
CONTINUOUS
 10
-0.725807
 20
2.540598
  0
VERTEX
  8
PLAN_1
 62
     2
  6
CONTINUOUS
 10
-0.725319
 20
2.537673
  0
VERTEX
  8
PLAN_1
 62
     2
  6
CONTINUOUS
 10
-0.725319
 20
2.534264
  0
VERTEX
  8
PLAN_1
 62
     2
  6
CONTINUOUS
 10
-0.725807
 20
2.527929
  0
VERTEX
  8
PLAN_1
 62
     2
  6
CONTINUOUS
 10
-0.727268
 20
2.521106
  0
VERTEX
  8
PLAN_1
 62
     2
  6
CONTINUOUS
 10
-0.728244
 20
2.518185
  0
VERTEX
  8
PLAN_1
 62
     2
  6
CONTINUOUS
 10
-0.729705
 20
2.514776
  0
VERTEX
  8
PLAN_1
 62
     2
  6
CONTINUOUS
 10
-0.731165
 20
2.511362
  0
VERTEX
  8
PLAN_1
 62
     2
  6
CONTINUOUS
 10
-0.733118
 20
2.508441
  0
VERTEX
  8
PLAN_1
 62
     2
  6
CONTINUOUS
 10
-0.735551
 20
2.505516
  0
VERTEX
  8
PLAN_1
 62
     2
  6
CONTINUOUS
 10
-0.737988
 20
2.503079
  0
VERTEX
  8
PLAN_1
 62
     2
  6
CONTINUOUS
 10
-0.740913
 20
2.500642
  0
VERTEX
  8
PLAN_1
 62
     2
  6
CONTINUOUS
 10
-0.744323
 20
2.498693
  0
VERTEX
  8
PLAN_1
 62
     2
  6
CONTINUOUS
 10
-0.748220
 20
2.497232
  0
VERTEX
  8
PLAN_1
 62
     2
  6
CONTINUOUS
 10
-0.752118
 20
2.495772
  0
VERTEX
  8
PLAN_1
 62
     2
  6
CONTINUOUS
 10
-0.756992
 20
2.495283
  0
VERTEX
  8
PLAN_1
 62
     2
  6
CONTINUOUS
 10
-0.761862
 20
2.494795
  0
VERTEX
  8
PLAN_1
 62
     2
  6
CONTINUOUS
 10
-0.765764
 20
2.495283
  0
VERTEX
  8
PLAN_1
 62
     2
  6
CONTINUOUS
 10
-0.769661
 20
2.495772
  0
VERTEX
  8
PLAN_1
 62
     2
  6
CONTINUOUS
 10
-0.773071
 20
2.496260
  0
VERTEX
  8
PLAN_1
 62
     2
  6
CONTINUOUS
 10
-0.775996
 20
2.497232
  0
VERTEX
  8
PLAN_1
 62
     2
  6
CONTINUOUS
 10
-0.778917
 20
2.498693
  0
VERTEX
  8
PLAN_1
 62
     2
  6
CONTINUOUS
 10
-0.781843
 20
2.500157
  0
VERTEX
  8
PLAN_1
 62
     2
  6
CONTINUOUS
 10
-0.784276
 20
2.502106
  0
VERTEX
  8
PLAN_1
 62
     2
  6
CONTINUOUS
 10
-0.786228
 20
2.504055
  0
VERTEX
  8
PLAN_1
 62
     2
  6
CONTINUOUS
 10
-0.794508
 20
2.494795
  0
VERTEX
  8
PLAN_1
 62
     2
  6
CONTINUOUS
 10
-0.797921
 20
2.497720
  0
VERTEX
  8
PLAN_1
 62
     2
  6
CONTINUOUS
 10
-0.789638
 20
2.506976
  0
VERTEX
  8
PLAN_1
 62
     2
  6
CONTINUOUS
 10
-0.791587
 20
2.510390
  0
VERTEX
  8
PLAN_1
 62
     2
  6
CONTINUOUS
 10
-0.793535
 20
2.513799
  0
VERTEX
  8
PLAN_1
 62
     2
  6
CONTINUOUS
 10
-0.794996
 20
2.517209
  0
VERTEX
  8
PLAN_1
 62
     2
  6
CONTINUOUS
 10
-0.796461
 20
2.520622
  0
VERTEX
  8
PLAN_1
 62
     2
  6
CONTINUOUS
 10
-0.796945
 20
2.524031
  0
VERTEX
  8
PLAN_1
 62
     2
  6
CONTINUOUS
 10
-0.797921
 20
2.527441
  0
VERTEX
  8
PLAN_1
 62
     2
  6
CONTINUOUS
 10
-0.797921
 20
2.530854
  0
VERTEX
  8
PLAN_1
 62
     2
  6
CONTINUOUS
 10
-0.798409
 20
2.534264
  0
VERTEX
  8
PLAN_1
 62
     2
  6
CONTINUOUS
 10
-0.797921
 20
2.540598
  0
VERTEX
  8
PLAN_1
 62
     2
  6
CONTINUOUS
 10
-0.796461
 20
2.546933
  0
VERTEX
  8
PLAN_1
 62
     2
  6
CONTINUOUS
 10
-0.795484
 20
2.550343
  0
VERTEX
  8
PLAN_1
 62
     2
  6
CONTINUOUS
 10
-0.794024
 20
2.553752
  0
VERTEX
  8
PLAN_1
 62
     2
  6
CONTINUOUS
 10
-0.792559
 20
2.556677
  0
VERTEX
  8
PLAN_1
 62
     2
  6
CONTINUOUS
 10
-0.790610
 20
2.560087
  0
VERTEX
  8
PLAN_1
 62
     2
  6
CONTINUOUS
 10
-0.788177
 20
2.562524
  0
VERTEX
  8
PLAN_1
 62
     2
  6
CONTINUOUS
 10
-0.785740
 20
2.565449
  0
VERTEX
  8
PLAN_1
 62
     2
  6
CONTINUOUS
 10
-0.782815
 20
2.567886
  0
VERTEX
  8
PLAN_1
 62
     2
  6
CONTINUOUS
 10
-0.779406
 20
2.569835
  0
VERTEX
  8
PLAN_1
 62
     2
  6
CONTINUOUS
 10
-0.775508
 20
2.571295
  0
VERTEX
  8
PLAN_1
 62
     2
  6
CONTINUOUS
 10
-0.771610
 20
2.572756
  0
VERTEX
  8
PLAN_1
 62
     2
  6
CONTINUOUS
 10
-0.766736
 20
2.573244
  0
VERTEX
  8
PLAN_1
 62
     2
  6
CONTINUOUS
 10
-0.761862
 20
2.573732
  0
VERTEX
  8
PLAN_1
 62
     2
  6
CONTINUOUS
 10
-0.757965
 20
2.573244
  0
VERTEX
  8
PLAN_1
 62
     2
  6
CONTINUOUS
 10
-0.754067
 20
2.572756
  0
VERTEX
  8
PLAN_1
 62
     2
  6
CONTINUOUS
 10
-0.750657
 20
2.572268
  0
VERTEX
  8
PLAN_1
 62
     2
  6
CONTINUOUS
 10
-0.747248
 20
2.570807
  0
VERTEX
  8
PLAN_1
 62
     2
  6
CONTINUOUS
 10
-0.744323
 20
2.569835
  0
VERTEX
  8
PLAN_1
 62
     2
  6
CONTINUOUS
 10
-0.741398
 20
2.567886
  0
VERTEX
  8
PLAN_1
 62
     2
  6
CONTINUOUS
 10
-0.738965
 20
2.566421
  0
VERTEX
  8
PLAN_1
 62
     2
  6
CONTINUOUS
 10
-0.737016
 20
2.564472
  0
VERTEX
  8
PLAN_1
 62
     2
  6
CONTINUOUS
 10
-0.728732
 20
2.573732
  0
VERTEX
  8
PLAN_1
 62
     2
  6
CONTINUOUS
 10
-0.725319
 20
2.570319
  0
VERTEX
  8
PLAN_1
 62
     2
  6
CONTINUOUS
 10
-0.734091
 20
2.561063
  0
SEQEND
  8
0
  0
POLYLINE
  8
PLAN_1
 62
     2
  6
CONTINUOUS
 66
     1
 40
0.003000
 41
0.003000
  0
VERTEX
  8
PLAN_1
 62
     2
  6
CONTINUOUS
 10
-0.779894
 20
2.511362
  0
VERTEX
  8
PLAN_1
 62
     2
  6
CONTINUOUS
 10
-0.777945
 20
2.509413
  0
VERTEX
  8
PLAN_1
 62
     2
  6
CONTINUOUS
 10
-0.775996
 20
2.507953
  0
VERTEX
  8
PLAN_1
 62
     2
  6
CONTINUOUS
 10
-0.774047
 20
2.506976
  0
VERTEX
  8
PLAN_1
 62
     2
  6
CONTINUOUS
 10
-0.772094
 20
2.506004
  0
VERTEX
  8
PLAN_1
 62
     2
  6
CONTINUOUS
 10
-0.769661
 20
2.505028
  0
VERTEX
  8
PLAN_1
 62
     2
  6
CONTINUOUS
 10
-0.767224
 20
2.504543
  0
VERTEX
  8
PLAN_1
 62
     2
  6
CONTINUOUS
 10
-0.764787
 20
2.504055
  0
VERTEX
  8
PLAN_1
 62
     2
  6
CONTINUOUS
 10
-0.761862
 20
2.504055
  0
VERTEX
  8
PLAN_1
 62
     2
  6
CONTINUOUS
 10
-0.758941
 20
2.504055
  0
VERTEX
  8
PLAN_1
 62
     2
  6
CONTINUOUS
 10
-0.756016
 20
2.504543
  0
VERTEX
  8
PLAN_1
 62
     2
  6
CONTINUOUS
 10
-0.753583
 20
2.505028
  0
VERTEX
  8
PLAN_1
 62
     2
  6
CONTINUOUS
 10
-0.751146
 20
2.506004
  0
VERTEX
  8
PLAN_1
 62
     2
  6
CONTINUOUS
 10
-0.748709
 20
2.507465
  0
VERTEX
  8
PLAN_1
 62
     2
  6
CONTINUOUS
 10
-0.746272
 20
2.508925
  0
VERTEX
  8
PLAN_1
 62
     2
  6
CONTINUOUS
 10
-0.744323
 20
2.510390
  0
VERTEX
  8
PLAN_1
 62
     2
  6
CONTINUOUS
 10
-0.742862
 20
2.512339
  0
VERTEX
  8
PLAN_1
 62
     2
  6
CONTINUOUS
 10
-0.741398
 20
2.514776
  0
VERTEX
  8
PLAN_1
 62
     2
  6
CONTINUOUS
 10
-0.739937
 20
2.516724
  0
VERTEX
  8
PLAN_1
 62
     2
  6
CONTINUOUS
 10
-0.738476
 20
2.519157
  0
VERTEX
  8
PLAN_1
 62
     2
  6
CONTINUOUS
 10
-0.737500
 20
2.522083
  0
VERTEX
  8
PLAN_1
 62
     2
  6
CONTINUOUS
 10
-0.736528
 20
2.527929
  0
VERTEX
  8
PLAN_1
 62
     2
  6
CONTINUOUS
 10
-0.736039
 20
2.534264
  0
VERTEX
  8
PLAN_1
 62
     2
  6
CONTINUOUS
 10
-0.736039
 20
2.537189
  0
VERTEX
  8
PLAN_1
 62
     2
  6
CONTINUOUS
 10
-0.736039
 20
2.539622
  0
VERTEX
  8
PLAN_1
 62
     2
  6
CONTINUOUS
 10
-0.736528
 20
2.542059
  0
VERTEX
  8
PLAN_1
 62
     2
  6
CONTINUOUS
 10
-0.737016
 20
2.544496
  0
VERTEX
  8
PLAN_1
 62
     2
  6
CONTINUOUS
 10
-0.737988
 20
2.546933
  0
VERTEX
  8
PLAN_1
 62
     2
  6
CONTINUOUS
 10
-0.738965
 20
2.549370
  0
VERTEX
  8
PLAN_1
 62
     2
  6
CONTINUOUS
 10
-0.739937
 20
2.551319
  0
VERTEX
  8
PLAN_1
 62
     2
  6
CONTINUOUS
 10
-0.740913
 20
2.553268
  0
VERTEX
  8
PLAN_1
 62
     2
  6
CONTINUOUS
 10
-0.779894
 20
2.511362
  0
SEQEND
  8
0
  0
POLYLINE
  8
PLAN_1
 62
     2
  6
CONTINUOUS
 66
     1
 40
0.003000
 41
0.003000
  0
VERTEX
  8
PLAN_1
 62
     2
  6
CONTINUOUS
 10
-0.743835
 20
2.557165
  0
VERTEX
  8
PLAN_1
 62
     2
  6
CONTINUOUS
 10
-0.745299
 20
2.558626
  0
VERTEX
  8
PLAN_1
 62
     2
  6
CONTINUOUS
 10
-0.747248
 20
2.560087
  0
VERTEX
  8
PLAN_1
 62
     2
  6
CONTINUOUS
 10
-0.749197
 20
2.561551
  0
VERTEX
  8
PLAN_1
 62
     2
  6
CONTINUOUS
 10
-0.751630
 20
2.562524
  0
VERTEX
  8
PLAN_1
 62
     2
  6
CONTINUOUS
 10
-0.754067
 20
2.563500
  0
VERTEX
  8
PLAN_1
 62
     2
  6
CONTINUOUS
 10
-0.756504
 20
2.563984
  0
VERTEX
  8
PLAN_1
 62
     2
  6
CONTINUOUS
 10
-0.758941
 20
2.564472
  0
VERTEX
  8
PLAN_1
 62
     2
  6
CONTINUOUS
 10
-0.761862
 20
2.564472
  0
VERTEX
  8
PLAN_1
 62
     2
  6
CONTINUOUS
 10
-0.764787
 20
2.564472
  0
VERTEX
  8
PLAN_1
 62
     2
  6
CONTINUOUS
 10
-0.767713
 20
2.563984
  0
VERTEX
  8
PLAN_1
 62
     2
  6
CONTINUOUS
 10
-0.770146
 20
2.563500
  0
VERTEX
  8
PLAN_1
 62
     2
  6
CONTINUOUS
 10
-0.772583
 20
2.562524
  0
VERTEX
  8
PLAN_1
 62
     2
  6
CONTINUOUS
 10
-0.775020
 20
2.561063
  0
VERTEX
  8
PLAN_1
 62
     2
  6
CONTINUOUS
 10
-0.777457
 20
2.559602
  0
VERTEX
  8
PLAN_1
 62
     2
  6
CONTINUOUS
 10
-0.779406
 20
2.558138
  0
VERTEX
  8
PLAN_1
 62
     2
  6
CONTINUOUS
 10
-0.780866
 20
2.556189
  0
VERTEX
  8
PLAN_1
 62
     2
  6
CONTINUOUS
 10
-0.782327
 20
2.553752
  0
VERTEX
  8
PLAN_1
 62
     2
  6
CONTINUOUS
 10
-0.783791
 20
2.551319
  0
VERTEX
  8
PLAN_1
 62
     2
  6
CONTINUOUS
 10
-0.785252
 20
2.548882
  0
VERTEX
  8
PLAN_1
 62
     2
  6
CONTINUOUS
 10
-0.786228
 20
2.546445
  0
VERTEX
  8
PLAN_1
 62
     2
  6
CONTINUOUS
 10
-0.787201
 20
2.540598
  0
VERTEX
  8
PLAN_1
 62
     2
  6
CONTINUOUS
 10
-0.787689
 20
2.534264
  0
VERTEX
  8
PLAN_1
 62
     2
  6
CONTINUOUS
 10
-0.787689
 20
2.531339
  0
VERTEX
  8
PLAN_1
 62
     2
  6
CONTINUOUS
 10
-0.787689
 20
2.528906
  0
VERTEX
  8
PLAN_1
 62
     2
  6
CONTINUOUS
 10
-0.787201
 20
2.525980
  0
VERTEX
  8
PLAN_1
 62
     2
  6
CONTINUOUS
 10
-0.786713
 20
2.523543
  0
VERTEX
  8
PLAN_1
 62
     2
  6
CONTINUOUS
 10
-0.785740
 20
2.521106
  0
VERTEX
  8
PLAN_1
 62
     2
  6
CONTINUOUS
 10
-0.784764
 20
2.518673
  0
VERTEX
  8
PLAN_1
 62
     2
  6
CONTINUOUS
 10
-0.783791
 20
2.516724
  0
VERTEX
  8
PLAN_1
 62
     2
  6
CONTINUOUS
 10
-0.782327
 20
2.514776
  0
VERTEX
  8
PLAN_1
 62
     2
  6
CONTINUOUS
 10
-0.743835
 20
2.557165
  0
SEQEND
  8
0
  0
POLYLINE
  8
PLAN_1
 62
     2
  6
CONTINUOUS
 66
     1
 40
0.003000
 41
0.003000
  0
VERTEX
  8
PLAN_1
 62
     2
  6
CONTINUOUS
 10
-0.678055
 20
2.550343
  0
VERTEX
  8
PLAN_1
 62
     2
  6
CONTINUOUS
 10
-0.678543
 20
2.552780
  0
VERTEX
  8
PLAN_1
 62
     2
  6
CONTINUOUS
 10
-0.679031
 20
2.555217
  0
VERTEX
  8
PLAN_1
 62
     2
  6
CONTINUOUS
 10
-0.680492
 20
2.557165
  0
VERTEX
  8
PLAN_1
 62
     2
  6
CONTINUOUS
 10
-0.681469
 20
2.558626
  0
VERTEX
  8
PLAN_1
 62
     2
  6
CONTINUOUS
 10
-0.683417
 20
2.560087
  0
VERTEX
  8
PLAN_1
 62
     2
  6
CONTINUOUS
 10
-0.685366
 20
2.561063
  0
VERTEX
  8
PLAN_1
 62
     2
  6
CONTINUOUS
 10
-0.687803
 20
2.561551
  0
VERTEX
  8
PLAN_1
 62
     2
  6
CONTINUOUS
 10
-0.690724
 20
2.562035
  0
VERTEX
  8
PLAN_1
 62
     2
  6
CONTINUOUS
 10
-0.693161
 20
2.561551
  0
VERTEX
  8
PLAN_1
 62
     2
  6
CONTINUOUS
 10
-0.695598
 20
2.561063
  0
VERTEX
  8
PLAN_1
 62
     2
  6
CONTINUOUS
 10
-0.697547
 20
2.560087
  0
VERTEX
  8
PLAN_1
 62
     2
  6
CONTINUOUS
 10
-0.699496
 20
2.558626
  0
VERTEX
  8
PLAN_1
 62
     2
  6
CONTINUOUS
 10
-0.700957
 20
2.557165
  0
VERTEX
  8
PLAN_1
 62
     2
  6
CONTINUOUS
 10
-0.702421
 20
2.555217
  0
VERTEX
  8
PLAN_1
 62
     2
  6
CONTINUOUS
 10
-0.703394
 20
2.553268
  0
VERTEX
  8
PLAN_1
 62
     2
  6
CONTINUOUS
 10
-0.704370
 20
2.551319
  0
VERTEX
  8
PLAN_1
 62
     2
  6
CONTINUOUS
 10
-0.706319
 20
2.546445
  0
VERTEX
  8
PLAN_1
 62
     2
  6
CONTINUOUS
 10
-0.707291
 20
2.542059
  0
VERTEX
  8
PLAN_1
 62
     2
  6
CONTINUOUS
 10
-0.707780
 20
2.538161
  0
VERTEX
  8
PLAN_1
 62
     2
  6
CONTINUOUS
 10
-0.707780
 20
2.534752
  0
VERTEX
  8
PLAN_1
 62
     2
  6
CONTINUOUS
 10
-0.706803
 20
2.536213
  0
VERTEX
  8
PLAN_1
 62
     2
  6
CONTINUOUS
 10
-0.705343
 20
2.537673
  0
VERTEX
  8
PLAN_1
 62
     2
  6
CONTINUOUS
 10
-0.703882
 20
2.539138
  0
VERTEX
  8
PLAN_1
 62
     2
  6
CONTINUOUS
 10
-0.701933
 20
2.540598
  0
VERTEX
  8
PLAN_1
 62
     2
  6
CONTINUOUS
 10
-0.699496
 20
2.541571
  0
VERTEX
  8
PLAN_1
 62
     2
  6
CONTINUOUS
 10
-0.697059
 20
2.542547
  0
VERTEX
  8
PLAN_1
 62
     2
  6
CONTINUOUS
 10
-0.693650
 20
2.543035
  0
VERTEX
  8
PLAN_1
 62
     2
  6
CONTINUOUS
 10
-0.690240
 20
2.543520
  0
VERTEX
  8
PLAN_1
 62
     2
  6
CONTINUOUS
 10
-0.686827
 20
2.543035
  0
VERTEX
  8
PLAN_1
 62
     2
  6
CONTINUOUS
 10
-0.682929
 20
2.542547
  0
VERTEX
  8
PLAN_1
 62
     2
  6
CONTINUOUS
 10
-0.679031
 20
2.540598
  0
VERTEX
  8
PLAN_1
 62
     2
  6
CONTINUOUS
 10
-0.675622
 20
2.538650
  0
VERTEX
  8
PLAN_1
 62
     2
  6
CONTINUOUS
 10
-0.673673
 20
2.537189
  0
VERTEX
  8
PLAN_1
 62
     2
  6
CONTINUOUS
 10
-0.672209
 20
2.535240
  0
VERTEX
  8
PLAN_1
 62
     2
  6
CONTINUOUS
 10
-0.670748
 20
2.533287
  0
VERTEX
  8
PLAN_1
 62
     2
  6
CONTINUOUS
 10
-0.669776
 20
2.531339
  0
VERTEX
  8
PLAN_1
 62
     2
  6
CONTINUOUS
 10
-0.668799
 20
2.528906
  0
VERTEX
  8
PLAN_1
 62
     2
  6
CONTINUOUS
 10
-0.667823
 20
2.526469
  0
VERTEX
  8
PLAN_1
 62
     2
  6
CONTINUOUS
 10
-0.667339
 20
2.523543
  0
VERTEX
  8
PLAN_1
 62
     2
  6
CONTINUOUS
 10
-0.667339
 20
2.520134
  0
VERTEX
  8
PLAN_1
 62
     2
  6
CONTINUOUS
 10
-0.667339
 20
2.517697
  0
VERTEX
  8
PLAN_1
 62
     2
  6
CONTINUOUS
 10
-0.667823
 20
2.515260
  0
VERTEX
  8
PLAN_1
 62
     2
  6
CONTINUOUS
 10
-0.668311
 20
2.512823
  0
VERTEX
  8
PLAN_1
 62
     2
  6
CONTINUOUS
 10
-0.668799
 20
2.510390
  0
VERTEX
  8
PLAN_1
 62
     2
  6
CONTINUOUS
 10
-0.669776
 20
2.507953
  0
VERTEX
  8
PLAN_1
 62
     2
  6
CONTINUOUS
 10
-0.671236
 20
2.506004
  0
VERTEX
  8
PLAN_1
 62
     2
  6
CONTINUOUS
 10
-0.672697
 20
2.504055
  0
VERTEX
  8
PLAN_1
 62
     2
  6
CONTINUOUS
 10
-0.674157
 20
2.502106
  0
VERTEX
  8
PLAN_1
 62
     2
  6
CONTINUOUS
 10
-0.676106
 20
2.500642
  0
VERTEX
  8
PLAN_1
 62
     2
  6
CONTINUOUS
 10
-0.677571
 20
2.499181
  0
VERTEX
  8
PLAN_1
 62
     2
  6
CONTINUOUS
 10
-0.679031
 20
2.497720
  0
VERTEX
  8
PLAN_1
 62
     2
  6
CONTINUOUS
 10
-0.680980
 20
2.496744
  0
VERTEX
  8
PLAN_1
 62
     2
  6
CONTINUOUS
 10
-0.683417
 20
2.495772
  0
VERTEX
  8
PLAN_1
 62
     2
  6
CONTINUOUS
 10
-0.686339
 20
2.495283
  0
VERTEX
  8
PLAN_1
 62
     2
  6
CONTINUOUS
 10
-0.689264
 20
2.494795
  0
VERTEX
  8
PLAN_1
 62
     2
  6
CONTINUOUS
 10
-0.692673
 20
2.494795
  0
VERTEX
  8
PLAN_1
 62
     2
  6
CONTINUOUS
 10
-0.695110
 20
2.494795
  0
VERTEX
  8
PLAN_1
 62
     2
  6
CONTINUOUS
 10
-0.697547
 20
2.495283
  0
VERTEX
  8
PLAN_1
 62
     2
  6
CONTINUOUS
 10
-0.699984
 20
2.496260
  0
VERTEX
  8
PLAN_1
 62
     2
  6
CONTINUOUS
 10
-0.702421
 20
2.497232
  0
VERTEX
  8
PLAN_1
 62
     2
  6
CONTINUOUS
 10
-0.704854
 20
2.498693
  0
VERTEX
  8
PLAN_1
 62
     2
  6
CONTINUOUS
 10
-0.707291
 20
2.500642
  0
VERTEX
  8
PLAN_1
 62
     2
  6
CONTINUOUS
 10
-0.709728
 20
2.502594
  0
VERTEX
  8
PLAN_1
 62
     2
  6
CONTINUOUS
 10
-0.711677
 20
2.505516
  0
VERTEX
  8
PLAN_1
 62
     2
  6
CONTINUOUS
 10
-0.713138
 20
2.507953
  0
VERTEX
  8
PLAN_1
 62
     2
  6
CONTINUOUS
 10
-0.714602
 20
2.510874
  0
VERTEX
  8
PLAN_1
 62
     2
  6
CONTINUOUS
 10
-0.715575
 20
2.513799
  0
VERTEX
  8
PLAN_1
 62
     2
  6
CONTINUOUS
 10
-0.716063
 20
2.517209
  0
VERTEX
  8
PLAN_1
 62
     2
  6
CONTINUOUS
 10
-0.716551
 20
2.520622
  0
VERTEX
  8
PLAN_1
 62
     2
  6
CONTINUOUS
 10
-0.717035
 20
2.524031
  0
VERTEX
  8
PLAN_1
 62
     2
  6
CONTINUOUS
 10
-0.717524
 20
2.527441
  0
VERTEX
  8
PLAN_1
 62
     2
  6
CONTINUOUS
 10
-0.717524
 20
2.530854
  0
VERTEX
  8
PLAN_1
 62
     2
  6
CONTINUOUS
 10
-0.717035
 20
2.537189
  0
VERTEX
  8
PLAN_1
 62
     2
  6
CONTINUOUS
 10
-0.716063
 20
2.544008
  0
VERTEX
  8
PLAN_1
 62
     2
  6
CONTINUOUS
 10
-0.714602
 20
2.550343
  0
VERTEX
  8
PLAN_1
 62
     2
  6
CONTINUOUS
 10
-0.712165
 20
2.556677
  0
VERTEX
  8
PLAN_1
 62
     2
  6
CONTINUOUS
 10
-0.710217
 20
2.559114
  0
VERTEX
  8
PLAN_1
 62
     2
  6
CONTINUOUS
 10
-0.708268
 20
2.562035
  0
VERTEX
  8
PLAN_1
 62
     2
  6
CONTINUOUS
 10
-0.706319
 20
2.563984
  0
VERTEX
  8
PLAN_1
 62
     2
  6
CONTINUOUS
 10
-0.703882
 20
2.565933
  0
VERTEX
  8
PLAN_1
 62
     2
  6
CONTINUOUS
 10
-0.700957
 20
2.567886
  0
VERTEX
  8
PLAN_1
 62
     2
  6
CONTINUOUS
 10
-0.697547
 20
2.568858
  0
VERTEX
  8
PLAN_1
 62
     2
  6
CONTINUOUS
 10
-0.694138
 20
2.569835
  0
VERTEX
  8
PLAN_1
 62
     2
  6
CONTINUOUS
 10
-0.690240
 20
2.569835
  0
VERTEX
  8
PLAN_1
 62
     2
  6
CONTINUOUS
 10
-0.686827
 20
2.569835
  0
VERTEX
  8
PLAN_1
 62
     2
  6
CONTINUOUS
 10
-0.683417
 20
2.568858
  0
VERTEX
  8
PLAN_1
 62
     2
  6
CONTINUOUS
 10
-0.680008
 20
2.567886
  0
VERTEX
  8
PLAN_1
 62
     2
  6
CONTINUOUS
 10
-0.676594
 20
2.565933
  0
VERTEX
  8
PLAN_1
 62
     2
  6
CONTINUOUS
 10
-0.674157
 20
2.563012
  0
VERTEX
  8
PLAN_1
 62
     2
  6
CONTINUOUS
 10
-0.671724
 20
2.560087
  0
VERTEX
  8
PLAN_1
 62
     2
  6
CONTINUOUS
 10
-0.670748
 20
2.557654
  0
VERTEX
  8
PLAN_1
 62
     2
  6
CONTINUOUS
 10
-0.669776
 20
2.555705
  0
VERTEX
  8
PLAN_1
 62
     2
  6
CONTINUOUS
 10
-0.669287
 20
2.553268
  0
VERTEX
  8
PLAN_1
 62
     2
  6
CONTINUOUS
 10
-0.668799
 20
2.550343
  0
VERTEX
  8
PLAN_1
 62
     2
  6
CONTINUOUS
 10
-0.678055
 20
2.550343
  0
SEQEND
  8
0
  0
POLYLINE
  8
PLAN_1
 62
     2
  6
CONTINUOUS
 66
     1
 40
0.003000
 41
0.003000
  0
VERTEX
  8
PLAN_1
 62
     2
  6
CONTINUOUS
 10
-0.691213
 20
2.503079
  0
VERTEX
  8
PLAN_1
 62
     2
  6
CONTINUOUS
 10
-0.688287
 20
2.503567
  0
VERTEX
  8
PLAN_1
 62
     2
  6
CONTINUOUS
 10
-0.685366
 20
2.504543
  0
VERTEX
  8
PLAN_1
 62
     2
  6
CONTINUOUS
 10
-0.682929
 20
2.506004
  0
VERTEX
  8
PLAN_1
 62
     2
  6
CONTINUOUS
 10
-0.680980
 20
2.507953
  0
VERTEX
  8
PLAN_1
 62
     2
  6
CONTINUOUS
 10
-0.679031
 20
2.510390
  0
VERTEX
  8
PLAN_1
 62
     2
  6
CONTINUOUS
 10
-0.678055
 20
2.513311
  0
VERTEX
  8
PLAN_1
 62
     2
  6
CONTINUOUS
 10
-0.677083
 20
2.516236
  0
VERTEX
  8
PLAN_1
 62
     2
  6
CONTINUOUS
 10
-0.677083
 20
2.519646
  0
VERTEX
  8
PLAN_1
 62
     2
  6
CONTINUOUS
 10
-0.677083
 20
2.522571
  0
VERTEX
  8
PLAN_1
 62
     2
  6
CONTINUOUS
 10
-0.677571
 20
2.525008
  0
VERTEX
  8
PLAN_1
 62
     2
  6
CONTINUOUS
 10
-0.678543
 20
2.527441
  0
VERTEX
  8
PLAN_1
 62
     2
  6
CONTINUOUS
 10
-0.680008
 20
2.529878
  0
VERTEX
  8
PLAN_1
 62
     2
  6
CONTINUOUS
 10
-0.681957
 20
2.532315
  0
VERTEX
  8
PLAN_1
 62
     2
  6
CONTINUOUS
 10
-0.684390
 20
2.533776
  0
VERTEX
  8
PLAN_1
 62
     2
  6
CONTINUOUS
 10
-0.687803
 20
2.534752
  0
VERTEX
  8
PLAN_1
 62
     2
  6
CONTINUOUS
 10
-0.691701
 20
2.535240
  0
VERTEX
  8
PLAN_1
 62
     2
  6
CONTINUOUS
 10
-0.695110
 20
2.534752
  0
VERTEX
  8
PLAN_1
 62
     2
  6
CONTINUOUS
 10
-0.698035
 20
2.533776
  0
VERTEX
  8
PLAN_1
 62
     2
  6
CONTINUOUS
 10
-0.700957
 20
2.532315
  0
VERTEX
  8
PLAN_1
 62
     2
  6
CONTINUOUS
 10
-0.702906
 20
2.530366
  0
VERTEX
  8
PLAN_1
 62
     2
  6
CONTINUOUS
 10
-0.704370
 20
2.527929
  0
VERTEX
  8
PLAN_1
 62
     2
  6
CONTINUOUS
 10
-0.705831
 20
2.525492
  0
VERTEX
  8
PLAN_1
 62
     2
  6
CONTINUOUS
 10
-0.706319
 20
2.522571
  0
VERTEX
  8
PLAN_1
 62
     2
  6
CONTINUOUS
 10
-0.706803
 20
2.519157
  0
VERTEX
  8
PLAN_1
 62
     2
  6
CONTINUOUS
 10
-0.706319
 20
2.516236
  0
VERTEX
  8
PLAN_1
 62
     2
  6
CONTINUOUS
 10
-0.705831
 20
2.513311
  0
VERTEX
  8
PLAN_1
 62
     2
  6
CONTINUOUS
 10
-0.704370
 20
2.510874
  0
VERTEX
  8
PLAN_1
 62
     2
  6
CONTINUOUS
 10
-0.702906
 20
2.508441
  0
VERTEX
  8
PLAN_1
 62
     2
  6
CONTINUOUS
 10
-0.700957
 20
2.506004
  0
VERTEX
  8
PLAN_1
 62
     2
  6
CONTINUOUS
 10
-0.698035
 20
2.504543
  0
VERTEX
  8
PLAN_1
 62
     2
  6
CONTINUOUS
 10
-0.695110
 20
2.503567
  0
VERTEX
  8
PLAN_1
 62
     2
  6
CONTINUOUS
 10
-0.691213
 20
2.503079
  0
SEQEND
  8
0
  0
POLYLINE
  8
PLAN_1
 62
     2
  6
CONTINUOUS
 66
     1
 40
0.004382
 41
0.004382
  0
VERTEX
  8
PLAN_1
 62
     2
  6
CONTINUOUS
 10
-0.946043
 20
3.898075
  0
VERTEX
  8
PLAN_1
 62
     2
  6
CONTINUOUS
 10
0.015787
 20
3.898075
  0
SEQEND
  8
0
  0
POLYLINE
  8
PLAN_1
 62
     2
  6
CONTINUOUS
 66
     1
 40
0.004382
 41
0.004382
  0
VERTEX
  8
PLAN_1
 62
     2
  6
CONTINUOUS
 10
-0.123079
 20
0.248575
  0
VERTEX
  8
PLAN_1
 62
     2
  6
CONTINUOUS
 10
0.015787
 20
0.248575
  0
SEQEND
  8
0
  0
ENDSEC
  0
EOF
