  0
SECTION
  2
HEADER
  9
$ACADVER
  1
AC1006
  9
$EXTMIN
 10
-2.213000
 20
-4.095000
  9
$EXTMAX
 10
2.214803
 20
4.098000
  9
$LTSCALE
 40
0.000394
  9
$PDMODE
 70
    35
  9
$PDSIZE
 40
0.000315
  0
ENDSEC
  0
SECTION
  2
TABLES
  0
TABLE
  2
LTYPE
 70
     9
  0
LTYPE
  2
CONTINUOUS
 70
    64
  3
Solid line
 72
    65
 73
     0
 40
0.000000
  0
LTYPE
  2
DASHED
 70
    64
  3
__ __ __ __ __ __ __ __ __ __ __ __ __ __ __
 72
    65
 73
     2
 40
0.000003
 49
0.000002
 49
-0.000001
  0
LTYPE
  2
HIDDEN
 70
    64
  3
 _ _ _ _ _ _ _ _ _ _ _ _ _ _ _ _ _ _ _ _ _ _
 72
    65
 73
     2
 40
0.000001
 49
0.000001
 49
-0.000000
  0
LTYPE
  2
CENTER
 70
    64
  3
____ _ ____ _ ____ _ ____ _ ____ _ ____ _ ____
 72
    65
 73
     4
 40
0.000008
 49
0.000005
 49
-0.000001
 49
0.000001
 49
-0.000001
  0
LTYPE
  2
PHANTOM
 70
    64
  3
_____ _ _ _____ _ _ _____ _ _ _____ _ _ ____
 72
    65
 73
     6
 40
0.000010
 49
0.000005
 49
-0.000001
 49
0.000001
 49
-0.000001
 49
0.000001
 49
-0.000001
  0
LTYPE
  2
DOT
 70
    64
  3
...............................................
 72
    65
 73
     2
 40
0.000001
 49
0.000000
 49
-0.000001
  0
LTYPE
  2
DASHDOT
 70
    64
  3
__ . __ . __ . __ . __ . __ . __ . __ . __ . __
 72
    65
 73
     4
 40
0.000004
 49
0.000002
 49
-0.000001
 49
0.000000
 49
-0.000001
  0
LTYPE
  2
BORDER
 70
    64
  3
__ __ . __ __ . __ __ . __ __ . __ __ . __ __
 72
    65
 73
     6
 40
0.000007
 49
0.000002
 49
-0.000001
 49
0.000002
 49
-0.000001
 49
0.000000
 49
-0.000001
  0
LTYPE
  2
DIVIDE
 70
    64
  3
__ . . __ . . __ . . __ . . __ . . __ . . __
 72
    65
 73
     6
 40
0.000005
 49
0.000002
 49
-0.000001
 49
0.000000
 49
-0.000001
 49
0.000000
 49
-0.000001
  0
LTYPE
  2
DOTDOT
 70
    64
  3
 . .  . .  . .  . .  . .  . . 
 72
    65
 73
     5
 40
0.000002
 49
-0.000001
 49
0.000000
 49
-0.000001
 49
0.000000
 49
-0.000001
  0
ENDTAB
  0
TABLE
  2
STYLE
 70
     0
  0
ENDTAB
  0
TABLE
  2
LAYER
 70
     3
  0
LAYER
  2
FOREGROUND
 70
    64
 62
     7
  6
CONTINUOUS
  0
LAYER
  2
BACKGROUND
 70
    65
 62
    -7
  6
CONTINUOUS
  0
LAYER
  2
PLAN_1
 70
    64
 62
     7
  6
CONTINUOUS
  0
ENDTAB
  0
ENDSEC
  0
SECTION
  2
ENTITIES
  0
POLYLINE
  8
PLAN_1
  6
CONTINUOUS
 66
     1
 40
0.003000
 41
0.003000
  0
VERTEX
  8
PLAN_1
  6
CONTINUOUS
 10
0.242850
 20
-4.089878
  0
VERTEX
  8
PLAN_1
  6
CONTINUOUS
 10
0.209567
 20
-4.089878
  0
VERTEX
  8
PLAN_1
  6
CONTINUOUS
 10
0.156315
 20
-4.007949
  0
VERTEX
  8
PLAN_1
  6
CONTINUOUS
 10
0.101012
 20
-4.089878
  0
VERTEX
  8
PLAN_1
  6
CONTINUOUS
 10
0.068240
 20
-4.089878
  0
VERTEX
  8
PLAN_1
  6
CONTINUOUS
 10
0.139925
 20
-3.987469
  0
VERTEX
  8
PLAN_1
  6
CONTINUOUS
 10
0.072846
 20
-3.890173
  0
VERTEX
  8
PLAN_1
  6
CONTINUOUS
 10
0.106642
 20
-3.890173
  0
VERTEX
  8
PLAN_1
  6
CONTINUOUS
 10
0.157339
 20
-3.966984
  0
VERTEX
  8
PLAN_1
  6
CONTINUOUS
 10
0.207520
 20
-3.890173
  0
VERTEX
  8
PLAN_1
  6
CONTINUOUS
 10
0.239780
 20
-3.890173
  0
VERTEX
  8
PLAN_1
  6
CONTINUOUS
 10
0.173213
 20
-3.987469
  0
VERTEX
  8
PLAN_1
  6
CONTINUOUS
 10
0.242850
 20
-4.089878
  0
SEQEND
  8
0
  0
POLYLINE
  8
PLAN_1
  6
CONTINUOUS
 66
     1
 40
0.003000
 41
0.003000
  0
VERTEX
  8
PLAN_1
  6
CONTINUOUS
 10
0.409272
 20
-3.950598
  0
VERTEX
  8
PLAN_1
  6
CONTINUOUS
 10
0.407736
 20
-3.943941
  0
VERTEX
  8
PLAN_1
  6
CONTINUOUS
 10
0.405689
 20
-3.938307
  0
VERTEX
  8
PLAN_1
  6
CONTINUOUS
 10
0.403126
 20
-3.933701
  0
VERTEX
  8
PLAN_1
  6
CONTINUOUS
 10
0.400055
 20
-3.929091
  0
VERTEX
  8
PLAN_1
  6
CONTINUOUS
 10
0.396984
 20
-3.925508
  0
VERTEX
  8
PLAN_1
  6
CONTINUOUS
 10
0.393398
 20
-3.921921
  0
VERTEX
  8
PLAN_1
  6
CONTINUOUS
 10
0.389815
 20
-3.918850
  0
VERTEX
  8
PLAN_1
  6
CONTINUOUS
 10
0.385717
 20
-3.916803
  0
VERTEX
  8
PLAN_1
  6
CONTINUOUS
 10
0.381622
 20
-3.914752
  0
VERTEX
  8
PLAN_1
  6
CONTINUOUS
 10
0.377524
 20
-3.912705
  0
VERTEX
  8
PLAN_1
  6
CONTINUOUS
 10
0.373429
 20
-3.911681
  0
VERTEX
  8
PLAN_1
  6
CONTINUOUS
 10
0.369331
 20
-3.910657
  0
VERTEX
  8
PLAN_1
  6
CONTINUOUS
 10
0.361138
 20
-3.909122
  0
VERTEX
  8
PLAN_1
  6
CONTINUOUS
 10
0.353457
 20
-3.909122
  0
VERTEX
  8
PLAN_1
  6
CONTINUOUS
 10
0.346799
 20
-3.909122
  0
VERTEX
  8
PLAN_1
  6
CONTINUOUS
 10
0.340142
 20
-3.910146
  0
VERTEX
  8
PLAN_1
  6
CONTINUOUS
 10
0.334000
 20
-3.911681
  0
VERTEX
  8
PLAN_1
  6
CONTINUOUS
 10
0.328366
 20
-3.914240
  0
VERTEX
  8
PLAN_1
  6
CONTINUOUS
 10
0.322220
 20
-3.916803
  0
VERTEX
  8
PLAN_1
  6
CONTINUOUS
 10
0.317102
 20
-3.920386
  0
VERTEX
  8
PLAN_1
  6
CONTINUOUS
 10
0.311980
 20
-3.924484
  0
VERTEX
  8
PLAN_1
  6
CONTINUOUS
 10
0.307370
 20
-3.929091
  0
VERTEX
  8
PLAN_1
  6
CONTINUOUS
 10
0.303276
 20
-3.934213
  0
VERTEX
  8
PLAN_1
  6
CONTINUOUS
 10
0.299689
 20
-3.939846
  0
VERTEX
  8
PLAN_1
  6
CONTINUOUS
 10
0.296106
 20
-3.946500
  0
VERTEX
  8
PLAN_1
  6
CONTINUOUS
 10
0.293547
 20
-3.953669
  0
VERTEX
  8
PLAN_1
  6
CONTINUOUS
 10
0.291496
 20
-3.961350
  0
VERTEX
  8
PLAN_1
  6
CONTINUOUS
 10
0.289449
 20
-3.969543
  0
VERTEX
  8
PLAN_1
  6
CONTINUOUS
 10
0.288425
 20
-3.978760
  0
VERTEX
  8
PLAN_1
  6
CONTINUOUS
 10
0.288425
 20
-3.987980
  0
VERTEX
  8
PLAN_1
  6
CONTINUOUS
 10
0.288425
 20
-3.996685
  0
VERTEX
  8
PLAN_1
  6
CONTINUOUS
 10
0.288937
 20
-4.005390
  0
VERTEX
  8
PLAN_1
  6
CONTINUOUS
 10
0.289961
 20
-4.013071
  0
VERTEX
  8
PLAN_1
  6
CONTINUOUS
 10
0.291496
 20
-4.020752
  0
VERTEX
  8
PLAN_1
  6
CONTINUOUS
 10
0.293547
 20
-4.027921
  0
VERTEX
  8
PLAN_1
  6
CONTINUOUS
 10
0.296106
 20
-4.035087
  0
VERTEX
  8
PLAN_1
  6
CONTINUOUS
 10
0.299177
 20
-4.041232
  0
VERTEX
  8
PLAN_1
  6
CONTINUOUS
 10
0.302764
 20
-4.047378
  0
VERTEX
  8
PLAN_1
  6
CONTINUOUS
 10
0.306858
 20
-4.052500
  0
VERTEX
  8
PLAN_1
  6
CONTINUOUS
 10
0.311980
 20
-4.057106
  0
VERTEX
  8
PLAN_1
  6
CONTINUOUS
 10
0.317102
 20
-4.061205
  0
VERTEX
  8
PLAN_1
  6
CONTINUOUS
 10
0.323244
 20
-4.064787
  0
VERTEX
  8
PLAN_1
  6
CONTINUOUS
 10
0.329902
 20
-4.067350
  0
VERTEX
  8
PLAN_1
  6
CONTINUOUS
 10
0.337583
 20
-4.069398
  0
VERTEX
  8
PLAN_1
  6
CONTINUOUS
 10
0.345264
 20
-4.070933
  0
VERTEX
  8
PLAN_1
  6
CONTINUOUS
 10
0.354480
 20
-4.070933
  0
VERTEX
  8
PLAN_1
  6
CONTINUOUS
 10
0.361650
 20
-4.070933
  0
VERTEX
  8
PLAN_1
  6
CONTINUOUS
 10
0.369331
 20
-4.068886
  0
VERTEX
  8
PLAN_1
  6
CONTINUOUS
 10
0.373429
 20
-4.067862
  0
VERTEX
  8
PLAN_1
  6
CONTINUOUS
 10
0.377524
 20
-4.065811
  0
VERTEX
  8
PLAN_1
  6
CONTINUOUS
 10
0.381622
 20
-4.063764
  0
VERTEX
  8
PLAN_1
  6
CONTINUOUS
 10
0.385717
 20
-4.061205
  0
VERTEX
  8
PLAN_1
  6
CONTINUOUS
 10
0.389815
 20
-4.058130
  0
VERTEX
  8
PLAN_1
  6
CONTINUOUS
 10
0.393909
 20
-4.054035
  0
VERTEX
  8
PLAN_1
  6
CONTINUOUS
 10
0.397496
 20
-4.049425
  0
VERTEX
  8
PLAN_1
  6
CONTINUOUS
 10
0.401079
 20
-4.044307
  0
VERTEX
  8
PLAN_1
  6
CONTINUOUS
 10
0.404150
 20
-4.038673
  0
VERTEX
  8
PLAN_1
  6
CONTINUOUS
 10
0.406713
 20
-4.032016
  0
VERTEX
  8
PLAN_1
  6
CONTINUOUS
 10
0.409272
 20
-4.024846
  0
VERTEX
  8
PLAN_1
  6
CONTINUOUS
 10
0.411319
 20
-4.016654
  0
VERTEX
  8
PLAN_1
  6
CONTINUOUS
 10
0.437437
 20
-4.016654
  0
VERTEX
  8
PLAN_1
  6
CONTINUOUS
 10
0.436409
 20
-4.023311
  0
VERTEX
  8
PLAN_1
  6
CONTINUOUS
 10
0.434874
 20
-4.029969
  0
VERTEX
  8
PLAN_1
  6
CONTINUOUS
 10
0.432827
 20
-4.035602
  0
VERTEX
  8
PLAN_1
  6
CONTINUOUS
 10
0.431291
 20
-4.041232
  0
VERTEX
  8
PLAN_1
  6
CONTINUOUS
 10
0.428732
 20
-4.046866
  0
VERTEX
  8
PLAN_1
  6
CONTINUOUS
 10
0.426681
 20
-4.051476
  0
VERTEX
  8
PLAN_1
  6
CONTINUOUS
 10
0.424122
 20
-4.056083
  0
VERTEX
  8
PLAN_1
  6
CONTINUOUS
 10
0.421051
 20
-4.060693
  0
VERTEX
  8
PLAN_1
  6
CONTINUOUS
 10
0.418488
 20
-4.064276
  0
VERTEX
  8
PLAN_1
  6
CONTINUOUS
 10
0.415417
 20
-4.067862
  0
VERTEX
  8
PLAN_1
  6
CONTINUOUS
 10
0.412343
 20
-4.071445
  0
VERTEX
  8
PLAN_1
  6
CONTINUOUS
 10
0.408760
 20
-4.074516
  0
VERTEX
  8
PLAN_1
  6
CONTINUOUS
 10
0.402102
 20
-4.079638
  0
VERTEX
  8
PLAN_1
  6
CONTINUOUS
 10
0.395445
 20
-4.083736
  0
VERTEX
  8
PLAN_1
  6
CONTINUOUS
 10
0.388276
 20
-4.087319
  0
VERTEX
  8
PLAN_1
  6
CONTINUOUS
 10
0.381622
 20
-4.089878
  0
VERTEX
  8
PLAN_1
  6
CONTINUOUS
 10
0.374965
 20
-4.091929
  0
VERTEX
  8
PLAN_1
  6
CONTINUOUS
 10
0.368819
 20
-4.093465
  0
VERTEX
  8
PLAN_1
  6
CONTINUOUS
 10
0.358067
 20
-4.094488
  0
VERTEX
  8
PLAN_1
  6
CONTINUOUS
 10
0.350386
 20
-4.095000
  0
VERTEX
  8
PLAN_1
  6
CONTINUOUS
 10
0.341681
 20
-4.094488
  0
VERTEX
  8
PLAN_1
  6
CONTINUOUS
 10
0.333488
 20
-4.093465
  0
VERTEX
  8
PLAN_1
  6
CONTINUOUS
 10
0.325295
 20
-4.091929
  0
VERTEX
  8
PLAN_1
  6
CONTINUOUS
 10
0.317102
 20
-4.089366
  0
VERTEX
  8
PLAN_1
  6
CONTINUOUS
 10
0.309421
 20
-4.085783
  0
VERTEX
  8
PLAN_1
  6
CONTINUOUS
 10
0.301740
 20
-4.081685
  0
VERTEX
  8
PLAN_1
  6
CONTINUOUS
 10
0.295083
 20
-4.076567
  0
VERTEX
  8
PLAN_1
  6
CONTINUOUS
 10
0.288425
 20
-4.070933
  0
VERTEX
  8
PLAN_1
  6
CONTINUOUS
 10
0.285354
 20
-4.067350
  0
VERTEX
  8
PLAN_1
  6
CONTINUOUS
 10
0.282280
 20
-4.063764
  0
VERTEX
  8
PLAN_1
  6
CONTINUOUS
 10
0.279720
 20
-4.060181
  0
VERTEX
  8
PLAN_1
  6
CONTINUOUS
 10
0.277161
 20
-4.056083
  0
VERTEX
  8
PLAN_1
  6
CONTINUOUS
 10
0.274598
 20
-4.051988
  0
VERTEX
  8
PLAN_1
  6
CONTINUOUS
 10
0.272039
 20
-4.047378
  0
VERTEX
  8
PLAN_1
  6
CONTINUOUS
 10
0.269992
 20
-4.042768
  0
VERTEX
  8
PLAN_1
  6
CONTINUOUS
 10
0.268457
 20
-4.037650
  0
VERTEX
  8
PLAN_1
  6
CONTINUOUS
 10
0.266406
 20
-4.032528
  0
VERTEX
  8
PLAN_1
  6
CONTINUOUS
 10
0.264870
 20
-4.027409
  0
VERTEX
  8
PLAN_1
  6
CONTINUOUS
 10
0.263846
 20
-4.021264
  0
VERTEX
  8
PLAN_1
  6
CONTINUOUS
 10
0.262311
 20
-4.015630
  0
VERTEX
  8
PLAN_1
  6
CONTINUOUS
 10
0.261799
 20
-4.009484
  0
VERTEX
  8
PLAN_1
  6
CONTINUOUS
 10
0.261287
 20
-4.002827
  0
VERTEX
  8
PLAN_1
  6
CONTINUOUS
 10
0.260776
 20
-3.996173
  0
VERTEX
  8
PLAN_1
  6
CONTINUOUS
 10
0.260776
 20
-3.989004
  0
VERTEX
  8
PLAN_1
  6
CONTINUOUS
 10
0.260776
 20
-3.977736
  0
VERTEX
  8
PLAN_1
  6
CONTINUOUS
 10
0.262311
 20
-3.966984
  0
VERTEX
  8
PLAN_1
  6
CONTINUOUS
 10
0.264358
 20
-3.956744
  0
VERTEX
  8
PLAN_1
  6
CONTINUOUS
 10
0.266917
 20
-3.947016
  0
VERTEX
  8
PLAN_1
  6
CONTINUOUS
 10
0.270504
 20
-3.937795
  0
VERTEX
  8
PLAN_1
  6
CONTINUOUS
 10
0.274598
 20
-3.929091
  0
VERTEX
  8
PLAN_1
  6
CONTINUOUS
 10
0.279720
 20
-3.921409
  0
VERTEX
  8
PLAN_1
  6
CONTINUOUS
 10
0.285354
 20
-3.914240
  0
VERTEX
  8
PLAN_1
  6
CONTINUOUS
 10
0.291496
 20
-3.907587
  0
VERTEX
  8
PLAN_1
  6
CONTINUOUS
 10
0.298665
 20
-3.901953
  0
VERTEX
  8
PLAN_1
  6
CONTINUOUS
 10
0.302252
 20
-3.899394
  0
VERTEX
  8
PLAN_1
  6
CONTINUOUS
 10
0.306346
 20
-3.896831
  0
VERTEX
  8
PLAN_1
  6
CONTINUOUS
 10
0.310445
 20
-3.894783
  0
VERTEX
  8
PLAN_1
  6
CONTINUOUS
 10
0.314539
 20
-3.892736
  0
VERTEX
  8
PLAN_1
  6
CONTINUOUS
 10
0.323244
 20
-3.889661
  0
VERTEX
  8
PLAN_1
  6
CONTINUOUS
 10
0.332976
 20
-3.887102
  0
VERTEX
  8
PLAN_1
  6
CONTINUOUS
 10
0.342705
 20
-3.885567
  0
VERTEX
  8
PLAN_1
  6
CONTINUOUS
 10
0.353457
 20
-3.885055
  0
VERTEX
  8
PLAN_1
  6
CONTINUOUS
 10
0.362673
 20
-3.885567
  0
VERTEX
  8
PLAN_1
  6
CONTINUOUS
 10
0.371890
 20
-3.886591
  0
VERTEX
  8
PLAN_1
  6
CONTINUOUS
 10
0.380083
 20
-3.888126
  0
VERTEX
  8
PLAN_1
  6
CONTINUOUS
 10
0.387252
 20
-3.890685
  0
VERTEX
  8
PLAN_1
  6
CONTINUOUS
 10
0.394421
 20
-3.893760
  0
VERTEX
  8
PLAN_1
  6
CONTINUOUS
 10
0.401079
 20
-3.896831
  0
VERTEX
  8
PLAN_1
  6
CONTINUOUS
 10
0.406713
 20
-3.900929
  0
VERTEX
  8
PLAN_1
  6
CONTINUOUS
 10
0.412343
 20
-3.905024
  0
VERTEX
  8
PLAN_1
  6
CONTINUOUS
 10
0.416953
 20
-3.910146
  0
VERTEX
  8
PLAN_1
  6
CONTINUOUS
 10
0.421563
 20
-3.915268
  0
VERTEX
  8
PLAN_1
  6
CONTINUOUS
 10
0.425146
 20
-3.920386
  0
VERTEX
  8
PLAN_1
  6
CONTINUOUS
 10
0.428217
 20
-3.926020
  0
VERTEX
  8
PLAN_1
  6
CONTINUOUS
 10
0.430780
 20
-3.932165
  0
VERTEX
  8
PLAN_1
  6
CONTINUOUS
 10
0.432827
 20
-3.937795
  0
VERTEX
  8
PLAN_1
  6
CONTINUOUS
 10
0.434362
 20
-3.943941
  0
VERTEX
  8
PLAN_1
  6
CONTINUOUS
 10
0.435386
 20
-3.950598
  0
VERTEX
  8
PLAN_1
  6
CONTINUOUS
 10
0.409272
 20
-3.950598
  0
SEQEND
  8
0
  0
POLYLINE
  8
PLAN_1
  6
CONTINUOUS
 66
     1
 40
0.003000
 41
0.003000
  0
VERTEX
  8
PLAN_1
  6
CONTINUOUS
 10
0.496835
 20
-4.089878
  0
VERTEX
  8
PLAN_1
  6
CONTINUOUS
 10
0.470209
 20
-4.089878
  0
VERTEX
  8
PLAN_1
  6
CONTINUOUS
 10
0.470209
 20
-3.890173
  0
VERTEX
  8
PLAN_1
  6
CONTINUOUS
 10
0.496835
 20
-3.890173
  0
VERTEX
  8
PLAN_1
  6
CONTINUOUS
 10
0.496835
 20
-3.986953
  0
VERTEX
  8
PLAN_1
  6
CONTINUOUS
 10
0.593614
 20
-3.890173
  0
VERTEX
  8
PLAN_1
  6
CONTINUOUS
 10
0.630484
 20
-3.890173
  0
VERTEX
  8
PLAN_1
  6
CONTINUOUS
 10
0.547528
 20
-3.971083
  0
VERTEX
  8
PLAN_1
  6
CONTINUOUS
 10
0.633043
 20
-4.089878
  0
VERTEX
  8
PLAN_1
  6
CONTINUOUS
 10
0.597713
 20
-4.089878
  0
VERTEX
  8
PLAN_1
  6
CONTINUOUS
 10
0.528071
 20
-3.990028
  0
VERTEX
  8
PLAN_1
  6
CONTINUOUS
 10
0.496835
 20
-4.019728
  0
VERTEX
  8
PLAN_1
  6
CONTINUOUS
 10
0.496835
 20
-4.089878
  0
SEQEND
  8
0
  0
POLYLINE
  8
PLAN_1
  6
CONTINUOUS
 66
     1
 40
0.003000
 41
0.003000
  0
VERTEX
  8
PLAN_1
  6
CONTINUOUS
 10
0.664280
 20
-4.025358
  0
VERTEX
  8
PLAN_1
  6
CONTINUOUS
 10
0.664280
 20
-4.039697
  0
VERTEX
  8
PLAN_1
  6
CONTINUOUS
 10
0.664280
 20
-4.043795
  0
VERTEX
  8
PLAN_1
  6
CONTINUOUS
 10
0.664791
 20
-4.047890
  0
VERTEX
  8
PLAN_1
  6
CONTINUOUS
 10
0.665303
 20
-4.051476
  0
VERTEX
  8
PLAN_1
  6
CONTINUOUS
 10
0.666327
 20
-4.054547
  0
VERTEX
  8
PLAN_1
  6
CONTINUOUS
 10
0.667350
 20
-4.057618
  0
VERTEX
  8
PLAN_1
  6
CONTINUOUS
 10
0.668886
 20
-4.060181
  0
VERTEX
  8
PLAN_1
  6
CONTINUOUS
 10
0.670425
 20
-4.062740
  0
VERTEX
  8
PLAN_1
  6
CONTINUOUS
 10
0.671961
 20
-4.064787
  0
VERTEX
  8
PLAN_1
  6
CONTINUOUS
 10
0.674008
 20
-4.066323
  0
VERTEX
  8
PLAN_1
  6
CONTINUOUS
 10
0.676567
 20
-4.067862
  0
VERTEX
  8
PLAN_1
  6
CONTINUOUS
 10
0.678618
 20
-4.069398
  0
VERTEX
  8
PLAN_1
  6
CONTINUOUS
 10
0.681689
 20
-4.070421
  0
VERTEX
  8
PLAN_1
  6
CONTINUOUS
 10
0.687323
 20
-4.071445
  0
VERTEX
  8
PLAN_1
  6
CONTINUOUS
 10
0.693980
 20
-4.071957
  0
VERTEX
  8
PLAN_1
  6
CONTINUOUS
 10
0.698587
 20
-4.071957
  0
VERTEX
  8
PLAN_1
  6
CONTINUOUS
 10
0.702685
 20
-4.071445
  0
VERTEX
  8
PLAN_1
  6
CONTINUOUS
 10
0.706268
 20
-4.070421
  0
VERTEX
  8
PLAN_1
  6
CONTINUOUS
 10
0.709854
 20
-4.069398
  0
VERTEX
  8
PLAN_1
  6
CONTINUOUS
 10
0.712413
 20
-4.067862
  0
VERTEX
  8
PLAN_1
  6
CONTINUOUS
 10
0.714972
 20
-4.066323
  0
VERTEX
  8
PLAN_1
  6
CONTINUOUS
 10
0.717535
 20
-4.064276
  0
VERTEX
  8
PLAN_1
  6
CONTINUOUS
 10
0.719583
 20
-4.062228
  0
VERTEX
  8
PLAN_1
  6
CONTINUOUS
 10
0.721118
 20
-4.059669
  0
VERTEX
  8
PLAN_1
  6
CONTINUOUS
 10
0.722654
 20
-4.057106
  0
VERTEX
  8
PLAN_1
  6
CONTINUOUS
 10
0.723677
 20
-4.054035
  0
VERTEX
  8
PLAN_1
  6
CONTINUOUS
 10
0.724701
 20
-4.050961
  0
VERTEX
  8
PLAN_1
  6
CONTINUOUS
 10
0.725728
 20
-4.044819
  0
VERTEX
  8
PLAN_1
  6
CONTINUOUS
 10
0.726240
 20
-4.037650
  0
VERTEX
  8
PLAN_1
  6
CONTINUOUS
 10
0.726240
 20
-3.890173
  0
VERTEX
  8
PLAN_1
  6
CONTINUOUS
 10
0.752866
 20
-3.890173
  0
VERTEX
  8
PLAN_1
  6
CONTINUOUS
 10
0.752866
 20
-4.036114
  0
VERTEX
  8
PLAN_1
  6
CONTINUOUS
 10
0.752354
 20
-4.044307
  0
VERTEX
  8
PLAN_1
  6
CONTINUOUS
 10
0.751331
 20
-4.051988
  0
VERTEX
  8
PLAN_1
  6
CONTINUOUS
 10
0.749795
 20
-4.058642
  0
VERTEX
  8
PLAN_1
  6
CONTINUOUS
 10
0.747744
 20
-4.064787
  0
VERTEX
  8
PLAN_1
  6
CONTINUOUS
 10
0.745185
 20
-4.070421
  0
VERTEX
  8
PLAN_1
  6
CONTINUOUS
 10
0.741602
 20
-4.075028
  0
VERTEX
  8
PLAN_1
  6
CONTINUOUS
 10
0.738016
 20
-4.079126
  0
VERTEX
  8
PLAN_1
  6
CONTINUOUS
 10
0.734433
 20
-4.082709
  0
VERTEX
  8
PLAN_1
  6
CONTINUOUS
 10
0.729823
 20
-4.085783
  0
VERTEX
  8
PLAN_1
  6
CONTINUOUS
 10
0.725217
 20
-4.088343
  0
VERTEX
  8
PLAN_1
  6
CONTINUOUS
 10
0.720606
 20
-4.090902
  0
VERTEX
  8
PLAN_1
  6
CONTINUOUS
 10
0.715996
 20
-4.092441
  0
VERTEX
  8
PLAN_1
  6
CONTINUOUS
 10
0.710878
 20
-4.093465
  0
VERTEX
  8
PLAN_1
  6
CONTINUOUS
 10
0.705756
 20
-4.094488
  0
VERTEX
  8
PLAN_1
  6
CONTINUOUS
 10
0.700634
 20
-4.095000
  0
VERTEX
  8
PLAN_1
  6
CONTINUOUS
 10
0.695516
 20
-4.095000
  0
VERTEX
  8
PLAN_1
  6
CONTINUOUS
 10
0.687323
 20
-4.094488
  0
VERTEX
  8
PLAN_1
  6
CONTINUOUS
 10
0.679642
 20
-4.093465
  0
VERTEX
  8
PLAN_1
  6
CONTINUOUS
 10
0.672984
 20
-4.091929
  0
VERTEX
  8
PLAN_1
  6
CONTINUOUS
 10
0.666839
 20
-4.089878
  0
VERTEX
  8
PLAN_1
  6
CONTINUOUS
 10
0.661720
 20
-4.087319
  0
VERTEX
  8
PLAN_1
  6
CONTINUOUS
 10
0.657110
 20
-4.084248
  0
VERTEX
  8
PLAN_1
  6
CONTINUOUS
 10
0.653012
 20
-4.080661
  0
VERTEX
  8
PLAN_1
  6
CONTINUOUS
 10
0.649941
 20
-4.077079
  0
VERTEX
  8
PLAN_1
  6
CONTINUOUS
 10
0.646870
 20
-4.073492
  0
VERTEX
  8
PLAN_1
  6
CONTINUOUS
 10
0.644307
 20
-4.069398
  0
VERTEX
  8
PLAN_1
  6
CONTINUOUS
 10
0.642772
 20
-4.065299
  0
VERTEX
  8
PLAN_1
  6
CONTINUOUS
 10
0.641236
 20
-4.060693
  0
VERTEX
  8
PLAN_1
  6
CONTINUOUS
 10
0.640213
 20
-4.056594
  0
VERTEX
  8
PLAN_1
  6
CONTINUOUS
 10
0.639189
 20
-4.053012
  0
VERTEX
  8
PLAN_1
  6
CONTINUOUS
 10
0.639189
 20
-4.048913
  0
VERTEX
  8
PLAN_1
  6
CONTINUOUS
 10
0.638677
 20
-4.045331
  0
VERTEX
  8
PLAN_1
  6
CONTINUOUS
 10
0.638677
 20
-4.025358
  0
VERTEX
  8
PLAN_1
  6
CONTINUOUS
 10
0.664280
 20
-4.025358
  0
SEQEND
  8
0
  0
POLYLINE
  8
PLAN_1
  6
CONTINUOUS
 66
     1
 40
0.003000
 41
0.003000
  0
VERTEX
  8
PLAN_1
  6
CONTINUOUS
 10
0.956665
 20
-3.935236
  0
VERTEX
  8
PLAN_1
  6
CONTINUOUS
 10
0.975614
 20
-3.935236
  0
VERTEX
  8
PLAN_1
  6
CONTINUOUS
 10
0.971516
 20
-3.950087
  0
VERTEX
  8
PLAN_1
  6
CONTINUOUS
 10
0.967421
 20
-3.964937
  0
VERTEX
  8
PLAN_1
  6
CONTINUOUS
 10
0.963323
 20
-3.979276
  0
VERTEX
  8
PLAN_1
  6
CONTINUOUS
 10
0.959228
 20
-3.992587
  0
VERTEX
  8
PLAN_1
  6
CONTINUOUS
 10
0.955642
 20
-4.004366
  0
VERTEX
  8
PLAN_1
  6
CONTINUOUS
 10
0.953083
 20
-4.014094
  0
VERTEX
  8
PLAN_1
  6
CONTINUOUS
 10
0.951035
 20
-4.021264
  0
VERTEX
  8
PLAN_1
  6
CONTINUOUS
 10
0.950524
 20
-4.025870
  0
VERTEX
  8
PLAN_1
  6
CONTINUOUS
 10
0.950524
 20
-4.027921
  0
VERTEX
  8
PLAN_1
  6
CONTINUOUS
 10
0.951035
 20
-4.029457
  0
VERTEX
  8
PLAN_1
  6
CONTINUOUS
 10
0.951547
 20
-4.030992
  0
VERTEX
  8
PLAN_1
  6
CONTINUOUS
 10
0.952059
 20
-4.032016
  0
VERTEX
  8
PLAN_1
  6
CONTINUOUS
 10
0.952571
 20
-4.032528
  0
VERTEX
  8
PLAN_1
  6
CONTINUOUS
 10
0.953594
 20
-4.033551
  0
VERTEX
  8
PLAN_1
  6
CONTINUOUS
 10
0.955130
 20
-4.033551
  0
VERTEX
  8
PLAN_1
  6
CONTINUOUS
 10
0.956665
 20
-4.034063
  0
VERTEX
  8
PLAN_1
  6
CONTINUOUS
 10
0.960252
 20
-4.033551
  0
VERTEX
  8
PLAN_1
  6
CONTINUOUS
 10
0.963835
 20
-4.032528
  0
VERTEX
  8
PLAN_1
  6
CONTINUOUS
 10
0.966909
 20
-4.030992
  0
VERTEX
  8
PLAN_1
  6
CONTINUOUS
 10
0.970492
 20
-4.028945
  0
VERTEX
  8
PLAN_1
  6
CONTINUOUS
 10
0.974079
 20
-4.025870
  0
VERTEX
  8
PLAN_1
  6
CONTINUOUS
 10
0.977150
 20
-4.022799
  0
VERTEX
  8
PLAN_1
  6
CONTINUOUS
 10
0.980220
 20
-4.019217
  0
VERTEX
  8
PLAN_1
  6
CONTINUOUS
 10
0.983295
 20
-4.015118
  0
VERTEX
  8
PLAN_1
  6
CONTINUOUS
 10
0.985854
 20
-4.010508
  0
VERTEX
  8
PLAN_1
  6
CONTINUOUS
 10
0.988413
 20
-4.005902
  0
VERTEX
  8
PLAN_1
  6
CONTINUOUS
 10
0.990465
 20
-4.001291
  0
VERTEX
  8
PLAN_1
  6
CONTINUOUS
 10
0.992512
 20
-3.995661
  0
VERTEX
  8
PLAN_1
  6
CONTINUOUS
 10
0.994047
 20
-3.990539
  0
VERTEX
  8
PLAN_1
  6
CONTINUOUS
 10
0.995071
 20
-3.984906
  0
VERTEX
  8
PLAN_1
  6
CONTINUOUS
 10
0.995583
 20
-3.979787
  0
VERTEX
  8
PLAN_1
  6
CONTINUOUS
 10
0.996094
 20
-3.974154
  0
VERTEX
  8
PLAN_1
  6
CONTINUOUS
 10
0.995583
 20
-3.965961
  0
VERTEX
  8
PLAN_1
  6
CONTINUOUS
 10
0.994047
 20
-3.958280
  0
VERTEX
  8
PLAN_1
  6
CONTINUOUS
 10
0.992512
 20
-3.951110
  0
VERTEX
  8
PLAN_1
  6
CONTINUOUS
 10
0.989437
 20
-3.943941
  0
VERTEX
  8
PLAN_1
  6
CONTINUOUS
 10
0.986366
 20
-3.937795
  0
VERTEX
  8
PLAN_1
  6
CONTINUOUS
 10
0.982272
 20
-3.931654
  0
VERTEX
  8
PLAN_1
  6
CONTINUOUS
 10
0.978173
 20
-3.926531
  0
VERTEX
  8
PLAN_1
  6
CONTINUOUS
 10
0.973051
 20
-3.921409
  0
VERTEX
  8
PLAN_1
  6
CONTINUOUS
 10
0.967421
 20
-3.917315
  0
VERTEX
  8
PLAN_1
  6
CONTINUOUS
 10
0.961276
 20
-3.913217
  0
VERTEX
  8
PLAN_1
  6
CONTINUOUS
 10
0.955130
 20
-3.910146
  0
VERTEX
  8
PLAN_1
  6
CONTINUOUS
 10
0.948472
 20
-3.907075
  0
VERTEX
  8
PLAN_1
  6
CONTINUOUS
 10
0.941303
 20
-3.905024
  0
VERTEX
  8
PLAN_1
  6
CONTINUOUS
 10
0.933626
 20
-3.903488
  0
VERTEX
  8
PLAN_1
  6
CONTINUOUS
 10
0.926457
 20
-3.902465
  0
VERTEX
  8
PLAN_1
  6
CONTINUOUS
 10
0.918264
 20
-3.902465
  0
VERTEX
  8
PLAN_1
  6
CONTINUOUS
 10
0.909555
 20
-3.902976
  0
VERTEX
  8
PLAN_1
  6
CONTINUOUS
 10
0.900850
 20
-3.904000
  0
VERTEX
  8
PLAN_1
  6
CONTINUOUS
 10
0.892146
 20
-3.906559
  0
VERTEX
  8
PLAN_1
  6
CONTINUOUS
 10
0.884465
 20
-3.909122
  0
VERTEX
  8
PLAN_1
  6
CONTINUOUS
 10
0.876783
 20
-3.913217
  0
VERTEX
  8
PLAN_1
  6
CONTINUOUS
 10
0.870130
 20
-3.917315
  0
VERTEX
  8
PLAN_1
  6
CONTINUOUS
 10
0.863472
 20
-3.922433
  0
VERTEX
  8
PLAN_1
  6
CONTINUOUS
 10
0.857839
 20
-3.928579
  0
VERTEX
  8
PLAN_1
  6
CONTINUOUS
 10
0.852205
 20
-3.934724
  0
VERTEX
  8
PLAN_1
  6
CONTINUOUS
 10
0.847598
 20
-3.941382
  0
VERTEX
  8
PLAN_1
  6
CONTINUOUS
 10
0.843500
 20
-3.949063
  0
VERTEX
  8
PLAN_1
  6
CONTINUOUS
 10
0.840429
 20
-3.956744
  0
VERTEX
  8
PLAN_1
  6
CONTINUOUS
 10
0.837354
 20
-3.964937
  0
VERTEX
  8
PLAN_1
  6
CONTINUOUS
 10
0.835819
 20
-3.973130
  0
VERTEX
  8
PLAN_1
  6
CONTINUOUS
 10
0.834283
 20
-3.982346
  0
VERTEX
  8
PLAN_1
  6
CONTINUOUS
 10
0.834283
 20
-3.991051
  0
VERTEX
  8
PLAN_1
  6
CONTINUOUS
 10
0.834283
 20
-4.000268
  0
VERTEX
  8
PLAN_1
  6
CONTINUOUS
 10
0.835819
 20
-4.008972
  0
VERTEX
  8
PLAN_1
  6
CONTINUOUS
 10
0.837870
 20
-4.017677
  0
VERTEX
  8
PLAN_1
  6
CONTINUOUS
 10
0.840941
 20
-4.025358
  0
VERTEX
  8
PLAN_1
  6
CONTINUOUS
 10
0.844524
 20
-4.033039
  0
VERTEX
  8
PLAN_1
  6
CONTINUOUS
 10
0.848622
 20
-4.040209
  0
VERTEX
  8
PLAN_1
  6
CONTINUOUS
 10
0.853228
 20
-4.046866
  0
VERTEX
  8
PLAN_1
  6
CONTINUOUS
 10
0.858862
 20
-4.053012
  0
VERTEX
  8
PLAN_1
  6
CONTINUOUS
 10
0.865008
 20
-4.058642
  0
VERTEX
  8
PLAN_1
  6
CONTINUOUS
 10
0.871665
 20
-4.063252
  0
VERTEX
  8
PLAN_1
  6
CONTINUOUS
 10
0.878835
 20
-4.067350
  0
VERTEX
  8
PLAN_1
  6
CONTINUOUS
 10
0.886516
 20
-4.070933
  0
VERTEX
  8
PLAN_1
  6
CONTINUOUS
 10
0.894197
 20
-4.074004
  0
VERTEX
  8
PLAN_1
  6
CONTINUOUS
 10
0.902902
 20
-4.076055
  0
VERTEX
  8
PLAN_1
  6
CONTINUOUS
 10
0.911606
 20
-4.077591
  0
VERTEX
  8
PLAN_1
  6
CONTINUOUS
 10
0.920311
 20
-4.077591
  0
VERTEX
  8
PLAN_1
  6
CONTINUOUS
 10
0.925429
 20
-4.077591
  0
VERTEX
  8
PLAN_1
  6
CONTINUOUS
 10
0.930039
 20
-4.077079
  0
VERTEX
  8
PLAN_1
  6
CONTINUOUS
 10
0.934650
 20
-4.076567
  0
VERTEX
  8
PLAN_1
  6
CONTINUOUS
 10
0.939768
 20
-4.075543
  0
VERTEX
  8
PLAN_1
  6
CONTINUOUS
 10
0.944378
 20
-4.074516
  0
VERTEX
  8
PLAN_1
  6
CONTINUOUS
 10
0.948984
 20
-4.072980
  0
VERTEX
  8
PLAN_1
  6
CONTINUOUS
 10
0.953594
 20
-4.071445
  0
VERTEX
  8
PLAN_1
  6
CONTINUOUS
 10
0.957693
 20
-4.069398
  0
VERTEX
  8
PLAN_1
  6
CONTINUOUS
 10
0.962299
 20
-4.067350
  0
VERTEX
  8
PLAN_1
  6
CONTINUOUS
 10
0.966398
 20
-4.064787
  0
VERTEX
  8
PLAN_1
  6
CONTINUOUS
 10
0.970492
 20
-4.062228
  0
VERTEX
  8
PLAN_1
  6
CONTINUOUS
 10
0.974079
 20
-4.059157
  0
VERTEX
  8
PLAN_1
  6
CONTINUOUS
 10
0.978173
 20
-4.056083
  0
VERTEX
  8
PLAN_1
  6
CONTINUOUS
 10
0.981244
 20
-4.053012
  0
VERTEX
  8
PLAN_1
  6
CONTINUOUS
 10
0.984831
 20
-4.049937
  0
VERTEX
  8
PLAN_1
  6
CONTINUOUS
 10
0.987902
 20
-4.046354
  0
VERTEX
  8
PLAN_1
  6
CONTINUOUS
 10
1.006339
 20
-4.046354
  0
VERTEX
  8
PLAN_1
  6
CONTINUOUS
 10
1.002752
 20
-4.051476
  0
VERTEX
  8
PLAN_1
  6
CONTINUOUS
 10
0.999169
 20
-4.057106
  0
VERTEX
  8
PLAN_1
  6
CONTINUOUS
 10
0.994559
 20
-4.061717
  0
VERTEX
  8
PLAN_1
  6
CONTINUOUS
 10
0.990465
 20
-4.066323
  0
VERTEX
  8
PLAN_1
  6
CONTINUOUS
 10
0.985343
 20
-4.070933
  0
VERTEX
  8
PLAN_1
  6
CONTINUOUS
 10
0.980220
 20
-4.075028
  0
VERTEX
  8
PLAN_1
  6
CONTINUOUS
 10
0.975102
 20
-4.078614
  0
VERTEX
  8
PLAN_1
  6
CONTINUOUS
 10
0.969469
 20
-4.081685
  0
VERTEX
  8
PLAN_1
  6
CONTINUOUS
 10
0.963835
 20
-4.084760
  0
VERTEX
  8
PLAN_1
  6
CONTINUOUS
 10
0.958205
 20
-4.087319
  0
VERTEX
  8
PLAN_1
  6
CONTINUOUS
 10
0.952059
 20
-4.089878
  0
VERTEX
  8
PLAN_1
  6
CONTINUOUS
 10
0.945913
 20
-4.091417
  0
VERTEX
  8
PLAN_1
  6
CONTINUOUS
 10
0.939256
 20
-4.092953
  0
VERTEX
  8
PLAN_1
  6
CONTINUOUS
 10
0.933110
 20
-4.093976
  0
VERTEX
  8
PLAN_1
  6
CONTINUOUS
 10
0.926457
 20
-4.095000
  0
VERTEX
  8
PLAN_1
  6
CONTINUOUS
 10
0.919799
 20
-4.095000
  0
VERTEX
  8
PLAN_1
  6
CONTINUOUS
 10
0.914165
 20
-4.095000
  0
VERTEX
  8
PLAN_1
  6
CONTINUOUS
 10
0.909043
 20
-4.094488
  0
VERTEX
  8
PLAN_1
  6
CONTINUOUS
 10
0.903413
 20
-4.093976
  0
VERTEX
  8
PLAN_1
  6
CONTINUOUS
 10
0.898291
 20
-4.092953
  0
VERTEX
  8
PLAN_1
  6
CONTINUOUS
 10
0.893169
 20
-4.091929
  0
VERTEX
  8
PLAN_1
  6
CONTINUOUS
 10
0.888051
 20
-4.090390
  0
VERTEX
  8
PLAN_1
  6
CONTINUOUS
 10
0.882929
 20
-4.088854
  0
VERTEX
  8
PLAN_1
  6
CONTINUOUS
 10
0.878323
 20
-4.086807
  0
VERTEX
  8
PLAN_1
  6
CONTINUOUS
 10
0.869102
 20
-4.082197
  0
VERTEX
  8
PLAN_1
  6
CONTINUOUS
 10
0.860398
 20
-4.077079
  0
VERTEX
  8
PLAN_1
  6
CONTINUOUS
 10
0.852205
 20
-4.071445
  0
VERTEX
  8
PLAN_1
  6
CONTINUOUS
 10
0.844524
 20
-4.064276
  0
VERTEX
  8
PLAN_1
  6
CONTINUOUS
 10
0.837870
 20
-4.057106
  0
VERTEX
  8
PLAN_1
  6
CONTINUOUS
 10
0.831724
 20
-4.048913
  0
VERTEX
  8
PLAN_1
  6
CONTINUOUS
 10
0.826602
 20
-4.040209
  0
VERTEX
  8
PLAN_1
  6
CONTINUOUS
 10
0.821996
 20
-4.030992
  0
VERTEX
  8
PLAN_1
  6
CONTINUOUS
 10
0.819945
 20
-4.026382
  0
VERTEX
  8
PLAN_1
  6
CONTINUOUS
 10
0.818409
 20
-4.021264
  0
VERTEX
  8
PLAN_1
  6
CONTINUOUS
 10
0.816874
 20
-4.016142
  0
VERTEX
  8
PLAN_1
  6
CONTINUOUS
 10
0.815850
 20
-4.011020
  0
VERTEX
  8
PLAN_1
  6
CONTINUOUS
 10
0.814827
 20
-4.005902
  0
VERTEX
  8
PLAN_1
  6
CONTINUOUS
 10
0.814315
 20
-4.000268
  0
VERTEX
  8
PLAN_1
  6
CONTINUOUS
 10
0.813803
 20
-3.995150
  0
VERTEX
  8
PLAN_1
  6
CONTINUOUS
 10
0.813803
 20
-3.989516
  0
VERTEX
  8
PLAN_1
  6
CONTINUOUS
 10
0.813803
 20
-3.983882
  0
VERTEX
  8
PLAN_1
  6
CONTINUOUS
 10
0.814315
 20
-3.978760
  0
VERTEX
  8
PLAN_1
  6
CONTINUOUS
 10
0.814827
 20
-3.973642
  0
VERTEX
  8
PLAN_1
  6
CONTINUOUS
 10
0.815850
 20
-3.968520
  0
VERTEX
  8
PLAN_1
  6
CONTINUOUS
 10
0.816874
 20
-3.963402
  0
VERTEX
  8
PLAN_1
  6
CONTINUOUS
 10
0.818409
 20
-3.958280
  0
VERTEX
  8
PLAN_1
  6
CONTINUOUS
 10
0.820457
 20
-3.953669
  0
VERTEX
  8
PLAN_1
  6
CONTINUOUS
 10
0.821996
 20
-3.948551
  0
VERTEX
  8
PLAN_1
  6
CONTINUOUS
 10
0.826602
 20
-3.939846
  0
VERTEX
  8
PLAN_1
  6
CONTINUOUS
 10
0.831724
 20
-3.931142
  0
VERTEX
  8
PLAN_1
  6
CONTINUOUS
 10
0.837870
 20
-3.922949
  0
VERTEX
  8
PLAN_1
  6
CONTINUOUS
 10
0.844524
 20
-3.915780
  0
VERTEX
  8
PLAN_1
  6
CONTINUOUS
 10
0.852205
 20
-3.909122
  0
VERTEX
  8
PLAN_1
  6
CONTINUOUS
 10
0.860398
 20
-3.902976
  0
VERTEX
  8
PLAN_1
  6
CONTINUOUS
 10
0.868591
 20
-3.897854
  0
VERTEX
  8
PLAN_1
  6
CONTINUOUS
 10
0.877811
 20
-3.893248
  0
VERTEX
  8
PLAN_1
  6
CONTINUOUS
 10
0.887539
 20
-3.889661
  0
VERTEX
  8
PLAN_1
  6
CONTINUOUS
 10
0.897780
 20
-3.887102
  0
VERTEX
  8
PLAN_1
  6
CONTINUOUS
 10
0.902390
 20
-3.886591
  0
VERTEX
  8
PLAN_1
  6
CONTINUOUS
 10
0.908020
 20
-3.885567
  0
VERTEX
  8
PLAN_1
  6
CONTINUOUS
 10
0.913142
 20
-3.885055
  0
VERTEX
  8
PLAN_1
  6
CONTINUOUS
 10
0.918264
 20
-3.885055
  0
VERTEX
  8
PLAN_1
  6
CONTINUOUS
 10
0.927992
 20
-3.885567
  0
VERTEX
  8
PLAN_1
  6
CONTINUOUS
 10
0.937209
 20
-3.886591
  0
VERTEX
  8
PLAN_1
  6
CONTINUOUS
 10
0.946425
 20
-3.888638
  0
VERTEX
  8
PLAN_1
  6
CONTINUOUS
 10
0.955130
 20
-3.891713
  0
VERTEX
  8
PLAN_1
  6
CONTINUOUS
 10
0.963323
 20
-3.895295
  0
VERTEX
  8
PLAN_1
  6
CONTINUOUS
 10
0.971004
 20
-3.899394
  0
VERTEX
  8
PLAN_1
  6
CONTINUOUS
 10
0.978685
 20
-3.904000
  0
VERTEX
  8
PLAN_1
  6
CONTINUOUS
 10
0.985343
 20
-3.909634
  0
VERTEX
  8
PLAN_1
  6
CONTINUOUS
 10
0.991488
 20
-3.915780
  0
VERTEX
  8
PLAN_1
  6
CONTINUOUS
 10
0.997118
 20
-3.921921
  0
VERTEX
  8
PLAN_1
  6
CONTINUOUS
 10
1.002240
 20
-3.929091
  0
VERTEX
  8
PLAN_1
  6
CONTINUOUS
 10
1.006339
 20
-3.936772
  0
VERTEX
  8
PLAN_1
  6
CONTINUOUS
 10
1.009409
 20
-3.944965
  0
VERTEX
  8
PLAN_1
  6
CONTINUOUS
 10
1.011969
 20
-3.953669
  0
VERTEX
  8
PLAN_1
  6
CONTINUOUS
 10
1.013504
 20
-3.962374
  0
VERTEX
  8
PLAN_1
  6
CONTINUOUS
 10
1.014020
 20
-3.971594
  0
VERTEX
  8
PLAN_1
  6
CONTINUOUS
 10
1.013504
 20
-3.980811
  0
VERTEX
  8
PLAN_1
  6
CONTINUOUS
 10
1.011969
 20
-3.989516
  0
VERTEX
  8
PLAN_1
  6
CONTINUOUS
 10
1.009921
 20
-3.997709
  0
VERTEX
  8
PLAN_1
  6
CONTINUOUS
 10
1.006850
 20
-4.005390
  0
VERTEX
  8
PLAN_1
  6
CONTINUOUS
 10
1.003776
 20
-4.012559
  0
VERTEX
  8
PLAN_1
  6
CONTINUOUS
 10
0.999681
 20
-4.019217
  0
VERTEX
  8
PLAN_1
  6
CONTINUOUS
 10
0.995071
 20
-4.025358
  0
VERTEX
  8
PLAN_1
  6
CONTINUOUS
 10
0.989953
 20
-4.030480
  0
VERTEX
  8
PLAN_1
  6
CONTINUOUS
 10
0.984831
 20
-4.035602
  0
VERTEX
  8
PLAN_1
  6
CONTINUOUS
 10
0.979197
 20
-4.039697
  0
VERTEX
  8
PLAN_1
  6
CONTINUOUS
 10
0.974079
 20
-4.043283
  0
VERTEX
  8
PLAN_1
  6
CONTINUOUS
 10
0.968445
 20
-4.046354
  0
VERTEX
  8
PLAN_1
  6
CONTINUOUS
 10
0.962811
 20
-4.048913
  0
VERTEX
  8
PLAN_1
  6
CONTINUOUS
 10
0.957693
 20
-4.050449
  0
VERTEX
  8
PLAN_1
  6
CONTINUOUS
 10
0.952571
 20
-4.051476
  0
VERTEX
  8
PLAN_1
  6
CONTINUOUS
 10
0.947449
 20
-4.051988
  0
VERTEX
  8
PLAN_1
  6
CONTINUOUS
 10
0.944378
 20
-4.051476
  0
VERTEX
  8
PLAN_1
  6
CONTINUOUS
 10
0.940791
 20
-4.050961
  0
VERTEX
  8
PLAN_1
  6
CONTINUOUS
 10
0.937720
 20
-4.049425
  0
VERTEX
  8
PLAN_1
  6
CONTINUOUS
 10
0.935161
 20
-4.047890
  0
VERTEX
  8
PLAN_1
  6
CONTINUOUS
 10
0.933110
 20
-4.045331
  0
VERTEX
  8
PLAN_1
  6
CONTINUOUS
 10
0.931575
 20
-4.042256
  0
VERTEX
  8
PLAN_1
  6
CONTINUOUS
 10
0.930551
 20
-4.038673
  0
VERTEX
  8
PLAN_1
  6
CONTINUOUS
 10
0.930039
 20
-4.034575
  0
VERTEX
  8
PLAN_1
  6
CONTINUOUS
 10
0.929528
 20
-4.034575
  0
VERTEX
  8
PLAN_1
  6
CONTINUOUS
 10
0.925945
 20
-4.038161
  0
VERTEX
  8
PLAN_1
  6
CONTINUOUS
 10
0.922358
 20
-4.041232
  0
VERTEX
  8
PLAN_1
  6
CONTINUOUS
 10
0.918776
 20
-4.043795
  0
VERTEX
  8
PLAN_1
  6
CONTINUOUS
 10
0.914677
 20
-4.046354
  0
VERTEX
  8
PLAN_1
  6
CONTINUOUS
 10
0.910071
 20
-4.048913
  0
VERTEX
  8
PLAN_1
  6
CONTINUOUS
 10
0.905461
 20
-4.050449
  0
VERTEX
  8
PLAN_1
  6
CONTINUOUS
 10
0.900850
 20
-4.051476
  0
VERTEX
  8
PLAN_1
  6
CONTINUOUS
 10
0.895732
 20
-4.051988
  0
VERTEX
  8
PLAN_1
  6
CONTINUOUS
 10
0.891634
 20
-4.051988
  0
VERTEX
  8
PLAN_1
  6
CONTINUOUS
 10
0.887539
 20
-4.050961
  0
VERTEX
  8
PLAN_1
  6
CONTINUOUS
 10
0.883441
 20
-4.049937
  0
VERTEX
  8
PLAN_1
  6
CONTINUOUS
 10
0.879346
 20
-4.048402
  0
VERTEX
  8
PLAN_1
  6
CONTINUOUS
 10
0.875760
 20
-4.046354
  0
VERTEX
  8
PLAN_1
  6
CONTINUOUS
 10
0.872689
 20
-4.044307
  0
VERTEX
  8
PLAN_1
  6
CONTINUOUS
 10
0.869618
 20
-4.041744
  0
VERTEX
  8
PLAN_1
  6
CONTINUOUS
 10
0.866543
 20
-4.038673
  0
VERTEX
  8
PLAN_1
  6
CONTINUOUS
 10
0.863984
 20
-4.035602
  0
VERTEX
  8
PLAN_1
  6
CONTINUOUS
 10
0.861937
 20
-4.032016
  0
VERTEX
  8
PLAN_1
  6
CONTINUOUS
 10
0.859886
 20
-4.028433
  0
VERTEX
  8
PLAN_1
  6
CONTINUOUS
 10
0.858350
 20
-4.024846
  0
VERTEX
  8
PLAN_1
  6
CONTINUOUS
 10
0.856815
 20
-4.020752
  0
VERTEX
  8
PLAN_1
  6
CONTINUOUS
 10
0.855791
 20
-4.016654
  0
VERTEX
  8
PLAN_1
  6
CONTINUOUS
 10
0.855280
 20
-4.012047
  0
VERTEX
  8
PLAN_1
  6
CONTINUOUS
 10
0.855280
 20
-4.007437
  0
VERTEX
  8
PLAN_1
  6
CONTINUOUS
 10
0.855280
 20
-4.000780
  0
VERTEX
  8
PLAN_1
  6
CONTINUOUS
 10
0.856303
 20
-3.993610
  0
VERTEX
  8
PLAN_1
  6
CONTINUOUS
 10
0.857839
 20
-3.986441
  0
VERTEX
  8
PLAN_1
  6
CONTINUOUS
 10
0.859886
 20
-3.979787
  0
VERTEX
  8
PLAN_1
  6
CONTINUOUS
 10
0.862449
 20
-3.973130
  0
VERTEX
  8
PLAN_1
  6
CONTINUOUS
 10
0.865008
 20
-3.966984
  0
VERTEX
  8
PLAN_1
  6
CONTINUOUS
 10
0.868591
 20
-3.960839
  0
VERTEX
  8
PLAN_1
  6
CONTINUOUS
 10
0.872689
 20
-3.955209
  0
VERTEX
  8
PLAN_1
  6
CONTINUOUS
 10
0.877295
 20
-3.950087
  0
VERTEX
  8
PLAN_1
  6
CONTINUOUS
 10
0.881906
 20
-3.945476
  0
VERTEX
  8
PLAN_1
  6
CONTINUOUS
 10
0.887539
 20
-3.941382
  0
VERTEX
  8
PLAN_1
  6
CONTINUOUS
 10
0.893169
 20
-3.937795
  0
VERTEX
  8
PLAN_1
  6
CONTINUOUS
 10
0.898803
 20
-3.934724
  0
VERTEX
  8
PLAN_1
  6
CONTINUOUS
 10
0.905461
 20
-3.932677
  0
VERTEX
  8
PLAN_1
  6
CONTINUOUS
 10
0.912118
 20
-3.931654
  0
VERTEX
  8
PLAN_1
  6
CONTINUOUS
 10
0.919287
 20
-3.931142
  0
VERTEX
  8
PLAN_1
  6
CONTINUOUS
 10
0.924406
 20
-3.931142
  0
VERTEX
  8
PLAN_1
  6
CONTINUOUS
 10
0.929016
 20
-3.932165
  0
VERTEX
  8
PLAN_1
  6
CONTINUOUS
 10
0.933110
 20
-3.933701
  0
VERTEX
  8
PLAN_1
  6
CONTINUOUS
 10
0.937720
 20
-3.935748
  0
VERTEX
  8
PLAN_1
  6
CONTINUOUS
 10
0.941303
 20
-3.938819
  0
VERTEX
  8
PLAN_1
  6
CONTINUOUS
 10
0.944890
 20
-3.942406
  0
VERTEX
  8
PLAN_1
  6
CONTINUOUS
 10
0.948472
 20
-3.947016
  0
VERTEX
  8
PLAN_1
  6
CONTINUOUS
 10
0.951035
 20
-3.952646
  0
VERTEX
  8
PLAN_1
  6
CONTINUOUS
 10
0.956665
 20
-3.935236
  0
SEQEND
  8
0
  0
POLYLINE
  8
PLAN_1
  6
CONTINUOUS
 66
     1
 40
0.003000
 41
0.003000
  0
VERTEX
  8
PLAN_1
  6
CONTINUOUS
 10
0.919799
 20
-3.951110
  0
VERTEX
  8
PLAN_1
  6
CONTINUOUS
 10
0.915189
 20
-3.951110
  0
VERTEX
  8
PLAN_1
  6
CONTINUOUS
 10
0.911094
 20
-3.952134
  0
VERTEX
  8
PLAN_1
  6
CONTINUOUS
 10
0.906996
 20
-3.954181
  0
VERTEX
  8
PLAN_1
  6
CONTINUOUS
 10
0.902902
 20
-3.956232
  0
VERTEX
  8
PLAN_1
  6
CONTINUOUS
 10
0.899315
 20
-3.958791
  0
VERTEX
  8
PLAN_1
  6
CONTINUOUS
 10
0.895732
 20
-3.961862
  0
VERTEX
  8
PLAN_1
  6
CONTINUOUS
 10
0.892657
 20
-3.965449
  0
VERTEX
  8
PLAN_1
  6
CONTINUOUS
 10
0.889587
 20
-3.969543
  0
VERTEX
  8
PLAN_1
  6
CONTINUOUS
 10
0.887028
 20
-3.973642
  0
VERTEX
  8
PLAN_1
  6
CONTINUOUS
 10
0.884465
 20
-3.977736
  0
VERTEX
  8
PLAN_1
  6
CONTINUOUS
 10
0.882417
 20
-3.982346
  0
VERTEX
  8
PLAN_1
  6
CONTINUOUS
 10
0.880882
 20
-3.986953
  0
VERTEX
  8
PLAN_1
  6
CONTINUOUS
 10
0.879858
 20
-3.991563
  0
VERTEX
  8
PLAN_1
  6
CONTINUOUS
 10
0.878835
 20
-3.996173
  0
VERTEX
  8
PLAN_1
  6
CONTINUOUS
 10
0.878323
 20
-4.000780
  0
VERTEX
  8
PLAN_1
  6
CONTINUOUS
 10
0.877811
 20
-4.004878
  0
VERTEX
  8
PLAN_1
  6
CONTINUOUS
 10
0.878323
 20
-4.010508
  0
VERTEX
  8
PLAN_1
  6
CONTINUOUS
 10
0.879858
 20
-4.016142
  0
VERTEX
  8
PLAN_1
  6
CONTINUOUS
 10
0.881394
 20
-4.020752
  0
VERTEX
  8
PLAN_1
  6
CONTINUOUS
 10
0.884465
 20
-4.024335
  0
VERTEX
  8
PLAN_1
  6
CONTINUOUS
 10
0.887539
 20
-4.027409
  0
VERTEX
  8
PLAN_1
  6
CONTINUOUS
 10
0.891634
 20
-4.029969
  0
VERTEX
  8
PLAN_1
  6
CONTINUOUS
 10
0.893685
 20
-4.030992
  0
VERTEX
  8
PLAN_1
  6
CONTINUOUS
 10
0.896244
 20
-4.031504
  0
VERTEX
  8
PLAN_1
  6
CONTINUOUS
 10
0.898803
 20
-4.032016
  0
VERTEX
  8
PLAN_1
  6
CONTINUOUS
 10
0.901362
 20
-4.032016
  0
VERTEX
  8
PLAN_1
  6
CONTINUOUS
 10
0.905461
 20
-4.031504
  0
VERTEX
  8
PLAN_1
  6
CONTINUOUS
 10
0.909555
 20
-4.030480
  0
VERTEX
  8
PLAN_1
  6
CONTINUOUS
 10
0.913654
 20
-4.028945
  0
VERTEX
  8
PLAN_1
  6
CONTINUOUS
 10
0.917752
 20
-4.026382
  0
VERTEX
  8
PLAN_1
  6
CONTINUOUS
 10
0.921335
 20
-4.023823
  0
VERTEX
  8
PLAN_1
  6
CONTINUOUS
 10
0.924917
 20
-4.020240
  0
VERTEX
  8
PLAN_1
  6
CONTINUOUS
 10
0.927992
 20
-4.016654
  0
VERTEX
  8
PLAN_1
  6
CONTINUOUS
 10
0.930551
 20
-4.012559
  0
VERTEX
  8
PLAN_1
  6
CONTINUOUS
 10
0.933626
 20
-4.008461
  0
VERTEX
  8
PLAN_1
  6
CONTINUOUS
 10
0.935673
 20
-4.003854
  0
VERTEX
  8
PLAN_1
  6
CONTINUOUS
 10
0.937720
 20
-3.999244
  0
VERTEX
  8
PLAN_1
  6
CONTINUOUS
 10
0.939256
 20
-3.994634
  0
VERTEX
  8
PLAN_1
  6
CONTINUOUS
 10
0.940791
 20
-3.990028
  0
VERTEX
  8
PLAN_1
  6
CONTINUOUS
 10
0.941819
 20
-3.985417
  0
VERTEX
  8
PLAN_1
  6
CONTINUOUS
 10
0.942331
 20
-3.980811
  0
VERTEX
  8
PLAN_1
  6
CONTINUOUS
 10
0.942843
 20
-3.976713
  0
VERTEX
  8
PLAN_1
  6
CONTINUOUS
 10
0.942331
 20
-3.971594
  0
VERTEX
  8
PLAN_1
  6
CONTINUOUS
 10
0.940791
 20
-3.966984
  0
VERTEX
  8
PLAN_1
  6
CONTINUOUS
 10
0.938744
 20
-3.962374
  0
VERTEX
  8
PLAN_1
  6
CONTINUOUS
 10
0.935673
 20
-3.958791
  0
VERTEX
  8
PLAN_1
  6
CONTINUOUS
 10
0.932598
 20
-3.955209
  0
VERTEX
  8
PLAN_1
  6
CONTINUOUS
 10
0.928504
 20
-3.953157
  0
VERTEX
  8
PLAN_1
  6
CONTINUOUS
 10
0.926457
 20
-3.952134
  0
VERTEX
  8
PLAN_1
  6
CONTINUOUS
 10
0.924406
 20
-3.951622
  0
VERTEX
  8
PLAN_1
  6
CONTINUOUS
 10
0.921846
 20
-3.951110
  0
VERTEX
  8
PLAN_1
  6
CONTINUOUS
 10
0.919799
 20
-3.951110
  0
SEQEND
  8
0
  0
POLYLINE
  8
PLAN_1
  6
CONTINUOUS
 66
     1
 40
0.003000
 41
0.003000
  0
VERTEX
  8
PLAN_1
  6
CONTINUOUS
 10
1.107213
 20
-4.031504
  0
VERTEX
  8
PLAN_1
  6
CONTINUOUS
 10
1.086732
 20
-4.089878
  0
VERTEX
  8
PLAN_1
  6
CONTINUOUS
 10
1.058567
 20
-4.089878
  0
VERTEX
  8
PLAN_1
  6
CONTINUOUS
 10
1.133839
 20
-3.890173
  0
VERTEX
  8
PLAN_1
  6
CONTINUOUS
 10
1.164051
 20
-3.890173
  0
VERTEX
  8
PLAN_1
  6
CONTINUOUS
 10
1.236252
 20
-4.089878
  0
VERTEX
  8
PLAN_1
  6
CONTINUOUS
 10
1.207067
 20
-4.089878
  0
VERTEX
  8
PLAN_1
  6
CONTINUOUS
 10
1.187094
 20
-4.031504
  0
VERTEX
  8
PLAN_1
  6
CONTINUOUS
 10
1.107213
 20
-4.031504
  0
SEQEND
  8
0
  0
SOLID
  8
PLAN_1
 10
1.177366
 20
-4.007949
 11
1.148177
 21
-3.919874
 12
1.115406
 22
-4.007949
 13
1.147665
 23
-3.919874
  0
POLYLINE
  8
PLAN_1
  6
CONTINUOUS
 66
     1
 40
0.003000
 41
0.003000
  0
VERTEX
  8
PLAN_1
  6
CONTINUOUS
 10
1.177366
 20
-4.007949
  0
VERTEX
  8
PLAN_1
  6
CONTINUOUS
 10
1.148177
 20
-3.919874
  0
VERTEX
  8
PLAN_1
  6
CONTINUOUS
 10
1.147665
 20
-3.919874
  0
VERTEX
  8
PLAN_1
  6
CONTINUOUS
 10
1.115406
 20
-4.007949
  0
VERTEX
  8
PLAN_1
  6
CONTINUOUS
 10
1.177366
 20
-4.007949
  0
SEQEND
  8
0
  0
POLYLINE
  8
PLAN_1
  6
CONTINUOUS
 66
     1
 40
0.003000
 41
0.003000
  0
VERTEX
  8
PLAN_1
  6
CONTINUOUS
 10
1.339689
 20
-4.089878
  0
VERTEX
  8
PLAN_1
  6
CONTINUOUS
 10
1.313575
 20
-4.089878
  0
VERTEX
  8
PLAN_1
  6
CONTINUOUS
 10
1.313575
 20
-3.951110
  0
VERTEX
  8
PLAN_1
  6
CONTINUOUS
 10
1.268000
 20
-3.951110
  0
VERTEX
  8
PLAN_1
  6
CONTINUOUS
 10
1.268000
 20
-3.931654
  0
VERTEX
  8
PLAN_1
  6
CONTINUOUS
 10
1.279268
 20
-3.930626
  0
VERTEX
  8
PLAN_1
  6
CONTINUOUS
 10
1.288484
 20
-3.929602
  0
VERTEX
  8
PLAN_1
  6
CONTINUOUS
 10
1.292579
 20
-3.928579
  0
VERTEX
  8
PLAN_1
  6
CONTINUOUS
 10
1.296677
 20
-3.927555
  0
VERTEX
  8
PLAN_1
  6
CONTINUOUS
 10
1.300260
 20
-3.926020
  0
VERTEX
  8
PLAN_1
  6
CONTINUOUS
 10
1.303335
 20
-3.924484
  0
VERTEX
  8
PLAN_1
  6
CONTINUOUS
 10
1.306406
 20
-3.922433
  0
VERTEX
  8
PLAN_1
  6
CONTINUOUS
 10
1.308965
 20
-3.919874
  0
VERTEX
  8
PLAN_1
  6
CONTINUOUS
 10
1.311528
 20
-3.916803
  0
VERTEX
  8
PLAN_1
  6
CONTINUOUS
 10
1.313575
 20
-3.913728
  0
VERTEX
  8
PLAN_1
  6
CONTINUOUS
 10
1.315622
 20
-3.909634
  0
VERTEX
  8
PLAN_1
  6
CONTINUOUS
 10
1.317669
 20
-3.905024
  0
VERTEX
  8
PLAN_1
  6
CONTINUOUS
 10
1.319209
 20
-3.900417
  0
VERTEX
  8
PLAN_1
  6
CONTINUOUS
 10
1.320744
 20
-3.894783
  0
VERTEX
  8
PLAN_1
  6
CONTINUOUS
 10
1.339689
 20
-3.894783
  0
VERTEX
  8
PLAN_1
  6
CONTINUOUS
 10
1.339689
 20
-4.089878
  0
SEQEND
  8
0
  0
POLYLINE
  8
PLAN_1
  6
CONTINUOUS
 66
     1
 40
0.003000
 41
0.003000
  0
VERTEX
  8
PLAN_1
  6
CONTINUOUS
 10
1.445685
 20
-4.089878
  0
VERTEX
  8
PLAN_1
  6
CONTINUOUS
 10
1.419059
 20
-4.089878
  0
VERTEX
  8
PLAN_1
  6
CONTINUOUS
 10
1.419059
 20
-3.890173
  0
VERTEX
  8
PLAN_1
  6
CONTINUOUS
 10
1.511232
 20
-3.890173
  0
VERTEX
  8
PLAN_1
  6
CONTINUOUS
 10
1.517374
 20
-3.890685
  0
VERTEX
  8
PLAN_1
  6
CONTINUOUS
 10
1.523520
 20
-3.891201
  0
VERTEX
  8
PLAN_1
  6
CONTINUOUS
 10
1.529154
 20
-3.891713
  0
VERTEX
  8
PLAN_1
  6
CONTINUOUS
 10
1.535299
 20
-3.892736
  0
VERTEX
  8
PLAN_1
  6
CONTINUOUS
 10
1.540929
 20
-3.894272
  0
VERTEX
  8
PLAN_1
  6
CONTINUOUS
 10
1.546051
 20
-3.896319
  0
VERTEX
  8
PLAN_1
  6
CONTINUOUS
 10
1.551173
 20
-3.898366
  0
VERTEX
  8
PLAN_1
  6
CONTINUOUS
 10
1.556291
 20
-3.901441
  0
VERTEX
  8
PLAN_1
  6
CONTINUOUS
 10
1.560390
 20
-3.904512
  0
VERTEX
  8
PLAN_1
  6
CONTINUOUS
 10
1.564484
 20
-3.908610
  0
VERTEX
  8
PLAN_1
  6
CONTINUOUS
 10
1.568071
 20
-3.912705
  0
VERTEX
  8
PLAN_1
  6
CONTINUOUS
 10
1.571142
 20
-3.917827
  0
VERTEX
  8
PLAN_1
  6
CONTINUOUS
 10
1.573189
 20
-3.923461
  0
VERTEX
  8
PLAN_1
  6
CONTINUOUS
 10
1.575240
 20
-3.929602
  0
VERTEX
  8
PLAN_1
  6
CONTINUOUS
 10
1.576264
 20
-3.936260
  0
VERTEX
  8
PLAN_1
  6
CONTINUOUS
 10
1.576776
 20
-3.943941
  0
VERTEX
  8
PLAN_1
  6
CONTINUOUS
 10
1.576264
 20
-3.949063
  0
VERTEX
  8
PLAN_1
  6
CONTINUOUS
 10
1.575752
 20
-3.954181
  0
VERTEX
  8
PLAN_1
  6
CONTINUOUS
 10
1.575240
 20
-3.958791
  0
VERTEX
  8
PLAN_1
  6
CONTINUOUS
 10
1.574213
 20
-3.962886
  0
VERTEX
  8
PLAN_1
  6
CONTINUOUS
 10
1.572677
 20
-3.966472
  0
VERTEX
  8
PLAN_1
  6
CONTINUOUS
 10
1.571142
 20
-3.970055
  0
VERTEX
  8
PLAN_1
  6
CONTINUOUS
 10
1.569606
 20
-3.973130
  0
VERTEX
  8
PLAN_1
  6
CONTINUOUS
 10
1.567559
 20
-3.976201
  0
VERTEX
  8
PLAN_1
  6
CONTINUOUS
 10
1.563461
 20
-3.981323
  0
VERTEX
  8
PLAN_1
  6
CONTINUOUS
 10
1.558339
 20
-3.985417
  0
VERTEX
  8
PLAN_1
  6
CONTINUOUS
 10
1.553732
 20
-3.989004
  0
VERTEX
  8
PLAN_1
  6
CONTINUOUS
 10
1.548610
 20
-3.991563
  0
VERTEX
  8
PLAN_1
  6
CONTINUOUS
 10
1.553220
 20
-3.993610
  0
VERTEX
  8
PLAN_1
  6
CONTINUOUS
 10
1.557315
 20
-3.995661
  0
VERTEX
  8
PLAN_1
  6
CONTINUOUS
 10
1.560902
 20
-3.998220
  0
VERTEX
  8
PLAN_1
  6
CONTINUOUS
 10
1.564484
 20
-4.001803
  0
VERTEX
  8
PLAN_1
  6
CONTINUOUS
 10
1.566020
 20
-4.003854
  0
VERTEX
  8
PLAN_1
  6
CONTINUOUS
 10
1.567559
 20
-4.006413
  0
VERTEX
  8
PLAN_1
  6
CONTINUOUS
 10
1.569094
 20
-4.008972
  0
VERTEX
  8
PLAN_1
  6
CONTINUOUS
 10
1.570118
 20
-4.012559
  0
VERTEX
  8
PLAN_1
  6
CONTINUOUS
 10
1.571142
 20
-4.015630
  0
VERTEX
  8
PLAN_1
  6
CONTINUOUS
 10
1.571654
 20
-4.019728
  0
VERTEX
  8
PLAN_1
  6
CONTINUOUS
 10
1.572165
 20
-4.024335
  0
VERTEX
  8
PLAN_1
  6
CONTINUOUS
 10
1.572677
 20
-4.029457
  0
VERTEX
  8
PLAN_1
  6
CONTINUOUS
 10
1.574213
 20
-4.065299
  0
VERTEX
  8
PLAN_1
  6
CONTINUOUS
 10
1.574724
 20
-4.069398
  0
VERTEX
  8
PLAN_1
  6
CONTINUOUS
 10
1.574724
 20
-4.072469
  0
VERTEX
  8
PLAN_1
  6
CONTINUOUS
 10
1.575240
 20
-4.075028
  0
VERTEX
  8
PLAN_1
  6
CONTINUOUS
 10
1.576264
 20
-4.077591
  0
VERTEX
  8
PLAN_1
  6
CONTINUOUS
 10
1.577799
 20
-4.079638
  0
VERTEX
  8
PLAN_1
  6
CONTINUOUS
 10
1.579335
 20
-4.081685
  0
VERTEX
  8
PLAN_1
  6
CONTINUOUS
 10
1.581382
 20
-4.083736
  0
VERTEX
  8
PLAN_1
  6
CONTINUOUS
 10
1.584457
 20
-4.085272
  0
VERTEX
  8
PLAN_1
  6
CONTINUOUS
 10
1.584457
 20
-4.089878
  0
VERTEX
  8
PLAN_1
  6
CONTINUOUS
 10
1.551173
 20
-4.089878
  0
VERTEX
  8
PLAN_1
  6
CONTINUOUS
 10
1.550146
 20
-4.084248
  0
VERTEX
  8
PLAN_1
  6
CONTINUOUS
 10
1.549122
 20
-4.077591
  0
VERTEX
  8
PLAN_1
  6
CONTINUOUS
 10
1.548098
 20
-4.070421
  0
VERTEX
  8
PLAN_1
  6
CONTINUOUS
 10
1.547587
 20
-4.062740
  0
VERTEX
  8
PLAN_1
  6
CONTINUOUS
 10
1.547075
 20
-4.055571
  0
VERTEX
  8
PLAN_1
  6
CONTINUOUS
 10
1.547075
 20
-4.048913
  0
VERTEX
  8
PLAN_1
  6
CONTINUOUS
 10
1.546563
 20
-4.043795
  0
VERTEX
  8
PLAN_1
  6
CONTINUOUS
 10
1.546563
 20
-4.039697
  0
VERTEX
  8
PLAN_1
  6
CONTINUOUS
 10
1.546563
 20
-4.033551
  0
VERTEX
  8
PLAN_1
  6
CONTINUOUS
 10
1.545539
 20
-4.027409
  0
VERTEX
  8
PLAN_1
  6
CONTINUOUS
 10
1.545028
 20
-4.024335
  0
VERTEX
  8
PLAN_1
  6
CONTINUOUS
 10
1.544004
 20
-4.021264
  0
VERTEX
  8
PLAN_1
  6
CONTINUOUS
 10
1.542465
 20
-4.018701
  0
VERTEX
  8
PLAN_1
  6
CONTINUOUS
 10
1.540929
 20
-4.015630
  0
VERTEX
  8
PLAN_1
  6
CONTINUOUS
 10
1.538882
 20
-4.013583
  0
VERTEX
  8
PLAN_1
  6
CONTINUOUS
 10
1.536323
 20
-4.011020
  0
VERTEX
  8
PLAN_1
  6
CONTINUOUS
 10
1.533760
 20
-4.008972
  0
VERTEX
  8
PLAN_1
  6
CONTINUOUS
 10
1.530177
 20
-4.007437
  0
VERTEX
  8
PLAN_1
  6
CONTINUOUS
 10
1.526079
 20
-4.005902
  0
VERTEX
  8
PLAN_1
  6
CONTINUOUS
 10
1.521984
 20
-4.004878
  0
VERTEX
  8
PLAN_1
  6
CONTINUOUS
 10
1.516862
 20
-4.004366
  0
VERTEX
  8
PLAN_1
  6
CONTINUOUS
 10
1.511232
 20
-4.004366
  0
VERTEX
  8
PLAN_1
  6
CONTINUOUS
 10
1.445685
 20
-4.004366
  0
VERTEX
  8
PLAN_1
  6
CONTINUOUS
 10
1.445685
 20
-4.089878
  0
SEQEND
  8
0
  0
POLYLINE
  8
PLAN_1
  6
CONTINUOUS
 66
     1
 40
0.003000
 41
0.003000
  0
VERTEX
  8
PLAN_1
  6
CONTINUOUS
 10
1.445685
 20
-3.981323
  0
VERTEX
  8
PLAN_1
  6
CONTINUOUS
 10
1.508157
 20
-3.981323
  0
VERTEX
  8
PLAN_1
  6
CONTINUOUS
 10
1.515839
 20
-3.980811
  0
VERTEX
  8
PLAN_1
  6
CONTINUOUS
 10
1.523008
 20
-3.979787
  0
VERTEX
  8
PLAN_1
  6
CONTINUOUS
 10
1.526591
 20
-3.979276
  0
VERTEX
  8
PLAN_1
  6
CONTINUOUS
 10
1.529665
 20
-3.978248
  0
VERTEX
  8
PLAN_1
  6
CONTINUOUS
 10
1.533248
 20
-3.976713
  0
VERTEX
  8
PLAN_1
  6
CONTINUOUS
 10
1.535811
 20
-3.975177
  0
VERTEX
  8
PLAN_1
  6
CONTINUOUS
 10
1.538882
 20
-3.973130
  0
VERTEX
  8
PLAN_1
  6
CONTINUOUS
 10
1.541441
 20
-3.970567
  0
VERTEX
  8
PLAN_1
  6
CONTINUOUS
 10
1.543492
 20
-3.968008
  0
VERTEX
  8
PLAN_1
  6
CONTINUOUS
 10
1.545539
 20
-3.964425
  0
VERTEX
  8
PLAN_1
  6
CONTINUOUS
 10
1.546563
 20
-3.960839
  0
VERTEX
  8
PLAN_1
  6
CONTINUOUS
 10
1.548098
 20
-3.956744
  0
VERTEX
  8
PLAN_1
  6
CONTINUOUS
 10
1.548610
 20
-3.952134
  0
VERTEX
  8
PLAN_1
  6
CONTINUOUS
 10
1.548610
 20
-3.947016
  0
VERTEX
  8
PLAN_1
  6
CONTINUOUS
 10
1.548610
 20
-3.941382
  0
VERTEX
  8
PLAN_1
  6
CONTINUOUS
 10
1.548098
 20
-3.936260
  0
VERTEX
  8
PLAN_1
  6
CONTINUOUS
 10
1.546563
 20
-3.932165
  0
VERTEX
  8
PLAN_1
  6
CONTINUOUS
 10
1.545028
 20
-3.928579
  0
VERTEX
  8
PLAN_1
  6
CONTINUOUS
 10
1.542980
 20
-3.925508
  0
VERTEX
  8
PLAN_1
  6
CONTINUOUS
 10
1.540929
 20
-3.922949
  0
VERTEX
  8
PLAN_1
  6
CONTINUOUS
 10
1.538370
 20
-3.920386
  0
VERTEX
  8
PLAN_1
  6
CONTINUOUS
 10
1.535811
 20
-3.918339
  0
VERTEX
  8
PLAN_1
  6
CONTINUOUS
 10
1.533248
 20
-3.917315
  0
VERTEX
  8
PLAN_1
  6
CONTINUOUS
 10
1.530177
 20
-3.915780
  0
VERTEX
  8
PLAN_1
  6
CONTINUOUS
 10
1.527106
 20
-3.914752
  0
VERTEX
  8
PLAN_1
  6
CONTINUOUS
 10
1.524031
 20
-3.914240
  0
VERTEX
  8
PLAN_1
  6
CONTINUOUS
 10
1.518398
 20
-3.913728
  0
VERTEX
  8
PLAN_1
  6
CONTINUOUS
 10
1.513280
 20
-3.913217
  0
VERTEX
  8
PLAN_1
  6
CONTINUOUS
 10
1.445685
 20
-3.913217
  0
VERTEX
  8
PLAN_1
  6
CONTINUOUS
 10
1.445685
 20
-3.981323
  0
SEQEND
  8
0
  0
SOLID
  8
PLAN_1
 10
1.647953
 20
-4.089878
 11
1.619276
 21
-4.089878
 12
1.647953
 22
-4.060181
 13
1.619276
 23
-4.060181
  0
POLYLINE
  8
PLAN_1
  6
CONTINUOUS
 66
     1
 40
0.003000
 41
0.003000
  0
VERTEX
  8
PLAN_1
  6
CONTINUOUS
 10
1.647953
 20
-4.089878
  0
VERTEX
  8
PLAN_1
  6
CONTINUOUS
 10
1.619276
 20
-4.089878
  0
VERTEX
  8
PLAN_1
  6
CONTINUOUS
 10
1.619276
 20
-4.060181
  0
VERTEX
  8
PLAN_1
  6
CONTINUOUS
 10
1.647953
 20
-4.060181
  0
VERTEX
  8
PLAN_1
  6
CONTINUOUS
 10
1.647953
 20
-4.089878
  0
SEQEND
  8
0
  0
POLYLINE
  8
PLAN_1
  6
CONTINUOUS
 66
     1
 40
0.003000
 41
0.003000
  0
VERTEX
  8
PLAN_1
  6
CONTINUOUS
 10
1.843047
 20
-4.089878
  0
VERTEX
  8
PLAN_1
  6
CONTINUOUS
 10
1.696087
 20
-4.089878
  0
VERTEX
  8
PLAN_1
  6
CONTINUOUS
 10
1.696087
 20
-3.890173
  0
VERTEX
  8
PLAN_1
  6
CONTINUOUS
 10
1.841000
 20
-3.890173
  0
VERTEX
  8
PLAN_1
  6
CONTINUOUS
 10
1.841000
 20
-3.914240
  0
VERTEX
  8
PLAN_1
  6
CONTINUOUS
 10
1.723224
 20
-3.914240
  0
VERTEX
  8
PLAN_1
  6
CONTINUOUS
 10
1.723224
 20
-3.975177
  0
VERTEX
  8
PLAN_1
  6
CONTINUOUS
 10
1.832295
 20
-3.975177
  0
VERTEX
  8
PLAN_1
  6
CONTINUOUS
 10
1.832295
 20
-3.999244
  0
VERTEX
  8
PLAN_1
  6
CONTINUOUS
 10
1.723224
 20
-3.999244
  0
VERTEX
  8
PLAN_1
  6
CONTINUOUS
 10
1.723224
 20
-4.065811
  0
VERTEX
  8
PLAN_1
  6
CONTINUOUS
 10
1.843047
 20
-4.065811
  0
VERTEX
  8
PLAN_1
  6
CONTINUOUS
 10
1.843047
 20
-4.089878
  0
SEQEND
  8
0
  0
POLYLINE
  8
PLAN_1
  6
CONTINUOUS
 66
     1
 40
0.003000
 41
0.003000
  0
VERTEX
  8
PLAN_1
  6
CONTINUOUS
 10
1.908079
 20
-4.089878
  0
VERTEX
  8
PLAN_1
  6
CONTINUOUS
 10
1.881453
 20
-4.089878
  0
VERTEX
  8
PLAN_1
  6
CONTINUOUS
 10
1.881453
 20
-3.890173
  0
VERTEX
  8
PLAN_1
  6
CONTINUOUS
 10
1.971063
 20
-3.890173
  0
VERTEX
  8
PLAN_1
  6
CONTINUOUS
 10
1.977720
 20
-3.890685
  0
VERTEX
  8
PLAN_1
  6
CONTINUOUS
 10
1.983866
 20
-3.891713
  0
VERTEX
  8
PLAN_1
  6
CONTINUOUS
 10
1.990008
 20
-3.892736
  0
VERTEX
  8
PLAN_1
  6
CONTINUOUS
 10
1.995642
 20
-3.894783
  0
VERTEX
  8
PLAN_1
  6
CONTINUOUS
 10
2.001276
 20
-3.896831
  0
VERTEX
  8
PLAN_1
  6
CONTINUOUS
 10
2.005882
 20
-3.899906
  0
VERTEX
  8
PLAN_1
  6
CONTINUOUS
 10
2.010492
 20
-3.902976
  0
VERTEX
  8
PLAN_1
  6
CONTINUOUS
 10
2.014587
 20
-3.906559
  0
VERTEX
  8
PLAN_1
  6
CONTINUOUS
 10
2.018173
 20
-3.910146
  0
VERTEX
  8
PLAN_1
  6
CONTINUOUS
 10
2.021244
 20
-3.914752
  0
VERTEX
  8
PLAN_1
  6
CONTINUOUS
 10
2.023803
 20
-3.919362
  0
VERTEX
  8
PLAN_1
  6
CONTINUOUS
 10
2.025854
 20
-3.923972
  0
VERTEX
  8
PLAN_1
  6
CONTINUOUS
 10
2.027902
 20
-3.929602
  0
VERTEX
  8
PLAN_1
  6
CONTINUOUS
 10
2.028925
 20
-3.934724
  0
VERTEX
  8
PLAN_1
  6
CONTINUOUS
 10
2.029949
 20
-3.940358
  0
VERTEX
  8
PLAN_1
  6
CONTINUOUS
 10
2.029949
 20
-3.946500
  0
VERTEX
  8
PLAN_1
  6
CONTINUOUS
 10
2.029949
 20
-3.951622
  0
VERTEX
  8
PLAN_1
  6
CONTINUOUS
 10
2.029437
 20
-3.957256
  0
VERTEX
  8
PLAN_1
  6
CONTINUOUS
 10
2.028413
 20
-3.962374
  0
VERTEX
  8
PLAN_1
  6
CONTINUOUS
 10
2.026878
 20
-3.967496
  0
VERTEX
  8
PLAN_1
  6
CONTINUOUS
 10
2.025343
 20
-3.972618
  0
VERTEX
  8
PLAN_1
  6
CONTINUOUS
 10
2.022780
 20
-3.977224
  0
VERTEX
  8
PLAN_1
  6
CONTINUOUS
 10
2.020220
 20
-3.981835
  0
VERTEX
  8
PLAN_1
  6
CONTINUOUS
 10
2.016638
 20
-3.986441
  0
VERTEX
  8
PLAN_1
  6
CONTINUOUS
 10
2.013051
 20
-3.990539
  0
VERTEX
  8
PLAN_1
  6
CONTINUOUS
 10
2.008957
 20
-3.994122
  0
VERTEX
  8
PLAN_1
  6
CONTINUOUS
 10
2.003835
 20
-3.997709
  0
VERTEX
  8
PLAN_1
  6
CONTINUOUS
 10
1.998713
 20
-4.000268
  0
VERTEX
  8
PLAN_1
  6
CONTINUOUS
 10
1.992571
 20
-4.002315
  0
VERTEX
  8
PLAN_1
  6
CONTINUOUS
 10
1.985913
 20
-4.004366
  0
VERTEX
  8
PLAN_1
  6
CONTINUOUS
 10
1.978744
 20
-4.005390
  0
VERTEX
  8
PLAN_1
  6
CONTINUOUS
 10
1.971063
 20
-4.005390
  0
VERTEX
  8
PLAN_1
  6
CONTINUOUS
 10
1.908079
 20
-4.005390
  0
VERTEX
  8
PLAN_1
  6
CONTINUOUS
 10
1.908079
 20
-4.089878
  0
SEQEND
  8
0
  0
POLYLINE
  8
PLAN_1
  6
CONTINUOUS
 66
     1
 40
0.003000
 41
0.003000
  0
VERTEX
  8
PLAN_1
  6
CONTINUOUS
 10
1.908079
 20
-3.982346
  0
VERTEX
  8
PLAN_1
  6
CONTINUOUS
 10
1.961846
 20
-3.982346
  0
VERTEX
  8
PLAN_1
  6
CONTINUOUS
 10
1.966453
 20
-3.982346
  0
VERTEX
  8
PLAN_1
  6
CONTINUOUS
 10
1.970551
 20
-3.982346
  0
VERTEX
  8
PLAN_1
  6
CONTINUOUS
 10
1.974646
 20
-3.981835
  0
VERTEX
  8
PLAN_1
  6
CONTINUOUS
 10
1.978232
 20
-3.980811
  0
VERTEX
  8
PLAN_1
  6
CONTINUOUS
 10
1.981815
 20
-3.979787
  0
VERTEX
  8
PLAN_1
  6
CONTINUOUS
 10
1.985402
 20
-3.978248
  0
VERTEX
  8
PLAN_1
  6
CONTINUOUS
 10
1.988472
 20
-3.976713
  0
VERTEX
  8
PLAN_1
  6
CONTINUOUS
 10
1.991031
 20
-3.974665
  0
VERTEX
  8
PLAN_1
  6
CONTINUOUS
 10
1.993594
 20
-3.972618
  0
VERTEX
  8
PLAN_1
  6
CONTINUOUS
 10
1.995642
 20
-3.970055
  0
VERTEX
  8
PLAN_1
  6
CONTINUOUS
 10
1.997689
 20
-3.966984
  0
VERTEX
  8
PLAN_1
  6
CONTINUOUS
 10
1.999224
 20
-3.963913
  0
VERTEX
  8
PLAN_1
  6
CONTINUOUS
 10
2.000764
 20
-3.960327
  0
VERTEX
  8
PLAN_1
  6
CONTINUOUS
 10
2.001787
 20
-3.956232
  0
VERTEX
  8
PLAN_1
  6
CONTINUOUS
 10
2.002299
 20
-3.951622
  0
VERTEX
  8
PLAN_1
  6
CONTINUOUS
 10
2.002299
 20
-3.947016
  0
VERTEX
  8
PLAN_1
  6
CONTINUOUS
 10
2.002299
 20
-3.942406
  0
VERTEX
  8
PLAN_1
  6
CONTINUOUS
 10
2.001787
 20
-3.938307
  0
VERTEX
  8
PLAN_1
  6
CONTINUOUS
 10
2.000764
 20
-3.934213
  0
VERTEX
  8
PLAN_1
  6
CONTINUOUS
 10
1.999224
 20
-3.931142
  0
VERTEX
  8
PLAN_1
  6
CONTINUOUS
 10
1.997689
 20
-3.928067
  0
VERTEX
  8
PLAN_1
  6
CONTINUOUS
 10
1.995642
 20
-3.924996
  0
VERTEX
  8
PLAN_1
  6
CONTINUOUS
 10
1.993594
 20
-3.922949
  0
VERTEX
  8
PLAN_1
  6
CONTINUOUS
 10
1.991031
 20
-3.920898
  0
VERTEX
  8
PLAN_1
  6
CONTINUOUS
 10
1.987961
 20
-3.918850
  0
VERTEX
  8
PLAN_1
  6
CONTINUOUS
 10
1.985402
 20
-3.917315
  0
VERTEX
  8
PLAN_1
  6
CONTINUOUS
 10
1.981815
 20
-3.916291
  0
VERTEX
  8
PLAN_1
  6
CONTINUOUS
 10
1.978232
 20
-3.915268
  0
VERTEX
  8
PLAN_1
  6
CONTINUOUS
 10
1.971063
 20
-3.913728
  0
VERTEX
  8
PLAN_1
  6
CONTINUOUS
 10
1.962870
 20
-3.913217
  0
VERTEX
  8
PLAN_1
  6
CONTINUOUS
 10
1.908079
 20
-3.913217
  0
VERTEX
  8
PLAN_1
  6
CONTINUOUS
 10
1.908079
 20
-3.982346
  0
SEQEND
  8
0
  0
POLYLINE
  8
PLAN_1
  6
CONTINUOUS
 66
     1
 40
0.003000
 41
0.003000
  0
VERTEX
  8
PLAN_1
  6
CONTINUOUS
 10
2.184079
 20
-3.948551
  0
VERTEX
  8
PLAN_1
  6
CONTINUOUS
 10
2.183567
 20
-3.943429
  0
VERTEX
  8
PLAN_1
  6
CONTINUOUS
 10
2.182543
 20
-3.938307
  0
VERTEX
  8
PLAN_1
  6
CONTINUOUS
 10
2.181008
 20
-3.933701
  0
VERTEX
  8
PLAN_1
  6
CONTINUOUS
 10
2.178961
 20
-3.929602
  0
VERTEX
  8
PLAN_1
  6
CONTINUOUS
 10
2.176402
 20
-3.925508
  0
VERTEX
  8
PLAN_1
  6
CONTINUOUS
 10
2.173839
 20
-3.922433
  0
VERTEX
  8
PLAN_1
  6
CONTINUOUS
 10
2.170768
 20
-3.919362
  0
VERTEX
  8
PLAN_1
  6
CONTINUOUS
 10
2.167181
 20
-3.916803
  0
VERTEX
  8
PLAN_1
  6
CONTINUOUS
 10
2.163598
 20
-3.914752
  0
VERTEX
  8
PLAN_1
  6
CONTINUOUS
 10
2.159500
 20
-3.912705
  0
VERTEX
  8
PLAN_1
  6
CONTINUOUS
 10
2.155917
 20
-3.911169
  0
VERTEX
  8
PLAN_1
  6
CONTINUOUS
 10
2.151819
 20
-3.910146
  0
VERTEX
  8
PLAN_1
  6
CONTINUOUS
 10
2.147213
 20
-3.909122
  0
VERTEX
  8
PLAN_1
  6
CONTINUOUS
 10
2.143114
 20
-3.908610
  0
VERTEX
  8
PLAN_1
  6
CONTINUOUS
 10
2.139020
 20
-3.908098
  0
VERTEX
  8
PLAN_1
  6
CONTINUOUS
 10
2.134409
 20
-3.908098
  0
VERTEX
  8
PLAN_1
  6
CONTINUOUS
 10
2.127752
 20
-3.908610
  0
VERTEX
  8
PLAN_1
  6
CONTINUOUS
 10
2.120071
 20
-3.909634
  0
VERTEX
  8
PLAN_1
  6
CONTINUOUS
 10
2.116488
 20
-3.910146
  0
VERTEX
  8
PLAN_1
  6
CONTINUOUS
 10
2.112906
 20
-3.911169
  0
VERTEX
  8
PLAN_1
  6
CONTINUOUS
 10
2.108807
 20
-3.912705
  0
VERTEX
  8
PLAN_1
  6
CONTINUOUS
 10
2.105224
 20
-3.914240
  0
VERTEX
  8
PLAN_1
  6
CONTINUOUS
 10
2.102150
 20
-3.916291
  0
VERTEX
  8
PLAN_1
  6
CONTINUOUS
 10
2.099079
 20
-3.918850
  0
VERTEX
  8
PLAN_1
  6
CONTINUOUS
 10
2.096004
 20
-3.921409
  0
VERTEX
  8
PLAN_1
  6
CONTINUOUS
 10
2.093957
 20
-3.924996
  0
VERTEX
  8
PLAN_1
  6
CONTINUOUS
 10
2.091909
 20
-3.928579
  0
VERTEX
  8
PLAN_1
  6
CONTINUOUS
 10
2.090374
 20
-3.933189
  0
VERTEX
  8
PLAN_1
  6
CONTINUOUS
 10
2.089350
 20
-3.937795
  0
VERTEX
  8
PLAN_1
  6
CONTINUOUS
 10
2.088839
 20
-3.942917
  0
VERTEX
  8
PLAN_1
  6
CONTINUOUS
 10
2.089350
 20
-3.945988
  0
VERTEX
  8
PLAN_1
  6
CONTINUOUS
 10
2.089350
 20
-3.949063
  0
VERTEX
  8
PLAN_1
  6
CONTINUOUS
 10
2.090374
 20
-3.951622
  0
VERTEX
  8
PLAN_1
  6
CONTINUOUS
 10
2.090886
 20
-3.953669
  0
VERTEX
  8
PLAN_1
  6
CONTINUOUS
 10
2.093445
 20
-3.957768
  0
VERTEX
  8
PLAN_1
  6
CONTINUOUS
 10
2.096520
 20
-3.961350
  0
VERTEX
  8
PLAN_1
  6
CONTINUOUS
 10
2.100102
 20
-3.963913
  0
VERTEX
  8
PLAN_1
  6
CONTINUOUS
 10
2.104201
 20
-3.965449
  0
VERTEX
  8
PLAN_1
  6
CONTINUOUS
 10
2.108295
 20
-3.966984
  0
VERTEX
  8
PLAN_1
  6
CONTINUOUS
 10
2.112906
 20
-3.968520
  0
VERTEX
  8
PLAN_1
  6
CONTINUOUS
 10
2.169744
 20
-3.981323
  0
VERTEX
  8
PLAN_1
  6
CONTINUOUS
 10
2.174350
 20
-3.982858
  0
VERTEX
  8
PLAN_1
  6
CONTINUOUS
 10
2.178961
 20
-3.984394
  0
VERTEX
  8
PLAN_1
  6
CONTINUOUS
 10
2.183055
 20
-3.985929
  0
VERTEX
  8
PLAN_1
  6
CONTINUOUS
 10
2.187665
 20
-3.987980
  0
VERTEX
  8
PLAN_1
  6
CONTINUOUS
 10
2.191248
 20
-3.990028
  0
VERTEX
  8
PLAN_1
  6
CONTINUOUS
 10
2.195346
 20
-3.992587
  0
VERTEX
  8
PLAN_1
  6
CONTINUOUS
 10
2.198929
 20
-3.995661
  0
VERTEX
  8
PLAN_1
  6
CONTINUOUS
 10
2.202004
 20
-3.998732
  0
VERTEX
  8
PLAN_1
  6
CONTINUOUS
 10
2.204563
 20
-4.001803
  0
VERTEX
  8
PLAN_1
  6
CONTINUOUS
 10
2.207122
 20
-4.005390
  0
VERTEX
  8
PLAN_1
  6
CONTINUOUS
 10
2.209685
 20
-4.009484
  0
VERTEX
  8
PLAN_1
  6
CONTINUOUS
 10
2.211220
 20
-4.014094
  0
VERTEX
  8
PLAN_1
  6
CONTINUOUS
 10
2.212756
 20
-4.018701
  0
VERTEX
  8
PLAN_1
  6
CONTINUOUS
 10
2.213780
 20
-4.023823
  0
VERTEX
  8
PLAN_1
  6
CONTINUOUS
 10
2.214803
 20
-4.028945
  0
VERTEX
  8
PLAN_1
  6
CONTINUOUS
 10
2.214803
 20
-4.034575
  0
VERTEX
  8
PLAN_1
  6
CONTINUOUS
 10
2.214803
 20
-4.039185
  0
VERTEX
  8
PLAN_1
  6
CONTINUOUS
 10
2.214291
 20
-4.043283
  0
VERTEX
  8
PLAN_1
  6
CONTINUOUS
 10
2.213780
 20
-4.047378
  0
VERTEX
  8
PLAN_1
  6
CONTINUOUS
 10
2.212756
 20
-4.050961
  0
VERTEX
  8
PLAN_1
  6
CONTINUOUS
 10
2.210709
 20
-4.057618
  0
VERTEX
  8
PLAN_1
  6
CONTINUOUS
 10
2.207634
 20
-4.064276
  0
VERTEX
  8
PLAN_1
  6
CONTINUOUS
 10
2.203539
 20
-4.069909
  0
VERTEX
  8
PLAN_1
  6
CONTINUOUS
 10
2.198929
 20
-4.074516
  0
VERTEX
  8
PLAN_1
  6
CONTINUOUS
 10
2.194323
 20
-4.079126
  0
VERTEX
  8
PLAN_1
  6
CONTINUOUS
 10
2.188689
 20
-4.082709
  0
VERTEX
  8
PLAN_1
  6
CONTINUOUS
 10
2.182543
 20
-4.085783
  0
VERTEX
  8
PLAN_1
  6
CONTINUOUS
 10
2.176402
 20
-4.088343
  0
VERTEX
  8
PLAN_1
  6
CONTINUOUS
 10
2.170256
 20
-4.090390
  0
VERTEX
  8
PLAN_1
  6
CONTINUOUS
 10
2.163598
 20
-4.092441
  0
VERTEX
  8
PLAN_1
  6
CONTINUOUS
 10
2.156429
 20
-4.093465
  0
VERTEX
  8
PLAN_1
  6
CONTINUOUS
 10
2.149772
 20
-4.094488
  0
VERTEX
  8
PLAN_1
  6
CONTINUOUS
 10
2.143114
 20
-4.095000
  0
VERTEX
  8
PLAN_1
  6
CONTINUOUS
 10
2.136972
 20
-4.095000
  0
VERTEX
  8
PLAN_1
  6
CONTINUOUS
 10
2.124169
 20
-4.094488
  0
VERTEX
  8
PLAN_1
  6
CONTINUOUS
 10
2.112906
 20
-4.092953
  0
VERTEX
  8
PLAN_1
  6
CONTINUOUS
 10
2.103685
 20
-4.090902
  0
VERTEX
  8
PLAN_1
  6
CONTINUOUS
 10
2.096004
 20
-4.088343
  0
VERTEX
  8
PLAN_1
  6
CONTINUOUS
 10
2.089862
 20
-4.085272
  0
VERTEX
  8
PLAN_1
  6
CONTINUOUS
 10
2.084740
 20
-4.082197
  0
VERTEX
  8
PLAN_1
  6
CONTINUOUS
 10
2.080134
 20
-4.079126
  0
VERTEX
  8
PLAN_1
  6
CONTINUOUS
 10
2.076547
 20
-4.076055
  0
VERTEX
  8
PLAN_1
  6
CONTINUOUS
 10
2.070913
 20
-4.069909
  0
VERTEX
  8
PLAN_1
  6
CONTINUOUS
 10
2.066307
 20
-4.064276
  0
VERTEX
  8
PLAN_1
  6
CONTINUOUS
 10
2.062720
 20
-4.058130
  0
VERTEX
  8
PLAN_1
  6
CONTINUOUS
 10
2.060161
 20
-4.051988
  0
VERTEX
  8
PLAN_1
  6
CONTINUOUS
 10
2.058114
 20
-4.045331
  0
VERTEX
  8
PLAN_1
  6
CONTINUOUS
 10
2.057091
 20
-4.038673
  0
VERTEX
  8
PLAN_1
  6
CONTINUOUS
 10
2.056579
 20
-4.032016
  0
VERTEX
  8
PLAN_1
  6
CONTINUOUS
 10
2.056067
 20
-4.025358
  0
VERTEX
  8
PLAN_1
  6
CONTINUOUS
 10
2.081669
 20
-4.025358
  0
VERTEX
  8
PLAN_1
  6
CONTINUOUS
 10
2.081669
 20
-4.032016
  0
VERTEX
  8
PLAN_1
  6
CONTINUOUS
 10
2.082693
 20
-4.037650
  0
VERTEX
  8
PLAN_1
  6
CONTINUOUS
 10
2.084228
 20
-4.043283
  0
VERTEX
  8
PLAN_1
  6
CONTINUOUS
 10
2.086787
 20
-4.047890
  0
VERTEX
  8
PLAN_1
  6
CONTINUOUS
 10
2.089350
 20
-4.051988
  0
VERTEX
  8
PLAN_1
  6
CONTINUOUS
 10
2.092421
 20
-4.056083
  0
VERTEX
  8
PLAN_1
  6
CONTINUOUS
 10
2.095492
 20
-4.059157
  0
VERTEX
  8
PLAN_1
  6
CONTINUOUS
 10
2.099591
 20
-4.062228
  0
VERTEX
  8
PLAN_1
  6
CONTINUOUS
 10
2.103685
 20
-4.064787
  0
VERTEX
  8
PLAN_1
  6
CONTINUOUS
 10
2.107783
 20
-4.066835
  0
VERTEX
  8
PLAN_1
  6
CONTINUOUS
 10
2.112394
 20
-4.068374
  0
VERTEX
  8
PLAN_1
  6
CONTINUOUS
 10
2.117000
 20
-4.069909
  0
VERTEX
  8
PLAN_1
  6
CONTINUOUS
 10
2.122122
 20
-4.070933
  0
VERTEX
  8
PLAN_1
  6
CONTINUOUS
 10
2.126728
 20
-4.071445
  0
VERTEX
  8
PLAN_1
  6
CONTINUOUS
 10
2.131850
 20
-4.071957
  0
VERTEX
  8
PLAN_1
  6
CONTINUOUS
 10
2.136461
 20
-4.071957
  0
VERTEX
  8
PLAN_1
  6
CONTINUOUS
 10
2.144138
 20
-4.071445
  0
VERTEX
  8
PLAN_1
  6
CONTINUOUS
 10
2.152846
 20
-4.070933
  0
VERTEX
  8
PLAN_1
  6
CONTINUOUS
 10
2.157453
 20
-4.069909
  0
VERTEX
  8
PLAN_1
  6
CONTINUOUS
 10
2.161551
 20
-4.068886
  0
VERTEX
  8
PLAN_1
  6
CONTINUOUS
 10
2.165646
 20
-4.067350
  0
VERTEX
  8
PLAN_1
  6
CONTINUOUS
 10
2.169744
 20
-4.065811
  0
VERTEX
  8
PLAN_1
  6
CONTINUOUS
 10
2.173839
 20
-4.063764
  0
VERTEX
  8
PLAN_1
  6
CONTINUOUS
 10
2.177425
 20
-4.061717
  0
VERTEX
  8
PLAN_1
  6
CONTINUOUS
 10
2.180496
 20
-4.058642
  0
VERTEX
  8
PLAN_1
  6
CONTINUOUS
 10
2.183055
 20
-4.055571
  0
VERTEX
  8
PLAN_1
  6
CONTINUOUS
 10
2.185618
 20
-4.051988
  0
VERTEX
  8
PLAN_1
  6
CONTINUOUS
 10
2.187154
 20
-4.047890
  0
VERTEX
  8
PLAN_1
  6
CONTINUOUS
 10
2.188177
 20
-4.043283
  0
VERTEX
  8
PLAN_1
  6
CONTINUOUS
 10
2.188689
 20
-4.038161
  0
VERTEX
  8
PLAN_1
  6
CONTINUOUS
 10
2.188689
 20
-4.034575
  0
VERTEX
  8
PLAN_1
  6
CONTINUOUS
 10
2.188177
 20
-4.030992
  0
VERTEX
  8
PLAN_1
  6
CONTINUOUS
 10
2.187665
 20
-4.027921
  0
VERTEX
  8
PLAN_1
  6
CONTINUOUS
 10
2.186642
 20
-4.025358
  0
VERTEX
  8
PLAN_1
  6
CONTINUOUS
 10
2.185618
 20
-4.022799
  0
VERTEX
  8
PLAN_1
  6
CONTINUOUS
 10
2.184079
 20
-4.020240
  0
VERTEX
  8
PLAN_1
  6
CONTINUOUS
 10
2.182031
 20
-4.017677
  0
VERTEX
  8
PLAN_1
  6
CONTINUOUS
 10
2.179984
 20
-4.015630
  0
VERTEX
  8
PLAN_1
  6
CONTINUOUS
 10
2.176913
 20
-4.014094
  0
VERTEX
  8
PLAN_1
  6
CONTINUOUS
 10
2.173839
 20
-4.012047
  0
VERTEX
  8
PLAN_1
  6
CONTINUOUS
 10
2.170768
 20
-4.010508
  0
VERTEX
  8
PLAN_1
  6
CONTINUOUS
 10
2.166669
 20
-4.008972
  0
VERTEX
  8
PLAN_1
  6
CONTINUOUS
 10
2.157453
 20
-4.005902
  0
VERTEX
  8
PLAN_1
  6
CONTINUOUS
 10
2.146189
 20
-4.003343
  0
VERTEX
  8
PLAN_1
  6
CONTINUOUS
 10
2.105224
 20
-3.993610
  0
VERTEX
  8
PLAN_1
  6
CONTINUOUS
 10
2.100102
 20
-3.992075
  0
VERTEX
  8
PLAN_1
  6
CONTINUOUS
 10
2.093445
 20
-3.990028
  0
VERTEX
  8
PLAN_1
  6
CONTINUOUS
 10
2.089862
 20
-3.988492
  0
VERTEX
  8
PLAN_1
  6
CONTINUOUS
 10
2.086276
 20
-3.986441
  0
VERTEX
  8
PLAN_1
  6
CONTINUOUS
 10
2.082693
 20
-3.984394
  0
VERTEX
  8
PLAN_1
  6
CONTINUOUS
 10
2.079106
 20
-3.982346
  0
VERTEX
  8
PLAN_1
  6
CONTINUOUS
 10
2.076035
 20
-3.979276
  0
VERTEX
  8
PLAN_1
  6
CONTINUOUS
 10
2.072965
 20
-3.976201
  0
VERTEX
  8
PLAN_1
  6
CONTINUOUS
 10
2.070402
 20
-3.972618
  0
VERTEX
  8
PLAN_1
  6
CONTINUOUS
 10
2.067843
 20
-3.968520
  0
VERTEX
  8
PLAN_1
  6
CONTINUOUS
 10
2.065795
 20
-3.963913
  0
VERTEX
  8
PLAN_1
  6
CONTINUOUS
 10
2.064260
 20
-3.958791
  0
VERTEX
  8
PLAN_1
  6
CONTINUOUS
 10
2.063232
 20
-3.953157
  0
VERTEX
  8
PLAN_1
  6
CONTINUOUS
 10
2.062720
 20
-3.947016
  0
VERTEX
  8
PLAN_1
  6
CONTINUOUS
 10
2.063232
 20
-3.940870
  0
VERTEX
  8
PLAN_1
  6
CONTINUOUS
 10
2.063744
 20
-3.935236
  0
VERTEX
  8
PLAN_1
  6
CONTINUOUS
 10
2.065283
 20
-3.929602
  0
VERTEX
  8
PLAN_1
  6
CONTINUOUS
 10
2.066819
 20
-3.923972
  0
VERTEX
  8
PLAN_1
  6
CONTINUOUS
 10
2.069378
 20
-3.918850
  0
VERTEX
  8
PLAN_1
  6
CONTINUOUS
 10
2.071937
 20
-3.913728
  0
VERTEX
  8
PLAN_1
  6
CONTINUOUS
 10
2.075012
 20
-3.908610
  0
VERTEX
  8
PLAN_1
  6
CONTINUOUS
 10
2.079106
 20
-3.904512
  0
VERTEX
  8
PLAN_1
  6
CONTINUOUS
 10
2.083717
 20
-3.900417
  0
VERTEX
  8
PLAN_1
  6
CONTINUOUS
 10
2.088839
 20
-3.896319
  0
VERTEX
  8
PLAN_1
  6
CONTINUOUS
 10
2.093957
 20
-3.893248
  0
VERTEX
  8
PLAN_1
  6
CONTINUOUS
 10
2.100614
 20
-3.890173
  0
VERTEX
  8
PLAN_1
  6
CONTINUOUS
 10
2.107272
 20
-3.888126
  0
VERTEX
  8
PLAN_1
  6
CONTINUOUS
 10
2.114953
 20
-3.886591
  0
VERTEX
  8
PLAN_1
  6
CONTINUOUS
 10
2.122634
 20
-3.885567
  0
VERTEX
  8
PLAN_1
  6
CONTINUOUS
 10
2.131339
 20
-3.885055
  0
VERTEX
  8
PLAN_1
  6
CONTINUOUS
 10
2.143626
 20
-3.885567
  0
VERTEX
  8
PLAN_1
  6
CONTINUOUS
 10
2.154894
 20
-3.887102
  0
VERTEX
  8
PLAN_1
  6
CONTINUOUS
 10
2.164622
 20
-3.889150
  0
VERTEX
  8
PLAN_1
  6
CONTINUOUS
 10
2.172815
 20
-3.892224
  0
VERTEX
  8
PLAN_1
  6
CONTINUOUS
 10
2.179984
 20
-3.895295
  0
VERTEX
  8
PLAN_1
  6
CONTINUOUS
 10
2.186642
 20
-3.899394
  0
VERTEX
  8
PLAN_1
  6
CONTINUOUS
 10
2.191760
 20
-3.904000
  0
VERTEX
  8
PLAN_1
  6
CONTINUOUS
 10
2.195858
 20
-3.908610
  0
VERTEX
  8
PLAN_1
  6
CONTINUOUS
 10
2.199441
 20
-3.913728
  0
VERTEX
  8
PLAN_1
  6
CONTINUOUS
 10
2.202516
 20
-3.918850
  0
VERTEX
  8
PLAN_1
  6
CONTINUOUS
 10
2.204563
 20
-3.924484
  0
VERTEX
  8
PLAN_1
  6
CONTINUOUS
 10
2.206610
 20
-3.929602
  0
VERTEX
  8
PLAN_1
  6
CONTINUOUS
 10
2.207634
 20
-3.934724
  0
VERTEX
  8
PLAN_1
  6
CONTINUOUS
 10
2.208661
 20
-3.939846
  0
VERTEX
  8
PLAN_1
  6
CONTINUOUS
 10
2.209173
 20
-3.944453
  0
VERTEX
  8
PLAN_1
  6
CONTINUOUS
 10
2.209173
 20
-3.948551
  0
VERTEX
  8
PLAN_1
  6
CONTINUOUS
 10
2.184079
 20
-3.948551
  0
SEQEND
  8
0
  0
POLYLINE
  8
PLAN_1
  6
CONTINUOUS
 66
     1
 40
0.008193
 41
0.008193
  0
VERTEX
  8
PLAN_1
  6
CONTINUOUS
 10
-0.492980
 20
-0.581228
  0
VERTEX
  8
PLAN_1
  6
CONTINUOUS
 10
-0.492980
 20
3.339634
  0
VERTEX
  8
PLAN_1
  6
CONTINUOUS
 10
-1.791059
 20
3.339634
  0
VERTEX
  8
PLAN_1
  6
CONTINUOUS
 10
-1.791059
 20
2.506508
  0
VERTEX
  8
PLAN_1
  6
CONTINUOUS
 10
-2.111098
 20
2.506508
  0
VERTEX
  8
PLAN_1
  6
CONTINUOUS
 10
-2.111098
 20
-0.581228
  0
VERTEX
  8
PLAN_1
  6
CONTINUOUS
 10
-0.492980
 20
-0.581228
  0
SEQEND
  8
0
  0
POLYLINE
  8
PLAN_1
  6
CONTINUOUS
 66
     1
 40
0.008193
 41
0.008193
  0
VERTEX
  8
PLAN_1
  6
CONTINUOUS
 10
-1.479213
 20
2.506508
  0
VERTEX
  8
PLAN_1
  6
CONTINUOUS
 10
-1.479213
 20
2.705701
  0
VERTEX
  8
PLAN_1
  6
CONTINUOUS
 10
-1.792598
 20
2.705701
  0
SEQEND
  8
0
  0
POLYLINE
  8
PLAN_1
  6
CONTINUOUS
 66
     1
 40
0.008193
 41
0.008193
  0
VERTEX
  8
PLAN_1
  6
CONTINUOUS
 10
-0.492980
 20
2.705701
  0
VERTEX
  8
PLAN_1
  6
CONTINUOUS
 10
-0.810461
 20
2.705701
  0
VERTEX
  8
PLAN_1
  6
CONTINUOUS
 10
-0.810461
 20
2.506508
  0
SEQEND
  8
0
  0
POLYLINE
  8
PLAN_1
  6
CONTINUOUS
 66
     1
 40
0.008193
 41
0.008193
  0
VERTEX
  8
PLAN_1
  6
CONTINUOUS
 10
-0.470965
 20
2.172134
  0
VERTEX
  8
PLAN_1
  6
CONTINUOUS
 10
-0.470965
 20
2.473224
  0
VERTEX
  8
PLAN_1
  6
CONTINUOUS
 10
-0.489909
 20
2.473224
  0
VERTEX
  8
PLAN_1
  6
CONTINUOUS
 10
-0.489909
 20
2.172134
  0
VERTEX
  8
PLAN_1
  6
CONTINUOUS
 10
-0.470965
 20
2.172134
  0
SEQEND
  8
0
  0
POLYLINE
  8
PLAN_1
  6
CONTINUOUS
 66
     1
 40
0.008193
 41
0.008193
  0
VERTEX
  8
PLAN_1
  6
CONTINUOUS
 10
-0.470965
 20
-0.552551
  0
VERTEX
  8
PLAN_1
  6
CONTINUOUS
 10
-0.470965
 20
-0.251461
  0
VERTEX
  8
PLAN_1
  6
CONTINUOUS
 10
-0.489909
 20
-0.251461
  0
VERTEX
  8
PLAN_1
  6
CONTINUOUS
 10
-0.489909
 20
-0.552551
  0
VERTEX
  8
PLAN_1
  6
CONTINUOUS
 10
-0.470965
 20
-0.552551
  0
SEQEND
  8
0
  0
POLYLINE
  8
PLAN_1
  6
CONTINUOUS
 66
     1
 40
0.008193
 41
0.008193
  0
VERTEX
  8
PLAN_1
  6
CONTINUOUS
 10
-2.035827
 20
2.506508
  0
VERTEX
  8
PLAN_1
  6
CONTINUOUS
 10
-2.035827
 20
-0.581228
  0
SEQEND
  8
0
  0
POLYLINE
  8
PLAN_1
  6
CONTINUOUS
 66
     1
 40
0.008193
 41
0.008193
  0
VERTEX
  8
PLAN_1
  6
CONTINUOUS
 10
-1.952874
 20
2.506508
  0
VERTEX
  8
PLAN_1
  6
CONTINUOUS
 10
-1.952874
 20
-0.581228
  0
SEQEND
  8
0
  0
POLYLINE
  8
PLAN_1
  6
CONTINUOUS
 66
     1
 40
0.008193
 41
0.008193
  0
VERTEX
  8
PLAN_1
  6
CONTINUOUS
 10
-1.952874
 20
1.923783
  0
VERTEX
  8
PLAN_1
  6
CONTINUOUS
 10
-1.792598
 20
1.923783
  0
VERTEX
  8
PLAN_1
  6
CONTINUOUS
 10
-1.792598
 20
2.506508
  0
SEQEND
  8
0
  0
POLYLINE
  8
PLAN_1
  6
CONTINUOUS
 66
     1
 40
0.008193
 41
0.008193
  0
VERTEX
  8
PLAN_1
  6
CONTINUOUS
 10
-1.949287
 20
-0.033319
  0
VERTEX
  8
PLAN_1
  6
CONTINUOUS
 10
-1.791059
 20
-0.033319
  0
VERTEX
  8
PLAN_1
  6
CONTINUOUS
 10
-1.791059
 20
-0.582252
  0
SEQEND
  8
0
  0
POLYLINE
  8
PLAN_1
  6
CONTINUOUS
 66
     1
 40
0.008193
 41
0.008193
  0
VERTEX
  8
PLAN_1
  6
CONTINUOUS
 10
-2.111098
 20
-0.494689
  0
VERTEX
  8
PLAN_1
  6
CONTINUOUS
 10
-2.111098
 20
-0.239169
  0
VERTEX
  8
PLAN_1
  6
CONTINUOUS
 10
-2.208902
 20
-0.239169
  0
VERTEX
  8
PLAN_1
  6
CONTINUOUS
 10
-2.208902
 20
-0.494689
  0
VERTEX
  8
PLAN_1
  6
CONTINUOUS
 10
-2.111098
 20
-0.494689
  0
SEQEND
  8
0
  0
POLYLINE
  8
PLAN_1
  6
CONTINUOUS
 66
     1
 40
0.008193
 41
0.008193
  0
VERTEX
  8
PLAN_1
  6
CONTINUOUS
 10
-2.156161
 20
-0.472157
  0
VERTEX
  8
PLAN_1
  6
CONTINUOUS
 10
-2.156161
 20
-0.449626
  0
VERTEX
  8
PLAN_1
  6
CONTINUOUS
 10
-2.208902
 20
-0.449626
  0
VERTEX
  8
PLAN_1
  6
CONTINUOUS
 10
-2.208902
 20
-0.472157
  0
VERTEX
  8
PLAN_1
  6
CONTINUOUS
 10
-2.156161
 20
-0.472157
  0
SEQEND
  8
0
  0
POLYLINE
  8
PLAN_1
  6
CONTINUOUS
 66
     1
 40
0.008193
 41
0.008193
  0
VERTEX
  8
PLAN_1
  6
CONTINUOUS
 10
-2.111098
 20
2.422531
  0
VERTEX
  8
PLAN_1
  6
CONTINUOUS
 10
-2.111098
 20
2.166500
  0
VERTEX
  8
PLAN_1
  6
CONTINUOUS
 10
-2.208902
 20
2.166500
  0
VERTEX
  8
PLAN_1
  6
CONTINUOUS
 10
-2.208902
 20
2.422531
  0
VERTEX
  8
PLAN_1
  6
CONTINUOUS
 10
-2.111098
 20
2.422531
  0
SEQEND
  8
0
  0
POLYLINE
  8
PLAN_1
  6
CONTINUOUS
 66
     1
 40
0.008193
 41
0.008193
  0
VERTEX
  8
PLAN_1
  6
CONTINUOUS
 10
-2.156161
 20
2.400000
  0
VERTEX
  8
PLAN_1
  6
CONTINUOUS
 10
-2.156161
 20
2.377469
  0
VERTEX
  8
PLAN_1
  6
CONTINUOUS
 10
-2.208902
 20
2.377469
  0
VERTEX
  8
PLAN_1
  6
CONTINUOUS
 10
-2.208902
 20
2.400000
  0
VERTEX
  8
PLAN_1
  6
CONTINUOUS
 10
-2.156161
 20
2.400000
  0
SEQEND
  8
0
  0
POLYLINE
  8
PLAN_1
  6
CONTINUOUS
 66
     1
 40
0.008193
 41
0.008193
  0
VERTEX
  8
PLAN_1
  6
CONTINUOUS
 10
-0.492980
 20
2.504972
  0
VERTEX
  8
PLAN_1
  6
CONTINUOUS
 10
-1.789524
 20
2.504972
  0
SEQEND
  8
0
  0
POLYLINE
  8
PLAN_1
  6
CONTINUOUS
 66
     1
 40
0.008193
 41
0.008193
  0
VERTEX
  8
PLAN_1
  6
CONTINUOUS
 10
-0.776665
 20
3.339634
  0
VERTEX
  8
PLAN_1
  6
CONTINUOUS
 10
-0.776665
 20
3.361654
  0
VERTEX
  8
PLAN_1
  6
CONTINUOUS
 10
-1.513524
 20
3.361654
  0
VERTEX
  8
PLAN_1
  6
CONTINUOUS
 10
-1.513524
 20
3.339634
  0
VERTEX
  8
PLAN_1
  6
CONTINUOUS
 10
-0.776665
 20
3.339634
  0
SEQEND
  8
0
  0
POLYLINE
  8
PLAN_1
  6
CONTINUOUS
 66
     1
 40
0.008193
 41
0.008193
  0
VERTEX
  8
PLAN_1
  6
CONTINUOUS
 10
-0.938476
 20
3.757480
  0
VERTEX
  8
PLAN_1
  6
CONTINUOUS
 10
-0.961008
 20
3.773866
  0
VERTEX
  8
PLAN_1
  6
CONTINUOUS
 10
-0.982516
 20
3.788201
  0
VERTEX
  8
PLAN_1
  6
CONTINUOUS
 10
-1.004020
 20
3.800492
  0
VERTEX
  8
PLAN_1
  6
CONTINUOUS
 10
-1.025016
 20
3.811244
  0
VERTEX
  8
PLAN_1
  6
CONTINUOUS
 10
-1.045496
 20
3.819949
  0
VERTEX
  8
PLAN_1
  6
CONTINUOUS
 10
-1.065469
 20
3.827118
  0
VERTEX
  8
PLAN_1
  6
CONTINUOUS
 10
-1.084925
 20
3.832240
  0
VERTEX
  8
PLAN_1
  6
CONTINUOUS
 10
-1.103874
 20
3.836335
  0
VERTEX
  8
PLAN_1
  6
CONTINUOUS
 10
-1.122307
 20
3.838898
  0
VERTEX
  8
PLAN_1
  6
CONTINUOUS
 10
-1.140228
 20
3.840433
  0
VERTEX
  8
PLAN_1
  6
CONTINUOUS
 10
-1.157638
 20
3.840433
  0
VERTEX
  8
PLAN_1
  6
CONTINUOUS
 10
-1.174535
 20
3.839921
  0
VERTEX
  8
PLAN_1
  6
CONTINUOUS
 10
-1.190925
 20
3.837874
  0
VERTEX
  8
PLAN_1
  6
CONTINUOUS
 10
-1.206283
 20
3.835311
  0
VERTEX
  8
PLAN_1
  6
CONTINUOUS
 10
-1.221134
 20
3.831728
  0
VERTEX
  8
PLAN_1
  6
CONTINUOUS
 10
-1.235472
 20
3.827630
  0
VERTEX
  8
PLAN_1
  6
CONTINUOUS
 10
-1.248787
 20
3.823024
  0
VERTEX
  8
PLAN_1
  6
CONTINUOUS
 10
-1.261587
 20
3.817902
  0
VERTEX
  8
PLAN_1
  6
CONTINUOUS
 10
-1.273878
 20
3.812268
  0
VERTEX
  8
PLAN_1
  6
CONTINUOUS
 10
-1.285142
 20
3.806638
  0
VERTEX
  8
PLAN_1
  6
CONTINUOUS
 10
-1.295386
 20
3.801004
  0
VERTEX
  8
PLAN_1
  6
CONTINUOUS
 10
-1.305114
 20
3.794858
  0
VERTEX
  8
PLAN_1
  6
CONTINUOUS
 10
-1.313819
 20
3.789224
  0
VERTEX
  8
PLAN_1
  6
CONTINUOUS
 10
-1.322012
 20
3.783594
  0
VERTEX
  8
PLAN_1
  6
CONTINUOUS
 10
-1.335327
 20
3.773354
  0
VERTEX
  8
PLAN_1
  6
CONTINUOUS
 10
-1.345055
 20
3.765157
  0
VERTEX
  8
PLAN_1
  6
CONTINUOUS
 10
-1.351201
 20
3.759528
  0
VERTEX
  8
PLAN_1
  6
CONTINUOUS
 10
-1.353248
 20
3.757480
  0
SEQEND
  8
0
  0
POLYLINE
  8
PLAN_1
  6
CONTINUOUS
 66
     1
 40
0.008193
 41
0.008193
  0
VERTEX
  8
PLAN_1
  6
CONTINUOUS
 10
-1.353248
 20
3.757480
  0
VERTEX
  8
PLAN_1
  6
CONTINUOUS
 10
-1.353248
 20
3.361654
  0
VERTEX
  8
PLAN_1
  6
CONTINUOUS
 10
-0.938988
 20
3.361654
  0
VERTEX
  8
PLAN_1
  6
CONTINUOUS
 10
-0.938476
 20
3.757480
  0
SEQEND
  8
0
  0
POLYLINE
  8
PLAN_1
  6
CONTINUOUS
 66
     1
 40
0.008193
 41
0.008193
  0
VERTEX
  8
PLAN_1
  6
CONTINUOUS
 10
-0.938988
 20
3.755941
  0
VERTEX
  8
PLAN_1
  6
CONTINUOUS
 10
-1.353248
 20
3.755941
  0
SEQEND
  8
0
  0
POLYLINE
  8
PLAN_1
 62
     2
  6
CONTINUOUS
 66
     1
 40
0.004094
 41
0.004094
  0
VERTEX
  8
PLAN_1
 62
     2
  6
CONTINUOUS
 10
-0.290717
 20
-0.581228
  0
VERTEX
  8
PLAN_1
 62
     2
  6
CONTINUOUS
 10
-0.447921
 20
-0.581228
  0
SEQEND
  8
0
  0
POLYLINE
  8
PLAN_1
 62
     2
  6
CONTINUOUS
 66
     1
 40
0.004094
 41
0.004094
  0
VERTEX
  8
PLAN_1
 62
     2
  6
CONTINUOUS
 10
-0.290717
 20
3.837358
  0
VERTEX
  8
PLAN_1
 62
     2
  6
CONTINUOUS
 10
-0.444335
 20
3.837358
  0
SEQEND
  8
0
  0
POLYLINE
  8
PLAN_1
 62
     2
  6
CONTINUOUS
 66
     1
 40
0.004094
 41
0.004094
  0
VERTEX
  8
PLAN_1
 62
     2
  6
CONTINUOUS
 10
-0.470965
 20
4.024776
  0
VERTEX
  8
PLAN_1
 62
     2
  6
CONTINUOUS
 10
-0.470965
 20
2.496780
  0
SEQEND
  8
0
  0
POLYLINE
  8
PLAN_1
 62
     2
  6
CONTINUOUS
 66
     1
 40
0.004094
 41
0.004094
  0
VERTEX
  8
PLAN_1
 62
     2
  6
CONTINUOUS
 10
-1.162248
 20
4.024776
  0
VERTEX
  8
PLAN_1
 62
     2
  6
CONTINUOUS
 10
-1.162248
 20
3.858354
  0
SEQEND
  8
0
  0
POLYLINE
  8
PLAN_1
 62
     2
  6
CONTINUOUS
 66
     1
 40
0.004094
 41
0.004094
  0
VERTEX
  8
PLAN_1
 62
     2
  6
CONTINUOUS
 10
-0.491957
 20
3.837358
  0
VERTEX
  8
PLAN_1
 62
     2
  6
CONTINUOUS
 10
-1.061882
 20
3.837358
  0
SEQEND
  8
0
  0
POLYLINE
  8
PLAN_1
 62
     2
  6
CONTINUOUS
 66
     1
 40
0.004094
 41
0.004094
  0
VERTEX
  8
PLAN_1
 62
     2
  6
CONTINUOUS
 10
-1.133059
 20
4.001220
  0
VERTEX
  8
PLAN_1
 62
     2
  6
CONTINUOUS
 10
-0.504760
 20
4.001220
  0
SEQEND
  8
0
  0
SOLID
  8
PLAN_1
 62
     2
 10
-0.475571
 20
4.001220
 11
-0.534461
 21
4.017094
 12
-0.475571
 22
4.001220
 13
-0.534461
 23
3.985346
  0
POLYLINE
  8
PLAN_1
 62
     2
  6
CONTINUOUS
 66
     1
 40
0.003000
 41
0.003000
  0
VERTEX
  8
PLAN_1
 62
     2
  6
CONTINUOUS
 10
-0.475571
 20
4.001220
  0
VERTEX
  8
PLAN_1
 62
     2
  6
CONTINUOUS
 10
-0.534461
 20
4.017094
  0
VERTEX
  8
PLAN_1
 62
     2
  6
CONTINUOUS
 10
-0.534461
 20
3.985346
  0
VERTEX
  8
PLAN_1
 62
     2
  6
CONTINUOUS
 10
-0.475571
 20
4.001220
  0
SEQEND
  8
0
  0
SOLID
  8
PLAN_1
 62
     2
 10
-1.162248
 20
4.001220
 11
-1.103362
 21
4.017094
 12
-1.162248
 22
4.001220
 13
-1.103362
 23
3.985346
  0
POLYLINE
  8
PLAN_1
 62
     2
  6
CONTINUOUS
 66
     1
 40
0.003000
 41
0.003000
  0
VERTEX
  8
PLAN_1
 62
     2
  6
CONTINUOUS
 10
-1.162248
 20
4.001220
  0
VERTEX
  8
PLAN_1
 62
     2
  6
CONTINUOUS
 10
-1.103362
 20
4.017094
  0
VERTEX
  8
PLAN_1
 62
     2
  6
CONTINUOUS
 10
-1.103362
 20
3.985346
  0
VERTEX
  8
PLAN_1
 62
     2
  6
CONTINUOUS
 10
-1.162248
 20
4.001220
  0
SEQEND
  8
0
  0
POLYLINE
  8
PLAN_1
 62
     2
  6
CONTINUOUS
 66
     1
 40
0.003000
 41
0.003000
  0
VERTEX
  8
PLAN_1
 62
     2
  6
CONTINUOUS
 10
-0.839650
 20
4.024776
  0
VERTEX
  8
PLAN_1
 62
     2
  6
CONTINUOUS
 10
-0.849378
 20
4.024776
  0
VERTEX
  8
PLAN_1
 62
     2
  6
CONTINUOUS
 10
-0.849378
 20
4.077004
  0
VERTEX
  8
PLAN_1
 62
     2
  6
CONTINUOUS
 10
-0.866276
 20
4.077004
  0
VERTEX
  8
PLAN_1
 62
     2
  6
CONTINUOUS
 10
-0.866276
 20
4.084173
  0
VERTEX
  8
PLAN_1
 62
     2
  6
CONTINUOUS
 10
-0.862181
 20
4.084173
  0
VERTEX
  8
PLAN_1
 62
     2
  6
CONTINUOUS
 10
-0.858594
 20
4.084685
  0
VERTEX
  8
PLAN_1
 62
     2
  6
CONTINUOUS
 10
-0.855524
 20
4.085709
  0
VERTEX
  8
PLAN_1
 62
     2
  6
CONTINUOUS
 10
-0.852961
 20
4.086736
  0
VERTEX
  8
PLAN_1
 62
     2
  6
CONTINUOUS
 10
-0.850913
 20
4.088783
  0
VERTEX
  8
PLAN_1
 62
     2
  6
CONTINUOUS
 10
-0.849378
 20
4.090831
  0
VERTEX
  8
PLAN_1
 62
     2
  6
CONTINUOUS
 10
-0.847843
 20
4.093902
  0
VERTEX
  8
PLAN_1
 62
     2
  6
CONTINUOUS
 10
-0.846819
 20
4.098000
  0
VERTEX
  8
PLAN_1
 62
     2
  6
CONTINUOUS
 10
-0.839650
 20
4.098000
  0
VERTEX
  8
PLAN_1
 62
     2
  6
CONTINUOUS
 10
-0.839650
 20
4.024776
  0
SEQEND
  8
0
  0
POLYLINE
  8
PLAN_1
 62
     2
  6
CONTINUOUS
 66
     1
 40
0.003000
 41
0.003000
  0
VERTEX
  8
PLAN_1
 62
     2
  6
CONTINUOUS
 10
-0.815071
 20
4.096465
  0
VERTEX
  8
PLAN_1
 62
     2
  6
CONTINUOUS
 10
-0.764374
 20
4.096465
  0
VERTEX
  8
PLAN_1
 62
     2
  6
CONTINUOUS
 10
-0.764374
 20
4.088272
  0
VERTEX
  8
PLAN_1
 62
     2
  6
CONTINUOUS
 10
-0.767961
 20
4.084685
  0
VERTEX
  8
PLAN_1
 62
     2
  6
CONTINUOUS
 10
-0.771543
 20
4.080079
  0
VERTEX
  8
PLAN_1
 62
     2
  6
CONTINUOUS
 10
-0.775642
 20
4.073421
  0
VERTEX
  8
PLAN_1
 62
     2
  6
CONTINUOUS
 10
-0.780248
 20
4.066252
  0
VERTEX
  8
PLAN_1
 62
     2
  6
CONTINUOUS
 10
-0.784858
 20
4.057547
  0
VERTEX
  8
PLAN_1
 62
     2
  6
CONTINUOUS
 10
-0.788953
 20
4.047307
  0
VERTEX
  8
PLAN_1
 62
     2
  6
CONTINUOUS
 10
-0.790492
 20
4.042185
  0
VERTEX
  8
PLAN_1
 62
     2
  6
CONTINUOUS
 10
-0.792028
 20
4.036551
  0
VERTEX
  8
PLAN_1
 62
     2
  6
CONTINUOUS
 10
-0.793563
 20
4.030921
  0
VERTEX
  8
PLAN_1
 62
     2
  6
CONTINUOUS
 10
-0.794587
 20
4.024776
  0
VERTEX
  8
PLAN_1
 62
     2
  6
CONTINUOUS
 10
-0.804827
 20
4.024776
  0
VERTEX
  8
PLAN_1
 62
     2
  6
CONTINUOUS
 10
-0.803291
 20
4.032457
  0
VERTEX
  8
PLAN_1
 62
     2
  6
CONTINUOUS
 10
-0.800732
 20
4.040650
  0
VERTEX
  8
PLAN_1
 62
     2
  6
CONTINUOUS
 10
-0.797657
 20
4.049354
  0
VERTEX
  8
PLAN_1
 62
     2
  6
CONTINUOUS
 10
-0.794075
 20
4.057547
  0
VERTEX
  8
PLAN_1
 62
     2
  6
CONTINUOUS
 10
-0.789976
 20
4.065740
  0
VERTEX
  8
PLAN_1
 62
     2
  6
CONTINUOUS
 10
-0.784858
 20
4.073421
  0
VERTEX
  8
PLAN_1
 62
     2
  6
CONTINUOUS
 10
-0.780248
 20
4.081102
  0
VERTEX
  8
PLAN_1
 62
     2
  6
CONTINUOUS
 10
-0.774618
 20
4.087248
  0
VERTEX
  8
PLAN_1
 62
     2
  6
CONTINUOUS
 10
-0.815071
 20
4.087248
  0
VERTEX
  8
PLAN_1
 62
     2
  6
CONTINUOUS
 10
-0.815071
 20
4.096465
  0
SEQEND
  8
0
  0
POLYLINE
  8
PLAN_1
 62
     2
  6
CONTINUOUS
 66
     1
 40
0.004094
 41
0.004094
  0
VERTEX
  8
PLAN_1
 62
     2
  6
CONTINUOUS
 10
-0.314272
 20
-0.552039
  0
VERTEX
  8
PLAN_1
 62
     2
  6
CONTINUOUS
 10
-0.314272
 20
3.807661
  0
SEQEND
  8
0
  0
SOLID
  8
PLAN_1
 62
     2
 10
-0.314272
 20
3.837358
 11
-0.330146
 21
3.778472
 12
-0.314272
 22
3.837358
 13
-0.298398
 23
3.778472
  0
POLYLINE
  8
PLAN_1
 62
     2
  6
CONTINUOUS
 66
     1
 40
0.003000
 41
0.003000
  0
VERTEX
  8
PLAN_1
 62
     2
  6
CONTINUOUS
 10
-0.314272
 20
3.837358
  0
VERTEX
  8
PLAN_1
 62
     2
  6
CONTINUOUS
 10
-0.330146
 20
3.778472
  0
VERTEX
  8
PLAN_1
 62
     2
  6
CONTINUOUS
 10
-0.298398
 20
3.778472
  0
VERTEX
  8
PLAN_1
 62
     2
  6
CONTINUOUS
 10
-0.314272
 20
3.837358
  0
SEQEND
  8
0
  0
SOLID
  8
PLAN_1
 62
     2
 10
-0.314272
 20
-0.581228
 11
-0.330146
 21
-0.522339
 12
-0.314272
 22
-0.581228
 13
-0.298398
 23
-0.522339
  0
POLYLINE
  8
PLAN_1
 62
     2
  6
CONTINUOUS
 66
     1
 40
0.003000
 41
0.003000
  0
VERTEX
  8
PLAN_1
 62
     2
  6
CONTINUOUS
 10
-0.314272
 20
-0.581228
  0
VERTEX
  8
PLAN_1
 62
     2
  6
CONTINUOUS
 10
-0.330146
 20
-0.522339
  0
VERTEX
  8
PLAN_1
 62
     2
  6
CONTINUOUS
 10
-0.298398
 20
-0.522339
  0
VERTEX
  8
PLAN_1
 62
     2
  6
CONTINUOUS
 10
-0.314272
 20
-0.581228
  0
SEQEND
  8
0
  0
POLYLINE
  8
PLAN_1
 62
     2
  6
CONTINUOUS
 66
     1
 40
0.003000
 41
0.003000
  0
VERTEX
  8
PLAN_1
 62
     2
  6
CONTINUOUS
 10
-0.337827
 20
1.578654
  0
VERTEX
  8
PLAN_1
 62
     2
  6
CONTINUOUS
 10
-0.337827
 20
1.568925
  0
VERTEX
  8
PLAN_1
 62
     2
  6
CONTINUOUS
 10
-0.389547
 20
1.568925
  0
VERTEX
  8
PLAN_1
 62
     2
  6
CONTINUOUS
 10
-0.389547
 20
1.551512
  0
VERTEX
  8
PLAN_1
 62
     2
  6
CONTINUOUS
 10
-0.397228
 20
1.551512
  0
VERTEX
  8
PLAN_1
 62
     2
  6
CONTINUOUS
 10
-0.397228
 20
1.555610
  0
VERTEX
  8
PLAN_1
 62
     2
  6
CONTINUOUS
 10
-0.397740
 20
1.559193
  0
VERTEX
  8
PLAN_1
 62
     2
  6
CONTINUOUS
 10
-0.398764
 20
1.562268
  0
VERTEX
  8
PLAN_1
 62
     2
  6
CONTINUOUS
 10
-0.399787
 20
1.564827
  0
VERTEX
  8
PLAN_1
 62
     2
  6
CONTINUOUS
 10
-0.401323
 20
1.566874
  0
VERTEX
  8
PLAN_1
 62
     2
  6
CONTINUOUS
 10
-0.403882
 20
1.568925
  0
VERTEX
  8
PLAN_1
 62
     2
  6
CONTINUOUS
 10
-0.406957
 20
1.569949
  0
VERTEX
  8
PLAN_1
 62
     2
  6
CONTINUOUS
 10
-0.411051
 20
1.571484
  0
VERTEX
  8
PLAN_1
 62
     2
  6
CONTINUOUS
 10
-0.411051
 20
1.578654
  0
VERTEX
  8
PLAN_1
 62
     2
  6
CONTINUOUS
 10
-0.337827
 20
1.578654
  0
SEQEND
  8
0
  0
POLYLINE
  8
PLAN_1
 62
     2
  6
CONTINUOUS
 66
     1
 40
0.003000
 41
0.003000
  0
VERTEX
  8
PLAN_1
 62
     2
  6
CONTINUOUS
 10
-0.335780
 20
1.627811
  0
VERTEX
  8
PLAN_1
 62
     2
  6
CONTINUOUS
 10
-0.336291
 20
1.624224
  0
VERTEX
  8
PLAN_1
 62
     2
  6
CONTINUOUS
 10
-0.336803
 20
1.620642
  0
VERTEX
  8
PLAN_1
 62
     2
  6
CONTINUOUS
 10
-0.337827
 20
1.618083
  0
VERTEX
  8
PLAN_1
 62
     2
  6
CONTINUOUS
 10
-0.339362
 20
1.615008
  0
VERTEX
  8
PLAN_1
 62
     2
  6
CONTINUOUS
 10
-0.341413
 20
1.612961
  0
VERTEX
  8
PLAN_1
 62
     2
  6
CONTINUOUS
 10
-0.343461
 20
1.610913
  0
VERTEX
  8
PLAN_1
 62
     2
  6
CONTINUOUS
 10
-0.346020
 20
1.608866
  0
VERTEX
  8
PLAN_1
 62
     2
  6
CONTINUOUS
 10
-0.349094
 20
1.607327
  0
VERTEX
  8
PLAN_1
 62
     2
  6
CONTINUOUS
 10
-0.354724
 20
1.605280
  0
VERTEX
  8
PLAN_1
 62
     2
  6
CONTINUOUS
 10
-0.360870
 20
1.603744
  0
VERTEX
  8
PLAN_1
 62
     2
  6
CONTINUOUS
 10
-0.367528
 20
1.603232
  0
VERTEX
  8
PLAN_1
 62
     2
  6
CONTINUOUS
 10
-0.373161
 20
1.602720
  0
VERTEX
  8
PLAN_1
 62
     2
  6
CONTINUOUS
 10
-0.379303
 20
1.603232
  0
VERTEX
  8
PLAN_1
 62
     2
  6
CONTINUOUS
 10
-0.385449
 20
1.603744
  0
VERTEX
  8
PLAN_1
 62
     2
  6
CONTINUOUS
 10
-0.392106
 20
1.605280
  0
VERTEX
  8
PLAN_1
 62
     2
  6
CONTINUOUS
 10
-0.397740
 20
1.607327
  0
VERTEX
  8
PLAN_1
 62
     2
  6
CONTINUOUS
 10
-0.400811
 20
1.608866
  0
VERTEX
  8
PLAN_1
 62
     2
  6
CONTINUOUS
 10
-0.402858
 20
1.610913
  0
VERTEX
  8
PLAN_1
 62
     2
  6
CONTINUOUS
 10
-0.405421
 20
1.612961
  0
VERTEX
  8
PLAN_1
 62
     2
  6
CONTINUOUS
 10
-0.406957
 20
1.615008
  0
VERTEX
  8
PLAN_1
 62
     2
  6
CONTINUOUS
 10
-0.409004
 20
1.618083
  0
VERTEX
  8
PLAN_1
 62
     2
  6
CONTINUOUS
 10
-0.410028
 20
1.620642
  0
VERTEX
  8
PLAN_1
 62
     2
  6
CONTINUOUS
 10
-0.410539
 20
1.624224
  0
VERTEX
  8
PLAN_1
 62
     2
  6
CONTINUOUS
 10
-0.411051
 20
1.627811
  0
VERTEX
  8
PLAN_1
 62
     2
  6
CONTINUOUS
 10
-0.410539
 20
1.631906
  0
VERTEX
  8
PLAN_1
 62
     2
  6
CONTINUOUS
 10
-0.410028
 20
1.634980
  0
VERTEX
  8
PLAN_1
 62
     2
  6
CONTINUOUS
 10
-0.409004
 20
1.638051
  0
VERTEX
  8
PLAN_1
 62
     2
  6
CONTINUOUS
 10
-0.406957
 20
1.640610
  0
VERTEX
  8
PLAN_1
 62
     2
  6
CONTINUOUS
 10
-0.405421
 20
1.643173
  0
VERTEX
  8
PLAN_1
 62
     2
  6
CONTINUOUS
 10
-0.402858
 20
1.645220
  0
VERTEX
  8
PLAN_1
 62
     2
  6
CONTINUOUS
 10
-0.400811
 20
1.646756
  0
VERTEX
  8
PLAN_1
 62
     2
  6
CONTINUOUS
 10
-0.397740
 20
1.648291
  0
VERTEX
  8
PLAN_1
 62
     2
  6
CONTINUOUS
 10
-0.392106
 20
1.650854
  0
VERTEX
  8
PLAN_1
 62
     2
  6
CONTINUOUS
 10
-0.385449
 20
1.651878
  0
VERTEX
  8
PLAN_1
 62
     2
  6
CONTINUOUS
 10
-0.379303
 20
1.652902
  0
VERTEX
  8
PLAN_1
 62
     2
  6
CONTINUOUS
 10
-0.373161
 20
1.652902
  0
VERTEX
  8
PLAN_1
 62
     2
  6
CONTINUOUS
 10
-0.367528
 20
1.652902
  0
VERTEX
  8
PLAN_1
 62
     2
  6
CONTINUOUS
 10
-0.360870
 20
1.651878
  0
VERTEX
  8
PLAN_1
 62
     2
  6
CONTINUOUS
 10
-0.354724
 20
1.650854
  0
VERTEX
  8
PLAN_1
 62
     2
  6
CONTINUOUS
 10
-0.349094
 20
1.648291
  0
VERTEX
  8
PLAN_1
 62
     2
  6
CONTINUOUS
 10
-0.346020
 20
1.646756
  0
VERTEX
  8
PLAN_1
 62
     2
  6
CONTINUOUS
 10
-0.343461
 20
1.645220
  0
VERTEX
  8
PLAN_1
 62
     2
  6
CONTINUOUS
 10
-0.341413
 20
1.643173
  0
VERTEX
  8
PLAN_1
 62
     2
  6
CONTINUOUS
 10
-0.339362
 20
1.640610
  0
VERTEX
  8
PLAN_1
 62
     2
  6
CONTINUOUS
 10
-0.337827
 20
1.638051
  0
VERTEX
  8
PLAN_1
 62
     2
  6
CONTINUOUS
 10
-0.336803
 20
1.634980
  0
VERTEX
  8
PLAN_1
 62
     2
  6
CONTINUOUS
 10
-0.336291
 20
1.631906
  0
VERTEX
  8
PLAN_1
 62
     2
  6
CONTINUOUS
 10
-0.335780
 20
1.627811
  0
SEQEND
  8
0
  0
POLYLINE
  8
PLAN_1
 62
     2
  6
CONTINUOUS
 66
     1
 40
0.003000
 41
0.003000
  0
VERTEX
  8
PLAN_1
 62
     2
  6
CONTINUOUS
 10
-0.402858
 20
1.627811
  0
VERTEX
  8
PLAN_1
 62
     2
  6
CONTINUOUS
 10
-0.402346
 20
1.626276
  0
VERTEX
  8
PLAN_1
 62
     2
  6
CONTINUOUS
 10
-0.402346
 20
1.624224
  0
VERTEX
  8
PLAN_1
 62
     2
  6
CONTINUOUS
 10
-0.401323
 20
1.622689
  0
VERTEX
  8
PLAN_1
 62
     2
  6
CONTINUOUS
 10
-0.400811
 20
1.621154
  0
VERTEX
  8
PLAN_1
 62
     2
  6
CONTINUOUS
 10
-0.398252
 20
1.618594
  0
VERTEX
  8
PLAN_1
 62
     2
  6
CONTINUOUS
 10
-0.394665
 20
1.616543
  0
VERTEX
  8
PLAN_1
 62
     2
  6
CONTINUOUS
 10
-0.390571
 20
1.614496
  0
VERTEX
  8
PLAN_1
 62
     2
  6
CONTINUOUS
 10
-0.385449
 20
1.613472
  0
VERTEX
  8
PLAN_1
 62
     2
  6
CONTINUOUS
 10
-0.379815
 20
1.612961
  0
VERTEX
  8
PLAN_1
 62
     2
  6
CONTINUOUS
 10
-0.373161
 20
1.612449
  0
VERTEX
  8
PLAN_1
 62
     2
  6
CONTINUOUS
 10
-0.367016
 20
1.612961
  0
VERTEX
  8
PLAN_1
 62
     2
  6
CONTINUOUS
 10
-0.360870
 20
1.613472
  0
VERTEX
  8
PLAN_1
 62
     2
  6
CONTINUOUS
 10
-0.356260
 20
1.614496
  0
VERTEX
  8
PLAN_1
 62
     2
  6
CONTINUOUS
 10
-0.351654
 20
1.616543
  0
VERTEX
  8
PLAN_1
 62
     2
  6
CONTINUOUS
 10
-0.348579
 20
1.618594
  0
VERTEX
  8
PLAN_1
 62
     2
  6
CONTINUOUS
 10
-0.346020
 20
1.621154
  0
VERTEX
  8
PLAN_1
 62
     2
  6
CONTINUOUS
 10
-0.344996
 20
1.622689
  0
VERTEX
  8
PLAN_1
 62
     2
  6
CONTINUOUS
 10
-0.344484
 20
1.624224
  0
VERTEX
  8
PLAN_1
 62
     2
  6
CONTINUOUS
 10
-0.343972
 20
1.626276
  0
VERTEX
  8
PLAN_1
 62
     2
  6
CONTINUOUS
 10
-0.343972
 20
1.627811
  0
VERTEX
  8
PLAN_1
 62
     2
  6
CONTINUOUS
 10
-0.343972
 20
1.629858
  0
VERTEX
  8
PLAN_1
 62
     2
  6
CONTINUOUS
 10
-0.344484
 20
1.631394
  0
VERTEX
  8
PLAN_1
 62
     2
  6
CONTINUOUS
 10
-0.344996
 20
1.633445
  0
VERTEX
  8
PLAN_1
 62
     2
  6
CONTINUOUS
 10
-0.346020
 20
1.634980
  0
VERTEX
  8
PLAN_1
 62
     2
  6
CONTINUOUS
 10
-0.348579
 20
1.637539
  0
VERTEX
  8
PLAN_1
 62
     2
  6
CONTINUOUS
 10
-0.351654
 20
1.639587
  0
VERTEX
  8
PLAN_1
 62
     2
  6
CONTINUOUS
 10
-0.356260
 20
1.641126
  0
VERTEX
  8
PLAN_1
 62
     2
  6
CONTINUOUS
 10
-0.360870
 20
1.642150
  0
VERTEX
  8
PLAN_1
 62
     2
  6
CONTINUOUS
 10
-0.367016
 20
1.643173
  0
VERTEX
  8
PLAN_1
 62
     2
  6
CONTINUOUS
 10
-0.373161
 20
1.643173
  0
VERTEX
  8
PLAN_1
 62
     2
  6
CONTINUOUS
 10
-0.379815
 20
1.643173
  0
VERTEX
  8
PLAN_1
 62
     2
  6
CONTINUOUS
 10
-0.385449
 20
1.642150
  0
VERTEX
  8
PLAN_1
 62
     2
  6
CONTINUOUS
 10
-0.390571
 20
1.641126
  0
VERTEX
  8
PLAN_1
 62
     2
  6
CONTINUOUS
 10
-0.394665
 20
1.639587
  0
VERTEX
  8
PLAN_1
 62
     2
  6
CONTINUOUS
 10
-0.398252
 20
1.637539
  0
VERTEX
  8
PLAN_1
 62
     2
  6
CONTINUOUS
 10
-0.400811
 20
1.634980
  0
VERTEX
  8
PLAN_1
 62
     2
  6
CONTINUOUS
 10
-0.401323
 20
1.633445
  0
VERTEX
  8
PLAN_1
 62
     2
  6
CONTINUOUS
 10
-0.402346
 20
1.631394
  0
VERTEX
  8
PLAN_1
 62
     2
  6
CONTINUOUS
 10
-0.402346
 20
1.629858
  0
VERTEX
  8
PLAN_1
 62
     2
  6
CONTINUOUS
 10
-0.402858
 20
1.627811
  0
SEQEND
  8
0
  0
POLYLINE
  8
PLAN_1
 62
     2
  6
CONTINUOUS
 66
     1
 40
0.003000
 41
0.003000
  0
VERTEX
  8
PLAN_1
 62
     2
  6
CONTINUOUS
 10
-0.409516
 20
1.660583
  0
VERTEX
  8
PLAN_1
 62
     2
  6
CONTINUOUS
 10
-0.409516
 20
1.711276
  0
VERTEX
  8
PLAN_1
 62
     2
  6
CONTINUOUS
 10
-0.401323
 20
1.711276
  0
VERTEX
  8
PLAN_1
 62
     2
  6
CONTINUOUS
 10
-0.397740
 20
1.708205
  0
VERTEX
  8
PLAN_1
 62
     2
  6
CONTINUOUS
 10
-0.392618
 20
1.704106
  0
VERTEX
  8
PLAN_1
 62
     2
  6
CONTINUOUS
 10
-0.386472
 20
1.700012
  0
VERTEX
  8
PLAN_1
 62
     2
  6
CONTINUOUS
 10
-0.378791
 20
1.695402
  0
VERTEX
  8
PLAN_1
 62
     2
  6
CONTINUOUS
 10
-0.370087
 20
1.691307
  0
VERTEX
  8
PLAN_1
 62
     2
  6
CONTINUOUS
 10
-0.360358
 20
1.687209
  0
VERTEX
  8
PLAN_1
 62
     2
  6
CONTINUOUS
 10
-0.355236
 20
1.685161
  0
VERTEX
  8
PLAN_1
 62
     2
  6
CONTINUOUS
 10
-0.349606
 20
1.683626
  0
VERTEX
  8
PLAN_1
 62
     2
  6
CONTINUOUS
 10
-0.343972
 20
1.682602
  0
VERTEX
  8
PLAN_1
 62
     2
  6
CONTINUOUS
 10
-0.337827
 20
1.681067
  0
VERTEX
  8
PLAN_1
 62
     2
  6
CONTINUOUS
 10
-0.337827
 20
1.671335
  0
VERTEX
  8
PLAN_1
 62
     2
  6
CONTINUOUS
 10
-0.345508
 20
1.672358
  0
VERTEX
  8
PLAN_1
 62
     2
  6
CONTINUOUS
 10
-0.353701
 20
1.674921
  0
VERTEX
  8
PLAN_1
 62
     2
  6
CONTINUOUS
 10
-0.361894
 20
1.677992
  0
VERTEX
  8
PLAN_1
 62
     2
  6
CONTINUOUS
 10
-0.370598
 20
1.681579
  0
VERTEX
  8
PLAN_1
 62
     2
  6
CONTINUOUS
 10
-0.378791
 20
1.686185
  0
VERTEX
  8
PLAN_1
 62
     2
  6
CONTINUOUS
 10
-0.386472
 20
1.690795
  0
VERTEX
  8
PLAN_1
 62
     2
  6
CONTINUOUS
 10
-0.393642
 20
1.695913
  0
VERTEX
  8
PLAN_1
 62
     2
  6
CONTINUOUS
 10
-0.400299
 20
1.701035
  0
VERTEX
  8
PLAN_1
 62
     2
  6
CONTINUOUS
 10
-0.400299
 20
1.660583
  0
VERTEX
  8
PLAN_1
 62
     2
  6
CONTINUOUS
 10
-0.409516
 20
1.660583
  0
SEQEND
  8
0
  0
POLYLINE
  8
PLAN_1
 62
     2
  6
CONTINUOUS
 66
     1
 40
0.004094
 41
0.004094
  0
VERTEX
  8
PLAN_1
 62
     2
  6
CONTINUOUS
 10
-0.470965
 20
-0.604272
  0
VERTEX
  8
PLAN_1
 62
     2
  6
CONTINUOUS
 10
-0.470965
 20
-0.689783
  0
SEQEND
  8
0
  0
POLYLINE
  8
PLAN_1
 62
     2
  6
CONTINUOUS
 66
     1
 40
0.004094
 41
0.004094
  0
VERTEX
  8
PLAN_1
 62
     2
  6
CONTINUOUS
 10
-0.470965
 20
-0.759425
  0
VERTEX
  8
PLAN_1
 62
     2
  6
CONTINUOUS
 10
-0.470965
 20
-1.032354
  0
SEQEND
  8
0
  0
POLYLINE
  8
PLAN_1
 62
     2
  6
CONTINUOUS
 66
     1
 40
0.004094
 41
0.004094
  0
VERTEX
  8
PLAN_1
 62
     2
  6
CONTINUOUS
 10
-1.791059
 20
-0.604272
  0
VERTEX
  8
PLAN_1
 62
     2
  6
CONTINUOUS
 10
-1.791059
 20
-0.875150
  0
SEQEND
  8
0
  0
POLYLINE
  8
PLAN_1
 62
     2
  6
CONTINUOUS
 66
     1
 40
0.004094
 41
0.004094
  0
VERTEX
  8
PLAN_1
 62
     2
  6
CONTINUOUS
 10
-1.761874
 20
-0.851083
  0
VERTEX
  8
PLAN_1
 62
     2
  6
CONTINUOUS
 10
-0.500661
 20
-0.851083
  0
SEQEND
  8
0
  0
SOLID
  8
PLAN_1
 62
     2
 10
-0.470965
 20
-0.851083
 11
-0.530362
 21
-0.835720
 12
-0.470965
 22
-0.851083
 13
-0.530362
 23
-0.866957
  0
POLYLINE
  8
PLAN_1
 62
     2
  6
CONTINUOUS
 66
     1
 40
0.003000
 41
0.003000
  0
VERTEX
  8
PLAN_1
 62
     2
  6
CONTINUOUS
 10
-0.470965
 20
-0.851083
  0
VERTEX
  8
PLAN_1
 62
     2
  6
CONTINUOUS
 10
-0.530362
 20
-0.835720
  0
VERTEX
  8
PLAN_1
 62
     2
  6
CONTINUOUS
 10
-0.530362
 20
-0.866957
  0
VERTEX
  8
PLAN_1
 62
     2
  6
CONTINUOUS
 10
-0.470965
 20
-0.851083
  0
SEQEND
  8
0
  0
SOLID
  8
PLAN_1
 62
     2
 10
-1.791059
 20
-0.851083
 11
-1.732173
 21
-0.835720
 12
-1.791059
 22
-0.851083
 13
-1.732173
 23
-0.866957
  0
POLYLINE
  8
PLAN_1
 62
     2
  6
CONTINUOUS
 66
     1
 40
0.003000
 41
0.003000
  0
VERTEX
  8
PLAN_1
 62
     2
  6
CONTINUOUS
 10
-1.791059
 20
-0.851083
  0
VERTEX
  8
PLAN_1
 62
     2
  6
CONTINUOUS
 10
-1.732173
 20
-0.835720
  0
VERTEX
  8
PLAN_1
 62
     2
  6
CONTINUOUS
 10
-1.732173
 20
-0.866957
  0
VERTEX
  8
PLAN_1
 62
     2
  6
CONTINUOUS
 10
-1.791059
 20
-0.851083
  0
SEQEND
  8
0
  0
POLYLINE
  8
PLAN_1
 62
     2
  6
CONTINUOUS
 66
     1
 40
0.003000
 41
0.003000
  0
VERTEX
  8
PLAN_1
 62
     2
  6
CONTINUOUS
 10
-1.209870
 20
-0.786051
  0
VERTEX
  8
PLAN_1
 62
     2
  6
CONTINUOUS
 10
-1.209358
 20
-0.786051
  0
VERTEX
  8
PLAN_1
 62
     2
  6
CONTINUOUS
 10
-1.208846
 20
-0.786051
  0
VERTEX
  8
PLAN_1
 62
     2
  6
CONTINUOUS
 10
-1.208335
 20
-0.786051
  0
VERTEX
  8
PLAN_1
 62
     2
  6
CONTINUOUS
 10
-1.207823
 20
-0.786051
  0
VERTEX
  8
PLAN_1
 62
     2
  6
CONTINUOUS
 10
-1.207311
 20
-0.786051
  0
VERTEX
  8
PLAN_1
 62
     2
  6
CONTINUOUS
 10
-1.206283
 20
-0.786051
  0
VERTEX
  8
PLAN_1
 62
     2
  6
CONTINUOUS
 10
-1.205772
 20
-0.786051
  0
VERTEX
  8
PLAN_1
 62
     2
  6
CONTINUOUS
 10
-1.205260
 20
-0.786051
  0
VERTEX
  8
PLAN_1
 62
     2
  6
CONTINUOUS
 10
-1.202701
 20
-0.786051
  0
VERTEX
  8
PLAN_1
 62
     2
  6
CONTINUOUS
 10
-1.200142
 20
-0.785539
  0
VERTEX
  8
PLAN_1
 62
     2
  6
CONTINUOUS
 10
-1.197579
 20
-0.785028
  0
VERTEX
  8
PLAN_1
 62
     2
  6
CONTINUOUS
 10
-1.195531
 20
-0.784004
  0
VERTEX
  8
PLAN_1
 62
     2
  6
CONTINUOUS
 10
-1.193996
 20
-0.781957
  0
VERTEX
  8
PLAN_1
 62
     2
  6
CONTINUOUS
 10
-1.192461
 20
-0.779906
  0
VERTEX
  8
PLAN_1
 62
     2
  6
CONTINUOUS
 10
-1.191437
 20
-0.777346
  0
VERTEX
  8
PLAN_1
 62
     2
  6
CONTINUOUS
 10
-1.191437
 20
-0.774276
  0
VERTEX
  8
PLAN_1
 62
     2
  6
CONTINUOUS
 10
-1.191437
 20
-0.772740
  0
VERTEX
  8
PLAN_1
 62
     2
  6
CONTINUOUS
 10
-1.191949
 20
-0.770689
  0
VERTEX
  8
PLAN_1
 62
     2
  6
CONTINUOUS
 10
-1.192972
 20
-0.768642
  0
VERTEX
  8
PLAN_1
 62
     2
  6
CONTINUOUS
 10
-1.193996
 20
-0.767106
  0
VERTEX
  8
PLAN_1
 62
     2
  6
CONTINUOUS
 10
-1.195531
 20
-0.765059
  0
VERTEX
  8
PLAN_1
 62
     2
  6
CONTINUOUS
 10
-1.198091
 20
-0.764031
  0
VERTEX
  8
PLAN_1
 62
     2
  6
CONTINUOUS
 10
-1.201165
 20
-0.763008
  0
VERTEX
  8
PLAN_1
 62
     2
  6
CONTINUOUS
 10
-1.204748
 20
-0.763008
  0
VERTEX
  8
PLAN_1
 62
     2
  6
CONTINUOUS
 10
-1.209358
 20
-0.763008
  0
VERTEX
  8
PLAN_1
 62
     2
  6
CONTINUOUS
 10
-1.212429
 20
-0.764547
  0
VERTEX
  8
PLAN_1
 62
     2
  6
CONTINUOUS
 10
-1.214992
 20
-0.766594
  0
VERTEX
  8
PLAN_1
 62
     2
  6
CONTINUOUS
 10
-1.216528
 20
-0.768642
  0
VERTEX
  8
PLAN_1
 62
     2
  6
CONTINUOUS
 10
-1.218063
 20
-0.771201
  0
VERTEX
  8
PLAN_1
 62
     2
  6
CONTINUOUS
 10
-1.218575
 20
-0.773764
  0
VERTEX
  8
PLAN_1
 62
     2
  6
CONTINUOUS
 10
-1.219087
 20
-0.776323
  0
VERTEX
  8
PLAN_1
 62
     2
  6
CONTINUOUS
 10
-1.219087
 20
-0.778370
  0
VERTEX
  8
PLAN_1
 62
     2
  6
CONTINUOUS
 10
-1.228303
 20
-0.778370
  0
VERTEX
  8
PLAN_1
 62
     2
  6
CONTINUOUS
 10
-1.227791
 20
-0.774276
  0
VERTEX
  8
PLAN_1
 62
     2
  6
CONTINUOUS
 10
-1.227280
 20
-0.770177
  0
VERTEX
  8
PLAN_1
 62
     2
  6
CONTINUOUS
 10
-1.225744
 20
-0.766083
  0
VERTEX
  8
PLAN_1
 62
     2
  6
CONTINUOUS
 10
-1.223697
 20
-0.762496
  0
VERTEX
  8
PLAN_1
 62
     2
  6
CONTINUOUS
 10
-1.222157
 20
-0.760961
  0
VERTEX
  8
PLAN_1
 62
     2
  6
CONTINUOUS
 10
-1.220622
 20
-0.759425
  0
VERTEX
  8
PLAN_1
 62
     2
  6
CONTINUOUS
 10
-1.218575
 20
-0.757890
  0
VERTEX
  8
PLAN_1
 62
     2
  6
CONTINUOUS
 10
-1.216016
 20
-0.756866
  0
VERTEX
  8
PLAN_1
 62
     2
  6
CONTINUOUS
 10
-1.213965
 20
-0.755839
  0
VERTEX
  8
PLAN_1
 62
     2
  6
CONTINUOUS
 10
-1.210894
 20
-0.755327
  0
VERTEX
  8
PLAN_1
 62
     2
  6
CONTINUOUS
 10
-1.207823
 20
-0.754815
  0
VERTEX
  8
PLAN_1
 62
     2
  6
CONTINUOUS
 10
-1.204236
 20
-0.754815
  0
VERTEX
  8
PLAN_1
 62
     2
  6
CONTINUOUS
 10
-1.199630
 20
-0.754815
  0
VERTEX
  8
PLAN_1
 62
     2
  6
CONTINUOUS
 10
-1.195020
 20
-0.755839
  0
VERTEX
  8
PLAN_1
 62
     2
  6
CONTINUOUS
 10
-1.190925
 20
-0.757890
  0
VERTEX
  8
PLAN_1
 62
     2
  6
CONTINUOUS
 10
-1.187850
 20
-0.759937
  0
VERTEX
  8
PLAN_1
 62
     2
  6
CONTINUOUS
 10
-1.185291
 20
-0.763008
  0
VERTEX
  8
PLAN_1
 62
     2
  6
CONTINUOUS
 10
-1.183244
 20
-0.766083
  0
VERTEX
  8
PLAN_1
 62
     2
  6
CONTINUOUS
 10
-1.182217
 20
-0.769665
  0
VERTEX
  8
PLAN_1
 62
     2
  6
CONTINUOUS
 10
-1.181705
 20
-0.773764
  0
VERTEX
  8
PLAN_1
 62
     2
  6
CONTINUOUS
 10
-1.182217
 20
-0.777346
  0
VERTEX
  8
PLAN_1
 62
     2
  6
CONTINUOUS
 10
-1.182728
 20
-0.779906
  0
VERTEX
  8
PLAN_1
 62
     2
  6
CONTINUOUS
 10
-1.183756
 20
-0.782469
  0
VERTEX
  8
PLAN_1
 62
     2
  6
CONTINUOUS
 10
-1.185291
 20
-0.784516
  0
VERTEX
  8
PLAN_1
 62
     2
  6
CONTINUOUS
 10
-1.186315
 20
-0.786051
  0
VERTEX
  8
PLAN_1
 62
     2
  6
CONTINUOUS
 10
-1.188362
 20
-0.787587
  0
VERTEX
  8
PLAN_1
 62
     2
  6
CONTINUOUS
 10
-1.189898
 20
-0.788098
  0
VERTEX
  8
PLAN_1
 62
     2
  6
CONTINUOUS
 10
-1.191437
 20
-0.789126
  0
VERTEX
  8
PLAN_1
 62
     2
  6
CONTINUOUS
 10
-1.188874
 20
-0.790150
  0
VERTEX
  8
PLAN_1
 62
     2
  6
CONTINUOUS
 10
-1.186315
 20
-0.791173
  0
VERTEX
  8
PLAN_1
 62
     2
  6
CONTINUOUS
 10
-1.184268
 20
-0.792709
  0
VERTEX
  8
PLAN_1
 62
     2
  6
CONTINUOUS
 10
-1.182728
 20
-0.794756
  0
VERTEX
  8
PLAN_1
 62
     2
  6
CONTINUOUS
 10
-1.181193
 20
-0.797319
  0
VERTEX
  8
PLAN_1
 62
     2
  6
CONTINUOUS
 10
-1.180169
 20
-0.799878
  0
VERTEX
  8
PLAN_1
 62
     2
  6
CONTINUOUS
 10
-1.179146
 20
-0.802949
  0
VERTEX
  8
PLAN_1
 62
     2
  6
CONTINUOUS
 10
-1.179146
 20
-0.806024
  0
VERTEX
  8
PLAN_1
 62
     2
  6
CONTINUOUS
 10
-1.179657
 20
-0.810630
  0
VERTEX
  8
PLAN_1
 62
     2
  6
CONTINUOUS
 10
-1.180681
 20
-0.814728
  0
VERTEX
  8
PLAN_1
 62
     2
  6
CONTINUOUS
 10
-1.182728
 20
-0.818823
  0
VERTEX
  8
PLAN_1
 62
     2
  6
CONTINUOUS
 10
-1.185291
 20
-0.822409
  0
VERTEX
  8
PLAN_1
 62
     2
  6
CONTINUOUS
 10
-1.186827
 20
-0.823945
  0
VERTEX
  8
PLAN_1
 62
     2
  6
CONTINUOUS
 10
-1.188874
 20
-0.825480
  0
VERTEX
  8
PLAN_1
 62
     2
  6
CONTINUOUS
 10
-1.190925
 20
-0.826504
  0
VERTEX
  8
PLAN_1
 62
     2
  6
CONTINUOUS
 10
-1.193484
 20
-0.827528
  0
VERTEX
  8
PLAN_1
 62
     2
  6
CONTINUOUS
 10
-1.196043
 20
-0.828555
  0
VERTEX
  8
PLAN_1
 62
     2
  6
CONTINUOUS
 10
-1.199118
 20
-0.829067
  0
VERTEX
  8
PLAN_1
 62
     2
  6
CONTINUOUS
 10
-1.202189
 20
-0.829579
  0
VERTEX
  8
PLAN_1
 62
     2
  6
CONTINUOUS
 10
-1.205260
 20
-0.829579
  0
VERTEX
  8
PLAN_1
 62
     2
  6
CONTINUOUS
 10
-1.207311
 20
-0.829579
  0
VERTEX
  8
PLAN_1
 62
     2
  6
CONTINUOUS
 10
-1.209358
 20
-0.829579
  0
VERTEX
  8
PLAN_1
 62
     2
  6
CONTINUOUS
 10
-1.210894
 20
-0.829067
  0
VERTEX
  8
PLAN_1
 62
     2
  6
CONTINUOUS
 10
-1.212941
 20
-0.828555
  0
VERTEX
  8
PLAN_1
 62
     2
  6
CONTINUOUS
 10
-1.214476
 20
-0.828555
  0
VERTEX
  8
PLAN_1
 62
     2
  6
CONTINUOUS
 10
-1.216016
 20
-0.827528
  0
VERTEX
  8
PLAN_1
 62
     2
  6
CONTINUOUS
 10
-1.217551
 20
-0.827016
  0
VERTEX
  8
PLAN_1
 62
     2
  6
CONTINUOUS
 10
-1.219087
 20
-0.826504
  0
VERTEX
  8
PLAN_1
 62
     2
  6
CONTINUOUS
 10
-1.221646
 20
-0.824457
  0
VERTEX
  8
PLAN_1
 62
     2
  6
CONTINUOUS
 10
-1.224209
 20
-0.822409
  0
VERTEX
  8
PLAN_1
 62
     2
  6
CONTINUOUS
 10
-1.225744
 20
-0.820362
  0
VERTEX
  8
PLAN_1
 62
     2
  6
CONTINUOUS
 10
-1.227280
 20
-0.817287
  0
VERTEX
  8
PLAN_1
 62
     2
  6
CONTINUOUS
 10
-1.228303
 20
-0.814728
  0
VERTEX
  8
PLAN_1
 62
     2
  6
CONTINUOUS
 10
-1.228815
 20
-0.811654
  0
VERTEX
  8
PLAN_1
 62
     2
  6
CONTINUOUS
 10
-1.229327
 20
-0.808583
  0
VERTEX
  8
PLAN_1
 62
     2
  6
CONTINUOUS
 10
-1.229839
 20
-0.805512
  0
VERTEX
  8
PLAN_1
 62
     2
  6
CONTINUOUS
 10
-1.220110
 20
-0.805512
  0
VERTEX
  8
PLAN_1
 62
     2
  6
CONTINUOUS
 10
-1.220110
 20
-0.808071
  0
VERTEX
  8
PLAN_1
 62
     2
  6
CONTINUOUS
 10
-1.219598
 20
-0.810630
  0
VERTEX
  8
PLAN_1
 62
     2
  6
CONTINUOUS
 10
-1.219087
 20
-0.813705
  0
VERTEX
  8
PLAN_1
 62
     2
  6
CONTINUOUS
 10
-1.217551
 20
-0.815752
  0
VERTEX
  8
PLAN_1
 62
     2
  6
CONTINUOUS
 10
-1.215504
 20
-0.818311
  0
VERTEX
  8
PLAN_1
 62
     2
  6
CONTINUOUS
 10
-1.212941
 20
-0.819846
  0
VERTEX
  8
PLAN_1
 62
     2
  6
CONTINUOUS
 10
-1.209358
 20
-0.820874
  0
VERTEX
  8
PLAN_1
 62
     2
  6
CONTINUOUS
 10
-1.204748
 20
-0.821386
  0
VERTEX
  8
PLAN_1
 62
     2
  6
CONTINUOUS
 10
-1.201165
 20
-0.821386
  0
VERTEX
  8
PLAN_1
 62
     2
  6
CONTINUOUS
 10
-1.198091
 20
-0.820362
  0
VERTEX
  8
PLAN_1
 62
     2
  6
CONTINUOUS
 10
-1.195531
 20
-0.819335
  0
VERTEX
  8
PLAN_1
 62
     2
  6
CONTINUOUS
 10
-1.193484
 20
-0.817799
  0
VERTEX
  8
PLAN_1
 62
     2
  6
CONTINUOUS
 10
-1.191437
 20
-0.815752
  0
VERTEX
  8
PLAN_1
 62
     2
  6
CONTINUOUS
 10
-1.189898
 20
-0.813193
  0
VERTEX
  8
PLAN_1
 62
     2
  6
CONTINUOUS
 10
-1.189386
 20
-0.810118
  0
VERTEX
  8
PLAN_1
 62
     2
  6
CONTINUOUS
 10
-1.188874
 20
-0.807559
  0
VERTEX
  8
PLAN_1
 62
     2
  6
CONTINUOUS
 10
-1.188874
 20
-0.805000
  0
VERTEX
  8
PLAN_1
 62
     2
  6
CONTINUOUS
 10
-1.189386
 20
-0.803461
  0
VERTEX
  8
PLAN_1
 62
     2
  6
CONTINUOUS
 10
-1.189898
 20
-0.801413
  0
VERTEX
  8
PLAN_1
 62
     2
  6
CONTINUOUS
 10
-1.190409
 20
-0.799878
  0
VERTEX
  8
PLAN_1
 62
     2
  6
CONTINUOUS
 10
-1.192461
 20
-0.797831
  0
VERTEX
  8
PLAN_1
 62
     2
  6
CONTINUOUS
 10
-1.195020
 20
-0.795780
  0
VERTEX
  8
PLAN_1
 62
     2
  6
CONTINUOUS
 10
-1.197579
 20
-0.794756
  0
VERTEX
  8
PLAN_1
 62
     2
  6
CONTINUOUS
 10
-1.200654
 20
-0.794244
  0
VERTEX
  8
PLAN_1
 62
     2
  6
CONTINUOUS
 10
-1.203213
 20
-0.793732
  0
VERTEX
  8
PLAN_1
 62
     2
  6
CONTINUOUS
 10
-1.205772
 20
-0.793732
  0
VERTEX
  8
PLAN_1
 62
     2
  6
CONTINUOUS
 10
-1.206283
 20
-0.793732
  0
VERTEX
  8
PLAN_1
 62
     2
  6
CONTINUOUS
 10
-1.206795
 20
-0.793732
  0
VERTEX
  8
PLAN_1
 62
     2
  6
CONTINUOUS
 10
-1.207311
 20
-0.793732
  0
VERTEX
  8
PLAN_1
 62
     2
  6
CONTINUOUS
 10
-1.207823
 20
-0.793732
  0
VERTEX
  8
PLAN_1
 62
     2
  6
CONTINUOUS
 10
-1.208335
 20
-0.793732
  0
VERTEX
  8
PLAN_1
 62
     2
  6
CONTINUOUS
 10
-1.208846
 20
-0.793732
  0
VERTEX
  8
PLAN_1
 62
     2
  6
CONTINUOUS
 10
-1.209358
 20
-0.794244
  0
VERTEX
  8
PLAN_1
 62
     2
  6
CONTINUOUS
 10
-1.209870
 20
-0.794244
  0
VERTEX
  8
PLAN_1
 62
     2
  6
CONTINUOUS
 10
-1.209870
 20
-0.786051
  0
SEQEND
  8
0
  0
POLYLINE
  8
PLAN_1
 62
     2
  6
CONTINUOUS
 66
     1
 40
0.003000
 41
0.003000
  0
VERTEX
  8
PLAN_1
 62
     2
  6
CONTINUOUS
 10
-1.152008
 20
-0.786051
  0
VERTEX
  8
PLAN_1
 62
     2
  6
CONTINUOUS
 10
-1.151496
 20
-0.786051
  0
VERTEX
  8
PLAN_1
 62
     2
  6
CONTINUOUS
 10
-1.150984
 20
-0.786051
  0
VERTEX
  8
PLAN_1
 62
     2
  6
CONTINUOUS
 10
-1.150469
 20
-0.786051
  0
VERTEX
  8
PLAN_1
 62
     2
  6
CONTINUOUS
 10
-1.149957
 20
-0.786051
  0
VERTEX
  8
PLAN_1
 62
     2
  6
CONTINUOUS
 10
-1.148933
 20
-0.786051
  0
VERTEX
  8
PLAN_1
 62
     2
  6
CONTINUOUS
 10
-1.148421
 20
-0.786051
  0
VERTEX
  8
PLAN_1
 62
     2
  6
CONTINUOUS
 10
-1.147909
 20
-0.786051
  0
VERTEX
  8
PLAN_1
 62
     2
  6
CONTINUOUS
 10
-1.147398
 20
-0.786051
  0
VERTEX
  8
PLAN_1
 62
     2
  6
CONTINUOUS
 10
-1.144839
 20
-0.786051
  0
VERTEX
  8
PLAN_1
 62
     2
  6
CONTINUOUS
 10
-1.142276
 20
-0.785539
  0
VERTEX
  8
PLAN_1
 62
     2
  6
CONTINUOUS
 10
-1.139717
 20
-0.785028
  0
VERTEX
  8
PLAN_1
 62
     2
  6
CONTINUOUS
 10
-1.137669
 20
-0.784004
  0
VERTEX
  8
PLAN_1
 62
     2
  6
CONTINUOUS
 10
-1.136134
 20
-0.781957
  0
VERTEX
  8
PLAN_1
 62
     2
  6
CONTINUOUS
 10
-1.134594
 20
-0.779906
  0
VERTEX
  8
PLAN_1
 62
     2
  6
CONTINUOUS
 10
-1.133571
 20
-0.777346
  0
VERTEX
  8
PLAN_1
 62
     2
  6
CONTINUOUS
 10
-1.133571
 20
-0.774276
  0
VERTEX
  8
PLAN_1
 62
     2
  6
CONTINUOUS
 10
-1.133571
 20
-0.772740
  0
VERTEX
  8
PLAN_1
 62
     2
  6
CONTINUOUS
 10
-1.134083
 20
-0.770689
  0
VERTEX
  8
PLAN_1
 62
     2
  6
CONTINUOUS
 10
-1.134594
 20
-0.768642
  0
VERTEX
  8
PLAN_1
 62
     2
  6
CONTINUOUS
 10
-1.136134
 20
-0.767106
  0
VERTEX
  8
PLAN_1
 62
     2
  6
CONTINUOUS
 10
-1.137669
 20
-0.765059
  0
VERTEX
  8
PLAN_1
 62
     2
  6
CONTINUOUS
 10
-1.140228
 20
-0.764031
  0
VERTEX
  8
PLAN_1
 62
     2
  6
CONTINUOUS
 10
-1.143303
 20
-0.763008
  0
VERTEX
  8
PLAN_1
 62
     2
  6
CONTINUOUS
 10
-1.146886
 20
-0.763008
  0
VERTEX
  8
PLAN_1
 62
     2
  6
CONTINUOUS
 10
-1.151496
 20
-0.763008
  0
VERTEX
  8
PLAN_1
 62
     2
  6
CONTINUOUS
 10
-1.154567
 20
-0.764547
  0
VERTEX
  8
PLAN_1
 62
     2
  6
CONTINUOUS
 10
-1.157126
 20
-0.766594
  0
VERTEX
  8
PLAN_1
 62
     2
  6
CONTINUOUS
 10
-1.158661
 20
-0.768642
  0
VERTEX
  8
PLAN_1
 62
     2
  6
CONTINUOUS
 10
-1.160201
 20
-0.771201
  0
VERTEX
  8
PLAN_1
 62
     2
  6
CONTINUOUS
 10
-1.160713
 20
-0.773764
  0
VERTEX
  8
PLAN_1
 62
     2
  6
CONTINUOUS
 10
-1.161224
 20
-0.776323
  0
VERTEX
  8
PLAN_1
 62
     2
  6
CONTINUOUS
 10
-1.161224
 20
-0.778370
  0
VERTEX
  8
PLAN_1
 62
     2
  6
CONTINUOUS
 10
-1.169929
 20
-0.778370
  0
VERTEX
  8
PLAN_1
 62
     2
  6
CONTINUOUS
 10
-1.169929
 20
-0.774276
  0
VERTEX
  8
PLAN_1
 62
     2
  6
CONTINUOUS
 10
-1.169417
 20
-0.770177
  0
VERTEX
  8
PLAN_1
 62
     2
  6
CONTINUOUS
 10
-1.167882
 20
-0.766083
  0
VERTEX
  8
PLAN_1
 62
     2
  6
CONTINUOUS
 10
-1.165319
 20
-0.762496
  0
VERTEX
  8
PLAN_1
 62
     2
  6
CONTINUOUS
 10
-1.164295
 20
-0.760961
  0
VERTEX
  8
PLAN_1
 62
     2
  6
CONTINUOUS
 10
-1.162248
 20
-0.759425
  0
VERTEX
  8
PLAN_1
 62
     2
  6
CONTINUOUS
 10
-1.160713
 20
-0.757890
  0
VERTEX
  8
PLAN_1
 62
     2
  6
CONTINUOUS
 10
-1.158150
 20
-0.756866
  0
VERTEX
  8
PLAN_1
 62
     2
  6
CONTINUOUS
 10
-1.156102
 20
-0.755839
  0
VERTEX
  8
PLAN_1
 62
     2
  6
CONTINUOUS
 10
-1.153031
 20
-0.755327
  0
VERTEX
  8
PLAN_1
 62
     2
  6
CONTINUOUS
 10
-1.149957
 20
-0.754815
  0
VERTEX
  8
PLAN_1
 62
     2
  6
CONTINUOUS
 10
-1.146374
 20
-0.754815
  0
VERTEX
  8
PLAN_1
 62
     2
  6
CONTINUOUS
 10
-1.141764
 20
-0.754815
  0
VERTEX
  8
PLAN_1
 62
     2
  6
CONTINUOUS
 10
-1.137157
 20
-0.755839
  0
VERTEX
  8
PLAN_1
 62
     2
  6
CONTINUOUS
 10
-1.133059
 20
-0.757890
  0
VERTEX
  8
PLAN_1
 62
     2
  6
CONTINUOUS
 10
-1.129988
 20
-0.759937
  0
VERTEX
  8
PLAN_1
 62
     2
  6
CONTINUOUS
 10
-1.127429
 20
-0.763008
  0
VERTEX
  8
PLAN_1
 62
     2
  6
CONTINUOUS
 10
-1.125378
 20
-0.766083
  0
VERTEX
  8
PLAN_1
 62
     2
  6
CONTINUOUS
 10
-1.124354
 20
-0.769665
  0
VERTEX
  8
PLAN_1
 62
     2
  6
CONTINUOUS
 10
-1.123843
 20
-0.773764
  0
VERTEX
  8
PLAN_1
 62
     2
  6
CONTINUOUS
 10
-1.124354
 20
-0.777346
  0
VERTEX
  8
PLAN_1
 62
     2
  6
CONTINUOUS
 10
-1.124866
 20
-0.779906
  0
VERTEX
  8
PLAN_1
 62
     2
  6
CONTINUOUS
 10
-1.125890
 20
-0.782469
  0
VERTEX
  8
PLAN_1
 62
     2
  6
CONTINUOUS
 10
-1.127429
 20
-0.784516
  0
VERTEX
  8
PLAN_1
 62
     2
  6
CONTINUOUS
 10
-1.128453
 20
-0.786051
  0
VERTEX
  8
PLAN_1
 62
     2
  6
CONTINUOUS
 10
-1.129988
 20
-0.787587
  0
VERTEX
  8
PLAN_1
 62
     2
  6
CONTINUOUS
 10
-1.132035
 20
-0.788098
  0
VERTEX
  8
PLAN_1
 62
     2
  6
CONTINUOUS
 10
-1.133571
 20
-0.789126
  0
VERTEX
  8
PLAN_1
 62
     2
  6
CONTINUOUS
 10
-1.131012
 20
-0.790150
  0
VERTEX
  8
PLAN_1
 62
     2
  6
CONTINUOUS
 10
-1.128453
 20
-0.791173
  0
VERTEX
  8
PLAN_1
 62
     2
  6
CONTINUOUS
 10
-1.126402
 20
-0.792709
  0
VERTEX
  8
PLAN_1
 62
     2
  6
CONTINUOUS
 10
-1.124354
 20
-0.794756
  0
VERTEX
  8
PLAN_1
 62
     2
  6
CONTINUOUS
 10
-1.123331
 20
-0.797319
  0
VERTEX
  8
PLAN_1
 62
     2
  6
CONTINUOUS
 10
-1.122307
 20
-0.799878
  0
VERTEX
  8
PLAN_1
 62
     2
  6
CONTINUOUS
 10
-1.121283
 20
-0.802949
  0
VERTEX
  8
PLAN_1
 62
     2
  6
CONTINUOUS
 10
-1.121283
 20
-0.806024
  0
VERTEX
  8
PLAN_1
 62
     2
  6
CONTINUOUS
 10
-1.121283
 20
-0.810630
  0
VERTEX
  8
PLAN_1
 62
     2
  6
CONTINUOUS
 10
-1.122819
 20
-0.814728
  0
VERTEX
  8
PLAN_1
 62
     2
  6
CONTINUOUS
 10
-1.124354
 20
-0.818823
  0
VERTEX
  8
PLAN_1
 62
     2
  6
CONTINUOUS
 10
-1.127429
 20
-0.822409
  0
VERTEX
  8
PLAN_1
 62
     2
  6
CONTINUOUS
 10
-1.128965
 20
-0.823945
  0
VERTEX
  8
PLAN_1
 62
     2
  6
CONTINUOUS
 10
-1.131012
 20
-0.825480
  0
VERTEX
  8
PLAN_1
 62
     2
  6
CONTINUOUS
 10
-1.133059
 20
-0.826504
  0
VERTEX
  8
PLAN_1
 62
     2
  6
CONTINUOUS
 10
-1.135622
 20
-0.827528
  0
VERTEX
  8
PLAN_1
 62
     2
  6
CONTINUOUS
 10
-1.138181
 20
-0.828555
  0
VERTEX
  8
PLAN_1
 62
     2
  6
CONTINUOUS
 10
-1.141252
 20
-0.829067
  0
VERTEX
  8
PLAN_1
 62
     2
  6
CONTINUOUS
 10
-1.144327
 20
-0.829579
  0
VERTEX
  8
PLAN_1
 62
     2
  6
CONTINUOUS
 10
-1.147398
 20
-0.829579
  0
VERTEX
  8
PLAN_1
 62
     2
  6
CONTINUOUS
 10
-1.149445
 20
-0.829579
  0
VERTEX
  8
PLAN_1
 62
     2
  6
CONTINUOUS
 10
-1.151496
 20
-0.829579
  0
VERTEX
  8
PLAN_1
 62
     2
  6
CONTINUOUS
 10
-1.153031
 20
-0.829067
  0
VERTEX
  8
PLAN_1
 62
     2
  6
CONTINUOUS
 10
-1.155079
 20
-0.828555
  0
VERTEX
  8
PLAN_1
 62
     2
  6
CONTINUOUS
 10
-1.156614
 20
-0.828555
  0
VERTEX
  8
PLAN_1
 62
     2
  6
CONTINUOUS
 10
-1.158150
 20
-0.827528
  0
VERTEX
  8
PLAN_1
 62
     2
  6
CONTINUOUS
 10
-1.159689
 20
-0.827016
  0
VERTEX
  8
PLAN_1
 62
     2
  6
CONTINUOUS
 10
-1.161224
 20
-0.826504
  0
VERTEX
  8
PLAN_1
 62
     2
  6
CONTINUOUS
 10
-1.163783
 20
-0.824457
  0
VERTEX
  8
PLAN_1
 62
     2
  6
CONTINUOUS
 10
-1.165831
 20
-0.822409
  0
VERTEX
  8
PLAN_1
 62
     2
  6
CONTINUOUS
 10
-1.167882
 20
-0.820362
  0
VERTEX
  8
PLAN_1
 62
     2
  6
CONTINUOUS
 10
-1.169417
 20
-0.817287
  0
VERTEX
  8
PLAN_1
 62
     2
  6
CONTINUOUS
 10
-1.170441
 20
-0.814728
  0
VERTEX
  8
PLAN_1
 62
     2
  6
CONTINUOUS
 10
-1.170953
 20
-0.811654
  0
VERTEX
  8
PLAN_1
 62
     2
  6
CONTINUOUS
 10
-1.171465
 20
-0.808583
  0
VERTEX
  8
PLAN_1
 62
     2
  6
CONTINUOUS
 10
-1.171976
 20
-0.805512
  0
VERTEX
  8
PLAN_1
 62
     2
  6
CONTINUOUS
 10
-1.162248
 20
-0.805512
  0
VERTEX
  8
PLAN_1
 62
     2
  6
CONTINUOUS
 10
-1.162248
 20
-0.808071
  0
VERTEX
  8
PLAN_1
 62
     2
  6
CONTINUOUS
 10
-1.161736
 20
-0.810630
  0
VERTEX
  8
PLAN_1
 62
     2
  6
CONTINUOUS
 10
-1.161224
 20
-0.813705
  0
VERTEX
  8
PLAN_1
 62
     2
  6
CONTINUOUS
 10
-1.159689
 20
-0.815752
  0
VERTEX
  8
PLAN_1
 62
     2
  6
CONTINUOUS
 10
-1.157638
 20
-0.818311
  0
VERTEX
  8
PLAN_1
 62
     2
  6
CONTINUOUS
 10
-1.155079
 20
-0.819846
  0
VERTEX
  8
PLAN_1
 62
     2
  6
CONTINUOUS
 10
-1.151496
 20
-0.820874
  0
VERTEX
  8
PLAN_1
 62
     2
  6
CONTINUOUS
 10
-1.146886
 20
-0.821386
  0
VERTEX
  8
PLAN_1
 62
     2
  6
CONTINUOUS
 10
-1.143303
 20
-0.821386
  0
VERTEX
  8
PLAN_1
 62
     2
  6
CONTINUOUS
 10
-1.140228
 20
-0.820362
  0
VERTEX
  8
PLAN_1
 62
     2
  6
CONTINUOUS
 10
-1.137669
 20
-0.819335
  0
VERTEX
  8
PLAN_1
 62
     2
  6
CONTINUOUS
 10
-1.135622
 20
-0.817799
  0
VERTEX
  8
PLAN_1
 62
     2
  6
CONTINUOUS
 10
-1.133571
 20
-0.815752
  0
VERTEX
  8
PLAN_1
 62
     2
  6
CONTINUOUS
 10
-1.132035
 20
-0.813193
  0
VERTEX
  8
PLAN_1
 62
     2
  6
CONTINUOUS
 10
-1.131012
 20
-0.810118
  0
VERTEX
  8
PLAN_1
 62
     2
  6
CONTINUOUS
 10
-1.131012
 20
-0.807559
  0
VERTEX
  8
PLAN_1
 62
     2
  6
CONTINUOUS
 10
-1.131012
 20
-0.805000
  0
VERTEX
  8
PLAN_1
 62
     2
  6
CONTINUOUS
 10
-1.131524
 20
-0.803461
  0
VERTEX
  8
PLAN_1
 62
     2
  6
CONTINUOUS
 10
-1.132035
 20
-0.801413
  0
VERTEX
  8
PLAN_1
 62
     2
  6
CONTINUOUS
 10
-1.132547
 20
-0.799878
  0
VERTEX
  8
PLAN_1
 62
     2
  6
CONTINUOUS
 10
-1.134594
 20
-0.797831
  0
VERTEX
  8
PLAN_1
 62
     2
  6
CONTINUOUS
 10
-1.137157
 20
-0.795780
  0
VERTEX
  8
PLAN_1
 62
     2
  6
CONTINUOUS
 10
-1.139717
 20
-0.794756
  0
VERTEX
  8
PLAN_1
 62
     2
  6
CONTINUOUS
 10
-1.142791
 20
-0.794244
  0
VERTEX
  8
PLAN_1
 62
     2
  6
CONTINUOUS
 10
-1.145350
 20
-0.793732
  0
VERTEX
  8
PLAN_1
 62
     2
  6
CONTINUOUS
 10
-1.147909
 20
-0.793732
  0
VERTEX
  8
PLAN_1
 62
     2
  6
CONTINUOUS
 10
-1.148421
 20
-0.793732
  0
VERTEX
  8
PLAN_1
 62
     2
  6
CONTINUOUS
 10
-1.148933
 20
-0.793732
  0
VERTEX
  8
PLAN_1
 62
     2
  6
CONTINUOUS
 10
-1.149445
 20
-0.793732
  0
VERTEX
  8
PLAN_1
 62
     2
  6
CONTINUOUS
 10
-1.149957
 20
-0.793732
  0
VERTEX
  8
PLAN_1
 62
     2
  6
CONTINUOUS
 10
-1.150469
 20
-0.793732
  0
VERTEX
  8
PLAN_1
 62
     2
  6
CONTINUOUS
 10
-1.150984
 20
-0.793732
  0
VERTEX
  8
PLAN_1
 62
     2
  6
CONTINUOUS
 10
-1.151496
 20
-0.794244
  0
VERTEX
  8
PLAN_1
 62
     2
  6
CONTINUOUS
 10
-1.152008
 20
-0.794244
  0
VERTEX
  8
PLAN_1
 62
     2
  6
CONTINUOUS
 10
-1.152008
 20
-0.786051
  0
SEQEND
  8
0
  0
POLYLINE
  8
PLAN_1
 62
     2
  6
CONTINUOUS
 66
     1
 40
0.003000
 41
0.003000
  0
VERTEX
  8
PLAN_1
 62
     2
  6
CONTINUOUS
 10
-1.108480
 20
-0.816776
  0
VERTEX
  8
PLAN_1
 62
     2
  6
CONTINUOUS
 10
-1.097728
 20
-0.816776
  0
VERTEX
  8
PLAN_1
 62
     2
  6
CONTINUOUS
 10
-1.097728
 20
-0.827016
  0
VERTEX
  8
PLAN_1
 62
     2
  6
CONTINUOUS
 10
-1.098240
 20
-0.831626
  0
VERTEX
  8
PLAN_1
 62
     2
  6
CONTINUOUS
 10
-1.099264
 20
-0.835209
  0
VERTEX
  8
PLAN_1
 62
     2
  6
CONTINUOUS
 10
-1.100799
 20
-0.838283
  0
VERTEX
  8
PLAN_1
 62
     2
  6
CONTINUOUS
 10
-1.102335
 20
-0.840331
  0
VERTEX
  8
PLAN_1
 62
     2
  6
CONTINUOUS
 10
-1.104386
 20
-0.841354
  0
VERTEX
  8
PLAN_1
 62
     2
  6
CONTINUOUS
 10
-1.105921
 20
-0.842378
  0
VERTEX
  8
PLAN_1
 62
     2
  6
CONTINUOUS
 10
-1.107457
 20
-0.842890
  0
VERTEX
  8
PLAN_1
 62
     2
  6
CONTINUOUS
 10
-1.108480
 20
-0.842890
  0
VERTEX
  8
PLAN_1
 62
     2
  6
CONTINUOUS
 10
-1.108480
 20
-0.838283
  0
VERTEX
  8
PLAN_1
 62
     2
  6
CONTINUOUS
 10
-1.106945
 20
-0.837772
  0
VERTEX
  8
PLAN_1
 62
     2
  6
CONTINUOUS
 10
-1.105921
 20
-0.837260
  0
VERTEX
  8
PLAN_1
 62
     2
  6
CONTINUOUS
 10
-1.104898
 20
-0.836232
  0
VERTEX
  8
PLAN_1
 62
     2
  6
CONTINUOUS
 10
-1.103874
 20
-0.834697
  0
VERTEX
  8
PLAN_1
 62
     2
  6
CONTINUOUS
 10
-1.103362
 20
-0.833161
  0
VERTEX
  8
PLAN_1
 62
     2
  6
CONTINUOUS
 10
-1.103362
 20
-0.831114
  0
VERTEX
  8
PLAN_1
 62
     2
  6
CONTINUOUS
 10
-1.102850
 20
-0.829579
  0
VERTEX
  8
PLAN_1
 62
     2
  6
CONTINUOUS
 10
-1.102850
 20
-0.827528
  0
VERTEX
  8
PLAN_1
 62
     2
  6
CONTINUOUS
 10
-1.108480
 20
-0.827528
  0
VERTEX
  8
PLAN_1
 62
     2
  6
CONTINUOUS
 10
-1.108480
 20
-0.816776
  0
SEQEND
  8
0
  0
POLYLINE
  8
PLAN_1
 62
     2
  6
CONTINUOUS
 66
     1
 40
0.003000
 41
0.003000
  0
VERTEX
  8
PLAN_1
 62
     2
  6
CONTINUOUS
 10
-1.073150
 20
-0.785028
  0
VERTEX
  8
PLAN_1
 62
     2
  6
CONTINUOUS
 10
-1.072126
 20
-0.784516
  0
VERTEX
  8
PLAN_1
 62
     2
  6
CONTINUOUS
 10
-1.070587
 20
-0.783492
  0
VERTEX
  8
PLAN_1
 62
     2
  6
CONTINUOUS
 10
-1.069051
 20
-0.782469
  0
VERTEX
  8
PLAN_1
 62
     2
  6
CONTINUOUS
 10
-1.067516
 20
-0.781957
  0
VERTEX
  8
PLAN_1
 62
     2
  6
CONTINUOUS
 10
-1.065980
 20
-0.781445
  0
VERTEX
  8
PLAN_1
 62
     2
  6
CONTINUOUS
 10
-1.063933
 20
-0.780933
  0
VERTEX
  8
PLAN_1
 62
     2
  6
CONTINUOUS
 10
-1.061370
 20
-0.780933
  0
VERTEX
  8
PLAN_1
 62
     2
  6
CONTINUOUS
 10
-1.059323
 20
-0.780421
  0
VERTEX
  8
PLAN_1
 62
     2
  6
CONTINUOUS
 10
-1.054717
 20
-0.780933
  0
VERTEX
  8
PLAN_1
 62
     2
  6
CONTINUOUS
 10
-1.050618
 20
-0.781957
  0
VERTEX
  8
PLAN_1
 62
     2
  6
CONTINUOUS
 10
-1.046520
 20
-0.784004
  0
VERTEX
  8
PLAN_1
 62
     2
  6
CONTINUOUS
 10
-1.042937
 20
-0.786563
  0
VERTEX
  8
PLAN_1
 62
     2
  6
CONTINUOUS
 10
-1.039866
 20
-0.790150
  0
VERTEX
  8
PLAN_1
 62
     2
  6
CONTINUOUS
 10
-1.037303
 20
-0.793732
  0
VERTEX
  8
PLAN_1
 62
     2
  6
CONTINUOUS
 10
-1.036280
 20
-0.796295
  0
VERTEX
  8
PLAN_1
 62
     2
  6
CONTINUOUS
 10
-1.035768
 20
-0.798854
  0
VERTEX
  8
PLAN_1
 62
     2
  6
CONTINUOUS
 10
-1.035256
 20
-0.801413
  0
VERTEX
  8
PLAN_1
 62
     2
  6
CONTINUOUS
 10
-1.035256
 20
-0.803972
  0
VERTEX
  8
PLAN_1
 62
     2
  6
CONTINUOUS
 10
-1.035256
 20
-0.807559
  0
VERTEX
  8
PLAN_1
 62
     2
  6
CONTINUOUS
 10
-1.036280
 20
-0.811654
  0
VERTEX
  8
PLAN_1
 62
     2
  6
CONTINUOUS
 10
-1.037303
 20
-0.815752
  0
VERTEX
  8
PLAN_1
 62
     2
  6
CONTINUOUS
 10
-1.039866
 20
-0.819846
  0
VERTEX
  8
PLAN_1
 62
     2
  6
CONTINUOUS
 10
-1.041402
 20
-0.821898
  0
VERTEX
  8
PLAN_1
 62
     2
  6
CONTINUOUS
 10
-1.043449
 20
-0.823945
  0
VERTEX
  8
PLAN_1
 62
     2
  6
CONTINUOUS
 10
-1.045496
 20
-0.825480
  0
VERTEX
  8
PLAN_1
 62
     2
  6
CONTINUOUS
 10
-1.048059
 20
-0.827016
  0
VERTEX
  8
PLAN_1
 62
     2
  6
CONTINUOUS
 10
-1.050618
 20
-0.828039
  0
VERTEX
  8
PLAN_1
 62
     2
  6
CONTINUOUS
 10
-1.054201
 20
-0.829067
  0
VERTEX
  8
PLAN_1
 62
     2
  6
CONTINUOUS
 10
-1.057787
 20
-0.829579
  0
VERTEX
  8
PLAN_1
 62
     2
  6
CONTINUOUS
 10
-1.061882
 20
-0.829579
  0
VERTEX
  8
PLAN_1
 62
     2
  6
CONTINUOUS
 10
-1.065469
 20
-0.829579
  0
VERTEX
  8
PLAN_1
 62
     2
  6
CONTINUOUS
 10
-1.069051
 20
-0.829067
  0
VERTEX
  8
PLAN_1
 62
     2
  6
CONTINUOUS
 10
-1.073150
 20
-0.827528
  0
VERTEX
  8
PLAN_1
 62
     2
  6
CONTINUOUS
 10
-1.076220
 20
-0.825480
  0
VERTEX
  8
PLAN_1
 62
     2
  6
CONTINUOUS
 10
-1.079807
 20
-0.822921
  0
VERTEX
  8
PLAN_1
 62
     2
  6
CONTINUOUS
 10
-1.082366
 20
-0.819335
  0
VERTEX
  8
PLAN_1
 62
     2
  6
CONTINUOUS
 10
-1.083390
 20
-0.817287
  0
VERTEX
  8
PLAN_1
 62
     2
  6
CONTINUOUS
 10
-1.084413
 20
-0.815240
  0
VERTEX
  8
PLAN_1
 62
     2
  6
CONTINUOUS
 10
-1.084925
 20
-0.812681
  0
VERTEX
  8
PLAN_1
 62
     2
  6
CONTINUOUS
 10
-1.085437
 20
-0.809606
  0
VERTEX
  8
PLAN_1
 62
     2
  6
CONTINUOUS
 10
-1.075709
 20
-0.809606
  0
VERTEX
  8
PLAN_1
 62
     2
  6
CONTINUOUS
 10
-1.075197
 20
-0.812681
  0
VERTEX
  8
PLAN_1
 62
     2
  6
CONTINUOUS
 10
-1.074173
 20
-0.815240
  0
VERTEX
  8
PLAN_1
 62
     2
  6
CONTINUOUS
 10
-1.072638
 20
-0.817287
  0
VERTEX
  8
PLAN_1
 62
     2
  6
CONTINUOUS
 10
-1.070587
 20
-0.818823
  0
VERTEX
  8
PLAN_1
 62
     2
  6
CONTINUOUS
 10
-1.068539
 20
-0.820362
  0
VERTEX
  8
PLAN_1
 62
     2
  6
CONTINUOUS
 10
-1.065980
 20
-0.820874
  0
VERTEX
  8
PLAN_1
 62
     2
  6
CONTINUOUS
 10
-1.063421
 20
-0.821386
  0
VERTEX
  8
PLAN_1
 62
     2
  6
CONTINUOUS
 10
-1.060346
 20
-0.821898
  0
VERTEX
  8
PLAN_1
 62
     2
  6
CONTINUOUS
 10
-1.056764
 20
-0.821386
  0
VERTEX
  8
PLAN_1
 62
     2
  6
CONTINUOUS
 10
-1.053689
 20
-0.820362
  0
VERTEX
  8
PLAN_1
 62
     2
  6
CONTINUOUS
 10
-1.051130
 20
-0.818823
  0
VERTEX
  8
PLAN_1
 62
     2
  6
CONTINUOUS
 10
-1.049083
 20
-0.816776
  0
VERTEX
  8
PLAN_1
 62
     2
  6
CONTINUOUS
 10
-1.047547
 20
-0.814217
  0
VERTEX
  8
PLAN_1
 62
     2
  6
CONTINUOUS
 10
-1.046008
 20
-0.811654
  0
VERTEX
  8
PLAN_1
 62
     2
  6
CONTINUOUS
 10
-1.044984
 20
-0.808583
  0
VERTEX
  8
PLAN_1
 62
     2
  6
CONTINUOUS
 10
-1.044984
 20
-0.805000
  0
VERTEX
  8
PLAN_1
 62
     2
  6
CONTINUOUS
 10
-1.045496
 20
-0.801413
  0
VERTEX
  8
PLAN_1
 62
     2
  6
CONTINUOUS
 10
-1.046008
 20
-0.797831
  0
VERTEX
  8
PLAN_1
 62
     2
  6
CONTINUOUS
 10
-1.047547
 20
-0.795268
  0
VERTEX
  8
PLAN_1
 62
     2
  6
CONTINUOUS
 10
-1.049594
 20
-0.793220
  0
VERTEX
  8
PLAN_1
 62
     2
  6
CONTINUOUS
 10
-1.052154
 20
-0.791173
  0
VERTEX
  8
PLAN_1
 62
     2
  6
CONTINUOUS
 10
-1.054717
 20
-0.789638
  0
VERTEX
  8
PLAN_1
 62
     2
  6
CONTINUOUS
 10
-1.057787
 20
-0.789126
  0
VERTEX
  8
PLAN_1
 62
     2
  6
CONTINUOUS
 10
-1.061370
 20
-0.788614
  0
VERTEX
  8
PLAN_1
 62
     2
  6
CONTINUOUS
 10
-1.062909
 20
-0.789126
  0
VERTEX
  8
PLAN_1
 62
     2
  6
CONTINUOUS
 10
-1.064957
 20
-0.789126
  0
VERTEX
  8
PLAN_1
 62
     2
  6
CONTINUOUS
 10
-1.067004
 20
-0.789638
  0
VERTEX
  8
PLAN_1
 62
     2
  6
CONTINUOUS
 10
-1.068539
 20
-0.790661
  0
VERTEX
  8
PLAN_1
 62
     2
  6
CONTINUOUS
 10
-1.070075
 20
-0.791685
  0
VERTEX
  8
PLAN_1
 62
     2
  6
CONTINUOUS
 10
-1.072126
 20
-0.792709
  0
VERTEX
  8
PLAN_1
 62
     2
  6
CONTINUOUS
 10
-1.073150
 20
-0.794244
  0
VERTEX
  8
PLAN_1
 62
     2
  6
CONTINUOUS
 10
-1.074685
 20
-0.795780
  0
VERTEX
  8
PLAN_1
 62
     2
  6
CONTINUOUS
 10
-1.082366
 20
-0.795268
  0
VERTEX
  8
PLAN_1
 62
     2
  6
CONTINUOUS
 10
-1.077244
 20
-0.756354
  0
VERTEX
  8
PLAN_1
 62
     2
  6
CONTINUOUS
 10
-1.039354
 20
-0.756354
  0
VERTEX
  8
PLAN_1
 62
     2
  6
CONTINUOUS
 10
-1.039354
 20
-0.765059
  0
VERTEX
  8
PLAN_1
 62
     2
  6
CONTINUOUS
 10
-1.070075
 20
-0.765059
  0
VERTEX
  8
PLAN_1
 62
     2
  6
CONTINUOUS
 10
-1.073150
 20
-0.785028
  0
SEQEND
  8
0
  0
POLYLINE
  8
PLAN_1
 62
     2
  6
CONTINUOUS
 66
     1
 40
0.004094
 41
0.004094
  0
VERTEX
  8
PLAN_1
 62
     2
  6
CONTINUOUS
 10
-2.208902
 20
-0.518244
  0
VERTEX
  8
PLAN_1
 62
     2
  6
CONTINUOUS
 10
-2.208902
 20
-1.041059
  0
SEQEND
  8
0
  0
POLYLINE
  8
PLAN_1
 62
     2
  6
CONTINUOUS
 66
     1
 40
0.004094
 41
0.004094
  0
VERTEX
  8
PLAN_1
 62
     2
  6
CONTINUOUS
 10
-2.179205
 20
-1.008799
  0
VERTEX
  8
PLAN_1
 62
     2
  6
CONTINUOUS
 10
-0.500661
 20
-1.008799
  0
SEQEND
  8
0
  0
SOLID
  8
PLAN_1
 62
     2
 10
-0.470965
 20
-1.008799
 11
-0.530362
 21
-0.992925
 12
-0.470965
 22
-1.008799
 13
-0.530362
 23
-1.024673
  0
POLYLINE
  8
PLAN_1
 62
     2
  6
CONTINUOUS
 66
     1
 40
0.003000
 41
0.003000
  0
VERTEX
  8
PLAN_1
 62
     2
  6
CONTINUOUS
 10
-0.470965
 20
-1.008799
  0
VERTEX
  8
PLAN_1
 62
     2
  6
CONTINUOUS
 10
-0.530362
 20
-0.992925
  0
VERTEX
  8
PLAN_1
 62
     2
  6
CONTINUOUS
 10
-0.530362
 20
-1.024673
  0
VERTEX
  8
PLAN_1
 62
     2
  6
CONTINUOUS
 10
-0.470965
 20
-1.008799
  0
SEQEND
  8
0
  0
SOLID
  8
PLAN_1
 62
     2
 10
-2.208902
 20
-1.008799
 11
-2.150016
 21
-0.992925
 12
-2.208902
 22
-1.008799
 13
-2.150016
 23
-1.024673
  0
POLYLINE
  8
PLAN_1
 62
     2
  6
CONTINUOUS
 66
     1
 40
0.003000
 41
0.003000
  0
VERTEX
  8
PLAN_1
 62
     2
  6
CONTINUOUS
 10
-2.208902
 20
-1.008799
  0
VERTEX
  8
PLAN_1
 62
     2
  6
CONTINUOUS
 10
-2.150016
 20
-0.992925
  0
VERTEX
  8
PLAN_1
 62
     2
  6
CONTINUOUS
 10
-2.150016
 20
-1.024673
  0
VERTEX
  8
PLAN_1
 62
     2
  6
CONTINUOUS
 10
-2.208902
 20
-1.008799
  0
SEQEND
  8
0
  0
POLYLINE
  8
PLAN_1
 62
     2
  6
CONTINUOUS
 66
     1
 40
0.003000
 41
0.003000
  0
VERTEX
  8
PLAN_1
 62
     2
  6
CONTINUOUS
 10
-1.354272
 20
-0.967323
  0
VERTEX
  8
PLAN_1
 62
     2
  6
CONTINUOUS
 10
-1.354272
 20
-0.985244
  0
VERTEX
  8
PLAN_1
 62
     2
  6
CONTINUOUS
 10
-1.363488
 20
-0.985244
  0
VERTEX
  8
PLAN_1
 62
     2
  6
CONTINUOUS
 10
-1.363488
 20
-0.967323
  0
VERTEX
  8
PLAN_1
 62
     2
  6
CONTINUOUS
 10
-1.395236
 20
-0.967323
  0
VERTEX
  8
PLAN_1
 62
     2
  6
CONTINUOUS
 10
-1.395236
 20
-0.958618
  0
VERTEX
  8
PLAN_1
 62
     2
  6
CONTINUOUS
 10
-1.361953
 20
-0.912020
  0
VERTEX
  8
PLAN_1
 62
     2
  6
CONTINUOUS
 10
-1.354272
 20
-0.912020
  0
VERTEX
  8
PLAN_1
 62
     2
  6
CONTINUOUS
 10
-1.354272
 20
-0.959642
  0
VERTEX
  8
PLAN_1
 62
     2
  6
CONTINUOUS
 10
-1.343520
 20
-0.959642
  0
VERTEX
  8
PLAN_1
 62
     2
  6
CONTINUOUS
 10
-1.343520
 20
-0.967323
  0
VERTEX
  8
PLAN_1
 62
     2
  6
CONTINUOUS
 10
-1.354272
 20
-0.967323
  0
SEQEND
  8
0
  0
SOLID
  8
PLAN_1
 62
     2
 10
-1.387043
 20
-0.959642
 11
-1.363488
 21
-0.959642
 12
-1.387043
 22
-0.959642
 13
-1.363488
 23
-0.926358
  0
POLYLINE
  8
PLAN_1
 62
     2
  6
CONTINUOUS
 66
     1
 40
0.003000
 41
0.003000
  0
VERTEX
  8
PLAN_1
 62
     2
  6
CONTINUOUS
 10
-1.387043
 20
-0.959642
  0
VERTEX
  8
PLAN_1
 62
     2
  6
CONTINUOUS
 10
-1.363488
 20
-0.959642
  0
VERTEX
  8
PLAN_1
 62
     2
  6
CONTINUOUS
 10
-1.363488
 20
-0.926358
  0
VERTEX
  8
PLAN_1
 62
     2
  6
CONTINUOUS
 10
-1.387043
 20
-0.959642
  0
SEQEND
  8
0
  0
POLYLINE
  8
PLAN_1
 62
     2
  6
CONTINUOUS
 66
     1
 40
0.003000
 41
0.003000
  0
VERTEX
  8
PLAN_1
 62
     2
  6
CONTINUOUS
 10
-1.296409
 20
-0.967323
  0
VERTEX
  8
PLAN_1
 62
     2
  6
CONTINUOUS
 10
-1.296409
 20
-0.985244
  0
VERTEX
  8
PLAN_1
 62
     2
  6
CONTINUOUS
 10
-1.305626
 20
-0.985244
  0
VERTEX
  8
PLAN_1
 62
     2
  6
CONTINUOUS
 10
-1.305626
 20
-0.967323
  0
VERTEX
  8
PLAN_1
 62
     2
  6
CONTINUOUS
 10
-1.337374
 20
-0.967323
  0
VERTEX
  8
PLAN_1
 62
     2
  6
CONTINUOUS
 10
-1.337374
 20
-0.958618
  0
VERTEX
  8
PLAN_1
 62
     2
  6
CONTINUOUS
 10
-1.304091
 20
-0.912020
  0
VERTEX
  8
PLAN_1
 62
     2
  6
CONTINUOUS
 10
-1.296409
 20
-0.912020
  0
VERTEX
  8
PLAN_1
 62
     2
  6
CONTINUOUS
 10
-1.296409
 20
-0.959642
  0
VERTEX
  8
PLAN_1
 62
     2
  6
CONTINUOUS
 10
-1.285654
 20
-0.959642
  0
VERTEX
  8
PLAN_1
 62
     2
  6
CONTINUOUS
 10
-1.285654
 20
-0.967323
  0
VERTEX
  8
PLAN_1
 62
     2
  6
CONTINUOUS
 10
-1.296409
 20
-0.967323
  0
SEQEND
  8
0
  0
SOLID
  8
PLAN_1
 62
     2
 10
-1.329181
 20
-0.959642
 11
-1.305626
 21
-0.959642
 12
-1.329181
 22
-0.959642
 13
-1.305626
 23
-0.926358
  0
POLYLINE
  8
PLAN_1
 62
     2
  6
CONTINUOUS
 66
     1
 40
0.003000
 41
0.003000
  0
VERTEX
  8
PLAN_1
 62
     2
  6
CONTINUOUS
 10
-1.329181
 20
-0.959642
  0
VERTEX
  8
PLAN_1
 62
     2
  6
CONTINUOUS
 10
-1.305626
 20
-0.959642
  0
VERTEX
  8
PLAN_1
 62
     2
  6
CONTINUOUS
 10
-1.305626
 20
-0.926358
  0
VERTEX
  8
PLAN_1
 62
     2
  6
CONTINUOUS
 10
-1.329181
 20
-0.959642
  0
SEQEND
  8
0
  0
POLYLINE
  8
PLAN_1
 62
     2
  6
CONTINUOUS
 66
     1
 40
0.003000
 41
0.003000
  0
VERTEX
  8
PLAN_1
 62
     2
  6
CONTINUOUS
 10
-0.328610
 20
-0.741504
  0
VERTEX
  8
PLAN_1
 62
     2
  6
CONTINUOUS
 10
-0.338339
 20
-0.741504
  0
VERTEX
  8
PLAN_1
 62
     2
  6
CONTINUOUS
 10
-0.338339
 20
-0.689783
  0
VERTEX
  8
PLAN_1
 62
     2
  6
CONTINUOUS
 10
-0.355748
 20
-0.689783
  0
VERTEX
  8
PLAN_1
 62
     2
  6
CONTINUOUS
 10
-0.355748
 20
-0.682102
  0
VERTEX
  8
PLAN_1
 62
     2
  6
CONTINUOUS
 10
-0.351142
 20
-0.682102
  0
VERTEX
  8
PLAN_1
 62
     2
  6
CONTINUOUS
 10
-0.348067
 20
-0.681591
  0
VERTEX
  8
PLAN_1
 62
     2
  6
CONTINUOUS
 10
-0.344996
 20
-0.680567
  0
VERTEX
  8
PLAN_1
 62
     2
  6
CONTINUOUS
 10
-0.342437
 20
-0.679543
  0
VERTEX
  8
PLAN_1
 62
     2
  6
CONTINUOUS
 10
-0.340386
 20
-0.678008
  0
VERTEX
  8
PLAN_1
 62
     2
  6
CONTINUOUS
 10
-0.338339
 20
-0.675445
  0
VERTEX
  8
PLAN_1
 62
     2
  6
CONTINUOUS
 10
-0.336803
 20
-0.672374
  0
VERTEX
  8
PLAN_1
 62
     2
  6
CONTINUOUS
 10
-0.335780
 20
-0.668280
  0
VERTEX
  8
PLAN_1
 62
     2
  6
CONTINUOUS
 10
-0.328610
 20
-0.668280
  0
VERTEX
  8
PLAN_1
 62
     2
  6
CONTINUOUS
 10
-0.328610
 20
-0.741504
  0
SEQEND
  8
0
  0
POLYLINE
  8
PLAN_1
 62
     2
  6
CONTINUOUS
 66
     1
 40
0.003000
 41
0.003000
  0
VERTEX
  8
PLAN_1
 62
     2
  6
CONTINUOUS
 10
-0.261020
 20
-0.694906
  0
VERTEX
  8
PLAN_1
 62
     2
  6
CONTINUOUS
 10
-0.261020
 20
-0.730236
  0
VERTEX
  8
PLAN_1
 62
     2
  6
CONTINUOUS
 10
-0.261020
 20
-0.731772
  0
VERTEX
  8
PLAN_1
 62
     2
  6
CONTINUOUS
 10
-0.260504
 20
-0.732799
  0
VERTEX
  8
PLAN_1
 62
     2
  6
CONTINUOUS
 10
-0.259992
 20
-0.733311
  0
VERTEX
  8
PLAN_1
 62
     2
  6
CONTINUOUS
 10
-0.258969
 20
-0.733823
  0
VERTEX
  8
PLAN_1
 62
     2
  6
CONTINUOUS
 10
-0.258457
 20
-0.734335
  0
VERTEX
  8
PLAN_1
 62
     2
  6
CONTINUOUS
 10
-0.257433
 20
-0.734335
  0
VERTEX
  8
PLAN_1
 62
     2
  6
CONTINUOUS
 10
-0.256409
 20
-0.734335
  0
VERTEX
  8
PLAN_1
 62
     2
  6
CONTINUOUS
 10
-0.255898
 20
-0.734335
  0
VERTEX
  8
PLAN_1
 62
     2
  6
CONTINUOUS
 10
-0.252311
 20
-0.734335
  0
VERTEX
  8
PLAN_1
 62
     2
  6
CONTINUOUS
 10
-0.252311
 20
-0.741504
  0
VERTEX
  8
PLAN_1
 62
     2
  6
CONTINUOUS
 10
-0.253850
 20
-0.741504
  0
VERTEX
  8
PLAN_1
 62
     2
  6
CONTINUOUS
 10
-0.254874
 20
-0.742016
  0
VERTEX
  8
PLAN_1
 62
     2
  6
CONTINUOUS
 10
-0.255898
 20
-0.742016
  0
VERTEX
  8
PLAN_1
 62
     2
  6
CONTINUOUS
 10
-0.256921
 20
-0.742016
  0
VERTEX
  8
PLAN_1
 62
     2
  6
CONTINUOUS
 10
-0.257433
 20
-0.742016
  0
VERTEX
  8
PLAN_1
 62
     2
  6
CONTINUOUS
 10
-0.258457
 20
-0.742016
  0
VERTEX
  8
PLAN_1
 62
     2
  6
CONTINUOUS
 10
-0.258969
 20
-0.742016
  0
VERTEX
  8
PLAN_1
 62
     2
  6
CONTINUOUS
 10
-0.259480
 20
-0.742528
  0
VERTEX
  8
PLAN_1
 62
     2
  6
CONTINUOUS
 10
-0.262555
 20
-0.742016
  0
VERTEX
  8
PLAN_1
 62
     2
  6
CONTINUOUS
 10
-0.264602
 20
-0.741504
  0
VERTEX
  8
PLAN_1
 62
     2
  6
CONTINUOUS
 10
-0.266650
 20
-0.740480
  0
VERTEX
  8
PLAN_1
 62
     2
  6
CONTINUOUS
 10
-0.268185
 20
-0.738941
  0
VERTEX
  8
PLAN_1
 62
     2
  6
CONTINUOUS
 10
-0.269213
 20
-0.737406
  0
VERTEX
  8
PLAN_1
 62
     2
  6
CONTINUOUS
 10
-0.269724
 20
-0.735358
  0
VERTEX
  8
PLAN_1
 62
     2
  6
CONTINUOUS
 10
-0.270236
 20
-0.732799
  0
VERTEX
  8
PLAN_1
 62
     2
  6
CONTINUOUS
 10
-0.270236
 20
-0.730748
  0
VERTEX
  8
PLAN_1
 62
     2
  6
CONTINUOUS
 10
-0.270236
 20
-0.694906
  0
VERTEX
  8
PLAN_1
 62
     2
  6
CONTINUOUS
 10
-0.277917
 20
-0.694906
  0
VERTEX
  8
PLAN_1
 62
     2
  6
CONTINUOUS
 10
-0.277917
 20
-0.687224
  0
VERTEX
  8
PLAN_1
 62
     2
  6
CONTINUOUS
 10
-0.270236
 20
-0.687224
  0
VERTEX
  8
PLAN_1
 62
     2
  6
CONTINUOUS
 10
-0.270236
 20
-0.671862
  0
VERTEX
  8
PLAN_1
 62
     2
  6
CONTINUOUS
 10
-0.261020
 20
-0.671862
  0
VERTEX
  8
PLAN_1
 62
     2
  6
CONTINUOUS
 10
-0.261020
 20
-0.687224
  0
VERTEX
  8
PLAN_1
 62
     2
  6
CONTINUOUS
 10
-0.252311
 20
-0.687224
  0
VERTEX
  8
PLAN_1
 62
     2
  6
CONTINUOUS
 10
-0.252311
 20
-0.694906
  0
VERTEX
  8
PLAN_1
 62
     2
  6
CONTINUOUS
 10
-0.261020
 20
-0.694906
  0
SEQEND
  8
0
  0
POLYLINE
  8
PLAN_1
 62
     2
  6
CONTINUOUS
 66
     1
 40
0.003000
 41
0.003000
  0
VERTEX
  8
PLAN_1
 62
     2
  6
CONTINUOUS
 10
-0.232854
 20
-0.741504
  0
VERTEX
  8
PLAN_1
 62
     2
  6
CONTINUOUS
 10
-0.242071
 20
-0.741504
  0
VERTEX
  8
PLAN_1
 62
     2
  6
CONTINUOUS
 10
-0.242071
 20
-0.687224
  0
VERTEX
  8
PLAN_1
 62
     2
  6
CONTINUOUS
 10
-0.233366
 20
-0.687224
  0
VERTEX
  8
PLAN_1
 62
     2
  6
CONTINUOUS
 10
-0.233366
 20
-0.696441
  0
VERTEX
  8
PLAN_1
 62
     2
  6
CONTINUOUS
 10
-0.231831
 20
-0.693882
  0
VERTEX
  8
PLAN_1
 62
     2
  6
CONTINUOUS
 10
-0.230295
 20
-0.691831
  0
VERTEX
  8
PLAN_1
 62
     2
  6
CONTINUOUS
 10
-0.228756
 20
-0.690295
  0
VERTEX
  8
PLAN_1
 62
     2
  6
CONTINUOUS
 10
-0.226709
 20
-0.688760
  0
VERTEX
  8
PLAN_1
 62
     2
  6
CONTINUOUS
 10
-0.225173
 20
-0.687224
  0
VERTEX
  8
PLAN_1
 62
     2
  6
CONTINUOUS
 10
-0.222614
 20
-0.686201
  0
VERTEX
  8
PLAN_1
 62
     2
  6
CONTINUOUS
 10
-0.220563
 20
-0.685689
  0
VERTEX
  8
PLAN_1
 62
     2
  6
CONTINUOUS
 10
-0.218004
 20
-0.685689
  0
VERTEX
  8
PLAN_1
 62
     2
  6
CONTINUOUS
 10
-0.217492
 20
-0.685689
  0
VERTEX
  8
PLAN_1
 62
     2
  6
CONTINUOUS
 10
-0.216980
 20
-0.685689
  0
VERTEX
  8
PLAN_1
 62
     2
  6
CONTINUOUS
 10
-0.216469
 20
-0.685689
  0
VERTEX
  8
PLAN_1
 62
     2
  6
CONTINUOUS
 10
-0.215957
 20
-0.685689
  0
VERTEX
  8
PLAN_1
 62
     2
  6
CONTINUOUS
 10
-0.215445
 20
-0.685689
  0
VERTEX
  8
PLAN_1
 62
     2
  6
CONTINUOUS
 10
-0.215445
 20
-0.695417
  0
VERTEX
  8
PLAN_1
 62
     2
  6
CONTINUOUS
 10
-0.219028
 20
-0.695417
  0
VERTEX
  8
PLAN_1
 62
     2
  6
CONTINUOUS
 10
-0.222102
 20
-0.695417
  0
VERTEX
  8
PLAN_1
 62
     2
  6
CONTINUOUS
 10
-0.224661
 20
-0.696441
  0
VERTEX
  8
PLAN_1
 62
     2
  6
CONTINUOUS
 10
-0.227220
 20
-0.697976
  0
VERTEX
  8
PLAN_1
 62
     2
  6
CONTINUOUS
 10
-0.229272
 20
-0.699512
  0
VERTEX
  8
PLAN_1
 62
     2
  6
CONTINUOUS
 10
-0.230807
 20
-0.702075
  0
VERTEX
  8
PLAN_1
 62
     2
  6
CONTINUOUS
 10
-0.232343
 20
-0.704122
  0
VERTEX
  8
PLAN_1
 62
     2
  6
CONTINUOUS
 10
-0.232854
 20
-0.707193
  0
VERTEX
  8
PLAN_1
 62
     2
  6
CONTINUOUS
 10
-0.232854
 20
-0.709756
  0
VERTEX
  8
PLAN_1
 62
     2
  6
CONTINUOUS
 10
-0.232854
 20
-0.741504
  0
SEQEND
  8
0
  0
POLYLINE
  8
PLAN_1
 62
     2
  6
CONTINUOUS
 66
     1
 40
0.003000
 41
0.003000
  0
VERTEX
  8
PLAN_1
 62
     2
  6
CONTINUOUS
 10
-0.186768
 20
-0.685689
  0
VERTEX
  8
PLAN_1
 62
     2
  6
CONTINUOUS
 10
-0.183697
 20
-0.685689
  0
VERTEX
  8
PLAN_1
 62
     2
  6
CONTINUOUS
 10
-0.180622
 20
-0.686201
  0
VERTEX
  8
PLAN_1
 62
     2
  6
CONTINUOUS
 10
-0.178063
 20
-0.687224
  0
VERTEX
  8
PLAN_1
 62
     2
  6
CONTINUOUS
 10
-0.175504
 20
-0.688248
  0
VERTEX
  8
PLAN_1
 62
     2
  6
CONTINUOUS
 10
-0.172945
 20
-0.689272
  0
VERTEX
  8
PLAN_1
 62
     2
  6
CONTINUOUS
 10
-0.170894
 20
-0.690807
  0
VERTEX
  8
PLAN_1
 62
     2
  6
CONTINUOUS
 10
-0.169358
 20
-0.692858
  0
VERTEX
  8
PLAN_1
 62
     2
  6
CONTINUOUS
 10
-0.167311
 20
-0.694906
  0
VERTEX
  8
PLAN_1
 62
     2
  6
CONTINUOUS
 10
-0.164752
 20
-0.699000
  0
VERTEX
  8
PLAN_1
 62
     2
  6
CONTINUOUS
 10
-0.162701
 20
-0.704122
  0
VERTEX
  8
PLAN_1
 62
     2
  6
CONTINUOUS
 10
-0.161677
 20
-0.709244
  0
VERTEX
  8
PLAN_1
 62
     2
  6
CONTINUOUS
 10
-0.161165
 20
-0.714362
  0
VERTEX
  8
PLAN_1
 62
     2
  6
CONTINUOUS
 10
-0.161677
 20
-0.719484
  0
VERTEX
  8
PLAN_1
 62
     2
  6
CONTINUOUS
 10
-0.162701
 20
-0.724606
  0
VERTEX
  8
PLAN_1
 62
     2
  6
CONTINUOUS
 10
-0.164752
 20
-0.729724
  0
VERTEX
  8
PLAN_1
 62
     2
  6
CONTINUOUS
 10
-0.167311
 20
-0.733823
  0
VERTEX
  8
PLAN_1
 62
     2
  6
CONTINUOUS
 10
-0.169358
 20
-0.735870
  0
VERTEX
  8
PLAN_1
 62
     2
  6
CONTINUOUS
 10
-0.170894
 20
-0.737406
  0
VERTEX
  8
PLAN_1
 62
     2
  6
CONTINUOUS
 10
-0.172945
 20
-0.738941
  0
VERTEX
  8
PLAN_1
 62
     2
  6
CONTINUOUS
 10
-0.175504
 20
-0.740480
  0
VERTEX
  8
PLAN_1
 62
     2
  6
CONTINUOUS
 10
-0.178063
 20
-0.741504
  0
VERTEX
  8
PLAN_1
 62
     2
  6
CONTINUOUS
 10
-0.180622
 20
-0.742528
  0
VERTEX
  8
PLAN_1
 62
     2
  6
CONTINUOUS
 10
-0.183697
 20
-0.743039
  0
VERTEX
  8
PLAN_1
 62
     2
  6
CONTINUOUS
 10
-0.186768
 20
-0.743039
  0
VERTEX
  8
PLAN_1
 62
     2
  6
CONTINUOUS
 10
-0.189843
 20
-0.743039
  0
VERTEX
  8
PLAN_1
 62
     2
  6
CONTINUOUS
 10
-0.192913
 20
-0.742528
  0
VERTEX
  8
PLAN_1
 62
     2
  6
CONTINUOUS
 10
-0.195472
 20
-0.741504
  0
VERTEX
  8
PLAN_1
 62
     2
  6
CONTINUOUS
 10
-0.198035
 20
-0.740480
  0
VERTEX
  8
PLAN_1
 62
     2
  6
CONTINUOUS
 10
-0.200083
 20
-0.738941
  0
VERTEX
  8
PLAN_1
 62
     2
  6
CONTINUOUS
 10
-0.202130
 20
-0.737406
  0
VERTEX
  8
PLAN_1
 62
     2
  6
CONTINUOUS
 10
-0.204177
 20
-0.735870
  0
VERTEX
  8
PLAN_1
 62
     2
  6
CONTINUOUS
 10
-0.205717
 20
-0.733823
  0
VERTEX
  8
PLAN_1
 62
     2
  6
CONTINUOUS
 10
-0.208276
 20
-0.729724
  0
VERTEX
  8
PLAN_1
 62
     2
  6
CONTINUOUS
 10
-0.210323
 20
-0.724606
  0
VERTEX
  8
PLAN_1
 62
     2
  6
CONTINUOUS
 10
-0.211346
 20
-0.719484
  0
VERTEX
  8
PLAN_1
 62
     2
  6
CONTINUOUS
 10
-0.211858
 20
-0.714362
  0
VERTEX
  8
PLAN_1
 62
     2
  6
CONTINUOUS
 10
-0.211346
 20
-0.709244
  0
VERTEX
  8
PLAN_1
 62
     2
  6
CONTINUOUS
 10
-0.210323
 20
-0.704122
  0
VERTEX
  8
PLAN_1
 62
     2
  6
CONTINUOUS
 10
-0.208276
 20
-0.699000
  0
VERTEX
  8
PLAN_1
 62
     2
  6
CONTINUOUS
 10
-0.205717
 20
-0.694906
  0
VERTEX
  8
PLAN_1
 62
     2
  6
CONTINUOUS
 10
-0.204177
 20
-0.692858
  0
VERTEX
  8
PLAN_1
 62
     2
  6
CONTINUOUS
 10
-0.202130
 20
-0.690807
  0
VERTEX
  8
PLAN_1
 62
     2
  6
CONTINUOUS
 10
-0.200083
 20
-0.689272
  0
VERTEX
  8
PLAN_1
 62
     2
  6
CONTINUOUS
 10
-0.198035
 20
-0.688248
  0
VERTEX
  8
PLAN_1
 62
     2
  6
CONTINUOUS
 10
-0.195472
 20
-0.687224
  0
VERTEX
  8
PLAN_1
 62
     2
  6
CONTINUOUS
 10
-0.192913
 20
-0.686201
  0
VERTEX
  8
PLAN_1
 62
     2
  6
CONTINUOUS
 10
-0.189843
 20
-0.685689
  0
VERTEX
  8
PLAN_1
 62
     2
  6
CONTINUOUS
 10
-0.186768
 20
-0.685689
  0
SEQEND
  8
0
  0
POLYLINE
  8
PLAN_1
 62
     2
  6
CONTINUOUS
 66
     1
 40
0.003000
 41
0.003000
  0
VERTEX
  8
PLAN_1
 62
     2
  6
CONTINUOUS
 10
-0.186768
 20
-0.735358
  0
VERTEX
  8
PLAN_1
 62
     2
  6
CONTINUOUS
 10
-0.184209
 20
-0.734846
  0
VERTEX
  8
PLAN_1
 62
     2
  6
CONTINUOUS
 10
-0.182161
 20
-0.734335
  0
VERTEX
  8
PLAN_1
 62
     2
  6
CONTINUOUS
 10
-0.180110
 20
-0.733823
  0
VERTEX
  8
PLAN_1
 62
     2
  6
CONTINUOUS
 10
-0.178575
 20
-0.732799
  0
VERTEX
  8
PLAN_1
 62
     2
  6
CONTINUOUS
 10
-0.176016
 20
-0.730236
  0
VERTEX
  8
PLAN_1
 62
     2
  6
CONTINUOUS
 10
-0.173969
 20
-0.727677
  0
VERTEX
  8
PLAN_1
 62
     2
  6
CONTINUOUS
 10
-0.172429
 20
-0.724091
  0
VERTEX
  8
PLAN_1
 62
     2
  6
CONTINUOUS
 10
-0.171406
 20
-0.720508
  0
VERTEX
  8
PLAN_1
 62
     2
  6
CONTINUOUS
 10
-0.170894
 20
-0.717437
  0
VERTEX
  8
PLAN_1
 62
     2
  6
CONTINUOUS
 10
-0.170894
 20
-0.714362
  0
VERTEX
  8
PLAN_1
 62
     2
  6
CONTINUOUS
 10
-0.170894
 20
-0.711291
  0
VERTEX
  8
PLAN_1
 62
     2
  6
CONTINUOUS
 10
-0.171406
 20
-0.708220
  0
VERTEX
  8
PLAN_1
 62
     2
  6
CONTINUOUS
 10
-0.172429
 20
-0.704634
  0
VERTEX
  8
PLAN_1
 62
     2
  6
CONTINUOUS
 10
-0.173969
 20
-0.701051
  0
VERTEX
  8
PLAN_1
 62
     2
  6
CONTINUOUS
 10
-0.176016
 20
-0.697976
  0
VERTEX
  8
PLAN_1
 62
     2
  6
CONTINUOUS
 10
-0.178575
 20
-0.695929
  0
VERTEX
  8
PLAN_1
 62
     2
  6
CONTINUOUS
 10
-0.180110
 20
-0.694906
  0
VERTEX
  8
PLAN_1
 62
     2
  6
CONTINUOUS
 10
-0.182161
 20
-0.693882
  0
VERTEX
  8
PLAN_1
 62
     2
  6
CONTINUOUS
 10
-0.184209
 20
-0.693882
  0
VERTEX
  8
PLAN_1
 62
     2
  6
CONTINUOUS
 10
-0.186768
 20
-0.693370
  0
VERTEX
  8
PLAN_1
 62
     2
  6
CONTINUOUS
 10
-0.188819
 20
-0.693882
  0
VERTEX
  8
PLAN_1
 62
     2
  6
CONTINUOUS
 10
-0.190866
 20
-0.693882
  0
VERTEX
  8
PLAN_1
 62
     2
  6
CONTINUOUS
 10
-0.192913
 20
-0.694906
  0
VERTEX
  8
PLAN_1
 62
     2
  6
CONTINUOUS
 10
-0.194449
 20
-0.695929
  0
VERTEX
  8
PLAN_1
 62
     2
  6
CONTINUOUS
 10
-0.197524
 20
-0.697976
  0
VERTEX
  8
PLAN_1
 62
     2
  6
CONTINUOUS
 10
-0.199571
 20
-0.701051
  0
VERTEX
  8
PLAN_1
 62
     2
  6
CONTINUOUS
 10
-0.201106
 20
-0.704634
  0
VERTEX
  8
PLAN_1
 62
     2
  6
CONTINUOUS
 10
-0.201618
 20
-0.708220
  0
VERTEX
  8
PLAN_1
 62
     2
  6
CONTINUOUS
 10
-0.202130
 20
-0.711291
  0
VERTEX
  8
PLAN_1
 62
     2
  6
CONTINUOUS
 10
-0.202642
 20
-0.714362
  0
VERTEX
  8
PLAN_1
 62
     2
  6
CONTINUOUS
 10
-0.202130
 20
-0.717437
  0
VERTEX
  8
PLAN_1
 62
     2
  6
CONTINUOUS
 10
-0.201618
 20
-0.720508
  0
VERTEX
  8
PLAN_1
 62
     2
  6
CONTINUOUS
 10
-0.201106
 20
-0.724091
  0
VERTEX
  8
PLAN_1
 62
     2
  6
CONTINUOUS
 10
-0.199571
 20
-0.727677
  0
VERTEX
  8
PLAN_1
 62
     2
  6
CONTINUOUS
 10
-0.197524
 20
-0.730236
  0
VERTEX
  8
PLAN_1
 62
     2
  6
CONTINUOUS
 10
-0.194449
 20
-0.732799
  0
VERTEX
  8
PLAN_1
 62
     2
  6
CONTINUOUS
 10
-0.192913
 20
-0.733823
  0
VERTEX
  8
PLAN_1
 62
     2
  6
CONTINUOUS
 10
-0.190866
 20
-0.734335
  0
VERTEX
  8
PLAN_1
 62
     2
  6
CONTINUOUS
 10
-0.188819
 20
-0.734846
  0
VERTEX
  8
PLAN_1
 62
     2
  6
CONTINUOUS
 10
-0.186768
 20
-0.735358
  0
SEQEND
  8
0
  0
POLYLINE
  8
PLAN_1
 62
     2
  6
CONTINUOUS
 66
     1
 40
0.003000
 41
0.003000
  0
VERTEX
  8
PLAN_1
 62
     2
  6
CONTINUOUS
 10
-0.115591
 20
-0.741504
  0
VERTEX
  8
PLAN_1
 62
     2
  6
CONTINUOUS
 10
-0.115591
 20
-0.733823
  0
VERTEX
  8
PLAN_1
 62
     2
  6
CONTINUOUS
 10
-0.115591
 20
-0.733311
  0
VERTEX
  8
PLAN_1
 62
     2
  6
CONTINUOUS
 10
-0.117130
 20
-0.735870
  0
VERTEX
  8
PLAN_1
 62
     2
  6
CONTINUOUS
 10
-0.118665
 20
-0.737406
  0
VERTEX
  8
PLAN_1
 62
     2
  6
CONTINUOUS
 10
-0.120713
 20
-0.739453
  0
VERTEX
  8
PLAN_1
 62
     2
  6
CONTINUOUS
 10
-0.122248
 20
-0.740480
  0
VERTEX
  8
PLAN_1
 62
     2
  6
CONTINUOUS
 10
-0.124811
 20
-0.741504
  0
VERTEX
  8
PLAN_1
 62
     2
  6
CONTINUOUS
 10
-0.126858
 20
-0.742528
  0
VERTEX
  8
PLAN_1
 62
     2
  6
CONTINUOUS
 10
-0.129929
 20
-0.743039
  0
VERTEX
  8
PLAN_1
 62
     2
  6
CONTINUOUS
 10
-0.133004
 20
-0.743039
  0
VERTEX
  8
PLAN_1
 62
     2
  6
CONTINUOUS
 10
-0.136075
 20
-0.743039
  0
VERTEX
  8
PLAN_1
 62
     2
  6
CONTINUOUS
 10
-0.139146
 20
-0.742528
  0
VERTEX
  8
PLAN_1
 62
     2
  6
CONTINUOUS
 10
-0.142220
 20
-0.740992
  0
VERTEX
  8
PLAN_1
 62
     2
  6
CONTINUOUS
 10
-0.144780
 20
-0.739453
  0
VERTEX
  8
PLAN_1
 62
     2
  6
CONTINUOUS
 10
-0.147339
 20
-0.737406
  0
VERTEX
  8
PLAN_1
 62
     2
  6
CONTINUOUS
 10
-0.148878
 20
-0.734335
  0
VERTEX
  8
PLAN_1
 62
     2
  6
CONTINUOUS
 10
-0.150413
 20
-0.730748
  0
VERTEX
  8
PLAN_1
 62
     2
  6
CONTINUOUS
 10
-0.150413
 20
-0.726142
  0
VERTEX
  8
PLAN_1
 62
     2
  6
CONTINUOUS
 10
-0.150413
 20
-0.687224
  0
VERTEX
  8
PLAN_1
 62
     2
  6
CONTINUOUS
 10
-0.141197
 20
-0.687224
  0
VERTEX
  8
PLAN_1
 62
     2
  6
CONTINUOUS
 10
-0.141197
 20
-0.723067
  0
VERTEX
  8
PLAN_1
 62
     2
  6
CONTINUOUS
 10
-0.141197
 20
-0.726142
  0
VERTEX
  8
PLAN_1
 62
     2
  6
CONTINUOUS
 10
-0.140685
 20
-0.728701
  0
VERTEX
  8
PLAN_1
 62
     2
  6
CONTINUOUS
 10
-0.139657
 20
-0.730748
  0
VERTEX
  8
PLAN_1
 62
     2
  6
CONTINUOUS
 10
-0.138634
 20
-0.732799
  0
VERTEX
  8
PLAN_1
 62
     2
  6
CONTINUOUS
 10
-0.137098
 20
-0.733823
  0
VERTEX
  8
PLAN_1
 62
     2
  6
CONTINUOUS
 10
-0.135051
 20
-0.734846
  0
VERTEX
  8
PLAN_1
 62
     2
  6
CONTINUOUS
 10
-0.133004
 20
-0.734846
  0
VERTEX
  8
PLAN_1
 62
     2
  6
CONTINUOUS
 10
-0.130953
 20
-0.735358
  0
VERTEX
  8
PLAN_1
 62
     2
  6
CONTINUOUS
 10
-0.126858
 20
-0.734846
  0
VERTEX
  8
PLAN_1
 62
     2
  6
CONTINUOUS
 10
-0.123783
 20
-0.733311
  0
VERTEX
  8
PLAN_1
 62
     2
  6
CONTINUOUS
 10
-0.121224
 20
-0.731772
  0
VERTEX
  8
PLAN_1
 62
     2
  6
CONTINUOUS
 10
-0.119177
 20
-0.729213
  0
VERTEX
  8
PLAN_1
 62
     2
  6
CONTINUOUS
 10
-0.117642
 20
-0.726142
  0
VERTEX
  8
PLAN_1
 62
     2
  6
CONTINUOUS
 10
-0.116618
 20
-0.723067
  0
VERTEX
  8
PLAN_1
 62
     2
  6
CONTINUOUS
 10
-0.116102
 20
-0.719996
  0
VERTEX
  8
PLAN_1
 62
     2
  6
CONTINUOUS
 10
-0.116102
 20
-0.716925
  0
VERTEX
  8
PLAN_1
 62
     2
  6
CONTINUOUS
 10
-0.116102
 20
-0.687224
  0
VERTEX
  8
PLAN_1
 62
     2
  6
CONTINUOUS
 10
-0.106886
 20
-0.687224
  0
VERTEX
  8
PLAN_1
 62
     2
  6
CONTINUOUS
 10
-0.106886
 20
-0.741504
  0
VERTEX
  8
PLAN_1
 62
     2
  6
CONTINUOUS
 10
-0.115591
 20
-0.741504
  0
SEQEND
  8
0
  0
POLYLINE
  8
PLAN_1
 62
     2
  6
CONTINUOUS
 66
     1
 40
0.003000
 41
0.003000
  0
VERTEX
  8
PLAN_1
 62
     2
  6
CONTINUOUS
 10
-0.052610
 20
-0.694906
  0
VERTEX
  8
PLAN_1
 62
     2
  6
CONTINUOUS
 10
-0.052610
 20
-0.730236
  0
VERTEX
  8
PLAN_1
 62
     2
  6
CONTINUOUS
 10
-0.052610
 20
-0.731772
  0
VERTEX
  8
PLAN_1
 62
     2
  6
CONTINUOUS
 10
-0.052094
 20
-0.732799
  0
VERTEX
  8
PLAN_1
 62
     2
  6
CONTINUOUS
 10
-0.051583
 20
-0.733311
  0
VERTEX
  8
PLAN_1
 62
     2
  6
CONTINUOUS
 10
-0.050559
 20
-0.733823
  0
VERTEX
  8
PLAN_1
 62
     2
  6
CONTINUOUS
 10
-0.050047
 20
-0.734335
  0
VERTEX
  8
PLAN_1
 62
     2
  6
CONTINUOUS
 10
-0.049024
 20
-0.734335
  0
VERTEX
  8
PLAN_1
 62
     2
  6
CONTINUOUS
 10
-0.048000
 20
-0.734335
  0
VERTEX
  8
PLAN_1
 62
     2
  6
CONTINUOUS
 10
-0.047488
 20
-0.734335
  0
VERTEX
  8
PLAN_1
 62
     2
  6
CONTINUOUS
 10
-0.043902
 20
-0.734335
  0
VERTEX
  8
PLAN_1
 62
     2
  6
CONTINUOUS
 10
-0.043902
 20
-0.741504
  0
VERTEX
  8
PLAN_1
 62
     2
  6
CONTINUOUS
 10
-0.045441
 20
-0.741504
  0
VERTEX
  8
PLAN_1
 62
     2
  6
CONTINUOUS
 10
-0.046465
 20
-0.742016
  0
VERTEX
  8
PLAN_1
 62
     2
  6
CONTINUOUS
 10
-0.047488
 20
-0.742016
  0
VERTEX
  8
PLAN_1
 62
     2
  6
CONTINUOUS
 10
-0.048512
 20
-0.742016
  0
VERTEX
  8
PLAN_1
 62
     2
  6
CONTINUOUS
 10
-0.049024
 20
-0.742016
  0
VERTEX
  8
PLAN_1
 62
     2
  6
CONTINUOUS
 10
-0.050047
 20
-0.742016
  0
VERTEX
  8
PLAN_1
 62
     2
  6
CONTINUOUS
 10
-0.050559
 20
-0.742016
  0
VERTEX
  8
PLAN_1
 62
     2
  6
CONTINUOUS
 10
-0.051071
 20
-0.742528
  0
VERTEX
  8
PLAN_1
 62
     2
  6
CONTINUOUS
 10
-0.054146
 20
-0.742016
  0
VERTEX
  8
PLAN_1
 62
     2
  6
CONTINUOUS
 10
-0.056705
 20
-0.741504
  0
VERTEX
  8
PLAN_1
 62
     2
  6
CONTINUOUS
 10
-0.058240
 20
-0.740480
  0
VERTEX
  8
PLAN_1
 62
     2
  6
CONTINUOUS
 10
-0.059776
 20
-0.738941
  0
VERTEX
  8
PLAN_1
 62
     2
  6
CONTINUOUS
 10
-0.060803
 20
-0.737406
  0
VERTEX
  8
PLAN_1
 62
     2
  6
CONTINUOUS
 10
-0.061315
 20
-0.735358
  0
VERTEX
  8
PLAN_1
 62
     2
  6
CONTINUOUS
 10
-0.061827
 20
-0.732799
  0
VERTEX
  8
PLAN_1
 62
     2
  6
CONTINUOUS
 10
-0.061827
 20
-0.730748
  0
VERTEX
  8
PLAN_1
 62
     2
  6
CONTINUOUS
 10
-0.061827
 20
-0.694906
  0
VERTEX
  8
PLAN_1
 62
     2
  6
CONTINUOUS
 10
-0.069508
 20
-0.694906
  0
VERTEX
  8
PLAN_1
 62
     2
  6
CONTINUOUS
 10
-0.069508
 20
-0.687224
  0
VERTEX
  8
PLAN_1
 62
     2
  6
CONTINUOUS
 10
-0.061827
 20
-0.687224
  0
VERTEX
  8
PLAN_1
 62
     2
  6
CONTINUOUS
 10
-0.061827
 20
-0.671862
  0
VERTEX
  8
PLAN_1
 62
     2
  6
CONTINUOUS
 10
-0.052610
 20
-0.671862
  0
VERTEX
  8
PLAN_1
 62
     2
  6
CONTINUOUS
 10
-0.052610
 20
-0.687224
  0
VERTEX
  8
PLAN_1
 62
     2
  6
CONTINUOUS
 10
-0.043902
 20
-0.687224
  0
VERTEX
  8
PLAN_1
 62
     2
  6
CONTINUOUS
 10
-0.043902
 20
-0.694906
  0
VERTEX
  8
PLAN_1
 62
     2
  6
CONTINUOUS
 10
-0.052610
 20
-0.694906
  0
SEQEND
  8
0
  0
POLYLINE
  8
PLAN_1
 62
     2
  6
CONTINUOUS
 66
     1
 40
0.003000
 41
0.003000
  0
VERTEX
  8
PLAN_1
 62
     2
  6
CONTINUOUS
 10
-0.035197
 20
-0.703610
  0
VERTEX
  8
PLAN_1
 62
     2
  6
CONTINUOUS
 10
-0.034685
 20
-0.699000
  0
VERTEX
  8
PLAN_1
 62
     2
  6
CONTINUOUS
 10
-0.033661
 20
-0.695417
  0
VERTEX
  8
PLAN_1
 62
     2
  6
CONTINUOUS
 10
-0.031614
 20
-0.692346
  0
VERTEX
  8
PLAN_1
 62
     2
  6
CONTINUOUS
 10
-0.029055
 20
-0.689783
  0
VERTEX
  8
PLAN_1
 62
     2
  6
CONTINUOUS
 10
-0.025980
 20
-0.687736
  0
VERTEX
  8
PLAN_1
 62
     2
  6
CONTINUOUS
 10
-0.021886
 20
-0.686713
  0
VERTEX
  8
PLAN_1
 62
     2
  6
CONTINUOUS
 10
-0.017787
 20
-0.685689
  0
VERTEX
  8
PLAN_1
 62
     2
  6
CONTINUOUS
 10
-0.013181
 20
-0.685689
  0
VERTEX
  8
PLAN_1
 62
     2
  6
CONTINUOUS
 10
-0.010618
 20
-0.685689
  0
VERTEX
  8
PLAN_1
 62
     2
  6
CONTINUOUS
 10
-0.008059
 20
-0.686201
  0
VERTEX
  8
PLAN_1
 62
     2
  6
CONTINUOUS
 10
-0.004476
 20
-0.686713
  0
VERTEX
  8
PLAN_1
 62
     2
  6
CONTINUOUS
 10
-0.001402
 20
-0.687736
  0
VERTEX
  8
PLAN_1
 62
     2
  6
CONTINUOUS
 10
0.002181
 20
-0.689783
  0
VERTEX
  8
PLAN_1
 62
     2
  6
CONTINUOUS
 10
0.004744
 20
-0.692346
  0
VERTEX
  8
PLAN_1
 62
     2
  6
CONTINUOUS
 10
0.005768
 20
-0.694394
  0
VERTEX
  8
PLAN_1
 62
     2
  6
CONTINUOUS
 10
0.006280
 20
-0.695929
  0
VERTEX
  8
PLAN_1
 62
     2
  6
CONTINUOUS
 10
0.006791
 20
-0.698488
  0
VERTEX
  8
PLAN_1
 62
     2
  6
CONTINUOUS
 10
0.007303
 20
-0.700539
  0
VERTEX
  8
PLAN_1
 62
     2
  6
CONTINUOUS
 10
0.007303
 20
-0.732287
  0
VERTEX
  8
PLAN_1
 62
     2
  6
CONTINUOUS
 10
0.007303
 20
-0.732799
  0
VERTEX
  8
PLAN_1
 62
     2
  6
CONTINUOUS
 10
0.007303
 20
-0.733311
  0
VERTEX
  8
PLAN_1
 62
     2
  6
CONTINUOUS
 10
0.007815
 20
-0.734335
  0
VERTEX
  8
PLAN_1
 62
     2
  6
CONTINUOUS
 10
0.008327
 20
-0.734846
  0
VERTEX
  8
PLAN_1
 62
     2
  6
CONTINUOUS
 10
0.008839
 20
-0.735358
  0
VERTEX
  8
PLAN_1
 62
     2
  6
CONTINUOUS
 10
0.009350
 20
-0.735358
  0
VERTEX
  8
PLAN_1
 62
     2
  6
CONTINUOUS
 10
0.010374
 20
-0.735358
  0
VERTEX
  8
PLAN_1
 62
     2
  6
CONTINUOUS
 10
0.010886
 20
-0.735358
  0
VERTEX
  8
PLAN_1
 62
     2
  6
CONTINUOUS
 10
0.011398
 20
-0.735358
  0
VERTEX
  8
PLAN_1
 62
     2
  6
CONTINUOUS
 10
0.011913
 20
-0.735358
  0
VERTEX
  8
PLAN_1
 62
     2
  6
CONTINUOUS
 10
0.012425
 20
-0.734846
  0
VERTEX
  8
PLAN_1
 62
     2
  6
CONTINUOUS
 10
0.012937
 20
-0.734846
  0
VERTEX
  8
PLAN_1
 62
     2
  6
CONTINUOUS
 10
0.013449
 20
-0.734846
  0
VERTEX
  8
PLAN_1
 62
     2
  6
CONTINUOUS
 10
0.013449
 20
-0.741504
  0
VERTEX
  8
PLAN_1
 62
     2
  6
CONTINUOUS
 10
0.012425
 20
-0.741504
  0
VERTEX
  8
PLAN_1
 62
     2
  6
CONTINUOUS
 10
0.011913
 20
-0.742016
  0
VERTEX
  8
PLAN_1
 62
     2
  6
CONTINUOUS
 10
0.011398
 20
-0.742016
  0
VERTEX
  8
PLAN_1
 62
     2
  6
CONTINUOUS
 10
0.010886
 20
-0.742016
  0
VERTEX
  8
PLAN_1
 62
     2
  6
CONTINUOUS
 10
0.010374
 20
-0.742528
  0
VERTEX
  8
PLAN_1
 62
     2
  6
CONTINUOUS
 10
0.009862
 20
-0.742528
  0
VERTEX
  8
PLAN_1
 62
     2
  6
CONTINUOUS
 10
0.008839
 20
-0.742528
  0
VERTEX
  8
PLAN_1
 62
     2
  6
CONTINUOUS
 10
0.008327
 20
-0.742528
  0
VERTEX
  8
PLAN_1
 62
     2
  6
CONTINUOUS
 10
0.005256
 20
-0.742528
  0
VERTEX
  8
PLAN_1
 62
     2
  6
CONTINUOUS
 10
0.003205
 20
-0.742016
  0
VERTEX
  8
PLAN_1
 62
     2
  6
CONTINUOUS
 10
0.001669
 20
-0.740992
  0
VERTEX
  8
PLAN_1
 62
     2
  6
CONTINUOUS
 10
0.000646
 20
-0.739965
  0
VERTEX
  8
PLAN_1
 62
     2
  6
CONTINUOUS
 10
-0.000378
 20
-0.738941
  0
VERTEX
  8
PLAN_1
 62
     2
  6
CONTINUOUS
 10
-0.000890
 20
-0.737406
  0
VERTEX
  8
PLAN_1
 62
     2
  6
CONTINUOUS
 10
-0.001402
 20
-0.735870
  0
VERTEX
  8
PLAN_1
 62
     2
  6
CONTINUOUS
 10
-0.001402
 20
-0.734335
  0
VERTEX
  8
PLAN_1
 62
     2
  6
CONTINUOUS
 10
-0.002937
 20
-0.735870
  0
VERTEX
  8
PLAN_1
 62
     2
  6
CONTINUOUS
 10
-0.004476
 20
-0.737406
  0
VERTEX
  8
PLAN_1
 62
     2
  6
CONTINUOUS
 10
-0.006524
 20
-0.738941
  0
VERTEX
  8
PLAN_1
 62
     2
  6
CONTINUOUS
 10
-0.008571
 20
-0.739965
  0
VERTEX
  8
PLAN_1
 62
     2
  6
CONTINUOUS
 10
-0.011130
 20
-0.741504
  0
VERTEX
  8
PLAN_1
 62
     2
  6
CONTINUOUS
 10
-0.014205
 20
-0.742528
  0
VERTEX
  8
PLAN_1
 62
     2
  6
CONTINUOUS
 10
-0.017276
 20
-0.743039
  0
VERTEX
  8
PLAN_1
 62
     2
  6
CONTINUOUS
 10
-0.020862
 20
-0.743039
  0
VERTEX
  8
PLAN_1
 62
     2
  6
CONTINUOUS
 10
-0.024445
 20
-0.743039
  0
VERTEX
  8
PLAN_1
 62
     2
  6
CONTINUOUS
 10
-0.028028
 20
-0.742016
  0
VERTEX
  8
PLAN_1
 62
     2
  6
CONTINUOUS
 10
-0.031102
 20
-0.740480
  0
VERTEX
  8
PLAN_1
 62
     2
  6
CONTINUOUS
 10
-0.033150
 20
-0.738941
  0
VERTEX
  8
PLAN_1
 62
     2
  6
CONTINUOUS
 10
-0.035197
 20
-0.736382
  0
VERTEX
  8
PLAN_1
 62
     2
  6
CONTINUOUS
 10
-0.036736
 20
-0.733823
  0
VERTEX
  8
PLAN_1
 62
     2
  6
CONTINUOUS
 10
-0.037760
 20
-0.730748
  0
VERTEX
  8
PLAN_1
 62
     2
  6
CONTINUOUS
 10
-0.038272
 20
-0.727165
  0
VERTEX
  8
PLAN_1
 62
     2
  6
CONTINUOUS
 10
-0.038272
 20
-0.725630
  0
VERTEX
  8
PLAN_1
 62
     2
  6
CONTINUOUS
 10
-0.037760
 20
-0.723067
  0
VERTEX
  8
PLAN_1
 62
     2
  6
CONTINUOUS
 10
-0.036736
 20
-0.720508
  0
VERTEX
  8
PLAN_1
 62
     2
  6
CONTINUOUS
 10
-0.035709
 20
-0.717949
  0
VERTEX
  8
PLAN_1
 62
     2
  6
CONTINUOUS
 10
-0.033661
 20
-0.715386
  0
VERTEX
  8
PLAN_1
 62
     2
  6
CONTINUOUS
 10
-0.030591
 20
-0.713339
  0
VERTEX
  8
PLAN_1
 62
     2
  6
CONTINUOUS
 10
-0.026492
 20
-0.711291
  0
VERTEX
  8
PLAN_1
 62
     2
  6
CONTINUOUS
 10
-0.021374
 20
-0.710268
  0
VERTEX
  8
PLAN_1
 62
     2
  6
CONTINUOUS
 10
-0.006524
 20
-0.708220
  0
VERTEX
  8
PLAN_1
 62
     2
  6
CONTINUOUS
 10
-0.005500
 20
-0.708220
  0
VERTEX
  8
PLAN_1
 62
     2
  6
CONTINUOUS
 10
-0.004988
 20
-0.708220
  0
VERTEX
  8
PLAN_1
 62
     2
  6
CONTINUOUS
 10
-0.003961
 20
-0.707705
  0
VERTEX
  8
PLAN_1
 62
     2
  6
CONTINUOUS
 10
-0.003449
 20
-0.707193
  0
VERTEX
  8
PLAN_1
 62
     2
  6
CONTINUOUS
 10
-0.002425
 20
-0.706169
  0
VERTEX
  8
PLAN_1
 62
     2
  6
CONTINUOUS
 10
-0.002425
 20
-0.705146
  0
VERTEX
  8
PLAN_1
 62
     2
  6
CONTINUOUS
 10
-0.001913
 20
-0.703610
  0
VERTEX
  8
PLAN_1
 62
     2
  6
CONTINUOUS
 10
-0.001913
 20
-0.702075
  0
VERTEX
  8
PLAN_1
 62
     2
  6
CONTINUOUS
 10
-0.001913
 20
-0.700024
  0
VERTEX
  8
PLAN_1
 62
     2
  6
CONTINUOUS
 10
-0.002425
 20
-0.697976
  0
VERTEX
  8
PLAN_1
 62
     2
  6
CONTINUOUS
 10
-0.003449
 20
-0.696953
  0
VERTEX
  8
PLAN_1
 62
     2
  6
CONTINUOUS
 10
-0.004988
 20
-0.695417
  0
VERTEX
  8
PLAN_1
 62
     2
  6
CONTINUOUS
 10
-0.006524
 20
-0.694394
  0
VERTEX
  8
PLAN_1
 62
     2
  6
CONTINUOUS
 10
-0.009083
 20
-0.693882
  0
VERTEX
  8
PLAN_1
 62
     2
  6
CONTINUOUS
 10
-0.011642
 20
-0.693370
  0
VERTEX
  8
PLAN_1
 62
     2
  6
CONTINUOUS
 10
-0.014717
 20
-0.693370
  0
VERTEX
  8
PLAN_1
 62
     2
  6
CONTINUOUS
 10
-0.017787
 20
-0.693370
  0
VERTEX
  8
PLAN_1
 62
     2
  6
CONTINUOUS
 10
-0.020862
 20
-0.694394
  0
VERTEX
  8
PLAN_1
 62
     2
  6
CONTINUOUS
 10
-0.022909
 20
-0.695417
  0
VERTEX
  8
PLAN_1
 62
     2
  6
CONTINUOUS
 10
-0.024445
 20
-0.696953
  0
VERTEX
  8
PLAN_1
 62
     2
  6
CONTINUOUS
 10
-0.025469
 20
-0.698488
  0
VERTEX
  8
PLAN_1
 62
     2
  6
CONTINUOUS
 10
-0.026492
 20
-0.700539
  0
VERTEX
  8
PLAN_1
 62
     2
  6
CONTINUOUS
 10
-0.026492
 20
-0.702075
  0
VERTEX
  8
PLAN_1
 62
     2
  6
CONTINUOUS
 10
-0.027004
 20
-0.703610
  0
VERTEX
  8
PLAN_1
 62
     2
  6
CONTINUOUS
 10
-0.035197
 20
-0.703610
  0
SEQEND
  8
0
  0
POLYLINE
  8
PLAN_1
 62
     2
  6
CONTINUOUS
 66
     1
 40
0.003000
 41
0.003000
  0
VERTEX
  8
PLAN_1
 62
     2
  6
CONTINUOUS
 10
-0.001913
 20
-0.713850
  0
VERTEX
  8
PLAN_1
 62
     2
  6
CONTINUOUS
 10
-0.002425
 20
-0.714362
  0
VERTEX
  8
PLAN_1
 62
     2
  6
CONTINUOUS
 10
-0.003449
 20
-0.714362
  0
VERTEX
  8
PLAN_1
 62
     2
  6
CONTINUOUS
 10
-0.004476
 20
-0.714874
  0
VERTEX
  8
PLAN_1
 62
     2
  6
CONTINUOUS
 10
-0.006012
 20
-0.715386
  0
VERTEX
  8
PLAN_1
 62
     2
  6
CONTINUOUS
 10
-0.007547
 20
-0.715898
  0
VERTEX
  8
PLAN_1
 62
     2
  6
CONTINUOUS
 10
-0.010106
 20
-0.716413
  0
VERTEX
  8
PLAN_1
 62
     2
  6
CONTINUOUS
 10
-0.013181
 20
-0.716925
  0
VERTEX
  8
PLAN_1
 62
     2
  6
CONTINUOUS
 10
-0.017276
 20
-0.717437
  0
VERTEX
  8
PLAN_1
 62
     2
  6
CONTINUOUS
 10
-0.018811
 20
-0.717437
  0
VERTEX
  8
PLAN_1
 62
     2
  6
CONTINUOUS
 10
-0.020862
 20
-0.717949
  0
VERTEX
  8
PLAN_1
 62
     2
  6
CONTINUOUS
 10
-0.022909
 20
-0.718461
  0
VERTEX
  8
PLAN_1
 62
     2
  6
CONTINUOUS
 10
-0.024445
 20
-0.719484
  0
VERTEX
  8
PLAN_1
 62
     2
  6
CONTINUOUS
 10
-0.025980
 20
-0.720508
  0
VERTEX
  8
PLAN_1
 62
     2
  6
CONTINUOUS
 10
-0.027516
 20
-0.722043
  0
VERTEX
  8
PLAN_1
 62
     2
  6
CONTINUOUS
 10
-0.028543
 20
-0.723579
  0
VERTEX
  8
PLAN_1
 62
     2
  6
CONTINUOUS
 10
-0.028543
 20
-0.726142
  0
VERTEX
  8
PLAN_1
 62
     2
  6
CONTINUOUS
 10
-0.028543
 20
-0.728189
  0
VERTEX
  8
PLAN_1
 62
     2
  6
CONTINUOUS
 10
-0.028028
 20
-0.730236
  0
VERTEX
  8
PLAN_1
 62
     2
  6
CONTINUOUS
 10
-0.027516
 20
-0.731772
  0
VERTEX
  8
PLAN_1
 62
     2
  6
CONTINUOUS
 10
-0.026492
 20
-0.732799
  0
VERTEX
  8
PLAN_1
 62
     2
  6
CONTINUOUS
 10
-0.024957
 20
-0.734335
  0
VERTEX
  8
PLAN_1
 62
     2
  6
CONTINUOUS
 10
-0.023421
 20
-0.734846
  0
VERTEX
  8
PLAN_1
 62
     2
  6
CONTINUOUS
 10
-0.021374
 20
-0.735358
  0
VERTEX
  8
PLAN_1
 62
     2
  6
CONTINUOUS
 10
-0.018811
 20
-0.735358
  0
VERTEX
  8
PLAN_1
 62
     2
  6
CONTINUOUS
 10
-0.015740
 20
-0.735358
  0
VERTEX
  8
PLAN_1
 62
     2
  6
CONTINUOUS
 10
-0.012669
 20
-0.734335
  0
VERTEX
  8
PLAN_1
 62
     2
  6
CONTINUOUS
 10
-0.009594
 20
-0.733311
  0
VERTEX
  8
PLAN_1
 62
     2
  6
CONTINUOUS
 10
-0.007035
 20
-0.731772
  0
VERTEX
  8
PLAN_1
 62
     2
  6
CONTINUOUS
 10
-0.004988
 20
-0.730236
  0
VERTEX
  8
PLAN_1
 62
     2
  6
CONTINUOUS
 10
-0.003449
 20
-0.727677
  0
VERTEX
  8
PLAN_1
 62
     2
  6
CONTINUOUS
 10
-0.002425
 20
-0.725118
  0
VERTEX
  8
PLAN_1
 62
     2
  6
CONTINUOUS
 10
-0.001913
 20
-0.722555
  0
VERTEX
  8
PLAN_1
 62
     2
  6
CONTINUOUS
 10
-0.001913
 20
-0.713850
  0
SEQEND
  8
0
  0
POLYLINE
  8
PLAN_1
 62
     2
  6
CONTINUOUS
 66
     1
 40
0.003000
 41
0.003000
  0
VERTEX
  8
PLAN_1
 62
     2
  6
CONTINUOUS
 10
0.033417
 20
-0.741504
  0
VERTEX
  8
PLAN_1
 62
     2
  6
CONTINUOUS
 10
0.024201
 20
-0.741504
  0
VERTEX
  8
PLAN_1
 62
     2
  6
CONTINUOUS
 10
0.024201
 20
-0.687224
  0
VERTEX
  8
PLAN_1
 62
     2
  6
CONTINUOUS
 10
0.032394
 20
-0.687224
  0
VERTEX
  8
PLAN_1
 62
     2
  6
CONTINUOUS
 10
0.032394
 20
-0.696441
  0
VERTEX
  8
PLAN_1
 62
     2
  6
CONTINUOUS
 10
0.032906
 20
-0.696441
  0
VERTEX
  8
PLAN_1
 62
     2
  6
CONTINUOUS
 10
0.034441
 20
-0.693882
  0
VERTEX
  8
PLAN_1
 62
     2
  6
CONTINUOUS
 10
0.035980
 20
-0.691831
  0
VERTEX
  8
PLAN_1
 62
     2
  6
CONTINUOUS
 10
0.037516
 20
-0.690295
  0
VERTEX
  8
PLAN_1
 62
     2
  6
CONTINUOUS
 10
0.039051
 20
-0.688760
  0
VERTEX
  8
PLAN_1
 62
     2
  6
CONTINUOUS
 10
0.041098
 20
-0.687224
  0
VERTEX
  8
PLAN_1
 62
     2
  6
CONTINUOUS
 10
0.043146
 20
-0.686201
  0
VERTEX
  8
PLAN_1
 62
     2
  6
CONTINUOUS
 10
0.045709
 20
-0.685689
  0
VERTEX
  8
PLAN_1
 62
     2
  6
CONTINUOUS
 10
0.048268
 20
-0.685689
  0
VERTEX
  8
PLAN_1
 62
     2
  6
CONTINUOUS
 10
0.048780
 20
-0.685689
  0
VERTEX
  8
PLAN_1
 62
     2
  6
CONTINUOUS
 10
0.049291
 20
-0.685689
  0
VERTEX
  8
PLAN_1
 62
     2
  6
CONTINUOUS
 10
0.049803
 20
-0.685689
  0
VERTEX
  8
PLAN_1
 62
     2
  6
CONTINUOUS
 10
0.050315
 20
-0.685689
  0
VERTEX
  8
PLAN_1
 62
     2
  6
CONTINUOUS
 10
0.050315
 20
-0.695417
  0
VERTEX
  8
PLAN_1
 62
     2
  6
CONTINUOUS
 10
0.047244
 20
-0.695417
  0
VERTEX
  8
PLAN_1
 62
     2
  6
CONTINUOUS
 10
0.044173
 20
-0.695417
  0
VERTEX
  8
PLAN_1
 62
     2
  6
CONTINUOUS
 10
0.041098
 20
-0.696441
  0
VERTEX
  8
PLAN_1
 62
     2
  6
CONTINUOUS
 10
0.039051
 20
-0.697976
  0
VERTEX
  8
PLAN_1
 62
     2
  6
CONTINUOUS
 10
0.037004
 20
-0.699512
  0
VERTEX
  8
PLAN_1
 62
     2
  6
CONTINUOUS
 10
0.035465
 20
-0.702075
  0
VERTEX
  8
PLAN_1
 62
     2
  6
CONTINUOUS
 10
0.033929
 20
-0.704122
  0
VERTEX
  8
PLAN_1
 62
     2
  6
CONTINUOUS
 10
0.033417
 20
-0.707193
  0
VERTEX
  8
PLAN_1
 62
     2
  6
CONTINUOUS
 10
0.033417
 20
-0.709756
  0
VERTEX
  8
PLAN_1
 62
     2
  6
CONTINUOUS
 10
0.033417
 20
-0.741504
  0
SEQEND
  8
0
  0
POLYLINE
  8
PLAN_1
 62
     2
  6
CONTINUOUS
 66
     1
 40
0.003000
 41
0.003000
  0
VERTEX
  8
PLAN_1
 62
     2
  6
CONTINUOUS
 10
0.055949
 20
-0.703610
  0
VERTEX
  8
PLAN_1
 62
     2
  6
CONTINUOUS
 10
0.056461
 20
-0.699000
  0
VERTEX
  8
PLAN_1
 62
     2
  6
CONTINUOUS
 10
0.057996
 20
-0.695417
  0
VERTEX
  8
PLAN_1
 62
     2
  6
CONTINUOUS
 10
0.060047
 20
-0.692346
  0
VERTEX
  8
PLAN_1
 62
     2
  6
CONTINUOUS
 10
0.062606
 20
-0.689783
  0
VERTEX
  8
PLAN_1
 62
     2
  6
CONTINUOUS
 10
0.065677
 20
-0.687736
  0
VERTEX
  8
PLAN_1
 62
     2
  6
CONTINUOUS
 10
0.069264
 20
-0.686713
  0
VERTEX
  8
PLAN_1
 62
     2
  6
CONTINUOUS
 10
0.073870
 20
-0.685689
  0
VERTEX
  8
PLAN_1
 62
     2
  6
CONTINUOUS
 10
0.078480
 20
-0.685689
  0
VERTEX
  8
PLAN_1
 62
     2
  6
CONTINUOUS
 10
0.080528
 20
-0.685689
  0
VERTEX
  8
PLAN_1
 62
     2
  6
CONTINUOUS
 10
0.083598
 20
-0.686201
  0
VERTEX
  8
PLAN_1
 62
     2
  6
CONTINUOUS
 10
0.086673
 20
-0.686713
  0
VERTEX
  8
PLAN_1
 62
     2
  6
CONTINUOUS
 10
0.090256
 20
-0.687736
  0
VERTEX
  8
PLAN_1
 62
     2
  6
CONTINUOUS
 10
0.093331
 20
-0.689783
  0
VERTEX
  8
PLAN_1
 62
     2
  6
CONTINUOUS
 10
0.096402
 20
-0.692346
  0
VERTEX
  8
PLAN_1
 62
     2
  6
CONTINUOUS
 10
0.097425
 20
-0.694394
  0
VERTEX
  8
PLAN_1
 62
     2
  6
CONTINUOUS
 10
0.097937
 20
-0.695929
  0
VERTEX
  8
PLAN_1
 62
     2
  6
CONTINUOUS
 10
0.098449
 20
-0.698488
  0
VERTEX
  8
PLAN_1
 62
     2
  6
CONTINUOUS
 10
0.098961
 20
-0.700539
  0
VERTEX
  8
PLAN_1
 62
     2
  6
CONTINUOUS
 10
0.098961
 20
-0.732287
  0
VERTEX
  8
PLAN_1
 62
     2
  6
CONTINUOUS
 10
0.098961
 20
-0.732799
  0
VERTEX
  8
PLAN_1
 62
     2
  6
CONTINUOUS
 10
0.098961
 20
-0.733311
  0
VERTEX
  8
PLAN_1
 62
     2
  6
CONTINUOUS
 10
0.098961
 20
-0.734335
  0
VERTEX
  8
PLAN_1
 62
     2
  6
CONTINUOUS
 10
0.099472
 20
-0.734335
  0
VERTEX
  8
PLAN_1
 62
     2
  6
CONTINUOUS
 10
0.099988
 20
-0.734846
  0
VERTEX
  8
PLAN_1
 62
     2
  6
CONTINUOUS
 10
0.100500
 20
-0.735358
  0
VERTEX
  8
PLAN_1
 62
     2
  6
CONTINUOUS
 10
0.101012
 20
-0.735358
  0
VERTEX
  8
PLAN_1
 62
     2
  6
CONTINUOUS
 10
0.101524
 20
-0.735358
  0
VERTEX
  8
PLAN_1
 62
     2
  6
CONTINUOUS
 10
0.102035
 20
-0.735358
  0
VERTEX
  8
PLAN_1
 62
     2
  6
CONTINUOUS
 10
0.102547
 20
-0.735358
  0
VERTEX
  8
PLAN_1
 62
     2
  6
CONTINUOUS
 10
0.103059
 20
-0.735358
  0
VERTEX
  8
PLAN_1
 62
     2
  6
CONTINUOUS
 10
0.103571
 20
-0.735358
  0
VERTEX
  8
PLAN_1
 62
     2
  6
CONTINUOUS
 10
0.104083
 20
-0.734846
  0
VERTEX
  8
PLAN_1
 62
     2
  6
CONTINUOUS
 10
0.104594
 20
-0.734846
  0
VERTEX
  8
PLAN_1
 62
     2
  6
CONTINUOUS
 10
0.104594
 20
-0.741504
  0
VERTEX
  8
PLAN_1
 62
     2
  6
CONTINUOUS
 10
0.104083
 20
-0.741504
  0
VERTEX
  8
PLAN_1
 62
     2
  6
CONTINUOUS
 10
0.103571
 20
-0.742016
  0
VERTEX
  8
PLAN_1
 62
     2
  6
CONTINUOUS
 10
0.103059
 20
-0.742016
  0
VERTEX
  8
PLAN_1
 62
     2
  6
CONTINUOUS
 10
0.102547
 20
-0.742016
  0
VERTEX
  8
PLAN_1
 62
     2
  6
CONTINUOUS
 10
0.102035
 20
-0.742528
  0
VERTEX
  8
PLAN_1
 62
     2
  6
CONTINUOUS
 10
0.101012
 20
-0.742528
  0
VERTEX
  8
PLAN_1
 62
     2
  6
CONTINUOUS
 10
0.100500
 20
-0.742528
  0
VERTEX
  8
PLAN_1
 62
     2
  6
CONTINUOUS
 10
0.099988
 20
-0.742528
  0
VERTEX
  8
PLAN_1
 62
     2
  6
CONTINUOUS
 10
0.096913
 20
-0.742528
  0
VERTEX
  8
PLAN_1
 62
     2
  6
CONTINUOUS
 10
0.094866
 20
-0.742016
  0
VERTEX
  8
PLAN_1
 62
     2
  6
CONTINUOUS
 10
0.093331
 20
-0.740992
  0
VERTEX
  8
PLAN_1
 62
     2
  6
CONTINUOUS
 10
0.091791
 20
-0.739965
  0
VERTEX
  8
PLAN_1
 62
     2
  6
CONTINUOUS
 10
0.091280
 20
-0.738941
  0
VERTEX
  8
PLAN_1
 62
     2
  6
CONTINUOUS
 10
0.090768
 20
-0.737406
  0
VERTEX
  8
PLAN_1
 62
     2
  6
CONTINUOUS
 10
0.090256
 20
-0.735870
  0
VERTEX
  8
PLAN_1
 62
     2
  6
CONTINUOUS
 10
0.090256
 20
-0.734335
  0
VERTEX
  8
PLAN_1
 62
     2
  6
CONTINUOUS
 10
0.088720
 20
-0.735870
  0
VERTEX
  8
PLAN_1
 62
     2
  6
CONTINUOUS
 10
0.087185
 20
-0.737406
  0
VERTEX
  8
PLAN_1
 62
     2
  6
CONTINUOUS
 10
0.085138
 20
-0.738941
  0
VERTEX
  8
PLAN_1
 62
     2
  6
CONTINUOUS
 10
0.083087
 20
-0.739965
  0
VERTEX
  8
PLAN_1
 62
     2
  6
CONTINUOUS
 10
0.080528
 20
-0.741504
  0
VERTEX
  8
PLAN_1
 62
     2
  6
CONTINUOUS
 10
0.077457
 20
-0.742528
  0
VERTEX
  8
PLAN_1
 62
     2
  6
CONTINUOUS
 10
0.074382
 20
-0.743039
  0
VERTEX
  8
PLAN_1
 62
     2
  6
CONTINUOUS
 10
0.070287
 20
-0.743039
  0
VERTEX
  8
PLAN_1
 62
     2
  6
CONTINUOUS
 10
0.066701
 20
-0.743039
  0
VERTEX
  8
PLAN_1
 62
     2
  6
CONTINUOUS
 10
0.063630
 20
-0.742016
  0
VERTEX
  8
PLAN_1
 62
     2
  6
CONTINUOUS
 10
0.060559
 20
-0.740480
  0
VERTEX
  8
PLAN_1
 62
     2
  6
CONTINUOUS
 10
0.057996
 20
-0.738941
  0
VERTEX
  8
PLAN_1
 62
     2
  6
CONTINUOUS
 10
0.055949
 20
-0.736382
  0
VERTEX
  8
PLAN_1
 62
     2
  6
CONTINUOUS
 10
0.054413
 20
-0.733823
  0
VERTEX
  8
PLAN_1
 62
     2
  6
CONTINUOUS
 10
0.053902
 20
-0.730748
  0
VERTEX
  8
PLAN_1
 62
     2
  6
CONTINUOUS
 10
0.053390
 20
-0.727165
  0
VERTEX
  8
PLAN_1
 62
     2
  6
CONTINUOUS
 10
0.053390
 20
-0.725630
  0
VERTEX
  8
PLAN_1
 62
     2
  6
CONTINUOUS
 10
0.053902
 20
-0.723067
  0
VERTEX
  8
PLAN_1
 62
     2
  6
CONTINUOUS
 10
0.054413
 20
-0.720508
  0
VERTEX
  8
PLAN_1
 62
     2
  6
CONTINUOUS
 10
0.055949
 20
-0.717949
  0
VERTEX
  8
PLAN_1
 62
     2
  6
CONTINUOUS
 10
0.057996
 20
-0.715386
  0
VERTEX
  8
PLAN_1
 62
     2
  6
CONTINUOUS
 10
0.061071
 20
-0.713339
  0
VERTEX
  8
PLAN_1
 62
     2
  6
CONTINUOUS
 10
0.064654
 20
-0.711291
  0
VERTEX
  8
PLAN_1
 62
     2
  6
CONTINUOUS
 10
0.069776
 20
-0.710268
  0
VERTEX
  8
PLAN_1
 62
     2
  6
CONTINUOUS
 10
0.085138
 20
-0.708220
  0
VERTEX
  8
PLAN_1
 62
     2
  6
CONTINUOUS
 10
0.085650
 20
-0.708220
  0
VERTEX
  8
PLAN_1
 62
     2
  6
CONTINUOUS
 10
0.086673
 20
-0.708220
  0
VERTEX
  8
PLAN_1
 62
     2
  6
CONTINUOUS
 10
0.087697
 20
-0.707705
  0
VERTEX
  8
PLAN_1
 62
     2
  6
CONTINUOUS
 10
0.088209
 20
-0.707193
  0
VERTEX
  8
PLAN_1
 62
     2
  6
CONTINUOUS
 10
0.088720
 20
-0.706169
  0
VERTEX
  8
PLAN_1
 62
     2
  6
CONTINUOUS
 10
0.089232
 20
-0.705146
  0
VERTEX
  8
PLAN_1
 62
     2
  6
CONTINUOUS
 10
0.089744
 20
-0.703610
  0
VERTEX
  8
PLAN_1
 62
     2
  6
CONTINUOUS
 10
0.089744
 20
-0.702075
  0
VERTEX
  8
PLAN_1
 62
     2
  6
CONTINUOUS
 10
0.089744
 20
-0.700024
  0
VERTEX
  8
PLAN_1
 62
     2
  6
CONTINUOUS
 10
0.089232
 20
-0.697976
  0
VERTEX
  8
PLAN_1
 62
     2
  6
CONTINUOUS
 10
0.088209
 20
-0.696953
  0
VERTEX
  8
PLAN_1
 62
     2
  6
CONTINUOUS
 10
0.086673
 20
-0.695417
  0
VERTEX
  8
PLAN_1
 62
     2
  6
CONTINUOUS
 10
0.084626
 20
-0.694394
  0
VERTEX
  8
PLAN_1
 62
     2
  6
CONTINUOUS
 10
0.082575
 20
-0.693882
  0
VERTEX
  8
PLAN_1
 62
     2
  6
CONTINUOUS
 10
0.080016
 20
-0.693370
  0
VERTEX
  8
PLAN_1
 62
     2
  6
CONTINUOUS
 10
0.076945
 20
-0.693370
  0
VERTEX
  8
PLAN_1
 62
     2
  6
CONTINUOUS
 10
0.073358
 20
-0.693370
  0
VERTEX
  8
PLAN_1
 62
     2
  6
CONTINUOUS
 10
0.070799
 20
-0.694394
  0
VERTEX
  8
PLAN_1
 62
     2
  6
CONTINUOUS
 10
0.068752
 20
-0.695417
  0
VERTEX
  8
PLAN_1
 62
     2
  6
CONTINUOUS
 10
0.067213
 20
-0.696953
  0
VERTEX
  8
PLAN_1
 62
     2
  6
CONTINUOUS
 10
0.066189
 20
-0.698488
  0
VERTEX
  8
PLAN_1
 62
     2
  6
CONTINUOUS
 10
0.065165
 20
-0.700539
  0
VERTEX
  8
PLAN_1
 62
     2
  6
CONTINUOUS
 10
0.064654
 20
-0.702075
  0
VERTEX
  8
PLAN_1
 62
     2
  6
CONTINUOUS
 10
0.064654
 20
-0.703610
  0
VERTEX
  8
PLAN_1
 62
     2
  6
CONTINUOUS
 10
0.055949
 20
-0.703610
  0
SEQEND
  8
0
  0
POLYLINE
  8
PLAN_1
 62
     2
  6
CONTINUOUS
 66
     1
 40
0.003000
 41
0.003000
  0
VERTEX
  8
PLAN_1
 62
     2
  6
CONTINUOUS
 10
0.089744
 20
-0.713850
  0
VERTEX
  8
PLAN_1
 62
     2
  6
CONTINUOUS
 10
0.089232
 20
-0.714362
  0
VERTEX
  8
PLAN_1
 62
     2
  6
CONTINUOUS
 10
0.088209
 20
-0.714362
  0
VERTEX
  8
PLAN_1
 62
     2
  6
CONTINUOUS
 10
0.087185
 20
-0.714874
  0
VERTEX
  8
PLAN_1
 62
     2
  6
CONTINUOUS
 10
0.085650
 20
-0.715386
  0
VERTEX
  8
PLAN_1
 62
     2
  6
CONTINUOUS
 10
0.084114
 20
-0.715898
  0
VERTEX
  8
PLAN_1
 62
     2
  6
CONTINUOUS
 10
0.081551
 20
-0.716413
  0
VERTEX
  8
PLAN_1
 62
     2
  6
CONTINUOUS
 10
0.078480
 20
-0.716925
  0
VERTEX
  8
PLAN_1
 62
     2
  6
CONTINUOUS
 10
0.074382
 20
-0.717437
  0
VERTEX
  8
PLAN_1
 62
     2
  6
CONTINUOUS
 10
0.072846
 20
-0.717437
  0
VERTEX
  8
PLAN_1
 62
     2
  6
CONTINUOUS
 10
0.070799
 20
-0.717949
  0
VERTEX
  8
PLAN_1
 62
     2
  6
CONTINUOUS
 10
0.068752
 20
-0.718461
  0
VERTEX
  8
PLAN_1
 62
     2
  6
CONTINUOUS
 10
0.067213
 20
-0.719484
  0
VERTEX
  8
PLAN_1
 62
     2
  6
CONTINUOUS
 10
0.065165
 20
-0.720508
  0
VERTEX
  8
PLAN_1
 62
     2
  6
CONTINUOUS
 10
0.064142
 20
-0.722043
  0
VERTEX
  8
PLAN_1
 62
     2
  6
CONTINUOUS
 10
0.063118
 20
-0.723579
  0
VERTEX
  8
PLAN_1
 62
     2
  6
CONTINUOUS
 10
0.062606
 20
-0.726142
  0
VERTEX
  8
PLAN_1
 62
     2
  6
CONTINUOUS
 10
0.063118
 20
-0.728189
  0
VERTEX
  8
PLAN_1
 62
     2
  6
CONTINUOUS
 10
0.063630
 20
-0.730236
  0
VERTEX
  8
PLAN_1
 62
     2
  6
CONTINUOUS
 10
0.064142
 20
-0.731772
  0
VERTEX
  8
PLAN_1
 62
     2
  6
CONTINUOUS
 10
0.065165
 20
-0.732799
  0
VERTEX
  8
PLAN_1
 62
     2
  6
CONTINUOUS
 10
0.066701
 20
-0.734335
  0
VERTEX
  8
PLAN_1
 62
     2
  6
CONTINUOUS
 10
0.068240
 20
-0.734846
  0
VERTEX
  8
PLAN_1
 62
     2
  6
CONTINUOUS
 10
0.070287
 20
-0.735358
  0
VERTEX
  8
PLAN_1
 62
     2
  6
CONTINUOUS
 10
0.072846
 20
-0.735358
  0
VERTEX
  8
PLAN_1
 62
     2
  6
CONTINUOUS
 10
0.075921
 20
-0.735358
  0
VERTEX
  8
PLAN_1
 62
     2
  6
CONTINUOUS
 10
0.078992
 20
-0.734335
  0
VERTEX
  8
PLAN_1
 62
     2
  6
CONTINUOUS
 10
0.082063
 20
-0.733311
  0
VERTEX
  8
PLAN_1
 62
     2
  6
CONTINUOUS
 10
0.084114
 20
-0.731772
  0
VERTEX
  8
PLAN_1
 62
     2
  6
CONTINUOUS
 10
0.086673
 20
-0.730236
  0
VERTEX
  8
PLAN_1
 62
     2
  6
CONTINUOUS
 10
0.088209
 20
-0.727677
  0
VERTEX
  8
PLAN_1
 62
     2
  6
CONTINUOUS
 10
0.089232
 20
-0.725118
  0
VERTEX
  8
PLAN_1
 62
     2
  6
CONTINUOUS
 10
0.089744
 20
-0.722555
  0
VERTEX
  8
PLAN_1
 62
     2
  6
CONTINUOUS
 10
0.089744
 20
-0.713850
  0
SEQEND
  8
0
  0
POLYLINE
  8
PLAN_1
 62
     2
  6
CONTINUOUS
 66
     1
 40
0.003000
 41
0.003000
  0
VERTEX
  8
PLAN_1
 62
     2
  6
CONTINUOUS
 10
0.149657
 20
-0.741504
  0
VERTEX
  8
PLAN_1
 62
     2
  6
CONTINUOUS
 10
0.149657
 20
-0.733823
  0
VERTEX
  8
PLAN_1
 62
     2
  6
CONTINUOUS
 10
0.149657
 20
-0.733311
  0
VERTEX
  8
PLAN_1
 62
     2
  6
CONTINUOUS
 10
0.148122
 20
-0.735870
  0
VERTEX
  8
PLAN_1
 62
     2
  6
CONTINUOUS
 10
0.146583
 20
-0.737406
  0
VERTEX
  8
PLAN_1
 62
     2
  6
CONTINUOUS
 10
0.144535
 20
-0.739453
  0
VERTEX
  8
PLAN_1
 62
     2
  6
CONTINUOUS
 10
0.143000
 20
-0.740480
  0
VERTEX
  8
PLAN_1
 62
     2
  6
CONTINUOUS
 10
0.140441
 20
-0.741504
  0
VERTEX
  8
PLAN_1
 62
     2
  6
CONTINUOUS
 10
0.138390
 20
-0.742528
  0
VERTEX
  8
PLAN_1
 62
     2
  6
CONTINUOUS
 10
0.135319
 20
-0.743039
  0
VERTEX
  8
PLAN_1
 62
     2
  6
CONTINUOUS
 10
0.132248
 20
-0.743039
  0
VERTEX
  8
PLAN_1
 62
     2
  6
CONTINUOUS
 10
0.129173
 20
-0.743039
  0
VERTEX
  8
PLAN_1
 62
     2
  6
CONTINUOUS
 10
0.126102
 20
-0.742528
  0
VERTEX
  8
PLAN_1
 62
     2
  6
CONTINUOUS
 10
0.123028
 20
-0.740992
  0
VERTEX
  8
PLAN_1
 62
     2
  6
CONTINUOUS
 10
0.120469
 20
-0.739453
  0
VERTEX
  8
PLAN_1
 62
     2
  6
CONTINUOUS
 10
0.117909
 20
-0.737406
  0
VERTEX
  8
PLAN_1
 62
     2
  6
CONTINUOUS
 10
0.116374
 20
-0.734335
  0
VERTEX
  8
PLAN_1
 62
     2
  6
CONTINUOUS
 10
0.114835
 20
-0.730748
  0
VERTEX
  8
PLAN_1
 62
     2
  6
CONTINUOUS
 10
0.114835
 20
-0.726142
  0
VERTEX
  8
PLAN_1
 62
     2
  6
CONTINUOUS
 10
0.114835
 20
-0.687224
  0
VERTEX
  8
PLAN_1
 62
     2
  6
CONTINUOUS
 10
0.123539
 20
-0.687224
  0
VERTEX
  8
PLAN_1
 62
     2
  6
CONTINUOUS
 10
0.123539
 20
-0.723067
  0
VERTEX
  8
PLAN_1
 62
     2
  6
CONTINUOUS
 10
0.124055
 20
-0.726142
  0
VERTEX
  8
PLAN_1
 62
     2
  6
CONTINUOUS
 10
0.124567
 20
-0.728701
  0
VERTEX
  8
PLAN_1
 62
     2
  6
CONTINUOUS
 10
0.125591
 20
-0.730748
  0
VERTEX
  8
PLAN_1
 62
     2
  6
CONTINUOUS
 10
0.126614
 20
-0.732799
  0
VERTEX
  8
PLAN_1
 62
     2
  6
CONTINUOUS
 10
0.128150
 20
-0.733823
  0
VERTEX
  8
PLAN_1
 62
     2
  6
CONTINUOUS
 10
0.130197
 20
-0.734846
  0
VERTEX
  8
PLAN_1
 62
     2
  6
CONTINUOUS
 10
0.132248
 20
-0.734846
  0
VERTEX
  8
PLAN_1
 62
     2
  6
CONTINUOUS
 10
0.134295
 20
-0.735358
  0
VERTEX
  8
PLAN_1
 62
     2
  6
CONTINUOUS
 10
0.138390
 20
-0.734846
  0
VERTEX
  8
PLAN_1
 62
     2
  6
CONTINUOUS
 10
0.141465
 20
-0.733311
  0
VERTEX
  8
PLAN_1
 62
     2
  6
CONTINUOUS
 10
0.144024
 20
-0.731772
  0
VERTEX
  8
PLAN_1
 62
     2
  6
CONTINUOUS
 10
0.146071
 20
-0.729213
  0
VERTEX
  8
PLAN_1
 62
     2
  6
CONTINUOUS
 10
0.147606
 20
-0.726142
  0
VERTEX
  8
PLAN_1
 62
     2
  6
CONTINUOUS
 10
0.148634
 20
-0.723067
  0
VERTEX
  8
PLAN_1
 62
     2
  6
CONTINUOUS
 10
0.149146
 20
-0.719996
  0
VERTEX
  8
PLAN_1
 62
     2
  6
CONTINUOUS
 10
0.149146
 20
-0.716925
  0
VERTEX
  8
PLAN_1
 62
     2
  6
CONTINUOUS
 10
0.149146
 20
-0.687224
  0
VERTEX
  8
PLAN_1
 62
     2
  6
CONTINUOUS
 10
0.158362
 20
-0.687224
  0
VERTEX
  8
PLAN_1
 62
     2
  6
CONTINUOUS
 10
0.158362
 20
-0.741504
  0
VERTEX
  8
PLAN_1
 62
     2
  6
CONTINUOUS
 10
0.149657
 20
-0.741504
  0
SEQEND
  8
0
  0
POLYLINE
  8
PLAN_1
 62
     2
  6
CONTINUOUS
 66
     1
 40
0.003000
 41
0.003000
  0
VERTEX
  8
PLAN_1
 62
     2
  6
CONTINUOUS
 10
0.217248
 20
-0.741504
  0
VERTEX
  8
PLAN_1
 62
     2
  6
CONTINUOUS
 10
0.208543
 20
-0.741504
  0
VERTEX
  8
PLAN_1
 62
     2
  6
CONTINUOUS
 10
0.208543
 20
-0.733823
  0
VERTEX
  8
PLAN_1
 62
     2
  6
CONTINUOUS
 10
0.207008
 20
-0.736382
  0
VERTEX
  8
PLAN_1
 62
     2
  6
CONTINUOUS
 10
0.204961
 20
-0.738429
  0
VERTEX
  8
PLAN_1
 62
     2
  6
CONTINUOUS
 10
0.203421
 20
-0.739965
  0
VERTEX
  8
PLAN_1
 62
     2
  6
CONTINUOUS
 10
0.201374
 20
-0.741504
  0
VERTEX
  8
PLAN_1
 62
     2
  6
CONTINUOUS
 10
0.199327
 20
-0.742016
  0
VERTEX
  8
PLAN_1
 62
     2
  6
CONTINUOUS
 10
0.197280
 20
-0.742528
  0
VERTEX
  8
PLAN_1
 62
     2
  6
CONTINUOUS
 10
0.195228
 20
-0.743039
  0
VERTEX
  8
PLAN_1
 62
     2
  6
CONTINUOUS
 10
0.193181
 20
-0.743039
  0
VERTEX
  8
PLAN_1
 62
     2
  6
CONTINUOUS
 10
0.189598
 20
-0.743039
  0
VERTEX
  8
PLAN_1
 62
     2
  6
CONTINUOUS
 10
0.186524
 20
-0.742528
  0
VERTEX
  8
PLAN_1
 62
     2
  6
CONTINUOUS
 10
0.183965
 20
-0.741504
  0
VERTEX
  8
PLAN_1
 62
     2
  6
CONTINUOUS
 10
0.181406
 20
-0.739965
  0
VERTEX
  8
PLAN_1
 62
     2
  6
CONTINUOUS
 10
0.179354
 20
-0.738941
  0
VERTEX
  8
PLAN_1
 62
     2
  6
CONTINUOUS
 10
0.177307
 20
-0.736894
  0
VERTEX
  8
PLAN_1
 62
     2
  6
CONTINUOUS
 10
0.175772
 20
-0.734846
  0
VERTEX
  8
PLAN_1
 62
     2
  6
CONTINUOUS
 10
0.174236
 20
-0.732799
  0
VERTEX
  8
PLAN_1
 62
     2
  6
CONTINUOUS
 10
0.171673
 20
-0.728189
  0
VERTEX
  8
PLAN_1
 62
     2
  6
CONTINUOUS
 10
0.170138
 20
-0.723067
  0
VERTEX
  8
PLAN_1
 62
     2
  6
CONTINUOUS
 10
0.169114
 20
-0.717949
  0
VERTEX
  8
PLAN_1
 62
     2
  6
CONTINUOUS
 10
0.169114
 20
-0.712827
  0
VERTEX
  8
PLAN_1
 62
     2
  6
CONTINUOUS
 10
0.169626
 20
-0.707193
  0
VERTEX
  8
PLAN_1
 62
     2
  6
CONTINUOUS
 10
0.170650
 20
-0.702075
  0
VERTEX
  8
PLAN_1
 62
     2
  6
CONTINUOUS
 10
0.172189
 20
-0.697465
  0
VERTEX
  8
PLAN_1
 62
     2
  6
CONTINUOUS
 10
0.174748
 20
-0.693370
  0
VERTEX
  8
PLAN_1
 62
     2
  6
CONTINUOUS
 10
0.176283
 20
-0.691831
  0
VERTEX
  8
PLAN_1
 62
     2
  6
CONTINUOUS
 10
0.178331
 20
-0.690295
  0
VERTEX
  8
PLAN_1
 62
     2
  6
CONTINUOUS
 10
0.179866
 20
-0.688760
  0
VERTEX
  8
PLAN_1
 62
     2
  6
CONTINUOUS
 10
0.181917
 20
-0.687736
  0
VERTEX
  8
PLAN_1
 62
     2
  6
CONTINUOUS
 10
0.184476
 20
-0.686713
  0
VERTEX
  8
PLAN_1
 62
     2
  6
CONTINUOUS
 10
0.186524
 20
-0.686201
  0
VERTEX
  8
PLAN_1
 62
     2
  6
CONTINUOUS
 10
0.189087
 20
-0.685689
  0
VERTEX
  8
PLAN_1
 62
     2
  6
CONTINUOUS
 10
0.191646
 20
-0.685689
  0
VERTEX
  8
PLAN_1
 62
     2
  6
CONTINUOUS
 10
0.195228
 20
-0.685689
  0
VERTEX
  8
PLAN_1
 62
     2
  6
CONTINUOUS
 10
0.198303
 20
-0.686713
  0
VERTEX
  8
PLAN_1
 62
     2
  6
CONTINUOUS
 10
0.200862
 20
-0.687736
  0
VERTEX
  8
PLAN_1
 62
     2
  6
CONTINUOUS
 10
0.202909
 20
-0.689272
  0
VERTEX
  8
PLAN_1
 62
     2
  6
CONTINUOUS
 10
0.204449
 20
-0.690295
  0
VERTEX
  8
PLAN_1
 62
     2
  6
CONTINUOUS
 10
0.205984
 20
-0.691831
  0
VERTEX
  8
PLAN_1
 62
     2
  6
CONTINUOUS
 10
0.207008
 20
-0.693370
  0
VERTEX
  8
PLAN_1
 62
     2
  6
CONTINUOUS
 10
0.208031
 20
-0.694906
  0
VERTEX
  8
PLAN_1
 62
     2
  6
CONTINUOUS
 10
0.208031
 20
-0.693882
  0
VERTEX
  8
PLAN_1
 62
     2
  6
CONTINUOUS
 10
0.208031
 20
-0.666740
  0
VERTEX
  8
PLAN_1
 62
     2
  6
CONTINUOUS
 10
0.217248
 20
-0.666740
  0
VERTEX
  8
PLAN_1
 62
     2
  6
CONTINUOUS
 10
0.217248
 20
-0.741504
  0
SEQEND
  8
0
  0
POLYLINE
  8
PLAN_1
 62
     2
  6
CONTINUOUS
 66
     1
 40
0.003000
 41
0.003000
  0
VERTEX
  8
PLAN_1
 62
     2
  6
CONTINUOUS
 10
0.193181
 20
-0.735358
  0
VERTEX
  8
PLAN_1
 62
     2
  6
CONTINUOUS
 10
0.195740
 20
-0.734846
  0
VERTEX
  8
PLAN_1
 62
     2
  6
CONTINUOUS
 10
0.197791
 20
-0.734335
  0
VERTEX
  8
PLAN_1
 62
     2
  6
CONTINUOUS
 10
0.200350
 20
-0.733311
  0
VERTEX
  8
PLAN_1
 62
     2
  6
CONTINUOUS
 10
0.202909
 20
-0.731260
  0
VERTEX
  8
PLAN_1
 62
     2
  6
CONTINUOUS
 10
0.204961
 20
-0.729213
  0
VERTEX
  8
PLAN_1
 62
     2
  6
CONTINUOUS
 10
0.206496
 20
-0.725630
  0
VERTEX
  8
PLAN_1
 62
     2
  6
CONTINUOUS
 10
0.207520
 20
-0.722043
  0
VERTEX
  8
PLAN_1
 62
     2
  6
CONTINUOUS
 10
0.208031
 20
-0.716925
  0
VERTEX
  8
PLAN_1
 62
     2
  6
CONTINUOUS
 10
0.208031
 20
-0.713339
  0
VERTEX
  8
PLAN_1
 62
     2
  6
CONTINUOUS
 10
0.207520
 20
-0.709756
  0
VERTEX
  8
PLAN_1
 62
     2
  6
CONTINUOUS
 10
0.207008
 20
-0.705657
  0
VERTEX
  8
PLAN_1
 62
     2
  6
CONTINUOUS
 10
0.205472
 20
-0.702075
  0
VERTEX
  8
PLAN_1
 62
     2
  6
CONTINUOUS
 10
0.203933
 20
-0.699000
  0
VERTEX
  8
PLAN_1
 62
     2
  6
CONTINUOUS
 10
0.201374
 20
-0.695929
  0
VERTEX
  8
PLAN_1
 62
     2
  6
CONTINUOUS
 10
0.199839
 20
-0.695417
  0
VERTEX
  8
PLAN_1
 62
     2
  6
CONTINUOUS
 10
0.197791
 20
-0.694394
  0
VERTEX
  8
PLAN_1
 62
     2
  6
CONTINUOUS
 10
0.195740
 20
-0.693882
  0
VERTEX
  8
PLAN_1
 62
     2
  6
CONTINUOUS
 10
0.193181
 20
-0.693882
  0
VERTEX
  8
PLAN_1
 62
     2
  6
CONTINUOUS
 10
0.191134
 20
-0.693882
  0
VERTEX
  8
PLAN_1
 62
     2
  6
CONTINUOUS
 10
0.188575
 20
-0.694394
  0
VERTEX
  8
PLAN_1
 62
     2
  6
CONTINUOUS
 10
0.187035
 20
-0.694906
  0
VERTEX
  8
PLAN_1
 62
     2
  6
CONTINUOUS
 10
0.184988
 20
-0.695929
  0
VERTEX
  8
PLAN_1
 62
     2
  6
CONTINUOUS
 10
0.182429
 20
-0.698488
  0
VERTEX
  8
PLAN_1
 62
     2
  6
CONTINUOUS
 10
0.180894
 20
-0.701563
  0
VERTEX
  8
PLAN_1
 62
     2
  6
CONTINUOUS
 10
0.179354
 20
-0.704634
  0
VERTEX
  8
PLAN_1
 62
     2
  6
CONTINUOUS
 10
0.178843
 20
-0.708220
  0
VERTEX
  8
PLAN_1
 62
     2
  6
CONTINUOUS
 10
0.178843
 20
-0.711291
  0
VERTEX
  8
PLAN_1
 62
     2
  6
CONTINUOUS
 10
0.178331
 20
-0.714362
  0
VERTEX
  8
PLAN_1
 62
     2
  6
CONTINUOUS
 10
0.178843
 20
-0.718461
  0
VERTEX
  8
PLAN_1
 62
     2
  6
CONTINUOUS
 10
0.179354
 20
-0.722555
  0
VERTEX
  8
PLAN_1
 62
     2
  6
CONTINUOUS
 10
0.180382
 20
-0.726142
  0
VERTEX
  8
PLAN_1
 62
     2
  6
CONTINUOUS
 10
0.181917
 20
-0.729213
  0
VERTEX
  8
PLAN_1
 62
     2
  6
CONTINUOUS
 10
0.183965
 20
-0.731772
  0
VERTEX
  8
PLAN_1
 62
     2
  6
CONTINUOUS
 10
0.186524
 20
-0.733823
  0
VERTEX
  8
PLAN_1
 62
     2
  6
CONTINUOUS
 10
0.189598
 20
-0.734846
  0
VERTEX
  8
PLAN_1
 62
     2
  6
CONTINUOUS
 10
0.193181
 20
-0.735358
  0
SEQEND
  8
0
  0
SOLID
  8
PLAN_1
 62
     2
 10
0.254630
 20
-0.680055
 11
0.247461
 21
-0.680055
 12
0.267941
 22
-0.665205
 13
0.257189
 23
-0.665205
  0
POLYLINE
  8
PLAN_1
 62
     2
  6
CONTINUOUS
 66
     1
 40
0.003000
 41
0.003000
  0
VERTEX
  8
PLAN_1
 62
     2
  6
CONTINUOUS
 10
0.254630
 20
-0.680055
  0
VERTEX
  8
PLAN_1
 62
     2
  6
CONTINUOUS
 10
0.247461
 20
-0.680055
  0
VERTEX
  8
PLAN_1
 62
     2
  6
CONTINUOUS
 10
0.257189
 20
-0.665205
  0
VERTEX
  8
PLAN_1
 62
     2
  6
CONTINUOUS
 10
0.267941
 20
-0.665205
  0
VERTEX
  8
PLAN_1
 62
     2
  6
CONTINUOUS
 10
0.254630
 20
-0.680055
  0
SEQEND
  8
0
  0
POLYLINE
  8
PLAN_1
 62
     2
  6
CONTINUOUS
 66
     1
 40
0.003000
 41
0.003000
  0
VERTEX
  8
PLAN_1
 62
     2
  6
CONTINUOUS
 10
0.276134
 20
-0.724606
  0
VERTEX
  8
PLAN_1
 62
     2
  6
CONTINUOUS
 10
0.276134
 20
-0.725630
  0
VERTEX
  8
PLAN_1
 62
     2
  6
CONTINUOUS
 10
0.275622
 20
-0.727165
  0
VERTEX
  8
PLAN_1
 62
     2
  6
CONTINUOUS
 10
0.275110
 20
-0.729213
  0
VERTEX
  8
PLAN_1
 62
     2
  6
CONTINUOUS
 10
0.274087
 20
-0.731260
  0
VERTEX
  8
PLAN_1
 62
     2
  6
CONTINUOUS
 10
0.272551
 20
-0.733311
  0
VERTEX
  8
PLAN_1
 62
     2
  6
CONTINUOUS
 10
0.271016
 20
-0.735358
  0
VERTEX
  8
PLAN_1
 62
     2
  6
CONTINUOUS
 10
0.268969
 20
-0.737406
  0
VERTEX
  8
PLAN_1
 62
     2
  6
CONTINUOUS
 10
0.266406
 20
-0.739453
  0
VERTEX
  8
PLAN_1
 62
     2
  6
CONTINUOUS
 10
0.265382
 20
-0.739965
  0
VERTEX
  8
PLAN_1
 62
     2
  6
CONTINUOUS
 10
0.264358
 20
-0.740480
  0
VERTEX
  8
PLAN_1
 62
     2
  6
CONTINUOUS
 10
0.263335
 20
-0.741504
  0
VERTEX
  8
PLAN_1
 62
     2
  6
CONTINUOUS
 10
0.261799
 20
-0.742016
  0
VERTEX
  8
PLAN_1
 62
     2
  6
CONTINUOUS
 10
0.259748
 20
-0.742528
  0
VERTEX
  8
PLAN_1
 62
     2
  6
CONTINUOUS
 10
0.257701
 20
-0.742528
  0
VERTEX
  8
PLAN_1
 62
     2
  6
CONTINUOUS
 10
0.255142
 20
-0.743039
  0
VERTEX
  8
PLAN_1
 62
     2
  6
CONTINUOUS
 10
0.252067
 20
-0.743039
  0
VERTEX
  8
PLAN_1
 62
     2
  6
CONTINUOUS
 10
0.248996
 20
-0.743039
  0
VERTEX
  8
PLAN_1
 62
     2
  6
CONTINUOUS
 10
0.246437
 20
-0.742528
  0
VERTEX
  8
PLAN_1
 62
     2
  6
CONTINUOUS
 10
0.243874
 20
-0.742016
  0
VERTEX
  8
PLAN_1
 62
     2
  6
CONTINUOUS
 10
0.241827
 20
-0.740992
  0
VERTEX
  8
PLAN_1
 62
     2
  6
CONTINUOUS
 10
0.239268
 20
-0.739965
  0
VERTEX
  8
PLAN_1
 62
     2
  6
CONTINUOUS
 10
0.237220
 20
-0.738429
  0
VERTEX
  8
PLAN_1
 62
     2
  6
CONTINUOUS
 10
0.235681
 20
-0.736894
  0
VERTEX
  8
PLAN_1
 62
     2
  6
CONTINUOUS
 10
0.234146
 20
-0.735358
  0
VERTEX
  8
PLAN_1
 62
     2
  6
CONTINUOUS
 10
0.231075
 20
-0.731260
  0
VERTEX
  8
PLAN_1
 62
     2
  6
CONTINUOUS
 10
0.229028
 20
-0.726654
  0
VERTEX
  8
PLAN_1
 62
     2
  6
CONTINUOUS
 10
0.228000
 20
-0.721531
  0
VERTEX
  8
PLAN_1
 62
     2
  6
CONTINUOUS
 10
0.227488
 20
-0.715898
  0
VERTEX
  8
PLAN_1
 62
     2
  6
CONTINUOUS
 10
0.228000
 20
-0.709756
  0
VERTEX
  8
PLAN_1
 62
     2
  6
CONTINUOUS
 10
0.229028
 20
-0.704122
  0
VERTEX
  8
PLAN_1
 62
     2
  6
CONTINUOUS
 10
0.230051
 20
-0.701563
  0
VERTEX
  8
PLAN_1
 62
     2
  6
CONTINUOUS
 10
0.231075
 20
-0.699000
  0
VERTEX
  8
PLAN_1
 62
     2
  6
CONTINUOUS
 10
0.232098
 20
-0.696441
  0
VERTEX
  8
PLAN_1
 62
     2
  6
CONTINUOUS
 10
0.233634
 20
-0.694394
  0
VERTEX
  8
PLAN_1
 62
     2
  6
CONTINUOUS
 10
0.235681
 20
-0.692346
  0
VERTEX
  8
PLAN_1
 62
     2
  6
CONTINUOUS
 10
0.237220
 20
-0.690807
  0
VERTEX
  8
PLAN_1
 62
     2
  6
CONTINUOUS
 10
0.239780
 20
-0.689272
  0
VERTEX
  8
PLAN_1
 62
     2
  6
CONTINUOUS
 10
0.241827
 20
-0.687736
  0
VERTEX
  8
PLAN_1
 62
     2
  6
CONTINUOUS
 10
0.244390
 20
-0.686713
  0
VERTEX
  8
PLAN_1
 62
     2
  6
CONTINUOUS
 10
0.247461
 20
-0.686201
  0
VERTEX
  8
PLAN_1
 62
     2
  6
CONTINUOUS
 10
0.250531
 20
-0.685689
  0
VERTEX
  8
PLAN_1
 62
     2
  6
CONTINUOUS
 10
0.253606
 20
-0.685689
  0
VERTEX
  8
PLAN_1
 62
     2
  6
CONTINUOUS
 10
0.256677
 20
-0.685689
  0
VERTEX
  8
PLAN_1
 62
     2
  6
CONTINUOUS
 10
0.259236
 20
-0.686201
  0
VERTEX
  8
PLAN_1
 62
     2
  6
CONTINUOUS
 10
0.261799
 20
-0.686713
  0
VERTEX
  8
PLAN_1
 62
     2
  6
CONTINUOUS
 10
0.263846
 20
-0.687736
  0
VERTEX
  8
PLAN_1
 62
     2
  6
CONTINUOUS
 10
0.265894
 20
-0.689272
  0
VERTEX
  8
PLAN_1
 62
     2
  6
CONTINUOUS
 10
0.267941
 20
-0.690807
  0
VERTEX
  8
PLAN_1
 62
     2
  6
CONTINUOUS
 10
0.269480
 20
-0.692346
  0
VERTEX
  8
PLAN_1
 62
     2
  6
CONTINUOUS
 10
0.271016
 20
-0.694394
  0
VERTEX
  8
PLAN_1
 62
     2
  6
CONTINUOUS
 10
0.273575
 20
-0.699000
  0
VERTEX
  8
PLAN_1
 62
     2
  6
CONTINUOUS
 10
0.275622
 20
-0.704122
  0
VERTEX
  8
PLAN_1
 62
     2
  6
CONTINUOUS
 10
0.276650
 20
-0.710268
  0
VERTEX
  8
PLAN_1
 62
     2
  6
CONTINUOUS
 10
0.277161
 20
-0.717437
  0
VERTEX
  8
PLAN_1
 62
     2
  6
CONTINUOUS
 10
0.237220
 20
-0.717437
  0
VERTEX
  8
PLAN_1
 62
     2
  6
CONTINUOUS
 10
0.237732
 20
-0.721531
  0
VERTEX
  8
PLAN_1
 62
     2
  6
CONTINUOUS
 10
0.238244
 20
-0.725118
  0
VERTEX
  8
PLAN_1
 62
     2
  6
CONTINUOUS
 10
0.239268
 20
-0.728189
  0
VERTEX
  8
PLAN_1
 62
     2
  6
CONTINUOUS
 10
0.241315
 20
-0.730748
  0
VERTEX
  8
PLAN_1
 62
     2
  6
CONTINUOUS
 10
0.243362
 20
-0.732287
  0
VERTEX
  8
PLAN_1
 62
     2
  6
CONTINUOUS
 10
0.246437
 20
-0.733823
  0
VERTEX
  8
PLAN_1
 62
     2
  6
CONTINUOUS
 10
0.249508
 20
-0.734846
  0
VERTEX
  8
PLAN_1
 62
     2
  6
CONTINUOUS
 10
0.253094
 20
-0.735358
  0
VERTEX
  8
PLAN_1
 62
     2
  6
CONTINUOUS
 10
0.256165
 20
-0.734846
  0
VERTEX
  8
PLAN_1
 62
     2
  6
CONTINUOUS
 10
0.258724
 20
-0.734335
  0
VERTEX
  8
PLAN_1
 62
     2
  6
CONTINUOUS
 10
0.261287
 20
-0.732799
  0
VERTEX
  8
PLAN_1
 62
     2
  6
CONTINUOUS
 10
0.263335
 20
-0.731260
  0
VERTEX
  8
PLAN_1
 62
     2
  6
CONTINUOUS
 10
0.264870
 20
-0.729724
  0
VERTEX
  8
PLAN_1
 62
     2
  6
CONTINUOUS
 10
0.265894
 20
-0.727677
  0
VERTEX
  8
PLAN_1
 62
     2
  6
CONTINUOUS
 10
0.266917
 20
-0.726142
  0
VERTEX
  8
PLAN_1
 62
     2
  6
CONTINUOUS
 10
0.266917
 20
-0.724606
  0
VERTEX
  8
PLAN_1
 62
     2
  6
CONTINUOUS
 10
0.276134
 20
-0.724606
  0
SEQEND
  8
0
  0
POLYLINE
  8
PLAN_1
 62
     2
  6
CONTINUOUS
 66
     1
 40
0.003000
 41
0.003000
  0
VERTEX
  8
PLAN_1
 62
     2
  6
CONTINUOUS
 10
0.267429
 20
-0.710268
  0
VERTEX
  8
PLAN_1
 62
     2
  6
CONTINUOUS
 10
0.267429
 20
-0.706681
  0
VERTEX
  8
PLAN_1
 62
     2
  6
CONTINUOUS
 10
0.266406
 20
-0.704122
  0
VERTEX
  8
PLAN_1
 62
     2
  6
CONTINUOUS
 10
0.265382
 20
-0.701051
  0
VERTEX
  8
PLAN_1
 62
     2
  6
CONTINUOUS
 10
0.263846
 20
-0.699000
  0
VERTEX
  8
PLAN_1
 62
     2
  6
CONTINUOUS
 10
0.261799
 20
-0.696953
  0
VERTEX
  8
PLAN_1
 62
     2
  6
CONTINUOUS
 10
0.259236
 20
-0.694906
  0
VERTEX
  8
PLAN_1
 62
     2
  6
CONTINUOUS
 10
0.256165
 20
-0.694394
  0
VERTEX
  8
PLAN_1
 62
     2
  6
CONTINUOUS
 10
0.252583
 20
-0.693882
  0
VERTEX
  8
PLAN_1
 62
     2
  6
CONTINUOUS
 10
0.249508
 20
-0.694394
  0
VERTEX
  8
PLAN_1
 62
     2
  6
CONTINUOUS
 10
0.246437
 20
-0.694906
  0
VERTEX
  8
PLAN_1
 62
     2
  6
CONTINUOUS
 10
0.243874
 20
-0.696953
  0
VERTEX
  8
PLAN_1
 62
     2
  6
CONTINUOUS
 10
0.241827
 20
-0.699000
  0
VERTEX
  8
PLAN_1
 62
     2
  6
CONTINUOUS
 10
0.239780
 20
-0.701051
  0
VERTEX
  8
PLAN_1
 62
     2
  6
CONTINUOUS
 10
0.238244
 20
-0.704122
  0
VERTEX
  8
PLAN_1
 62
     2
  6
CONTINUOUS
 10
0.237732
 20
-0.706681
  0
VERTEX
  8
PLAN_1
 62
     2
  6
CONTINUOUS
 10
0.237220
 20
-0.710268
  0
VERTEX
  8
PLAN_1
 62
     2
  6
CONTINUOUS
 10
0.267429
 20
-0.710268
  0
SEQEND
  8
0
  0
POLYLINE
  8
PLAN_1
 62
     2
  6
CONTINUOUS
 66
     1
 40
0.003000
 41
0.003000
  0
VERTEX
  8
PLAN_1
 62
     2
  6
CONTINUOUS
 10
0.316075
 20
-0.687224
  0
VERTEX
  8
PLAN_1
 62
     2
  6
CONTINUOUS
 10
0.324783
 20
-0.687224
  0
VERTEX
  8
PLAN_1
 62
     2
  6
CONTINUOUS
 10
0.324783
 20
-0.694906
  0
VERTEX
  8
PLAN_1
 62
     2
  6
CONTINUOUS
 10
0.325295
 20
-0.694906
  0
VERTEX
  8
PLAN_1
 62
     2
  6
CONTINUOUS
 10
0.325807
 20
-0.693370
  0
VERTEX
  8
PLAN_1
 62
     2
  6
CONTINUOUS
 10
0.327343
 20
-0.691831
  0
VERTEX
  8
PLAN_1
 62
     2
  6
CONTINUOUS
 10
0.328366
 20
-0.690295
  0
VERTEX
  8
PLAN_1
 62
     2
  6
CONTINUOUS
 10
0.330413
 20
-0.689272
  0
VERTEX
  8
PLAN_1
 62
     2
  6
CONTINUOUS
 10
0.332465
 20
-0.687736
  0
VERTEX
  8
PLAN_1
 62
     2
  6
CONTINUOUS
 10
0.335024
 20
-0.686713
  0
VERTEX
  8
PLAN_1
 62
     2
  6
CONTINUOUS
 10
0.337583
 20
-0.685689
  0
VERTEX
  8
PLAN_1
 62
     2
  6
CONTINUOUS
 10
0.341169
 20
-0.685689
  0
VERTEX
  8
PLAN_1
 62
     2
  6
CONTINUOUS
 10
0.343728
 20
-0.685689
  0
VERTEX
  8
PLAN_1
 62
     2
  6
CONTINUOUS
 10
0.346287
 20
-0.686201
  0
VERTEX
  8
PLAN_1
 62
     2
  6
CONTINUOUS
 10
0.348850
 20
-0.686713
  0
VERTEX
  8
PLAN_1
 62
     2
  6
CONTINUOUS
 10
0.350898
 20
-0.687736
  0
VERTEX
  8
PLAN_1
 62
     2
  6
CONTINUOUS
 10
0.352945
 20
-0.688760
  0
VERTEX
  8
PLAN_1
 62
     2
  6
CONTINUOUS
 10
0.354992
 20
-0.690295
  0
VERTEX
  8
PLAN_1
 62
     2
  6
CONTINUOUS
 10
0.356531
 20
-0.691831
  0
VERTEX
  8
PLAN_1
 62
     2
  6
CONTINUOUS
 10
0.358067
 20
-0.693370
  0
VERTEX
  8
PLAN_1
 62
     2
  6
CONTINUOUS
 10
0.360626
 20
-0.697465
  0
VERTEX
  8
PLAN_1
 62
     2
  6
CONTINUOUS
 10
0.362673
 20
-0.702075
  0
VERTEX
  8
PLAN_1
 62
     2
  6
CONTINUOUS
 10
0.363697
 20
-0.707193
  0
VERTEX
  8
PLAN_1
 62
     2
  6
CONTINUOUS
 10
0.364209
 20
-0.712827
  0
VERTEX
  8
PLAN_1
 62
     2
  6
CONTINUOUS
 10
0.363697
 20
-0.717949
  0
VERTEX
  8
PLAN_1
 62
     2
  6
CONTINUOUS
 10
0.362673
 20
-0.723067
  0
VERTEX
  8
PLAN_1
 62
     2
  6
CONTINUOUS
 10
0.361138
 20
-0.728189
  0
VERTEX
  8
PLAN_1
 62
     2
  6
CONTINUOUS
 10
0.359091
 20
-0.732799
  0
VERTEX
  8
PLAN_1
 62
     2
  6
CONTINUOUS
 10
0.357555
 20
-0.734846
  0
VERTEX
  8
PLAN_1
 62
     2
  6
CONTINUOUS
 10
0.355504
 20
-0.736894
  0
VERTEX
  8
PLAN_1
 62
     2
  6
CONTINUOUS
 10
0.353969
 20
-0.738941
  0
VERTEX
  8
PLAN_1
 62
     2
  6
CONTINUOUS
 10
0.351409
 20
-0.739965
  0
VERTEX
  8
PLAN_1
 62
     2
  6
CONTINUOUS
 10
0.349362
 20
-0.741504
  0
VERTEX
  8
PLAN_1
 62
     2
  6
CONTINUOUS
 10
0.346287
 20
-0.742528
  0
VERTEX
  8
PLAN_1
 62
     2
  6
CONTINUOUS
 10
0.343217
 20
-0.743039
  0
VERTEX
  8
PLAN_1
 62
     2
  6
CONTINUOUS
 10
0.340142
 20
-0.743039
  0
VERTEX
  8
PLAN_1
 62
     2
  6
CONTINUOUS
 10
0.337583
 20
-0.743039
  0
VERTEX
  8
PLAN_1
 62
     2
  6
CONTINUOUS
 10
0.335024
 20
-0.742528
  0
VERTEX
  8
PLAN_1
 62
     2
  6
CONTINUOUS
 10
0.332976
 20
-0.742016
  0
VERTEX
  8
PLAN_1
 62
     2
  6
CONTINUOUS
 10
0.330925
 20
-0.740992
  0
VERTEX
  8
PLAN_1
 62
     2
  6
CONTINUOUS
 10
0.329390
 20
-0.739965
  0
VERTEX
  8
PLAN_1
 62
     2
  6
CONTINUOUS
 10
0.327854
 20
-0.738429
  0
VERTEX
  8
PLAN_1
 62
     2
  6
CONTINUOUS
 10
0.326831
 20
-0.737406
  0
VERTEX
  8
PLAN_1
 62
     2
  6
CONTINUOUS
 10
0.325807
 20
-0.735870
  0
VERTEX
  8
PLAN_1
 62
     2
  6
CONTINUOUS
 10
0.325295
 20
-0.735870
  0
VERTEX
  8
PLAN_1
 62
     2
  6
CONTINUOUS
 10
0.325295
 20
-0.763008
  0
VERTEX
  8
PLAN_1
 62
     2
  6
CONTINUOUS
 10
0.316075
 20
-0.763008
  0
VERTEX
  8
PLAN_1
 62
     2
  6
CONTINUOUS
 10
0.316075
 20
-0.687224
  0
SEQEND
  8
0
  0
POLYLINE
  8
PLAN_1
 62
     2
  6
CONTINUOUS
 66
     1
 40
0.003000
 41
0.003000
  0
VERTEX
  8
PLAN_1
 62
     2
  6
CONTINUOUS
 10
0.339630
 20
-0.735358
  0
VERTEX
  8
PLAN_1
 62
     2
  6
CONTINUOUS
 10
0.343217
 20
-0.734846
  0
VERTEX
  8
PLAN_1
 62
     2
  6
CONTINUOUS
 10
0.346287
 20
-0.733823
  0
VERTEX
  8
PLAN_1
 62
     2
  6
CONTINUOUS
 10
0.348850
 20
-0.731772
  0
VERTEX
  8
PLAN_1
 62
     2
  6
CONTINUOUS
 10
0.350898
 20
-0.729213
  0
VERTEX
  8
PLAN_1
 62
     2
  6
CONTINUOUS
 10
0.352433
 20
-0.726142
  0
VERTEX
  8
PLAN_1
 62
     2
  6
CONTINUOUS
 10
0.353457
 20
-0.722555
  0
VERTEX
  8
PLAN_1
 62
     2
  6
CONTINUOUS
 10
0.354480
 20
-0.718461
  0
VERTEX
  8
PLAN_1
 62
     2
  6
CONTINUOUS
 10
0.354480
 20
-0.714362
  0
VERTEX
  8
PLAN_1
 62
     2
  6
CONTINUOUS
 10
0.354480
 20
-0.711291
  0
VERTEX
  8
PLAN_1
 62
     2
  6
CONTINUOUS
 10
0.353969
 20
-0.708220
  0
VERTEX
  8
PLAN_1
 62
     2
  6
CONTINUOUS
 10
0.353457
 20
-0.704634
  0
VERTEX
  8
PLAN_1
 62
     2
  6
CONTINUOUS
 10
0.352433
 20
-0.701563
  0
VERTEX
  8
PLAN_1
 62
     2
  6
CONTINUOUS
 10
0.350386
 20
-0.698488
  0
VERTEX
  8
PLAN_1
 62
     2
  6
CONTINUOUS
 10
0.347823
 20
-0.695929
  0
VERTEX
  8
PLAN_1
 62
     2
  6
CONTINUOUS
 10
0.346287
 20
-0.694906
  0
VERTEX
  8
PLAN_1
 62
     2
  6
CONTINUOUS
 10
0.344240
 20
-0.694394
  0
VERTEX
  8
PLAN_1
 62
     2
  6
CONTINUOUS
 10
0.342193
 20
-0.693882
  0
VERTEX
  8
PLAN_1
 62
     2
  6
CONTINUOUS
 10
0.339630
 20
-0.693882
  0
VERTEX
  8
PLAN_1
 62
     2
  6
CONTINUOUS
 10
0.337071
 20
-0.693882
  0
VERTEX
  8
PLAN_1
 62
     2
  6
CONTINUOUS
 10
0.335024
 20
-0.694394
  0
VERTEX
  8
PLAN_1
 62
     2
  6
CONTINUOUS
 10
0.333488
 20
-0.695417
  0
VERTEX
  8
PLAN_1
 62
     2
  6
CONTINUOUS
 10
0.331949
 20
-0.695929
  0
VERTEX
  8
PLAN_1
 62
     2
  6
CONTINUOUS
 10
0.329390
 20
-0.699000
  0
VERTEX
  8
PLAN_1
 62
     2
  6
CONTINUOUS
 10
0.327343
 20
-0.702075
  0
VERTEX
  8
PLAN_1
 62
     2
  6
CONTINUOUS
 10
0.326319
 20
-0.705657
  0
VERTEX
  8
PLAN_1
 62
     2
  6
CONTINUOUS
 10
0.325295
 20
-0.709756
  0
VERTEX
  8
PLAN_1
 62
     2
  6
CONTINUOUS
 10
0.324783
 20
-0.713339
  0
VERTEX
  8
PLAN_1
 62
     2
  6
CONTINUOUS
 10
0.324783
 20
-0.716925
  0
VERTEX
  8
PLAN_1
 62
     2
  6
CONTINUOUS
 10
0.325295
 20
-0.722043
  0
VERTEX
  8
PLAN_1
 62
     2
  6
CONTINUOUS
 10
0.326319
 20
-0.725630
  0
VERTEX
  8
PLAN_1
 62
     2
  6
CONTINUOUS
 10
0.328366
 20
-0.729213
  0
VERTEX
  8
PLAN_1
 62
     2
  6
CONTINUOUS
 10
0.330413
 20
-0.731260
  0
VERTEX
  8
PLAN_1
 62
     2
  6
CONTINUOUS
 10
0.332465
 20
-0.733311
  0
VERTEX
  8
PLAN_1
 62
     2
  6
CONTINUOUS
 10
0.335024
 20
-0.734335
  0
VERTEX
  8
PLAN_1
 62
     2
  6
CONTINUOUS
 10
0.337583
 20
-0.734846
  0
VERTEX
  8
PLAN_1
 62
     2
  6
CONTINUOUS
 10
0.339630
 20
-0.735358
  0
SEQEND
  8
0
  0
POLYLINE
  8
PLAN_1
 62
     2
  6
CONTINUOUS
 66
     1
 40
0.003000
 41
0.003000
  0
VERTEX
  8
PLAN_1
 62
     2
  6
CONTINUOUS
 10
0.396984
 20
-0.685689
  0
VERTEX
  8
PLAN_1
 62
     2
  6
CONTINUOUS
 10
0.400055
 20
-0.685689
  0
VERTEX
  8
PLAN_1
 62
     2
  6
CONTINUOUS
 10
0.403126
 20
-0.686201
  0
VERTEX
  8
PLAN_1
 62
     2
  6
CONTINUOUS
 10
0.405689
 20
-0.687224
  0
VERTEX
  8
PLAN_1
 62
     2
  6
CONTINUOUS
 10
0.408248
 20
-0.688248
  0
VERTEX
  8
PLAN_1
 62
     2
  6
CONTINUOUS
 10
0.410807
 20
-0.689272
  0
VERTEX
  8
PLAN_1
 62
     2
  6
CONTINUOUS
 10
0.412858
 20
-0.690807
  0
VERTEX
  8
PLAN_1
 62
     2
  6
CONTINUOUS
 10
0.414394
 20
-0.692858
  0
VERTEX
  8
PLAN_1
 62
     2
  6
CONTINUOUS
 10
0.415929
 20
-0.694906
  0
VERTEX
  8
PLAN_1
 62
     2
  6
CONTINUOUS
 10
0.419000
 20
-0.699000
  0
VERTEX
  8
PLAN_1
 62
     2
  6
CONTINUOUS
 10
0.420539
 20
-0.704122
  0
VERTEX
  8
PLAN_1
 62
     2
  6
CONTINUOUS
 10
0.422075
 20
-0.709244
  0
VERTEX
  8
PLAN_1
 62
     2
  6
CONTINUOUS
 10
0.422075
 20
-0.714362
  0
VERTEX
  8
PLAN_1
 62
     2
  6
CONTINUOUS
 10
0.422075
 20
-0.719484
  0
VERTEX
  8
PLAN_1
 62
     2
  6
CONTINUOUS
 10
0.420539
 20
-0.724606
  0
VERTEX
  8
PLAN_1
 62
     2
  6
CONTINUOUS
 10
0.419000
 20
-0.729724
  0
VERTEX
  8
PLAN_1
 62
     2
  6
CONTINUOUS
 10
0.415929
 20
-0.733823
  0
VERTEX
  8
PLAN_1
 62
     2
  6
CONTINUOUS
 10
0.414394
 20
-0.735870
  0
VERTEX
  8
PLAN_1
 62
     2
  6
CONTINUOUS
 10
0.412858
 20
-0.737406
  0
VERTEX
  8
PLAN_1
 62
     2
  6
CONTINUOUS
 10
0.410807
 20
-0.738941
  0
VERTEX
  8
PLAN_1
 62
     2
  6
CONTINUOUS
 10
0.408248
 20
-0.740480
  0
VERTEX
  8
PLAN_1
 62
     2
  6
CONTINUOUS
 10
0.405689
 20
-0.741504
  0
VERTEX
  8
PLAN_1
 62
     2
  6
CONTINUOUS
 10
0.403126
 20
-0.742528
  0
VERTEX
  8
PLAN_1
 62
     2
  6
CONTINUOUS
 10
0.400055
 20
-0.743039
  0
VERTEX
  8
PLAN_1
 62
     2
  6
CONTINUOUS
 10
0.396984
 20
-0.743039
  0
VERTEX
  8
PLAN_1
 62
     2
  6
CONTINUOUS
 10
0.393909
 20
-0.743039
  0
VERTEX
  8
PLAN_1
 62
     2
  6
CONTINUOUS
 10
0.390839
 20
-0.742528
  0
VERTEX
  8
PLAN_1
 62
     2
  6
CONTINUOUS
 10
0.388276
 20
-0.741504
  0
VERTEX
  8
PLAN_1
 62
     2
  6
CONTINUOUS
 10
0.385717
 20
-0.740480
  0
VERTEX
  8
PLAN_1
 62
     2
  6
CONTINUOUS
 10
0.383669
 20
-0.738941
  0
VERTEX
  8
PLAN_1
 62
     2
  6
CONTINUOUS
 10
0.381110
 20
-0.737406
  0
VERTEX
  8
PLAN_1
 62
     2
  6
CONTINUOUS
 10
0.379571
 20
-0.735870
  0
VERTEX
  8
PLAN_1
 62
     2
  6
CONTINUOUS
 10
0.378035
 20
-0.733823
  0
VERTEX
  8
PLAN_1
 62
     2
  6
CONTINUOUS
 10
0.374965
 20
-0.729724
  0
VERTEX
  8
PLAN_1
 62
     2
  6
CONTINUOUS
 10
0.373429
 20
-0.724606
  0
VERTEX
  8
PLAN_1
 62
     2
  6
CONTINUOUS
 10
0.371890
 20
-0.719484
  0
VERTEX
  8
PLAN_1
 62
     2
  6
CONTINUOUS
 10
0.371890
 20
-0.714362
  0
VERTEX
  8
PLAN_1
 62
     2
  6
CONTINUOUS
 10
0.371890
 20
-0.709244
  0
VERTEX
  8
PLAN_1
 62
     2
  6
CONTINUOUS
 10
0.373429
 20
-0.704122
  0
VERTEX
  8
PLAN_1
 62
     2
  6
CONTINUOUS
 10
0.374965
 20
-0.699000
  0
VERTEX
  8
PLAN_1
 62
     2
  6
CONTINUOUS
 10
0.378035
 20
-0.694906
  0
VERTEX
  8
PLAN_1
 62
     2
  6
CONTINUOUS
 10
0.379571
 20
-0.692858
  0
VERTEX
  8
PLAN_1
 62
     2
  6
CONTINUOUS
 10
0.381110
 20
-0.690807
  0
VERTEX
  8
PLAN_1
 62
     2
  6
CONTINUOUS
 10
0.383669
 20
-0.689272
  0
VERTEX
  8
PLAN_1
 62
     2
  6
CONTINUOUS
 10
0.385717
 20
-0.688248
  0
VERTEX
  8
PLAN_1
 62
     2
  6
CONTINUOUS
 10
0.388276
 20
-0.687224
  0
VERTEX
  8
PLAN_1
 62
     2
  6
CONTINUOUS
 10
0.390839
 20
-0.686201
  0
VERTEX
  8
PLAN_1
 62
     2
  6
CONTINUOUS
 10
0.393909
 20
-0.685689
  0
VERTEX
  8
PLAN_1
 62
     2
  6
CONTINUOUS
 10
0.396984
 20
-0.685689
  0
SEQEND
  8
0
  0
POLYLINE
  8
PLAN_1
 62
     2
  6
CONTINUOUS
 66
     1
 40
0.003000
 41
0.003000
  0
VERTEX
  8
PLAN_1
 62
     2
  6
CONTINUOUS
 10
0.396984
 20
-0.735358
  0
VERTEX
  8
PLAN_1
 62
     2
  6
CONTINUOUS
 10
0.399543
 20
-0.734846
  0
VERTEX
  8
PLAN_1
 62
     2
  6
CONTINUOUS
 10
0.401591
 20
-0.734335
  0
VERTEX
  8
PLAN_1
 62
     2
  6
CONTINUOUS
 10
0.403126
 20
-0.733823
  0
VERTEX
  8
PLAN_1
 62
     2
  6
CONTINUOUS
 10
0.405177
 20
-0.732799
  0
VERTEX
  8
PLAN_1
 62
     2
  6
CONTINUOUS
 10
0.407736
 20
-0.730236
  0
VERTEX
  8
PLAN_1
 62
     2
  6
CONTINUOUS
 10
0.409783
 20
-0.727677
  0
VERTEX
  8
PLAN_1
 62
     2
  6
CONTINUOUS
 10
0.411319
 20
-0.724091
  0
VERTEX
  8
PLAN_1
 62
     2
  6
CONTINUOUS
 10
0.412343
 20
-0.720508
  0
VERTEX
  8
PLAN_1
 62
     2
  6
CONTINUOUS
 10
0.412858
 20
-0.717437
  0
VERTEX
  8
PLAN_1
 62
     2
  6
CONTINUOUS
 10
0.412858
 20
-0.714362
  0
VERTEX
  8
PLAN_1
 62
     2
  6
CONTINUOUS
 10
0.412858
 20
-0.711291
  0
VERTEX
  8
PLAN_1
 62
     2
  6
CONTINUOUS
 10
0.412343
 20
-0.708220
  0
VERTEX
  8
PLAN_1
 62
     2
  6
CONTINUOUS
 10
0.411319
 20
-0.704634
  0
VERTEX
  8
PLAN_1
 62
     2
  6
CONTINUOUS
 10
0.409783
 20
-0.701051
  0
VERTEX
  8
PLAN_1
 62
     2
  6
CONTINUOUS
 10
0.407736
 20
-0.697976
  0
VERTEX
  8
PLAN_1
 62
     2
  6
CONTINUOUS
 10
0.405177
 20
-0.695929
  0
VERTEX
  8
PLAN_1
 62
     2
  6
CONTINUOUS
 10
0.403126
 20
-0.694906
  0
VERTEX
  8
PLAN_1
 62
     2
  6
CONTINUOUS
 10
0.401591
 20
-0.693882
  0
VERTEX
  8
PLAN_1
 62
     2
  6
CONTINUOUS
 10
0.399543
 20
-0.693882
  0
VERTEX
  8
PLAN_1
 62
     2
  6
CONTINUOUS
 10
0.396984
 20
-0.693370
  0
VERTEX
  8
PLAN_1
 62
     2
  6
CONTINUOUS
 10
0.394421
 20
-0.693882
  0
VERTEX
  8
PLAN_1
 62
     2
  6
CONTINUOUS
 10
0.392374
 20
-0.693882
  0
VERTEX
  8
PLAN_1
 62
     2
  6
CONTINUOUS
 10
0.390839
 20
-0.694906
  0
VERTEX
  8
PLAN_1
 62
     2
  6
CONTINUOUS
 10
0.388791
 20
-0.695929
  0
VERTEX
  8
PLAN_1
 62
     2
  6
CONTINUOUS
 10
0.386228
 20
-0.697976
  0
VERTEX
  8
PLAN_1
 62
     2
  6
CONTINUOUS
 10
0.384181
 20
-0.701051
  0
VERTEX
  8
PLAN_1
 62
     2
  6
CONTINUOUS
 10
0.382646
 20
-0.704634
  0
VERTEX
  8
PLAN_1
 62
     2
  6
CONTINUOUS
 10
0.381622
 20
-0.708220
  0
VERTEX
  8
PLAN_1
 62
     2
  6
CONTINUOUS
 10
0.381110
 20
-0.711291
  0
VERTEX
  8
PLAN_1
 62
     2
  6
CONTINUOUS
 10
0.381110
 20
-0.714362
  0
VERTEX
  8
PLAN_1
 62
     2
  6
CONTINUOUS
 10
0.381110
 20
-0.717437
  0
VERTEX
  8
PLAN_1
 62
     2
  6
CONTINUOUS
 10
0.381622
 20
-0.720508
  0
VERTEX
  8
PLAN_1
 62
     2
  6
CONTINUOUS
 10
0.382646
 20
-0.724091
  0
VERTEX
  8
PLAN_1
 62
     2
  6
CONTINUOUS
 10
0.384181
 20
-0.727677
  0
VERTEX
  8
PLAN_1
 62
     2
  6
CONTINUOUS
 10
0.386228
 20
-0.730236
  0
VERTEX
  8
PLAN_1
 62
     2
  6
CONTINUOUS
 10
0.388791
 20
-0.732799
  0
VERTEX
  8
PLAN_1
 62
     2
  6
CONTINUOUS
 10
0.390839
 20
-0.733823
  0
VERTEX
  8
PLAN_1
 62
     2
  6
CONTINUOUS
 10
0.392374
 20
-0.734335
  0
VERTEX
  8
PLAN_1
 62
     2
  6
CONTINUOUS
 10
0.394421
 20
-0.734846
  0
VERTEX
  8
PLAN_1
 62
     2
  6
CONTINUOUS
 10
0.396984
 20
-0.735358
  0
SEQEND
  8
0
  0
POLYLINE
  8
PLAN_1
 62
     2
  6
CONTINUOUS
 66
     1
 40
0.003000
 41
0.003000
  0
VERTEX
  8
PLAN_1
 62
     2
  6
CONTINUOUS
 10
0.468157
 20
-0.741504
  0
VERTEX
  8
PLAN_1
 62
     2
  6
CONTINUOUS
 10
0.468157
 20
-0.733823
  0
VERTEX
  8
PLAN_1
 62
     2
  6
CONTINUOUS
 10
0.468157
 20
-0.733311
  0
VERTEX
  8
PLAN_1
 62
     2
  6
CONTINUOUS
 10
0.466622
 20
-0.735870
  0
VERTEX
  8
PLAN_1
 62
     2
  6
CONTINUOUS
 10
0.465087
 20
-0.737406
  0
VERTEX
  8
PLAN_1
 62
     2
  6
CONTINUOUS
 10
0.463039
 20
-0.739453
  0
VERTEX
  8
PLAN_1
 62
     2
  6
CONTINUOUS
 10
0.460992
 20
-0.740480
  0
VERTEX
  8
PLAN_1
 62
     2
  6
CONTINUOUS
 10
0.458941
 20
-0.741504
  0
VERTEX
  8
PLAN_1
 62
     2
  6
CONTINUOUS
 10
0.456382
 20
-0.742528
  0
VERTEX
  8
PLAN_1
 62
     2
  6
CONTINUOUS
 10
0.453823
 20
-0.743039
  0
VERTEX
  8
PLAN_1
 62
     2
  6
CONTINUOUS
 10
0.450748
 20
-0.743039
  0
VERTEX
  8
PLAN_1
 62
     2
  6
CONTINUOUS
 10
0.447677
 20
-0.743039
  0
VERTEX
  8
PLAN_1
 62
     2
  6
CONTINUOUS
 10
0.444606
 20
-0.742528
  0
VERTEX
  8
PLAN_1
 62
     2
  6
CONTINUOUS
 10
0.441531
 20
-0.740992
  0
VERTEX
  8
PLAN_1
 62
     2
  6
CONTINUOUS
 10
0.438972
 20
-0.739453
  0
VERTEX
  8
PLAN_1
 62
     2
  6
CONTINUOUS
 10
0.436409
 20
-0.737406
  0
VERTEX
  8
PLAN_1
 62
     2
  6
CONTINUOUS
 10
0.434874
 20
-0.734335
  0
VERTEX
  8
PLAN_1
 62
     2
  6
CONTINUOUS
 10
0.433339
 20
-0.730748
  0
VERTEX
  8
PLAN_1
 62
     2
  6
CONTINUOUS
 10
0.432827
 20
-0.726142
  0
VERTEX
  8
PLAN_1
 62
     2
  6
CONTINUOUS
 10
0.432827
 20
-0.687224
  0
VERTEX
  8
PLAN_1
 62
     2
  6
CONTINUOUS
 10
0.442043
 20
-0.687224
  0
VERTEX
  8
PLAN_1
 62
     2
  6
CONTINUOUS
 10
0.442043
 20
-0.723067
  0
VERTEX
  8
PLAN_1
 62
     2
  6
CONTINUOUS
 10
0.442555
 20
-0.726142
  0
VERTEX
  8
PLAN_1
 62
     2
  6
CONTINUOUS
 10
0.443067
 20
-0.728701
  0
VERTEX
  8
PLAN_1
 62
     2
  6
CONTINUOUS
 10
0.444091
 20
-0.730748
  0
VERTEX
  8
PLAN_1
 62
     2
  6
CONTINUOUS
 10
0.445118
 20
-0.732799
  0
VERTEX
  8
PLAN_1
 62
     2
  6
CONTINUOUS
 10
0.446654
 20
-0.733823
  0
VERTEX
  8
PLAN_1
 62
     2
  6
CONTINUOUS
 10
0.448701
 20
-0.734846
  0
VERTEX
  8
PLAN_1
 62
     2
  6
CONTINUOUS
 10
0.450748
 20
-0.734846
  0
VERTEX
  8
PLAN_1
 62
     2
  6
CONTINUOUS
 10
0.452799
 20
-0.735358
  0
VERTEX
  8
PLAN_1
 62
     2
  6
CONTINUOUS
 10
0.456894
 20
-0.734846
  0
VERTEX
  8
PLAN_1
 62
     2
  6
CONTINUOUS
 10
0.459965
 20
-0.733311
  0
VERTEX
  8
PLAN_1
 62
     2
  6
CONTINUOUS
 10
0.462528
 20
-0.731772
  0
VERTEX
  8
PLAN_1
 62
     2
  6
CONTINUOUS
 10
0.464575
 20
-0.729213
  0
VERTEX
  8
PLAN_1
 62
     2
  6
CONTINUOUS
 10
0.466110
 20
-0.726142
  0
VERTEX
  8
PLAN_1
 62
     2
  6
CONTINUOUS
 10
0.467134
 20
-0.723067
  0
VERTEX
  8
PLAN_1
 62
     2
  6
CONTINUOUS
 10
0.467646
 20
-0.719996
  0
VERTEX
  8
PLAN_1
 62
     2
  6
CONTINUOUS
 10
0.467646
 20
-0.716925
  0
VERTEX
  8
PLAN_1
 62
     2
  6
CONTINUOUS
 10
0.467646
 20
-0.687224
  0
VERTEX
  8
PLAN_1
 62
     2
  6
CONTINUOUS
 10
0.476866
 20
-0.687224
  0
VERTEX
  8
PLAN_1
 62
     2
  6
CONTINUOUS
 10
0.476866
 20
-0.741504
  0
VERTEX
  8
PLAN_1
 62
     2
  6
CONTINUOUS
 10
0.468157
 20
-0.741504
  0
SEQEND
  8
0
  0
POLYLINE
  8
PLAN_1
 62
     2
  6
CONTINUOUS
 66
     1
 40
0.003000
 41
0.003000
  0
VERTEX
  8
PLAN_1
 62
     2
  6
CONTINUOUS
 10
0.500933
 20
-0.741504
  0
VERTEX
  8
PLAN_1
 62
     2
  6
CONTINUOUS
 10
0.491713
 20
-0.741504
  0
VERTEX
  8
PLAN_1
 62
     2
  6
CONTINUOUS
 10
0.491713
 20
-0.687224
  0
VERTEX
  8
PLAN_1
 62
     2
  6
CONTINUOUS
 10
0.500417
 20
-0.687224
  0
VERTEX
  8
PLAN_1
 62
     2
  6
CONTINUOUS
 10
0.500417
 20
-0.696441
  0
VERTEX
  8
PLAN_1
 62
     2
  6
CONTINUOUS
 10
0.500933
 20
-0.696441
  0
VERTEX
  8
PLAN_1
 62
     2
  6
CONTINUOUS
 10
0.501957
 20
-0.693882
  0
VERTEX
  8
PLAN_1
 62
     2
  6
CONTINUOUS
 10
0.503492
 20
-0.691831
  0
VERTEX
  8
PLAN_1
 62
     2
  6
CONTINUOUS
 10
0.505539
 20
-0.690295
  0
VERTEX
  8
PLAN_1
 62
     2
  6
CONTINUOUS
 10
0.507075
 20
-0.688760
  0
VERTEX
  8
PLAN_1
 62
     2
  6
CONTINUOUS
 10
0.509126
 20
-0.687224
  0
VERTEX
  8
PLAN_1
 62
     2
  6
CONTINUOUS
 10
0.511173
 20
-0.686201
  0
VERTEX
  8
PLAN_1
 62
     2
  6
CONTINUOUS
 10
0.513732
 20
-0.685689
  0
VERTEX
  8
PLAN_1
 62
     2
  6
CONTINUOUS
 10
0.515780
 20
-0.685689
  0
VERTEX
  8
PLAN_1
 62
     2
  6
CONTINUOUS
 10
0.516291
 20
-0.685689
  0
VERTEX
  8
PLAN_1
 62
     2
  6
CONTINUOUS
 10
0.516807
 20
-0.685689
  0
VERTEX
  8
PLAN_1
 62
     2
  6
CONTINUOUS
 10
0.517319
 20
-0.685689
  0
VERTEX
  8
PLAN_1
 62
     2
  6
CONTINUOUS
 10
0.517831
 20
-0.685689
  0
VERTEX
  8
PLAN_1
 62
     2
  6
CONTINUOUS
 10
0.518343
 20
-0.685689
  0
VERTEX
  8
PLAN_1
 62
     2
  6
CONTINUOUS
 10
0.518343
 20
-0.695417
  0
VERTEX
  8
PLAN_1
 62
     2
  6
CONTINUOUS
 10
0.514756
 20
-0.695417
  0
VERTEX
  8
PLAN_1
 62
     2
  6
CONTINUOUS
 10
0.511685
 20
-0.695417
  0
VERTEX
  8
PLAN_1
 62
     2
  6
CONTINUOUS
 10
0.509126
 20
-0.696441
  0
VERTEX
  8
PLAN_1
 62
     2
  6
CONTINUOUS
 10
0.506563
 20
-0.697976
  0
VERTEX
  8
PLAN_1
 62
     2
  6
CONTINUOUS
 10
0.505028
 20
-0.699512
  0
VERTEX
  8
PLAN_1
 62
     2
  6
CONTINUOUS
 10
0.502980
 20
-0.702075
  0
VERTEX
  8
PLAN_1
 62
     2
  6
CONTINUOUS
 10
0.501957
 20
-0.704122
  0
VERTEX
  8
PLAN_1
 62
     2
  6
CONTINUOUS
 10
0.501445
 20
-0.707193
  0
VERTEX
  8
PLAN_1
 62
     2
  6
CONTINUOUS
 10
0.500933
 20
-0.709756
  0
VERTEX
  8
PLAN_1
 62
     2
  6
CONTINUOUS
 10
0.500933
 20
-0.741504
  0
SEQEND
  8
0
  0
POLYLINE
  8
PLAN_1
 62
     2
  6
CONTINUOUS
 66
     1
 40
0.003000
 41
0.003000
  0
VERTEX
  8
PLAN_1
 62
     2
  6
CONTINUOUS
 10
-0.359846
 20
-0.812165
  0
VERTEX
  8
PLAN_1
 62
     2
  6
CONTINUOUS
 10
-0.351142
 20
-0.812165
  0
VERTEX
  8
PLAN_1
 62
     2
  6
CONTINUOUS
 10
-0.351142
 20
-0.819846
  0
VERTEX
  8
PLAN_1
 62
     2
  6
CONTINUOUS
 10
-0.350118
 20
-0.818311
  0
VERTEX
  8
PLAN_1
 62
     2
  6
CONTINUOUS
 10
-0.349094
 20
-0.817287
  0
VERTEX
  8
PLAN_1
 62
     2
  6
CONTINUOUS
 10
-0.347555
 20
-0.815752
  0
VERTEX
  8
PLAN_1
 62
     2
  6
CONTINUOUS
 10
-0.346020
 20
-0.814217
  0
VERTEX
  8
PLAN_1
 62
     2
  6
CONTINUOUS
 10
-0.343972
 20
-0.812681
  0
VERTEX
  8
PLAN_1
 62
     2
  6
CONTINUOUS
 10
-0.341413
 20
-0.811654
  0
VERTEX
  8
PLAN_1
 62
     2
  6
CONTINUOUS
 10
-0.338339
 20
-0.810630
  0
VERTEX
  8
PLAN_1
 62
     2
  6
CONTINUOUS
 10
-0.334756
 20
-0.810630
  0
VERTEX
  8
PLAN_1
 62
     2
  6
CONTINUOUS
 10
-0.332193
 20
-0.810630
  0
VERTEX
  8
PLAN_1
 62
     2
  6
CONTINUOUS
 10
-0.329634
 20
-0.811142
  0
VERTEX
  8
PLAN_1
 62
     2
  6
CONTINUOUS
 10
-0.327587
 20
-0.811654
  0
VERTEX
  8
PLAN_1
 62
     2
  6
CONTINUOUS
 10
-0.325024
 20
-0.812681
  0
VERTEX
  8
PLAN_1
 62
     2
  6
CONTINUOUS
 10
-0.323488
 20
-0.813705
  0
VERTEX
  8
PLAN_1
 62
     2
  6
CONTINUOUS
 10
-0.321441
 20
-0.815240
  0
VERTEX
  8
PLAN_1
 62
     2
  6
CONTINUOUS
 10
-0.319906
 20
-0.816776
  0
VERTEX
  8
PLAN_1
 62
     2
  6
CONTINUOUS
 10
-0.318370
 20
-0.818311
  0
VERTEX
  8
PLAN_1
 62
     2
  6
CONTINUOUS
 10
-0.315807
 20
-0.822409
  0
VERTEX
  8
PLAN_1
 62
     2
  6
CONTINUOUS
 10
-0.313760
 20
-0.827016
  0
VERTEX
  8
PLAN_1
 62
     2
  6
CONTINUOUS
 10
-0.312736
 20
-0.832138
  0
VERTEX
  8
PLAN_1
 62
     2
  6
CONTINUOUS
 10
-0.312224
 20
-0.837772
  0
VERTEX
  8
PLAN_1
 62
     2
  6
CONTINUOUS
 10
-0.312736
 20
-0.842890
  0
VERTEX
  8
PLAN_1
 62
     2
  6
CONTINUOUS
 10
-0.313248
 20
-0.848012
  0
VERTEX
  8
PLAN_1
 62
     2
  6
CONTINUOUS
 10
-0.314783
 20
-0.853134
  0
VERTEX
  8
PLAN_1
 62
     2
  6
CONTINUOUS
 10
-0.317346
 20
-0.857740
  0
VERTEX
  8
PLAN_1
 62
     2
  6
CONTINUOUS
 10
-0.318882
 20
-0.859787
  0
VERTEX
  8
PLAN_1
 62
     2
  6
CONTINUOUS
 10
-0.320417
 20
-0.861839
  0
VERTEX
  8
PLAN_1
 62
     2
  6
CONTINUOUS
 10
-0.322465
 20
-0.863886
  0
VERTEX
  8
PLAN_1
 62
     2
  6
CONTINUOUS
 10
-0.324512
 20
-0.865421
  0
VERTEX
  8
PLAN_1
 62
     2
  6
CONTINUOUS
 10
-0.327075
 20
-0.866445
  0
VERTEX
  8
PLAN_1
 62
     2
  6
CONTINUOUS
 10
-0.329634
 20
-0.867469
  0
VERTEX
  8
PLAN_1
 62
     2
  6
CONTINUOUS
 10
-0.332705
 20
-0.867980
  0
VERTEX
  8
PLAN_1
 62
     2
  6
CONTINUOUS
 10
-0.336291
 20
-0.867980
  0
VERTEX
  8
PLAN_1
 62
     2
  6
CONTINUOUS
 10
-0.338850
 20
-0.867980
  0
VERTEX
  8
PLAN_1
 62
     2
  6
CONTINUOUS
 10
-0.340898
 20
-0.867469
  0
VERTEX
  8
PLAN_1
 62
     2
  6
CONTINUOUS
 10
-0.343461
 20
-0.866957
  0
VERTEX
  8
PLAN_1
 62
     2
  6
CONTINUOUS
 10
-0.344996
 20
-0.865933
  0
VERTEX
  8
PLAN_1
 62
     2
  6
CONTINUOUS
 10
-0.347043
 20
-0.864909
  0
VERTEX
  8
PLAN_1
 62
     2
  6
CONTINUOUS
 10
-0.348579
 20
-0.863374
  0
VERTEX
  8
PLAN_1
 62
     2
  6
CONTINUOUS
 10
-0.349606
 20
-0.862350
  0
VERTEX
  8
PLAN_1
 62
     2
  6
CONTINUOUS
 10
-0.350630
 20
-0.860815
  0
VERTEX
  8
PLAN_1
 62
     2
  6
CONTINUOUS
 10
-0.350630
 20
-0.887953
  0
VERTEX
  8
PLAN_1
 62
     2
  6
CONTINUOUS
 10
-0.359846
 20
-0.887953
  0
VERTEX
  8
PLAN_1
 62
     2
  6
CONTINUOUS
 10
-0.359846
 20
-0.812165
  0
SEQEND
  8
0
  0
POLYLINE
  8
PLAN_1
 62
     2
  6
CONTINUOUS
 66
     1
 40
0.003000
 41
0.003000
  0
VERTEX
  8
PLAN_1
 62
     2
  6
CONTINUOUS
 10
-0.336291
 20
-0.860299
  0
VERTEX
  8
PLAN_1
 62
     2
  6
CONTINUOUS
 10
-0.332705
 20
-0.859787
  0
VERTEX
  8
PLAN_1
 62
     2
  6
CONTINUOUS
 10
-0.329634
 20
-0.858764
  0
VERTEX
  8
PLAN_1
 62
     2
  6
CONTINUOUS
 10
-0.327075
 20
-0.856717
  0
VERTEX
  8
PLAN_1
 62
     2
  6
CONTINUOUS
 10
-0.325024
 20
-0.854157
  0
VERTEX
  8
PLAN_1
 62
     2
  6
CONTINUOUS
 10
-0.323488
 20
-0.851083
  0
VERTEX
  8
PLAN_1
 62
     2
  6
CONTINUOUS
 10
-0.322465
 20
-0.847500
  0
VERTEX
  8
PLAN_1
 62
     2
  6
CONTINUOUS
 10
-0.321953
 20
-0.843402
  0
VERTEX
  8
PLAN_1
 62
     2
  6
CONTINUOUS
 10
-0.321441
 20
-0.839307
  0
VERTEX
  8
PLAN_1
 62
     2
  6
CONTINUOUS
 10
-0.321953
 20
-0.836232
  0
VERTEX
  8
PLAN_1
 62
     2
  6
CONTINUOUS
 10
-0.321953
 20
-0.833161
  0
VERTEX
  8
PLAN_1
 62
     2
  6
CONTINUOUS
 10
-0.322465
 20
-0.829579
  0
VERTEX
  8
PLAN_1
 62
     2
  6
CONTINUOUS
 10
-0.324000
 20
-0.826504
  0
VERTEX
  8
PLAN_1
 62
     2
  6
CONTINUOUS
 10
-0.325539
 20
-0.823433
  0
VERTEX
  8
PLAN_1
 62
     2
  6
CONTINUOUS
 10
-0.328098
 20
-0.820874
  0
VERTEX
  8
PLAN_1
 62
     2
  6
CONTINUOUS
 10
-0.330146
 20
-0.819846
  0
VERTEX
  8
PLAN_1
 62
     2
  6
CONTINUOUS
 10
-0.331681
 20
-0.819335
  0
VERTEX
  8
PLAN_1
 62
     2
  6
CONTINUOUS
 10
-0.334244
 20
-0.818823
  0
VERTEX
  8
PLAN_1
 62
     2
  6
CONTINUOUS
 10
-0.336803
 20
-0.818823
  0
VERTEX
  8
PLAN_1
 62
     2
  6
CONTINUOUS
 10
-0.338850
 20
-0.818823
  0
VERTEX
  8
PLAN_1
 62
     2
  6
CONTINUOUS
 10
-0.340898
 20
-0.819335
  0
VERTEX
  8
PLAN_1
 62
     2
  6
CONTINUOUS
 10
-0.342949
 20
-0.820362
  0
VERTEX
  8
PLAN_1
 62
     2
  6
CONTINUOUS
 10
-0.344484
 20
-0.821386
  0
VERTEX
  8
PLAN_1
 62
     2
  6
CONTINUOUS
 10
-0.347043
 20
-0.823945
  0
VERTEX
  8
PLAN_1
 62
     2
  6
CONTINUOUS
 10
-0.349094
 20
-0.827016
  0
VERTEX
  8
PLAN_1
 62
     2
  6
CONTINUOUS
 10
-0.350118
 20
-0.830602
  0
VERTEX
  8
PLAN_1
 62
     2
  6
CONTINUOUS
 10
-0.350630
 20
-0.834697
  0
VERTEX
  8
PLAN_1
 62
     2
  6
CONTINUOUS
 10
-0.351142
 20
-0.838283
  0
VERTEX
  8
PLAN_1
 62
     2
  6
CONTINUOUS
 10
-0.351142
 20
-0.841866
  0
VERTEX
  8
PLAN_1
 62
     2
  6
CONTINUOUS
 10
-0.350630
 20
-0.846988
  0
VERTEX
  8
PLAN_1
 62
     2
  6
CONTINUOUS
 10
-0.349606
 20
-0.851083
  0
VERTEX
  8
PLAN_1
 62
     2
  6
CONTINUOUS
 10
-0.348067
 20
-0.854157
  0
VERTEX
  8
PLAN_1
 62
     2
  6
CONTINUOUS
 10
-0.346020
 20
-0.856205
  0
VERTEX
  8
PLAN_1
 62
     2
  6
CONTINUOUS
 10
-0.343461
 20
-0.858252
  0
VERTEX
  8
PLAN_1
 62
     2
  6
CONTINUOUS
 10
-0.340898
 20
-0.859276
  0
VERTEX
  8
PLAN_1
 62
     2
  6
CONTINUOUS
 10
-0.338850
 20
-0.859787
  0
VERTEX
  8
PLAN_1
 62
     2
  6
CONTINUOUS
 10
-0.336291
 20
-0.860299
  0
SEQEND
  8
0
  0
POLYLINE
  8
PLAN_1
 62
     2
  6
CONTINUOUS
 66
     1
 40
0.003000
 41
0.003000
  0
VERTEX
  8
PLAN_1
 62
     2
  6
CONTINUOUS
 10
-0.290717
 20
-0.866445
  0
VERTEX
  8
PLAN_1
 62
     2
  6
CONTINUOUS
 10
-0.299933
 20
-0.866445
  0
VERTEX
  8
PLAN_1
 62
     2
  6
CONTINUOUS
 10
-0.299933
 20
-0.812165
  0
VERTEX
  8
PLAN_1
 62
     2
  6
CONTINUOUS
 10
-0.291228
 20
-0.812165
  0
VERTEX
  8
PLAN_1
 62
     2
  6
CONTINUOUS
 10
-0.291228
 20
-0.821386
  0
VERTEX
  8
PLAN_1
 62
     2
  6
CONTINUOUS
 10
-0.289693
 20
-0.818823
  0
VERTEX
  8
PLAN_1
 62
     2
  6
CONTINUOUS
 10
-0.288157
 20
-0.816776
  0
VERTEX
  8
PLAN_1
 62
     2
  6
CONTINUOUS
 10
-0.286622
 20
-0.815240
  0
VERTEX
  8
PLAN_1
 62
     2
  6
CONTINUOUS
 10
-0.284571
 20
-0.813705
  0
VERTEX
  8
PLAN_1
 62
     2
  6
CONTINUOUS
 10
-0.283035
 20
-0.812165
  0
VERTEX
  8
PLAN_1
 62
     2
  6
CONTINUOUS
 10
-0.280988
 20
-0.811142
  0
VERTEX
  8
PLAN_1
 62
     2
  6
CONTINUOUS
 10
-0.278429
 20
-0.810630
  0
VERTEX
  8
PLAN_1
 62
     2
  6
CONTINUOUS
 10
-0.275866
 20
-0.810630
  0
VERTEX
  8
PLAN_1
 62
     2
  6
CONTINUOUS
 10
-0.275354
 20
-0.810630
  0
VERTEX
  8
PLAN_1
 62
     2
  6
CONTINUOUS
 10
-0.274843
 20
-0.810630
  0
VERTEX
  8
PLAN_1
 62
     2
  6
CONTINUOUS
 10
-0.274331
 20
-0.810630
  0
VERTEX
  8
PLAN_1
 62
     2
  6
CONTINUOUS
 10
-0.273819
 20
-0.810630
  0
VERTEX
  8
PLAN_1
 62
     2
  6
CONTINUOUS
 10
-0.273307
 20
-0.810630
  0
VERTEX
  8
PLAN_1
 62
     2
  6
CONTINUOUS
 10
-0.273307
 20
-0.820362
  0
VERTEX
  8
PLAN_1
 62
     2
  6
CONTINUOUS
 10
-0.276890
 20
-0.820362
  0
VERTEX
  8
PLAN_1
 62
     2
  6
CONTINUOUS
 10
-0.279965
 20
-0.820874
  0
VERTEX
  8
PLAN_1
 62
     2
  6
CONTINUOUS
 10
-0.282524
 20
-0.821386
  0
VERTEX
  8
PLAN_1
 62
     2
  6
CONTINUOUS
 10
-0.285087
 20
-0.822921
  0
VERTEX
  8
PLAN_1
 62
     2
  6
CONTINUOUS
 10
-0.287134
 20
-0.824457
  0
VERTEX
  8
PLAN_1
 62
     2
  6
CONTINUOUS
 10
-0.288669
 20
-0.827016
  0
VERTEX
  8
PLAN_1
 62
     2
  6
CONTINUOUS
 10
-0.290205
 20
-0.829067
  0
VERTEX
  8
PLAN_1
 62
     2
  6
CONTINUOUS
 10
-0.290717
 20
-0.832138
  0
VERTEX
  8
PLAN_1
 62
     2
  6
CONTINUOUS
 10
-0.290717
 20
-0.834697
  0
VERTEX
  8
PLAN_1
 62
     2
  6
CONTINUOUS
 10
-0.290717
 20
-0.866445
  0
SEQEND
  8
0
  0
POLYLINE
  8
PLAN_1
 62
     2
  6
CONTINUOUS
 66
     1
 40
0.003000
 41
0.003000
  0
VERTEX
  8
PLAN_1
 62
     2
  6
CONTINUOUS
 10
-0.220563
 20
-0.849547
  0
VERTEX
  8
PLAN_1
 62
     2
  6
CONTINUOUS
 10
-0.220563
 20
-0.850571
  0
VERTEX
  8
PLAN_1
 62
     2
  6
CONTINUOUS
 10
-0.221079
 20
-0.852106
  0
VERTEX
  8
PLAN_1
 62
     2
  6
CONTINUOUS
 10
-0.222102
 20
-0.854157
  0
VERTEX
  8
PLAN_1
 62
     2
  6
CONTINUOUS
 10
-0.223126
 20
-0.856205
  0
VERTEX
  8
PLAN_1
 62
     2
  6
CONTINUOUS
 10
-0.224150
 20
-0.858252
  0
VERTEX
  8
PLAN_1
 62
     2
  6
CONTINUOUS
 10
-0.225685
 20
-0.860299
  0
VERTEX
  8
PLAN_1
 62
     2
  6
CONTINUOUS
 10
-0.227732
 20
-0.862350
  0
VERTEX
  8
PLAN_1
 62
     2
  6
CONTINUOUS
 10
-0.230295
 20
-0.864398
  0
VERTEX
  8
PLAN_1
 62
     2
  6
CONTINUOUS
 10
-0.231319
 20
-0.864909
  0
VERTEX
  8
PLAN_1
 62
     2
  6
CONTINUOUS
 10
-0.232343
 20
-0.865421
  0
VERTEX
  8
PLAN_1
 62
     2
  6
CONTINUOUS
 10
-0.233878
 20
-0.866445
  0
VERTEX
  8
PLAN_1
 62
     2
  6
CONTINUOUS
 10
-0.235413
 20
-0.866957
  0
VERTEX
  8
PLAN_1
 62
     2
  6
CONTINUOUS
 10
-0.236953
 20
-0.867469
  0
VERTEX
  8
PLAN_1
 62
     2
  6
CONTINUOUS
 10
-0.239512
 20
-0.867980
  0
VERTEX
  8
PLAN_1
 62
     2
  6
CONTINUOUS
 10
-0.242071
 20
-0.867980
  0
VERTEX
  8
PLAN_1
 62
     2
  6
CONTINUOUS
 10
-0.245146
 20
-0.867980
  0
VERTEX
  8
PLAN_1
 62
     2
  6
CONTINUOUS
 10
-0.247705
 20
-0.867980
  0
VERTEX
  8
PLAN_1
 62
     2
  6
CONTINUOUS
 10
-0.250264
 20
-0.867469
  0
VERTEX
  8
PLAN_1
 62
     2
  6
CONTINUOUS
 10
-0.252823
 20
-0.866957
  0
VERTEX
  8
PLAN_1
 62
     2
  6
CONTINUOUS
 10
-0.255386
 20
-0.865933
  0
VERTEX
  8
PLAN_1
 62
     2
  6
CONTINUOUS
 10
-0.257433
 20
-0.864909
  0
VERTEX
  8
PLAN_1
 62
     2
  6
CONTINUOUS
 10
-0.259480
 20
-0.863374
  0
VERTEX
  8
PLAN_1
 62
     2
  6
CONTINUOUS
 10
-0.261020
 20
-0.861839
  0
VERTEX
  8
PLAN_1
 62
     2
  6
CONTINUOUS
 10
-0.263067
 20
-0.860299
  0
VERTEX
  8
PLAN_1
 62
     2
  6
CONTINUOUS
 10
-0.265626
 20
-0.856205
  0
VERTEX
  8
PLAN_1
 62
     2
  6
CONTINUOUS
 10
-0.267673
 20
-0.851594
  0
VERTEX
  8
PLAN_1
 62
     2
  6
CONTINUOUS
 10
-0.268697
 20
-0.846476
  0
VERTEX
  8
PLAN_1
 62
     2
  6
CONTINUOUS
 10
-0.269213
 20
-0.840843
  0
VERTEX
  8
PLAN_1
 62
     2
  6
CONTINUOUS
 10
-0.268697
 20
-0.834697
  0
VERTEX
  8
PLAN_1
 62
     2
  6
CONTINUOUS
 10
-0.267673
 20
-0.829067
  0
VERTEX
  8
PLAN_1
 62
     2
  6
CONTINUOUS
 10
-0.266650
 20
-0.826504
  0
VERTEX
  8
PLAN_1
 62
     2
  6
CONTINUOUS
 10
-0.265626
 20
-0.823945
  0
VERTEX
  8
PLAN_1
 62
     2
  6
CONTINUOUS
 10
-0.264602
 20
-0.821386
  0
VERTEX
  8
PLAN_1
 62
     2
  6
CONTINUOUS
 10
-0.263067
 20
-0.819335
  0
VERTEX
  8
PLAN_1
 62
     2
  6
CONTINUOUS
 10
-0.261531
 20
-0.817287
  0
VERTEX
  8
PLAN_1
 62
     2
  6
CONTINUOUS
 10
-0.259480
 20
-0.815752
  0
VERTEX
  8
PLAN_1
 62
     2
  6
CONTINUOUS
 10
-0.257433
 20
-0.814217
  0
VERTEX
  8
PLAN_1
 62
     2
  6
CONTINUOUS
 10
-0.254874
 20
-0.812681
  0
VERTEX
  8
PLAN_1
 62
     2
  6
CONTINUOUS
 10
-0.252311
 20
-0.812165
  0
VERTEX
  8
PLAN_1
 62
     2
  6
CONTINUOUS
 10
-0.249240
 20
-0.811142
  0
VERTEX
  8
PLAN_1
 62
     2
  6
CONTINUOUS
 10
-0.246681
 20
-0.810630
  0
VERTEX
  8
PLAN_1
 62
     2
  6
CONTINUOUS
 10
-0.243094
 20
-0.810630
  0
VERTEX
  8
PLAN_1
 62
     2
  6
CONTINUOUS
 10
-0.240535
 20
-0.810630
  0
VERTEX
  8
PLAN_1
 62
     2
  6
CONTINUOUS
 10
-0.237465
 20
-0.811142
  0
VERTEX
  8
PLAN_1
 62
     2
  6
CONTINUOUS
 10
-0.235413
 20
-0.811654
  0
VERTEX
  8
PLAN_1
 62
     2
  6
CONTINUOUS
 10
-0.232854
 20
-0.812681
  0
VERTEX
  8
PLAN_1
 62
     2
  6
CONTINUOUS
 10
-0.230807
 20
-0.814217
  0
VERTEX
  8
PLAN_1
 62
     2
  6
CONTINUOUS
 10
-0.228756
 20
-0.815752
  0
VERTEX
  8
PLAN_1
 62
     2
  6
CONTINUOUS
 10
-0.227220
 20
-0.817287
  0
VERTEX
  8
PLAN_1
 62
     2
  6
CONTINUOUS
 10
-0.225685
 20
-0.819335
  0
VERTEX
  8
PLAN_1
 62
     2
  6
CONTINUOUS
 10
-0.223126
 20
-0.823945
  0
VERTEX
  8
PLAN_1
 62
     2
  6
CONTINUOUS
 10
-0.221079
 20
-0.829067
  0
VERTEX
  8
PLAN_1
 62
     2
  6
CONTINUOUS
 10
-0.220051
 20
-0.835209
  0
VERTEX
  8
PLAN_1
 62
     2
  6
CONTINUOUS
 10
-0.219539
 20
-0.842378
  0
VERTEX
  8
PLAN_1
 62
     2
  6
CONTINUOUS
 10
-0.259480
 20
-0.842378
  0
VERTEX
  8
PLAN_1
 62
     2
  6
CONTINUOUS
 10
-0.259480
 20
-0.846476
  0
VERTEX
  8
PLAN_1
 62
     2
  6
CONTINUOUS
 10
-0.258457
 20
-0.850059
  0
VERTEX
  8
PLAN_1
 62
     2
  6
CONTINUOUS
 10
-0.257433
 20
-0.853134
  0
VERTEX
  8
PLAN_1
 62
     2
  6
CONTINUOUS
 10
-0.255386
 20
-0.855693
  0
VERTEX
  8
PLAN_1
 62
     2
  6
CONTINUOUS
 10
-0.253339
 20
-0.857740
  0
VERTEX
  8
PLAN_1
 62
     2
  6
CONTINUOUS
 10
-0.250776
 20
-0.858764
  0
VERTEX
  8
PLAN_1
 62
     2
  6
CONTINUOUS
 10
-0.247193
 20
-0.859787
  0
VERTEX
  8
PLAN_1
 62
     2
  6
CONTINUOUS
 10
-0.243606
 20
-0.860299
  0
VERTEX
  8
PLAN_1
 62
     2
  6
CONTINUOUS
 10
-0.240535
 20
-0.859787
  0
VERTEX
  8
PLAN_1
 62
     2
  6
CONTINUOUS
 10
-0.237976
 20
-0.859276
  0
VERTEX
  8
PLAN_1
 62
     2
  6
CONTINUOUS
 10
-0.235413
 20
-0.857740
  0
VERTEX
  8
PLAN_1
 62
     2
  6
CONTINUOUS
 10
-0.233366
 20
-0.856205
  0
VERTEX
  8
PLAN_1
 62
     2
  6
CONTINUOUS
 10
-0.231831
 20
-0.854669
  0
VERTEX
  8
PLAN_1
 62
     2
  6
CONTINUOUS
 10
-0.230807
 20
-0.852622
  0
VERTEX
  8
PLAN_1
 62
     2
  6
CONTINUOUS
 10
-0.229783
 20
-0.851083
  0
VERTEX
  8
PLAN_1
 62
     2
  6
CONTINUOUS
 10
-0.229783
 20
-0.849547
  0
VERTEX
  8
PLAN_1
 62
     2
  6
CONTINUOUS
 10
-0.220563
 20
-0.849547
  0
SEQEND
  8
0
  0
POLYLINE
  8
PLAN_1
 62
     2
  6
CONTINUOUS
 66
     1
 40
0.003000
 41
0.003000
  0
VERTEX
  8
PLAN_1
 62
     2
  6
CONTINUOUS
 10
-0.229272
 20
-0.835209
  0
VERTEX
  8
PLAN_1
 62
     2
  6
CONTINUOUS
 10
-0.229783
 20
-0.832138
  0
VERTEX
  8
PLAN_1
 62
     2
  6
CONTINUOUS
 10
-0.230295
 20
-0.829067
  0
VERTEX
  8
PLAN_1
 62
     2
  6
CONTINUOUS
 10
-0.231319
 20
-0.825992
  0
VERTEX
  8
PLAN_1
 62
     2
  6
CONTINUOUS
 10
-0.232854
 20
-0.823945
  0
VERTEX
  8
PLAN_1
 62
     2
  6
CONTINUOUS
 10
-0.234902
 20
-0.821898
  0
VERTEX
  8
PLAN_1
 62
     2
  6
CONTINUOUS
 10
-0.237465
 20
-0.820362
  0
VERTEX
  8
PLAN_1
 62
     2
  6
CONTINUOUS
 10
-0.240535
 20
-0.819335
  0
VERTEX
  8
PLAN_1
 62
     2
  6
CONTINUOUS
 10
-0.244630
 20
-0.818823
  0
VERTEX
  8
PLAN_1
 62
     2
  6
CONTINUOUS
 10
-0.247705
 20
-0.819335
  0
VERTEX
  8
PLAN_1
 62
     2
  6
CONTINUOUS
 10
-0.250264
 20
-0.820362
  0
VERTEX
  8
PLAN_1
 62
     2
  6
CONTINUOUS
 10
-0.252823
 20
-0.821898
  0
VERTEX
  8
PLAN_1
 62
     2
  6
CONTINUOUS
 10
-0.254874
 20
-0.823945
  0
VERTEX
  8
PLAN_1
 62
     2
  6
CONTINUOUS
 10
-0.256921
 20
-0.825992
  0
VERTEX
  8
PLAN_1
 62
     2
  6
CONTINUOUS
 10
-0.258457
 20
-0.829067
  0
VERTEX
  8
PLAN_1
 62
     2
  6
CONTINUOUS
 10
-0.258969
 20
-0.832138
  0
VERTEX
  8
PLAN_1
 62
     2
  6
CONTINUOUS
 10
-0.259480
 20
-0.835209
  0
VERTEX
  8
PLAN_1
 62
     2
  6
CONTINUOUS
 10
-0.229272
 20
-0.835209
  0
SEQEND
  8
0
  0
POLYLINE
  8
PLAN_1
 62
     2
  6
CONTINUOUS
 66
     1
 40
0.003000
 41
0.003000
  0
VERTEX
  8
PLAN_1
 62
     2
  6
CONTINUOUS
 10
-0.178063
 20
-0.827528
  0
VERTEX
  8
PLAN_1
 62
     2
  6
CONTINUOUS
 10
-0.178063
 20
-0.825992
  0
VERTEX
  8
PLAN_1
 62
     2
  6
CONTINUOUS
 10
-0.178063
 20
-0.824969
  0
VERTEX
  8
PLAN_1
 62
     2
  6
CONTINUOUS
 10
-0.179087
 20
-0.823433
  0
VERTEX
  8
PLAN_1
 62
     2
  6
CONTINUOUS
 10
-0.180110
 20
-0.821898
  0
VERTEX
  8
PLAN_1
 62
     2
  6
CONTINUOUS
 10
-0.181650
 20
-0.820362
  0
VERTEX
  8
PLAN_1
 62
     2
  6
CONTINUOUS
 10
-0.183697
 20
-0.819335
  0
VERTEX
  8
PLAN_1
 62
     2
  6
CONTINUOUS
 10
-0.186768
 20
-0.818823
  0
VERTEX
  8
PLAN_1
 62
     2
  6
CONTINUOUS
 10
-0.190866
 20
-0.818311
  0
VERTEX
  8
PLAN_1
 62
     2
  6
CONTINUOUS
 10
-0.191890
 20
-0.818311
  0
VERTEX
  8
PLAN_1
 62
     2
  6
CONTINUOUS
 10
-0.193425
 20
-0.818823
  0
VERTEX
  8
PLAN_1
 62
     2
  6
CONTINUOUS
 10
-0.195472
 20
-0.819335
  0
VERTEX
  8
PLAN_1
 62
     2
  6
CONTINUOUS
 10
-0.197012
 20
-0.819846
  0
VERTEX
  8
PLAN_1
 62
     2
  6
CONTINUOUS
 10
-0.199059
 20
-0.820874
  0
VERTEX
  8
PLAN_1
 62
     2
  6
CONTINUOUS
 10
-0.200083
 20
-0.821898
  0
VERTEX
  8
PLAN_1
 62
     2
  6
CONTINUOUS
 10
-0.201106
 20
-0.823945
  0
VERTEX
  8
PLAN_1
 62
     2
  6
CONTINUOUS
 10
-0.201618
 20
-0.825992
  0
VERTEX
  8
PLAN_1
 62
     2
  6
CONTINUOUS
 10
-0.201618
 20
-0.827528
  0
VERTEX
  8
PLAN_1
 62
     2
  6
CONTINUOUS
 10
-0.201106
 20
-0.829067
  0
VERTEX
  8
PLAN_1
 62
     2
  6
CONTINUOUS
 10
-0.200594
 20
-0.830091
  0
VERTEX
  8
PLAN_1
 62
     2
  6
CONTINUOUS
 10
-0.199571
 20
-0.830602
  0
VERTEX
  8
PLAN_1
 62
     2
  6
CONTINUOUS
 10
-0.198035
 20
-0.831626
  0
VERTEX
  8
PLAN_1
 62
     2
  6
CONTINUOUS
 10
-0.196496
 20
-0.832138
  0
VERTEX
  8
PLAN_1
 62
     2
  6
CONTINUOUS
 10
-0.193937
 20
-0.832650
  0
VERTEX
  8
PLAN_1
 62
     2
  6
CONTINUOUS
 10
-0.191890
 20
-0.833673
  0
VERTEX
  8
PLAN_1
 62
     2
  6
CONTINUOUS
 10
-0.182673
 20
-0.835720
  0
VERTEX
  8
PLAN_1
 62
     2
  6
CONTINUOUS
 10
-0.178575
 20
-0.836748
  0
VERTEX
  8
PLAN_1
 62
     2
  6
CONTINUOUS
 10
-0.175504
 20
-0.838283
  0
VERTEX
  8
PLAN_1
 62
     2
  6
CONTINUOUS
 10
-0.172945
 20
-0.839819
  0
VERTEX
  8
PLAN_1
 62
     2
  6
CONTINUOUS
 10
-0.170894
 20
-0.841354
  0
VERTEX
  8
PLAN_1
 62
     2
  6
CONTINUOUS
 10
-0.169358
 20
-0.842890
  0
VERTEX
  8
PLAN_1
 62
     2
  6
CONTINUOUS
 10
-0.167823
 20
-0.844941
  0
VERTEX
  8
PLAN_1
 62
     2
  6
CONTINUOUS
 10
-0.167311
 20
-0.847500
  0
VERTEX
  8
PLAN_1
 62
     2
  6
CONTINUOUS
 10
-0.167311
 20
-0.850059
  0
VERTEX
  8
PLAN_1
 62
     2
  6
CONTINUOUS
 10
-0.167823
 20
-0.854157
  0
VERTEX
  8
PLAN_1
 62
     2
  6
CONTINUOUS
 10
-0.168846
 20
-0.857740
  0
VERTEX
  8
PLAN_1
 62
     2
  6
CONTINUOUS
 10
-0.170894
 20
-0.860815
  0
VERTEX
  8
PLAN_1
 62
     2
  6
CONTINUOUS
 10
-0.173457
 20
-0.863374
  0
VERTEX
  8
PLAN_1
 62
     2
  6
CONTINUOUS
 10
-0.176528
 20
-0.865421
  0
VERTEX
  8
PLAN_1
 62
     2
  6
CONTINUOUS
 10
-0.180110
 20
-0.866957
  0
VERTEX
  8
PLAN_1
 62
     2
  6
CONTINUOUS
 10
-0.184209
 20
-0.867980
  0
VERTEX
  8
PLAN_1
 62
     2
  6
CONTINUOUS
 10
-0.188819
 20
-0.867980
  0
VERTEX
  8
PLAN_1
 62
     2
  6
CONTINUOUS
 10
-0.192402
 20
-0.867980
  0
VERTEX
  8
PLAN_1
 62
     2
  6
CONTINUOUS
 10
-0.195984
 20
-0.867469
  0
VERTEX
  8
PLAN_1
 62
     2
  6
CONTINUOUS
 10
-0.199059
 20
-0.866957
  0
VERTEX
  8
PLAN_1
 62
     2
  6
CONTINUOUS
 10
-0.201618
 20
-0.865933
  0
VERTEX
  8
PLAN_1
 62
     2
  6
CONTINUOUS
 10
-0.203665
 20
-0.864909
  0
VERTEX
  8
PLAN_1
 62
     2
  6
CONTINUOUS
 10
-0.205717
 20
-0.863886
  0
VERTEX
  8
PLAN_1
 62
     2
  6
CONTINUOUS
 10
-0.207252
 20
-0.862350
  0
VERTEX
  8
PLAN_1
 62
     2
  6
CONTINUOUS
 10
-0.208276
 20
-0.860815
  0
VERTEX
  8
PLAN_1
 62
     2
  6
CONTINUOUS
 10
-0.210323
 20
-0.857740
  0
VERTEX
  8
PLAN_1
 62
     2
  6
CONTINUOUS
 10
-0.211346
 20
-0.854669
  0
VERTEX
  8
PLAN_1
 62
     2
  6
CONTINUOUS
 10
-0.211858
 20
-0.851594
  0
VERTEX
  8
PLAN_1
 62
     2
  6
CONTINUOUS
 10
-0.212370
 20
-0.849035
  0
VERTEX
  8
PLAN_1
 62
     2
  6
CONTINUOUS
 10
-0.203154
 20
-0.849035
  0
VERTEX
  8
PLAN_1
 62
     2
  6
CONTINUOUS
 10
-0.203154
 20
-0.850571
  0
VERTEX
  8
PLAN_1
 62
     2
  6
CONTINUOUS
 10
-0.202642
 20
-0.852622
  0
VERTEX
  8
PLAN_1
 62
     2
  6
CONTINUOUS
 10
-0.202130
 20
-0.854669
  0
VERTEX
  8
PLAN_1
 62
     2
  6
CONTINUOUS
 10
-0.201106
 20
-0.856205
  0
VERTEX
  8
PLAN_1
 62
     2
  6
CONTINUOUS
 10
-0.199059
 20
-0.857740
  0
VERTEX
  8
PLAN_1
 62
     2
  6
CONTINUOUS
 10
-0.196496
 20
-0.859276
  0
VERTEX
  8
PLAN_1
 62
     2
  6
CONTINUOUS
 10
-0.193425
 20
-0.859787
  0
VERTEX
  8
PLAN_1
 62
     2
  6
CONTINUOUS
 10
-0.188819
 20
-0.860299
  0
VERTEX
  8
PLAN_1
 62
     2
  6
CONTINUOUS
 10
-0.186256
 20
-0.860299
  0
VERTEX
  8
PLAN_1
 62
     2
  6
CONTINUOUS
 10
-0.184209
 20
-0.859787
  0
VERTEX
  8
PLAN_1
 62
     2
  6
CONTINUOUS
 10
-0.182161
 20
-0.859276
  0
VERTEX
  8
PLAN_1
 62
     2
  6
CONTINUOUS
 10
-0.180110
 20
-0.858252
  0
VERTEX
  8
PLAN_1
 62
     2
  6
CONTINUOUS
 10
-0.178575
 20
-0.856717
  0
VERTEX
  8
PLAN_1
 62
     2
  6
CONTINUOUS
 10
-0.177551
 20
-0.855693
  0
VERTEX
  8
PLAN_1
 62
     2
  6
CONTINUOUS
 10
-0.176528
 20
-0.853646
  0
VERTEX
  8
PLAN_1
 62
     2
  6
CONTINUOUS
 10
-0.176528
 20
-0.851594
  0
VERTEX
  8
PLAN_1
 62
     2
  6
CONTINUOUS
 10
-0.176528
 20
-0.850059
  0
VERTEX
  8
PLAN_1
 62
     2
  6
CONTINUOUS
 10
-0.177039
 20
-0.848524
  0
VERTEX
  8
PLAN_1
 62
     2
  6
CONTINUOUS
 10
-0.177551
 20
-0.847500
  0
VERTEX
  8
PLAN_1
 62
     2
  6
CONTINUOUS
 10
-0.179087
 20
-0.846988
  0
VERTEX
  8
PLAN_1
 62
     2
  6
CONTINUOUS
 10
-0.180622
 20
-0.845965
  0
VERTEX
  8
PLAN_1
 62
     2
  6
CONTINUOUS
 10
-0.182161
 20
-0.844941
  0
VERTEX
  8
PLAN_1
 62
     2
  6
CONTINUOUS
 10
-0.184720
 20
-0.844429
  0
VERTEX
  8
PLAN_1
 62
     2
  6
CONTINUOUS
 10
-0.187280
 20
-0.843913
  0
VERTEX
  8
PLAN_1
 62
     2
  6
CONTINUOUS
 10
-0.198035
 20
-0.841354
  0
VERTEX
  8
PLAN_1
 62
     2
  6
CONTINUOUS
 10
-0.200594
 20
-0.840331
  0
VERTEX
  8
PLAN_1
 62
     2
  6
CONTINUOUS
 10
-0.203154
 20
-0.839307
  0
VERTEX
  8
PLAN_1
 62
     2
  6
CONTINUOUS
 10
-0.205205
 20
-0.838283
  0
VERTEX
  8
PLAN_1
 62
     2
  6
CONTINUOUS
 10
-0.207252
 20
-0.836748
  0
VERTEX
  8
PLAN_1
 62
     2
  6
CONTINUOUS
 10
-0.208276
 20
-0.834697
  0
VERTEX
  8
PLAN_1
 62
     2
  6
CONTINUOUS
 10
-0.209299
 20
-0.832650
  0
VERTEX
  8
PLAN_1
 62
     2
  6
CONTINUOUS
 10
-0.210323
 20
-0.830602
  0
VERTEX
  8
PLAN_1
 62
     2
  6
CONTINUOUS
 10
-0.210323
 20
-0.828039
  0
VERTEX
  8
PLAN_1
 62
     2
  6
CONTINUOUS
 10
-0.209811
 20
-0.823945
  0
VERTEX
  8
PLAN_1
 62
     2
  6
CONTINUOUS
 10
-0.208787
 20
-0.820362
  0
VERTEX
  8
PLAN_1
 62
     2
  6
CONTINUOUS
 10
-0.206740
 20
-0.817287
  0
VERTEX
  8
PLAN_1
 62
     2
  6
CONTINUOUS
 10
-0.204177
 20
-0.814728
  0
VERTEX
  8
PLAN_1
 62
     2
  6
CONTINUOUS
 10
-0.201106
 20
-0.812681
  0
VERTEX
  8
PLAN_1
 62
     2
  6
CONTINUOUS
 10
-0.197524
 20
-0.811654
  0
VERTEX
  8
PLAN_1
 62
     2
  6
CONTINUOUS
 10
-0.193937
 20
-0.810630
  0
VERTEX
  8
PLAN_1
 62
     2
  6
CONTINUOUS
 10
-0.189843
 20
-0.810630
  0
VERTEX
  8
PLAN_1
 62
     2
  6
CONTINUOUS
 10
-0.186256
 20
-0.810630
  0
VERTEX
  8
PLAN_1
 62
     2
  6
CONTINUOUS
 10
-0.183185
 20
-0.811142
  0
VERTEX
  8
PLAN_1
 62
     2
  6
CONTINUOUS
 10
-0.180622
 20
-0.812165
  0
VERTEX
  8
PLAN_1
 62
     2
  6
CONTINUOUS
 10
-0.178575
 20
-0.812681
  0
VERTEX
  8
PLAN_1
 62
     2
  6
CONTINUOUS
 10
-0.176528
 20
-0.814217
  0
VERTEX
  8
PLAN_1
 62
     2
  6
CONTINUOUS
 10
-0.174480
 20
-0.815240
  0
VERTEX
  8
PLAN_1
 62
     2
  6
CONTINUOUS
 10
-0.173457
 20
-0.816776
  0
VERTEX
  8
PLAN_1
 62
     2
  6
CONTINUOUS
 10
-0.171917
 20
-0.818311
  0
VERTEX
  8
PLAN_1
 62
     2
  6
CONTINUOUS
 10
-0.170382
 20
-0.820874
  0
VERTEX
  8
PLAN_1
 62
     2
  6
CONTINUOUS
 10
-0.169358
 20
-0.823945
  0
VERTEX
  8
PLAN_1
 62
     2
  6
CONTINUOUS
 10
-0.169358
 20
-0.825992
  0
VERTEX
  8
PLAN_1
 62
     2
  6
CONTINUOUS
 10
-0.168846
 20
-0.827528
  0
VERTEX
  8
PLAN_1
 62
     2
  6
CONTINUOUS
 10
-0.178063
 20
-0.827528
  0
SEQEND
  8
0
  0
POLYLINE
  8
PLAN_1
 62
     2
  6
CONTINUOUS
 66
     1
 40
0.003000
 41
0.003000
  0
VERTEX
  8
PLAN_1
 62
     2
  6
CONTINUOUS
 10
-0.125835
 20
-0.827528
  0
VERTEX
  8
PLAN_1
 62
     2
  6
CONTINUOUS
 10
-0.125835
 20
-0.825992
  0
VERTEX
  8
PLAN_1
 62
     2
  6
CONTINUOUS
 10
-0.126346
 20
-0.824969
  0
VERTEX
  8
PLAN_1
 62
     2
  6
CONTINUOUS
 10
-0.126858
 20
-0.823433
  0
VERTEX
  8
PLAN_1
 62
     2
  6
CONTINUOUS
 10
-0.127882
 20
-0.821898
  0
VERTEX
  8
PLAN_1
 62
     2
  6
CONTINUOUS
 10
-0.129417
 20
-0.820362
  0
VERTEX
  8
PLAN_1
 62
     2
  6
CONTINUOUS
 10
-0.131976
 20
-0.819335
  0
VERTEX
  8
PLAN_1
 62
     2
  6
CONTINUOUS
 10
-0.135051
 20
-0.818823
  0
VERTEX
  8
PLAN_1
 62
     2
  6
CONTINUOUS
 10
-0.138634
 20
-0.818311
  0
VERTEX
  8
PLAN_1
 62
     2
  6
CONTINUOUS
 10
-0.140169
 20
-0.818311
  0
VERTEX
  8
PLAN_1
 62
     2
  6
CONTINUOUS
 10
-0.141709
 20
-0.818823
  0
VERTEX
  8
PLAN_1
 62
     2
  6
CONTINUOUS
 10
-0.143244
 20
-0.819335
  0
VERTEX
  8
PLAN_1
 62
     2
  6
CONTINUOUS
 10
-0.145291
 20
-0.819846
  0
VERTEX
  8
PLAN_1
 62
     2
  6
CONTINUOUS
 10
-0.146827
 20
-0.820874
  0
VERTEX
  8
PLAN_1
 62
     2
  6
CONTINUOUS
 10
-0.148362
 20
-0.821898
  0
VERTEX
  8
PLAN_1
 62
     2
  6
CONTINUOUS
 10
-0.149390
 20
-0.823945
  0
VERTEX
  8
PLAN_1
 62
     2
  6
CONTINUOUS
 10
-0.149390
 20
-0.825992
  0
VERTEX
  8
PLAN_1
 62
     2
  6
CONTINUOUS
 10
-0.149390
 20
-0.827528
  0
VERTEX
  8
PLAN_1
 62
     2
  6
CONTINUOUS
 10
-0.148878
 20
-0.829067
  0
VERTEX
  8
PLAN_1
 62
     2
  6
CONTINUOUS
 10
-0.148362
 20
-0.830091
  0
VERTEX
  8
PLAN_1
 62
     2
  6
CONTINUOUS
 10
-0.147339
 20
-0.830602
  0
VERTEX
  8
PLAN_1
 62
     2
  6
CONTINUOUS
 10
-0.145803
 20
-0.831626
  0
VERTEX
  8
PLAN_1
 62
     2
  6
CONTINUOUS
 10
-0.144268
 20
-0.832138
  0
VERTEX
  8
PLAN_1
 62
     2
  6
CONTINUOUS
 10
-0.142220
 20
-0.832650
  0
VERTEX
  8
PLAN_1
 62
     2
  6
CONTINUOUS
 10
-0.139657
 20
-0.833673
  0
VERTEX
  8
PLAN_1
 62
     2
  6
CONTINUOUS
 10
-0.130441
 20
-0.835720
  0
VERTEX
  8
PLAN_1
 62
     2
  6
CONTINUOUS
 10
-0.126346
 20
-0.836748
  0
VERTEX
  8
PLAN_1
 62
     2
  6
CONTINUOUS
 10
-0.123272
 20
-0.838283
  0
VERTEX
  8
PLAN_1
 62
     2
  6
CONTINUOUS
 10
-0.120713
 20
-0.839819
  0
VERTEX
  8
PLAN_1
 62
     2
  6
CONTINUOUS
 10
-0.118665
 20
-0.841354
  0
VERTEX
  8
PLAN_1
 62
     2
  6
CONTINUOUS
 10
-0.117130
 20
-0.842890
  0
VERTEX
  8
PLAN_1
 62
     2
  6
CONTINUOUS
 10
-0.116102
 20
-0.844941
  0
VERTEX
  8
PLAN_1
 62
     2
  6
CONTINUOUS
 10
-0.115591
 20
-0.847500
  0
VERTEX
  8
PLAN_1
 62
     2
  6
CONTINUOUS
 10
-0.115079
 20
-0.850059
  0
VERTEX
  8
PLAN_1
 62
     2
  6
CONTINUOUS
 10
-0.115591
 20
-0.854157
  0
VERTEX
  8
PLAN_1
 62
     2
  6
CONTINUOUS
 10
-0.116618
 20
-0.857740
  0
VERTEX
  8
PLAN_1
 62
     2
  6
CONTINUOUS
 10
-0.118665
 20
-0.860815
  0
VERTEX
  8
PLAN_1
 62
     2
  6
CONTINUOUS
 10
-0.121224
 20
-0.863374
  0
VERTEX
  8
PLAN_1
 62
     2
  6
CONTINUOUS
 10
-0.124295
 20
-0.865421
  0
VERTEX
  8
PLAN_1
 62
     2
  6
CONTINUOUS
 10
-0.128394
 20
-0.866957
  0
VERTEX
  8
PLAN_1
 62
     2
  6
CONTINUOUS
 10
-0.132488
 20
-0.867980
  0
VERTEX
  8
PLAN_1
 62
     2
  6
CONTINUOUS
 10
-0.136587
 20
-0.867980
  0
VERTEX
  8
PLAN_1
 62
     2
  6
CONTINUOUS
 10
-0.140685
 20
-0.867980
  0
VERTEX
  8
PLAN_1
 62
     2
  6
CONTINUOUS
 10
-0.143756
 20
-0.867469
  0
VERTEX
  8
PLAN_1
 62
     2
  6
CONTINUOUS
 10
-0.146827
 20
-0.866957
  0
VERTEX
  8
PLAN_1
 62
     2
  6
CONTINUOUS
 10
-0.149390
 20
-0.865933
  0
VERTEX
  8
PLAN_1
 62
     2
  6
CONTINUOUS
 10
-0.151437
 20
-0.864909
  0
VERTEX
  8
PLAN_1
 62
     2
  6
CONTINUOUS
 10
-0.153484
 20
-0.863886
  0
VERTEX
  8
PLAN_1
 62
     2
  6
CONTINUOUS
 10
-0.155020
 20
-0.862350
  0
VERTEX
  8
PLAN_1
 62
     2
  6
CONTINUOUS
 10
-0.156555
 20
-0.860815
  0
VERTEX
  8
PLAN_1
 62
     2
  6
CONTINUOUS
 10
-0.158094
 20
-0.857740
  0
VERTEX
  8
PLAN_1
 62
     2
  6
CONTINUOUS
 10
-0.159630
 20
-0.854669
  0
VERTEX
  8
PLAN_1
 62
     2
  6
CONTINUOUS
 10
-0.160142
 20
-0.851594
  0
VERTEX
  8
PLAN_1
 62
     2
  6
CONTINUOUS
 10
-0.160142
 20
-0.849035
  0
VERTEX
  8
PLAN_1
 62
     2
  6
CONTINUOUS
 10
-0.151437
 20
-0.849035
  0
VERTEX
  8
PLAN_1
 62
     2
  6
CONTINUOUS
 10
-0.150925
 20
-0.850571
  0
VERTEX
  8
PLAN_1
 62
     2
  6
CONTINUOUS
 10
-0.150925
 20
-0.852622
  0
VERTEX
  8
PLAN_1
 62
     2
  6
CONTINUOUS
 10
-0.149902
 20
-0.854669
  0
VERTEX
  8
PLAN_1
 62
     2
  6
CONTINUOUS
 10
-0.148878
 20
-0.856205
  0
VERTEX
  8
PLAN_1
 62
     2
  6
CONTINUOUS
 10
-0.146827
 20
-0.857740
  0
VERTEX
  8
PLAN_1
 62
     2
  6
CONTINUOUS
 10
-0.144268
 20
-0.859276
  0
VERTEX
  8
PLAN_1
 62
     2
  6
CONTINUOUS
 10
-0.141197
 20
-0.859787
  0
VERTEX
  8
PLAN_1
 62
     2
  6
CONTINUOUS
 10
-0.136587
 20
-0.860299
  0
VERTEX
  8
PLAN_1
 62
     2
  6
CONTINUOUS
 10
-0.134539
 20
-0.860299
  0
VERTEX
  8
PLAN_1
 62
     2
  6
CONTINUOUS
 10
-0.131976
 20
-0.859787
  0
VERTEX
  8
PLAN_1
 62
     2
  6
CONTINUOUS
 10
-0.129929
 20
-0.859276
  0
VERTEX
  8
PLAN_1
 62
     2
  6
CONTINUOUS
 10
-0.127882
 20
-0.858252
  0
VERTEX
  8
PLAN_1
 62
     2
  6
CONTINUOUS
 10
-0.126346
 20
-0.856717
  0
VERTEX
  8
PLAN_1
 62
     2
  6
CONTINUOUS
 10
-0.125323
 20
-0.855693
  0
VERTEX
  8
PLAN_1
 62
     2
  6
CONTINUOUS
 10
-0.124811
 20
-0.853646
  0
VERTEX
  8
PLAN_1
 62
     2
  6
CONTINUOUS
 10
-0.124295
 20
-0.851594
  0
VERTEX
  8
PLAN_1
 62
     2
  6
CONTINUOUS
 10
-0.124295
 20
-0.850059
  0
VERTEX
  8
PLAN_1
 62
     2
  6
CONTINUOUS
 10
-0.124811
 20
-0.848524
  0
VERTEX
  8
PLAN_1
 62
     2
  6
CONTINUOUS
 10
-0.125835
 20
-0.847500
  0
VERTEX
  8
PLAN_1
 62
     2
  6
CONTINUOUS
 10
-0.126858
 20
-0.846988
  0
VERTEX
  8
PLAN_1
 62
     2
  6
CONTINUOUS
 10
-0.128394
 20
-0.845965
  0
VERTEX
  8
PLAN_1
 62
     2
  6
CONTINUOUS
 10
-0.130441
 20
-0.844941
  0
VERTEX
  8
PLAN_1
 62
     2
  6
CONTINUOUS
 10
-0.132488
 20
-0.844429
  0
VERTEX
  8
PLAN_1
 62
     2
  6
CONTINUOUS
 10
-0.135051
 20
-0.843913
  0
VERTEX
  8
PLAN_1
 62
     2
  6
CONTINUOUS
 10
-0.145803
 20
-0.841354
  0
VERTEX
  8
PLAN_1
 62
     2
  6
CONTINUOUS
 10
-0.148362
 20
-0.840331
  0
VERTEX
  8
PLAN_1
 62
     2
  6
CONTINUOUS
 10
-0.150925
 20
-0.839307
  0
VERTEX
  8
PLAN_1
 62
     2
  6
CONTINUOUS
 10
-0.152972
 20
-0.838283
  0
VERTEX
  8
PLAN_1
 62
     2
  6
CONTINUOUS
 10
-0.155020
 20
-0.836748
  0
VERTEX
  8
PLAN_1
 62
     2
  6
CONTINUOUS
 10
-0.156555
 20
-0.834697
  0
VERTEX
  8
PLAN_1
 62
     2
  6
CONTINUOUS
 10
-0.157583
 20
-0.832650
  0
VERTEX
  8
PLAN_1
 62
     2
  6
CONTINUOUS
 10
-0.158094
 20
-0.830602
  0
VERTEX
  8
PLAN_1
 62
     2
  6
CONTINUOUS
 10
-0.158606
 20
-0.828039
  0
VERTEX
  8
PLAN_1
 62
     2
  6
CONTINUOUS
 10
-0.158094
 20
-0.823945
  0
VERTEX
  8
PLAN_1
 62
     2
  6
CONTINUOUS
 10
-0.156555
 20
-0.820362
  0
VERTEX
  8
PLAN_1
 62
     2
  6
CONTINUOUS
 10
-0.154508
 20
-0.817287
  0
VERTEX
  8
PLAN_1
 62
     2
  6
CONTINUOUS
 10
-0.151949
 20
-0.814728
  0
VERTEX
  8
PLAN_1
 62
     2
  6
CONTINUOUS
 10
-0.148878
 20
-0.812681
  0
VERTEX
  8
PLAN_1
 62
     2
  6
CONTINUOUS
 10
-0.145291
 20
-0.811654
  0
VERTEX
  8
PLAN_1
 62
     2
  6
CONTINUOUS
 10
-0.141709
 20
-0.810630
  0
VERTEX
  8
PLAN_1
 62
     2
  6
CONTINUOUS
 10
-0.137610
 20
-0.810630
  0
VERTEX
  8
PLAN_1
 62
     2
  6
CONTINUOUS
 10
-0.134539
 20
-0.810630
  0
VERTEX
  8
PLAN_1
 62
     2
  6
CONTINUOUS
 10
-0.131465
 20
-0.811142
  0
VERTEX
  8
PLAN_1
 62
     2
  6
CONTINUOUS
 10
-0.128394
 20
-0.812165
  0
VERTEX
  8
PLAN_1
 62
     2
  6
CONTINUOUS
 10
-0.126346
 20
-0.812681
  0
VERTEX
  8
PLAN_1
 62
     2
  6
CONTINUOUS
 10
-0.124295
 20
-0.814217
  0
VERTEX
  8
PLAN_1
 62
     2
  6
CONTINUOUS
 10
-0.122760
 20
-0.815240
  0
VERTEX
  8
PLAN_1
 62
     2
  6
CONTINUOUS
 10
-0.121224
 20
-0.816776
  0
VERTEX
  8
PLAN_1
 62
     2
  6
CONTINUOUS
 10
-0.120201
 20
-0.818311
  0
VERTEX
  8
PLAN_1
 62
     2
  6
CONTINUOUS
 10
-0.118665
 20
-0.820874
  0
VERTEX
  8
PLAN_1
 62
     2
  6
CONTINUOUS
 10
-0.117642
 20
-0.823945
  0
VERTEX
  8
PLAN_1
 62
     2
  6
CONTINUOUS
 10
-0.117130
 20
-0.825992
  0
VERTEX
  8
PLAN_1
 62
     2
  6
CONTINUOUS
 10
-0.117130
 20
-0.827528
  0
VERTEX
  8
PLAN_1
 62
     2
  6
CONTINUOUS
 10
-0.125835
 20
-0.827528
  0
SEQEND
  8
0
  0
POLYLINE
  8
PLAN_1
 62
     2
  6
CONTINUOUS
 66
     1
 40
0.003000
 41
0.003000
  0
VERTEX
  8
PLAN_1
 62
     2
  6
CONTINUOUS
 10
-0.058240
 20
-0.849547
  0
VERTEX
  8
PLAN_1
 62
     2
  6
CONTINUOUS
 10
-0.058752
 20
-0.850571
  0
VERTEX
  8
PLAN_1
 62
     2
  6
CONTINUOUS
 10
-0.059264
 20
-0.852106
  0
VERTEX
  8
PLAN_1
 62
     2
  6
CONTINUOUS
 10
-0.059776
 20
-0.854157
  0
VERTEX
  8
PLAN_1
 62
     2
  6
CONTINUOUS
 10
-0.060803
 20
-0.856205
  0
VERTEX
  8
PLAN_1
 62
     2
  6
CONTINUOUS
 10
-0.062339
 20
-0.858252
  0
VERTEX
  8
PLAN_1
 62
     2
  6
CONTINUOUS
 10
-0.063874
 20
-0.860299
  0
VERTEX
  8
PLAN_1
 62
     2
  6
CONTINUOUS
 10
-0.065921
 20
-0.862350
  0
VERTEX
  8
PLAN_1
 62
     2
  6
CONTINUOUS
 10
-0.067969
 20
-0.864398
  0
VERTEX
  8
PLAN_1
 62
     2
  6
CONTINUOUS
 10
-0.068996
 20
-0.864909
  0
VERTEX
  8
PLAN_1
 62
     2
  6
CONTINUOUS
 10
-0.070020
 20
-0.865421
  0
VERTEX
  8
PLAN_1
 62
     2
  6
CONTINUOUS
 10
-0.071555
 20
-0.866445
  0
VERTEX
  8
PLAN_1
 62
     2
  6
CONTINUOUS
 10
-0.073091
 20
-0.866957
  0
VERTEX
  8
PLAN_1
 62
     2
  6
CONTINUOUS
 10
-0.075138
 20
-0.867469
  0
VERTEX
  8
PLAN_1
 62
     2
  6
CONTINUOUS
 10
-0.077189
 20
-0.867980
  0
VERTEX
  8
PLAN_1
 62
     2
  6
CONTINUOUS
 10
-0.079748
 20
-0.867980
  0
VERTEX
  8
PLAN_1
 62
     2
  6
CONTINUOUS
 10
-0.082819
 20
-0.867980
  0
VERTEX
  8
PLAN_1
 62
     2
  6
CONTINUOUS
 10
-0.085894
 20
-0.867980
  0
VERTEX
  8
PLAN_1
 62
     2
  6
CONTINUOUS
 10
-0.088453
 20
-0.867469
  0
VERTEX
  8
PLAN_1
 62
     2
  6
CONTINUOUS
 10
-0.091012
 20
-0.866957
  0
VERTEX
  8
PLAN_1
 62
     2
  6
CONTINUOUS
 10
-0.093063
 20
-0.865933
  0
VERTEX
  8
PLAN_1
 62
     2
  6
CONTINUOUS
 10
-0.095110
 20
-0.864909
  0
VERTEX
  8
PLAN_1
 62
     2
  6
CONTINUOUS
 10
-0.097157
 20
-0.863374
  0
VERTEX
  8
PLAN_1
 62
     2
  6
CONTINUOUS
 10
-0.099205
 20
-0.861839
  0
VERTEX
  8
PLAN_1
 62
     2
  6
CONTINUOUS
 10
-0.100744
 20
-0.860299
  0
VERTEX
  8
PLAN_1
 62
     2
  6
CONTINUOUS
 10
-0.103815
 20
-0.856205
  0
VERTEX
  8
PLAN_1
 62
     2
  6
CONTINUOUS
 10
-0.105350
 20
-0.851594
  0
VERTEX
  8
PLAN_1
 62
     2
  6
CONTINUOUS
 10
-0.106886
 20
-0.846476
  0
VERTEX
  8
PLAN_1
 62
     2
  6
CONTINUOUS
 10
-0.107398
 20
-0.840843
  0
VERTEX
  8
PLAN_1
 62
     2
  6
CONTINUOUS
 10
-0.106886
 20
-0.834697
  0
VERTEX
  8
PLAN_1
 62
     2
  6
CONTINUOUS
 10
-0.105862
 20
-0.829067
  0
VERTEX
  8
PLAN_1
 62
     2
  6
CONTINUOUS
 10
-0.104839
 20
-0.826504
  0
VERTEX
  8
PLAN_1
 62
     2
  6
CONTINUOUS
 10
-0.103815
 20
-0.823945
  0
VERTEX
  8
PLAN_1
 62
     2
  6
CONTINUOUS
 10
-0.102280
 20
-0.821386
  0
VERTEX
  8
PLAN_1
 62
     2
  6
CONTINUOUS
 10
-0.100744
 20
-0.819335
  0
VERTEX
  8
PLAN_1
 62
     2
  6
CONTINUOUS
 10
-0.099205
 20
-0.817287
  0
VERTEX
  8
PLAN_1
 62
     2
  6
CONTINUOUS
 10
-0.097157
 20
-0.815752
  0
VERTEX
  8
PLAN_1
 62
     2
  6
CONTINUOUS
 10
-0.095110
 20
-0.814217
  0
VERTEX
  8
PLAN_1
 62
     2
  6
CONTINUOUS
 10
-0.092551
 20
-0.812681
  0
VERTEX
  8
PLAN_1
 62
     2
  6
CONTINUOUS
 10
-0.089988
 20
-0.812165
  0
VERTEX
  8
PLAN_1
 62
     2
  6
CONTINUOUS
 10
-0.087429
 20
-0.811142
  0
VERTEX
  8
PLAN_1
 62
     2
  6
CONTINUOUS
 10
-0.084354
 20
-0.810630
  0
VERTEX
  8
PLAN_1
 62
     2
  6
CONTINUOUS
 10
-0.081283
 20
-0.810630
  0
VERTEX
  8
PLAN_1
 62
     2
  6
CONTINUOUS
 10
-0.078213
 20
-0.810630
  0
VERTEX
  8
PLAN_1
 62
     2
  6
CONTINUOUS
 10
-0.075650
 20
-0.811142
  0
VERTEX
  8
PLAN_1
 62
     2
  6
CONTINUOUS
 10
-0.073091
 20
-0.811654
  0
VERTEX
  8
PLAN_1
 62
     2
  6
CONTINUOUS
 10
-0.071043
 20
-0.812681
  0
VERTEX
  8
PLAN_1
 62
     2
  6
CONTINUOUS
 10
-0.068480
 20
-0.814217
  0
VERTEX
  8
PLAN_1
 62
     2
  6
CONTINUOUS
 10
-0.066945
 20
-0.815752
  0
VERTEX
  8
PLAN_1
 62
     2
  6
CONTINUOUS
 10
-0.064898
 20
-0.817287
  0
VERTEX
  8
PLAN_1
 62
     2
  6
CONTINUOUS
 10
-0.063362
 20
-0.819335
  0
VERTEX
  8
PLAN_1
 62
     2
  6
CONTINUOUS
 10
-0.060803
 20
-0.823945
  0
VERTEX
  8
PLAN_1
 62
     2
  6
CONTINUOUS
 10
-0.059264
 20
-0.829067
  0
VERTEX
  8
PLAN_1
 62
     2
  6
CONTINUOUS
 10
-0.058240
 20
-0.835209
  0
VERTEX
  8
PLAN_1
 62
     2
  6
CONTINUOUS
 10
-0.057728
 20
-0.842378
  0
VERTEX
  8
PLAN_1
 62
     2
  6
CONTINUOUS
 10
-0.097669
 20
-0.842378
  0
VERTEX
  8
PLAN_1
 62
     2
  6
CONTINUOUS
 10
-0.097157
 20
-0.846476
  0
VERTEX
  8
PLAN_1
 62
     2
  6
CONTINUOUS
 10
-0.096646
 20
-0.850059
  0
VERTEX
  8
PLAN_1
 62
     2
  6
CONTINUOUS
 10
-0.095110
 20
-0.853134
  0
VERTEX
  8
PLAN_1
 62
     2
  6
CONTINUOUS
 10
-0.093575
 20
-0.855693
  0
VERTEX
  8
PLAN_1
 62
     2
  6
CONTINUOUS
 10
-0.091012
 20
-0.857740
  0
VERTEX
  8
PLAN_1
 62
     2
  6
CONTINUOUS
 10
-0.088453
 20
-0.858764
  0
VERTEX
  8
PLAN_1
 62
     2
  6
CONTINUOUS
 10
-0.085382
 20
-0.859787
  0
VERTEX
  8
PLAN_1
 62
     2
  6
CONTINUOUS
 10
-0.081795
 20
-0.860299
  0
VERTEX
  8
PLAN_1
 62
     2
  6
CONTINUOUS
 10
-0.078724
 20
-0.859787
  0
VERTEX
  8
PLAN_1
 62
     2
  6
CONTINUOUS
 10
-0.075650
 20
-0.859276
  0
VERTEX
  8
PLAN_1
 62
     2
  6
CONTINUOUS
 10
-0.073602
 20
-0.857740
  0
VERTEX
  8
PLAN_1
 62
     2
  6
CONTINUOUS
 10
-0.071555
 20
-0.856205
  0
VERTEX
  8
PLAN_1
 62
     2
  6
CONTINUOUS
 10
-0.070020
 20
-0.854669
  0
VERTEX
  8
PLAN_1
 62
     2
  6
CONTINUOUS
 10
-0.068480
 20
-0.852622
  0
VERTEX
  8
PLAN_1
 62
     2
  6
CONTINUOUS
 10
-0.067969
 20
-0.851083
  0
VERTEX
  8
PLAN_1
 62
     2
  6
CONTINUOUS
 10
-0.067457
 20
-0.849547
  0
VERTEX
  8
PLAN_1
 62
     2
  6
CONTINUOUS
 10
-0.058240
 20
-0.849547
  0
SEQEND
  8
0
  0
POLYLINE
  8
PLAN_1
 62
     2
  6
CONTINUOUS
 66
     1
 40
0.003000
 41
0.003000
  0
VERTEX
  8
PLAN_1
 62
     2
  6
CONTINUOUS
 10
-0.066945
 20
-0.835209
  0
VERTEX
  8
PLAN_1
 62
     2
  6
CONTINUOUS
 10
-0.067457
 20
-0.832138
  0
VERTEX
  8
PLAN_1
 62
     2
  6
CONTINUOUS
 10
-0.067969
 20
-0.829067
  0
VERTEX
  8
PLAN_1
 62
     2
  6
CONTINUOUS
 10
-0.069508
 20
-0.825992
  0
VERTEX
  8
PLAN_1
 62
     2
  6
CONTINUOUS
 10
-0.071043
 20
-0.823945
  0
VERTEX
  8
PLAN_1
 62
     2
  6
CONTINUOUS
 10
-0.072579
 20
-0.821898
  0
VERTEX
  8
PLAN_1
 62
     2
  6
CONTINUOUS
 10
-0.075138
 20
-0.820362
  0
VERTEX
  8
PLAN_1
 62
     2
  6
CONTINUOUS
 10
-0.078724
 20
-0.819335
  0
VERTEX
  8
PLAN_1
 62
     2
  6
CONTINUOUS
 10
-0.082307
 20
-0.818823
  0
VERTEX
  8
PLAN_1
 62
     2
  6
CONTINUOUS
 10
-0.085382
 20
-0.819335
  0
VERTEX
  8
PLAN_1
 62
     2
  6
CONTINUOUS
 10
-0.088453
 20
-0.820362
  0
VERTEX
  8
PLAN_1
 62
     2
  6
CONTINUOUS
 10
-0.091012
 20
-0.821898
  0
VERTEX
  8
PLAN_1
 62
     2
  6
CONTINUOUS
 10
-0.093063
 20
-0.823945
  0
VERTEX
  8
PLAN_1
 62
     2
  6
CONTINUOUS
 10
-0.095110
 20
-0.825992
  0
VERTEX
  8
PLAN_1
 62
     2
  6
CONTINUOUS
 10
-0.096134
 20
-0.829067
  0
VERTEX
  8
PLAN_1
 62
     2
  6
CONTINUOUS
 10
-0.097157
 20
-0.832138
  0
VERTEX
  8
PLAN_1
 62
     2
  6
CONTINUOUS
 10
-0.097669
 20
-0.835209
  0
VERTEX
  8
PLAN_1
 62
     2
  6
CONTINUOUS
 10
-0.066945
 20
-0.835209
  0
SEQEND
  8
0
  0
SOLID
  8
PLAN_1
 62
     2
 10
-0.023421
 20
-0.842378
 11
-0.049024
 21
-0.842378
 12
-0.023421
 22
-0.833161
 13
-0.049024
 23
-0.833161
  0
POLYLINE
  8
PLAN_1
 62
     2
  6
CONTINUOUS
 66
     1
 40
0.003000
 41
0.003000
  0
VERTEX
  8
PLAN_1
 62
     2
  6
CONTINUOUS
 10
-0.023421
 20
-0.842378
  0
VERTEX
  8
PLAN_1
 62
     2
  6
CONTINUOUS
 10
-0.049024
 20
-0.842378
  0
VERTEX
  8
PLAN_1
 62
     2
  6
CONTINUOUS
 10
-0.049024
 20
-0.833161
  0
VERTEX
  8
PLAN_1
 62
     2
  6
CONTINUOUS
 10
-0.023421
 20
-0.833161
  0
VERTEX
  8
PLAN_1
 62
     2
  6
CONTINUOUS
 10
-0.023421
 20
-0.842378
  0
SEQEND
  8
0
  0
SOLID
  8
PLAN_1
 62
     2
 10
0.012425
 20
-0.805000
 11
0.005256
 21
-0.805000
 12
0.026248
 22
-0.790150
 13
0.014984
 23
-0.790150
  0
POLYLINE
  8
PLAN_1
 62
     2
  6
CONTINUOUS
 66
     1
 40
0.003000
 41
0.003000
  0
VERTEX
  8
PLAN_1
 62
     2
  6
CONTINUOUS
 10
0.012425
 20
-0.805000
  0
VERTEX
  8
PLAN_1
 62
     2
  6
CONTINUOUS
 10
0.005256
 20
-0.805000
  0
VERTEX
  8
PLAN_1
 62
     2
  6
CONTINUOUS
 10
0.014984
 20
-0.790150
  0
VERTEX
  8
PLAN_1
 62
     2
  6
CONTINUOUS
 10
0.026248
 20
-0.790150
  0
VERTEX
  8
PLAN_1
 62
     2
  6
CONTINUOUS
 10
0.012425
 20
-0.805000
  0
SEQEND
  8
0
  0
POLYLINE
  8
PLAN_1
 62
     2
  6
CONTINUOUS
 66
     1
 40
0.003000
 41
0.003000
  0
VERTEX
  8
PLAN_1
 62
     2
  6
CONTINUOUS
 10
0.033929
 20
-0.849547
  0
VERTEX
  8
PLAN_1
 62
     2
  6
CONTINUOUS
 10
0.033929
 20
-0.850571
  0
VERTEX
  8
PLAN_1
 62
     2
  6
CONTINUOUS
 10
0.033417
 20
-0.852106
  0
VERTEX
  8
PLAN_1
 62
     2
  6
CONTINUOUS
 10
0.032906
 20
-0.854157
  0
VERTEX
  8
PLAN_1
 62
     2
  6
CONTINUOUS
 10
0.031882
 20
-0.856205
  0
VERTEX
  8
PLAN_1
 62
     2
  6
CONTINUOUS
 10
0.030346
 20
-0.858252
  0
VERTEX
  8
PLAN_1
 62
     2
  6
CONTINUOUS
 10
0.028811
 20
-0.860299
  0
VERTEX
  8
PLAN_1
 62
     2
  6
CONTINUOUS
 10
0.026760
 20
-0.862350
  0
VERTEX
  8
PLAN_1
 62
     2
  6
CONTINUOUS
 10
0.024201
 20
-0.864398
  0
VERTEX
  8
PLAN_1
 62
     2
  6
CONTINUOUS
 10
0.023689
 20
-0.864909
  0
VERTEX
  8
PLAN_1
 62
     2
  6
CONTINUOUS
 10
0.022154
 20
-0.865421
  0
VERTEX
  8
PLAN_1
 62
     2
  6
CONTINUOUS
 10
0.021130
 20
-0.866445
  0
VERTEX
  8
PLAN_1
 62
     2
  6
CONTINUOUS
 10
0.019591
 20
-0.866957
  0
VERTEX
  8
PLAN_1
 62
     2
  6
CONTINUOUS
 10
0.017543
 20
-0.867469
  0
VERTEX
  8
PLAN_1
 62
     2
  6
CONTINUOUS
 10
0.015496
 20
-0.867980
  0
VERTEX
  8
PLAN_1
 62
     2
  6
CONTINUOUS
 10
0.012937
 20
-0.867980
  0
VERTEX
  8
PLAN_1
 62
     2
  6
CONTINUOUS
 10
0.009862
 20
-0.867980
  0
VERTEX
  8
PLAN_1
 62
     2
  6
CONTINUOUS
 10
0.006791
 20
-0.867980
  0
VERTEX
  8
PLAN_1
 62
     2
  6
CONTINUOUS
 10
0.004232
 20
-0.867469
  0
VERTEX
  8
PLAN_1
 62
     2
  6
CONTINUOUS
 10
0.001669
 20
-0.866957
  0
VERTEX
  8
PLAN_1
 62
     2
  6
CONTINUOUS
 10
-0.000378
 20
-0.865933
  0
VERTEX
  8
PLAN_1
 62
     2
  6
CONTINUOUS
 10
-0.002937
 20
-0.864909
  0
VERTEX
  8
PLAN_1
 62
     2
  6
CONTINUOUS
 10
-0.004988
 20
-0.863374
  0
VERTEX
  8
PLAN_1
 62
     2
  6
CONTINUOUS
 10
-0.006524
 20
-0.861839
  0
VERTEX
  8
PLAN_1
 62
     2
  6
CONTINUOUS
 10
-0.008059
 20
-0.860299
  0
VERTEX
  8
PLAN_1
 62
     2
  6
CONTINUOUS
 10
-0.011130
 20
-0.856205
  0
VERTEX
  8
PLAN_1
 62
     2
  6
CONTINUOUS
 10
-0.013181
 20
-0.851594
  0
VERTEX
  8
PLAN_1
 62
     2
  6
CONTINUOUS
 10
-0.014205
 20
-0.846476
  0
VERTEX
  8
PLAN_1
 62
     2
  6
CONTINUOUS
 10
-0.014717
 20
-0.840843
  0
VERTEX
  8
PLAN_1
 62
     2
  6
CONTINUOUS
 10
-0.014205
 20
-0.834697
  0
VERTEX
  8
PLAN_1
 62
     2
  6
CONTINUOUS
 10
-0.013181
 20
-0.829067
  0
VERTEX
  8
PLAN_1
 62
     2
  6
CONTINUOUS
 10
-0.012154
 20
-0.826504
  0
VERTEX
  8
PLAN_1
 62
     2
  6
CONTINUOUS
 10
-0.011130
 20
-0.823945
  0
VERTEX
  8
PLAN_1
 62
     2
  6
CONTINUOUS
 10
-0.010106
 20
-0.821386
  0
VERTEX
  8
PLAN_1
 62
     2
  6
CONTINUOUS
 10
-0.008571
 20
-0.819335
  0
VERTEX
  8
PLAN_1
 62
     2
  6
CONTINUOUS
 10
-0.006524
 20
-0.817287
  0
VERTEX
  8
PLAN_1
 62
     2
  6
CONTINUOUS
 10
-0.004988
 20
-0.815752
  0
VERTEX
  8
PLAN_1
 62
     2
  6
CONTINUOUS
 10
-0.002425
 20
-0.814217
  0
VERTEX
  8
PLAN_1
 62
     2
  6
CONTINUOUS
 10
-0.000378
 20
-0.812681
  0
VERTEX
  8
PLAN_1
 62
     2
  6
CONTINUOUS
 10
0.002181
 20
-0.812165
  0
VERTEX
  8
PLAN_1
 62
     2
  6
CONTINUOUS
 10
0.005256
 20
-0.811142
  0
VERTEX
  8
PLAN_1
 62
     2
  6
CONTINUOUS
 10
0.008327
 20
-0.810630
  0
VERTEX
  8
PLAN_1
 62
     2
  6
CONTINUOUS
 10
0.011398
 20
-0.810630
  0
VERTEX
  8
PLAN_1
 62
     2
  6
CONTINUOUS
 10
0.014472
 20
-0.810630
  0
VERTEX
  8
PLAN_1
 62
     2
  6
CONTINUOUS
 10
0.017031
 20
-0.811142
  0
VERTEX
  8
PLAN_1
 62
     2
  6
CONTINUOUS
 10
0.019591
 20
-0.811654
  0
VERTEX
  8
PLAN_1
 62
     2
  6
CONTINUOUS
 10
0.021642
 20
-0.812681
  0
VERTEX
  8
PLAN_1
 62
     2
  6
CONTINUOUS
 10
0.023689
 20
-0.814217
  0
VERTEX
  8
PLAN_1
 62
     2
  6
CONTINUOUS
 10
0.025736
 20
-0.815752
  0
VERTEX
  8
PLAN_1
 62
     2
  6
CONTINUOUS
 10
0.027272
 20
-0.817287
  0
VERTEX
  8
PLAN_1
 62
     2
  6
CONTINUOUS
 10
0.028811
 20
-0.819335
  0
VERTEX
  8
PLAN_1
 62
     2
  6
CONTINUOUS
 10
0.031370
 20
-0.823945
  0
VERTEX
  8
PLAN_1
 62
     2
  6
CONTINUOUS
 10
0.033417
 20
-0.829067
  0
VERTEX
  8
PLAN_1
 62
     2
  6
CONTINUOUS
 10
0.034441
 20
-0.835209
  0
VERTEX
  8
PLAN_1
 62
     2
  6
CONTINUOUS
 10
0.034953
 20
-0.842378
  0
VERTEX
  8
PLAN_1
 62
     2
  6
CONTINUOUS
 10
-0.004988
 20
-0.842378
  0
VERTEX
  8
PLAN_1
 62
     2
  6
CONTINUOUS
 10
-0.004476
 20
-0.846476
  0
VERTEX
  8
PLAN_1
 62
     2
  6
CONTINUOUS
 10
-0.003961
 20
-0.850059
  0
VERTEX
  8
PLAN_1
 62
     2
  6
CONTINUOUS
 10
-0.002425
 20
-0.853134
  0
VERTEX
  8
PLAN_1
 62
     2
  6
CONTINUOUS
 10
-0.000890
 20
-0.855693
  0
VERTEX
  8
PLAN_1
 62
     2
  6
CONTINUOUS
 10
0.001157
 20
-0.857740
  0
VERTEX
  8
PLAN_1
 62
     2
  6
CONTINUOUS
 10
0.004232
 20
-0.858764
  0
VERTEX
  8
PLAN_1
 62
     2
  6
CONTINUOUS
 10
0.007303
 20
-0.859787
  0
VERTEX
  8
PLAN_1
 62
     2
  6
CONTINUOUS
 10
0.010886
 20
-0.860299
  0
VERTEX
  8
PLAN_1
 62
     2
  6
CONTINUOUS
 10
0.013961
 20
-0.859787
  0
VERTEX
  8
PLAN_1
 62
     2
  6
CONTINUOUS
 10
0.016520
 20
-0.859276
  0
VERTEX
  8
PLAN_1
 62
     2
  6
CONTINUOUS
 10
0.019079
 20
-0.857740
  0
VERTEX
  8
PLAN_1
 62
     2
  6
CONTINUOUS
 10
0.021130
 20
-0.856205
  0
VERTEX
  8
PLAN_1
 62
     2
  6
CONTINUOUS
 10
0.022665
 20
-0.854669
  0
VERTEX
  8
PLAN_1
 62
     2
  6
CONTINUOUS
 10
0.023689
 20
-0.852622
  0
VERTEX
  8
PLAN_1
 62
     2
  6
CONTINUOUS
 10
0.024713
 20
-0.851083
  0
VERTEX
  8
PLAN_1
 62
     2
  6
CONTINUOUS
 10
0.024713
 20
-0.849547
  0
VERTEX
  8
PLAN_1
 62
     2
  6
CONTINUOUS
 10
0.033929
 20
-0.849547
  0
SEQEND
  8
0
  0
POLYLINE
  8
PLAN_1
 62
     2
  6
CONTINUOUS
 66
     1
 40
0.003000
 41
0.003000
  0
VERTEX
  8
PLAN_1
 62
     2
  6
CONTINUOUS
 10
0.025224
 20
-0.835209
  0
VERTEX
  8
PLAN_1
 62
     2
  6
CONTINUOUS
 10
0.025224
 20
-0.832138
  0
VERTEX
  8
PLAN_1
 62
     2
  6
CONTINUOUS
 10
0.024201
 20
-0.829067
  0
VERTEX
  8
PLAN_1
 62
     2
  6
CONTINUOUS
 10
0.023177
 20
-0.825992
  0
VERTEX
  8
PLAN_1
 62
     2
  6
CONTINUOUS
 10
0.021642
 20
-0.823945
  0
VERTEX
  8
PLAN_1
 62
     2
  6
CONTINUOUS
 10
0.019591
 20
-0.821898
  0
VERTEX
  8
PLAN_1
 62
     2
  6
CONTINUOUS
 10
0.017031
 20
-0.820362
  0
VERTEX
  8
PLAN_1
 62
     2
  6
CONTINUOUS
 10
0.013961
 20
-0.819335
  0
VERTEX
  8
PLAN_1
 62
     2
  6
CONTINUOUS
 10
0.010374
 20
-0.818823
  0
VERTEX
  8
PLAN_1
 62
     2
  6
CONTINUOUS
 10
0.007303
 20
-0.819335
  0
VERTEX
  8
PLAN_1
 62
     2
  6
CONTINUOUS
 10
0.004232
 20
-0.820362
  0
VERTEX
  8
PLAN_1
 62
     2
  6
CONTINUOUS
 10
0.001669
 20
-0.821898
  0
VERTEX
  8
PLAN_1
 62
     2
  6
CONTINUOUS
 10
-0.000378
 20
-0.823945
  0
VERTEX
  8
PLAN_1
 62
     2
  6
CONTINUOUS
 10
-0.002425
 20
-0.825992
  0
VERTEX
  8
PLAN_1
 62
     2
  6
CONTINUOUS
 10
-0.003961
 20
-0.829067
  0
VERTEX
  8
PLAN_1
 62
     2
  6
CONTINUOUS
 10
-0.004476
 20
-0.832138
  0
VERTEX
  8
PLAN_1
 62
     2
  6
CONTINUOUS
 10
-0.004988
 20
-0.835209
  0
VERTEX
  8
PLAN_1
 62
     2
  6
CONTINUOUS
 10
0.025224
 20
-0.835209
  0
SEQEND
  8
0
  0
POLYLINE
  8
PLAN_1
 62
     2
  6
CONTINUOUS
 66
     1
 40
0.003000
 41
0.003000
  0
VERTEX
  8
PLAN_1
 62
     2
  6
CONTINUOUS
 10
0.056972
 20
-0.819846
  0
VERTEX
  8
PLAN_1
 62
     2
  6
CONTINUOUS
 10
0.056972
 20
-0.855181
  0
VERTEX
  8
PLAN_1
 62
     2
  6
CONTINUOUS
 10
0.056972
 20
-0.856717
  0
VERTEX
  8
PLAN_1
 62
     2
  6
CONTINUOUS
 10
0.057484
 20
-0.857740
  0
VERTEX
  8
PLAN_1
 62
     2
  6
CONTINUOUS
 10
0.058508
 20
-0.858252
  0
VERTEX
  8
PLAN_1
 62
     2
  6
CONTINUOUS
 10
0.059020
 20
-0.858764
  0
VERTEX
  8
PLAN_1
 62
     2
  6
CONTINUOUS
 10
0.060047
 20
-0.859276
  0
VERTEX
  8
PLAN_1
 62
     2
  6
CONTINUOUS
 10
0.061071
 20
-0.859276
  0
VERTEX
  8
PLAN_1
 62
     2
  6
CONTINUOUS
 10
0.061583
 20
-0.859276
  0
VERTEX
  8
PLAN_1
 62
     2
  6
CONTINUOUS
 10
0.062606
 20
-0.859276
  0
VERTEX
  8
PLAN_1
 62
     2
  6
CONTINUOUS
 10
0.065677
 20
-0.859276
  0
VERTEX
  8
PLAN_1
 62
     2
  6
CONTINUOUS
 10
0.065677
 20
-0.866445
  0
VERTEX
  8
PLAN_1
 62
     2
  6
CONTINUOUS
 10
0.064654
 20
-0.866445
  0
VERTEX
  8
PLAN_1
 62
     2
  6
CONTINUOUS
 10
0.063630
 20
-0.866957
  0
VERTEX
  8
PLAN_1
 62
     2
  6
CONTINUOUS
 10
0.062606
 20
-0.866957
  0
VERTEX
  8
PLAN_1
 62
     2
  6
CONTINUOUS
 10
0.061583
 20
-0.866957
  0
VERTEX
  8
PLAN_1
 62
     2
  6
CONTINUOUS
 10
0.060559
 20
-0.866957
  0
VERTEX
  8
PLAN_1
 62
     2
  6
CONTINUOUS
 10
0.060047
 20
-0.866957
  0
VERTEX
  8
PLAN_1
 62
     2
  6
CONTINUOUS
 10
0.059531
 20
-0.867469
  0
VERTEX
  8
PLAN_1
 62
     2
  6
CONTINUOUS
 10
0.059020
 20
-0.867469
  0
VERTEX
  8
PLAN_1
 62
     2
  6
CONTINUOUS
 10
0.055949
 20
-0.866957
  0
VERTEX
  8
PLAN_1
 62
     2
  6
CONTINUOUS
 10
0.053390
 20
-0.866445
  0
VERTEX
  8
PLAN_1
 62
     2
  6
CONTINUOUS
 10
0.051339
 20
-0.865421
  0
VERTEX
  8
PLAN_1
 62
     2
  6
CONTINUOUS
 10
0.049803
 20
-0.863886
  0
VERTEX
  8
PLAN_1
 62
     2
  6
CONTINUOUS
 10
0.048780
 20
-0.862350
  0
VERTEX
  8
PLAN_1
 62
     2
  6
CONTINUOUS
 10
0.048268
 20
-0.860299
  0
VERTEX
  8
PLAN_1
 62
     2
  6
CONTINUOUS
 10
0.047756
 20
-0.858252
  0
VERTEX
  8
PLAN_1
 62
     2
  6
CONTINUOUS
 10
0.047756
 20
-0.855693
  0
VERTEX
  8
PLAN_1
 62
     2
  6
CONTINUOUS
 10
0.047756
 20
-0.819846
  0
VERTEX
  8
PLAN_1
 62
     2
  6
CONTINUOUS
 10
0.040587
 20
-0.819846
  0
VERTEX
  8
PLAN_1
 62
     2
  6
CONTINUOUS
 10
0.040587
 20
-0.812165
  0
VERTEX
  8
PLAN_1
 62
     2
  6
CONTINUOUS
 10
0.047756
 20
-0.812165
  0
VERTEX
  8
PLAN_1
 62
     2
  6
CONTINUOUS
 10
0.047756
 20
-0.796807
  0
VERTEX
  8
PLAN_1
 62
     2
  6
CONTINUOUS
 10
0.056972
 20
-0.796807
  0
VERTEX
  8
PLAN_1
 62
     2
  6
CONTINUOUS
 10
0.056972
 20
-0.812165
  0
VERTEX
  8
PLAN_1
 62
     2
  6
CONTINUOUS
 10
0.065677
 20
-0.812165
  0
VERTEX
  8
PLAN_1
 62
     2
  6
CONTINUOUS
 10
0.065677
 20
-0.819846
  0
VERTEX
  8
PLAN_1
 62
     2
  6
CONTINUOUS
 10
0.056972
 20
-0.819846
  0
SEQEND
  8
0
  0
POLYLINE
  8
PLAN_1
 62
     2
  6
CONTINUOUS
 66
     1
 40
0.003000
 41
0.003000
  0
VERTEX
  8
PLAN_1
 62
     2
  6
CONTINUOUS
 10
0.096913
 20
-0.810630
  0
VERTEX
  8
PLAN_1
 62
     2
  6
CONTINUOUS
 10
0.099988
 20
-0.810630
  0
VERTEX
  8
PLAN_1
 62
     2
  6
CONTINUOUS
 10
0.103059
 20
-0.811142
  0
VERTEX
  8
PLAN_1
 62
     2
  6
CONTINUOUS
 10
0.105618
 20
-0.812165
  0
VERTEX
  8
PLAN_1
 62
     2
  6
CONTINUOUS
 10
0.108181
 20
-0.813193
  0
VERTEX
  8
PLAN_1
 62
     2
  6
CONTINUOUS
 10
0.110228
 20
-0.814217
  0
VERTEX
  8
PLAN_1
 62
     2
  6
CONTINUOUS
 10
0.112787
 20
-0.815752
  0
VERTEX
  8
PLAN_1
 62
     2
  6
CONTINUOUS
 10
0.114323
 20
-0.817799
  0
VERTEX
  8
PLAN_1
 62
     2
  6
CONTINUOUS
 10
0.115858
 20
-0.819846
  0
VERTEX
  8
PLAN_1
 62
     2
  6
CONTINUOUS
 10
0.118933
 20
-0.823945
  0
VERTEX
  8
PLAN_1
 62
     2
  6
CONTINUOUS
 10
0.120469
 20
-0.829067
  0
VERTEX
  8
PLAN_1
 62
     2
  6
CONTINUOUS
 10
0.122004
 20
-0.834185
  0
VERTEX
  8
PLAN_1
 62
     2
  6
CONTINUOUS
 10
0.122004
 20
-0.839307
  0
VERTEX
  8
PLAN_1
 62
     2
  6
CONTINUOUS
 10
0.122004
 20
-0.844429
  0
VERTEX
  8
PLAN_1
 62
     2
  6
CONTINUOUS
 10
0.120469
 20
-0.849547
  0
VERTEX
  8
PLAN_1
 62
     2
  6
CONTINUOUS
 10
0.118933
 20
-0.854669
  0
VERTEX
  8
PLAN_1
 62
     2
  6
CONTINUOUS
 10
0.115858
 20
-0.858764
  0
VERTEX
  8
PLAN_1
 62
     2
  6
CONTINUOUS
 10
0.114323
 20
-0.860815
  0
VERTEX
  8
PLAN_1
 62
     2
  6
CONTINUOUS
 10
0.112787
 20
-0.862862
  0
VERTEX
  8
PLAN_1
 62
     2
  6
CONTINUOUS
 10
0.110228
 20
-0.864398
  0
VERTEX
  8
PLAN_1
 62
     2
  6
CONTINUOUS
 10
0.108181
 20
-0.865421
  0
VERTEX
  8
PLAN_1
 62
     2
  6
CONTINUOUS
 10
0.105618
 20
-0.866445
  0
VERTEX
  8
PLAN_1
 62
     2
  6
CONTINUOUS
 10
0.103059
 20
-0.867469
  0
VERTEX
  8
PLAN_1
 62
     2
  6
CONTINUOUS
 10
0.099988
 20
-0.867980
  0
VERTEX
  8
PLAN_1
 62
     2
  6
CONTINUOUS
 10
0.096913
 20
-0.867980
  0
VERTEX
  8
PLAN_1
 62
     2
  6
CONTINUOUS
 10
0.093843
 20
-0.867980
  0
VERTEX
  8
PLAN_1
 62
     2
  6
CONTINUOUS
 10
0.090768
 20
-0.867469
  0
VERTEX
  8
PLAN_1
 62
     2
  6
CONTINUOUS
 10
0.088209
 20
-0.866445
  0
VERTEX
  8
PLAN_1
 62
     2
  6
CONTINUOUS
 10
0.085650
 20
-0.865421
  0
VERTEX
  8
PLAN_1
 62
     2
  6
CONTINUOUS
 10
0.083598
 20
-0.864398
  0
VERTEX
  8
PLAN_1
 62
     2
  6
CONTINUOUS
 10
0.081039
 20
-0.862862
  0
VERTEX
  8
PLAN_1
 62
     2
  6
CONTINUOUS
 10
0.079504
 20
-0.860815
  0
VERTEX
  8
PLAN_1
 62
     2
  6
CONTINUOUS
 10
0.077969
 20
-0.858764
  0
VERTEX
  8
PLAN_1
 62
     2
  6
CONTINUOUS
 10
0.074894
 20
-0.854669
  0
VERTEX
  8
PLAN_1
 62
     2
  6
CONTINUOUS
 10
0.073358
 20
-0.849547
  0
VERTEX
  8
PLAN_1
 62
     2
  6
CONTINUOUS
 10
0.071823
 20
-0.844429
  0
VERTEX
  8
PLAN_1
 62
     2
  6
CONTINUOUS
 10
0.071823
 20
-0.839307
  0
VERTEX
  8
PLAN_1
 62
     2
  6
CONTINUOUS
 10
0.071823
 20
-0.834185
  0
VERTEX
  8
PLAN_1
 62
     2
  6
CONTINUOUS
 10
0.073358
 20
-0.829067
  0
VERTEX
  8
PLAN_1
 62
     2
  6
CONTINUOUS
 10
0.074894
 20
-0.823945
  0
VERTEX
  8
PLAN_1
 62
     2
  6
CONTINUOUS
 10
0.077969
 20
-0.819846
  0
VERTEX
  8
PLAN_1
 62
     2
  6
CONTINUOUS
 10
0.079504
 20
-0.817799
  0
VERTEX
  8
PLAN_1
 62
     2
  6
CONTINUOUS
 10
0.081039
 20
-0.815752
  0
VERTEX
  8
PLAN_1
 62
     2
  6
CONTINUOUS
 10
0.083598
 20
-0.814217
  0
VERTEX
  8
PLAN_1
 62
     2
  6
CONTINUOUS
 10
0.085650
 20
-0.813193
  0
VERTEX
  8
PLAN_1
 62
     2
  6
CONTINUOUS
 10
0.088209
 20
-0.812165
  0
VERTEX
  8
PLAN_1
 62
     2
  6
CONTINUOUS
 10
0.090768
 20
-0.811142
  0
VERTEX
  8
PLAN_1
 62
     2
  6
CONTINUOUS
 10
0.093843
 20
-0.810630
  0
VERTEX
  8
PLAN_1
 62
     2
  6
CONTINUOUS
 10
0.096913
 20
-0.810630
  0
SEQEND
  8
0
  0
POLYLINE
  8
PLAN_1
 62
     2
  6
CONTINUOUS
 66
     1
 40
0.003000
 41
0.003000
  0
VERTEX
  8
PLAN_1
 62
     2
  6
CONTINUOUS
 10
0.096913
 20
-0.860299
  0
VERTEX
  8
PLAN_1
 62
     2
  6
CONTINUOUS
 10
0.099472
 20
-0.859787
  0
VERTEX
  8
PLAN_1
 62
     2
  6
CONTINUOUS
 10
0.101524
 20
-0.859276
  0
VERTEX
  8
PLAN_1
 62
     2
  6
CONTINUOUS
 10
0.103059
 20
-0.858764
  0
VERTEX
  8
PLAN_1
 62
     2
  6
CONTINUOUS
 10
0.105106
 20
-0.857740
  0
VERTEX
  8
PLAN_1
 62
     2
  6
CONTINUOUS
 10
0.107665
 20
-0.855181
  0
VERTEX
  8
PLAN_1
 62
     2
  6
CONTINUOUS
 10
0.109717
 20
-0.852622
  0
VERTEX
  8
PLAN_1
 62
     2
  6
CONTINUOUS
 10
0.111252
 20
-0.849035
  0
VERTEX
  8
PLAN_1
 62
     2
  6
CONTINUOUS
 10
0.112276
 20
-0.845453
  0
VERTEX
  8
PLAN_1
 62
     2
  6
CONTINUOUS
 10
0.112787
 20
-0.842378
  0
VERTEX
  8
PLAN_1
 62
     2
  6
CONTINUOUS
 10
0.112787
 20
-0.839307
  0
VERTEX
  8
PLAN_1
 62
     2
  6
CONTINUOUS
 10
0.112787
 20
-0.836232
  0
VERTEX
  8
PLAN_1
 62
     2
  6
CONTINUOUS
 10
0.112276
 20
-0.833161
  0
VERTEX
  8
PLAN_1
 62
     2
  6
CONTINUOUS
 10
0.111252
 20
-0.829579
  0
VERTEX
  8
PLAN_1
 62
     2
  6
CONTINUOUS
 10
0.109717
 20
-0.825992
  0
VERTEX
  8
PLAN_1
 62
     2
  6
CONTINUOUS
 10
0.107665
 20
-0.822921
  0
VERTEX
  8
PLAN_1
 62
     2
  6
CONTINUOUS
 10
0.105106
 20
-0.820874
  0
VERTEX
  8
PLAN_1
 62
     2
  6
CONTINUOUS
 10
0.103059
 20
-0.819846
  0
VERTEX
  8
PLAN_1
 62
     2
  6
CONTINUOUS
 10
0.101524
 20
-0.818823
  0
VERTEX
  8
PLAN_1
 62
     2
  6
CONTINUOUS
 10
0.099472
 20
-0.818823
  0
VERTEX
  8
PLAN_1
 62
     2
  6
CONTINUOUS
 10
0.096913
 20
-0.818311
  0
VERTEX
  8
PLAN_1
 62
     2
  6
CONTINUOUS
 10
0.094354
 20
-0.818823
  0
VERTEX
  8
PLAN_1
 62
     2
  6
CONTINUOUS
 10
0.092307
 20
-0.818823
  0
VERTEX
  8
PLAN_1
 62
     2
  6
CONTINUOUS
 10
0.090768
 20
-0.819846
  0
VERTEX
  8
PLAN_1
 62
     2
  6
CONTINUOUS
 10
0.088720
 20
-0.820874
  0
VERTEX
  8
PLAN_1
 62
     2
  6
CONTINUOUS
 10
0.086161
 20
-0.822921
  0
VERTEX
  8
PLAN_1
 62
     2
  6
CONTINUOUS
 10
0.084114
 20
-0.825992
  0
VERTEX
  8
PLAN_1
 62
     2
  6
CONTINUOUS
 10
0.082575
 20
-0.829579
  0
VERTEX
  8
PLAN_1
 62
     2
  6
CONTINUOUS
 10
0.081551
 20
-0.833161
  0
VERTEX
  8
PLAN_1
 62
     2
  6
CONTINUOUS
 10
0.081039
 20
-0.836232
  0
VERTEX
  8
PLAN_1
 62
     2
  6
CONTINUOUS
 10
0.081039
 20
-0.839307
  0
VERTEX
  8
PLAN_1
 62
     2
  6
CONTINUOUS
 10
0.081039
 20
-0.842378
  0
VERTEX
  8
PLAN_1
 62
     2
  6
CONTINUOUS
 10
0.081551
 20
-0.845453
  0
VERTEX
  8
PLAN_1
 62
     2
  6
CONTINUOUS
 10
0.082575
 20
-0.849035
  0
VERTEX
  8
PLAN_1
 62
     2
  6
CONTINUOUS
 10
0.084114
 20
-0.852622
  0
VERTEX
  8
PLAN_1
 62
     2
  6
CONTINUOUS
 10
0.086161
 20
-0.855181
  0
VERTEX
  8
PLAN_1
 62
     2
  6
CONTINUOUS
 10
0.088720
 20
-0.857740
  0
VERTEX
  8
PLAN_1
 62
     2
  6
CONTINUOUS
 10
0.090768
 20
-0.858764
  0
VERTEX
  8
PLAN_1
 62
     2
  6
CONTINUOUS
 10
0.092307
 20
-0.859276
  0
VERTEX
  8
PLAN_1
 62
     2
  6
CONTINUOUS
 10
0.094354
 20
-0.859787
  0
VERTEX
  8
PLAN_1
 62
     2
  6
CONTINUOUS
 10
0.096913
 20
-0.860299
  0
SEQEND
  8
0
  0
POLYLINE
  8
PLAN_1
 62
     2
  6
CONTINUOUS
 66
     1
 40
0.003000
 41
0.003000
  0
VERTEX
  8
PLAN_1
 62
     2
  6
CONTINUOUS
 10
0.168091
 20
-0.866445
  0
VERTEX
  8
PLAN_1
 62
     2
  6
CONTINUOUS
 10
0.168091
 20
-0.858764
  0
VERTEX
  8
PLAN_1
 62
     2
  6
CONTINUOUS
 10
0.168091
 20
-0.858252
  0
VERTEX
  8
PLAN_1
 62
     2
  6
CONTINUOUS
 10
0.166555
 20
-0.860815
  0
VERTEX
  8
PLAN_1
 62
     2
  6
CONTINUOUS
 10
0.165020
 20
-0.862862
  0
VERTEX
  8
PLAN_1
 62
     2
  6
CONTINUOUS
 10
0.162969
 20
-0.864398
  0
VERTEX
  8
PLAN_1
 62
     2
  6
CONTINUOUS
 10
0.160921
 20
-0.865421
  0
VERTEX
  8
PLAN_1
 62
     2
  6
CONTINUOUS
 10
0.158874
 20
-0.866957
  0
VERTEX
  8
PLAN_1
 62
     2
  6
CONTINUOUS
 10
0.156315
 20
-0.867469
  0
VERTEX
  8
PLAN_1
 62
     2
  6
CONTINUOUS
 10
0.153752
 20
-0.867980
  0
VERTEX
  8
PLAN_1
 62
     2
  6
CONTINUOUS
 10
0.150681
 20
-0.867980
  0
VERTEX
  8
PLAN_1
 62
     2
  6
CONTINUOUS
 10
0.147606
 20
-0.867980
  0
VERTEX
  8
PLAN_1
 62
     2
  6
CONTINUOUS
 10
0.144535
 20
-0.867469
  0
VERTEX
  8
PLAN_1
 62
     2
  6
CONTINUOUS
 10
0.141465
 20
-0.866445
  0
VERTEX
  8
PLAN_1
 62
     2
  6
CONTINUOUS
 10
0.138902
 20
-0.864398
  0
VERTEX
  8
PLAN_1
 62
     2
  6
CONTINUOUS
 10
0.136343
 20
-0.862350
  0
VERTEX
  8
PLAN_1
 62
     2
  6
CONTINUOUS
 10
0.134807
 20
-0.859276
  0
VERTEX
  8
PLAN_1
 62
     2
  6
CONTINUOUS
 10
0.133272
 20
-0.855693
  0
VERTEX
  8
PLAN_1
 62
     2
  6
CONTINUOUS
 10
0.132760
 20
-0.851083
  0
VERTEX
  8
PLAN_1
 62
     2
  6
CONTINUOUS
 10
0.132760
 20
-0.812165
  0
VERTEX
  8
PLAN_1
 62
     2
  6
CONTINUOUS
 10
0.141976
 20
-0.812165
  0
VERTEX
  8
PLAN_1
 62
     2
  6
CONTINUOUS
 10
0.141976
 20
-0.848012
  0
VERTEX
  8
PLAN_1
 62
     2
  6
CONTINUOUS
 10
0.142488
 20
-0.851083
  0
VERTEX
  8
PLAN_1
 62
     2
  6
CONTINUOUS
 10
0.143000
 20
-0.853646
  0
VERTEX
  8
PLAN_1
 62
     2
  6
CONTINUOUS
 10
0.144024
 20
-0.855693
  0
VERTEX
  8
PLAN_1
 62
     2
  6
CONTINUOUS
 10
0.145047
 20
-0.857740
  0
VERTEX
  8
PLAN_1
 62
     2
  6
CONTINUOUS
 10
0.146583
 20
-0.858764
  0
VERTEX
  8
PLAN_1
 62
     2
  6
CONTINUOUS
 10
0.148634
 20
-0.859787
  0
VERTEX
  8
PLAN_1
 62
     2
  6
CONTINUOUS
 10
0.150681
 20
-0.860299
  0
VERTEX
  8
PLAN_1
 62
     2
  6
CONTINUOUS
 10
0.152728
 20
-0.860299
  0
VERTEX
  8
PLAN_1
 62
     2
  6
CONTINUOUS
 10
0.156827
 20
-0.859787
  0
VERTEX
  8
PLAN_1
 62
     2
  6
CONTINUOUS
 10
0.159898
 20
-0.858252
  0
VERTEX
  8
PLAN_1
 62
     2
  6
CONTINUOUS
 10
0.162457
 20
-0.856717
  0
VERTEX
  8
PLAN_1
 62
     2
  6
CONTINUOUS
 10
0.164508
 20
-0.854157
  0
VERTEX
  8
PLAN_1
 62
     2
  6
CONTINUOUS
 10
0.166043
 20
-0.851083
  0
VERTEX
  8
PLAN_1
 62
     2
  6
CONTINUOUS
 10
0.167067
 20
-0.848012
  0
VERTEX
  8
PLAN_1
 62
     2
  6
CONTINUOUS
 10
0.167579
 20
-0.844941
  0
VERTEX
  8
PLAN_1
 62
     2
  6
CONTINUOUS
 10
0.167579
 20
-0.841866
  0
VERTEX
  8
PLAN_1
 62
     2
  6
CONTINUOUS
 10
0.167579
 20
-0.812165
  0
VERTEX
  8
PLAN_1
 62
     2
  6
CONTINUOUS
 10
0.176795
 20
-0.812165
  0
VERTEX
  8
PLAN_1
 62
     2
  6
CONTINUOUS
 10
0.176795
 20
-0.866445
  0
VERTEX
  8
PLAN_1
 62
     2
  6
CONTINUOUS
 10
0.168091
 20
-0.866445
  0
SEQEND
  8
0
  0
POLYLINE
  8
PLAN_1
 62
     2
  6
CONTINUOUS
 66
     1
 40
0.003000
 41
0.003000
  0
VERTEX
  8
PLAN_1
 62
     2
  6
CONTINUOUS
 10
0.189598
 20
-0.812165
  0
VERTEX
  8
PLAN_1
 62
     2
  6
CONTINUOUS
 10
0.198303
 20
-0.812165
  0
VERTEX
  8
PLAN_1
 62
     2
  6
CONTINUOUS
 10
0.198303
 20
-0.819846
  0
VERTEX
  8
PLAN_1
 62
     2
  6
CONTINUOUS
 10
0.198815
 20
-0.819846
  0
VERTEX
  8
PLAN_1
 62
     2
  6
CONTINUOUS
 10
0.199839
 20
-0.818311
  0
VERTEX
  8
PLAN_1
 62
     2
  6
CONTINUOUS
 10
0.200862
 20
-0.817287
  0
VERTEX
  8
PLAN_1
 62
     2
  6
CONTINUOUS
 10
0.202398
 20
-0.815752
  0
VERTEX
  8
PLAN_1
 62
     2
  6
CONTINUOUS
 10
0.203933
 20
-0.814217
  0
VERTEX
  8
PLAN_1
 62
     2
  6
CONTINUOUS
 10
0.205984
 20
-0.812681
  0
VERTEX
  8
PLAN_1
 62
     2
  6
CONTINUOUS
 10
0.208543
 20
-0.811654
  0
VERTEX
  8
PLAN_1
 62
     2
  6
CONTINUOUS
 10
0.211614
 20
-0.810630
  0
VERTEX
  8
PLAN_1
 62
     2
  6
CONTINUOUS
 10
0.214689
 20
-0.810630
  0
VERTEX
  8
PLAN_1
 62
     2
  6
CONTINUOUS
 10
0.217760
 20
-0.810630
  0
VERTEX
  8
PLAN_1
 62
     2
  6
CONTINUOUS
 10
0.219807
 20
-0.811142
  0
VERTEX
  8
PLAN_1
 62
     2
  6
CONTINUOUS
 10
0.222370
 20
-0.811654
  0
VERTEX
  8
PLAN_1
 62
     2
  6
CONTINUOUS
 10
0.224417
 20
-0.812681
  0
VERTEX
  8
PLAN_1
 62
     2
  6
CONTINUOUS
 10
0.226465
 20
-0.813705
  0
VERTEX
  8
PLAN_1
 62
     2
  6
CONTINUOUS
 10
0.228516
 20
-0.815240
  0
VERTEX
  8
PLAN_1
 62
     2
  6
CONTINUOUS
 10
0.230051
 20
-0.816776
  0
VERTEX
  8
PLAN_1
 62
     2
  6
CONTINUOUS
 10
0.231587
 20
-0.818311
  0
VERTEX
  8
PLAN_1
 62
     2
  6
CONTINUOUS
 10
0.234146
 20
-0.822409
  0
VERTEX
  8
PLAN_1
 62
     2
  6
CONTINUOUS
 10
0.236197
 20
-0.827016
  0
VERTEX
  8
PLAN_1
 62
     2
  6
CONTINUOUS
 10
0.237220
 20
-0.832138
  0
VERTEX
  8
PLAN_1
 62
     2
  6
CONTINUOUS
 10
0.237732
 20
-0.837772
  0
VERTEX
  8
PLAN_1
 62
     2
  6
CONTINUOUS
 10
0.237220
 20
-0.842890
  0
VERTEX
  8
PLAN_1
 62
     2
  6
CONTINUOUS
 10
0.236709
 20
-0.848012
  0
VERTEX
  8
PLAN_1
 62
     2
  6
CONTINUOUS
 10
0.234657
 20
-0.853134
  0
VERTEX
  8
PLAN_1
 62
     2
  6
CONTINUOUS
 10
0.232610
 20
-0.857740
  0
VERTEX
  8
PLAN_1
 62
     2
  6
CONTINUOUS
 10
0.231075
 20
-0.859787
  0
VERTEX
  8
PLAN_1
 62
     2
  6
CONTINUOUS
 10
0.229539
 20
-0.861839
  0
VERTEX
  8
PLAN_1
 62
     2
  6
CONTINUOUS
 10
0.227488
 20
-0.863886
  0
VERTEX
  8
PLAN_1
 62
     2
  6
CONTINUOUS
 10
0.225441
 20
-0.865421
  0
VERTEX
  8
PLAN_1
 62
     2
  6
CONTINUOUS
 10
0.222882
 20
-0.866445
  0
VERTEX
  8
PLAN_1
 62
     2
  6
CONTINUOUS
 10
0.219807
 20
-0.867469
  0
VERTEX
  8
PLAN_1
 62
     2
  6
CONTINUOUS
 10
0.216736
 20
-0.867980
  0
VERTEX
  8
PLAN_1
 62
     2
  6
CONTINUOUS
 10
0.213665
 20
-0.867980
  0
VERTEX
  8
PLAN_1
 62
     2
  6
CONTINUOUS
 10
0.211102
 20
-0.867980
  0
VERTEX
  8
PLAN_1
 62
     2
  6
CONTINUOUS
 10
0.208543
 20
-0.867469
  0
VERTEX
  8
PLAN_1
 62
     2
  6
CONTINUOUS
 10
0.206496
 20
-0.866957
  0
VERTEX
  8
PLAN_1
 62
     2
  6
CONTINUOUS
 10
0.204449
 20
-0.865933
  0
VERTEX
  8
PLAN_1
 62
     2
  6
CONTINUOUS
 10
0.202909
 20
-0.864909
  0
VERTEX
  8
PLAN_1
 62
     2
  6
CONTINUOUS
 10
0.201374
 20
-0.863374
  0
VERTEX
  8
PLAN_1
 62
     2
  6
CONTINUOUS
 10
0.200350
 20
-0.862350
  0
VERTEX
  8
PLAN_1
 62
     2
  6
CONTINUOUS
 10
0.199327
 20
-0.860815
  0
VERTEX
  8
PLAN_1
 62
     2
  6
CONTINUOUS
 10
0.198815
 20
-0.860815
  0
VERTEX
  8
PLAN_1
 62
     2
  6
CONTINUOUS
 10
0.198815
 20
-0.887953
  0
VERTEX
  8
PLAN_1
 62
     2
  6
CONTINUOUS
 10
0.189598
 20
-0.887953
  0
VERTEX
  8
PLAN_1
 62
     2
  6
CONTINUOUS
 10
0.189598
 20
-0.812165
  0
SEQEND
  8
0
  0
POLYLINE
  8
PLAN_1
 62
     2
  6
CONTINUOUS
 66
     1
 40
0.003000
 41
0.003000
  0
VERTEX
  8
PLAN_1
 62
     2
  6
CONTINUOUS
 10
0.213665
 20
-0.860299
  0
VERTEX
  8
PLAN_1
 62
     2
  6
CONTINUOUS
 10
0.216736
 20
-0.859787
  0
VERTEX
  8
PLAN_1
 62
     2
  6
CONTINUOUS
 10
0.219807
 20
-0.858764
  0
VERTEX
  8
PLAN_1
 62
     2
  6
CONTINUOUS
 10
0.222370
 20
-0.856717
  0
VERTEX
  8
PLAN_1
 62
     2
  6
CONTINUOUS
 10
0.224417
 20
-0.854157
  0
VERTEX
  8
PLAN_1
 62
     2
  6
CONTINUOUS
 10
0.225953
 20
-0.851083
  0
VERTEX
  8
PLAN_1
 62
     2
  6
CONTINUOUS
 10
0.226976
 20
-0.847500
  0
VERTEX
  8
PLAN_1
 62
     2
  6
CONTINUOUS
 10
0.228000
 20
-0.843402
  0
VERTEX
  8
PLAN_1
 62
     2
  6
CONTINUOUS
 10
0.228000
 20
-0.839307
  0
VERTEX
  8
PLAN_1
 62
     2
  6
CONTINUOUS
 10
0.228000
 20
-0.836232
  0
VERTEX
  8
PLAN_1
 62
     2
  6
CONTINUOUS
 10
0.228000
 20
-0.833161
  0
VERTEX
  8
PLAN_1
 62
     2
  6
CONTINUOUS
 10
0.226976
 20
-0.829579
  0
VERTEX
  8
PLAN_1
 62
     2
  6
CONTINUOUS
 10
0.225953
 20
-0.826504
  0
VERTEX
  8
PLAN_1
 62
     2
  6
CONTINUOUS
 10
0.224417
 20
-0.823433
  0
VERTEX
  8
PLAN_1
 62
     2
  6
CONTINUOUS
 10
0.221346
 20
-0.820874
  0
VERTEX
  8
PLAN_1
 62
     2
  6
CONTINUOUS
 10
0.219807
 20
-0.819846
  0
VERTEX
  8
PLAN_1
 62
     2
  6
CONTINUOUS
 10
0.217760
 20
-0.819335
  0
VERTEX
  8
PLAN_1
 62
     2
  6
CONTINUOUS
 10
0.215713
 20
-0.818823
  0
VERTEX
  8
PLAN_1
 62
     2
  6
CONTINUOUS
 10
0.213154
 20
-0.818823
  0
VERTEX
  8
PLAN_1
 62
     2
  6
CONTINUOUS
 10
0.211102
 20
-0.818823
  0
VERTEX
  8
PLAN_1
 62
     2
  6
CONTINUOUS
 10
0.209055
 20
-0.819335
  0
VERTEX
  8
PLAN_1
 62
     2
  6
CONTINUOUS
 10
0.207008
 20
-0.820362
  0
VERTEX
  8
PLAN_1
 62
     2
  6
CONTINUOUS
 10
0.205472
 20
-0.821386
  0
VERTEX
  8
PLAN_1
 62
     2
  6
CONTINUOUS
 10
0.202909
 20
-0.823945
  0
VERTEX
  8
PLAN_1
 62
     2
  6
CONTINUOUS
 10
0.200862
 20
-0.827016
  0
VERTEX
  8
PLAN_1
 62
     2
  6
CONTINUOUS
 10
0.199839
 20
-0.830602
  0
VERTEX
  8
PLAN_1
 62
     2
  6
CONTINUOUS
 10
0.198815
 20
-0.834697
  0
VERTEX
  8
PLAN_1
 62
     2
  6
CONTINUOUS
 10
0.198815
 20
-0.838283
  0
VERTEX
  8
PLAN_1
 62
     2
  6
CONTINUOUS
 10
0.198815
 20
-0.841866
  0
VERTEX
  8
PLAN_1
 62
     2
  6
CONTINUOUS
 10
0.198815
 20
-0.846988
  0
VERTEX
  8
PLAN_1
 62
     2
  6
CONTINUOUS
 10
0.199839
 20
-0.851083
  0
VERTEX
  8
PLAN_1
 62
     2
  6
CONTINUOUS
 10
0.201886
 20
-0.854157
  0
VERTEX
  8
PLAN_1
 62
     2
  6
CONTINUOUS
 10
0.203933
 20
-0.856205
  0
VERTEX
  8
PLAN_1
 62
     2
  6
CONTINUOUS
 10
0.205984
 20
-0.858252
  0
VERTEX
  8
PLAN_1
 62
     2
  6
CONTINUOUS
 10
0.208543
 20
-0.859276
  0
VERTEX
  8
PLAN_1
 62
     2
  6
CONTINUOUS
 10
0.211102
 20
-0.859787
  0
VERTEX
  8
PLAN_1
 62
     2
  6
CONTINUOUS
 10
0.213665
 20
-0.860299
  0
SEQEND
  8
0
  0
POLYLINE
  8
PLAN_1
 62
     2
  6
CONTINUOUS
 66
     1
 40
0.003000
 41
0.003000
  0
VERTEX
  8
PLAN_1
 62
     2
  6
CONTINUOUS
 10
0.294571
 20
-0.849547
  0
VERTEX
  8
PLAN_1
 62
     2
  6
CONTINUOUS
 10
0.294571
 20
-0.850571
  0
VERTEX
  8
PLAN_1
 62
     2
  6
CONTINUOUS
 10
0.294059
 20
-0.852106
  0
VERTEX
  8
PLAN_1
 62
     2
  6
CONTINUOUS
 10
0.293035
 20
-0.854157
  0
VERTEX
  8
PLAN_1
 62
     2
  6
CONTINUOUS
 10
0.292524
 20
-0.856205
  0
VERTEX
  8
PLAN_1
 62
     2
  6
CONTINUOUS
 10
0.290984
 20
-0.858252
  0
VERTEX
  8
PLAN_1
 62
     2
  6
CONTINUOUS
 10
0.289449
 20
-0.860299
  0
VERTEX
  8
PLAN_1
 62
     2
  6
CONTINUOUS
 10
0.287402
 20
-0.862350
  0
VERTEX
  8
PLAN_1
 62
     2
  6
CONTINUOUS
 10
0.284843
 20
-0.864398
  0
VERTEX
  8
PLAN_1
 62
     2
  6
CONTINUOUS
 10
0.283815
 20
-0.864909
  0
VERTEX
  8
PLAN_1
 62
     2
  6
CONTINUOUS
 10
0.282791
 20
-0.865421
  0
VERTEX
  8
PLAN_1
 62
     2
  6
CONTINUOUS
 10
0.281256
 20
-0.866445
  0
VERTEX
  8
PLAN_1
 62
     2
  6
CONTINUOUS
 10
0.279720
 20
-0.866957
  0
VERTEX
  8
PLAN_1
 62
     2
  6
CONTINUOUS
 10
0.278185
 20
-0.867469
  0
VERTEX
  8
PLAN_1
 62
     2
  6
CONTINUOUS
 10
0.275622
 20
-0.867980
  0
VERTEX
  8
PLAN_1
 62
     2
  6
CONTINUOUS
 10
0.273063
 20
-0.867980
  0
VERTEX
  8
PLAN_1
 62
     2
  6
CONTINUOUS
 10
0.269992
 20
-0.867980
  0
VERTEX
  8
PLAN_1
 62
     2
  6
CONTINUOUS
 10
0.267429
 20
-0.867980
  0
VERTEX
  8
PLAN_1
 62
     2
  6
CONTINUOUS
 10
0.264870
 20
-0.867469
  0
VERTEX
  8
PLAN_1
 62
     2
  6
CONTINUOUS
 10
0.262311
 20
-0.866957
  0
VERTEX
  8
PLAN_1
 62
     2
  6
CONTINUOUS
 10
0.259748
 20
-0.865933
  0
VERTEX
  8
PLAN_1
 62
     2
  6
CONTINUOUS
 10
0.257701
 20
-0.864909
  0
VERTEX
  8
PLAN_1
 62
     2
  6
CONTINUOUS
 10
0.255654
 20
-0.863374
  0
VERTEX
  8
PLAN_1
 62
     2
  6
CONTINUOUS
 10
0.254118
 20
-0.861839
  0
VERTEX
  8
PLAN_1
 62
     2
  6
CONTINUOUS
 10
0.252067
 20
-0.860299
  0
VERTEX
  8
PLAN_1
 62
     2
  6
CONTINUOUS
 10
0.249508
 20
-0.856205
  0
VERTEX
  8
PLAN_1
 62
     2
  6
CONTINUOUS
 10
0.247461
 20
-0.851594
  0
VERTEX
  8
PLAN_1
 62
     2
  6
CONTINUOUS
 10
0.246437
 20
-0.846476
  0
VERTEX
  8
PLAN_1
 62
     2
  6
CONTINUOUS
 10
0.245925
 20
-0.840843
  0
VERTEX
  8
PLAN_1
 62
     2
  6
CONTINUOUS
 10
0.246437
 20
-0.834697
  0
VERTEX
  8
PLAN_1
 62
     2
  6
CONTINUOUS
 10
0.247461
 20
-0.829067
  0
VERTEX
  8
PLAN_1
 62
     2
  6
CONTINUOUS
 10
0.248484
 20
-0.826504
  0
VERTEX
  8
PLAN_1
 62
     2
  6
CONTINUOUS
 10
0.249508
 20
-0.823945
  0
VERTEX
  8
PLAN_1
 62
     2
  6
CONTINUOUS
 10
0.250531
 20
-0.821386
  0
VERTEX
  8
PLAN_1
 62
     2
  6
CONTINUOUS
 10
0.252067
 20
-0.819335
  0
VERTEX
  8
PLAN_1
 62
     2
  6
CONTINUOUS
 10
0.254118
 20
-0.817287
  0
VERTEX
  8
PLAN_1
 62
     2
  6
CONTINUOUS
 10
0.255654
 20
-0.815752
  0
VERTEX
  8
PLAN_1
 62
     2
  6
CONTINUOUS
 10
0.257701
 20
-0.814217
  0
VERTEX
  8
PLAN_1
 62
     2
  6
CONTINUOUS
 10
0.260264
 20
-0.812681
  0
VERTEX
  8
PLAN_1
 62
     2
  6
CONTINUOUS
 10
0.262823
 20
-0.812165
  0
VERTEX
  8
PLAN_1
 62
     2
  6
CONTINUOUS
 10
0.265894
 20
-0.811142
  0
VERTEX
  8
PLAN_1
 62
     2
  6
CONTINUOUS
 10
0.268457
 20
-0.810630
  0
VERTEX
  8
PLAN_1
 62
     2
  6
CONTINUOUS
 10
0.272039
 20
-0.810630
  0
VERTEX
  8
PLAN_1
 62
     2
  6
CONTINUOUS
 10
0.274598
 20
-0.810630
  0
VERTEX
  8
PLAN_1
 62
     2
  6
CONTINUOUS
 10
0.277673
 20
-0.811142
  0
VERTEX
  8
PLAN_1
 62
     2
  6
CONTINUOUS
 10
0.279720
 20
-0.811654
  0
VERTEX
  8
PLAN_1
 62
     2
  6
CONTINUOUS
 10
0.282280
 20
-0.812681
  0
VERTEX
  8
PLAN_1
 62
     2
  6
CONTINUOUS
 10
0.284331
 20
-0.814217
  0
VERTEX
  8
PLAN_1
 62
     2
  6
CONTINUOUS
 10
0.286378
 20
-0.815752
  0
VERTEX
  8
PLAN_1
 62
     2
  6
CONTINUOUS
 10
0.287913
 20
-0.817287
  0
VERTEX
  8
PLAN_1
 62
     2
  6
CONTINUOUS
 10
0.289449
 20
-0.819335
  0
VERTEX
  8
PLAN_1
 62
     2
  6
CONTINUOUS
 10
0.292008
 20
-0.823945
  0
VERTEX
  8
PLAN_1
 62
     2
  6
CONTINUOUS
 10
0.294059
 20
-0.829067
  0
VERTEX
  8
PLAN_1
 62
     2
  6
CONTINUOUS
 10
0.295083
 20
-0.835209
  0
VERTEX
  8
PLAN_1
 62
     2
  6
CONTINUOUS
 10
0.295594
 20
-0.842378
  0
VERTEX
  8
PLAN_1
 62
     2
  6
CONTINUOUS
 10
0.255654
 20
-0.842378
  0
VERTEX
  8
PLAN_1
 62
     2
  6
CONTINUOUS
 10
0.255654
 20
-0.846476
  0
VERTEX
  8
PLAN_1
 62
     2
  6
CONTINUOUS
 10
0.256677
 20
-0.850059
  0
VERTEX
  8
PLAN_1
 62
     2
  6
CONTINUOUS
 10
0.257701
 20
-0.853134
  0
VERTEX
  8
PLAN_1
 62
     2
  6
CONTINUOUS
 10
0.259748
 20
-0.855693
  0
VERTEX
  8
PLAN_1
 62
     2
  6
CONTINUOUS
 10
0.261799
 20
-0.857740
  0
VERTEX
  8
PLAN_1
 62
     2
  6
CONTINUOUS
 10
0.264358
 20
-0.858764
  0
VERTEX
  8
PLAN_1
 62
     2
  6
CONTINUOUS
 10
0.267941
 20
-0.859787
  0
VERTEX
  8
PLAN_1
 62
     2
  6
CONTINUOUS
 10
0.271528
 20
-0.860299
  0
VERTEX
  8
PLAN_1
 62
     2
  6
CONTINUOUS
 10
0.274598
 20
-0.859787
  0
VERTEX
  8
PLAN_1
 62
     2
  6
CONTINUOUS
 10
0.277161
 20
-0.859276
  0
VERTEX
  8
PLAN_1
 62
     2
  6
CONTINUOUS
 10
0.279720
 20
-0.857740
  0
VERTEX
  8
PLAN_1
 62
     2
  6
CONTINUOUS
 10
0.281768
 20
-0.856205
  0
VERTEX
  8
PLAN_1
 62
     2
  6
CONTINUOUS
 10
0.283303
 20
-0.854669
  0
VERTEX
  8
PLAN_1
 62
     2
  6
CONTINUOUS
 10
0.284331
 20
-0.852622
  0
VERTEX
  8
PLAN_1
 62
     2
  6
CONTINUOUS
 10
0.285354
 20
-0.851083
  0
VERTEX
  8
PLAN_1
 62
     2
  6
CONTINUOUS
 10
0.285354
 20
-0.849547
  0
VERTEX
  8
PLAN_1
 62
     2
  6
CONTINUOUS
 10
0.294571
 20
-0.849547
  0
SEQEND
  8
0
  0
POLYLINE
  8
PLAN_1
 62
     2
  6
CONTINUOUS
 66
     1
 40
0.003000
 41
0.003000
  0
VERTEX
  8
PLAN_1
 62
     2
  6
CONTINUOUS
 10
0.285866
 20
-0.835209
  0
VERTEX
  8
PLAN_1
 62
     2
  6
CONTINUOUS
 10
0.285354
 20
-0.832138
  0
VERTEX
  8
PLAN_1
 62
     2
  6
CONTINUOUS
 10
0.284843
 20
-0.829067
  0
VERTEX
  8
PLAN_1
 62
     2
  6
CONTINUOUS
 10
0.283815
 20
-0.825992
  0
VERTEX
  8
PLAN_1
 62
     2
  6
CONTINUOUS
 10
0.282280
 20
-0.823945
  0
VERTEX
  8
PLAN_1
 62
     2
  6
CONTINUOUS
 10
0.280232
 20
-0.821898
  0
VERTEX
  8
PLAN_1
 62
     2
  6
CONTINUOUS
 10
0.277673
 20
-0.820362
  0
VERTEX
  8
PLAN_1
 62
     2
  6
CONTINUOUS
 10
0.274598
 20
-0.819335
  0
VERTEX
  8
PLAN_1
 62
     2
  6
CONTINUOUS
 10
0.270504
 20
-0.818823
  0
VERTEX
  8
PLAN_1
 62
     2
  6
CONTINUOUS
 10
0.267429
 20
-0.819335
  0
VERTEX
  8
PLAN_1
 62
     2
  6
CONTINUOUS
 10
0.264870
 20
-0.820362
  0
VERTEX
  8
PLAN_1
 62
     2
  6
CONTINUOUS
 10
0.262311
 20
-0.821898
  0
VERTEX
  8
PLAN_1
 62
     2
  6
CONTINUOUS
 10
0.260264
 20
-0.823945
  0
VERTEX
  8
PLAN_1
 62
     2
  6
CONTINUOUS
 10
0.258213
 20
-0.825992
  0
VERTEX
  8
PLAN_1
 62
     2
  6
CONTINUOUS
 10
0.256677
 20
-0.829067
  0
VERTEX
  8
PLAN_1
 62
     2
  6
CONTINUOUS
 10
0.256165
 20
-0.832138
  0
VERTEX
  8
PLAN_1
 62
     2
  6
CONTINUOUS
 10
0.255654
 20
-0.835209
  0
VERTEX
  8
PLAN_1
 62
     2
  6
CONTINUOUS
 10
0.285866
 20
-0.835209
  0
SEQEND
  8
0
  0
POLYLINE
  8
PLAN_1
 62
     2
  6
CONTINUOUS
 66
     1
 40
0.003000
 41
0.003000
  0
VERTEX
  8
PLAN_1
 62
     2
  6
CONTINUOUS
 10
0.365748
 20
-0.866445
  0
VERTEX
  8
PLAN_1
 62
     2
  6
CONTINUOUS
 10
0.356016
 20
-0.866445
  0
VERTEX
  8
PLAN_1
 62
     2
  6
CONTINUOUS
 10
0.356016
 20
-0.814728
  0
VERTEX
  8
PLAN_1
 62
     2
  6
CONTINUOUS
 10
0.339118
 20
-0.814728
  0
VERTEX
  8
PLAN_1
 62
     2
  6
CONTINUOUS
 10
0.339118
 20
-0.807559
  0
VERTEX
  8
PLAN_1
 62
     2
  6
CONTINUOUS
 10
0.343217
 20
-0.807047
  0
VERTEX
  8
PLAN_1
 62
     2
  6
CONTINUOUS
 10
0.346799
 20
-0.806535
  0
VERTEX
  8
PLAN_1
 62
     2
  6
CONTINUOUS
 10
0.349874
 20
-0.805512
  0
VERTEX
  8
PLAN_1
 62
     2
  6
CONTINUOUS
 10
0.352433
 20
-0.804488
  0
VERTEX
  8
PLAN_1
 62
     2
  6
CONTINUOUS
 10
0.354480
 20
-0.802949
  0
VERTEX
  8
PLAN_1
 62
     2
  6
CONTINUOUS
 10
0.356016
 20
-0.800390
  0
VERTEX
  8
PLAN_1
 62
     2
  6
CONTINUOUS
 10
0.357555
 20
-0.797319
  0
VERTEX
  8
PLAN_1
 62
     2
  6
CONTINUOUS
 10
0.358579
 20
-0.793220
  0
VERTEX
  8
PLAN_1
 62
     2
  6
CONTINUOUS
 10
0.365748
 20
-0.793220
  0
VERTEX
  8
PLAN_1
 62
     2
  6
CONTINUOUS
 10
0.365748
 20
-0.866445
  0
SEQEND
  8
0
  0
POLYLINE
  8
PLAN_1
 62
     2
  6
CONTINUOUS
 66
     1
 40
0.003000
 41
0.003000
  0
VERTEX
  8
PLAN_1
 62
     2
  6
CONTINUOUS
 10
0.409783
 20
-0.824969
  0
VERTEX
  8
PLAN_1
 62
     2
  6
CONTINUOUS
 10
0.410295
 20
-0.824969
  0
VERTEX
  8
PLAN_1
 62
     2
  6
CONTINUOUS
 10
0.410807
 20
-0.824969
  0
VERTEX
  8
PLAN_1
 62
     2
  6
CONTINUOUS
 10
0.411319
 20
-0.824969
  0
VERTEX
  8
PLAN_1
 62
     2
  6
CONTINUOUS
 10
0.412343
 20
-0.824969
  0
VERTEX
  8
PLAN_1
 62
     2
  6
CONTINUOUS
 10
0.412858
 20
-0.824969
  0
VERTEX
  8
PLAN_1
 62
     2
  6
CONTINUOUS
 10
0.413370
 20
-0.824969
  0
VERTEX
  8
PLAN_1
 62
     2
  6
CONTINUOUS
 10
0.413882
 20
-0.824969
  0
VERTEX
  8
PLAN_1
 62
     2
  6
CONTINUOUS
 10
0.414394
 20
-0.824969
  0
VERTEX
  8
PLAN_1
 62
     2
  6
CONTINUOUS
 10
0.416953
 20
-0.824969
  0
VERTEX
  8
PLAN_1
 62
     2
  6
CONTINUOUS
 10
0.419512
 20
-0.824457
  0
VERTEX
  8
PLAN_1
 62
     2
  6
CONTINUOUS
 10
0.422075
 20
-0.823945
  0
VERTEX
  8
PLAN_1
 62
     2
  6
CONTINUOUS
 10
0.424122
 20
-0.822409
  0
VERTEX
  8
PLAN_1
 62
     2
  6
CONTINUOUS
 10
0.425657
 20
-0.820874
  0
VERTEX
  8
PLAN_1
 62
     2
  6
CONTINUOUS
 10
0.427193
 20
-0.818823
  0
VERTEX
  8
PLAN_1
 62
     2
  6
CONTINUOUS
 10
0.428217
 20
-0.816264
  0
VERTEX
  8
PLAN_1
 62
     2
  6
CONTINUOUS
 10
0.428217
 20
-0.813193
  0
VERTEX
  8
PLAN_1
 62
     2
  6
CONTINUOUS
 10
0.428217
 20
-0.811654
  0
VERTEX
  8
PLAN_1
 62
     2
  6
CONTINUOUS
 10
0.427705
 20
-0.809606
  0
VERTEX
  8
PLAN_1
 62
     2
  6
CONTINUOUS
 10
0.427193
 20
-0.807559
  0
VERTEX
  8
PLAN_1
 62
     2
  6
CONTINUOUS
 10
0.425657
 20
-0.805512
  0
VERTEX
  8
PLAN_1
 62
     2
  6
CONTINUOUS
 10
0.424122
 20
-0.803972
  0
VERTEX
  8
PLAN_1
 62
     2
  6
CONTINUOUS
 10
0.421563
 20
-0.802949
  0
VERTEX
  8
PLAN_1
 62
     2
  6
CONTINUOUS
 10
0.418488
 20
-0.801925
  0
VERTEX
  8
PLAN_1
 62
     2
  6
CONTINUOUS
 10
0.414906
 20
-0.801413
  0
VERTEX
  8
PLAN_1
 62
     2
  6
CONTINUOUS
 10
0.410807
 20
-0.801925
  0
VERTEX
  8
PLAN_1
 62
     2
  6
CONTINUOUS
 10
0.407224
 20
-0.803461
  0
VERTEX
  8
PLAN_1
 62
     2
  6
CONTINUOUS
 10
0.404665
 20
-0.805000
  0
VERTEX
  8
PLAN_1
 62
     2
  6
CONTINUOUS
 10
0.403126
 20
-0.807559
  0
VERTEX
  8
PLAN_1
 62
     2
  6
CONTINUOUS
 10
0.402102
 20
-0.810118
  0
VERTEX
  8
PLAN_1
 62
     2
  6
CONTINUOUS
 10
0.401079
 20
-0.812681
  0
VERTEX
  8
PLAN_1
 62
     2
  6
CONTINUOUS
 10
0.401079
 20
-0.815240
  0
VERTEX
  8
PLAN_1
 62
     2
  6
CONTINUOUS
 10
0.400567
 20
-0.817287
  0
VERTEX
  8
PLAN_1
 62
     2
  6
CONTINUOUS
 10
0.391862
 20
-0.817287
  0
VERTEX
  8
PLAN_1
 62
     2
  6
CONTINUOUS
 10
0.391862
 20
-0.813193
  0
VERTEX
  8
PLAN_1
 62
     2
  6
CONTINUOUS
 10
0.392886
 20
-0.809094
  0
VERTEX
  8
PLAN_1
 62
     2
  6
CONTINUOUS
 10
0.393909
 20
-0.805000
  0
VERTEX
  8
PLAN_1
 62
     2
  6
CONTINUOUS
 10
0.396469
 20
-0.801413
  0
VERTEX
  8
PLAN_1
 62
     2
  6
CONTINUOUS
 10
0.398008
 20
-0.799878
  0
VERTEX
  8
PLAN_1
 62
     2
  6
CONTINUOUS
 10
0.399543
 20
-0.798343
  0
VERTEX
  8
PLAN_1
 62
     2
  6
CONTINUOUS
 10
0.401591
 20
-0.796807
  0
VERTEX
  8
PLAN_1
 62
     2
  6
CONTINUOUS
 10
0.403638
 20
-0.795780
  0
VERTEX
  8
PLAN_1
 62
     2
  6
CONTINUOUS
 10
0.406201
 20
-0.794756
  0
VERTEX
  8
PLAN_1
 62
     2
  6
CONTINUOUS
 10
0.408760
 20
-0.793732
  0
VERTEX
  8
PLAN_1
 62
     2
  6
CONTINUOUS
 10
0.411831
 20
-0.793732
  0
VERTEX
  8
PLAN_1
 62
     2
  6
CONTINUOUS
 10
0.415417
 20
-0.793220
  0
VERTEX
  8
PLAN_1
 62
     2
  6
CONTINUOUS
 10
0.420539
 20
-0.793732
  0
VERTEX
  8
PLAN_1
 62
     2
  6
CONTINUOUS
 10
0.424634
 20
-0.794756
  0
VERTEX
  8
PLAN_1
 62
     2
  6
CONTINUOUS
 10
0.428732
 20
-0.796807
  0
VERTEX
  8
PLAN_1
 62
     2
  6
CONTINUOUS
 10
0.431803
 20
-0.798854
  0
VERTEX
  8
PLAN_1
 62
     2
  6
CONTINUOUS
 10
0.434362
 20
-0.801925
  0
VERTEX
  8
PLAN_1
 62
     2
  6
CONTINUOUS
 10
0.436409
 20
-0.805000
  0
VERTEX
  8
PLAN_1
 62
     2
  6
CONTINUOUS
 10
0.437437
 20
-0.808583
  0
VERTEX
  8
PLAN_1
 62
     2
  6
CONTINUOUS
 10
0.437949
 20
-0.812681
  0
VERTEX
  8
PLAN_1
 62
     2
  6
CONTINUOUS
 10
0.437437
 20
-0.815752
  0
VERTEX
  8
PLAN_1
 62
     2
  6
CONTINUOUS
 10
0.436925
 20
-0.818823
  0
VERTEX
  8
PLAN_1
 62
     2
  6
CONTINUOUS
 10
0.435898
 20
-0.821386
  0
VERTEX
  8
PLAN_1
 62
     2
  6
CONTINUOUS
 10
0.434874
 20
-0.823433
  0
VERTEX
  8
PLAN_1
 62
     2
  6
CONTINUOUS
 10
0.433339
 20
-0.824969
  0
VERTEX
  8
PLAN_1
 62
     2
  6
CONTINUOUS
 10
0.431803
 20
-0.825992
  0
VERTEX
  8
PLAN_1
 62
     2
  6
CONTINUOUS
 10
0.430268
 20
-0.827016
  0
VERTEX
  8
PLAN_1
 62
     2
  6
CONTINUOUS
 10
0.428732
 20
-0.827528
  0
VERTEX
  8
PLAN_1
 62
     2
  6
CONTINUOUS
 10
0.428732
 20
-0.828039
  0
VERTEX
  8
PLAN_1
 62
     2
  6
CONTINUOUS
 10
0.431291
 20
-0.829067
  0
VERTEX
  8
PLAN_1
 62
     2
  6
CONTINUOUS
 10
0.433339
 20
-0.830091
  0
VERTEX
  8
PLAN_1
 62
     2
  6
CONTINUOUS
 10
0.435386
 20
-0.831626
  0
VERTEX
  8
PLAN_1
 62
     2
  6
CONTINUOUS
 10
0.437437
 20
-0.833673
  0
VERTEX
  8
PLAN_1
 62
     2
  6
CONTINUOUS
 10
0.438972
 20
-0.835720
  0
VERTEX
  8
PLAN_1
 62
     2
  6
CONTINUOUS
 10
0.439996
 20
-0.838283
  0
VERTEX
  8
PLAN_1
 62
     2
  6
CONTINUOUS
 10
0.440508
 20
-0.841354
  0
VERTEX
  8
PLAN_1
 62
     2
  6
CONTINUOUS
 10
0.440508
 20
-0.844941
  0
VERTEX
  8
PLAN_1
 62
     2
  6
CONTINUOUS
 10
0.440508
 20
-0.849547
  0
VERTEX
  8
PLAN_1
 62
     2
  6
CONTINUOUS
 10
0.439484
 20
-0.853646
  0
VERTEX
  8
PLAN_1
 62
     2
  6
CONTINUOUS
 10
0.437437
 20
-0.857740
  0
VERTEX
  8
PLAN_1
 62
     2
  6
CONTINUOUS
 10
0.434362
 20
-0.861327
  0
VERTEX
  8
PLAN_1
 62
     2
  6
CONTINUOUS
 10
0.432827
 20
-0.862862
  0
VERTEX
  8
PLAN_1
 62
     2
  6
CONTINUOUS
 10
0.430780
 20
-0.864398
  0
VERTEX
  8
PLAN_1
 62
     2
  6
CONTINUOUS
 10
0.428732
 20
-0.865421
  0
VERTEX
  8
PLAN_1
 62
     2
  6
CONTINUOUS
 10
0.426169
 20
-0.866445
  0
VERTEX
  8
PLAN_1
 62
     2
  6
CONTINUOUS
 10
0.423610
 20
-0.867469
  0
VERTEX
  8
PLAN_1
 62
     2
  6
CONTINUOUS
 10
0.421051
 20
-0.867980
  0
VERTEX
  8
PLAN_1
 62
     2
  6
CONTINUOUS
 10
0.417976
 20
-0.868496
  0
VERTEX
  8
PLAN_1
 62
     2
  6
CONTINUOUS
 10
0.414394
 20
-0.868496
  0
VERTEX
  8
PLAN_1
 62
     2
  6
CONTINUOUS
 10
0.412343
 20
-0.868496
  0
VERTEX
  8
PLAN_1
 62
     2
  6
CONTINUOUS
 10
0.410295
 20
-0.868496
  0
VERTEX
  8
PLAN_1
 62
     2
  6
CONTINUOUS
 10
0.408760
 20
-0.867980
  0
VERTEX
  8
PLAN_1
 62
     2
  6
CONTINUOUS
 10
0.406713
 20
-0.867469
  0
VERTEX
  8
PLAN_1
 62
     2
  6
CONTINUOUS
 10
0.405177
 20
-0.866957
  0
VERTEX
  8
PLAN_1
 62
     2
  6
CONTINUOUS
 10
0.403638
 20
-0.866445
  0
VERTEX
  8
PLAN_1
 62
     2
  6
CONTINUOUS
 10
0.402102
 20
-0.865933
  0
VERTEX
  8
PLAN_1
 62
     2
  6
CONTINUOUS
 10
0.401079
 20
-0.865421
  0
VERTEX
  8
PLAN_1
 62
     2
  6
CONTINUOUS
 10
0.398008
 20
-0.863374
  0
VERTEX
  8
PLAN_1
 62
     2
  6
CONTINUOUS
 10
0.395957
 20
-0.861327
  0
VERTEX
  8
PLAN_1
 62
     2
  6
CONTINUOUS
 10
0.393909
 20
-0.858764
  0
VERTEX
  8
PLAN_1
 62
     2
  6
CONTINUOUS
 10
0.392374
 20
-0.856205
  0
VERTEX
  8
PLAN_1
 62
     2
  6
CONTINUOUS
 10
0.391350
 20
-0.853646
  0
VERTEX
  8
PLAN_1
 62
     2
  6
CONTINUOUS
 10
0.390839
 20
-0.850571
  0
VERTEX
  8
PLAN_1
 62
     2
  6
CONTINUOUS
 10
0.390327
 20
-0.847500
  0
VERTEX
  8
PLAN_1
 62
     2
  6
CONTINUOUS
 10
0.389815
 20
-0.843913
  0
VERTEX
  8
PLAN_1
 62
     2
  6
CONTINUOUS
 10
0.399543
 20
-0.843913
  0
VERTEX
  8
PLAN_1
 62
     2
  6
CONTINUOUS
 10
0.399543
 20
-0.846988
  0
VERTEX
  8
PLAN_1
 62
     2
  6
CONTINUOUS
 10
0.400055
 20
-0.849547
  0
VERTEX
  8
PLAN_1
 62
     2
  6
CONTINUOUS
 10
0.401079
 20
-0.852106
  0
VERTEX
  8
PLAN_1
 62
     2
  6
CONTINUOUS
 10
0.402102
 20
-0.854669
  0
VERTEX
  8
PLAN_1
 62
     2
  6
CONTINUOUS
 10
0.404150
 20
-0.857228
  0
VERTEX
  8
PLAN_1
 62
     2
  6
CONTINUOUS
 10
0.406713
 20
-0.858764
  0
VERTEX
  8
PLAN_1
 62
     2
  6
CONTINUOUS
 10
0.410295
 20
-0.859787
  0
VERTEX
  8
PLAN_1
 62
     2
  6
CONTINUOUS
 10
0.414906
 20
-0.860299
  0
VERTEX
  8
PLAN_1
 62
     2
  6
CONTINUOUS
 10
0.418488
 20
-0.859787
  0
VERTEX
  8
PLAN_1
 62
     2
  6
CONTINUOUS
 10
0.421563
 20
-0.859276
  0
VERTEX
  8
PLAN_1
 62
     2
  6
CONTINUOUS
 10
0.424122
 20
-0.858252
  0
VERTEX
  8
PLAN_1
 62
     2
  6
CONTINUOUS
 10
0.426681
 20
-0.856205
  0
VERTEX
  8
PLAN_1
 62
     2
  6
CONTINUOUS
 10
0.428217
 20
-0.854157
  0
VERTEX
  8
PLAN_1
 62
     2
  6
CONTINUOUS
 10
0.429756
 20
-0.852106
  0
VERTEX
  8
PLAN_1
 62
     2
  6
CONTINUOUS
 10
0.430780
 20
-0.849035
  0
VERTEX
  8
PLAN_1
 62
     2
  6
CONTINUOUS
 10
0.430780
 20
-0.845965
  0
VERTEX
  8
PLAN_1
 62
     2
  6
CONTINUOUS
 10
0.430780
 20
-0.843913
  0
VERTEX
  8
PLAN_1
 62
     2
  6
CONTINUOUS
 10
0.430268
 20
-0.841866
  0
VERTEX
  8
PLAN_1
 62
     2
  6
CONTINUOUS
 10
0.429756
 20
-0.840331
  0
VERTEX
  8
PLAN_1
 62
     2
  6
CONTINUOUS
 10
0.429244
 20
-0.838795
  0
VERTEX
  8
PLAN_1
 62
     2
  6
CONTINUOUS
 10
0.427193
 20
-0.836748
  0
VERTEX
  8
PLAN_1
 62
     2
  6
CONTINUOUS
 10
0.424634
 20
-0.834697
  0
VERTEX
  8
PLAN_1
 62
     2
  6
CONTINUOUS
 10
0.422075
 20
-0.833673
  0
VERTEX
  8
PLAN_1
 62
     2
  6
CONTINUOUS
 10
0.419000
 20
-0.833161
  0
VERTEX
  8
PLAN_1
 62
     2
  6
CONTINUOUS
 10
0.416441
 20
-0.832650
  0
VERTEX
  8
PLAN_1
 62
     2
  6
CONTINUOUS
 10
0.413882
 20
-0.832650
  0
VERTEX
  8
PLAN_1
 62
     2
  6
CONTINUOUS
 10
0.413370
 20
-0.832650
  0
VERTEX
  8
PLAN_1
 62
     2
  6
CONTINUOUS
 10
0.412858
 20
-0.832650
  0
VERTEX
  8
PLAN_1
 62
     2
  6
CONTINUOUS
 10
0.412343
 20
-0.832650
  0
VERTEX
  8
PLAN_1
 62
     2
  6
CONTINUOUS
 10
0.411831
 20
-0.832650
  0
VERTEX
  8
PLAN_1
 62
     2
  6
CONTINUOUS
 10
0.411319
 20
-0.832650
  0
VERTEX
  8
PLAN_1
 62
     2
  6
CONTINUOUS
 10
0.410807
 20
-0.832650
  0
VERTEX
  8
PLAN_1
 62
     2
  6
CONTINUOUS
 10
0.410295
 20
-0.832650
  0
VERTEX
  8
PLAN_1
 62
     2
  6
CONTINUOUS
 10
0.409783
 20
-0.832650
  0
VERTEX
  8
PLAN_1
 62
     2
  6
CONTINUOUS
 10
0.409783
 20
-0.824969
  0
SEQEND
  8
0
  0
SOLID
  8
PLAN_1
 62
     2
 10
-0.701906
 20
-0.594028
 11
-0.658890
 21
-0.637555
 12
-0.701906
 22
-0.594028
 13
-0.643016
 23
-0.610413
  0
POLYLINE
  8
PLAN_1
 62
     2
  6
CONTINUOUS
 66
     1
 40
0.003000
 41
0.003000
  0
VERTEX
  8
PLAN_1
 62
     2
  6
CONTINUOUS
 10
-0.701906
 20
-0.594028
  0
VERTEX
  8
PLAN_1
 62
     2
  6
CONTINUOUS
 10
-0.658890
 20
-0.637555
  0
VERTEX
  8
PLAN_1
 62
     2
  6
CONTINUOUS
 10
-0.643016
 20
-0.610413
  0
VERTEX
  8
PLAN_1
 62
     2
  6
CONTINUOUS
 10
-0.701906
 20
-0.594028
  0
SEQEND
  8
0
  0
POLYLINE
  8
PLAN_1
 62
     2
  6
CONTINUOUS
 66
     1
 40
0.004094
 41
0.004094
  0
VERTEX
  8
PLAN_1
 62
     2
  6
CONTINUOUS
 10
-0.669642
 20
-0.612976
  0
VERTEX
  8
PLAN_1
 62
     2
  6
CONTINUOUS
 10
-0.417197
 20
-0.765059
  0
VERTEX
  8
PLAN_1
 62
     2
  6
CONTINUOUS
 10
0.541386
 20
-0.765059
  0
SEQEND
  8
0
  0
ENDSEC
  0
EOF
