  0
SECTION
  2
HEADER
  9
$ACADVER
  1
AC1006
  9
$EXTMIN
 10
-2.424000
 20
-3.630953
  9
$EXTMAX
 10
2.240705
 20
3.697000
  9
$LTSCALE
 40
0.000394
  9
$PDMODE
 70
    35
  9
$PDSIZE
 40
0.000315
  0
ENDSEC
  0
SECTION
  2
TABLES
  0
TABLE
  2
LTYPE
 70
     9
  0
LTYPE
  2
CONTINUOUS
 70
    64
  3
Solid line
 72
    65
 73
     0
 40
0.000000
  0
LTYPE
  2
DASHED
 70
    64
  3
__ __ __ __ __ __ __ __ __ __ __ __ __ __ __
 72
    65
 73
     2
 40
0.000003
 49
0.000002
 49
-0.000001
  0
LTYPE
  2
HIDDEN
 70
    64
  3
 _ _ _ _ _ _ _ _ _ _ _ _ _ _ _ _ _ _ _ _ _ _
 72
    65
 73
     2
 40
0.000001
 49
0.000001
 49
-0.000000
  0
LTYPE
  2
CENTER
 70
    64
  3
____ _ ____ _ ____ _ ____ _ ____ _ ____ _ ____
 72
    65
 73
     4
 40
0.000008
 49
0.000005
 49
-0.000001
 49
0.000001
 49
-0.000001
  0
LTYPE
  2
PHANTOM
 70
    64
  3
_____ _ _ _____ _ _ _____ _ _ _____ _ _ ____
 72
    65
 73
     6
 40
0.000010
 49
0.000005
 49
-0.000001
 49
0.000001
 49
-0.000001
 49
0.000001
 49
-0.000001
  0
LTYPE
  2
DOT
 70
    64
  3
...............................................
 72
    65
 73
     2
 40
0.000001
 49
0.000000
 49
-0.000001
  0
LTYPE
  2
DASHDOT
 70
    64
  3
__ . __ . __ . __ . __ . __ . __ . __ . __ . __
 72
    65
 73
     4
 40
0.000004
 49
0.000002
 49
-0.000001
 49
0.000000
 49
-0.000001
  0
LTYPE
  2
BORDER
 70
    64
  3
__ __ . __ __ . __ __ . __ __ . __ __ . __ __
 72
    65
 73
     6
 40
0.000007
 49
0.000002
 49
-0.000001
 49
0.000002
 49
-0.000001
 49
0.000000
 49
-0.000001
  0
LTYPE
  2
DIVIDE
 70
    64
  3
__ . . __ . . __ . . __ . . __ . . __ . . __
 72
    65
 73
     6
 40
0.000005
 49
0.000002
 49
-0.000001
 49
0.000000
 49
-0.000001
 49
0.000000
 49
-0.000001
  0
LTYPE
  2
DOTDOT
 70
    64
  3
 . .  . .  . .  . .  . .  . . 
 72
    65
 73
     5
 40
0.000002
 49
-0.000001
 49
0.000000
 49
-0.000001
 49
0.000000
 49
-0.000001
  0
ENDTAB
  0
TABLE
  2
STYLE
 70
     2
  0
STYLE
 70
     0
  2
SN0
 40
0.000000
 41
0.000004
 50
0.000000
 71
     0
 42
0.000000
  3
Helvetica
  0
STYLE
 70
    68
  2
SV0
 40
0.000000
 41
0.000004
 50
0.000000
 71
     0
 42
0.000000
  3
Helvetica
  0
ENDTAB
  0
TABLE
  2
LAYER
 70
     3
  0
LAYER
  2
FOREGROUND
 70
    64
 62
     7
  6
CONTINUOUS
  0
LAYER
  2
BACKGROUND
 70
    65
 62
    -7
  6
CONTINUOUS
  0
LAYER
  2
PLAN_1
 70
    64
 62
     7
  6
CONTINUOUS
  0
ENDTAB
  0
ENDSEC
  0
SECTION
  2
ENTITIES
  0
TEXT
  8
PLAN_1
 10
0.333598
 20
-3.630945
 40
0.230076
  1
Z
 41
1.000000
  7
SN0
 71
     0
 72
     5
 11
0.502874
 21
-3.630945
  0
TEXT
  8
PLAN_1
 10
0.503516
 20
-3.630945
 40
0.230076
  1
C
 41
1.000000
  7
SN0
 71
     0
 72
     5
 11
0.703935
 21
-3.630945
  0
TEXT
  8
PLAN_1
 10
0.703657
 20
-3.630945
 40
0.230076
  1
K
 41
1.000000
  7
SN0
 71
     0
 72
     5
 11
0.888688
 21
-3.630945
  0
TEXT
  8
PLAN_1
 10
0.889150
 20
-3.630945
 40
0.230076
  1
S
 41
1.000000
  7
SN0
 71
     0
 72
     5
 11
1.074180
 21
-3.630945
  0
TEXT
  8
PLAN_1
 10
1.074177
 20
-3.630945
 40
0.230076
  1
@
 41
1.000000
  7
SN0
 71
     0
 72
     5
 11
1.355571
 21
-3.630945
  0
TEXT
  8
PLAN_1
 10
1.356303
 20
-3.630945
 40
0.230076
  1
_
 41
1.000000
  7
SN0
 71
     0
 72
     5
 11
1.510557
 21
-3.630945
  0
TEXT
  8
PLAN_1
 10
1.510650
 20
-3.630945
 40
0.230076
  1
_
 41
1.000000
  7
SN0
 71
     0
 72
     5
 11
1.664903
 21
-3.630945
  0
TEXT
  8
PLAN_1
 10
1.664992
 20
-3.630945
 40
0.230076
  1
F
 41
1.000000
  7
SN0
 71
     0
 72
     5
 11
1.834268
 21
-3.630945
  0
TEXT
  8
PLAN_1
 10
1.793232
 20
-3.630945
 40
0.230076
  1
.
 41
1.000000
  7
SN0
 71
     0
 72
     5
 11
1.870176
 21
-3.630945
  0
TEXT
  8
PLAN_1
 10
1.870177
 20
-3.630945
 40
0.230076
  1
E
 41
1.000000
  7
SN0
 71
     0
 72
     5
 11
2.055208
 21
-3.630945
  0
TEXT
  8
PLAN_1
 10
2.055665
 20
-3.630945
 40
0.230076
  1
P
 41
1.000000
  7
SN0
 71
     0
 72
     5
 11
2.240696
 21
-3.630945
  0
TEXT
  8
PLAN_1
 10
2.240697
 20
-3.630945
 40
0.230076
  1
S
 41
1.000000
  7
SN0
 71
     0
 72
     5
 11
2.425728
 21
-3.630945
  0
POLYLINE
  8
PLAN_1
  6
CONTINUOUS
 66
     1
 40
0.008240
 41
0.008240
  0
VERTEX
  8
PLAN_1
  6
CONTINUOUS
 10
-1.475031
 20
0.455756
  0
VERTEX
  8
PLAN_1
  6
CONTINUOUS
 10
-1.483732
 20
0.456217
  0
VERTEX
  8
PLAN_1
  6
CONTINUOUS
 10
-1.492433
 20
0.456673
  0
VERTEX
  8
PLAN_1
  6
CONTINUOUS
 10
-1.501138
 20
0.457591
  0
VERTEX
  8
PLAN_1
  6
CONTINUOUS
 10
-1.509382
 20
0.459421
  0
VERTEX
  8
PLAN_1
  6
CONTINUOUS
 10
-1.518083
 20
0.461252
  0
VERTEX
  8
PLAN_1
  6
CONTINUOUS
 10
-1.525870
 20
0.463543
  0
VERTEX
  8
PLAN_1
  6
CONTINUOUS
 10
-1.534114
 20
0.466291
  0
VERTEX
  8
PLAN_1
  6
CONTINUOUS
 10
-1.541898
 20
0.469496
  0
VERTEX
  8
PLAN_1
  6
CONTINUOUS
 10
-1.549685
 20
0.472705
  0
VERTEX
  8
PLAN_1
  6
CONTINUOUS
 10
-1.557012
 20
0.476366
  0
VERTEX
  8
PLAN_1
  6
CONTINUOUS
 10
-1.564339
 20
0.480488
  0
VERTEX
  8
PLAN_1
  6
CONTINUOUS
 10
-1.571209
 20
0.485071
  0
VERTEX
  8
PLAN_1
  6
CONTINUOUS
 10
-1.578079
 20
0.490106
  0
VERTEX
  8
PLAN_1
  6
CONTINUOUS
 10
-1.584492
 20
0.495146
  0
VERTEX
  8
PLAN_1
  6
CONTINUOUS
 10
-1.590445
 20
0.500185
  0
VERTEX
  8
PLAN_1
  6
CONTINUOUS
 10
-1.596402
 20
0.506138
  0
VERTEX
  8
PLAN_1
  6
CONTINUOUS
 10
-1.602354
 20
0.512091
  0
VERTEX
  8
PLAN_1
  6
CONTINUOUS
 10
-1.607850
 20
0.518047
  0
VERTEX
  8
PLAN_1
  6
CONTINUOUS
 10
-1.612890
 20
0.524913
  0
VERTEX
  8
PLAN_1
  6
CONTINUOUS
 10
-1.617469
 20
0.531327
  0
VERTEX
  8
PLAN_1
  6
CONTINUOUS
 10
-1.622047
 20
0.538197
  0
VERTEX
  8
PLAN_1
  6
CONTINUOUS
 10
-1.626169
 20
0.545524
  0
VERTEX
  8
PLAN_1
  6
CONTINUOUS
 10
-1.630291
 20
0.552854
  0
VERTEX
  8
PLAN_1
  6
CONTINUOUS
 10
-1.633496
 20
0.560638
  0
VERTEX
  8
PLAN_1
  6
CONTINUOUS
 10
-1.636705
 20
0.568425
  0
VERTEX
  8
PLAN_1
  6
CONTINUOUS
 10
-1.639453
 20
0.576213
  0
VERTEX
  8
PLAN_1
  6
CONTINUOUS
 10
-1.641740
 20
0.584457
  0
VERTEX
  8
PLAN_1
  6
CONTINUOUS
 10
-1.643575
 20
0.592697
  0
VERTEX
  8
PLAN_1
  6
CONTINUOUS
 10
-1.645406
 20
0.601402
  0
VERTEX
  8
PLAN_1
  6
CONTINUOUS
 10
-1.646323
 20
0.609646
  0
VERTEX
  8
PLAN_1
  6
CONTINUOUS
 10
-1.646780
 20
0.618346
  0
VERTEX
  8
PLAN_1
  6
CONTINUOUS
 10
-1.647236
 20
0.627508
  0
SEQEND
  8
0
  0
POLYLINE
  8
PLAN_1
  6
CONTINUOUS
 66
     1
 40
0.008240
 41
0.008240
  0
VERTEX
  8
PLAN_1
  6
CONTINUOUS
 10
-1.647236
 20
0.627508
  0
VERTEX
  8
PLAN_1
  6
CONTINUOUS
 10
-1.647236
 20
3.393807
  0
SEQEND
  8
0
  0
POLYLINE
  8
PLAN_1
  6
CONTINUOUS
 66
     1
 40
0.008240
 41
0.008240
  0
VERTEX
  8
PLAN_1
  6
CONTINUOUS
 10
-1.647236
 20
3.393807
  0
VERTEX
  8
PLAN_1
  6
CONTINUOUS
 10
-1.646780
 20
3.402508
  0
VERTEX
  8
PLAN_1
  6
CONTINUOUS
 10
-1.646323
 20
3.411209
  0
VERTEX
  8
PLAN_1
  6
CONTINUOUS
 10
-1.645406
 20
3.419913
  0
VERTEX
  8
PLAN_1
  6
CONTINUOUS
 10
-1.643575
 20
3.428157
  0
VERTEX
  8
PLAN_1
  6
CONTINUOUS
 10
-1.641740
 20
3.436402
  0
VERTEX
  8
PLAN_1
  6
CONTINUOUS
 10
-1.639453
 20
3.444646
  0
VERTEX
  8
PLAN_1
  6
CONTINUOUS
 10
-1.636705
 20
3.452886
  0
VERTEX
  8
PLAN_1
  6
CONTINUOUS
 10
-1.633496
 20
3.460673
  0
VERTEX
  8
PLAN_1
  6
CONTINUOUS
 10
-1.630291
 20
3.468000
  0
VERTEX
  8
PLAN_1
  6
CONTINUOUS
 10
-1.626169
 20
3.475331
  0
VERTEX
  8
PLAN_1
  6
CONTINUOUS
 10
-1.622047
 20
3.482657
  0
VERTEX
  8
PLAN_1
  6
CONTINUOUS
 10
-1.617469
 20
3.489528
  0
VERTEX
  8
PLAN_1
  6
CONTINUOUS
 10
-1.612890
 20
3.496398
  0
VERTEX
  8
PLAN_1
  6
CONTINUOUS
 10
-1.607850
 20
3.502811
  0
VERTEX
  8
PLAN_1
  6
CONTINUOUS
 10
-1.602354
 20
3.509220
  0
VERTEX
  8
PLAN_1
  6
CONTINUOUS
 10
-1.596402
 20
3.515177
  0
VERTEX
  8
PLAN_1
  6
CONTINUOUS
 10
-1.590445
 20
3.520673
  0
VERTEX
  8
PLAN_1
  6
CONTINUOUS
 10
-1.584492
 20
3.526165
  0
VERTEX
  8
PLAN_1
  6
CONTINUOUS
 10
-1.578079
 20
3.531205
  0
VERTEX
  8
PLAN_1
  6
CONTINUOUS
 10
-1.571209
 20
3.535783
  0
VERTEX
  8
PLAN_1
  6
CONTINUOUS
 10
-1.564339
 20
3.540366
  0
VERTEX
  8
PLAN_1
  6
CONTINUOUS
 10
-1.557012
 20
3.544488
  0
VERTEX
  8
PLAN_1
  6
CONTINUOUS
 10
-1.549685
 20
3.548150
  0
VERTEX
  8
PLAN_1
  6
CONTINUOUS
 10
-1.541898
 20
3.551815
  0
VERTEX
  8
PLAN_1
  6
CONTINUOUS
 10
-1.534114
 20
3.555020
  0
VERTEX
  8
PLAN_1
  6
CONTINUOUS
 10
-1.525870
 20
3.557311
  0
VERTEX
  8
PLAN_1
  6
CONTINUOUS
 10
-1.518083
 20
3.560059
  0
VERTEX
  8
PLAN_1
  6
CONTINUOUS
 10
-1.509382
 20
3.561890
  0
VERTEX
  8
PLAN_1
  6
CONTINUOUS
 10
-1.501138
 20
3.563264
  0
VERTEX
  8
PLAN_1
  6
CONTINUOUS
 10
-1.492433
 20
3.564181
  0
VERTEX
  8
PLAN_1
  6
CONTINUOUS
 10
-1.483732
 20
3.565098
  0
VERTEX
  8
PLAN_1
  6
CONTINUOUS
 10
-1.475031
 20
3.565098
  0
SEQEND
  8
0
  0
POLYLINE
  8
PLAN_1
  6
CONTINUOUS
 66
     1
 40
0.008240
 41
0.008240
  0
VERTEX
  8
PLAN_1
  6
CONTINUOUS
 10
-1.475031
 20
3.565098
  0
VERTEX
  8
PLAN_1
  6
CONTINUOUS
 10
-0.102413
 20
3.565098
  0
SEQEND
  8
0
  0
POLYLINE
  8
PLAN_1
  6
CONTINUOUS
 66
     1
 40
0.008240
 41
0.008240
  0
VERTEX
  8
PLAN_1
  6
CONTINUOUS
 10
-0.102413
 20
3.565098
  0
VERTEX
  8
PLAN_1
  6
CONTINUOUS
 10
-0.093713
 20
3.565098
  0
VERTEX
  8
PLAN_1
  6
CONTINUOUS
 10
-0.085012
 20
3.564181
  0
VERTEX
  8
PLAN_1
  6
CONTINUOUS
 10
-0.076311
 20
3.563264
  0
VERTEX
  8
PLAN_1
  6
CONTINUOUS
 10
-0.068067
 20
3.561890
  0
VERTEX
  8
PLAN_1
  6
CONTINUOUS
 10
-0.059823
 20
3.560059
  0
VERTEX
  8
PLAN_1
  6
CONTINUOUS
 10
-0.051579
 20
3.557311
  0
VERTEX
  8
PLAN_1
  6
CONTINUOUS
 10
-0.043791
 20
3.555020
  0
VERTEX
  8
PLAN_1
  6
CONTINUOUS
 10
-0.036004
 20
3.551815
  0
VERTEX
  8
PLAN_1
  6
CONTINUOUS
 10
-0.028220
 20
3.548150
  0
VERTEX
  8
PLAN_1
  6
CONTINUOUS
 10
-0.020890
 20
3.544488
  0
VERTEX
  8
PLAN_1
  6
CONTINUOUS
 10
-0.013563
 20
3.540366
  0
VERTEX
  8
PLAN_1
  6
CONTINUOUS
 10
-0.006693
 20
3.535783
  0
VERTEX
  8
PLAN_1
  6
CONTINUOUS
 10
0.000177
 20
3.531205
  0
VERTEX
  8
PLAN_1
  6
CONTINUOUS
 10
0.006587
 20
3.526165
  0
VERTEX
  8
PLAN_1
  6
CONTINUOUS
 10
0.012543
 20
3.520673
  0
VERTEX
  8
PLAN_1
  6
CONTINUOUS
 10
0.018496
 20
3.515177
  0
VERTEX
  8
PLAN_1
  6
CONTINUOUS
 10
0.024449
 20
3.509220
  0
VERTEX
  8
PLAN_1
  6
CONTINUOUS
 10
0.029488
 20
3.502811
  0
VERTEX
  8
PLAN_1
  6
CONTINUOUS
 10
0.034528
 20
3.496398
  0
VERTEX
  8
PLAN_1
  6
CONTINUOUS
 10
0.039563
 20
3.489528
  0
VERTEX
  8
PLAN_1
  6
CONTINUOUS
 10
0.044146
 20
3.482657
  0
VERTEX
  8
PLAN_1
  6
CONTINUOUS
 10
0.048268
 20
3.475331
  0
VERTEX
  8
PLAN_1
  6
CONTINUOUS
 10
0.051929
 20
3.468000
  0
VERTEX
  8
PLAN_1
  6
CONTINUOUS
 10
0.055138
 20
3.460673
  0
VERTEX
  8
PLAN_1
  6
CONTINUOUS
 10
0.058343
 20
3.452886
  0
VERTEX
  8
PLAN_1
  6
CONTINUOUS
 10
0.061091
 20
3.444646
  0
VERTEX
  8
PLAN_1
  6
CONTINUOUS
 10
0.063378
 20
3.436402
  0
VERTEX
  8
PLAN_1
  6
CONTINUOUS
 10
0.065213
 20
3.428157
  0
VERTEX
  8
PLAN_1
  6
CONTINUOUS
 10
0.066587
 20
3.419913
  0
VERTEX
  8
PLAN_1
  6
CONTINUOUS
 10
0.067961
 20
3.411209
  0
VERTEX
  8
PLAN_1
  6
CONTINUOUS
 10
0.068417
 20
3.402508
  0
VERTEX
  8
PLAN_1
  6
CONTINUOUS
 10
0.068874
 20
3.393807
  0
SEQEND
  8
0
  0
POLYLINE
  8
PLAN_1
  6
CONTINUOUS
 66
     1
 40
0.008240
 41
0.008240
  0
VERTEX
  8
PLAN_1
  6
CONTINUOUS
 10
0.068874
 20
3.393807
  0
VERTEX
  8
PLAN_1
  6
CONTINUOUS
 10
0.068874
 20
0.627508
  0
SEQEND
  8
0
  0
POLYLINE
  8
PLAN_1
  6
CONTINUOUS
 66
     1
 40
0.008240
 41
0.008240
  0
VERTEX
  8
PLAN_1
  6
CONTINUOUS
 10
0.068874
 20
0.627508
  0
VERTEX
  8
PLAN_1
  6
CONTINUOUS
 10
0.068417
 20
0.618346
  0
VERTEX
  8
PLAN_1
  6
CONTINUOUS
 10
0.067961
 20
0.609646
  0
VERTEX
  8
PLAN_1
  6
CONTINUOUS
 10
0.066587
 20
0.601402
  0
VERTEX
  8
PLAN_1
  6
CONTINUOUS
 10
0.065213
 20
0.592697
  0
VERTEX
  8
PLAN_1
  6
CONTINUOUS
 10
0.063378
 20
0.584457
  0
VERTEX
  8
PLAN_1
  6
CONTINUOUS
 10
0.061091
 20
0.576213
  0
VERTEX
  8
PLAN_1
  6
CONTINUOUS
 10
0.058343
 20
0.568425
  0
VERTEX
  8
PLAN_1
  6
CONTINUOUS
 10
0.055138
 20
0.560638
  0
VERTEX
  8
PLAN_1
  6
CONTINUOUS
 10
0.051929
 20
0.552854
  0
VERTEX
  8
PLAN_1
  6
CONTINUOUS
 10
0.048268
 20
0.545524
  0
VERTEX
  8
PLAN_1
  6
CONTINUOUS
 10
0.044146
 20
0.538197
  0
VERTEX
  8
PLAN_1
  6
CONTINUOUS
 10
0.039563
 20
0.531327
  0
VERTEX
  8
PLAN_1
  6
CONTINUOUS
 10
0.034528
 20
0.524913
  0
VERTEX
  8
PLAN_1
  6
CONTINUOUS
 10
0.029488
 20
0.518047
  0
VERTEX
  8
PLAN_1
  6
CONTINUOUS
 10
0.024449
 20
0.512091
  0
VERTEX
  8
PLAN_1
  6
CONTINUOUS
 10
0.018496
 20
0.506138
  0
VERTEX
  8
PLAN_1
  6
CONTINUOUS
 10
0.012543
 20
0.500185
  0
VERTEX
  8
PLAN_1
  6
CONTINUOUS
 10
0.006587
 20
0.495146
  0
VERTEX
  8
PLAN_1
  6
CONTINUOUS
 10
0.000177
 20
0.490106
  0
VERTEX
  8
PLAN_1
  6
CONTINUOUS
 10
-0.006693
 20
0.485071
  0
VERTEX
  8
PLAN_1
  6
CONTINUOUS
 10
-0.013563
 20
0.480488
  0
VERTEX
  8
PLAN_1
  6
CONTINUOUS
 10
-0.020890
 20
0.476366
  0
VERTEX
  8
PLAN_1
  6
CONTINUOUS
 10
-0.028220
 20
0.472705
  0
VERTEX
  8
PLAN_1
  6
CONTINUOUS
 10
-0.036004
 20
0.469496
  0
VERTEX
  8
PLAN_1
  6
CONTINUOUS
 10
-0.043791
 20
0.466291
  0
VERTEX
  8
PLAN_1
  6
CONTINUOUS
 10
-0.051579
 20
0.463543
  0
VERTEX
  8
PLAN_1
  6
CONTINUOUS
 10
-0.059823
 20
0.461252
  0
VERTEX
  8
PLAN_1
  6
CONTINUOUS
 10
-0.068067
 20
0.459421
  0
VERTEX
  8
PLAN_1
  6
CONTINUOUS
 10
-0.076311
 20
0.457591
  0
VERTEX
  8
PLAN_1
  6
CONTINUOUS
 10
-0.085012
 20
0.456673
  0
VERTEX
  8
PLAN_1
  6
CONTINUOUS
 10
-0.093713
 20
0.456217
  0
VERTEX
  8
PLAN_1
  6
CONTINUOUS
 10
-0.102413
 20
0.455756
  0
SEQEND
  8
0
  0
POLYLINE
  8
PLAN_1
  6
CONTINUOUS
 66
     1
 40
0.008240
 41
0.008240
  0
VERTEX
  8
PLAN_1
  6
CONTINUOUS
 10
-0.102413
 20
0.455756
  0
VERTEX
  8
PLAN_1
  6
CONTINUOUS
 10
-1.475031
 20
0.455756
  0
SEQEND
  8
0
  0
POLYLINE
  8
PLAN_1
  6
CONTINUOUS
 66
     1
 40
0.008240
 41
0.008240
  0
VERTEX
  8
PLAN_1
  6
CONTINUOUS
 10
-1.401295
 20
3.153815
  0
VERTEX
  8
PLAN_1
  6
CONTINUOUS
 10
-1.393965
 20
3.154276
  0
VERTEX
  8
PLAN_1
  6
CONTINUOUS
 10
-1.386181
 20
3.155650
  0
VERTEX
  8
PLAN_1
  6
CONTINUOUS
 10
-1.379311
 20
3.157480
  0
VERTEX
  8
PLAN_1
  6
CONTINUOUS
 10
-1.372441
 20
3.159772
  0
VERTEX
  8
PLAN_1
  6
CONTINUOUS
 10
-1.365571
 20
3.162976
  0
VERTEX
  8
PLAN_1
  6
CONTINUOUS
 10
-1.359614
 20
3.166642
  0
VERTEX
  8
PLAN_1
  6
CONTINUOUS
 10
-1.353661
 20
3.171220
  0
VERTEX
  8
PLAN_1
  6
CONTINUOUS
 10
-1.348622
 20
3.175799
  0
VERTEX
  8
PLAN_1
  6
CONTINUOUS
 10
-1.343587
 20
3.181295
  0
VERTEX
  8
PLAN_1
  6
CONTINUOUS
 10
-1.339465
 20
3.186791
  0
VERTEX
  8
PLAN_1
  6
CONTINUOUS
 10
-1.335343
 20
3.193205
  0
VERTEX
  8
PLAN_1
  6
CONTINUOUS
 10
-1.332138
 20
3.199614
  0
VERTEX
  8
PLAN_1
  6
CONTINUOUS
 10
-1.329846
 20
3.206484
  0
VERTEX
  8
PLAN_1
  6
CONTINUOUS
 10
-1.328016
 20
3.213815
  0
VERTEX
  8
PLAN_1
  6
CONTINUOUS
 10
-1.326642
 20
3.221142
  0
VERTEX
  8
PLAN_1
  6
CONTINUOUS
 10
-1.326642
 20
3.228929
  0
SEQEND
  8
0
  0
POLYLINE
  8
PLAN_1
  6
CONTINUOUS
 66
     1
 40
0.008240
 41
0.008240
  0
VERTEX
  8
PLAN_1
  6
CONTINUOUS
 10
-1.326642
 20
3.228929
  0
VERTEX
  8
PLAN_1
  6
CONTINUOUS
 10
-1.326642
 20
3.379150
  0
SEQEND
  8
0
  0
POLYLINE
  8
PLAN_1
  6
CONTINUOUS
 66
     1
 40
0.008240
 41
0.008240
  0
VERTEX
  8
PLAN_1
  6
CONTINUOUS
 10
-1.326642
 20
3.379150
  0
VERTEX
  8
PLAN_1
  6
CONTINUOUS
 10
-1.326642
 20
3.386937
  0
VERTEX
  8
PLAN_1
  6
CONTINUOUS
 10
-1.328016
 20
3.394264
  0
VERTEX
  8
PLAN_1
  6
CONTINUOUS
 10
-1.329846
 20
3.401591
  0
VERTEX
  8
PLAN_1
  6
CONTINUOUS
 10
-1.332138
 20
3.408461
  0
VERTEX
  8
PLAN_1
  6
CONTINUOUS
 10
-1.335343
 20
3.414874
  0
VERTEX
  8
PLAN_1
  6
CONTINUOUS
 10
-1.339465
 20
3.420827
  0
VERTEX
  8
PLAN_1
  6
CONTINUOUS
 10
-1.343587
 20
3.426783
  0
VERTEX
  8
PLAN_1
  6
CONTINUOUS
 10
-1.348622
 20
3.432280
  0
VERTEX
  8
PLAN_1
  6
CONTINUOUS
 10
-1.353661
 20
3.436858
  0
VERTEX
  8
PLAN_1
  6
CONTINUOUS
 10
-1.359614
 20
3.441437
  0
VERTEX
  8
PLAN_1
  6
CONTINUOUS
 10
-1.365571
 20
3.445102
  0
VERTEX
  8
PLAN_1
  6
CONTINUOUS
 10
-1.372441
 20
3.448307
  0
VERTEX
  8
PLAN_1
  6
CONTINUOUS
 10
-1.379311
 20
3.450598
  0
VERTEX
  8
PLAN_1
  6
CONTINUOUS
 10
-1.386181
 20
3.452429
  0
VERTEX
  8
PLAN_1
  6
CONTINUOUS
 10
-1.393965
 20
3.453803
  0
VERTEX
  8
PLAN_1
  6
CONTINUOUS
 10
-1.401295
 20
3.454260
  0
SEQEND
  8
0
  0
POLYLINE
  8
PLAN_1
  6
CONTINUOUS
 66
     1
 40
0.008240
 41
0.008240
  0
VERTEX
  8
PLAN_1
  6
CONTINUOUS
 10
-1.401295
 20
3.454260
  0
VERTEX
  8
PLAN_1
  6
CONTINUOUS
 10
-1.465870
 20
3.454260
  0
SEQEND
  8
0
  0
POLYLINE
  8
PLAN_1
  6
CONTINUOUS
 66
     1
 40
0.008240
 41
0.008240
  0
VERTEX
  8
PLAN_1
  6
CONTINUOUS
 10
-1.465870
 20
3.454260
  0
VERTEX
  8
PLAN_1
  6
CONTINUOUS
 10
-1.473657
 20
3.453803
  0
VERTEX
  8
PLAN_1
  6
CONTINUOUS
 10
-1.480984
 20
3.452429
  0
VERTEX
  8
PLAN_1
  6
CONTINUOUS
 10
-1.488311
 20
3.450598
  0
VERTEX
  8
PLAN_1
  6
CONTINUOUS
 10
-1.495181
 20
3.448307
  0
VERTEX
  8
PLAN_1
  6
CONTINUOUS
 10
-1.501594
 20
3.445102
  0
VERTEX
  8
PLAN_1
  6
CONTINUOUS
 10
-1.508008
 20
3.441437
  0
VERTEX
  8
PLAN_1
  6
CONTINUOUS
 10
-1.513504
 20
3.436858
  0
VERTEX
  8
PLAN_1
  6
CONTINUOUS
 10
-1.519000
 20
3.432280
  0
VERTEX
  8
PLAN_1
  6
CONTINUOUS
 10
-1.523579
 20
3.426783
  0
VERTEX
  8
PLAN_1
  6
CONTINUOUS
 10
-1.528157
 20
3.420827
  0
VERTEX
  8
PLAN_1
  6
CONTINUOUS
 10
-1.531823
 20
3.414874
  0
VERTEX
  8
PLAN_1
  6
CONTINUOUS
 10
-1.535028
 20
3.408461
  0
VERTEX
  8
PLAN_1
  6
CONTINUOUS
 10
-1.537319
 20
3.401591
  0
VERTEX
  8
PLAN_1
  6
CONTINUOUS
 10
-1.539610
 20
3.394264
  0
VERTEX
  8
PLAN_1
  6
CONTINUOUS
 10
-1.540524
 20
3.386937
  0
VERTEX
  8
PLAN_1
  6
CONTINUOUS
 10
-1.540984
 20
3.379150
  0
SEQEND
  8
0
  0
POLYLINE
  8
PLAN_1
  6
CONTINUOUS
 66
     1
 40
0.008240
 41
0.008240
  0
VERTEX
  8
PLAN_1
  6
CONTINUOUS
 10
-1.540984
 20
3.379150
  0
VERTEX
  8
PLAN_1
  6
CONTINUOUS
 10
-1.540984
 20
3.228929
  0
SEQEND
  8
0
  0
POLYLINE
  8
PLAN_1
  6
CONTINUOUS
 66
     1
 40
0.008240
 41
0.008240
  0
VERTEX
  8
PLAN_1
  6
CONTINUOUS
 10
-1.540984
 20
3.228929
  0
VERTEX
  8
PLAN_1
  6
CONTINUOUS
 10
-1.540524
 20
3.221142
  0
VERTEX
  8
PLAN_1
  6
CONTINUOUS
 10
-1.539610
 20
3.213815
  0
VERTEX
  8
PLAN_1
  6
CONTINUOUS
 10
-1.537319
 20
3.206484
  0
VERTEX
  8
PLAN_1
  6
CONTINUOUS
 10
-1.535028
 20
3.199614
  0
VERTEX
  8
PLAN_1
  6
CONTINUOUS
 10
-1.531823
 20
3.193205
  0
VERTEX
  8
PLAN_1
  6
CONTINUOUS
 10
-1.528157
 20
3.186791
  0
VERTEX
  8
PLAN_1
  6
CONTINUOUS
 10
-1.523579
 20
3.181295
  0
VERTEX
  8
PLAN_1
  6
CONTINUOUS
 10
-1.519000
 20
3.175799
  0
VERTEX
  8
PLAN_1
  6
CONTINUOUS
 10
-1.513504
 20
3.171220
  0
VERTEX
  8
PLAN_1
  6
CONTINUOUS
 10
-1.508008
 20
3.166642
  0
VERTEX
  8
PLAN_1
  6
CONTINUOUS
 10
-1.501594
 20
3.162976
  0
VERTEX
  8
PLAN_1
  6
CONTINUOUS
 10
-1.495181
 20
3.159772
  0
VERTEX
  8
PLAN_1
  6
CONTINUOUS
 10
-1.488311
 20
3.157480
  0
VERTEX
  8
PLAN_1
  6
CONTINUOUS
 10
-1.480984
 20
3.155650
  0
VERTEX
  8
PLAN_1
  6
CONTINUOUS
 10
-1.473657
 20
3.154276
  0
VERTEX
  8
PLAN_1
  6
CONTINUOUS
 10
-1.465870
 20
3.153815
  0
SEQEND
  8
0
  0
POLYLINE
  8
PLAN_1
  6
CONTINUOUS
 66
     1
 40
0.008240
 41
0.008240
  0
VERTEX
  8
PLAN_1
  6
CONTINUOUS
 10
-1.465870
 20
3.153815
  0
VERTEX
  8
PLAN_1
  6
CONTINUOUS
 10
-1.401295
 20
3.153815
  0
SEQEND
  8
0
  0
POLYLINE
  8
PLAN_1
  6
CONTINUOUS
 66
     1
 40
0.008240
 41
0.008240
  0
VERTEX
  8
PLAN_1
  6
CONTINUOUS
 10
-0.143634
 20
3.195492
  0
VERTEX
  8
PLAN_1
  6
CONTINUOUS
 10
-0.138138
 20
3.195953
  0
VERTEX
  8
PLAN_1
  6
CONTINUOUS
 10
-0.133102
 20
3.196409
  0
VERTEX
  8
PLAN_1
  6
CONTINUOUS
 10
-0.127606
 20
3.196866
  0
VERTEX
  8
PLAN_1
  6
CONTINUOUS
 10
-0.122110
 20
3.197783
  0
VERTEX
  8
PLAN_1
  6
CONTINUOUS
 10
-0.117071
 20
3.199157
  0
VERTEX
  8
PLAN_1
  6
CONTINUOUS
 10
-0.112031
 20
3.200531
  0
VERTEX
  8
PLAN_1
  6
CONTINUOUS
 10
-0.106996
 20
3.201906
  0
VERTEX
  8
PLAN_1
  6
CONTINUOUS
 10
-0.101957
 20
3.204197
  0
VERTEX
  8
PLAN_1
  6
CONTINUOUS
 10
-0.097378
 20
3.206028
  0
VERTEX
  8
PLAN_1
  6
CONTINUOUS
 10
-0.092795
 20
3.208776
  0
VERTEX
  8
PLAN_1
  6
CONTINUOUS
 10
-0.088217
 20
3.211067
  0
VERTEX
  8
PLAN_1
  6
CONTINUOUS
 10
-0.084094
 20
3.213815
  0
VERTEX
  8
PLAN_1
  6
CONTINUOUS
 10
-0.079516
 20
3.217020
  0
VERTEX
  8
PLAN_1
  6
CONTINUOUS
 10
-0.075850
 20
3.220224
  0
VERTEX
  8
PLAN_1
  6
CONTINUOUS
 10
-0.071728
 20
3.223433
  0
VERTEX
  8
PLAN_1
  6
CONTINUOUS
 10
-0.068067
 20
3.227094
  0
VERTEX
  8
PLAN_1
  6
CONTINUOUS
 10
-0.064402
 20
3.230760
  0
VERTEX
  8
PLAN_1
  6
CONTINUOUS
 10
-0.061197
 20
3.234425
  0
VERTEX
  8
PLAN_1
  6
CONTINUOUS
 10
-0.057988
 20
3.238547
  0
VERTEX
  8
PLAN_1
  6
CONTINUOUS
 10
-0.054783
 20
3.243126
  0
VERTEX
  8
PLAN_1
  6
CONTINUOUS
 10
-0.052035
 20
3.247248
  0
VERTEX
  8
PLAN_1
  6
CONTINUOUS
 10
-0.049744
 20
3.251827
  0
VERTEX
  8
PLAN_1
  6
CONTINUOUS
 10
-0.047457
 20
3.256406
  0
VERTEX
  8
PLAN_1
  6
CONTINUOUS
 10
-0.045165
 20
3.260988
  0
VERTEX
  8
PLAN_1
  6
CONTINUOUS
 10
-0.043335
 20
3.266024
  0
VERTEX
  8
PLAN_1
  6
CONTINUOUS
 10
-0.041500
 20
3.271063
  0
VERTEX
  8
PLAN_1
  6
CONTINUOUS
 10
-0.040126
 20
3.276102
  0
VERTEX
  8
PLAN_1
  6
CONTINUOUS
 10
-0.038752
 20
3.281138
  0
VERTEX
  8
PLAN_1
  6
CONTINUOUS
 10
-0.037839
 20
3.286634
  0
VERTEX
  8
PLAN_1
  6
CONTINUOUS
 10
-0.037378
 20
3.291673
  0
VERTEX
  8
PLAN_1
  6
CONTINUOUS
 10
-0.036921
 20
3.297169
  0
VERTEX
  8
PLAN_1
  6
CONTINUOUS
 10
-0.036465
 20
3.302665
  0
VERTEX
  8
PLAN_1
  6
CONTINUOUS
 10
-0.036921
 20
3.308161
  0
VERTEX
  8
PLAN_1
  6
CONTINUOUS
 10
-0.037378
 20
3.313657
  0
VERTEX
  8
PLAN_1
  6
CONTINUOUS
 10
-0.037839
 20
3.319154
  0
VERTEX
  8
PLAN_1
  6
CONTINUOUS
 10
-0.038752
 20
3.324650
  0
VERTEX
  8
PLAN_1
  6
CONTINUOUS
 10
-0.040126
 20
3.329685
  0
VERTEX
  8
PLAN_1
  6
CONTINUOUS
 10
-0.041500
 20
3.334724
  0
VERTEX
  8
PLAN_1
  6
CONTINUOUS
 10
-0.043335
 20
3.339764
  0
VERTEX
  8
PLAN_1
  6
CONTINUOUS
 10
-0.045165
 20
3.344799
  0
VERTEX
  8
PLAN_1
  6
CONTINUOUS
 10
-0.047457
 20
3.349382
  0
VERTEX
  8
PLAN_1
  6
CONTINUOUS
 10
-0.049744
 20
3.353961
  0
VERTEX
  8
PLAN_1
  6
CONTINUOUS
 10
-0.052035
 20
3.358539
  0
VERTEX
  8
PLAN_1
  6
CONTINUOUS
 10
-0.054783
 20
3.362661
  0
VERTEX
  8
PLAN_1
  6
CONTINUOUS
 10
-0.057988
 20
3.366783
  0
VERTEX
  8
PLAN_1
  6
CONTINUOUS
 10
-0.061197
 20
3.370906
  0
VERTEX
  8
PLAN_1
  6
CONTINUOUS
 10
-0.064402
 20
3.375028
  0
VERTEX
  8
PLAN_1
  6
CONTINUOUS
 10
-0.068067
 20
3.378693
  0
VERTEX
  8
PLAN_1
  6
CONTINUOUS
 10
-0.071728
 20
3.382358
  0
VERTEX
  8
PLAN_1
  6
CONTINUOUS
 10
-0.075850
 20
3.385563
  0
VERTEX
  8
PLAN_1
  6
CONTINUOUS
 10
-0.079516
 20
3.388768
  0
VERTEX
  8
PLAN_1
  6
CONTINUOUS
 10
-0.084094
 20
3.391972
  0
VERTEX
  8
PLAN_1
  6
CONTINUOUS
 10
-0.088217
 20
3.394720
  0
VERTEX
  8
PLAN_1
  6
CONTINUOUS
 10
-0.092795
 20
3.397012
  0
VERTEX
  8
PLAN_1
  6
CONTINUOUS
 10
-0.097378
 20
3.399303
  0
VERTEX
  8
PLAN_1
  6
CONTINUOUS
 10
-0.101957
 20
3.401591
  0
VERTEX
  8
PLAN_1
  6
CONTINUOUS
 10
-0.106996
 20
3.403425
  0
VERTEX
  8
PLAN_1
  6
CONTINUOUS
 10
-0.112031
 20
3.405256
  0
VERTEX
  8
PLAN_1
  6
CONTINUOUS
 10
-0.117071
 20
3.406630
  0
VERTEX
  8
PLAN_1
  6
CONTINUOUS
 10
-0.122110
 20
3.408004
  0
VERTEX
  8
PLAN_1
  6
CONTINUOUS
 10
-0.127606
 20
3.408921
  0
VERTEX
  8
PLAN_1
  6
CONTINUOUS
 10
-0.133102
 20
3.409378
  0
VERTEX
  8
PLAN_1
  6
CONTINUOUS
 10
-0.138138
 20
3.409835
  0
VERTEX
  8
PLAN_1
  6
CONTINUOUS
 10
-0.143634
 20
3.410295
  0
VERTEX
  8
PLAN_1
  6
CONTINUOUS
 10
-0.149591
 20
3.409835
  0
VERTEX
  8
PLAN_1
  6
CONTINUOUS
 10
-0.154626
 20
3.409378
  0
VERTEX
  8
PLAN_1
  6
CONTINUOUS
 10
-0.160122
 20
3.408921
  0
VERTEX
  8
PLAN_1
  6
CONTINUOUS
 10
-0.165618
 20
3.408004
  0
VERTEX
  8
PLAN_1
  6
CONTINUOUS
 10
-0.170657
 20
3.406630
  0
VERTEX
  8
PLAN_1
  6
CONTINUOUS
 10
-0.175693
 20
3.405256
  0
VERTEX
  8
PLAN_1
  6
CONTINUOUS
 10
-0.180732
 20
3.403425
  0
VERTEX
  8
PLAN_1
  6
CONTINUOUS
 10
-0.185772
 20
3.401591
  0
VERTEX
  8
PLAN_1
  6
CONTINUOUS
 10
-0.190350
 20
3.399303
  0
VERTEX
  8
PLAN_1
  6
CONTINUOUS
 10
-0.194929
 20
3.397012
  0
VERTEX
  8
PLAN_1
  6
CONTINUOUS
 10
-0.199512
 20
3.394720
  0
VERTEX
  8
PLAN_1
  6
CONTINUOUS
 10
-0.203634
 20
3.391972
  0
VERTEX
  8
PLAN_1
  6
CONTINUOUS
 10
-0.208213
 20
3.388768
  0
VERTEX
  8
PLAN_1
  6
CONTINUOUS
 10
-0.211878
 20
3.385563
  0
VERTEX
  8
PLAN_1
  6
CONTINUOUS
 10
-0.216000
 20
3.382358
  0
VERTEX
  8
PLAN_1
  6
CONTINUOUS
 10
-0.219661
 20
3.378693
  0
VERTEX
  8
PLAN_1
  6
CONTINUOUS
 10
-0.223327
 20
3.375028
  0
VERTEX
  8
PLAN_1
  6
CONTINUOUS
 10
-0.226531
 20
3.370906
  0
VERTEX
  8
PLAN_1
  6
CONTINUOUS
 10
-0.229736
 20
3.366783
  0
VERTEX
  8
PLAN_1
  6
CONTINUOUS
 10
-0.232945
 20
3.362661
  0
VERTEX
  8
PLAN_1
  6
CONTINUOUS
 10
-0.235693
 20
3.358539
  0
VERTEX
  8
PLAN_1
  6
CONTINUOUS
 10
-0.237980
 20
3.353961
  0
VERTEX
  8
PLAN_1
  6
CONTINUOUS
 10
-0.240728
 20
3.349382
  0
VERTEX
  8
PLAN_1
  6
CONTINUOUS
 10
-0.242563
 20
3.344799
  0
VERTEX
  8
PLAN_1
  6
CONTINUOUS
 10
-0.244394
 20
3.339764
  0
VERTEX
  8
PLAN_1
  6
CONTINUOUS
 10
-0.246224
 20
3.334724
  0
VERTEX
  8
PLAN_1
  6
CONTINUOUS
 10
-0.247598
 20
3.329685
  0
VERTEX
  8
PLAN_1
  6
CONTINUOUS
 10
-0.248972
 20
3.324650
  0
VERTEX
  8
PLAN_1
  6
CONTINUOUS
 10
-0.249890
 20
3.319154
  0
VERTEX
  8
PLAN_1
  6
CONTINUOUS
 10
-0.250346
 20
3.313657
  0
VERTEX
  8
PLAN_1
  6
CONTINUOUS
 10
-0.250807
 20
3.308161
  0
VERTEX
  8
PLAN_1
  6
CONTINUOUS
 10
-0.251264
 20
3.302665
  0
VERTEX
  8
PLAN_1
  6
CONTINUOUS
 10
-0.250807
 20
3.297169
  0
VERTEX
  8
PLAN_1
  6
CONTINUOUS
 10
-0.250346
 20
3.291673
  0
VERTEX
  8
PLAN_1
  6
CONTINUOUS
 10
-0.249890
 20
3.286634
  0
VERTEX
  8
PLAN_1
  6
CONTINUOUS
 10
-0.248972
 20
3.281138
  0
VERTEX
  8
PLAN_1
  6
CONTINUOUS
 10
-0.247598
 20
3.276102
  0
VERTEX
  8
PLAN_1
  6
CONTINUOUS
 10
-0.246224
 20
3.271063
  0
VERTEX
  8
PLAN_1
  6
CONTINUOUS
 10
-0.244394
 20
3.266024
  0
VERTEX
  8
PLAN_1
  6
CONTINUOUS
 10
-0.242563
 20
3.260988
  0
VERTEX
  8
PLAN_1
  6
CONTINUOUS
 10
-0.240728
 20
3.256406
  0
VERTEX
  8
PLAN_1
  6
CONTINUOUS
 10
-0.237980
 20
3.251827
  0
VERTEX
  8
PLAN_1
  6
CONTINUOUS
 10
-0.235693
 20
3.247248
  0
VERTEX
  8
PLAN_1
  6
CONTINUOUS
 10
-0.232945
 20
3.243126
  0
VERTEX
  8
PLAN_1
  6
CONTINUOUS
 10
-0.229736
 20
3.238547
  0
VERTEX
  8
PLAN_1
  6
CONTINUOUS
 10
-0.226531
 20
3.234425
  0
VERTEX
  8
PLAN_1
  6
CONTINUOUS
 10
-0.223327
 20
3.230760
  0
VERTEX
  8
PLAN_1
  6
CONTINUOUS
 10
-0.219661
 20
3.227094
  0
VERTEX
  8
PLAN_1
  6
CONTINUOUS
 10
-0.216000
 20
3.223433
  0
VERTEX
  8
PLAN_1
  6
CONTINUOUS
 10
-0.211878
 20
3.220224
  0
VERTEX
  8
PLAN_1
  6
CONTINUOUS
 10
-0.208213
 20
3.217020
  0
VERTEX
  8
PLAN_1
  6
CONTINUOUS
 10
-0.203634
 20
3.213815
  0
VERTEX
  8
PLAN_1
  6
CONTINUOUS
 10
-0.199512
 20
3.211067
  0
VERTEX
  8
PLAN_1
  6
CONTINUOUS
 10
-0.194929
 20
3.208776
  0
VERTEX
  8
PLAN_1
  6
CONTINUOUS
 10
-0.190350
 20
3.206028
  0
VERTEX
  8
PLAN_1
  6
CONTINUOUS
 10
-0.185772
 20
3.204197
  0
VERTEX
  8
PLAN_1
  6
CONTINUOUS
 10
-0.180732
 20
3.201906
  0
VERTEX
  8
PLAN_1
  6
CONTINUOUS
 10
-0.175693
 20
3.200531
  0
VERTEX
  8
PLAN_1
  6
CONTINUOUS
 10
-0.170657
 20
3.199157
  0
VERTEX
  8
PLAN_1
  6
CONTINUOUS
 10
-0.165618
 20
3.197783
  0
VERTEX
  8
PLAN_1
  6
CONTINUOUS
 10
-0.160122
 20
3.196866
  0
VERTEX
  8
PLAN_1
  6
CONTINUOUS
 10
-0.154626
 20
3.196409
  0
VERTEX
  8
PLAN_1
  6
CONTINUOUS
 10
-0.149591
 20
3.195953
  0
VERTEX
  8
PLAN_1
  6
CONTINUOUS
 10
-0.143634
 20
3.195492
  0
SEQEND
  8
0
  0
POLYLINE
  8
PLAN_1
  6
CONTINUOUS
 66
     1
 40
0.008240
 41
0.008240
  0
VERTEX
  8
PLAN_1
  6
CONTINUOUS
 10
-0.111575
 20
0.518047
  0
VERTEX
  8
PLAN_1
  6
CONTINUOUS
 10
-0.104248
 20
0.518504
  0
VERTEX
  8
PLAN_1
  6
CONTINUOUS
 10
-0.096461
 20
0.519878
  0
VERTEX
  8
PLAN_1
  6
CONTINUOUS
 10
-0.089591
 20
0.521709
  0
VERTEX
  8
PLAN_1
  6
CONTINUOUS
 10
-0.082264
 20
0.524000
  0
VERTEX
  8
PLAN_1
  6
CONTINUOUS
 10
-0.075850
 20
0.527205
  0
VERTEX
  8
PLAN_1
  6
CONTINUOUS
 10
-0.069898
 20
0.530870
  0
VERTEX
  8
PLAN_1
  6
CONTINUOUS
 10
-0.063945
 20
0.535449
  0
VERTEX
  8
PLAN_1
  6
CONTINUOUS
 10
-0.058449
 20
0.540028
  0
VERTEX
  8
PLAN_1
  6
CONTINUOUS
 10
-0.053866
 20
0.545524
  0
VERTEX
  8
PLAN_1
  6
CONTINUOUS
 10
-0.049287
 20
0.551480
  0
VERTEX
  8
PLAN_1
  6
CONTINUOUS
 10
-0.045622
 20
0.557433
  0
VERTEX
  8
PLAN_1
  6
CONTINUOUS
 10
-0.042417
 20
0.563846
  0
VERTEX
  8
PLAN_1
  6
CONTINUOUS
 10
-0.040126
 20
0.570717
  0
VERTEX
  8
PLAN_1
  6
CONTINUOUS
 10
-0.038295
 20
0.578043
  0
VERTEX
  8
PLAN_1
  6
CONTINUOUS
 10
-0.036921
 20
0.585370
  0
VERTEX
  8
PLAN_1
  6
CONTINUOUS
 10
-0.036465
 20
0.593157
  0
SEQEND
  8
0
  0
POLYLINE
  8
PLAN_1
  6
CONTINUOUS
 66
     1
 40
0.008240
 41
0.008240
  0
VERTEX
  8
PLAN_1
  6
CONTINUOUS
 10
-0.036465
 20
0.593157
  0
VERTEX
  8
PLAN_1
  6
CONTINUOUS
 10
-0.036465
 20
0.743378
  0
SEQEND
  8
0
  0
POLYLINE
  8
PLAN_1
  6
CONTINUOUS
 66
     1
 40
0.008240
 41
0.008240
  0
VERTEX
  8
PLAN_1
  6
CONTINUOUS
 10
-0.036465
 20
0.743378
  0
VERTEX
  8
PLAN_1
  6
CONTINUOUS
 10
-0.036921
 20
0.751165
  0
VERTEX
  8
PLAN_1
  6
CONTINUOUS
 10
-0.038295
 20
0.758492
  0
VERTEX
  8
PLAN_1
  6
CONTINUOUS
 10
-0.040126
 20
0.765823
  0
VERTEX
  8
PLAN_1
  6
CONTINUOUS
 10
-0.042417
 20
0.772693
  0
VERTEX
  8
PLAN_1
  6
CONTINUOUS
 10
-0.045622
 20
0.779102
  0
VERTEX
  8
PLAN_1
  6
CONTINUOUS
 10
-0.049287
 20
0.785516
  0
VERTEX
  8
PLAN_1
  6
CONTINUOUS
 10
-0.053866
 20
0.791012
  0
VERTEX
  8
PLAN_1
  6
CONTINUOUS
 10
-0.058449
 20
0.796508
  0
VERTEX
  8
PLAN_1
  6
CONTINUOUS
 10
-0.063945
 20
0.801087
  0
VERTEX
  8
PLAN_1
  6
CONTINUOUS
 10
-0.069898
 20
0.805665
  0
VERTEX
  8
PLAN_1
  6
CONTINUOUS
 10
-0.075850
 20
0.809331
  0
VERTEX
  8
PLAN_1
  6
CONTINUOUS
 10
-0.082264
 20
0.812535
  0
VERTEX
  8
PLAN_1
  6
CONTINUOUS
 10
-0.089591
 20
0.814827
  0
VERTEX
  8
PLAN_1
  6
CONTINUOUS
 10
-0.096461
 20
0.816657
  0
VERTEX
  8
PLAN_1
  6
CONTINUOUS
 10
-0.104248
 20
0.818031
  0
VERTEX
  8
PLAN_1
  6
CONTINUOUS
 10
-0.111575
 20
0.818492
  0
SEQEND
  8
0
  0
POLYLINE
  8
PLAN_1
  6
CONTINUOUS
 66
     1
 40
0.008240
 41
0.008240
  0
VERTEX
  8
PLAN_1
  6
CONTINUOUS
 10
-0.111575
 20
0.818492
  0
VERTEX
  8
PLAN_1
  6
CONTINUOUS
 10
-0.176154
 20
0.818492
  0
SEQEND
  8
0
  0
POLYLINE
  8
PLAN_1
  6
CONTINUOUS
 66
     1
 40
0.008240
 41
0.008240
  0
VERTEX
  8
PLAN_1
  6
CONTINUOUS
 10
-0.176154
 20
0.818492
  0
VERTEX
  8
PLAN_1
  6
CONTINUOUS
 10
-0.183480
 20
0.818031
  0
VERTEX
  8
PLAN_1
  6
CONTINUOUS
 10
-0.191268
 20
0.816657
  0
VERTEX
  8
PLAN_1
  6
CONTINUOUS
 10
-0.198138
 20
0.814827
  0
VERTEX
  8
PLAN_1
  6
CONTINUOUS
 10
-0.205465
 20
0.812535
  0
VERTEX
  8
PLAN_1
  6
CONTINUOUS
 10
-0.211878
 20
0.809331
  0
VERTEX
  8
PLAN_1
  6
CONTINUOUS
 10
-0.217831
 20
0.805665
  0
VERTEX
  8
PLAN_1
  6
CONTINUOUS
 10
-0.223783
 20
0.801087
  0
VERTEX
  8
PLAN_1
  6
CONTINUOUS
 10
-0.229280
 20
0.796508
  0
VERTEX
  8
PLAN_1
  6
CONTINUOUS
 10
-0.233858
 20
0.791012
  0
VERTEX
  8
PLAN_1
  6
CONTINUOUS
 10
-0.238441
 20
0.785516
  0
VERTEX
  8
PLAN_1
  6
CONTINUOUS
 10
-0.242102
 20
0.779102
  0
VERTEX
  8
PLAN_1
  6
CONTINUOUS
 10
-0.245311
 20
0.772693
  0
VERTEX
  8
PLAN_1
  6
CONTINUOUS
 10
-0.247598
 20
0.765823
  0
VERTEX
  8
PLAN_1
  6
CONTINUOUS
 10
-0.249433
 20
0.758492
  0
VERTEX
  8
PLAN_1
  6
CONTINUOUS
 10
-0.250807
 20
0.751165
  0
VERTEX
  8
PLAN_1
  6
CONTINUOUS
 10
-0.251264
 20
0.743378
  0
SEQEND
  8
0
  0
POLYLINE
  8
PLAN_1
  6
CONTINUOUS
 66
     1
 40
0.008240
 41
0.008240
  0
VERTEX
  8
PLAN_1
  6
CONTINUOUS
 10
-0.251264
 20
0.743378
  0
VERTEX
  8
PLAN_1
  6
CONTINUOUS
 10
-0.251264
 20
0.593157
  0
SEQEND
  8
0
  0
POLYLINE
  8
PLAN_1
  6
CONTINUOUS
 66
     1
 40
0.008240
 41
0.008240
  0
VERTEX
  8
PLAN_1
  6
CONTINUOUS
 10
-0.251264
 20
0.593157
  0
VERTEX
  8
PLAN_1
  6
CONTINUOUS
 10
-0.250807
 20
0.585370
  0
VERTEX
  8
PLAN_1
  6
CONTINUOUS
 10
-0.249433
 20
0.578043
  0
VERTEX
  8
PLAN_1
  6
CONTINUOUS
 10
-0.247598
 20
0.570717
  0
VERTEX
  8
PLAN_1
  6
CONTINUOUS
 10
-0.245311
 20
0.563846
  0
VERTEX
  8
PLAN_1
  6
CONTINUOUS
 10
-0.242102
 20
0.557433
  0
VERTEX
  8
PLAN_1
  6
CONTINUOUS
 10
-0.238441
 20
0.551480
  0
VERTEX
  8
PLAN_1
  6
CONTINUOUS
 10
-0.233858
 20
0.545524
  0
VERTEX
  8
PLAN_1
  6
CONTINUOUS
 10
-0.229280
 20
0.540028
  0
VERTEX
  8
PLAN_1
  6
CONTINUOUS
 10
-0.223783
 20
0.535449
  0
VERTEX
  8
PLAN_1
  6
CONTINUOUS
 10
-0.217831
 20
0.530870
  0
VERTEX
  8
PLAN_1
  6
CONTINUOUS
 10
-0.211878
 20
0.527205
  0
VERTEX
  8
PLAN_1
  6
CONTINUOUS
 10
-0.205465
 20
0.524000
  0
VERTEX
  8
PLAN_1
  6
CONTINUOUS
 10
-0.198138
 20
0.521709
  0
VERTEX
  8
PLAN_1
  6
CONTINUOUS
 10
-0.191268
 20
0.519878
  0
VERTEX
  8
PLAN_1
  6
CONTINUOUS
 10
-0.183480
 20
0.518504
  0
VERTEX
  8
PLAN_1
  6
CONTINUOUS
 10
-0.176154
 20
0.518047
  0
SEQEND
  8
0
  0
POLYLINE
  8
PLAN_1
  6
CONTINUOUS
 66
     1
 40
0.008240
 41
0.008240
  0
VERTEX
  8
PLAN_1
  6
CONTINUOUS
 10
-0.176154
 20
0.518047
  0
VERTEX
  8
PLAN_1
  6
CONTINUOUS
 10
-0.111575
 20
0.518047
  0
SEQEND
  8
0
  0
POLYLINE
  8
PLAN_1
  6
CONTINUOUS
 66
     1
 40
0.008240
 41
0.008240
  0
VERTEX
  8
PLAN_1
  6
CONTINUOUS
 10
-1.431520
 20
0.564760
  0
VERTEX
  8
PLAN_1
  6
CONTINUOUS
 10
-1.426024
 20
0.564760
  0
VERTEX
  8
PLAN_1
  6
CONTINUOUS
 10
-1.420528
 20
0.565220
  0
VERTEX
  8
PLAN_1
  6
CONTINUOUS
 10
-1.415031
 20
0.566134
  0
VERTEX
  8
PLAN_1
  6
CONTINUOUS
 10
-1.409996
 20
0.567051
  0
VERTEX
  8
PLAN_1
  6
CONTINUOUS
 10
-1.404957
 20
0.567969
  0
VERTEX
  8
PLAN_1
  6
CONTINUOUS
 10
-1.399461
 20
0.569799
  0
VERTEX
  8
PLAN_1
  6
CONTINUOUS
 10
-1.394882
 20
0.571173
  0
VERTEX
  8
PLAN_1
  6
CONTINUOUS
 10
-1.389843
 20
0.573004
  0
VERTEX
  8
PLAN_1
  6
CONTINUOUS
 10
-1.385264
 20
0.575295
  0
VERTEX
  8
PLAN_1
  6
CONTINUOUS
 10
-1.380224
 20
0.577587
  0
VERTEX
  8
PLAN_1
  6
CONTINUOUS
 10
-1.376102
 20
0.580335
  0
VERTEX
  8
PLAN_1
  6
CONTINUOUS
 10
-1.371524
 20
0.583083
  0
VERTEX
  8
PLAN_1
  6
CONTINUOUS
 10
-1.367402
 20
0.585831
  0
VERTEX
  8
PLAN_1
  6
CONTINUOUS
 10
-1.363280
 20
0.589035
  0
VERTEX
  8
PLAN_1
  6
CONTINUOUS
 10
-1.359614
 20
0.592697
  0
VERTEX
  8
PLAN_1
  6
CONTINUOUS
 10
-1.355492
 20
0.596362
  0
VERTEX
  8
PLAN_1
  6
CONTINUOUS
 10
-1.352287
 20
0.600028
  0
VERTEX
  8
PLAN_1
  6
CONTINUOUS
 10
-1.348622
 20
0.603689
  0
VERTEX
  8
PLAN_1
  6
CONTINUOUS
 10
-1.345417
 20
0.607811
  0
VERTEX
  8
PLAN_1
  6
CONTINUOUS
 10
-1.342669
 20
0.611933
  0
VERTEX
  8
PLAN_1
  6
CONTINUOUS
 10
-1.339921
 20
0.616516
  0
VERTEX
  8
PLAN_1
  6
CONTINUOUS
 10
-1.337173
 20
0.620638
  0
VERTEX
  8
PLAN_1
  6
CONTINUOUS
 10
-1.334886
 20
0.625673
  0
VERTEX
  8
PLAN_1
  6
CONTINUOUS
 10
-1.332594
 20
0.630256
  0
VERTEX
  8
PLAN_1
  6
CONTINUOUS
 10
-1.330764
 20
0.635291
  0
VERTEX
  8
PLAN_1
  6
CONTINUOUS
 10
-1.328929
 20
0.639874
  0
VERTEX
  8
PLAN_1
  6
CONTINUOUS
 10
-1.327555
 20
0.645370
  0
VERTEX
  8
PLAN_1
  6
CONTINUOUS
 10
-1.326642
 20
0.650406
  0
VERTEX
  8
PLAN_1
  6
CONTINUOUS
 10
-1.325724
 20
0.655445
  0
VERTEX
  8
PLAN_1
  6
CONTINUOUS
 10
-1.324807
 20
0.660941
  0
VERTEX
  8
PLAN_1
  6
CONTINUOUS
 10
-1.324350
 20
0.666437
  0
VERTEX
  8
PLAN_1
  6
CONTINUOUS
 10
-1.324350
 20
0.671933
  0
VERTEX
  8
PLAN_1
  6
CONTINUOUS
 10
-1.324350
 20
0.677429
  0
VERTEX
  8
PLAN_1
  6
CONTINUOUS
 10
-1.324807
 20
0.682925
  0
VERTEX
  8
PLAN_1
  6
CONTINUOUS
 10
-1.325724
 20
0.688421
  0
VERTEX
  8
PLAN_1
  6
CONTINUOUS
 10
-1.326642
 20
0.693457
  0
VERTEX
  8
PLAN_1
  6
CONTINUOUS
 10
-1.327555
 20
0.698953
  0
VERTEX
  8
PLAN_1
  6
CONTINUOUS
 10
-1.328929
 20
0.703992
  0
VERTEX
  8
PLAN_1
  6
CONTINUOUS
 10
-1.330764
 20
0.709031
  0
VERTEX
  8
PLAN_1
  6
CONTINUOUS
 10
-1.332594
 20
0.713610
  0
VERTEX
  8
PLAN_1
  6
CONTINUOUS
 10
-1.334886
 20
0.718650
  0
VERTEX
  8
PLAN_1
  6
CONTINUOUS
 10
-1.337173
 20
0.723228
  0
VERTEX
  8
PLAN_1
  6
CONTINUOUS
 10
-1.339921
 20
0.727350
  0
VERTEX
  8
PLAN_1
  6
CONTINUOUS
 10
-1.342669
 20
0.731929
  0
VERTEX
  8
PLAN_1
  6
CONTINUOUS
 10
-1.345417
 20
0.736051
  0
VERTEX
  8
PLAN_1
  6
CONTINUOUS
 10
-1.348622
 20
0.740173
  0
VERTEX
  8
PLAN_1
  6
CONTINUOUS
 10
-1.352287
 20
0.743839
  0
VERTEX
  8
PLAN_1
  6
CONTINUOUS
 10
-1.355492
 20
0.747961
  0
VERTEX
  8
PLAN_1
  6
CONTINUOUS
 10
-1.359614
 20
0.751165
  0
VERTEX
  8
PLAN_1
  6
CONTINUOUS
 10
-1.363280
 20
0.754831
  0
VERTEX
  8
PLAN_1
  6
CONTINUOUS
 10
-1.367402
 20
0.758035
  0
VERTEX
  8
PLAN_1
  6
CONTINUOUS
 10
-1.371524
 20
0.760783
  0
VERTEX
  8
PLAN_1
  6
CONTINUOUS
 10
-1.376102
 20
0.763531
  0
VERTEX
  8
PLAN_1
  6
CONTINUOUS
 10
-1.380224
 20
0.766280
  0
VERTEX
  8
PLAN_1
  6
CONTINUOUS
 10
-1.385264
 20
0.768571
  0
VERTEX
  8
PLAN_1
  6
CONTINUOUS
 10
-1.389843
 20
0.770858
  0
VERTEX
  8
PLAN_1
  6
CONTINUOUS
 10
-1.394882
 20
0.772693
  0
VERTEX
  8
PLAN_1
  6
CONTINUOUS
 10
-1.399461
 20
0.774524
  0
VERTEX
  8
PLAN_1
  6
CONTINUOUS
 10
-1.404957
 20
0.775898
  0
VERTEX
  8
PLAN_1
  6
CONTINUOUS
 10
-1.409996
 20
0.776815
  0
VERTEX
  8
PLAN_1
  6
CONTINUOUS
 10
-1.415031
 20
0.777728
  0
VERTEX
  8
PLAN_1
  6
CONTINUOUS
 10
-1.420528
 20
0.778646
  0
VERTEX
  8
PLAN_1
  6
CONTINUOUS
 10
-1.426024
 20
0.779102
  0
VERTEX
  8
PLAN_1
  6
CONTINUOUS
 10
-1.431520
 20
0.779102
  0
VERTEX
  8
PLAN_1
  6
CONTINUOUS
 10
-1.437016
 20
0.779102
  0
VERTEX
  8
PLAN_1
  6
CONTINUOUS
 10
-1.442512
 20
0.778646
  0
VERTEX
  8
PLAN_1
  6
CONTINUOUS
 10
-1.448008
 20
0.777728
  0
VERTEX
  8
PLAN_1
  6
CONTINUOUS
 10
-1.453047
 20
0.776815
  0
VERTEX
  8
PLAN_1
  6
CONTINUOUS
 10
-1.458543
 20
0.775898
  0
VERTEX
  8
PLAN_1
  6
CONTINUOUS
 10
-1.463583
 20
0.774524
  0
VERTEX
  8
PLAN_1
  6
CONTINUOUS
 10
-1.468618
 20
0.772693
  0
VERTEX
  8
PLAN_1
  6
CONTINUOUS
 10
-1.473201
 20
0.770858
  0
VERTEX
  8
PLAN_1
  6
CONTINUOUS
 10
-1.478236
 20
0.768571
  0
VERTEX
  8
PLAN_1
  6
CONTINUOUS
 10
-1.482815
 20
0.766280
  0
VERTEX
  8
PLAN_1
  6
CONTINUOUS
 10
-1.486937
 20
0.763531
  0
VERTEX
  8
PLAN_1
  6
CONTINUOUS
 10
-1.491520
 20
0.760783
  0
VERTEX
  8
PLAN_1
  6
CONTINUOUS
 10
-1.495642
 20
0.758035
  0
VERTEX
  8
PLAN_1
  6
CONTINUOUS
 10
-1.499764
 20
0.754831
  0
VERTEX
  8
PLAN_1
  6
CONTINUOUS
 10
-1.503425
 20
0.751165
  0
VERTEX
  8
PLAN_1
  6
CONTINUOUS
 10
-1.507547
 20
0.747961
  0
VERTEX
  8
PLAN_1
  6
CONTINUOUS
 10
-1.510756
 20
0.743839
  0
VERTEX
  8
PLAN_1
  6
CONTINUOUS
 10
-1.514417
 20
0.740173
  0
VERTEX
  8
PLAN_1
  6
CONTINUOUS
 10
-1.517626
 20
0.736051
  0
VERTEX
  8
PLAN_1
  6
CONTINUOUS
 10
-1.520374
 20
0.731929
  0
VERTEX
  8
PLAN_1
  6
CONTINUOUS
 10
-1.523122
 20
0.727350
  0
VERTEX
  8
PLAN_1
  6
CONTINUOUS
 10
-1.525870
 20
0.723228
  0
VERTEX
  8
PLAN_1
  6
CONTINUOUS
 10
-1.528157
 20
0.718650
  0
VERTEX
  8
PLAN_1
  6
CONTINUOUS
 10
-1.530449
 20
0.713610
  0
VERTEX
  8
PLAN_1
  6
CONTINUOUS
 10
-1.532280
 20
0.709031
  0
VERTEX
  8
PLAN_1
  6
CONTINUOUS
 10
-1.534114
 20
0.703992
  0
VERTEX
  8
PLAN_1
  6
CONTINUOUS
 10
-1.535488
 20
0.698953
  0
VERTEX
  8
PLAN_1
  6
CONTINUOUS
 10
-1.536402
 20
0.693457
  0
VERTEX
  8
PLAN_1
  6
CONTINUOUS
 10
-1.537319
 20
0.688421
  0
VERTEX
  8
PLAN_1
  6
CONTINUOUS
 10
-1.538236
 20
0.682925
  0
VERTEX
  8
PLAN_1
  6
CONTINUOUS
 10
-1.538693
 20
0.677429
  0
VERTEX
  8
PLAN_1
  6
CONTINUOUS
 10
-1.538693
 20
0.671933
  0
VERTEX
  8
PLAN_1
  6
CONTINUOUS
 10
-1.538693
 20
0.666437
  0
VERTEX
  8
PLAN_1
  6
CONTINUOUS
 10
-1.538236
 20
0.660941
  0
VERTEX
  8
PLAN_1
  6
CONTINUOUS
 10
-1.537319
 20
0.655445
  0
VERTEX
  8
PLAN_1
  6
CONTINUOUS
 10
-1.536402
 20
0.650406
  0
VERTEX
  8
PLAN_1
  6
CONTINUOUS
 10
-1.535488
 20
0.645370
  0
VERTEX
  8
PLAN_1
  6
CONTINUOUS
 10
-1.534114
 20
0.639874
  0
VERTEX
  8
PLAN_1
  6
CONTINUOUS
 10
-1.532280
 20
0.635291
  0
VERTEX
  8
PLAN_1
  6
CONTINUOUS
 10
-1.530449
 20
0.630256
  0
VERTEX
  8
PLAN_1
  6
CONTINUOUS
 10
-1.528157
 20
0.625673
  0
VERTEX
  8
PLAN_1
  6
CONTINUOUS
 10
-1.525870
 20
0.620638
  0
VERTEX
  8
PLAN_1
  6
CONTINUOUS
 10
-1.523122
 20
0.616516
  0
VERTEX
  8
PLAN_1
  6
CONTINUOUS
 10
-1.520374
 20
0.611933
  0
VERTEX
  8
PLAN_1
  6
CONTINUOUS
 10
-1.517626
 20
0.607811
  0
VERTEX
  8
PLAN_1
  6
CONTINUOUS
 10
-1.514417
 20
0.603689
  0
VERTEX
  8
PLAN_1
  6
CONTINUOUS
 10
-1.510756
 20
0.600028
  0
VERTEX
  8
PLAN_1
  6
CONTINUOUS
 10
-1.507547
 20
0.596362
  0
VERTEX
  8
PLAN_1
  6
CONTINUOUS
 10
-1.503425
 20
0.592697
  0
VERTEX
  8
PLAN_1
  6
CONTINUOUS
 10
-1.499764
 20
0.589035
  0
VERTEX
  8
PLAN_1
  6
CONTINUOUS
 10
-1.495642
 20
0.585831
  0
VERTEX
  8
PLAN_1
  6
CONTINUOUS
 10
-1.491520
 20
0.583083
  0
VERTEX
  8
PLAN_1
  6
CONTINUOUS
 10
-1.486937
 20
0.580335
  0
VERTEX
  8
PLAN_1
  6
CONTINUOUS
 10
-1.482815
 20
0.577587
  0
VERTEX
  8
PLAN_1
  6
CONTINUOUS
 10
-1.478236
 20
0.575295
  0
VERTEX
  8
PLAN_1
  6
CONTINUOUS
 10
-1.473201
 20
0.573004
  0
VERTEX
  8
PLAN_1
  6
CONTINUOUS
 10
-1.468618
 20
0.571173
  0
VERTEX
  8
PLAN_1
  6
CONTINUOUS
 10
-1.463583
 20
0.569799
  0
VERTEX
  8
PLAN_1
  6
CONTINUOUS
 10
-1.458543
 20
0.567969
  0
VERTEX
  8
PLAN_1
  6
CONTINUOUS
 10
-1.453047
 20
0.567051
  0
VERTEX
  8
PLAN_1
  6
CONTINUOUS
 10
-1.448008
 20
0.566134
  0
VERTEX
  8
PLAN_1
  6
CONTINUOUS
 10
-1.442512
 20
0.565220
  0
VERTEX
  8
PLAN_1
  6
CONTINUOUS
 10
-1.437016
 20
0.564760
  0
VERTEX
  8
PLAN_1
  6
CONTINUOUS
 10
-1.431520
 20
0.564760
  0
SEQEND
  8
0
  0
POLYLINE
  8
PLAN_1
  6
CONTINUOUS
 66
     1
 40
0.008240
 41
0.008240
  0
VERTEX
  8
PLAN_1
  6
CONTINUOUS
 10
-1.647236
 20
2.768642
  0
VERTEX
  8
PLAN_1
  6
CONTINUOUS
 10
-1.647236
 20
0.973295
  0
VERTEX
  8
PLAN_1
  6
CONTINUOUS
 10
-1.583575
 20
0.973295
  0
VERTEX
  8
PLAN_1
  6
CONTINUOUS
 10
-1.583575
 20
2.768642
  0
VERTEX
  8
PLAN_1
  6
CONTINUOUS
 10
-1.647236
 20
2.768642
  0
SEQEND
  8
0
  0
POLYLINE
  8
PLAN_1
  6
CONTINUOUS
 66
     1
 40
0.008240
 41
0.008240
  0
VERTEX
  8
PLAN_1
  6
CONTINUOUS
 10
-1.131075
 20
0.521252
  0
VERTEX
  8
PLAN_1
  6
CONTINUOUS
 10
-1.131075
 20
0.455756
  0
SEQEND
  8
0
  0
POLYLINE
  8
PLAN_1
  6
CONTINUOUS
 66
     1
 40
0.008240
 41
0.008240
  0
VERTEX
  8
PLAN_1
  6
CONTINUOUS
 10
-1.008791
 20
0.775441
  0
VERTEX
  8
PLAN_1
  6
CONTINUOUS
 10
-1.001004
 20
0.774524
  0
VERTEX
  8
PLAN_1
  6
CONTINUOUS
 10
-0.981311
 20
0.771776
  0
VERTEX
  8
PLAN_1
  6
CONTINUOUS
 10
-0.968028
 20
0.769028
  0
VERTEX
  8
PLAN_1
  6
CONTINUOUS
 10
-0.952913
 20
0.765362
  0
VERTEX
  8
PLAN_1
  6
CONTINUOUS
 10
-0.945130
 20
0.763075
  0
VERTEX
  8
PLAN_1
  6
CONTINUOUS
 10
-0.936886
 20
0.760327
  0
VERTEX
  8
PLAN_1
  6
CONTINUOUS
 10
-0.929098
 20
0.757579
  0
VERTEX
  8
PLAN_1
  6
CONTINUOUS
 10
-0.920854
 20
0.754370
  0
VERTEX
  8
PLAN_1
  6
CONTINUOUS
 10
-0.912610
 20
0.750709
  0
VERTEX
  8
PLAN_1
  6
CONTINUOUS
 10
-0.904366
 20
0.747043
  0
VERTEX
  8
PLAN_1
  6
CONTINUOUS
 10
-0.896122
 20
0.742465
  0
VERTEX
  8
PLAN_1
  6
CONTINUOUS
 10
-0.888339
 20
0.737882
  0
VERTEX
  8
PLAN_1
  6
CONTINUOUS
 10
-0.881008
 20
0.732386
  0
VERTEX
  8
PLAN_1
  6
CONTINUOUS
 10
-0.873681
 20
0.726894
  0
VERTEX
  8
PLAN_1
  6
CONTINUOUS
 10
-0.866811
 20
0.720937
  0
VERTEX
  8
PLAN_1
  6
CONTINUOUS
 10
-0.860398
 20
0.714528
  0
VERTEX
  8
PLAN_1
  6
CONTINUOUS
 10
-0.854445
 20
0.707197
  0
VERTEX
  8
PLAN_1
  6
CONTINUOUS
 10
-0.848949
 20
0.699870
  0
VERTEX
  8
PLAN_1
  6
CONTINUOUS
 10
-0.844370
 20
0.691626
  0
VERTEX
  8
PLAN_1
  6
CONTINUOUS
 10
-0.840248
 20
0.682925
  0
VERTEX
  8
PLAN_1
  6
CONTINUOUS
 10
-0.837043
 20
0.673764
  0
VERTEX
  8
PLAN_1
  6
CONTINUOUS
 10
-0.834752
 20
0.664146
  0
VERTEX
  8
PLAN_1
  6
CONTINUOUS
 10
-0.833378
 20
0.653614
  0
VERTEX
  8
PLAN_1
  6
CONTINUOUS
 10
-0.832921
 20
0.642622
  0
SEQEND
  8
0
  0
POLYLINE
  8
PLAN_1
  6
CONTINUOUS
 66
     1
 40
0.008240
 41
0.008240
  0
VERTEX
  8
PLAN_1
  6
CONTINUOUS
 10
-0.832921
 20
0.642622
  0
VERTEX
  8
PLAN_1
  6
CONTINUOUS
 10
-0.832461
 20
0.522165
  0
VERTEX
  8
PLAN_1
  6
CONTINUOUS
 10
-1.218551
 20
0.522165
  0
VERTEX
  8
PLAN_1
  6
CONTINUOUS
 10
-1.219469
 20
0.813909
  0
SEQEND
  8
0
  0
POLYLINE
  8
PLAN_1
  6
CONTINUOUS
 66
     1
 40
0.008240
 41
0.008240
  0
VERTEX
  8
PLAN_1
  6
CONTINUOUS
 10
-1.219469
 20
0.813909
  0
VERTEX
  8
PLAN_1
  6
CONTINUOUS
 10
-1.195197
 20
0.807957
  0
VERTEX
  8
PLAN_1
  6
CONTINUOUS
 10
-1.170004
 20
0.802004
  0
VERTEX
  8
PLAN_1
  6
CONTINUOUS
 10
-1.144358
 20
0.796508
  0
VERTEX
  8
PLAN_1
  6
CONTINUOUS
 10
-1.118252
 20
0.791469
  0
VERTEX
  8
PLAN_1
  6
CONTINUOUS
 10
-1.091689
 20
0.786890
  0
VERTEX
  8
PLAN_1
  6
CONTINUOUS
 10
-1.064209
 20
0.782768
  0
VERTEX
  8
PLAN_1
  6
CONTINUOUS
 10
-1.036728
 20
0.778646
  0
VERTEX
  8
PLAN_1
  6
CONTINUOUS
 10
-1.008791
 20
0.775441
  0
SEQEND
  8
0
  0
POLYLINE
  8
PLAN_1
  6
CONTINUOUS
 66
     1
 40
0.004118
 41
0.004118
  0
VERTEX
  8
PLAN_1
  6
CONTINUOUS
 10
0.033154
 20
3.305413
  0
VERTEX
  8
PLAN_1
  6
CONTINUOUS
 10
-0.320878
 20
3.305413
  0
SEQEND
  8
0
  0
POLYLINE
  8
PLAN_1
  6
CONTINUOUS
 66
     1
 40
0.004118
 41
0.004118
  0
VERTEX
  8
PLAN_1
  6
CONTINUOUS
 10
-0.144551
 20
3.462965
  0
VERTEX
  8
PLAN_1
  6
CONTINUOUS
 10
-0.144551
 20
3.135496
  0
SEQEND
  8
0
  0
POLYLINE
  8
PLAN_1
  6
CONTINUOUS
 66
     1
 40
0.004118
 41
0.004118
  0
VERTEX
  8
PLAN_1
  6
CONTINUOUS
 10
-1.262520
 20
3.305413
  0
VERTEX
  8
PLAN_1
  6
CONTINUOUS
 10
-1.601898
 20
3.305413
  0
SEQEND
  8
0
  0
POLYLINE
  8
PLAN_1
  6
CONTINUOUS
 66
     1
 40
0.004118
 41
0.004118
  0
VERTEX
  8
PLAN_1
  6
CONTINUOUS
 10
-1.431980
 20
3.492276
  0
VERTEX
  8
PLAN_1
  6
CONTINUOUS
 10
-1.431980
 20
3.106642
  0
SEQEND
  8
0
  0
POLYLINE
  8
PLAN_1
  6
CONTINUOUS
 66
     1
 40
0.008240
 41
0.008240
  0
VERTEX
  8
PLAN_1
  6
CONTINUOUS
 10
-0.564992
 20
0.775441
  0
VERTEX
  8
PLAN_1
  6
CONTINUOUS
 10
-0.572776
 20
0.774524
  0
VERTEX
  8
PLAN_1
  6
CONTINUOUS
 10
-0.592472
 20
0.771776
  0
VERTEX
  8
PLAN_1
  6
CONTINUOUS
 10
-0.605752
 20
0.769028
  0
VERTEX
  8
PLAN_1
  6
CONTINUOUS
 10
-0.620866
 20
0.765362
  0
VERTEX
  8
PLAN_1
  6
CONTINUOUS
 10
-0.628654
 20
0.763075
  0
VERTEX
  8
PLAN_1
  6
CONTINUOUS
 10
-0.636898
 20
0.760327
  0
VERTEX
  8
PLAN_1
  6
CONTINUOUS
 10
-0.644681
 20
0.757579
  0
VERTEX
  8
PLAN_1
  6
CONTINUOUS
 10
-0.652925
 20
0.754370
  0
VERTEX
  8
PLAN_1
  6
CONTINUOUS
 10
-0.661169
 20
0.750709
  0
VERTEX
  8
PLAN_1
  6
CONTINUOUS
 10
-0.669413
 20
0.747043
  0
VERTEX
  8
PLAN_1
  6
CONTINUOUS
 10
-0.677657
 20
0.742465
  0
VERTEX
  8
PLAN_1
  6
CONTINUOUS
 10
-0.685445
 20
0.737882
  0
VERTEX
  8
PLAN_1
  6
CONTINUOUS
 10
-0.692772
 20
0.732386
  0
VERTEX
  8
PLAN_1
  6
CONTINUOUS
 10
-0.700102
 20
0.726894
  0
VERTEX
  8
PLAN_1
  6
CONTINUOUS
 10
-0.706972
 20
0.720937
  0
VERTEX
  8
PLAN_1
  6
CONTINUOUS
 10
-0.713382
 20
0.714528
  0
VERTEX
  8
PLAN_1
  6
CONTINUOUS
 10
-0.719335
 20
0.707197
  0
VERTEX
  8
PLAN_1
  6
CONTINUOUS
 10
-0.724831
 20
0.699870
  0
VERTEX
  8
PLAN_1
  6
CONTINUOUS
 10
-0.729413
 20
0.691626
  0
VERTEX
  8
PLAN_1
  6
CONTINUOUS
 10
-0.733535
 20
0.682925
  0
VERTEX
  8
PLAN_1
  6
CONTINUOUS
 10
-0.736740
 20
0.673764
  0
VERTEX
  8
PLAN_1
  6
CONTINUOUS
 10
-0.739031
 20
0.664146
  0
VERTEX
  8
PLAN_1
  6
CONTINUOUS
 10
-0.740406
 20
0.653614
  0
VERTEX
  8
PLAN_1
  6
CONTINUOUS
 10
-0.740862
 20
0.642622
  0
SEQEND
  8
0
  0
POLYLINE
  8
PLAN_1
  6
CONTINUOUS
 66
     1
 40
0.008240
 41
0.008240
  0
VERTEX
  8
PLAN_1
  6
CONTINUOUS
 10
-0.740862
 20
0.642622
  0
VERTEX
  8
PLAN_1
  6
CONTINUOUS
 10
-0.741319
 20
0.522165
  0
VERTEX
  8
PLAN_1
  6
CONTINUOUS
 10
-0.355228
 20
0.522165
  0
VERTEX
  8
PLAN_1
  6
CONTINUOUS
 10
-0.354315
 20
0.813909
  0
SEQEND
  8
0
  0
POLYLINE
  8
PLAN_1
  6
CONTINUOUS
 66
     1
 40
0.008240
 41
0.008240
  0
VERTEX
  8
PLAN_1
  6
CONTINUOUS
 10
-0.354315
 20
0.813909
  0
VERTEX
  8
PLAN_1
  6
CONTINUOUS
 10
-0.378587
 20
0.807957
  0
VERTEX
  8
PLAN_1
  6
CONTINUOUS
 10
-0.403776
 20
0.802004
  0
VERTEX
  8
PLAN_1
  6
CONTINUOUS
 10
-0.429425
 20
0.796508
  0
VERTEX
  8
PLAN_1
  6
CONTINUOUS
 10
-0.455531
 20
0.791469
  0
VERTEX
  8
PLAN_1
  6
CONTINUOUS
 10
-0.482094
 20
0.786890
  0
VERTEX
  8
PLAN_1
  6
CONTINUOUS
 10
-0.509575
 20
0.782768
  0
VERTEX
  8
PLAN_1
  6
CONTINUOUS
 10
-0.537055
 20
0.778646
  0
VERTEX
  8
PLAN_1
  6
CONTINUOUS
 10
-0.564992
 20
0.775441
  0
SEQEND
  8
0
  0
POLYLINE
  8
PLAN_1
  6
CONTINUOUS
 66
     1
 40
0.008240
 41
0.008240
  0
VERTEX
  8
PLAN_1
  6
CONTINUOUS
 10
-0.447287
 20
0.521252
  0
VERTEX
  8
PLAN_1
  6
CONTINUOUS
 10
-0.447287
 20
0.456673
  0
SEQEND
  8
0
  0
POLYLINE
  8
PLAN_1
  6
CONTINUOUS
 66
     1
 40
0.004118
 41
0.004118
  0
VERTEX
  8
PLAN_1
  6
CONTINUOUS
 10
-1.254736
 20
0.669642
  0
VERTEX
  8
PLAN_1
  6
CONTINUOUS
 10
-1.608307
 20
0.669642
  0
SEQEND
  8
0
  0
POLYLINE
  8
PLAN_1
  6
CONTINUOUS
 66
     1
 40
0.004118
 41
0.004118
  0
VERTEX
  8
PLAN_1
  6
CONTINUOUS
 10
-1.431980
 20
0.832232
  0
VERTEX
  8
PLAN_1
  6
CONTINUOUS
 10
-1.431980
 20
0.504764
  0
SEQEND
  8
0
  0
POLYLINE
  8
PLAN_1
  6
CONTINUOUS
 66
     1
 40
0.004118
 41
0.004118
  0
VERTEX
  8
PLAN_1
  6
CONTINUOUS
 10
0.027197
 20
0.669642
  0
VERTEX
  8
PLAN_1
  6
CONTINUOUS
 10
-0.312177
 20
0.669642
  0
SEQEND
  8
0
  0
POLYLINE
  8
PLAN_1
  6
CONTINUOUS
 66
     1
 40
0.004118
 41
0.004118
  0
VERTEX
  8
PLAN_1
  6
CONTINUOUS
 10
-0.142260
 20
0.856504
  0
VERTEX
  8
PLAN_1
  6
CONTINUOUS
 10
-0.142260
 20
0.470870
  0
SEQEND
  8
0
  0
POLYLINE
  8
PLAN_1
  6
CONTINUOUS
 66
     1
 40
0.008240
 41
0.008240
  0
VERTEX
  8
PLAN_1
  6
CONTINUOUS
 10
0.068874
 20
2.770929
  0
VERTEX
  8
PLAN_1
  6
CONTINUOUS
 10
0.068874
 20
0.972378
  0
VERTEX
  8
PLAN_1
  6
CONTINUOUS
 10
0.004756
 20
0.972378
  0
VERTEX
  8
PLAN_1
  6
CONTINUOUS
 10
0.004756
 20
2.770929
  0
VERTEX
  8
PLAN_1
  6
CONTINUOUS
 10
0.068874
 20
2.770929
  0
SEQEND
  8
0
  0
POLYLINE
  8
PLAN_1
  6
CONTINUOUS
 66
     1
 40
0.008240
 41
0.008240
  0
VERTEX
  8
PLAN_1
  6
CONTINUOUS
 10
-0.570031
 20
0.775441
  0
VERTEX
  8
PLAN_1
  6
CONTINUOUS
 10
-1.008791
 20
0.775441
  0
SEQEND
  8
0
  0
POLYLINE
  8
PLAN_1
  6
CONTINUOUS
 66
     1
 40
0.008240
 41
0.008240
  0
VERTEX
  8
PLAN_1
  6
CONTINUOUS
 10
-1.008791
 20
0.775441
  0
VERTEX
  8
PLAN_1
  6
CONTINUOUS
 10
-1.037646
 20
0.779102
  0
VERTEX
  8
PLAN_1
  6
CONTINUOUS
 10
-1.066039
 20
0.782768
  0
VERTEX
  8
PLAN_1
  6
CONTINUOUS
 10
-1.093520
 20
0.787346
  0
VERTEX
  8
PLAN_1
  6
CONTINUOUS
 10
-1.121000
 20
0.791929
  0
VERTEX
  8
PLAN_1
  6
CONTINUOUS
 10
-1.148020
 20
0.797425
  0
VERTEX
  8
PLAN_1
  6
CONTINUOUS
 10
-1.174126
 20
0.802917
  0
VERTEX
  8
PLAN_1
  6
CONTINUOUS
 10
-1.199776
 20
0.808874
  0
VERTEX
  8
PLAN_1
  6
CONTINUOUS
 10
-1.224965
 20
0.815283
  0
VERTEX
  8
PLAN_1
  6
CONTINUOUS
 10
-1.249240
 20
0.822154
  0
VERTEX
  8
PLAN_1
  6
CONTINUOUS
 10
-1.273055
 20
0.829024
  0
VERTEX
  8
PLAN_1
  6
CONTINUOUS
 10
-1.295953
 20
0.836811
  0
VERTEX
  8
PLAN_1
  6
CONTINUOUS
 10
-1.318398
 20
0.844598
  0
VERTEX
  8
PLAN_1
  6
CONTINUOUS
 10
-1.339921
 20
0.852843
  0
VERTEX
  8
PLAN_1
  6
CONTINUOUS
 10
-1.360988
 20
0.861087
  0
VERTEX
  8
PLAN_1
  6
CONTINUOUS
 10
-1.381142
 20
0.870244
  0
VERTEX
  8
PLAN_1
  6
CONTINUOUS
 10
-1.400378
 20
0.879406
  0
VERTEX
  8
PLAN_1
  6
CONTINUOUS
 10
-1.418697
 20
0.889024
  0
VERTEX
  8
PLAN_1
  6
CONTINUOUS
 10
-1.436559
 20
0.898642
  0
VERTEX
  8
PLAN_1
  6
CONTINUOUS
 10
-1.453047
 20
0.908717
  0
VERTEX
  8
PLAN_1
  6
CONTINUOUS
 10
-1.469079
 20
0.919252
  0
VERTEX
  8
PLAN_1
  6
CONTINUOUS
 10
-1.484189
 20
0.929783
  0
VERTEX
  8
PLAN_1
  6
CONTINUOUS
 10
-1.498390
 20
0.940776
  0
VERTEX
  8
PLAN_1
  6
CONTINUOUS
 10
-1.511213
 20
0.952224
  0
VERTEX
  8
PLAN_1
  6
CONTINUOUS
 10
-1.523579
 20
0.963677
  0
VERTEX
  8
PLAN_1
  6
CONTINUOUS
 10
-1.534571
 20
0.975126
  0
VERTEX
  8
PLAN_1
  6
CONTINUOUS
 10
-1.545106
 20
0.987492
  0
VERTEX
  8
PLAN_1
  6
CONTINUOUS
 10
-1.554264
 20
0.999402
  0
VERTEX
  8
PLAN_1
  6
CONTINUOUS
 10
-1.562051
 20
1.012224
  0
VERTEX
  8
PLAN_1
  6
CONTINUOUS
 10
-1.568921
 20
1.024591
  0
VERTEX
  8
PLAN_1
  6
CONTINUOUS
 10
-1.574874
 20
1.037870
  0
VERTEX
  8
PLAN_1
  6
CONTINUOUS
 10
-1.579913
 20
1.050697
  0
VERTEX
  8
PLAN_1
  6
CONTINUOUS
 10
-1.583118
 20
1.064437
  0
SEQEND
  8
0
  0
POLYLINE
  8
PLAN_1
  6
CONTINUOUS
 66
     1
 40
0.008240
 41
0.008240
  0
VERTEX
  8
PLAN_1
  6
CONTINUOUS
 10
-1.583118
 20
1.064437
  0
VERTEX
  8
PLAN_1
  6
CONTINUOUS
 10
-1.583118
 20
2.862988
  0
SEQEND
  8
0
  0
POLYLINE
  8
PLAN_1
  6
CONTINUOUS
 66
     1
 40
0.008240
 41
0.008240
  0
VERTEX
  8
PLAN_1
  6
CONTINUOUS
 10
-1.583118
 20
2.862988
  0
VERTEX
  8
PLAN_1
  6
CONTINUOUS
 10
-1.579913
 20
2.875354
  0
VERTEX
  8
PLAN_1
  6
CONTINUOUS
 10
-1.574874
 20
2.888177
  0
VERTEX
  8
PLAN_1
  6
CONTINUOUS
 10
-1.568921
 20
2.900543
  0
VERTEX
  8
PLAN_1
  6
CONTINUOUS
 10
-1.562051
 20
2.912909
  0
VERTEX
  8
PLAN_1
  6
CONTINUOUS
 10
-1.554264
 20
2.924819
  0
VERTEX
  8
PLAN_1
  6
CONTINUOUS
 10
-1.545106
 20
2.936724
  0
VERTEX
  8
PLAN_1
  6
CONTINUOUS
 10
-1.535028
 20
2.948634
  0
VERTEX
  8
PLAN_1
  6
CONTINUOUS
 10
-1.524035
 20
2.960543
  0
VERTEX
  8
PLAN_1
  6
CONTINUOUS
 10
-1.511669
 20
2.971992
  0
VERTEX
  8
PLAN_1
  6
CONTINUOUS
 10
-1.498846
 20
2.982984
  0
VERTEX
  8
PLAN_1
  6
CONTINUOUS
 10
-1.484650
 20
2.993976
  0
VERTEX
  8
PLAN_1
  6
CONTINUOUS
 10
-1.469992
 20
3.004969
  0
VERTEX
  8
PLAN_1
  6
CONTINUOUS
 10
-1.453965
 20
3.015500
  0
VERTEX
  8
PLAN_1
  6
CONTINUOUS
 10
-1.437476
 20
3.025579
  0
VERTEX
  8
PLAN_1
  6
CONTINUOUS
 10
-1.420071
 20
3.035654
  0
VERTEX
  8
PLAN_1
  6
CONTINUOUS
 10
-1.401752
 20
3.045272
  0
VERTEX
  8
PLAN_1
  6
CONTINUOUS
 10
-1.382516
 20
3.054890
  0
VERTEX
  8
PLAN_1
  6
CONTINUOUS
 10
-1.362362
 20
3.064047
  0
VERTEX
  8
PLAN_1
  6
CONTINUOUS
 10
-1.341752
 20
3.073209
  0
VERTEX
  8
PLAN_1
  6
CONTINUOUS
 10
-1.320228
 20
3.081453
  0
VERTEX
  8
PLAN_1
  6
CONTINUOUS
 10
-1.297787
 20
3.089697
  0
VERTEX
  8
PLAN_1
  6
CONTINUOUS
 10
-1.274886
 20
3.097941
  0
VERTEX
  8
PLAN_1
  6
CONTINUOUS
 10
-1.251528
 20
3.105268
  0
VERTEX
  8
PLAN_1
  6
CONTINUOUS
 10
-1.227256
 20
3.112594
  0
VERTEX
  8
PLAN_1
  6
CONTINUOUS
 10
-1.202063
 20
3.119465
  0
VERTEX
  8
PLAN_1
  6
CONTINUOUS
 10
-1.176874
 20
3.125878
  0
VERTEX
  8
PLAN_1
  6
CONTINUOUS
 10
-1.150768
 20
3.131831
  0
VERTEX
  8
PLAN_1
  6
CONTINUOUS
 10
-1.123748
 20
3.137327
  0
VERTEX
  8
PLAN_1
  6
CONTINUOUS
 10
-1.096724
 20
3.142823
  0
VERTEX
  8
PLAN_1
  6
CONTINUOUS
 10
-1.068787
 20
3.147406
  0
VERTEX
  8
PLAN_1
  6
CONTINUOUS
 10
-1.040850
 20
3.151984
  0
VERTEX
  8
PLAN_1
  6
CONTINUOUS
 10
-1.011996
 20
3.155650
  0
SEQEND
  8
0
  0
POLYLINE
  8
PLAN_1
  6
CONTINUOUS
 66
     1
 40
0.008240
 41
0.008240
  0
VERTEX
  8
PLAN_1
  6
CONTINUOUS
 10
-1.011996
 20
3.155650
  0
VERTEX
  8
PLAN_1
  6
CONTINUOUS
 10
-0.566366
 20
3.155650
  0
SEQEND
  8
0
  0
POLYLINE
  8
PLAN_1
  6
CONTINUOUS
 66
     1
 40
0.008240
 41
0.008240
  0
VERTEX
  8
PLAN_1
  6
CONTINUOUS
 10
-0.566366
 20
3.155650
  0
VERTEX
  8
PLAN_1
  6
CONTINUOUS
 10
-0.537969
 20
3.151984
  0
VERTEX
  8
PLAN_1
  6
CONTINUOUS
 10
-0.509575
 20
3.147406
  0
VERTEX
  8
PLAN_1
  6
CONTINUOUS
 10
-0.481638
 20
3.142823
  0
VERTEX
  8
PLAN_1
  6
CONTINUOUS
 10
-0.454614
 20
3.137327
  0
VERTEX
  8
PLAN_1
  6
CONTINUOUS
 10
-0.428051
 20
3.131831
  0
VERTEX
  8
PLAN_1
  6
CONTINUOUS
 10
-0.401945
 20
3.125878
  0
VERTEX
  8
PLAN_1
  6
CONTINUOUS
 10
-0.376295
 20
3.119465
  0
VERTEX
  8
PLAN_1
  6
CONTINUOUS
 10
-0.351106
 20
3.112594
  0
VERTEX
  8
PLAN_1
  6
CONTINUOUS
 10
-0.326835
 20
3.105268
  0
VERTEX
  8
PLAN_1
  6
CONTINUOUS
 10
-0.303476
 20
3.097941
  0
VERTEX
  8
PLAN_1
  6
CONTINUOUS
 10
-0.280575
 20
3.089697
  0
VERTEX
  8
PLAN_1
  6
CONTINUOUS
 10
-0.258134
 20
3.081453
  0
VERTEX
  8
PLAN_1
  6
CONTINUOUS
 10
-0.236606
 20
3.073209
  0
VERTEX
  8
PLAN_1
  6
CONTINUOUS
 10
-0.216000
 20
3.064047
  0
VERTEX
  8
PLAN_1
  6
CONTINUOUS
 10
-0.196303
 20
3.054890
  0
VERTEX
  8
PLAN_1
  6
CONTINUOUS
 10
-0.177067
 20
3.045272
  0
VERTEX
  8
PLAN_1
  6
CONTINUOUS
 10
-0.158748
 20
3.035654
  0
VERTEX
  8
PLAN_1
  6
CONTINUOUS
 10
-0.140886
 20
3.025579
  0
VERTEX
  8
PLAN_1
  6
CONTINUOUS
 10
-0.124398
 20
3.015500
  0
VERTEX
  8
PLAN_1
  6
CONTINUOUS
 10
-0.108370
 20
3.004969
  0
VERTEX
  8
PLAN_1
  6
CONTINUOUS
 10
-0.093713
 20
2.993976
  0
VERTEX
  8
PLAN_1
  6
CONTINUOUS
 10
-0.079516
 20
2.982984
  0
VERTEX
  8
PLAN_1
  6
CONTINUOUS
 10
-0.066693
 20
2.971992
  0
VERTEX
  8
PLAN_1
  6
CONTINUOUS
 10
-0.054327
 20
2.960543
  0
VERTEX
  8
PLAN_1
  6
CONTINUOUS
 10
-0.043335
 20
2.948634
  0
VERTEX
  8
PLAN_1
  6
CONTINUOUS
 10
-0.033256
 20
2.936724
  0
VERTEX
  8
PLAN_1
  6
CONTINUOUS
 10
-0.024098
 20
2.924819
  0
VERTEX
  8
PLAN_1
  6
CONTINUOUS
 10
-0.016311
 20
2.912909
  0
VERTEX
  8
PLAN_1
  6
CONTINUOUS
 10
-0.009441
 20
2.900543
  0
VERTEX
  8
PLAN_1
  6
CONTINUOUS
 10
-0.003488
 20
2.888177
  0
VERTEX
  8
PLAN_1
  6
CONTINUOUS
 10
0.001551
 20
2.875354
  0
VERTEX
  8
PLAN_1
  6
CONTINUOUS
 10
0.004756
 20
2.862988
  0
SEQEND
  8
0
  0
POLYLINE
  8
PLAN_1
  6
CONTINUOUS
 66
     1
 40
0.008240
 41
0.008240
  0
VERTEX
  8
PLAN_1
  6
CONTINUOUS
 10
0.004756
 20
2.862988
  0
VERTEX
  8
PLAN_1
  6
CONTINUOUS
 10
0.004756
 20
1.064437
  0
SEQEND
  8
0
  0
POLYLINE
  8
PLAN_1
  6
CONTINUOUS
 66
     1
 40
0.008240
 41
0.008240
  0
VERTEX
  8
PLAN_1
  6
CONTINUOUS
 10
0.004756
 20
1.064437
  0
VERTEX
  8
PLAN_1
  6
CONTINUOUS
 10
0.001551
 20
1.050697
  0
VERTEX
  8
PLAN_1
  6
CONTINUOUS
 10
-0.003488
 20
1.037870
  0
VERTEX
  8
PLAN_1
  6
CONTINUOUS
 10
-0.009441
 20
1.024591
  0
VERTEX
  8
PLAN_1
  6
CONTINUOUS
 10
-0.016311
 20
1.012224
  0
VERTEX
  8
PLAN_1
  6
CONTINUOUS
 10
-0.024555
 20
0.999402
  0
VERTEX
  8
PLAN_1
  6
CONTINUOUS
 10
-0.033256
 20
0.987492
  0
VERTEX
  8
PLAN_1
  6
CONTINUOUS
 10
-0.043791
 20
0.975126
  0
VERTEX
  8
PLAN_1
  6
CONTINUOUS
 10
-0.054783
 20
0.963677
  0
VERTEX
  8
PLAN_1
  6
CONTINUOUS
 10
-0.067150
 20
0.952224
  0
VERTEX
  8
PLAN_1
  6
CONTINUOUS
 10
-0.079972
 20
0.940776
  0
VERTEX
  8
PLAN_1
  6
CONTINUOUS
 10
-0.094169
 20
0.929783
  0
VERTEX
  8
PLAN_1
  6
CONTINUOUS
 10
-0.109283
 20
0.919252
  0
VERTEX
  8
PLAN_1
  6
CONTINUOUS
 10
-0.125315
 20
0.908717
  0
VERTEX
  8
PLAN_1
  6
CONTINUOUS
 10
-0.141803
 20
0.898642
  0
VERTEX
  8
PLAN_1
  6
CONTINUOUS
 10
-0.159665
 20
0.889024
  0
VERTEX
  8
PLAN_1
  6
CONTINUOUS
 10
-0.177984
 20
0.879406
  0
VERTEX
  8
PLAN_1
  6
CONTINUOUS
 10
-0.197677
 20
0.870244
  0
VERTEX
  8
PLAN_1
  6
CONTINUOUS
 10
-0.217374
 20
0.861087
  0
VERTEX
  8
PLAN_1
  6
CONTINUOUS
 10
-0.238441
 20
0.852843
  0
VERTEX
  8
PLAN_1
  6
CONTINUOUS
 10
-0.259965
 20
0.844598
  0
VERTEX
  8
PLAN_1
  6
CONTINUOUS
 10
-0.282409
 20
0.836811
  0
VERTEX
  8
PLAN_1
  6
CONTINUOUS
 10
-0.305307
 20
0.829024
  0
VERTEX
  8
PLAN_1
  6
CONTINUOUS
 10
-0.329122
 20
0.822154
  0
VERTEX
  8
PLAN_1
  6
CONTINUOUS
 10
-0.353854
 20
0.815283
  0
VERTEX
  8
PLAN_1
  6
CONTINUOUS
 10
-0.378587
 20
0.808874
  0
VERTEX
  8
PLAN_1
  6
CONTINUOUS
 10
-0.404236
 20
0.802917
  0
VERTEX
  8
PLAN_1
  6
CONTINUOUS
 10
-0.430799
 20
0.797425
  0
VERTEX
  8
PLAN_1
  6
CONTINUOUS
 10
-0.457362
 20
0.791929
  0
VERTEX
  8
PLAN_1
  6
CONTINUOUS
 10
-0.484843
 20
0.787346
  0
VERTEX
  8
PLAN_1
  6
CONTINUOUS
 10
-0.512780
 20
0.782768
  0
VERTEX
  8
PLAN_1
  6
CONTINUOUS
 10
-0.541177
 20
0.779102
  0
VERTEX
  8
PLAN_1
  6
CONTINUOUS
 10
-0.570031
 20
0.775441
  0
SEQEND
  8
0
  0
POLYLINE
  8
PLAN_1
  6
CONTINUOUS
 66
     1
 40
0.008240
 41
0.008240
  0
VERTEX
  8
PLAN_1
  6
CONTINUOUS
 10
-0.663917
 20
3.156106
  0
VERTEX
  8
PLAN_1
  6
CONTINUOUS
 10
-0.663917
 20
3.480827
  0
VERTEX
  8
PLAN_1
  6
CONTINUOUS
 10
-0.921315
 20
3.480827
  0
VERTEX
  8
PLAN_1
  6
CONTINUOUS
 10
-0.921315
 20
3.156106
  0
SEQEND
  8
0
  0
POLYLINE
  8
PLAN_1
  6
CONTINUOUS
 66
     1
 40
0.008240
 41
0.008240
  0
VERTEX
  8
PLAN_1
  6
CONTINUOUS
 10
-0.995508
 20
3.158398
  0
VERTEX
  8
PLAN_1
  6
CONTINUOUS
 10
-0.995508
 20
3.480827
  0
VERTEX
  8
PLAN_1
  6
CONTINUOUS
 10
-1.081154
 20
3.480827
  0
VERTEX
  8
PLAN_1
  6
CONTINUOUS
 10
-1.081154
 20
3.146945
  0
SEQEND
  8
0
  0
POLYLINE
  8
PLAN_1
  6
CONTINUOUS
 66
     1
 40
0.008240
 41
0.008240
  0
VERTEX
  8
PLAN_1
  6
CONTINUOUS
 10
-0.499957
 20
3.144657
  0
VERTEX
  8
PLAN_1
  6
CONTINUOUS
 10
-0.499957
 20
3.480827
  0
VERTEX
  8
PLAN_1
  6
CONTINUOUS
 10
-0.585602
 20
3.480827
  0
VERTEX
  8
PLAN_1
  6
CONTINUOUS
 10
-0.585602
 20
3.158398
  0
SEQEND
  8
0
  0
POLYLINE
  8
PLAN_1
 62
     2
  6
CONTINUOUS
 66
     1
 40
0.004118
 41
0.004118
  0
VERTEX
  8
PLAN_1
 62
     2
  6
CONTINUOUS
 10
-1.620217
 20
0.141571
  0
VERTEX
  8
PLAN_1
 62
     2
  6
CONTINUOUS
 10
0.030862
 20
0.141571
  0
SEQEND
  8
0
  0
SOLID
  8
PLAN_1
 62
     2
 10
0.060173
 20
0.141571
 11
0.001091
 21
0.157146
 12
0.060173
 22
0.141571
 13
0.001091
 23
0.126000
  0
POLYLINE
  8
PLAN_1
 62
     2
  6
CONTINUOUS
 66
     1
 40
0.003000
 41
0.003000
  0
VERTEX
  8
PLAN_1
 62
     2
  6
CONTINUOUS
 10
0.060173
 20
0.141571
  0
VERTEX
  8
PLAN_1
 62
     2
  6
CONTINUOUS
 10
0.001091
 20
0.157146
  0
VERTEX
  8
PLAN_1
 62
     2
  6
CONTINUOUS
 10
0.001091
 20
0.126000
  0
VERTEX
  8
PLAN_1
 62
     2
  6
CONTINUOUS
 10
0.060173
 20
0.141571
  0
SEQEND
  8
0
  0
SOLID
  8
PLAN_1
 62
     2
 10
-1.649984
 20
0.141571
 11
-1.590906
 21
0.157146
 12
-1.649984
 22
0.141571
 13
-1.590906
 23
0.126000
  0
POLYLINE
  8
PLAN_1
 62
     2
  6
CONTINUOUS
 66
     1
 40
0.003000
 41
0.003000
  0
VERTEX
  8
PLAN_1
 62
     2
  6
CONTINUOUS
 10
-1.649984
 20
0.141571
  0
VERTEX
  8
PLAN_1
 62
     2
  6
CONTINUOUS
 10
-1.590906
 20
0.157146
  0
VERTEX
  8
PLAN_1
 62
     2
  6
CONTINUOUS
 10
-1.590906
 20
0.126000
  0
VERTEX
  8
PLAN_1
 62
     2
  6
CONTINUOUS
 10
-1.649984
 20
0.141571
  0
SEQEND
  8
0
  0
POLYLINE
  8
PLAN_1
 62
     2
  6
CONTINUOUS
 66
     1
 40
0.003000
 41
0.003000
  0
VERTEX
  8
PLAN_1
 62
     2
  6
CONTINUOUS
 10
-0.809102
 20
0.182791
  0
VERTEX
  8
PLAN_1
 62
     2
  6
CONTINUOUS
 10
-0.809102
 20
0.165390
  0
VERTEX
  8
PLAN_1
 62
     2
  6
CONTINUOUS
 10
-0.818264
 20
0.165390
  0
VERTEX
  8
PLAN_1
 62
     2
  6
CONTINUOUS
 10
-0.818264
 20
0.182791
  0
VERTEX
  8
PLAN_1
 62
     2
  6
CONTINUOUS
 10
-0.849866
 20
0.182791
  0
VERTEX
  8
PLAN_1
 62
     2
  6
CONTINUOUS
 10
-0.849866
 20
0.191953
  0
VERTEX
  8
PLAN_1
 62
     2
  6
CONTINUOUS
 10
-0.816433
 20
0.238209
  0
VERTEX
  8
PLAN_1
 62
     2
  6
CONTINUOUS
 10
-0.809102
 20
0.238209
  0
VERTEX
  8
PLAN_1
 62
     2
  6
CONTINUOUS
 10
-0.809102
 20
0.191035
  0
VERTEX
  8
PLAN_1
 62
     2
  6
CONTINUOUS
 10
-0.798110
 20
0.191035
  0
VERTEX
  8
PLAN_1
 62
     2
  6
CONTINUOUS
 10
-0.798110
 20
0.182791
  0
VERTEX
  8
PLAN_1
 62
     2
  6
CONTINUOUS
 10
-0.809102
 20
0.182791
  0
SEQEND
  8
0
  0
SOLID
  8
PLAN_1
 62
     2
 10
-0.841622
 20
0.191035
 11
-0.818264
 21
0.191035
 12
-0.841622
 22
0.191035
 13
-0.818264
 23
0.224012
  0
POLYLINE
  8
PLAN_1
 62
     2
  6
CONTINUOUS
 66
     1
 40
0.003000
 41
0.003000
  0
VERTEX
  8
PLAN_1
 62
     2
  6
CONTINUOUS
 10
-0.841622
 20
0.191035
  0
VERTEX
  8
PLAN_1
 62
     2
  6
CONTINUOUS
 10
-0.818264
 20
0.191035
  0
VERTEX
  8
PLAN_1
 62
     2
  6
CONTINUOUS
 10
-0.818264
 20
0.224012
  0
VERTEX
  8
PLAN_1
 62
     2
  6
CONTINUOUS
 10
-0.841622
 20
0.191035
  0
SEQEND
  8
0
  0
POLYLINE
  8
PLAN_1
 62
     2
  6
CONTINUOUS
 66
     1
 40
0.003000
 41
0.003000
  0
VERTEX
  8
PLAN_1
 62
     2
  6
CONTINUOUS
 10
-0.766051
 20
0.163098
  0
VERTEX
  8
PLAN_1
 62
     2
  6
CONTINUOUS
 10
-0.769717
 20
0.163555
  0
VERTEX
  8
PLAN_1
 62
     2
  6
CONTINUOUS
 10
-0.772921
 20
0.164016
  0
VERTEX
  8
PLAN_1
 62
     2
  6
CONTINUOUS
 10
-0.776130
 20
0.165390
  0
VERTEX
  8
PLAN_1
 62
     2
  6
CONTINUOUS
 10
-0.778878
 20
0.166764
  0
VERTEX
  8
PLAN_1
 62
     2
  6
CONTINUOUS
 10
-0.781165
 20
0.169051
  0
VERTEX
  8
PLAN_1
 62
     2
  6
CONTINUOUS
 10
-0.782996
 20
0.170882
  0
VERTEX
  8
PLAN_1
 62
     2
  6
CONTINUOUS
 10
-0.784831
 20
0.173630
  0
VERTEX
  8
PLAN_1
 62
     2
  6
CONTINUOUS
 10
-0.786205
 20
0.176378
  0
VERTEX
  8
PLAN_1
 62
     2
  6
CONTINUOUS
 10
-0.788492
 20
0.182335
  0
VERTEX
  8
PLAN_1
 62
     2
  6
CONTINUOUS
 10
-0.789866
 20
0.188287
  0
VERTEX
  8
PLAN_1
 62
     2
  6
CONTINUOUS
 10
-0.790783
 20
0.194701
  0
VERTEX
  8
PLAN_1
 62
     2
  6
CONTINUOUS
 10
-0.790783
 20
0.200654
  0
VERTEX
  8
PLAN_1
 62
     2
  6
CONTINUOUS
 10
-0.790783
 20
0.206606
  0
VERTEX
  8
PLAN_1
 62
     2
  6
CONTINUOUS
 10
-0.789866
 20
0.213020
  0
VERTEX
  8
PLAN_1
 62
     2
  6
CONTINUOUS
 10
-0.788492
 20
0.219433
  0
VERTEX
  8
PLAN_1
 62
     2
  6
CONTINUOUS
 10
-0.786205
 20
0.225386
  0
VERTEX
  8
PLAN_1
 62
     2
  6
CONTINUOUS
 10
-0.784831
 20
0.228134
  0
VERTEX
  8
PLAN_1
 62
     2
  6
CONTINUOUS
 10
-0.782996
 20
0.230425
  0
VERTEX
  8
PLAN_1
 62
     2
  6
CONTINUOUS
 10
-0.781165
 20
0.232713
  0
VERTEX
  8
PLAN_1
 62
     2
  6
CONTINUOUS
 10
-0.778878
 20
0.234547
  0
VERTEX
  8
PLAN_1
 62
     2
  6
CONTINUOUS
 10
-0.776130
 20
0.236378
  0
VERTEX
  8
PLAN_1
 62
     2
  6
CONTINUOUS
 10
-0.772921
 20
0.237295
  0
VERTEX
  8
PLAN_1
 62
     2
  6
CONTINUOUS
 10
-0.769717
 20
0.238209
  0
VERTEX
  8
PLAN_1
 62
     2
  6
CONTINUOUS
 10
-0.766051
 20
0.238209
  0
VERTEX
  8
PLAN_1
 62
     2
  6
CONTINUOUS
 10
-0.761929
 20
0.238209
  0
VERTEX
  8
PLAN_1
 62
     2
  6
CONTINUOUS
 10
-0.758724
 20
0.237295
  0
VERTEX
  8
PLAN_1
 62
     2
  6
CONTINUOUS
 10
-0.755976
 20
0.236378
  0
VERTEX
  8
PLAN_1
 62
     2
  6
CONTINUOUS
 10
-0.753228
 20
0.234547
  0
VERTEX
  8
PLAN_1
 62
     2
  6
CONTINUOUS
 10
-0.750937
 20
0.232713
  0
VERTEX
  8
PLAN_1
 62
     2
  6
CONTINUOUS
 10
-0.748650
 20
0.230425
  0
VERTEX
  8
PLAN_1
 62
     2
  6
CONTINUOUS
 10
-0.746815
 20
0.228134
  0
VERTEX
  8
PLAN_1
 62
     2
  6
CONTINUOUS
 10
-0.745441
 20
0.225386
  0
VERTEX
  8
PLAN_1
 62
     2
  6
CONTINUOUS
 10
-0.743154
 20
0.219433
  0
VERTEX
  8
PLAN_1
 62
     2
  6
CONTINUOUS
 10
-0.741780
 20
0.213020
  0
VERTEX
  8
PLAN_1
 62
     2
  6
CONTINUOUS
 10
-0.740862
 20
0.206606
  0
VERTEX
  8
PLAN_1
 62
     2
  6
CONTINUOUS
 10
-0.740862
 20
0.200654
  0
VERTEX
  8
PLAN_1
 62
     2
  6
CONTINUOUS
 10
-0.740862
 20
0.194701
  0
VERTEX
  8
PLAN_1
 62
     2
  6
CONTINUOUS
 10
-0.741780
 20
0.188287
  0
VERTEX
  8
PLAN_1
 62
     2
  6
CONTINUOUS
 10
-0.743154
 20
0.182335
  0
VERTEX
  8
PLAN_1
 62
     2
  6
CONTINUOUS
 10
-0.745441
 20
0.176378
  0
VERTEX
  8
PLAN_1
 62
     2
  6
CONTINUOUS
 10
-0.746815
 20
0.173630
  0
VERTEX
  8
PLAN_1
 62
     2
  6
CONTINUOUS
 10
-0.748650
 20
0.170882
  0
VERTEX
  8
PLAN_1
 62
     2
  6
CONTINUOUS
 10
-0.750937
 20
0.169051
  0
VERTEX
  8
PLAN_1
 62
     2
  6
CONTINUOUS
 10
-0.753228
 20
0.166764
  0
VERTEX
  8
PLAN_1
 62
     2
  6
CONTINUOUS
 10
-0.755976
 20
0.165390
  0
VERTEX
  8
PLAN_1
 62
     2
  6
CONTINUOUS
 10
-0.758724
 20
0.164016
  0
VERTEX
  8
PLAN_1
 62
     2
  6
CONTINUOUS
 10
-0.761929
 20
0.163555
  0
VERTEX
  8
PLAN_1
 62
     2
  6
CONTINUOUS
 10
-0.766051
 20
0.163098
  0
SEQEND
  8
0
  0
POLYLINE
  8
PLAN_1
 62
     2
  6
CONTINUOUS
 66
     1
 40
0.003000
 41
0.003000
  0
VERTEX
  8
PLAN_1
 62
     2
  6
CONTINUOUS
 10
-0.766051
 20
0.229965
  0
VERTEX
  8
PLAN_1
 62
     2
  6
CONTINUOUS
 10
-0.767886
 20
0.229965
  0
VERTEX
  8
PLAN_1
 62
     2
  6
CONTINUOUS
 10
-0.769717
 20
0.229508
  0
VERTEX
  8
PLAN_1
 62
     2
  6
CONTINUOUS
 10
-0.771091
 20
0.229051
  0
VERTEX
  8
PLAN_1
 62
     2
  6
CONTINUOUS
 10
-0.772921
 20
0.228134
  0
VERTEX
  8
PLAN_1
 62
     2
  6
CONTINUOUS
 10
-0.774295
 20
0.226760
  0
VERTEX
  8
PLAN_1
 62
     2
  6
CONTINUOUS
 10
-0.775213
 20
0.225843
  0
VERTEX
  8
PLAN_1
 62
     2
  6
CONTINUOUS
 10
-0.776587
 20
0.224012
  0
VERTEX
  8
PLAN_1
 62
     2
  6
CONTINUOUS
 10
-0.777504
 20
0.222181
  0
VERTEX
  8
PLAN_1
 62
     2
  6
CONTINUOUS
 10
-0.779335
 20
0.218059
  0
VERTEX
  8
PLAN_1
 62
     2
  6
CONTINUOUS
 10
-0.780252
 20
0.213020
  0
VERTEX
  8
PLAN_1
 62
     2
  6
CONTINUOUS
 10
-0.781165
 20
0.207067
  0
VERTEX
  8
PLAN_1
 62
     2
  6
CONTINUOUS
 10
-0.781165
 20
0.200654
  0
VERTEX
  8
PLAN_1
 62
     2
  6
CONTINUOUS
 10
-0.781165
 20
0.194240
  0
VERTEX
  8
PLAN_1
 62
     2
  6
CONTINUOUS
 10
-0.780252
 20
0.188287
  0
VERTEX
  8
PLAN_1
 62
     2
  6
CONTINUOUS
 10
-0.779335
 20
0.183248
  0
VERTEX
  8
PLAN_1
 62
     2
  6
CONTINUOUS
 10
-0.777504
 20
0.179126
  0
VERTEX
  8
PLAN_1
 62
     2
  6
CONTINUOUS
 10
-0.776587
 20
0.177295
  0
VERTEX
  8
PLAN_1
 62
     2
  6
CONTINUOUS
 10
-0.775213
 20
0.175921
  0
VERTEX
  8
PLAN_1
 62
     2
  6
CONTINUOUS
 10
-0.774295
 20
0.174547
  0
VERTEX
  8
PLAN_1
 62
     2
  6
CONTINUOUS
 10
-0.772921
 20
0.173630
  0
VERTEX
  8
PLAN_1
 62
     2
  6
CONTINUOUS
 10
-0.771091
 20
0.172717
  0
VERTEX
  8
PLAN_1
 62
     2
  6
CONTINUOUS
 10
-0.769717
 20
0.171799
  0
VERTEX
  8
PLAN_1
 62
     2
  6
CONTINUOUS
 10
-0.767886
 20
0.171343
  0
VERTEX
  8
PLAN_1
 62
     2
  6
CONTINUOUS
 10
-0.766051
 20
0.171343
  0
VERTEX
  8
PLAN_1
 62
     2
  6
CONTINUOUS
 10
-0.763764
 20
0.171343
  0
VERTEX
  8
PLAN_1
 62
     2
  6
CONTINUOUS
 10
-0.762390
 20
0.171799
  0
VERTEX
  8
PLAN_1
 62
     2
  6
CONTINUOUS
 10
-0.760555
 20
0.172717
  0
VERTEX
  8
PLAN_1
 62
     2
  6
CONTINUOUS
 10
-0.759181
 20
0.173630
  0
VERTEX
  8
PLAN_1
 62
     2
  6
CONTINUOUS
 10
-0.757807
 20
0.174547
  0
VERTEX
  8
PLAN_1
 62
     2
  6
CONTINUOUS
 10
-0.756433
 20
0.175921
  0
VERTEX
  8
PLAN_1
 62
     2
  6
CONTINUOUS
 10
-0.755520
 20
0.177295
  0
VERTEX
  8
PLAN_1
 62
     2
  6
CONTINUOUS
 10
-0.754146
 20
0.179126
  0
VERTEX
  8
PLAN_1
 62
     2
  6
CONTINUOUS
 10
-0.752772
 20
0.183248
  0
VERTEX
  8
PLAN_1
 62
     2
  6
CONTINUOUS
 10
-0.751398
 20
0.188287
  0
VERTEX
  8
PLAN_1
 62
     2
  6
CONTINUOUS
 10
-0.750937
 20
0.194240
  0
VERTEX
  8
PLAN_1
 62
     2
  6
CONTINUOUS
 10
-0.750480
 20
0.200654
  0
VERTEX
  8
PLAN_1
 62
     2
  6
CONTINUOUS
 10
-0.750937
 20
0.207067
  0
VERTEX
  8
PLAN_1
 62
     2
  6
CONTINUOUS
 10
-0.751398
 20
0.213020
  0
VERTEX
  8
PLAN_1
 62
     2
  6
CONTINUOUS
 10
-0.752772
 20
0.218059
  0
VERTEX
  8
PLAN_1
 62
     2
  6
CONTINUOUS
 10
-0.754146
 20
0.222181
  0
VERTEX
  8
PLAN_1
 62
     2
  6
CONTINUOUS
 10
-0.755520
 20
0.224012
  0
VERTEX
  8
PLAN_1
 62
     2
  6
CONTINUOUS
 10
-0.756433
 20
0.225843
  0
VERTEX
  8
PLAN_1
 62
     2
  6
CONTINUOUS
 10
-0.757807
 20
0.226760
  0
VERTEX
  8
PLAN_1
 62
     2
  6
CONTINUOUS
 10
-0.759181
 20
0.228134
  0
VERTEX
  8
PLAN_1
 62
     2
  6
CONTINUOUS
 10
-0.760555
 20
0.229051
  0
VERTEX
  8
PLAN_1
 62
     2
  6
CONTINUOUS
 10
-0.762390
 20
0.229508
  0
VERTEX
  8
PLAN_1
 62
     2
  6
CONTINUOUS
 10
-0.763764
 20
0.229965
  0
VERTEX
  8
PLAN_1
 62
     2
  6
CONTINUOUS
 10
-0.766051
 20
0.229965
  0
SEQEND
  8
0
  0
POLYLINE
  8
PLAN_1
 62
     2
  6
CONTINUOUS
 66
     1
 40
0.004118
 41
0.004118
  0
VERTEX
  8
PLAN_1
 62
     2
  6
CONTINUOUS
 10
-1.842803
 20
0.298209
  0
VERTEX
  8
PLAN_1
 62
     2
  6
CONTINUOUS
 10
0.242913
 20
0.298209
  0
SEQEND
  8
0
  0
SOLID
  8
PLAN_1
 62
     2
 10
-0.251264
 20
0.298209
 11
-0.310346
 21
0.313780
 12
-0.251264
 22
0.298209
 13
-0.310346
 23
0.282177
  0
POLYLINE
  8
PLAN_1
 62
     2
  6
CONTINUOUS
 66
     1
 40
0.003000
 41
0.003000
  0
VERTEX
  8
PLAN_1
 62
     2
  6
CONTINUOUS
 10
-0.251264
 20
0.298209
  0
VERTEX
  8
PLAN_1
 62
     2
  6
CONTINUOUS
 10
-0.310346
 20
0.313780
  0
VERTEX
  8
PLAN_1
 62
     2
  6
CONTINUOUS
 10
-0.310346
 20
0.282177
  0
VERTEX
  8
PLAN_1
 62
     2
  6
CONTINUOUS
 10
-0.251264
 20
0.298209
  0
SEQEND
  8
0
  0
SOLID
  8
PLAN_1
 62
     2
 10
-1.649984
 20
0.298209
 11
-1.709067
 21
0.313780
 12
-1.649984
 22
0.298209
 13
-1.709067
 23
0.282177
  0
POLYLINE
  8
PLAN_1
 62
     2
  6
CONTINUOUS
 66
     1
 40
0.003000
 41
0.003000
  0
VERTEX
  8
PLAN_1
 62
     2
  6
CONTINUOUS
 10
-1.649984
 20
0.298209
  0
VERTEX
  8
PLAN_1
 62
     2
  6
CONTINUOUS
 10
-1.709067
 20
0.313780
  0
VERTEX
  8
PLAN_1
 62
     2
  6
CONTINUOUS
 10
-1.709067
 20
0.282177
  0
VERTEX
  8
PLAN_1
 62
     2
  6
CONTINUOUS
 10
-1.649984
 20
0.298209
  0
SEQEND
  8
0
  0
SOLID
  8
PLAN_1
 62
     2
 10
-1.431980
 20
0.298209
 11
-1.372898
 21
0.313780
 12
-1.431980
 22
0.298209
 13
-1.372898
 23
0.282177
  0
POLYLINE
  8
PLAN_1
 62
     2
  6
CONTINUOUS
 66
     1
 40
0.003000
 41
0.003000
  0
VERTEX
  8
PLAN_1
 62
     2
  6
CONTINUOUS
 10
-1.431980
 20
0.298209
  0
VERTEX
  8
PLAN_1
 62
     2
  6
CONTINUOUS
 10
-1.372898
 20
0.313780
  0
VERTEX
  8
PLAN_1
 62
     2
  6
CONTINUOUS
 10
-1.372898
 20
0.282177
  0
VERTEX
  8
PLAN_1
 62
     2
  6
CONTINUOUS
 10
-1.431980
 20
0.298209
  0
SEQEND
  8
0
  0
SOLID
  8
PLAN_1
 62
     2
 10
0.062465
 20
0.298209
 11
0.121547
 21
0.313780
 12
0.062465
 22
0.298209
 13
0.121547
 23
0.282177
  0
POLYLINE
  8
PLAN_1
 62
     2
  6
CONTINUOUS
 66
     1
 40
0.003000
 41
0.003000
  0
VERTEX
  8
PLAN_1
 62
     2
  6
CONTINUOUS
 10
0.062465
 20
0.298209
  0
VERTEX
  8
PLAN_1
 62
     2
  6
CONTINUOUS
 10
0.121547
 20
0.313780
  0
VERTEX
  8
PLAN_1
 62
     2
  6
CONTINUOUS
 10
0.121547
 20
0.282177
  0
VERTEX
  8
PLAN_1
 62
     2
  6
CONTINUOUS
 10
0.062465
 20
0.298209
  0
SEQEND
  8
0
  0
POLYLINE
  8
PLAN_1
 62
     2
  6
CONTINUOUS
 66
     1
 40
0.003000
 41
0.003000
  0
VERTEX
  8
PLAN_1
 62
     2
  6
CONTINUOUS
 10
-0.834295
 20
0.363244
  0
VERTEX
  8
PLAN_1
 62
     2
  6
CONTINUOUS
 10
-0.833835
 20
0.363244
  0
VERTEX
  8
PLAN_1
 62
     2
  6
CONTINUOUS
 10
-0.833378
 20
0.363244
  0
VERTEX
  8
PLAN_1
 62
     2
  6
CONTINUOUS
 10
-0.832921
 20
0.363244
  0
VERTEX
  8
PLAN_1
 62
     2
  6
CONTINUOUS
 10
-0.832004
 20
0.363244
  0
VERTEX
  8
PLAN_1
 62
     2
  6
CONTINUOUS
 10
-0.831547
 20
0.363244
  0
VERTEX
  8
PLAN_1
 62
     2
  6
CONTINUOUS
 10
-0.831087
 20
0.363244
  0
VERTEX
  8
PLAN_1
 62
     2
  6
CONTINUOUS
 10
-0.830173
 20
0.363244
  0
VERTEX
  8
PLAN_1
 62
     2
  6
CONTINUOUS
 10
-0.829713
 20
0.363244
  0
VERTEX
  8
PLAN_1
 62
     2
  6
CONTINUOUS
 10
-0.826965
 20
0.363244
  0
VERTEX
  8
PLAN_1
 62
     2
  6
CONTINUOUS
 10
-0.824677
 20
0.363701
  0
VERTEX
  8
PLAN_1
 62
     2
  6
CONTINUOUS
 10
-0.822386
 20
0.364618
  0
VERTEX
  8
PLAN_1
 62
     2
  6
CONTINUOUS
 10
-0.820094
 20
0.365531
  0
VERTEX
  8
PLAN_1
 62
     2
  6
CONTINUOUS
 10
-0.818264
 20
0.367366
  0
VERTEX
  8
PLAN_1
 62
     2
  6
CONTINUOUS
 10
-0.816890
 20
0.369197
  0
VERTEX
  8
PLAN_1
 62
     2
  6
CONTINUOUS
 10
-0.815972
 20
0.371945
  0
VERTEX
  8
PLAN_1
 62
     2
  6
CONTINUOUS
 10
-0.815972
 20
0.375150
  0
VERTEX
  8
PLAN_1
 62
     2
  6
CONTINUOUS
 10
-0.815972
 20
0.376984
  0
VERTEX
  8
PLAN_1
 62
     2
  6
CONTINUOUS
 10
-0.816433
 20
0.378815
  0
VERTEX
  8
PLAN_1
 62
     2
  6
CONTINUOUS
 10
-0.817346
 20
0.380646
  0
VERTEX
  8
PLAN_1
 62
     2
  6
CONTINUOUS
 10
-0.818264
 20
0.382476
  0
VERTEX
  8
PLAN_1
 62
     2
  6
CONTINUOUS
 10
-0.820094
 20
0.384311
  0
VERTEX
  8
PLAN_1
 62
     2
  6
CONTINUOUS
 10
-0.822386
 20
0.385685
  0
VERTEX
  8
PLAN_1
 62
     2
  6
CONTINUOUS
 10
-0.825591
 20
0.386142
  0
VERTEX
  8
PLAN_1
 62
     2
  6
CONTINUOUS
 10
-0.829256
 20
0.386598
  0
VERTEX
  8
PLAN_1
 62
     2
  6
CONTINUOUS
 10
-0.831547
 20
0.386598
  0
VERTEX
  8
PLAN_1
 62
     2
  6
CONTINUOUS
 10
-0.833835
 20
0.386142
  0
VERTEX
  8
PLAN_1
 62
     2
  6
CONTINUOUS
 10
-0.835209
 20
0.385685
  0
VERTEX
  8
PLAN_1
 62
     2
  6
CONTINUOUS
 10
-0.837043
 20
0.384768
  0
VERTEX
  8
PLAN_1
 62
     2
  6
CONTINUOUS
 10
-0.839331
 20
0.382937
  0
VERTEX
  8
PLAN_1
 62
     2
  6
CONTINUOUS
 10
-0.841165
 20
0.380646
  0
VERTEX
  8
PLAN_1
 62
     2
  6
CONTINUOUS
 10
-0.842079
 20
0.378358
  0
VERTEX
  8
PLAN_1
 62
     2
  6
CONTINUOUS
 10
-0.842996
 20
0.375610
  0
VERTEX
  8
PLAN_1
 62
     2
  6
CONTINUOUS
 10
-0.843453
 20
0.372862
  0
VERTEX
  8
PLAN_1
 62
     2
  6
CONTINUOUS
 10
-0.843453
 20
0.371028
  0
VERTEX
  8
PLAN_1
 62
     2
  6
CONTINUOUS
 10
-0.852614
 20
0.371028
  0
VERTEX
  8
PLAN_1
 62
     2
  6
CONTINUOUS
 10
-0.852154
 20
0.375150
  0
VERTEX
  8
PLAN_1
 62
     2
  6
CONTINUOUS
 10
-0.851697
 20
0.379272
  0
VERTEX
  8
PLAN_1
 62
     2
  6
CONTINUOUS
 10
-0.849866
 20
0.383394
  0
VERTEX
  8
PLAN_1
 62
     2
  6
CONTINUOUS
 10
-0.848035
 20
0.387059
  0
VERTEX
  8
PLAN_1
 62
     2
  6
CONTINUOUS
 10
-0.846661
 20
0.388433
  0
VERTEX
  8
PLAN_1
 62
     2
  6
CONTINUOUS
 10
-0.844827
 20
0.390264
  0
VERTEX
  8
PLAN_1
 62
     2
  6
CONTINUOUS
 10
-0.842996
 20
0.391638
  0
VERTEX
  8
PLAN_1
 62
     2
  6
CONTINUOUS
 10
-0.840705
 20
0.392555
  0
VERTEX
  8
PLAN_1
 62
     2
  6
CONTINUOUS
 10
-0.838417
 20
0.393469
  0
VERTEX
  8
PLAN_1
 62
     2
  6
CONTINUOUS
 10
-0.835209
 20
0.394386
  0
VERTEX
  8
PLAN_1
 62
     2
  6
CONTINUOUS
 10
-0.832461
 20
0.394843
  0
VERTEX
  8
PLAN_1
 62
     2
  6
CONTINUOUS
 10
-0.828799
 20
0.394843
  0
VERTEX
  8
PLAN_1
 62
     2
  6
CONTINUOUS
 10
-0.823760
 20
0.394386
  0
VERTEX
  8
PLAN_1
 62
     2
  6
CONTINUOUS
 10
-0.819181
 20
0.393469
  0
VERTEX
  8
PLAN_1
 62
     2
  6
CONTINUOUS
 10
-0.815516
 20
0.391638
  0
VERTEX
  8
PLAN_1
 62
     2
  6
CONTINUOUS
 10
-0.812311
 20
0.389346
  0
VERTEX
  8
PLAN_1
 62
     2
  6
CONTINUOUS
 10
-0.809563
 20
0.386598
  0
VERTEX
  8
PLAN_1
 62
     2
  6
CONTINUOUS
 10
-0.807728
 20
0.383394
  0
VERTEX
  8
PLAN_1
 62
     2
  6
CONTINUOUS
 10
-0.806815
 20
0.379728
  0
VERTEX
  8
PLAN_1
 62
     2
  6
CONTINUOUS
 10
-0.806354
 20
0.375610
  0
VERTEX
  8
PLAN_1
 62
     2
  6
CONTINUOUS
 10
-0.806354
 20
0.372402
  0
VERTEX
  8
PLAN_1
 62
     2
  6
CONTINUOUS
 10
-0.807272
 20
0.369654
  0
VERTEX
  8
PLAN_1
 62
     2
  6
CONTINUOUS
 10
-0.808189
 20
0.366906
  0
VERTEX
  8
PLAN_1
 62
     2
  6
CONTINUOUS
 10
-0.809563
 20
0.365075
  0
VERTEX
  8
PLAN_1
 62
     2
  6
CONTINUOUS
 10
-0.810937
 20
0.363244
  0
VERTEX
  8
PLAN_1
 62
     2
  6
CONTINUOUS
 10
-0.812311
 20
0.362327
  0
VERTEX
  8
PLAN_1
 62
     2
  6
CONTINUOUS
 10
-0.814142
 20
0.360953
  0
VERTEX
  8
PLAN_1
 62
     2
  6
CONTINUOUS
 10
-0.815516
 20
0.360496
  0
VERTEX
  8
PLAN_1
 62
     2
  6
CONTINUOUS
 10
-0.813224
 20
0.359122
  0
VERTEX
  8
PLAN_1
 62
     2
  6
CONTINUOUS
 10
-0.810937
 20
0.358205
  0
VERTEX
  8
PLAN_1
 62
     2
  6
CONTINUOUS
 10
-0.808646
 20
0.356374
  0
VERTEX
  8
PLAN_1
 62
     2
  6
CONTINUOUS
 10
-0.806815
 20
0.354539
  0
VERTEX
  8
PLAN_1
 62
     2
  6
CONTINUOUS
 10
-0.805441
 20
0.352252
  0
VERTEX
  8
PLAN_1
 62
     2
  6
CONTINUOUS
 10
-0.804524
 20
0.349961
  0
VERTEX
  8
PLAN_1
 62
     2
  6
CONTINUOUS
 10
-0.803606
 20
0.346756
  0
VERTEX
  8
PLAN_1
 62
     2
  6
CONTINUOUS
 10
-0.803606
 20
0.343091
  0
VERTEX
  8
PLAN_1
 62
     2
  6
CONTINUOUS
 10
-0.804067
 20
0.338969
  0
VERTEX
  8
PLAN_1
 62
     2
  6
CONTINUOUS
 10
-0.804980
 20
0.334390
  0
VERTEX
  8
PLAN_1
 62
     2
  6
CONTINUOUS
 10
-0.805898
 20
0.332555
  0
VERTEX
  8
PLAN_1
 62
     2
  6
CONTINUOUS
 10
-0.806815
 20
0.330724
  0
VERTEX
  8
PLAN_1
 62
     2
  6
CONTINUOUS
 10
-0.808189
 20
0.328894
  0
VERTEX
  8
PLAN_1
 62
     2
  6
CONTINUOUS
 10
-0.809563
 20
0.327059
  0
VERTEX
  8
PLAN_1
 62
     2
  6
CONTINUOUS
 10
-0.811394
 20
0.325228
  0
VERTEX
  8
PLAN_1
 62
     2
  6
CONTINUOUS
 10
-0.813224
 20
0.323854
  0
VERTEX
  8
PLAN_1
 62
     2
  6
CONTINUOUS
 10
-0.815516
 20
0.322937
  0
VERTEX
  8
PLAN_1
 62
     2
  6
CONTINUOUS
 10
-0.817807
 20
0.321563
  0
VERTEX
  8
PLAN_1
 62
     2
  6
CONTINUOUS
 10
-0.820555
 20
0.321106
  0
VERTEX
  8
PLAN_1
 62
     2
  6
CONTINUOUS
 10
-0.823303
 20
0.320189
  0
VERTEX
  8
PLAN_1
 62
     2
  6
CONTINUOUS
 10
-0.826508
 20
0.319732
  0
VERTEX
  8
PLAN_1
 62
     2
  6
CONTINUOUS
 10
-0.829713
 20
0.319732
  0
VERTEX
  8
PLAN_1
 62
     2
  6
CONTINUOUS
 10
-0.832004
 20
0.319732
  0
VERTEX
  8
PLAN_1
 62
     2
  6
CONTINUOUS
 10
-0.833835
 20
0.320189
  0
VERTEX
  8
PLAN_1
 62
     2
  6
CONTINUOUS
 10
-0.835669
 20
0.320189
  0
VERTEX
  8
PLAN_1
 62
     2
  6
CONTINUOUS
 10
-0.837500
 20
0.320650
  0
VERTEX
  8
PLAN_1
 62
     2
  6
CONTINUOUS
 10
-0.838874
 20
0.321106
  0
VERTEX
  8
PLAN_1
 62
     2
  6
CONTINUOUS
 10
-0.840705
 20
0.321563
  0
VERTEX
  8
PLAN_1
 62
     2
  6
CONTINUOUS
 10
-0.842079
 20
0.322480
  0
VERTEX
  8
PLAN_1
 62
     2
  6
CONTINUOUS
 10
-0.843453
 20
0.322937
  0
VERTEX
  8
PLAN_1
 62
     2
  6
CONTINUOUS
 10
-0.846201
 20
0.324772
  0
VERTEX
  8
PLAN_1
 62
     2
  6
CONTINUOUS
 10
-0.848492
 20
0.327059
  0
VERTEX
  8
PLAN_1
 62
     2
  6
CONTINUOUS
 10
-0.850323
 20
0.329350
  0
VERTEX
  8
PLAN_1
 62
     2
  6
CONTINUOUS
 10
-0.851697
 20
0.332098
  0
VERTEX
  8
PLAN_1
 62
     2
  6
CONTINUOUS
 10
-0.852614
 20
0.334846
  0
VERTEX
  8
PLAN_1
 62
     2
  6
CONTINUOUS
 10
-0.853528
 20
0.338051
  0
VERTEX
  8
PLAN_1
 62
     2
  6
CONTINUOUS
 10
-0.853988
 20
0.340799
  0
VERTEX
  8
PLAN_1
 62
     2
  6
CONTINUOUS
 10
-0.854445
 20
0.344008
  0
VERTEX
  8
PLAN_1
 62
     2
  6
CONTINUOUS
 10
-0.844827
 20
0.344008
  0
VERTEX
  8
PLAN_1
 62
     2
  6
CONTINUOUS
 10
-0.844370
 20
0.341260
  0
VERTEX
  8
PLAN_1
 62
     2
  6
CONTINUOUS
 10
-0.843913
 20
0.338512
  0
VERTEX
  8
PLAN_1
 62
     2
  6
CONTINUOUS
 10
-0.843453
 20
0.335764
  0
VERTEX
  8
PLAN_1
 62
     2
  6
CONTINUOUS
 10
-0.842079
 20
0.333472
  0
VERTEX
  8
PLAN_1
 62
     2
  6
CONTINUOUS
 10
-0.840248
 20
0.331181
  0
VERTEX
  8
PLAN_1
 62
     2
  6
CONTINUOUS
 10
-0.837500
 20
0.329350
  0
VERTEX
  8
PLAN_1
 62
     2
  6
CONTINUOUS
 10
-0.835669
 20
0.328894
  0
VERTEX
  8
PLAN_1
 62
     2
  6
CONTINUOUS
 10
-0.833835
 20
0.328433
  0
VERTEX
  8
PLAN_1
 62
     2
  6
CONTINUOUS
 10
-0.831547
 20
0.327976
  0
VERTEX
  8
PLAN_1
 62
     2
  6
CONTINUOUS
 10
-0.829256
 20
0.327976
  0
VERTEX
  8
PLAN_1
 62
     2
  6
CONTINUOUS
 10
-0.825591
 20
0.328433
  0
VERTEX
  8
PLAN_1
 62
     2
  6
CONTINUOUS
 10
-0.822843
 20
0.328894
  0
VERTEX
  8
PLAN_1
 62
     2
  6
CONTINUOUS
 10
-0.820094
 20
0.330268
  0
VERTEX
  8
PLAN_1
 62
     2
  6
CONTINUOUS
 10
-0.817807
 20
0.332098
  0
VERTEX
  8
PLAN_1
 62
     2
  6
CONTINUOUS
 10
-0.815972
 20
0.333929
  0
VERTEX
  8
PLAN_1
 62
     2
  6
CONTINUOUS
 10
-0.814598
 20
0.336220
  0
VERTEX
  8
PLAN_1
 62
     2
  6
CONTINUOUS
 10
-0.813685
 20
0.338969
  0
VERTEX
  8
PLAN_1
 62
     2
  6
CONTINUOUS
 10
-0.813224
 20
0.342173
  0
VERTEX
  8
PLAN_1
 62
     2
  6
CONTINUOUS
 10
-0.813224
 20
0.344465
  0
VERTEX
  8
PLAN_1
 62
     2
  6
CONTINUOUS
 10
-0.813685
 20
0.346295
  0
VERTEX
  8
PLAN_1
 62
     2
  6
CONTINUOUS
 10
-0.814142
 20
0.348130
  0
VERTEX
  8
PLAN_1
 62
     2
  6
CONTINUOUS
 10
-0.815059
 20
0.349504
  0
VERTEX
  8
PLAN_1
 62
     2
  6
CONTINUOUS
 10
-0.816890
 20
0.351791
  0
VERTEX
  8
PLAN_1
 62
     2
  6
CONTINUOUS
 10
-0.819638
 20
0.353626
  0
VERTEX
  8
PLAN_1
 62
     2
  6
CONTINUOUS
 10
-0.822386
 20
0.354539
  0
VERTEX
  8
PLAN_1
 62
     2
  6
CONTINUOUS
 10
-0.825134
 20
0.355000
  0
VERTEX
  8
PLAN_1
 62
     2
  6
CONTINUOUS
 10
-0.827882
 20
0.355457
  0
VERTEX
  8
PLAN_1
 62
     2
  6
CONTINUOUS
 10
-0.830173
 20
0.355457
  0
VERTEX
  8
PLAN_1
 62
     2
  6
CONTINUOUS
 10
-0.830630
 20
0.355457
  0
VERTEX
  8
PLAN_1
 62
     2
  6
CONTINUOUS
 10
-0.831547
 20
0.355457
  0
VERTEX
  8
PLAN_1
 62
     2
  6
CONTINUOUS
 10
-0.832004
 20
0.355457
  0
VERTEX
  8
PLAN_1
 62
     2
  6
CONTINUOUS
 10
-0.832461
 20
0.355457
  0
VERTEX
  8
PLAN_1
 62
     2
  6
CONTINUOUS
 10
-0.832921
 20
0.355457
  0
VERTEX
  8
PLAN_1
 62
     2
  6
CONTINUOUS
 10
-0.833378
 20
0.355457
  0
VERTEX
  8
PLAN_1
 62
     2
  6
CONTINUOUS
 10
-0.833835
 20
0.355457
  0
VERTEX
  8
PLAN_1
 62
     2
  6
CONTINUOUS
 10
-0.834295
 20
0.355457
  0
VERTEX
  8
PLAN_1
 62
     2
  6
CONTINUOUS
 10
-0.834295
 20
0.363244
  0
SEQEND
  8
0
  0
POLYLINE
  8
PLAN_1
 62
     2
  6
CONTINUOUS
 66
     1
 40
0.003000
 41
0.003000
  0
VERTEX
  8
PLAN_1
 62
     2
  6
CONTINUOUS
 10
-0.771091
 20
0.319732
  0
VERTEX
  8
PLAN_1
 62
     2
  6
CONTINUOUS
 10
-0.774756
 20
0.320189
  0
VERTEX
  8
PLAN_1
 62
     2
  6
CONTINUOUS
 10
-0.777961
 20
0.320650
  0
VERTEX
  8
PLAN_1
 62
     2
  6
CONTINUOUS
 10
-0.781165
 20
0.322024
  0
VERTEX
  8
PLAN_1
 62
     2
  6
CONTINUOUS
 10
-0.783913
 20
0.323398
  0
VERTEX
  8
PLAN_1
 62
     2
  6
CONTINUOUS
 10
-0.786205
 20
0.325228
  0
VERTEX
  8
PLAN_1
 62
     2
  6
CONTINUOUS
 10
-0.788035
 20
0.327520
  0
VERTEX
  8
PLAN_1
 62
     2
  6
CONTINUOUS
 10
-0.789866
 20
0.330268
  0
VERTEX
  8
PLAN_1
 62
     2
  6
CONTINUOUS
 10
-0.791240
 20
0.333016
  0
VERTEX
  8
PLAN_1
 62
     2
  6
CONTINUOUS
 10
-0.793531
 20
0.338969
  0
VERTEX
  8
PLAN_1
 62
     2
  6
CONTINUOUS
 10
-0.794906
 20
0.344921
  0
VERTEX
  8
PLAN_1
 62
     2
  6
CONTINUOUS
 10
-0.795823
 20
0.351335
  0
VERTEX
  8
PLAN_1
 62
     2
  6
CONTINUOUS
 10
-0.795823
 20
0.357287
  0
VERTEX
  8
PLAN_1
 62
     2
  6
CONTINUOUS
 10
-0.795823
 20
0.363244
  0
VERTEX
  8
PLAN_1
 62
     2
  6
CONTINUOUS
 10
-0.794906
 20
0.369654
  0
VERTEX
  8
PLAN_1
 62
     2
  6
CONTINUOUS
 10
-0.793531
 20
0.376067
  0
VERTEX
  8
PLAN_1
 62
     2
  6
CONTINUOUS
 10
-0.791240
 20
0.382020
  0
VERTEX
  8
PLAN_1
 62
     2
  6
CONTINUOUS
 10
-0.789866
 20
0.384311
  0
VERTEX
  8
PLAN_1
 62
     2
  6
CONTINUOUS
 10
-0.788035
 20
0.387059
  0
VERTEX
  8
PLAN_1
 62
     2
  6
CONTINUOUS
 10
-0.786205
 20
0.389346
  0
VERTEX
  8
PLAN_1
 62
     2
  6
CONTINUOUS
 10
-0.783913
 20
0.391181
  0
VERTEX
  8
PLAN_1
 62
     2
  6
CONTINUOUS
 10
-0.781165
 20
0.392555
  0
VERTEX
  8
PLAN_1
 62
     2
  6
CONTINUOUS
 10
-0.777961
 20
0.393929
  0
VERTEX
  8
PLAN_1
 62
     2
  6
CONTINUOUS
 10
-0.774756
 20
0.394843
  0
VERTEX
  8
PLAN_1
 62
     2
  6
CONTINUOUS
 10
-0.771091
 20
0.394843
  0
VERTEX
  8
PLAN_1
 62
     2
  6
CONTINUOUS
 10
-0.767425
 20
0.394843
  0
VERTEX
  8
PLAN_1
 62
     2
  6
CONTINUOUS
 10
-0.763764
 20
0.393929
  0
VERTEX
  8
PLAN_1
 62
     2
  6
CONTINUOUS
 10
-0.761016
 20
0.392555
  0
VERTEX
  8
PLAN_1
 62
     2
  6
CONTINUOUS
 10
-0.758268
 20
0.391181
  0
VERTEX
  8
PLAN_1
 62
     2
  6
CONTINUOUS
 10
-0.755976
 20
0.389346
  0
VERTEX
  8
PLAN_1
 62
     2
  6
CONTINUOUS
 10
-0.753685
 20
0.387059
  0
VERTEX
  8
PLAN_1
 62
     2
  6
CONTINUOUS
 10
-0.751854
 20
0.384311
  0
VERTEX
  8
PLAN_1
 62
     2
  6
CONTINUOUS
 10
-0.750480
 20
0.382020
  0
VERTEX
  8
PLAN_1
 62
     2
  6
CONTINUOUS
 10
-0.748189
 20
0.376067
  0
VERTEX
  8
PLAN_1
 62
     2
  6
CONTINUOUS
 10
-0.746815
 20
0.369654
  0
VERTEX
  8
PLAN_1
 62
     2
  6
CONTINUOUS
 10
-0.745902
 20
0.363244
  0
VERTEX
  8
PLAN_1
 62
     2
  6
CONTINUOUS
 10
-0.745902
 20
0.357287
  0
VERTEX
  8
PLAN_1
 62
     2
  6
CONTINUOUS
 10
-0.745902
 20
0.351335
  0
VERTEX
  8
PLAN_1
 62
     2
  6
CONTINUOUS
 10
-0.746815
 20
0.344921
  0
VERTEX
  8
PLAN_1
 62
     2
  6
CONTINUOUS
 10
-0.748189
 20
0.338969
  0
VERTEX
  8
PLAN_1
 62
     2
  6
CONTINUOUS
 10
-0.750480
 20
0.333016
  0
VERTEX
  8
PLAN_1
 62
     2
  6
CONTINUOUS
 10
-0.751854
 20
0.330268
  0
VERTEX
  8
PLAN_1
 62
     2
  6
CONTINUOUS
 10
-0.753685
 20
0.327520
  0
VERTEX
  8
PLAN_1
 62
     2
  6
CONTINUOUS
 10
-0.755976
 20
0.325228
  0
VERTEX
  8
PLAN_1
 62
     2
  6
CONTINUOUS
 10
-0.758268
 20
0.323398
  0
VERTEX
  8
PLAN_1
 62
     2
  6
CONTINUOUS
 10
-0.761016
 20
0.322024
  0
VERTEX
  8
PLAN_1
 62
     2
  6
CONTINUOUS
 10
-0.763764
 20
0.320650
  0
VERTEX
  8
PLAN_1
 62
     2
  6
CONTINUOUS
 10
-0.767425
 20
0.320189
  0
VERTEX
  8
PLAN_1
 62
     2
  6
CONTINUOUS
 10
-0.771091
 20
0.319732
  0
SEQEND
  8
0
  0
POLYLINE
  8
PLAN_1
 62
     2
  6
CONTINUOUS
 66
     1
 40
0.003000
 41
0.003000
  0
VERTEX
  8
PLAN_1
 62
     2
  6
CONTINUOUS
 10
-0.771091
 20
0.386598
  0
VERTEX
  8
PLAN_1
 62
     2
  6
CONTINUOUS
 10
-0.772921
 20
0.386598
  0
VERTEX
  8
PLAN_1
 62
     2
  6
CONTINUOUS
 10
-0.774756
 20
0.386142
  0
VERTEX
  8
PLAN_1
 62
     2
  6
CONTINUOUS
 10
-0.776130
 20
0.385685
  0
VERTEX
  8
PLAN_1
 62
     2
  6
CONTINUOUS
 10
-0.777961
 20
0.384768
  0
VERTEX
  8
PLAN_1
 62
     2
  6
CONTINUOUS
 10
-0.779335
 20
0.383394
  0
VERTEX
  8
PLAN_1
 62
     2
  6
CONTINUOUS
 10
-0.780252
 20
0.382020
  0
VERTEX
  8
PLAN_1
 62
     2
  6
CONTINUOUS
 10
-0.781626
 20
0.380646
  0
VERTEX
  8
PLAN_1
 62
     2
  6
CONTINUOUS
 10
-0.782539
 20
0.378815
  0
VERTEX
  8
PLAN_1
 62
     2
  6
CONTINUOUS
 10
-0.784370
 20
0.374693
  0
VERTEX
  8
PLAN_1
 62
     2
  6
CONTINUOUS
 10
-0.785287
 20
0.369654
  0
VERTEX
  8
PLAN_1
 62
     2
  6
CONTINUOUS
 10
-0.786205
 20
0.363701
  0
VERTEX
  8
PLAN_1
 62
     2
  6
CONTINUOUS
 10
-0.786205
 20
0.357287
  0
VERTEX
  8
PLAN_1
 62
     2
  6
CONTINUOUS
 10
-0.786205
 20
0.350878
  0
VERTEX
  8
PLAN_1
 62
     2
  6
CONTINUOUS
 10
-0.785287
 20
0.344921
  0
VERTEX
  8
PLAN_1
 62
     2
  6
CONTINUOUS
 10
-0.784370
 20
0.339886
  0
VERTEX
  8
PLAN_1
 62
     2
  6
CONTINUOUS
 10
-0.782539
 20
0.335764
  0
VERTEX
  8
PLAN_1
 62
     2
  6
CONTINUOUS
 10
-0.781626
 20
0.333929
  0
VERTEX
  8
PLAN_1
 62
     2
  6
CONTINUOUS
 10
-0.780252
 20
0.332555
  0
VERTEX
  8
PLAN_1
 62
     2
  6
CONTINUOUS
 10
-0.779335
 20
0.331181
  0
VERTEX
  8
PLAN_1
 62
     2
  6
CONTINUOUS
 10
-0.777961
 20
0.329807
  0
VERTEX
  8
PLAN_1
 62
     2
  6
CONTINUOUS
 10
-0.776130
 20
0.328894
  0
VERTEX
  8
PLAN_1
 62
     2
  6
CONTINUOUS
 10
-0.774756
 20
0.328433
  0
VERTEX
  8
PLAN_1
 62
     2
  6
CONTINUOUS
 10
-0.772921
 20
0.327976
  0
VERTEX
  8
PLAN_1
 62
     2
  6
CONTINUOUS
 10
-0.771091
 20
0.327976
  0
VERTEX
  8
PLAN_1
 62
     2
  6
CONTINUOUS
 10
-0.769260
 20
0.327976
  0
VERTEX
  8
PLAN_1
 62
     2
  6
CONTINUOUS
 10
-0.767425
 20
0.328433
  0
VERTEX
  8
PLAN_1
 62
     2
  6
CONTINUOUS
 10
-0.765594
 20
0.328894
  0
VERTEX
  8
PLAN_1
 62
     2
  6
CONTINUOUS
 10
-0.764220
 20
0.329807
  0
VERTEX
  8
PLAN_1
 62
     2
  6
CONTINUOUS
 10
-0.762846
 20
0.331181
  0
VERTEX
  8
PLAN_1
 62
     2
  6
CONTINUOUS
 10
-0.761472
 20
0.332555
  0
VERTEX
  8
PLAN_1
 62
     2
  6
CONTINUOUS
 10
-0.760555
 20
0.333929
  0
VERTEX
  8
PLAN_1
 62
     2
  6
CONTINUOUS
 10
-0.759181
 20
0.335764
  0
VERTEX
  8
PLAN_1
 62
     2
  6
CONTINUOUS
 10
-0.757807
 20
0.339886
  0
VERTEX
  8
PLAN_1
 62
     2
  6
CONTINUOUS
 10
-0.756433
 20
0.344921
  0
VERTEX
  8
PLAN_1
 62
     2
  6
CONTINUOUS
 10
-0.755976
 20
0.350878
  0
VERTEX
  8
PLAN_1
 62
     2
  6
CONTINUOUS
 10
-0.755520
 20
0.357287
  0
VERTEX
  8
PLAN_1
 62
     2
  6
CONTINUOUS
 10
-0.755976
 20
0.363701
  0
VERTEX
  8
PLAN_1
 62
     2
  6
CONTINUOUS
 10
-0.756433
 20
0.369654
  0
VERTEX
  8
PLAN_1
 62
     2
  6
CONTINUOUS
 10
-0.757807
 20
0.374693
  0
VERTEX
  8
PLAN_1
 62
     2
  6
CONTINUOUS
 10
-0.759181
 20
0.378815
  0
VERTEX
  8
PLAN_1
 62
     2
  6
CONTINUOUS
 10
-0.760555
 20
0.380646
  0
VERTEX
  8
PLAN_1
 62
     2
  6
CONTINUOUS
 10
-0.761472
 20
0.382020
  0
VERTEX
  8
PLAN_1
 62
     2
  6
CONTINUOUS
 10
-0.762846
 20
0.383394
  0
VERTEX
  8
PLAN_1
 62
     2
  6
CONTINUOUS
 10
-0.764220
 20
0.384768
  0
VERTEX
  8
PLAN_1
 62
     2
  6
CONTINUOUS
 10
-0.765594
 20
0.385685
  0
VERTEX
  8
PLAN_1
 62
     2
  6
CONTINUOUS
 10
-0.767425
 20
0.386142
  0
VERTEX
  8
PLAN_1
 62
     2
  6
CONTINUOUS
 10
-0.769260
 20
0.386598
  0
VERTEX
  8
PLAN_1
 62
     2
  6
CONTINUOUS
 10
-0.771091
 20
0.386598
  0
SEQEND
  8
0
  0
SOLID
  8
PLAN_1
 62
     2
 10
0.213602
 20
0.354539
 11
0.160933
 21
0.354539
 12
0.213602
 22
0.362327
 13
0.160933
 23
0.362327
  0
POLYLINE
  8
PLAN_1
 62
     2
  6
CONTINUOUS
 66
     1
 40
0.003000
 41
0.003000
  0
VERTEX
  8
PLAN_1
 62
     2
  6
CONTINUOUS
 10
0.213602
 20
0.354539
  0
VERTEX
  8
PLAN_1
 62
     2
  6
CONTINUOUS
 10
0.160933
 20
0.354539
  0
VERTEX
  8
PLAN_1
 62
     2
  6
CONTINUOUS
 10
0.160933
 20
0.362327
  0
VERTEX
  8
PLAN_1
 62
     2
  6
CONTINUOUS
 10
0.213602
 20
0.362327
  0
VERTEX
  8
PLAN_1
 62
     2
  6
CONTINUOUS
 10
0.213602
 20
0.354539
  0
SEQEND
  8
0
  0
SOLID
  8
PLAN_1
 62
     2
 10
0.213602
 20
0.333929
 11
0.160933
 21
0.333929
 12
0.213602
 22
0.341260
 13
0.160933
 23
0.341260
  0
POLYLINE
  8
PLAN_1
 62
     2
  6
CONTINUOUS
 66
     1
 40
0.003000
 41
0.003000
  0
VERTEX
  8
PLAN_1
 62
     2
  6
CONTINUOUS
 10
0.213602
 20
0.333929
  0
VERTEX
  8
PLAN_1
 62
     2
  6
CONTINUOUS
 10
0.160933
 20
0.333929
  0
VERTEX
  8
PLAN_1
 62
     2
  6
CONTINUOUS
 10
0.160933
 20
0.341260
  0
VERTEX
  8
PLAN_1
 62
     2
  6
CONTINUOUS
 10
0.213602
 20
0.341260
  0
VERTEX
  8
PLAN_1
 62
     2
  6
CONTINUOUS
 10
0.213602
 20
0.333929
  0
SEQEND
  8
0
  0
SOLID
  8
PLAN_1
 62
     2
 10
-1.754866
 20
0.354539
 11
-1.807535
 21
0.354539
 12
-1.754866
 22
0.362327
 13
-1.807535
 23
0.362327
  0
POLYLINE
  8
PLAN_1
 62
     2
  6
CONTINUOUS
 66
     1
 40
0.003000
 41
0.003000
  0
VERTEX
  8
PLAN_1
 62
     2
  6
CONTINUOUS
 10
-1.754866
 20
0.354539
  0
VERTEX
  8
PLAN_1
 62
     2
  6
CONTINUOUS
 10
-1.807535
 20
0.354539
  0
VERTEX
  8
PLAN_1
 62
     2
  6
CONTINUOUS
 10
-1.807535
 20
0.362327
  0
VERTEX
  8
PLAN_1
 62
     2
  6
CONTINUOUS
 10
-1.754866
 20
0.362327
  0
VERTEX
  8
PLAN_1
 62
     2
  6
CONTINUOUS
 10
-1.754866
 20
0.354539
  0
SEQEND
  8
0
  0
SOLID
  8
PLAN_1
 62
     2
 10
-1.754866
 20
0.333929
 11
-1.807535
 21
0.333929
 12
-1.754866
 22
0.341260
 13
-1.807535
 23
0.341260
  0
POLYLINE
  8
PLAN_1
 62
     2
  6
CONTINUOUS
 66
     1
 40
0.003000
 41
0.003000
  0
VERTEX
  8
PLAN_1
 62
     2
  6
CONTINUOUS
 10
-1.754866
 20
0.333929
  0
VERTEX
  8
PLAN_1
 62
     2
  6
CONTINUOUS
 10
-1.807535
 20
0.333929
  0
VERTEX
  8
PLAN_1
 62
     2
  6
CONTINUOUS
 10
-1.807535
 20
0.341260
  0
VERTEX
  8
PLAN_1
 62
     2
  6
CONTINUOUS
 10
-1.754866
 20
0.341260
  0
VERTEX
  8
PLAN_1
 62
     2
  6
CONTINUOUS
 10
-1.754866
 20
0.333929
  0
SEQEND
  8
0
  0
POLYLINE
  8
PLAN_1
 62
     2
  6
CONTINUOUS
 66
     1
 40
0.004118
 41
0.004118
  0
VERTEX
  8
PLAN_1
 62
     2
  6
CONTINUOUS
 10
-1.649984
 20
0.556516
  0
VERTEX
  8
PLAN_1
 62
     2
  6
CONTINUOUS
 10
-1.649984
 20
0.117756
  0
SEQEND
  8
0
  0
POLYLINE
  8
PLAN_1
 62
     2
  6
CONTINUOUS
 66
     1
 40
0.004118
 41
0.004118
  0
VERTEX
  8
PLAN_1
 62
     2
  6
CONTINUOUS
 10
0.062465
 20
0.556516
  0
VERTEX
  8
PLAN_1
 62
     2
  6
CONTINUOUS
 10
0.062465
 20
0.117756
  0
SEQEND
  8
0
  0
POLYLINE
  8
PLAN_1
 62
     2
  6
CONTINUOUS
 66
     1
 40
0.004118
 41
0.004118
  0
VERTEX
  8
PLAN_1
 62
     2
  6
CONTINUOUS
 10
-1.431980
 20
0.427362
  0
VERTEX
  8
PLAN_1
 62
     2
  6
CONTINUOUS
 10
-1.431980
 20
0.269811
  0
SEQEND
  8
0
  0
POLYLINE
  8
PLAN_1
 62
     2
  6
CONTINUOUS
 66
     1
 40
0.004118
 41
0.004118
  0
VERTEX
  8
PLAN_1
 62
     2
  6
CONTINUOUS
 10
-0.251264
 20
0.431941
  0
VERTEX
  8
PLAN_1
 62
     2
  6
CONTINUOUS
 10
-0.251264
 20
0.273933
  0
SEQEND
  8
0
  0
SOLID
  8
PLAN_1
 62
     2
 10
-1.513504
 20
0.744295
 11
-1.544189
 21
0.797425
 12
-1.513504
 22
0.744295
 13
-1.566173
 23
0.774980
  0
POLYLINE
  8
PLAN_1
 62
     2
  6
CONTINUOUS
 66
     1
 40
0.003000
 41
0.003000
  0
VERTEX
  8
PLAN_1
 62
     2
  6
CONTINUOUS
 10
-1.513504
 20
0.744295
  0
VERTEX
  8
PLAN_1
 62
     2
  6
CONTINUOUS
 10
-1.544189
 20
0.797425
  0
VERTEX
  8
PLAN_1
 62
     2
  6
CONTINUOUS
 10
-1.566173
 20
0.774980
  0
VERTEX
  8
PLAN_1
 62
     2
  6
CONTINUOUS
 10
-1.513504
 20
0.744295
  0
SEQEND
  8
0
  0
POLYLINE
  8
PLAN_1
 62
     2
  6
CONTINUOUS
 66
     1
 40
0.004118
 41
0.004118
  0
VERTEX
  8
PLAN_1
 62
     2
  6
CONTINUOUS
 10
-1.540067
 20
0.770858
  0
VERTEX
  8
PLAN_1
 62
     2
  6
CONTINUOUS
 10
-1.889976
 20
1.120768
  0
VERTEX
  8
PLAN_1
 62
     2
  6
CONTINUOUS
 10
-2.334232
 20
1.120768
  0
SEQEND
  8
0
  0
POLYLINE
  8
PLAN_1
 62
     2
  6
CONTINUOUS
 66
     1
 40
0.003000
 41
0.003000
  0
VERTEX
  8
PLAN_1
 62
     2
  6
CONTINUOUS
 10
-2.306295
 20
1.191299
  0
VERTEX
  8
PLAN_1
 62
     2
  6
CONTINUOUS
 10
-2.305839
 20
1.195882
  0
VERTEX
  8
PLAN_1
 62
     2
  6
CONTINUOUS
 10
-2.305378
 20
1.199543
  0
VERTEX
  8
PLAN_1
 62
     2
  6
CONTINUOUS
 10
-2.304465
 20
1.202752
  0
VERTEX
  8
PLAN_1
 62
     2
  6
CONTINUOUS
 10
-2.303091
 20
1.205500
  0
VERTEX
  8
PLAN_1
 62
     2
  6
CONTINUOUS
 10
-2.301717
 20
1.208248
  0
VERTEX
  8
PLAN_1
 62
     2
  6
CONTINUOUS
 10
-2.300343
 20
1.210079
  0
VERTEX
  8
PLAN_1
 62
     2
  6
CONTINUOUS
 10
-2.298508
 20
1.211909
  0
VERTEX
  8
PLAN_1
 62
     2
  6
CONTINUOUS
 10
-2.296677
 20
1.213744
  0
VERTEX
  8
PLAN_1
 62
     2
  6
CONTINUOUS
 10
-2.292555
 20
1.215575
  0
VERTEX
  8
PLAN_1
 62
     2
  6
CONTINUOUS
 10
-2.287976
 20
1.216949
  0
VERTEX
  8
PLAN_1
 62
     2
  6
CONTINUOUS
 10
-2.284311
 20
1.217406
  0
VERTEX
  8
PLAN_1
 62
     2
  6
CONTINUOUS
 10
-2.280646
 20
1.217862
  0
VERTEX
  8
PLAN_1
 62
     2
  6
CONTINUOUS
 10
-2.276067
 20
1.217406
  0
VERTEX
  8
PLAN_1
 62
     2
  6
CONTINUOUS
 10
-2.271945
 20
1.216031
  0
VERTEX
  8
PLAN_1
 62
     2
  6
CONTINUOUS
 10
-2.267823
 20
1.214201
  0
VERTEX
  8
PLAN_1
 62
     2
  6
CONTINUOUS
 10
-2.264618
 20
1.211909
  0
VERTEX
  8
PLAN_1
 62
     2
  6
CONTINUOUS
 10
-2.261870
 20
1.208705
  0
VERTEX
  8
PLAN_1
 62
     2
  6
CONTINUOUS
 10
-2.259579
 20
1.205039
  0
VERTEX
  8
PLAN_1
 62
     2
  6
CONTINUOUS
 10
-2.259122
 20
1.202752
  0
VERTEX
  8
PLAN_1
 62
     2
  6
CONTINUOUS
 10
-2.258205
 20
1.200917
  0
VERTEX
  8
PLAN_1
 62
     2
  6
CONTINUOUS
 10
-2.258205
 20
1.198169
  0
VERTEX
  8
PLAN_1
 62
     2
  6
CONTINUOUS
 10
-2.257748
 20
1.195882
  0
VERTEX
  8
PLAN_1
 62
     2
  6
CONTINUOUS
 10
-2.258205
 20
1.191299
  0
VERTEX
  8
PLAN_1
 62
     2
  6
CONTINUOUS
 10
-2.259579
 20
1.187177
  0
VERTEX
  8
PLAN_1
 62
     2
  6
CONTINUOUS
 10
-2.261409
 20
1.183972
  0
VERTEX
  8
PLAN_1
 62
     2
  6
CONTINUOUS
 10
-2.263701
 20
1.180768
  0
VERTEX
  8
PLAN_1
 62
     2
  6
CONTINUOUS
 10
-2.266449
 20
1.178476
  0
VERTEX
  8
PLAN_1
 62
     2
  6
CONTINUOUS
 10
-2.269654
 20
1.175728
  0
VERTEX
  8
PLAN_1
 62
     2
  6
CONTINUOUS
 10
-2.273776
 20
1.173437
  0
VERTEX
  8
PLAN_1
 62
     2
  6
CONTINUOUS
 10
-2.277441
 20
1.171606
  0
VERTEX
  8
PLAN_1
 62
     2
  6
CONTINUOUS
 10
-2.285228
 20
1.167484
  0
VERTEX
  8
PLAN_1
 62
     2
  6
CONTINUOUS
 10
-2.288433
 20
1.165193
  0
VERTEX
  8
PLAN_1
 62
     2
  6
CONTINUOUS
 10
-2.291181
 20
1.163362
  0
VERTEX
  8
PLAN_1
 62
     2
  6
CONTINUOUS
 10
-2.293472
 20
1.161071
  0
VERTEX
  8
PLAN_1
 62
     2
  6
CONTINUOUS
 10
-2.294846
 20
1.159240
  0
VERTEX
  8
PLAN_1
 62
     2
  6
CONTINUOUS
 10
-2.296220
 20
1.157409
  0
VERTEX
  8
PLAN_1
 62
     2
  6
CONTINUOUS
 10
-2.297134
 20
1.156035
  0
VERTEX
  8
PLAN_1
 62
     2
  6
CONTINUOUS
 10
-2.297594
 20
1.154201
  0
VERTEX
  8
PLAN_1
 62
     2
  6
CONTINUOUS
 10
-2.297594
 20
1.153287
  0
VERTEX
  8
PLAN_1
 62
     2
  6
CONTINUOUS
 10
-2.257748
 20
1.153287
  0
VERTEX
  8
PLAN_1
 62
     2
  6
CONTINUOUS
 10
-2.257748
 20
1.144587
  0
VERTEX
  8
PLAN_1
 62
     2
  6
CONTINUOUS
 10
-2.308126
 20
1.144587
  0
VERTEX
  8
PLAN_1
 62
     2
  6
CONTINUOUS
 10
-2.307669
 20
1.150079
  0
VERTEX
  8
PLAN_1
 62
     2
  6
CONTINUOUS
 10
-2.306295
 20
1.154661
  0
VERTEX
  8
PLAN_1
 62
     2
  6
CONTINUOUS
 10
-2.304921
 20
1.158783
  0
VERTEX
  8
PLAN_1
 62
     2
  6
CONTINUOUS
 10
-2.303091
 20
1.162445
  0
VERTEX
  8
PLAN_1
 62
     2
  6
CONTINUOUS
 10
-2.300343
 20
1.166110
  0
VERTEX
  8
PLAN_1
 62
     2
  6
CONTINUOUS
 10
-2.297594
 20
1.168858
  0
VERTEX
  8
PLAN_1
 62
     2
  6
CONTINUOUS
 10
-2.294386
 20
1.171150
  0
VERTEX
  8
PLAN_1
 62
     2
  6
CONTINUOUS
 10
-2.290724
 20
1.173437
  0
VERTEX
  8
PLAN_1
 62
     2
  6
CONTINUOUS
 10
-2.281106
 20
1.179394
  0
VERTEX
  8
PLAN_1
 62
     2
  6
CONTINUOUS
 10
-2.278358
 20
1.180768
  0
VERTEX
  8
PLAN_1
 62
     2
  6
CONTINUOUS
 10
-2.275610
 20
1.182598
  0
VERTEX
  8
PLAN_1
 62
     2
  6
CONTINUOUS
 10
-2.273319
 20
1.183972
  0
VERTEX
  8
PLAN_1
 62
     2
  6
CONTINUOUS
 10
-2.271488
 20
1.185803
  0
VERTEX
  8
PLAN_1
 62
     2
  6
CONTINUOUS
 10
-2.270114
 20
1.188094
  0
VERTEX
  8
PLAN_1
 62
     2
  6
CONTINUOUS
 10
-2.268740
 20
1.190386
  0
VERTEX
  8
PLAN_1
 62
     2
  6
CONTINUOUS
 10
-2.267823
 20
1.193134
  0
VERTEX
  8
PLAN_1
 62
     2
  6
CONTINUOUS
 10
-2.267823
 20
1.196339
  0
VERTEX
  8
PLAN_1
 62
     2
  6
CONTINUOUS
 10
-2.267823
 20
1.198630
  0
VERTEX
  8
PLAN_1
 62
     2
  6
CONTINUOUS
 10
-2.268280
 20
1.200917
  0
VERTEX
  8
PLAN_1
 62
     2
  6
CONTINUOUS
 10
-2.269654
 20
1.203209
  0
VERTEX
  8
PLAN_1
 62
     2
  6
CONTINUOUS
 10
-2.271028
 20
1.205039
  0
VERTEX
  8
PLAN_1
 62
     2
  6
CONTINUOUS
 10
-2.272862
 20
1.206874
  0
VERTEX
  8
PLAN_1
 62
     2
  6
CONTINUOUS
 10
-2.275610
 20
1.208248
  0
VERTEX
  8
PLAN_1
 62
     2
  6
CONTINUOUS
 10
-2.278358
 20
1.209161
  0
VERTEX
  8
PLAN_1
 62
     2
  6
CONTINUOUS
 10
-2.282020
 20
1.209622
  0
VERTEX
  8
PLAN_1
 62
     2
  6
CONTINUOUS
 10
-2.284768
 20
1.209161
  0
VERTEX
  8
PLAN_1
 62
     2
  6
CONTINUOUS
 10
-2.286602
 20
1.209161
  0
VERTEX
  8
PLAN_1
 62
     2
  6
CONTINUOUS
 10
-2.288890
 20
1.208248
  0
VERTEX
  8
PLAN_1
 62
     2
  6
CONTINUOUS
 10
-2.290264
 20
1.207331
  0
VERTEX
  8
PLAN_1
 62
     2
  6
CONTINUOUS
 10
-2.293012
 20
1.205039
  0
VERTEX
  8
PLAN_1
 62
     2
  6
CONTINUOUS
 10
-2.294846
 20
1.202291
  0
VERTEX
  8
PLAN_1
 62
     2
  6
CONTINUOUS
 10
-2.295760
 20
1.199543
  0
VERTEX
  8
PLAN_1
 62
     2
  6
CONTINUOUS
 10
-2.296677
 20
1.196339
  0
VERTEX
  8
PLAN_1
 62
     2
  6
CONTINUOUS
 10
-2.296677
 20
1.193591
  0
VERTEX
  8
PLAN_1
 62
     2
  6
CONTINUOUS
 10
-2.297134
 20
1.191299
  0
VERTEX
  8
PLAN_1
 62
     2
  6
CONTINUOUS
 10
-2.306295
 20
1.191299
  0
SEQEND
  8
0
  0
POLYLINE
  8
PLAN_1
 62
     2
  6
CONTINUOUS
 66
     1
 40
0.003000
 41
0.003000
  0
VERTEX
  8
PLAN_1
 62
     2
  6
CONTINUOUS
 10
-2.173020
 20
1.144587
  0
VERTEX
  8
PLAN_1
 62
     2
  6
CONTINUOUS
 10
-2.184469
 20
1.144587
  0
VERTEX
  8
PLAN_1
 62
     2
  6
CONTINUOUS
 10
-2.198209
 20
1.165193
  0
VERTEX
  8
PLAN_1
 62
     2
  6
CONTINUOUS
 10
-2.211031
 20
1.144587
  0
VERTEX
  8
PLAN_1
 62
     2
  6
CONTINUOUS
 10
-2.222941
 20
1.144587
  0
VERTEX
  8
PLAN_1
 62
     2
  6
CONTINUOUS
 10
-2.203705
 20
1.172524
  0
VERTEX
  8
PLAN_1
 62
     2
  6
CONTINUOUS
 10
-2.222024
 20
1.199087
  0
VERTEX
  8
PLAN_1
 62
     2
  6
CONTINUOUS
 10
-2.210114
 20
1.199087
  0
VERTEX
  8
PLAN_1
 62
     2
  6
CONTINUOUS
 10
-2.197291
 20
1.179850
  0
VERTEX
  8
PLAN_1
 62
     2
  6
CONTINUOUS
 10
-2.184925
 20
1.199087
  0
VERTEX
  8
PLAN_1
 62
     2
  6
CONTINUOUS
 10
-2.173476
 20
1.199087
  0
VERTEX
  8
PLAN_1
 62
     2
  6
CONTINUOUS
 10
-2.192252
 20
1.172524
  0
VERTEX
  8
PLAN_1
 62
     2
  6
CONTINUOUS
 10
-2.173020
 20
1.144587
  0
SEQEND
  8
0
  0
POLYLINE
  8
PLAN_1
 62
     2
  6
CONTINUOUS
 66
     1
 40
0.003000
 41
0.003000
  0
VERTEX
  8
PLAN_1
 62
     2
  6
CONTINUOUS
 10
-2.074547
 20
1.208705
  0
VERTEX
  8
PLAN_1
 62
     2
  6
CONTINUOUS
 10
-2.072260
 20
1.205500
  0
VERTEX
  8
PLAN_1
 62
     2
  6
CONTINUOUS
 10
-2.070425
 20
1.202291
  0
VERTEX
  8
PLAN_1
 62
     2
  6
CONTINUOUS
 10
-2.069051
 20
1.199087
  0
VERTEX
  8
PLAN_1
 62
     2
  6
CONTINUOUS
 10
-2.068138
 20
1.195421
  0
VERTEX
  8
PLAN_1
 62
     2
  6
CONTINUOUS
 10
-2.067220
 20
1.192217
  0
VERTEX
  8
PLAN_1
 62
     2
  6
CONTINUOUS
 10
-2.066303
 20
1.188551
  0
VERTEX
  8
PLAN_1
 62
     2
  6
CONTINUOUS
 10
-2.066303
 20
1.185346
  0
VERTEX
  8
PLAN_1
 62
     2
  6
CONTINUOUS
 10
-2.065846
 20
1.182142
  0
VERTEX
  8
PLAN_1
 62
     2
  6
CONTINUOUS
 10
-2.066303
 20
1.175728
  0
VERTEX
  8
PLAN_1
 62
     2
  6
CONTINUOUS
 10
-2.067677
 20
1.168858
  0
VERTEX
  8
PLAN_1
 62
     2
  6
CONTINUOUS
 10
-2.068594
 20
1.165654
  0
VERTEX
  8
PLAN_1
 62
     2
  6
CONTINUOUS
 10
-2.069969
 20
1.162445
  0
VERTEX
  8
PLAN_1
 62
     2
  6
CONTINUOUS
 10
-2.071799
 20
1.159240
  0
VERTEX
  8
PLAN_1
 62
     2
  6
CONTINUOUS
 10
-2.073634
 20
1.156035
  0
VERTEX
  8
PLAN_1
 62
     2
  6
CONTINUOUS
 10
-2.075921
 20
1.153287
  0
VERTEX
  8
PLAN_1
 62
     2
  6
CONTINUOUS
 10
-2.078669
 20
1.150996
  0
VERTEX
  8
PLAN_1
 62
     2
  6
CONTINUOUS
 10
-2.081417
 20
1.148705
  0
VERTEX
  8
PLAN_1
 62
     2
  6
CONTINUOUS
 10
-2.085083
 20
1.146417
  0
VERTEX
  8
PLAN_1
 62
     2
  6
CONTINUOUS
 10
-2.088748
 20
1.145043
  0
VERTEX
  8
PLAN_1
 62
     2
  6
CONTINUOUS
 10
-2.092870
 20
1.143669
  0
VERTEX
  8
PLAN_1
 62
     2
  6
CONTINUOUS
 10
-2.097449
 20
1.142752
  0
VERTEX
  8
PLAN_1
 62
     2
  6
CONTINUOUS
 10
-2.102488
 20
1.142752
  0
VERTEX
  8
PLAN_1
 62
     2
  6
CONTINUOUS
 10
-2.106150
 20
1.142752
  0
VERTEX
  8
PLAN_1
 62
     2
  6
CONTINUOUS
 10
-2.110272
 20
1.143213
  0
VERTEX
  8
PLAN_1
 62
     2
  6
CONTINUOUS
 10
-2.113476
 20
1.144126
  0
VERTEX
  8
PLAN_1
 62
     2
  6
CONTINUOUS
 10
-2.116685
 20
1.145043
  0
VERTEX
  8
PLAN_1
 62
     2
  6
CONTINUOUS
 10
-2.119433
 20
1.146417
  0
VERTEX
  8
PLAN_1
 62
     2
  6
CONTINUOUS
 10
-2.122181
 20
1.147791
  0
VERTEX
  8
PLAN_1
 62
     2
  6
CONTINUOUS
 10
-2.124929
 20
1.149622
  0
VERTEX
  8
PLAN_1
 62
     2
  6
CONTINUOUS
 10
-2.126760
 20
1.151453
  0
VERTEX
  8
PLAN_1
 62
     2
  6
CONTINUOUS
 10
-2.135461
 20
1.142752
  0
VERTEX
  8
PLAN_1
 62
     2
  6
CONTINUOUS
 10
-2.138669
 20
1.145500
  0
VERTEX
  8
PLAN_1
 62
     2
  6
CONTINUOUS
 10
-2.129965
 20
1.155118
  0
VERTEX
  8
PLAN_1
 62
     2
  6
CONTINUOUS
 10
-2.132256
 20
1.157866
  0
VERTEX
  8
PLAN_1
 62
     2
  6
CONTINUOUS
 10
-2.134087
 20
1.161071
  0
VERTEX
  8
PLAN_1
 62
     2
  6
CONTINUOUS
 10
-2.135461
 20
1.164736
  0
VERTEX
  8
PLAN_1
 62
     2
  6
CONTINUOUS
 10
-2.136835
 20
1.168402
  0
VERTEX
  8
PLAN_1
 62
     2
  6
CONTINUOUS
 10
-2.137752
 20
1.171606
  0
VERTEX
  8
PLAN_1
 62
     2
  6
CONTINUOUS
 10
-2.138209
 20
1.175272
  0
VERTEX
  8
PLAN_1
 62
     2
  6
CONTINUOUS
 10
-2.138669
 20
1.178476
  0
VERTEX
  8
PLAN_1
 62
     2
  6
CONTINUOUS
 10
-2.138669
 20
1.182142
  0
VERTEX
  8
PLAN_1
 62
     2
  6
CONTINUOUS
 10
-2.138209
 20
1.188094
  0
VERTEX
  8
PLAN_1
 62
     2
  6
CONTINUOUS
 10
-2.136835
 20
1.194965
  0
VERTEX
  8
PLAN_1
 62
     2
  6
CONTINUOUS
 10
-2.135921
 20
1.198169
  0
VERTEX
  8
PLAN_1
 62
     2
  6
CONTINUOUS
 10
-2.134547
 20
1.201378
  0
VERTEX
  8
PLAN_1
 62
     2
  6
CONTINUOUS
 10
-2.133173
 20
1.204583
  0
VERTEX
  8
PLAN_1
 62
     2
  6
CONTINUOUS
 10
-2.130882
 20
1.207787
  0
VERTEX
  8
PLAN_1
 62
     2
  6
CONTINUOUS
 10
-2.128591
 20
1.210535
  0
VERTEX
  8
PLAN_1
 62
     2
  6
CONTINUOUS
 10
-2.126303
 20
1.213283
  0
VERTEX
  8
PLAN_1
 62
     2
  6
CONTINUOUS
 10
-2.123094
 20
1.215575
  0
VERTEX
  8
PLAN_1
 62
     2
  6
CONTINUOUS
 10
-2.119890
 20
1.217406
  0
VERTEX
  8
PLAN_1
 62
     2
  6
CONTINUOUS
 10
-2.116224
 20
1.219236
  0
VERTEX
  8
PLAN_1
 62
     2
  6
CONTINUOUS
 10
-2.112102
 20
1.220154
  0
VERTEX
  8
PLAN_1
 62
     2
  6
CONTINUOUS
 10
-2.107524
 20
1.221071
  0
VERTEX
  8
PLAN_1
 62
     2
  6
CONTINUOUS
 10
-2.102488
 20
1.221071
  0
VERTEX
  8
PLAN_1
 62
     2
  6
CONTINUOUS
 10
-2.098366
 20
1.221071
  0
VERTEX
  8
PLAN_1
 62
     2
  6
CONTINUOUS
 10
-2.094701
 20
1.220610
  0
VERTEX
  8
PLAN_1
 62
     2
  6
CONTINUOUS
 10
-2.091035
 20
1.219697
  0
VERTEX
  8
PLAN_1
 62
     2
  6
CONTINUOUS
 10
-2.087831
 20
1.218780
  0
VERTEX
  8
PLAN_1
 62
     2
  6
CONTINUOUS
 10
-2.085083
 20
1.217406
  0
VERTEX
  8
PLAN_1
 62
     2
  6
CONTINUOUS
 10
-2.082335
 20
1.215575
  0
VERTEX
  8
PLAN_1
 62
     2
  6
CONTINUOUS
 10
-2.079587
 20
1.214201
  0
VERTEX
  8
PLAN_1
 62
     2
  6
CONTINUOUS
 10
-2.077756
 20
1.211909
  0
VERTEX
  8
PLAN_1
 62
     2
  6
CONTINUOUS
 10
-2.069051
 20
1.221071
  0
VERTEX
  8
PLAN_1
 62
     2
  6
CONTINUOUS
 10
-2.065846
 20
1.218323
  0
VERTEX
  8
PLAN_1
 62
     2
  6
CONTINUOUS
 10
-2.074547
 20
1.208705
  0
SEQEND
  8
0
  0
POLYLINE
  8
PLAN_1
 62
     2
  6
CONTINUOUS
 66
     1
 40
0.003000
 41
0.003000
  0
VERTEX
  8
PLAN_1
 62
     2
  6
CONTINUOUS
 10
-2.120346
 20
1.158783
  0
VERTEX
  8
PLAN_1
 62
     2
  6
CONTINUOUS
 10
-2.118516
 20
1.157409
  0
VERTEX
  8
PLAN_1
 62
     2
  6
CONTINUOUS
 10
-2.116685
 20
1.156035
  0
VERTEX
  8
PLAN_1
 62
     2
  6
CONTINUOUS
 10
-2.114850
 20
1.154661
  0
VERTEX
  8
PLAN_1
 62
     2
  6
CONTINUOUS
 10
-2.112563
 20
1.153287
  0
VERTEX
  8
PLAN_1
 62
     2
  6
CONTINUOUS
 10
-2.110272
 20
1.152827
  0
VERTEX
  8
PLAN_1
 62
     2
  6
CONTINUOUS
 10
-2.107524
 20
1.151913
  0
VERTEX
  8
PLAN_1
 62
     2
  6
CONTINUOUS
 10
-2.105236
 20
1.151913
  0
VERTEX
  8
PLAN_1
 62
     2
  6
CONTINUOUS
 10
-2.102488
 20
1.151453
  0
VERTEX
  8
PLAN_1
 62
     2
  6
CONTINUOUS
 10
-2.099280
 20
1.151913
  0
VERTEX
  8
PLAN_1
 62
     2
  6
CONTINUOUS
 10
-2.096531
 20
1.152370
  0
VERTEX
  8
PLAN_1
 62
     2
  6
CONTINUOUS
 10
-2.093783
 20
1.152827
  0
VERTEX
  8
PLAN_1
 62
     2
  6
CONTINUOUS
 10
-2.091496
 20
1.153744
  0
VERTEX
  8
PLAN_1
 62
     2
  6
CONTINUOUS
 10
-2.089205
 20
1.155118
  0
VERTEX
  8
PLAN_1
 62
     2
  6
CONTINUOUS
 10
-2.086913
 20
1.156492
  0
VERTEX
  8
PLAN_1
 62
     2
  6
CONTINUOUS
 10
-2.085083
 20
1.158323
  0
VERTEX
  8
PLAN_1
 62
     2
  6
CONTINUOUS
 10
-2.083252
 20
1.160157
  0
VERTEX
  8
PLAN_1
 62
     2
  6
CONTINUOUS
 10
-2.081878
 20
1.162445
  0
VERTEX
  8
PLAN_1
 62
     2
  6
CONTINUOUS
 10
-2.080504
 20
1.164736
  0
VERTEX
  8
PLAN_1
 62
     2
  6
CONTINUOUS
 10
-2.079130
 20
1.167028
  0
VERTEX
  8
PLAN_1
 62
     2
  6
CONTINUOUS
 10
-2.078213
 20
1.169776
  0
VERTEX
  8
PLAN_1
 62
     2
  6
CONTINUOUS
 10
-2.077295
 20
1.172524
  0
VERTEX
  8
PLAN_1
 62
     2
  6
CONTINUOUS
 10
-2.076839
 20
1.175728
  0
VERTEX
  8
PLAN_1
 62
     2
  6
CONTINUOUS
 10
-2.076382
 20
1.178476
  0
VERTEX
  8
PLAN_1
 62
     2
  6
CONTINUOUS
 10
-2.076382
 20
1.182142
  0
VERTEX
  8
PLAN_1
 62
     2
  6
CONTINUOUS
 10
-2.076382
 20
1.184890
  0
VERTEX
  8
PLAN_1
 62
     2
  6
CONTINUOUS
 10
-2.076839
 20
1.187177
  0
VERTEX
  8
PLAN_1
 62
     2
  6
CONTINUOUS
 10
-2.077295
 20
1.189925
  0
VERTEX
  8
PLAN_1
 62
     2
  6
CONTINUOUS
 10
-2.077756
 20
1.192673
  0
VERTEX
  8
PLAN_1
 62
     2
  6
CONTINUOUS
 10
-2.078213
 20
1.194965
  0
VERTEX
  8
PLAN_1
 62
     2
  6
CONTINUOUS
 10
-2.079130
 20
1.197256
  0
VERTEX
  8
PLAN_1
 62
     2
  6
CONTINUOUS
 10
-2.080504
 20
1.199087
  0
VERTEX
  8
PLAN_1
 62
     2
  6
CONTINUOUS
 10
-2.081417
 20
1.200917
  0
VERTEX
  8
PLAN_1
 62
     2
  6
CONTINUOUS
 10
-2.120346
 20
1.158783
  0
SEQEND
  8
0
  0
POLYLINE
  8
PLAN_1
 62
     2
  6
CONTINUOUS
 66
     1
 40
0.003000
 41
0.003000
  0
VERTEX
  8
PLAN_1
 62
     2
  6
CONTINUOUS
 10
-2.084165
 20
1.204583
  0
VERTEX
  8
PLAN_1
 62
     2
  6
CONTINUOUS
 10
-2.086000
 20
1.206413
  0
VERTEX
  8
PLAN_1
 62
     2
  6
CONTINUOUS
 10
-2.087831
 20
1.207787
  0
VERTEX
  8
PLAN_1
 62
     2
  6
CONTINUOUS
 10
-2.089661
 20
1.209161
  0
VERTEX
  8
PLAN_1
 62
     2
  6
CONTINUOUS
 10
-2.091953
 20
1.210535
  0
VERTEX
  8
PLAN_1
 62
     2
  6
CONTINUOUS
 10
-2.094244
 20
1.210996
  0
VERTEX
  8
PLAN_1
 62
     2
  6
CONTINUOUS
 10
-2.096992
 20
1.211909
  0
VERTEX
  8
PLAN_1
 62
     2
  6
CONTINUOUS
 10
-2.099740
 20
1.212370
  0
VERTEX
  8
PLAN_1
 62
     2
  6
CONTINUOUS
 10
-2.102488
 20
1.212370
  0
VERTEX
  8
PLAN_1
 62
     2
  6
CONTINUOUS
 10
-2.105236
 20
1.212370
  0
VERTEX
  8
PLAN_1
 62
     2
  6
CONTINUOUS
 10
-2.107984
 20
1.211909
  0
VERTEX
  8
PLAN_1
 62
     2
  6
CONTINUOUS
 10
-2.110728
 20
1.210996
  0
VERTEX
  8
PLAN_1
 62
     2
  6
CONTINUOUS
 10
-2.113476
 20
1.210079
  0
VERTEX
  8
PLAN_1
 62
     2
  6
CONTINUOUS
 10
-2.115768
 20
1.208705
  0
VERTEX
  8
PLAN_1
 62
     2
  6
CONTINUOUS
 10
-2.117598
 20
1.207331
  0
VERTEX
  8
PLAN_1
 62
     2
  6
CONTINUOUS
 10
-2.119890
 20
1.205500
  0
VERTEX
  8
PLAN_1
 62
     2
  6
CONTINUOUS
 10
-2.121264
 20
1.203665
  0
VERTEX
  8
PLAN_1
 62
     2
  6
CONTINUOUS
 10
-2.123094
 20
1.201378
  0
VERTEX
  8
PLAN_1
 62
     2
  6
CONTINUOUS
 10
-2.124469
 20
1.199087
  0
VERTEX
  8
PLAN_1
 62
     2
  6
CONTINUOUS
 10
-2.125843
 20
1.196795
  0
VERTEX
  8
PLAN_1
 62
     2
  6
CONTINUOUS
 10
-2.126760
 20
1.194047
  0
VERTEX
  8
PLAN_1
 62
     2
  6
CONTINUOUS
 10
-2.127217
 20
1.191299
  0
VERTEX
  8
PLAN_1
 62
     2
  6
CONTINUOUS
 10
-2.128134
 20
1.188094
  0
VERTEX
  8
PLAN_1
 62
     2
  6
CONTINUOUS
 10
-2.128134
 20
1.185346
  0
VERTEX
  8
PLAN_1
 62
     2
  6
CONTINUOUS
 10
-2.128591
 20
1.182142
  0
VERTEX
  8
PLAN_1
 62
     2
  6
CONTINUOUS
 10
-2.128134
 20
1.178933
  0
VERTEX
  8
PLAN_1
 62
     2
  6
CONTINUOUS
 10
-2.128134
 20
1.176646
  0
VERTEX
  8
PLAN_1
 62
     2
  6
CONTINUOUS
 10
-2.127677
 20
1.173898
  0
VERTEX
  8
PLAN_1
 62
     2
  6
CONTINUOUS
 10
-2.127217
 20
1.171150
  0
VERTEX
  8
PLAN_1
 62
     2
  6
CONTINUOUS
 10
-2.126303
 20
1.168858
  0
VERTEX
  8
PLAN_1
 62
     2
  6
CONTINUOUS
 10
-2.125386
 20
1.166567
  0
VERTEX
  8
PLAN_1
 62
     2
  6
CONTINUOUS
 10
-2.124469
 20
1.164280
  0
VERTEX
  8
PLAN_1
 62
     2
  6
CONTINUOUS
 10
-2.123094
 20
1.162445
  0
VERTEX
  8
PLAN_1
 62
     2
  6
CONTINUOUS
 10
-2.084165
 20
1.204583
  0
SEQEND
  8
0
  0
POLYLINE
  8
PLAN_1
 62
     2
  6
CONTINUOUS
 66
     1
 40
0.003000
 41
0.003000
  0
VERTEX
  8
PLAN_1
 62
     2
  6
CONTINUOUS
 10
-2.046610
 20
1.187177
  0
VERTEX
  8
PLAN_1
 62
     2
  6
CONTINUOUS
 10
-2.045236
 20
1.188094
  0
VERTEX
  8
PLAN_1
 62
     2
  6
CONTINUOUS
 10
-2.043862
 20
1.189012
  0
VERTEX
  8
PLAN_1
 62
     2
  6
CONTINUOUS
 10
-2.042488
 20
1.189469
  0
VERTEX
  8
PLAN_1
 62
     2
  6
CONTINUOUS
 10
-2.040657
 20
1.190386
  0
VERTEX
  8
PLAN_1
 62
     2
  6
CONTINUOUS
 10
-2.038827
 20
1.190843
  0
VERTEX
  8
PLAN_1
 62
     2
  6
CONTINUOUS
 10
-2.036992
 20
1.191299
  0
VERTEX
  8
PLAN_1
 62
     2
  6
CONTINUOUS
 10
-2.034705
 20
1.191760
  0
VERTEX
  8
PLAN_1
 62
     2
  6
CONTINUOUS
 10
-2.032413
 20
1.191760
  0
VERTEX
  8
PLAN_1
 62
     2
  6
CONTINUOUS
 10
-2.027835
 20
1.191299
  0
VERTEX
  8
PLAN_1
 62
     2
  6
CONTINUOUS
 10
-2.023713
 20
1.190386
  0
VERTEX
  8
PLAN_1
 62
     2
  6
CONTINUOUS
 10
-2.019591
 20
1.188094
  0
VERTEX
  8
PLAN_1
 62
     2
  6
CONTINUOUS
 10
-2.015925
 20
1.185803
  0
VERTEX
  8
PLAN_1
 62
     2
  6
CONTINUOUS
 10
-2.014551
 20
1.183972
  0
VERTEX
  8
PLAN_1
 62
     2
  6
CONTINUOUS
 10
-2.012720
 20
1.182142
  0
VERTEX
  8
PLAN_1
 62
     2
  6
CONTINUOUS
 10
-2.011803
 20
1.180307
  0
VERTEX
  8
PLAN_1
 62
     2
  6
CONTINUOUS
 10
-2.010429
 20
1.178476
  0
VERTEX
  8
PLAN_1
 62
     2
  6
CONTINUOUS
 10
-2.009512
 20
1.176185
  0
VERTEX
  8
PLAN_1
 62
     2
  6
CONTINUOUS
 10
-2.009055
 20
1.173437
  0
VERTEX
  8
PLAN_1
 62
     2
  6
CONTINUOUS
 10
-2.008598
 20
1.171150
  0
VERTEX
  8
PLAN_1
 62
     2
  6
CONTINUOUS
 10
-2.008598
 20
1.168402
  0
VERTEX
  8
PLAN_1
 62
     2
  6
CONTINUOUS
 10
-2.008598
 20
1.164736
  0
VERTEX
  8
PLAN_1
 62
     2
  6
CONTINUOUS
 10
-2.009512
 20
1.161071
  0
VERTEX
  8
PLAN_1
 62
     2
  6
CONTINUOUS
 10
-2.010886
 20
1.156492
  0
VERTEX
  8
PLAN_1
 62
     2
  6
CONTINUOUS
 10
-2.013177
 20
1.152370
  0
VERTEX
  8
PLAN_1
 62
     2
  6
CONTINUOUS
 10
-2.014551
 20
1.150539
  0
VERTEX
  8
PLAN_1
 62
     2
  6
CONTINUOUS
 10
-2.016382
 20
1.148705
  0
VERTEX
  8
PLAN_1
 62
     2
  6
CONTINUOUS
 10
-2.018673
 20
1.146874
  0
VERTEX
  8
PLAN_1
 62
     2
  6
CONTINUOUS
 10
-2.020965
 20
1.145500
  0
VERTEX
  8
PLAN_1
 62
     2
  6
CONTINUOUS
 10
-2.024169
 20
1.144126
  0
VERTEX
  8
PLAN_1
 62
     2
  6
CONTINUOUS
 10
-2.027374
 20
1.143213
  0
VERTEX
  8
PLAN_1
 62
     2
  6
CONTINUOUS
 10
-2.031039
 20
1.142752
  0
VERTEX
  8
PLAN_1
 62
     2
  6
CONTINUOUS
 10
-2.034705
 20
1.142752
  0
VERTEX
  8
PLAN_1
 62
     2
  6
CONTINUOUS
 10
-2.038827
 20
1.142752
  0
VERTEX
  8
PLAN_1
 62
     2
  6
CONTINUOUS
 10
-2.042488
 20
1.143669
  0
VERTEX
  8
PLAN_1
 62
     2
  6
CONTINUOUS
 10
-2.046154
 20
1.144587
  0
VERTEX
  8
PLAN_1
 62
     2
  6
CONTINUOUS
 10
-2.049815
 20
1.146417
  0
VERTEX
  8
PLAN_1
 62
     2
  6
CONTINUOUS
 10
-2.051189
 20
1.147791
  0
VERTEX
  8
PLAN_1
 62
     2
  6
CONTINUOUS
 10
-2.053024
 20
1.149165
  0
VERTEX
  8
PLAN_1
 62
     2
  6
CONTINUOUS
 10
-2.054398
 20
1.150996
  0
VERTEX
  8
PLAN_1
 62
     2
  6
CONTINUOUS
 10
-2.055311
 20
1.152827
  0
VERTEX
  8
PLAN_1
 62
     2
  6
CONTINUOUS
 10
-2.056685
 20
1.154661
  0
VERTEX
  8
PLAN_1
 62
     2
  6
CONTINUOUS
 10
-2.057602
 20
1.157409
  0
VERTEX
  8
PLAN_1
 62
     2
  6
CONTINUOUS
 10
-2.058059
 20
1.159697
  0
VERTEX
  8
PLAN_1
 62
     2
  6
CONTINUOUS
 10
-2.058520
 20
1.162906
  0
VERTEX
  8
PLAN_1
 62
     2
  6
CONTINUOUS
 10
-2.048902
 20
1.162906
  0
VERTEX
  8
PLAN_1
 62
     2
  6
CONTINUOUS
 10
-2.048441
 20
1.159697
  0
VERTEX
  8
PLAN_1
 62
     2
  6
CONTINUOUS
 10
-2.047528
 20
1.157409
  0
VERTEX
  8
PLAN_1
 62
     2
  6
CONTINUOUS
 10
-2.045693
 20
1.155118
  0
VERTEX
  8
PLAN_1
 62
     2
  6
CONTINUOUS
 10
-2.043862
 20
1.153287
  0
VERTEX
  8
PLAN_1
 62
     2
  6
CONTINUOUS
 10
-2.042031
 20
1.152370
  0
VERTEX
  8
PLAN_1
 62
     2
  6
CONTINUOUS
 10
-2.039283
 20
1.151453
  0
VERTEX
  8
PLAN_1
 62
     2
  6
CONTINUOUS
 10
-2.036535
 20
1.150539
  0
VERTEX
  8
PLAN_1
 62
     2
  6
CONTINUOUS
 10
-2.033787
 20
1.150539
  0
VERTEX
  8
PLAN_1
 62
     2
  6
CONTINUOUS
 10
-2.030122
 20
1.150996
  0
VERTEX
  8
PLAN_1
 62
     2
  6
CONTINUOUS
 10
-2.027374
 20
1.151913
  0
VERTEX
  8
PLAN_1
 62
     2
  6
CONTINUOUS
 10
-2.024626
 20
1.153287
  0
VERTEX
  8
PLAN_1
 62
     2
  6
CONTINUOUS
 10
-2.022339
 20
1.155575
  0
VERTEX
  8
PLAN_1
 62
     2
  6
CONTINUOUS
 10
-2.020504
 20
1.157866
  0
VERTEX
  8
PLAN_1
 62
     2
  6
CONTINUOUS
 10
-2.019130
 20
1.160614
  0
VERTEX
  8
PLAN_1
 62
     2
  6
CONTINUOUS
 10
-2.018217
 20
1.163819
  0
VERTEX
  8
PLAN_1
 62
     2
  6
CONTINUOUS
 10
-2.018217
 20
1.167484
  0
VERTEX
  8
PLAN_1
 62
     2
  6
CONTINUOUS
 10
-2.018673
 20
1.171150
  0
VERTEX
  8
PLAN_1
 62
     2
  6
CONTINUOUS
 10
-2.019591
 20
1.174354
  0
VERTEX
  8
PLAN_1
 62
     2
  6
CONTINUOUS
 10
-2.020965
 20
1.177102
  0
VERTEX
  8
PLAN_1
 62
     2
  6
CONTINUOUS
 10
-2.022795
 20
1.179394
  0
VERTEX
  8
PLAN_1
 62
     2
  6
CONTINUOUS
 10
-2.025087
 20
1.181224
  0
VERTEX
  8
PLAN_1
 62
     2
  6
CONTINUOUS
 10
-2.027835
 20
1.182598
  0
VERTEX
  8
PLAN_1
 62
     2
  6
CONTINUOUS
 10
-2.031039
 20
1.183055
  0
VERTEX
  8
PLAN_1
 62
     2
  6
CONTINUOUS
 10
-2.034244
 20
1.183516
  0
VERTEX
  8
PLAN_1
 62
     2
  6
CONTINUOUS
 10
-2.036535
 20
1.183516
  0
VERTEX
  8
PLAN_1
 62
     2
  6
CONTINUOUS
 10
-2.038366
 20
1.183055
  0
VERTEX
  8
PLAN_1
 62
     2
  6
CONTINUOUS
 10
-2.040197
 20
1.182598
  0
VERTEX
  8
PLAN_1
 62
     2
  6
CONTINUOUS
 10
-2.042031
 20
1.181681
  0
VERTEX
  8
PLAN_1
 62
     2
  6
CONTINUOUS
 10
-2.043406
 20
1.180768
  0
VERTEX
  8
PLAN_1
 62
     2
  6
CONTINUOUS
 10
-2.045236
 20
1.179394
  0
VERTEX
  8
PLAN_1
 62
     2
  6
CONTINUOUS
 10
-2.046610
 20
1.178020
  0
VERTEX
  8
PLAN_1
 62
     2
  6
CONTINUOUS
 10
-2.047984
 20
1.176646
  0
VERTEX
  8
PLAN_1
 62
     2
  6
CONTINUOUS
 10
-2.055772
 20
1.177102
  0
VERTEX
  8
PLAN_1
 62
     2
  6
CONTINUOUS
 10
-2.050276
 20
1.216031
  0
VERTEX
  8
PLAN_1
 62
     2
  6
CONTINUOUS
 10
-2.012260
 20
1.216031
  0
VERTEX
  8
PLAN_1
 62
     2
  6
CONTINUOUS
 10
-2.012260
 20
1.207331
  0
VERTEX
  8
PLAN_1
 62
     2
  6
CONTINUOUS
 10
-2.043406
 20
1.207331
  0
VERTEX
  8
PLAN_1
 62
     2
  6
CONTINUOUS
 10
-2.046610
 20
1.187177
  0
SEQEND
  8
0
  0
POLYLINE
  8
PLAN_1
 62
     2
  6
CONTINUOUS
 66
     1
 40
0.003000
 41
0.003000
  0
VERTEX
  8
PLAN_1
 62
     2
  6
CONTINUOUS
 10
-1.994858
 20
1.155575
  0
VERTEX
  8
PLAN_1
 62
     2
  6
CONTINUOUS
 10
-1.983866
 20
1.155575
  0
VERTEX
  8
PLAN_1
 62
     2
  6
CONTINUOUS
 10
-1.983866
 20
1.145500
  0
VERTEX
  8
PLAN_1
 62
     2
  6
CONTINUOUS
 10
-1.984323
 20
1.140465
  0
VERTEX
  8
PLAN_1
 62
     2
  6
CONTINUOUS
 10
-1.985697
 20
1.136799
  0
VERTEX
  8
PLAN_1
 62
     2
  6
CONTINUOUS
 10
-1.987071
 20
1.134051
  0
VERTEX
  8
PLAN_1
 62
     2
  6
CONTINUOUS
 10
-1.988902
 20
1.132220
  0
VERTEX
  8
PLAN_1
 62
     2
  6
CONTINUOUS
 10
-1.990736
 20
1.130846
  0
VERTEX
  8
PLAN_1
 62
     2
  6
CONTINUOUS
 10
-1.992567
 20
1.129929
  0
VERTEX
  8
PLAN_1
 62
     2
  6
CONTINUOUS
 10
-1.993941
 20
1.129472
  0
VERTEX
  8
PLAN_1
 62
     2
  6
CONTINUOUS
 10
-1.994858
 20
1.129472
  0
VERTEX
  8
PLAN_1
 62
     2
  6
CONTINUOUS
 10
-1.994858
 20
1.134051
  0
VERTEX
  8
PLAN_1
 62
     2
  6
CONTINUOUS
 10
-1.993484
 20
1.134508
  0
VERTEX
  8
PLAN_1
 62
     2
  6
CONTINUOUS
 10
-1.992110
 20
1.135425
  0
VERTEX
  8
PLAN_1
 62
     2
  6
CONTINUOUS
 10
-1.991193
 20
1.136343
  0
VERTEX
  8
PLAN_1
 62
     2
  6
CONTINUOUS
 10
-1.990736
 20
1.137717
  0
VERTEX
  8
PLAN_1
 62
     2
  6
CONTINUOUS
 10
-1.989819
 20
1.139091
  0
VERTEX
  8
PLAN_1
 62
     2
  6
CONTINUOUS
 10
-1.989819
 20
1.140921
  0
VERTEX
  8
PLAN_1
 62
     2
  6
CONTINUOUS
 10
-1.989362
 20
1.142752
  0
VERTEX
  8
PLAN_1
 62
     2
  6
CONTINUOUS
 10
-1.989362
 20
1.144587
  0
VERTEX
  8
PLAN_1
 62
     2
  6
CONTINUOUS
 10
-1.994858
 20
1.144587
  0
VERTEX
  8
PLAN_1
 62
     2
  6
CONTINUOUS
 10
-1.994858
 20
1.155575
  0
SEQEND
  8
0
  0
POLYLINE
  8
PLAN_1
 62
     2
  6
CONTINUOUS
 66
     1
 40
0.003000
 41
0.003000
  0
VERTEX
  8
PLAN_1
 62
     2
  6
CONTINUOUS
 10
-1.951807
 20
1.186264
  0
VERTEX
  8
PLAN_1
 62
     2
  6
CONTINUOUS
 10
-1.951346
 20
1.186264
  0
VERTEX
  8
PLAN_1
 62
     2
  6
CONTINUOUS
 10
-1.950433
 20
1.186264
  0
VERTEX
  8
PLAN_1
 62
     2
  6
CONTINUOUS
 10
-1.949972
 20
1.186264
  0
VERTEX
  8
PLAN_1
 62
     2
  6
CONTINUOUS
 10
-1.949516
 20
1.186264
  0
VERTEX
  8
PLAN_1
 62
     2
  6
CONTINUOUS
 10
-1.948598
 20
1.186264
  0
VERTEX
  8
PLAN_1
 62
     2
  6
CONTINUOUS
 10
-1.948142
 20
1.185803
  0
VERTEX
  8
PLAN_1
 62
     2
  6
CONTINUOUS
 10
-1.947685
 20
1.185803
  0
VERTEX
  8
PLAN_1
 62
     2
  6
CONTINUOUS
 10
-1.946768
 20
1.185803
  0
VERTEX
  8
PLAN_1
 62
     2
  6
CONTINUOUS
 10
-1.944476
 20
1.186264
  0
VERTEX
  8
PLAN_1
 62
     2
  6
CONTINUOUS
 10
-1.941728
 20
1.186720
  0
VERTEX
  8
PLAN_1
 62
     2
  6
CONTINUOUS
 10
-1.939441
 20
1.187177
  0
VERTEX
  8
PLAN_1
 62
     2
  6
CONTINUOUS
 10
-1.937150
 20
1.188551
  0
VERTEX
  8
PLAN_1
 62
     2
  6
CONTINUOUS
 10
-1.935319
 20
1.189925
  0
VERTEX
  8
PLAN_1
 62
     2
  6
CONTINUOUS
 10
-1.934402
 20
1.192217
  0
VERTEX
  8
PLAN_1
 62
     2
  6
CONTINUOUS
 10
-1.933484
 20
1.194965
  0
VERTEX
  8
PLAN_1
 62
     2
  6
CONTINUOUS
 10
-1.933028
 20
1.198169
  0
VERTEX
  8
PLAN_1
 62
     2
  6
CONTINUOUS
 10
-1.933028
 20
1.199543
  0
VERTEX
  8
PLAN_1
 62
     2
  6
CONTINUOUS
 10
-1.933484
 20
1.201835
  0
VERTEX
  8
PLAN_1
 62
     2
  6
CONTINUOUS
 10
-1.934402
 20
1.203665
  0
VERTEX
  8
PLAN_1
 62
     2
  6
CONTINUOUS
 10
-1.935776
 20
1.205500
  0
VERTEX
  8
PLAN_1
 62
     2
  6
CONTINUOUS
 10
-1.937606
 20
1.206874
  0
VERTEX
  8
PLAN_1
 62
     2
  6
CONTINUOUS
 10
-1.939898
 20
1.208248
  0
VERTEX
  8
PLAN_1
 62
     2
  6
CONTINUOUS
 10
-1.942646
 20
1.209161
  0
VERTEX
  8
PLAN_1
 62
     2
  6
CONTINUOUS
 10
-1.946311
 20
1.209622
  0
VERTEX
  8
PLAN_1
 62
     2
  6
CONTINUOUS
 10
-1.948598
 20
1.209161
  0
VERTEX
  8
PLAN_1
 62
     2
  6
CONTINUOUS
 10
-1.950890
 20
1.209161
  0
VERTEX
  8
PLAN_1
 62
     2
  6
CONTINUOUS
 10
-1.952720
 20
1.208705
  0
VERTEX
  8
PLAN_1
 62
     2
  6
CONTINUOUS
 10
-1.954094
 20
1.207787
  0
VERTEX
  8
PLAN_1
 62
     2
  6
CONTINUOUS
 10
-1.956843
 20
1.205957
  0
VERTEX
  8
PLAN_1
 62
     2
  6
CONTINUOUS
 10
-1.958217
 20
1.203665
  0
VERTEX
  8
PLAN_1
 62
     2
  6
CONTINUOUS
 10
-1.959591
 20
1.200917
  0
VERTEX
  8
PLAN_1
 62
     2
  6
CONTINUOUS
 10
-1.960051
 20
1.198630
  0
VERTEX
  8
PLAN_1
 62
     2
  6
CONTINUOUS
 10
-1.960508
 20
1.195882
  0
VERTEX
  8
PLAN_1
 62
     2
  6
CONTINUOUS
 10
-1.960965
 20
1.193591
  0
VERTEX
  8
PLAN_1
 62
     2
  6
CONTINUOUS
 10
-1.969669
 20
1.193591
  0
VERTEX
  8
PLAN_1
 62
     2
  6
CONTINUOUS
 10
-1.969669
 20
1.197713
  0
VERTEX
  8
PLAN_1
 62
     2
  6
CONTINUOUS
 10
-1.968752
 20
1.201835
  0
VERTEX
  8
PLAN_1
 62
     2
  6
CONTINUOUS
 10
-1.967378
 20
1.205957
  0
VERTEX
  8
PLAN_1
 62
     2
  6
CONTINUOUS
 10
-1.965087
 20
1.209622
  0
VERTEX
  8
PLAN_1
 62
     2
  6
CONTINUOUS
 10
-1.963713
 20
1.211453
  0
VERTEX
  8
PLAN_1
 62
     2
  6
CONTINUOUS
 10
-1.961882
 20
1.212827
  0
VERTEX
  8
PLAN_1
 62
     2
  6
CONTINUOUS
 10
-1.960051
 20
1.214201
  0
VERTEX
  8
PLAN_1
 62
     2
  6
CONTINUOUS
 10
-1.957760
 20
1.215575
  0
VERTEX
  8
PLAN_1
 62
     2
  6
CONTINUOUS
 10
-1.955469
 20
1.216492
  0
VERTEX
  8
PLAN_1
 62
     2
  6
CONTINUOUS
 10
-1.952720
 20
1.216949
  0
VERTEX
  8
PLAN_1
 62
     2
  6
CONTINUOUS
 10
-1.949516
 20
1.217406
  0
VERTEX
  8
PLAN_1
 62
     2
  6
CONTINUOUS
 10
-1.946311
 20
1.217862
  0
VERTEX
  8
PLAN_1
 62
     2
  6
CONTINUOUS
 10
-1.941272
 20
1.217406
  0
VERTEX
  8
PLAN_1
 62
     2
  6
CONTINUOUS
 10
-1.936693
 20
1.216492
  0
VERTEX
  8
PLAN_1
 62
     2
  6
CONTINUOUS
 10
-1.932571
 20
1.214657
  0
VERTEX
  8
PLAN_1
 62
     2
  6
CONTINUOUS
 10
-1.929362
 20
1.212370
  0
VERTEX
  8
PLAN_1
 62
     2
  6
CONTINUOUS
 10
-1.927075
 20
1.209622
  0
VERTEX
  8
PLAN_1
 62
     2
  6
CONTINUOUS
 10
-1.925240
 20
1.205957
  0
VERTEX
  8
PLAN_1
 62
     2
  6
CONTINUOUS
 10
-1.923866
 20
1.202291
  0
VERTEX
  8
PLAN_1
 62
     2
  6
CONTINUOUS
 10
-1.923409
 20
1.198630
  0
VERTEX
  8
PLAN_1
 62
     2
  6
CONTINUOUS
 10
-1.923866
 20
1.194965
  0
VERTEX
  8
PLAN_1
 62
     2
  6
CONTINUOUS
 10
-1.924327
 20
1.192217
  0
VERTEX
  8
PLAN_1
 62
     2
  6
CONTINUOUS
 10
-1.925240
 20
1.189925
  0
VERTEX
  8
PLAN_1
 62
     2
  6
CONTINUOUS
 10
-1.926614
 20
1.188094
  0
VERTEX
  8
PLAN_1
 62
     2
  6
CONTINUOUS
 10
-1.927988
 20
1.186264
  0
VERTEX
  8
PLAN_1
 62
     2
  6
CONTINUOUS
 10
-1.929823
 20
1.184890
  0
VERTEX
  8
PLAN_1
 62
     2
  6
CONTINUOUS
 10
-1.931197
 20
1.183972
  0
VERTEX
  8
PLAN_1
 62
     2
  6
CONTINUOUS
 10
-1.933028
 20
1.183516
  0
VERTEX
  8
PLAN_1
 62
     2
  6
CONTINUOUS
 10
-1.933028
 20
1.183055
  0
VERTEX
  8
PLAN_1
 62
     2
  6
CONTINUOUS
 10
-1.930280
 20
1.182142
  0
VERTEX
  8
PLAN_1
 62
     2
  6
CONTINUOUS
 10
-1.927988
 20
1.180768
  0
VERTEX
  8
PLAN_1
 62
     2
  6
CONTINUOUS
 10
-1.926157
 20
1.179394
  0
VERTEX
  8
PLAN_1
 62
     2
  6
CONTINUOUS
 10
-1.924327
 20
1.177559
  0
VERTEX
  8
PLAN_1
 62
     2
  6
CONTINUOUS
 10
-1.922492
 20
1.175272
  0
VERTEX
  8
PLAN_1
 62
     2
  6
CONTINUOUS
 10
-1.921579
 20
1.172524
  0
VERTEX
  8
PLAN_1
 62
     2
  6
CONTINUOUS
 10
-1.921118
 20
1.169776
  0
VERTEX
  8
PLAN_1
 62
     2
  6
CONTINUOUS
 10
-1.920661
 20
1.166110
  0
VERTEX
  8
PLAN_1
 62
     2
  6
CONTINUOUS
 10
-1.921118
 20
1.161531
  0
VERTEX
  8
PLAN_1
 62
     2
  6
CONTINUOUS
 10
-1.922035
 20
1.157409
  0
VERTEX
  8
PLAN_1
 62
     2
  6
CONTINUOUS
 10
-1.922953
 20
1.155575
  0
VERTEX
  8
PLAN_1
 62
     2
  6
CONTINUOUS
 10
-1.924327
 20
1.153287
  0
VERTEX
  8
PLAN_1
 62
     2
  6
CONTINUOUS
 10
-1.925240
 20
1.151453
  0
VERTEX
  8
PLAN_1
 62
     2
  6
CONTINUOUS
 10
-1.927075
 20
1.150079
  0
VERTEX
  8
PLAN_1
 62
     2
  6
CONTINUOUS
 10
-1.928449
 20
1.148248
  0
VERTEX
  8
PLAN_1
 62
     2
  6
CONTINUOUS
 10
-1.930736
 20
1.146874
  0
VERTEX
  8
PLAN_1
 62
     2
  6
CONTINUOUS
 10
-1.932571
 20
1.145500
  0
VERTEX
  8
PLAN_1
 62
     2
  6
CONTINUOUS
 10
-1.934858
 20
1.144587
  0
VERTEX
  8
PLAN_1
 62
     2
  6
CONTINUOUS
 10
-1.937606
 20
1.143669
  0
VERTEX
  8
PLAN_1
 62
     2
  6
CONTINUOUS
 10
-1.940354
 20
1.143213
  0
VERTEX
  8
PLAN_1
 62
     2
  6
CONTINUOUS
 10
-1.943563
 20
1.142752
  0
VERTEX
  8
PLAN_1
 62
     2
  6
CONTINUOUS
 10
-1.947224
 20
1.142752
  0
VERTEX
  8
PLAN_1
 62
     2
  6
CONTINUOUS
 10
-1.949059
 20
1.142752
  0
VERTEX
  8
PLAN_1
 62
     2
  6
CONTINUOUS
 10
-1.950890
 20
1.142752
  0
VERTEX
  8
PLAN_1
 62
     2
  6
CONTINUOUS
 10
-1.952720
 20
1.143213
  0
VERTEX
  8
PLAN_1
 62
     2
  6
CONTINUOUS
 10
-1.954555
 20
1.143669
  0
VERTEX
  8
PLAN_1
 62
     2
  6
CONTINUOUS
 10
-1.956386
 20
1.144126
  0
VERTEX
  8
PLAN_1
 62
     2
  6
CONTINUOUS
 10
-1.957760
 20
1.144587
  0
VERTEX
  8
PLAN_1
 62
     2
  6
CONTINUOUS
 10
-1.959134
 20
1.145043
  0
VERTEX
  8
PLAN_1
 62
     2
  6
CONTINUOUS
 10
-1.960508
 20
1.145961
  0
VERTEX
  8
PLAN_1
 62
     2
  6
CONTINUOUS
 10
-1.963256
 20
1.147791
  0
VERTEX
  8
PLAN_1
 62
     2
  6
CONTINUOUS
 10
-1.965547
 20
1.149622
  0
VERTEX
  8
PLAN_1
 62
     2
  6
CONTINUOUS
 10
-1.967378
 20
1.152370
  0
VERTEX
  8
PLAN_1
 62
     2
  6
CONTINUOUS
 10
-1.968752
 20
1.154661
  0
VERTEX
  8
PLAN_1
 62
     2
  6
CONTINUOUS
 10
-1.970126
 20
1.157866
  0
VERTEX
  8
PLAN_1
 62
     2
  6
CONTINUOUS
 10
-1.970583
 20
1.160614
  0
VERTEX
  8
PLAN_1
 62
     2
  6
CONTINUOUS
 10
-1.971039
 20
1.163819
  0
VERTEX
  8
PLAN_1
 62
     2
  6
CONTINUOUS
 10
-1.971500
 20
1.167028
  0
VERTEX
  8
PLAN_1
 62
     2
  6
CONTINUOUS
 10
-1.961882
 20
1.167028
  0
VERTEX
  8
PLAN_1
 62
     2
  6
CONTINUOUS
 10
-1.961882
 20
1.164280
  0
VERTEX
  8
PLAN_1
 62
     2
  6
CONTINUOUS
 10
-1.961425
 20
1.161531
  0
VERTEX
  8
PLAN_1
 62
     2
  6
CONTINUOUS
 10
-1.960508
 20
1.158783
  0
VERTEX
  8
PLAN_1
 62
     2
  6
CONTINUOUS
 10
-1.959134
 20
1.156492
  0
VERTEX
  8
PLAN_1
 62
     2
  6
CONTINUOUS
 10
-1.957303
 20
1.154201
  0
VERTEX
  8
PLAN_1
 62
     2
  6
CONTINUOUS
 10
-1.954555
 20
1.152370
  0
VERTEX
  8
PLAN_1
 62
     2
  6
CONTINUOUS
 10
-1.952720
 20
1.151913
  0
VERTEX
  8
PLAN_1
 62
     2
  6
CONTINUOUS
 10
-1.950890
 20
1.151453
  0
VERTEX
  8
PLAN_1
 62
     2
  6
CONTINUOUS
 10
-1.949059
 20
1.150996
  0
VERTEX
  8
PLAN_1
 62
     2
  6
CONTINUOUS
 10
-1.946311
 20
1.150996
  0
VERTEX
  8
PLAN_1
 62
     2
  6
CONTINUOUS
 10
-1.943102
 20
1.150996
  0
VERTEX
  8
PLAN_1
 62
     2
  6
CONTINUOUS
 10
-1.939898
 20
1.151913
  0
VERTEX
  8
PLAN_1
 62
     2
  6
CONTINUOUS
 10
-1.937150
 20
1.153287
  0
VERTEX
  8
PLAN_1
 62
     2
  6
CONTINUOUS
 10
-1.934858
 20
1.154661
  0
VERTEX
  8
PLAN_1
 62
     2
  6
CONTINUOUS
 10
-1.933028
 20
1.156949
  0
VERTEX
  8
PLAN_1
 62
     2
  6
CONTINUOUS
 10
-1.931654
 20
1.159240
  0
VERTEX
  8
PLAN_1
 62
     2
  6
CONTINUOUS
 10
-1.930736
 20
1.161988
  0
VERTEX
  8
PLAN_1
 62
     2
  6
CONTINUOUS
 10
-1.930280
 20
1.165193
  0
VERTEX
  8
PLAN_1
 62
     2
  6
CONTINUOUS
 10
-1.930736
 20
1.167028
  0
VERTEX
  8
PLAN_1
 62
     2
  6
CONTINUOUS
 10
-1.931197
 20
1.168858
  0
VERTEX
  8
PLAN_1
 62
     2
  6
CONTINUOUS
 10
-1.931654
 20
1.170689
  0
VERTEX
  8
PLAN_1
 62
     2
  6
CONTINUOUS
 10
-1.932110
 20
1.172063
  0
VERTEX
  8
PLAN_1
 62
     2
  6
CONTINUOUS
 10
-1.934402
 20
1.174811
  0
VERTEX
  8
PLAN_1
 62
     2
  6
CONTINUOUS
 10
-1.936693
 20
1.176185
  0
VERTEX
  8
PLAN_1
 62
     2
  6
CONTINUOUS
 10
-1.939441
 20
1.177559
  0
VERTEX
  8
PLAN_1
 62
     2
  6
CONTINUOUS
 10
-1.942189
 20
1.178020
  0
VERTEX
  8
PLAN_1
 62
     2
  6
CONTINUOUS
 10
-1.944937
 20
1.178476
  0
VERTEX
  8
PLAN_1
 62
     2
  6
CONTINUOUS
 10
-1.947685
 20
1.178476
  0
VERTEX
  8
PLAN_1
 62
     2
  6
CONTINUOUS
 10
-1.948142
 20
1.178476
  0
VERTEX
  8
PLAN_1
 62
     2
  6
CONTINUOUS
 10
-1.948598
 20
1.178476
  0
VERTEX
  8
PLAN_1
 62
     2
  6
CONTINUOUS
 10
-1.949059
 20
1.178476
  0
VERTEX
  8
PLAN_1
 62
     2
  6
CONTINUOUS
 10
-1.949516
 20
1.178476
  0
VERTEX
  8
PLAN_1
 62
     2
  6
CONTINUOUS
 10
-1.949972
 20
1.178476
  0
VERTEX
  8
PLAN_1
 62
     2
  6
CONTINUOUS
 10
-1.950890
 20
1.178476
  0
VERTEX
  8
PLAN_1
 62
     2
  6
CONTINUOUS
 10
-1.951346
 20
1.178476
  0
VERTEX
  8
PLAN_1
 62
     2
  6
CONTINUOUS
 10
-1.951807
 20
1.178476
  0
VERTEX
  8
PLAN_1
 62
     2
  6
CONTINUOUS
 10
-1.951807
 20
1.186264
  0
SEQEND
  8
0
  0
POLYLINE
  8
PLAN_1
 62
     2
  6
CONTINUOUS
 66
     1
 40
0.004118
 41
0.004118
  0
VERTEX
  8
PLAN_1
 62
     2
  6
CONTINUOUS
 10
0.556185
 20
0.695748
  0
VERTEX
  8
PLAN_1
 62
     2
  6
CONTINUOUS
 10
0.556185
 20
3.274728
  0
SEQEND
  8
0
  0
SOLID
  8
PLAN_1
 62
     2
 10
0.556185
 20
3.304039
 11
0.540614
 21
3.244957
 12
0.556185
 22
3.304039
 13
0.572213
 23
3.244957
  0
POLYLINE
  8
PLAN_1
 62
     2
  6
CONTINUOUS
 66
     1
 40
0.003000
 41
0.003000
  0
VERTEX
  8
PLAN_1
 62
     2
  6
CONTINUOUS
 10
0.556185
 20
3.304039
  0
VERTEX
  8
PLAN_1
 62
     2
  6
CONTINUOUS
 10
0.540614
 20
3.244957
  0
VERTEX
  8
PLAN_1
 62
     2
  6
CONTINUOUS
 10
0.572213
 20
3.244957
  0
VERTEX
  8
PLAN_1
 62
     2
  6
CONTINUOUS
 10
0.556185
 20
3.304039
  0
SEQEND
  8
0
  0
SOLID
  8
PLAN_1
 62
     2
 10
0.556185
 20
0.665976
 11
0.540614
 21
0.725059
 12
0.556185
 22
0.665976
 13
0.572213
 23
0.725059
  0
POLYLINE
  8
PLAN_1
 62
     2
  6
CONTINUOUS
 66
     1
 40
0.003000
 41
0.003000
  0
VERTEX
  8
PLAN_1
 62
     2
  6
CONTINUOUS
 10
0.556185
 20
0.665976
  0
VERTEX
  8
PLAN_1
 62
     2
  6
CONTINUOUS
 10
0.540614
 20
0.725059
  0
VERTEX
  8
PLAN_1
 62
     2
  6
CONTINUOUS
 10
0.572213
 20
0.725059
  0
VERTEX
  8
PLAN_1
 62
     2
  6
CONTINUOUS
 10
0.556185
 20
0.665976
  0
SEQEND
  8
0
  0
POLYLINE
  8
PLAN_1
 62
     2
  6
CONTINUOUS
 66
     1
 40
0.003000
 41
0.003000
  0
VERTEX
  8
PLAN_1
 62
     2
  6
CONTINUOUS
 10
0.479240
 20
1.970811
  0
VERTEX
  8
PLAN_1
 62
     2
  6
CONTINUOUS
 10
0.476949
 20
1.969894
  0
VERTEX
  8
PLAN_1
 62
     2
  6
CONTINUOUS
 10
0.474661
 20
1.969437
  0
VERTEX
  8
PLAN_1
 62
     2
  6
CONTINUOUS
 10
0.472831
 20
1.968063
  0
VERTEX
  8
PLAN_1
 62
     2
  6
CONTINUOUS
 10
0.470996
 20
1.966689
  0
VERTEX
  8
PLAN_1
 62
     2
  6
CONTINUOUS
 10
0.469622
 20
1.965315
  0
VERTEX
  8
PLAN_1
 62
     2
  6
CONTINUOUS
 10
0.468709
 20
1.963024
  0
VERTEX
  8
PLAN_1
 62
     2
  6
CONTINUOUS
 10
0.468248
 20
1.960736
  0
VERTEX
  8
PLAN_1
 62
     2
  6
CONTINUOUS
 10
0.467791
 20
1.957988
  0
VERTEX
  8
PLAN_1
 62
     2
  6
CONTINUOUS
 10
0.468248
 20
1.955697
  0
VERTEX
  8
PLAN_1
 62
     2
  6
CONTINUOUS
 10
0.468709
 20
1.952949
  0
VERTEX
  8
PLAN_1
 62
     2
  6
CONTINUOUS
 10
0.469622
 20
1.951118
  0
VERTEX
  8
PLAN_1
 62
     2
  6
CONTINUOUS
 10
0.470996
 20
1.949283
  0
VERTEX
  8
PLAN_1
 62
     2
  6
CONTINUOUS
 10
0.472370
 20
1.947453
  0
VERTEX
  8
PLAN_1
 62
     2
  6
CONTINUOUS
 10
0.474205
 20
1.946079
  0
VERTEX
  8
PLAN_1
 62
     2
  6
CONTINUOUS
 10
0.476492
 20
1.945161
  0
VERTEX
  8
PLAN_1
 62
     2
  6
CONTINUOUS
 10
0.478323
 20
1.943787
  0
VERTEX
  8
PLAN_1
 62
     2
  6
CONTINUOUS
 10
0.482906
 20
1.942413
  0
VERTEX
  8
PLAN_1
 62
     2
  6
CONTINUOUS
 10
0.487484
 20
1.941500
  0
VERTEX
  8
PLAN_1
 62
     2
  6
CONTINUOUS
 10
0.491606
 20
1.941039
  0
VERTEX
  8
PLAN_1
 62
     2
  6
CONTINUOUS
 10
0.494811
 20
1.940583
  0
VERTEX
  8
PLAN_1
 62
     2
  6
CONTINUOUS
 10
0.495272
 20
1.941039
  0
VERTEX
  8
PLAN_1
 62
     2
  6
CONTINUOUS
 10
0.493437
 20
1.941957
  0
VERTEX
  8
PLAN_1
 62
     2
  6
CONTINUOUS
 10
0.492063
 20
1.943331
  0
VERTEX
  8
PLAN_1
 62
     2
  6
CONTINUOUS
 10
0.490689
 20
1.944705
  0
VERTEX
  8
PLAN_1
 62
     2
  6
CONTINUOUS
 10
0.489315
 20
1.946535
  0
VERTEX
  8
PLAN_1
 62
     2
  6
CONTINUOUS
 10
0.487941
 20
1.948827
  0
VERTEX
  8
PLAN_1
 62
     2
  6
CONTINUOUS
 10
0.487028
 20
1.951575
  0
VERTEX
  8
PLAN_1
 62
     2
  6
CONTINUOUS
 10
0.486567
 20
1.954780
  0
VERTEX
  8
PLAN_1
 62
     2
  6
CONTINUOUS
 10
0.486110
 20
1.958445
  0
VERTEX
  8
PLAN_1
 62
     2
  6
CONTINUOUS
 10
0.486567
 20
1.961650
  0
VERTEX
  8
PLAN_1
 62
     2
  6
CONTINUOUS
 10
0.487484
 20
1.965772
  0
VERTEX
  8
PLAN_1
 62
     2
  6
CONTINUOUS
 10
0.488858
 20
1.969437
  0
VERTEX
  8
PLAN_1
 62
     2
  6
CONTINUOUS
 10
0.491150
 20
1.973102
  0
VERTEX
  8
PLAN_1
 62
     2
  6
CONTINUOUS
 10
0.492524
 20
1.974476
  0
VERTEX
  8
PLAN_1
 62
     2
  6
CONTINUOUS
 10
0.494354
 20
1.976307
  0
VERTEX
  8
PLAN_1
 62
     2
  6
CONTINUOUS
 10
0.496185
 20
1.977681
  0
VERTEX
  8
PLAN_1
 62
     2
  6
CONTINUOUS
 10
0.498476
 20
1.978598
  0
VERTEX
  8
PLAN_1
 62
     2
  6
CONTINUOUS
 10
0.500768
 20
1.979972
  0
VERTEX
  8
PLAN_1
 62
     2
  6
CONTINUOUS
 10
0.503516
 20
1.980429
  0
VERTEX
  8
PLAN_1
 62
     2
  6
CONTINUOUS
 10
0.506264
 20
1.980886
  0
VERTEX
  8
PLAN_1
 62
     2
  6
CONTINUOUS
 10
0.509469
 20
1.981346
  0
VERTEX
  8
PLAN_1
 62
     2
  6
CONTINUOUS
 10
0.512217
 20
1.980886
  0
VERTEX
  8
PLAN_1
 62
     2
  6
CONTINUOUS
 10
0.514508
 20
1.980886
  0
VERTEX
  8
PLAN_1
 62
     2
  6
CONTINUOUS
 10
0.516795
 20
1.980429
  0
VERTEX
  8
PLAN_1
 62
     2
  6
CONTINUOUS
 10
0.519087
 20
1.979512
  0
VERTEX
  8
PLAN_1
 62
     2
  6
CONTINUOUS
 10
0.521378
 20
1.978598
  0
VERTEX
  8
PLAN_1
 62
     2
  6
CONTINUOUS
 10
0.523665
 20
1.977224
  0
VERTEX
  8
PLAN_1
 62
     2
  6
CONTINUOUS
 10
0.525500
 20
1.975850
  0
VERTEX
  8
PLAN_1
 62
     2
  6
CONTINUOUS
 10
0.527787
 20
1.974016
  0
VERTEX
  8
PLAN_1
 62
     2
  6
CONTINUOUS
 10
0.529161
 20
1.972642
  0
VERTEX
  8
PLAN_1
 62
     2
  6
CONTINUOUS
 10
0.530535
 20
1.971268
  0
VERTEX
  8
PLAN_1
 62
     2
  6
CONTINUOUS
 10
0.531909
 20
1.969437
  0
VERTEX
  8
PLAN_1
 62
     2
  6
CONTINUOUS
 10
0.532827
 20
1.967146
  0
VERTEX
  8
PLAN_1
 62
     2
  6
CONTINUOUS
 10
0.533744
 20
1.964858
  0
VERTEX
  8
PLAN_1
 62
     2
  6
CONTINUOUS
 10
0.534201
 20
1.962110
  0
VERTEX
  8
PLAN_1
 62
     2
  6
CONTINUOUS
 10
0.534657
 20
1.959362
  0
VERTEX
  8
PLAN_1
 62
     2
  6
CONTINUOUS
 10
0.534657
 20
1.955697
  0
VERTEX
  8
PLAN_1
 62
     2
  6
CONTINUOUS
 10
0.534657
 20
1.953406
  0
VERTEX
  8
PLAN_1
 62
     2
  6
CONTINUOUS
 10
0.534201
 20
1.951118
  0
VERTEX
  8
PLAN_1
 62
     2
  6
CONTINUOUS
 10
0.533744
 20
1.948370
  0
VERTEX
  8
PLAN_1
 62
     2
  6
CONTINUOUS
 10
0.532370
 20
1.946079
  0
VERTEX
  8
PLAN_1
 62
     2
  6
CONTINUOUS
 10
0.530996
 20
1.943787
  0
VERTEX
  8
PLAN_1
 62
     2
  6
CONTINUOUS
 10
0.529161
 20
1.941039
  0
VERTEX
  8
PLAN_1
 62
     2
  6
CONTINUOUS
 10
0.526874
 20
1.938752
  0
VERTEX
  8
PLAN_1
 62
     2
  6
CONTINUOUS
 10
0.524126
 20
1.936917
  0
VERTEX
  8
PLAN_1
 62
     2
  6
CONTINUOUS
 10
0.521378
 20
1.935087
  0
VERTEX
  8
PLAN_1
 62
     2
  6
CONTINUOUS
 10
0.518630
 20
1.934169
  0
VERTEX
  8
PLAN_1
 62
     2
  6
CONTINUOUS
 10
0.515421
 20
1.933256
  0
VERTEX
  8
PLAN_1
 62
     2
  6
CONTINUOUS
 10
0.512673
 20
1.932339
  0
VERTEX
  8
PLAN_1
 62
     2
  6
CONTINUOUS
 10
0.509012
 20
1.931882
  0
VERTEX
  8
PLAN_1
 62
     2
  6
CONTINUOUS
 10
0.505803
 20
1.931421
  0
VERTEX
  8
PLAN_1
 62
     2
  6
CONTINUOUS
 10
0.502142
 20
1.931421
  0
VERTEX
  8
PLAN_1
 62
     2
  6
CONTINUOUS
 10
0.498933
 20
1.931421
  0
VERTEX
  8
PLAN_1
 62
     2
  6
CONTINUOUS
 10
0.492524
 20
1.931421
  0
VERTEX
  8
PLAN_1
 62
     2
  6
CONTINUOUS
 10
0.485654
 20
1.932339
  0
VERTEX
  8
PLAN_1
 62
     2
  6
CONTINUOUS
 10
0.482445
 20
1.933256
  0
VERTEX
  8
PLAN_1
 62
     2
  6
CONTINUOUS
 10
0.479240
 20
1.934169
  0
VERTEX
  8
PLAN_1
 62
     2
  6
CONTINUOUS
 10
0.476035
 20
1.935087
  0
VERTEX
  8
PLAN_1
 62
     2
  6
CONTINUOUS
 10
0.473287
 20
1.936461
  0
VERTEX
  8
PLAN_1
 62
     2
  6
CONTINUOUS
 10
0.470539
 20
1.938291
  0
VERTEX
  8
PLAN_1
 62
     2
  6
CONTINUOUS
 10
0.467791
 20
1.940126
  0
VERTEX
  8
PLAN_1
 62
     2
  6
CONTINUOUS
 10
0.465500
 20
1.942413
  0
VERTEX
  8
PLAN_1
 62
     2
  6
CONTINUOUS
 10
0.463669
 20
1.944705
  0
VERTEX
  8
PLAN_1
 62
     2
  6
CONTINUOUS
 10
0.461839
 20
1.947453
  0
VERTEX
  8
PLAN_1
 62
     2
  6
CONTINUOUS
 10
0.460465
 20
1.950657
  0
VERTEX
  8
PLAN_1
 62
     2
  6
CONTINUOUS
 10
0.460004
 20
1.954323
  0
VERTEX
  8
PLAN_1
 62
     2
  6
CONTINUOUS
 10
0.459547
 20
1.958445
  0
VERTEX
  8
PLAN_1
 62
     2
  6
CONTINUOUS
 10
0.460004
 20
1.961650
  0
VERTEX
  8
PLAN_1
 62
     2
  6
CONTINUOUS
 10
0.460465
 20
1.964858
  0
VERTEX
  8
PLAN_1
 62
     2
  6
CONTINUOUS
 10
0.461839
 20
1.968520
  0
VERTEX
  8
PLAN_1
 62
     2
  6
CONTINUOUS
 10
0.463669
 20
1.971728
  0
VERTEX
  8
PLAN_1
 62
     2
  6
CONTINUOUS
 10
0.466417
 20
1.974476
  0
VERTEX
  8
PLAN_1
 62
     2
  6
CONTINUOUS
 10
0.469622
 20
1.977224
  0
VERTEX
  8
PLAN_1
 62
     2
  6
CONTINUOUS
 10
0.471913
 20
1.978138
  0
VERTEX
  8
PLAN_1
 62
     2
  6
CONTINUOUS
 10
0.473744
 20
1.978598
  0
VERTEX
  8
PLAN_1
 62
     2
  6
CONTINUOUS
 10
0.476492
 20
1.979055
  0
VERTEX
  8
PLAN_1
 62
     2
  6
CONTINUOUS
 10
0.479240
 20
1.979512
  0
VERTEX
  8
PLAN_1
 62
     2
  6
CONTINUOUS
 10
0.479240
 20
1.970811
  0
SEQEND
  8
0
  0
POLYLINE
  8
PLAN_1
 62
     2
  6
CONTINUOUS
 66
     1
 40
0.003000
 41
0.003000
  0
VERTEX
  8
PLAN_1
 62
     2
  6
CONTINUOUS
 10
0.526413
 20
1.957528
  0
VERTEX
  8
PLAN_1
 62
     2
  6
CONTINUOUS
 10
0.526413
 20
1.960276
  0
VERTEX
  8
PLAN_1
 62
     2
  6
CONTINUOUS
 10
0.525500
 20
1.963024
  0
VERTEX
  8
PLAN_1
 62
     2
  6
CONTINUOUS
 10
0.523665
 20
1.965772
  0
VERTEX
  8
PLAN_1
 62
     2
  6
CONTINUOUS
 10
0.521835
 20
1.967606
  0
VERTEX
  8
PLAN_1
 62
     2
  6
CONTINUOUS
 10
0.519543
 20
1.969437
  0
VERTEX
  8
PLAN_1
 62
     2
  6
CONTINUOUS
 10
0.516339
 20
1.970811
  0
VERTEX
  8
PLAN_1
 62
     2
  6
CONTINUOUS
 10
0.513134
 20
1.971268
  0
VERTEX
  8
PLAN_1
 62
     2
  6
CONTINUOUS
 10
0.509925
 20
1.971728
  0
VERTEX
  8
PLAN_1
 62
     2
  6
CONTINUOUS
 10
0.507177
 20
1.971268
  0
VERTEX
  8
PLAN_1
 62
     2
  6
CONTINUOUS
 10
0.504429
 20
1.970811
  0
VERTEX
  8
PLAN_1
 62
     2
  6
CONTINUOUS
 10
0.502142
 20
1.969894
  0
VERTEX
  8
PLAN_1
 62
     2
  6
CONTINUOUS
 10
0.499850
 20
1.968520
  0
VERTEX
  8
PLAN_1
 62
     2
  6
CONTINUOUS
 10
0.497559
 20
1.966689
  0
VERTEX
  8
PLAN_1
 62
     2
  6
CONTINUOUS
 10
0.495728
 20
1.963941
  0
VERTEX
  8
PLAN_1
 62
     2
  6
CONTINUOUS
 10
0.494811
 20
1.960736
  0
VERTEX
  8
PLAN_1
 62
     2
  6
CONTINUOUS
 10
0.494354
 20
1.957071
  0
VERTEX
  8
PLAN_1
 62
     2
  6
CONTINUOUS
 10
0.494811
 20
1.953406
  0
VERTEX
  8
PLAN_1
 62
     2
  6
CONTINUOUS
 10
0.495728
 20
1.950201
  0
VERTEX
  8
PLAN_1
 62
     2
  6
CONTINUOUS
 10
0.497102
 20
1.947909
  0
VERTEX
  8
PLAN_1
 62
     2
  6
CONTINUOUS
 10
0.498933
 20
1.945622
  0
VERTEX
  8
PLAN_1
 62
     2
  6
CONTINUOUS
 10
0.501224
 20
1.943787
  0
VERTEX
  8
PLAN_1
 62
     2
  6
CONTINUOUS
 10
0.503972
 20
1.942874
  0
VERTEX
  8
PLAN_1
 62
     2
  6
CONTINUOUS
 10
0.507177
 20
1.941957
  0
VERTEX
  8
PLAN_1
 62
     2
  6
CONTINUOUS
 10
0.510386
 20
1.941957
  0
VERTEX
  8
PLAN_1
 62
     2
  6
CONTINUOUS
 10
0.513134
 20
1.941957
  0
VERTEX
  8
PLAN_1
 62
     2
  6
CONTINUOUS
 10
0.516339
 20
1.942874
  0
VERTEX
  8
PLAN_1
 62
     2
  6
CONTINUOUS
 10
0.518630
 20
1.943787
  0
VERTEX
  8
PLAN_1
 62
     2
  6
CONTINUOUS
 10
0.521378
 20
1.945622
  0
VERTEX
  8
PLAN_1
 62
     2
  6
CONTINUOUS
 10
0.523209
 20
1.947909
  0
VERTEX
  8
PLAN_1
 62
     2
  6
CONTINUOUS
 10
0.525039
 20
1.950201
  0
VERTEX
  8
PLAN_1
 62
     2
  6
CONTINUOUS
 10
0.525957
 20
1.953406
  0
VERTEX
  8
PLAN_1
 62
     2
  6
CONTINUOUS
 10
0.526413
 20
1.957528
  0
SEQEND
  8
0
  0
POLYLINE
  8
PLAN_1
 62
     2
  6
CONTINUOUS
 66
     1
 40
0.003000
 41
0.003000
  0
VERTEX
  8
PLAN_1
 62
     2
  6
CONTINUOUS
 10
0.534657
 20
2.013862
  0
VERTEX
  8
PLAN_1
 62
     2
  6
CONTINUOUS
 10
0.534657
 20
2.010197
  0
VERTEX
  8
PLAN_1
 62
     2
  6
CONTINUOUS
 10
0.533744
 20
2.006992
  0
VERTEX
  8
PLAN_1
 62
     2
  6
CONTINUOUS
 10
0.532370
 20
2.003787
  0
VERTEX
  8
PLAN_1
 62
     2
  6
CONTINUOUS
 10
0.530996
 20
2.001496
  0
VERTEX
  8
PLAN_1
 62
     2
  6
CONTINUOUS
 10
0.529161
 20
1.998748
  0
VERTEX
  8
PLAN_1
 62
     2
  6
CONTINUOUS
 10
0.526874
 20
1.996917
  0
VERTEX
  8
PLAN_1
 62
     2
  6
CONTINUOUS
 10
0.524583
 20
1.995083
  0
VERTEX
  8
PLAN_1
 62
     2
  6
CONTINUOUS
 10
0.521835
 20
1.993709
  0
VERTEX
  8
PLAN_1
 62
     2
  6
CONTINUOUS
 10
0.515882
 20
1.991421
  0
VERTEX
  8
PLAN_1
 62
     2
  6
CONTINUOUS
 10
0.509469
 20
1.990047
  0
VERTEX
  8
PLAN_1
 62
     2
  6
CONTINUOUS
 10
0.503055
 20
1.989130
  0
VERTEX
  8
PLAN_1
 62
     2
  6
CONTINUOUS
 10
0.497102
 20
1.989130
  0
VERTEX
  8
PLAN_1
 62
     2
  6
CONTINUOUS
 10
0.491150
 20
1.989130
  0
VERTEX
  8
PLAN_1
 62
     2
  6
CONTINUOUS
 10
0.484736
 20
1.990047
  0
VERTEX
  8
PLAN_1
 62
     2
  6
CONTINUOUS
 10
0.478783
 20
1.991421
  0
VERTEX
  8
PLAN_1
 62
     2
  6
CONTINUOUS
 10
0.472831
 20
1.993709
  0
VERTEX
  8
PLAN_1
 62
     2
  6
CONTINUOUS
 10
0.470083
 20
1.995083
  0
VERTEX
  8
PLAN_1
 62
     2
  6
CONTINUOUS
 10
0.467335
 20
1.996917
  0
VERTEX
  8
PLAN_1
 62
     2
  6
CONTINUOUS
 10
0.465043
 20
1.998748
  0
VERTEX
  8
PLAN_1
 62
     2
  6
CONTINUOUS
 10
0.463213
 20
2.001496
  0
VERTEX
  8
PLAN_1
 62
     2
  6
CONTINUOUS
 10
0.461839
 20
2.003787
  0
VERTEX
  8
PLAN_1
 62
     2
  6
CONTINUOUS
 10
0.460465
 20
2.006992
  0
VERTEX
  8
PLAN_1
 62
     2
  6
CONTINUOUS
 10
0.460004
 20
2.010197
  0
VERTEX
  8
PLAN_1
 62
     2
  6
CONTINUOUS
 10
0.459547
 20
2.013862
  0
VERTEX
  8
PLAN_1
 62
     2
  6
CONTINUOUS
 10
0.460004
 20
2.017984
  0
VERTEX
  8
PLAN_1
 62
     2
  6
CONTINUOUS
 10
0.460465
 20
2.021189
  0
VERTEX
  8
PLAN_1
 62
     2
  6
CONTINUOUS
 10
0.461839
 20
2.024398
  0
VERTEX
  8
PLAN_1
 62
     2
  6
CONTINUOUS
 10
0.463213
 20
2.026685
  0
VERTEX
  8
PLAN_1
 62
     2
  6
CONTINUOUS
 10
0.465043
 20
2.028976
  0
VERTEX
  8
PLAN_1
 62
     2
  6
CONTINUOUS
 10
0.467335
 20
2.031268
  0
VERTEX
  8
PLAN_1
 62
     2
  6
CONTINUOUS
 10
0.470083
 20
2.033098
  0
VERTEX
  8
PLAN_1
 62
     2
  6
CONTINUOUS
 10
0.472831
 20
2.034472
  0
VERTEX
  8
PLAN_1
 62
     2
  6
CONTINUOUS
 10
0.478783
 20
2.036764
  0
VERTEX
  8
PLAN_1
 62
     2
  6
CONTINUOUS
 10
0.484736
 20
2.038138
  0
VERTEX
  8
PLAN_1
 62
     2
  6
CONTINUOUS
 10
0.491150
 20
2.039051
  0
VERTEX
  8
PLAN_1
 62
     2
  6
CONTINUOUS
 10
0.497102
 20
2.039051
  0
VERTEX
  8
PLAN_1
 62
     2
  6
CONTINUOUS
 10
0.503055
 20
2.039051
  0
VERTEX
  8
PLAN_1
 62
     2
  6
CONTINUOUS
 10
0.509469
 20
2.038138
  0
VERTEX
  8
PLAN_1
 62
     2
  6
CONTINUOUS
 10
0.515882
 20
2.036764
  0
VERTEX
  8
PLAN_1
 62
     2
  6
CONTINUOUS
 10
0.521835
 20
2.034472
  0
VERTEX
  8
PLAN_1
 62
     2
  6
CONTINUOUS
 10
0.524583
 20
2.033098
  0
VERTEX
  8
PLAN_1
 62
     2
  6
CONTINUOUS
 10
0.526874
 20
2.031268
  0
VERTEX
  8
PLAN_1
 62
     2
  6
CONTINUOUS
 10
0.529161
 20
2.028976
  0
VERTEX
  8
PLAN_1
 62
     2
  6
CONTINUOUS
 10
0.530996
 20
2.026685
  0
VERTEX
  8
PLAN_1
 62
     2
  6
CONTINUOUS
 10
0.532370
 20
2.024398
  0
VERTEX
  8
PLAN_1
 62
     2
  6
CONTINUOUS
 10
0.533744
 20
2.021189
  0
VERTEX
  8
PLAN_1
 62
     2
  6
CONTINUOUS
 10
0.534657
 20
2.017984
  0
VERTEX
  8
PLAN_1
 62
     2
  6
CONTINUOUS
 10
0.534657
 20
2.013862
  0
SEQEND
  8
0
  0
POLYLINE
  8
PLAN_1
 62
     2
  6
CONTINUOUS
 66
     1
 40
0.003000
 41
0.003000
  0
VERTEX
  8
PLAN_1
 62
     2
  6
CONTINUOUS
 10
0.467791
 20
2.013862
  0
VERTEX
  8
PLAN_1
 62
     2
  6
CONTINUOUS
 10
0.467791
 20
2.012031
  0
VERTEX
  8
PLAN_1
 62
     2
  6
CONTINUOUS
 10
0.468248
 20
2.010197
  0
VERTEX
  8
PLAN_1
 62
     2
  6
CONTINUOUS
 10
0.469165
 20
2.008823
  0
VERTEX
  8
PLAN_1
 62
     2
  6
CONTINUOUS
 10
0.469622
 20
2.007449
  0
VERTEX
  8
PLAN_1
 62
     2
  6
CONTINUOUS
 10
0.470996
 20
2.005618
  0
VERTEX
  8
PLAN_1
 62
     2
  6
CONTINUOUS
 10
0.472370
 20
2.004701
  0
VERTEX
  8
PLAN_1
 62
     2
  6
CONTINUOUS
 10
0.473744
 20
2.003327
  0
VERTEX
  8
PLAN_1
 62
     2
  6
CONTINUOUS
 10
0.475575
 20
2.002413
  0
VERTEX
  8
PLAN_1
 62
     2
  6
CONTINUOUS
 10
0.479697
 20
2.001039
  0
VERTEX
  8
PLAN_1
 62
     2
  6
CONTINUOUS
 10
0.484736
 20
1.999665
  0
VERTEX
  8
PLAN_1
 62
     2
  6
CONTINUOUS
 10
0.490689
 20
1.999205
  0
VERTEX
  8
PLAN_1
 62
     2
  6
CONTINUOUS
 10
0.497102
 20
1.998748
  0
VERTEX
  8
PLAN_1
 62
     2
  6
CONTINUOUS
 10
0.503516
 20
1.999205
  0
VERTEX
  8
PLAN_1
 62
     2
  6
CONTINUOUS
 10
0.509469
 20
1.999665
  0
VERTEX
  8
PLAN_1
 62
     2
  6
CONTINUOUS
 10
0.514508
 20
2.001039
  0
VERTEX
  8
PLAN_1
 62
     2
  6
CONTINUOUS
 10
0.518630
 20
2.002413
  0
VERTEX
  8
PLAN_1
 62
     2
  6
CONTINUOUS
 10
0.520461
 20
2.003327
  0
VERTEX
  8
PLAN_1
 62
     2
  6
CONTINUOUS
 10
0.521835
 20
2.004701
  0
VERTEX
  8
PLAN_1
 62
     2
  6
CONTINUOUS
 10
0.523209
 20
2.005618
  0
VERTEX
  8
PLAN_1
 62
     2
  6
CONTINUOUS
 10
0.524583
 20
2.007449
  0
VERTEX
  8
PLAN_1
 62
     2
  6
CONTINUOUS
 10
0.525500
 20
2.008823
  0
VERTEX
  8
PLAN_1
 62
     2
  6
CONTINUOUS
 10
0.525957
 20
2.010197
  0
VERTEX
  8
PLAN_1
 62
     2
  6
CONTINUOUS
 10
0.526413
 20
2.012031
  0
VERTEX
  8
PLAN_1
 62
     2
  6
CONTINUOUS
 10
0.526413
 20
2.013862
  0
VERTEX
  8
PLAN_1
 62
     2
  6
CONTINUOUS
 10
0.526413
 20
2.016154
  0
VERTEX
  8
PLAN_1
 62
     2
  6
CONTINUOUS
 10
0.525957
 20
2.017528
  0
VERTEX
  8
PLAN_1
 62
     2
  6
CONTINUOUS
 10
0.525500
 20
2.019358
  0
VERTEX
  8
PLAN_1
 62
     2
  6
CONTINUOUS
 10
0.524583
 20
2.020732
  0
VERTEX
  8
PLAN_1
 62
     2
  6
CONTINUOUS
 10
0.523209
 20
2.022106
  0
VERTEX
  8
PLAN_1
 62
     2
  6
CONTINUOUS
 10
0.521835
 20
2.023480
  0
VERTEX
  8
PLAN_1
 62
     2
  6
CONTINUOUS
 10
0.520461
 20
2.024854
  0
VERTEX
  8
PLAN_1
 62
     2
  6
CONTINUOUS
 10
0.518630
 20
2.025772
  0
VERTEX
  8
PLAN_1
 62
     2
  6
CONTINUOUS
 10
0.514508
 20
2.027146
  0
VERTEX
  8
PLAN_1
 62
     2
  6
CONTINUOUS
 10
0.509469
 20
2.028520
  0
VERTEX
  8
PLAN_1
 62
     2
  6
CONTINUOUS
 10
0.503516
 20
2.028976
  0
VERTEX
  8
PLAN_1
 62
     2
  6
CONTINUOUS
 10
0.497102
 20
2.029433
  0
VERTEX
  8
PLAN_1
 62
     2
  6
CONTINUOUS
 10
0.490689
 20
2.028976
  0
VERTEX
  8
PLAN_1
 62
     2
  6
CONTINUOUS
 10
0.484736
 20
2.028520
  0
VERTEX
  8
PLAN_1
 62
     2
  6
CONTINUOUS
 10
0.479697
 20
2.027146
  0
VERTEX
  8
PLAN_1
 62
     2
  6
CONTINUOUS
 10
0.475575
 20
2.025772
  0
VERTEX
  8
PLAN_1
 62
     2
  6
CONTINUOUS
 10
0.473744
 20
2.024854
  0
VERTEX
  8
PLAN_1
 62
     2
  6
CONTINUOUS
 10
0.472370
 20
2.023480
  0
VERTEX
  8
PLAN_1
 62
     2
  6
CONTINUOUS
 10
0.470996
 20
2.022106
  0
VERTEX
  8
PLAN_1
 62
     2
  6
CONTINUOUS
 10
0.469622
 20
2.020732
  0
VERTEX
  8
PLAN_1
 62
     2
  6
CONTINUOUS
 10
0.469165
 20
2.019358
  0
VERTEX
  8
PLAN_1
 62
     2
  6
CONTINUOUS
 10
0.468248
 20
2.017528
  0
VERTEX
  8
PLAN_1
 62
     2
  6
CONTINUOUS
 10
0.467791
 20
2.016154
  0
VERTEX
  8
PLAN_1
 62
     2
  6
CONTINUOUS
 10
0.467791
 20
2.013862
  0
SEQEND
  8
0
  0
POLYLINE
  8
PLAN_1
 62
     2
  6
CONTINUOUS
 66
     1
 40
0.004118
 41
0.004118
  0
VERTEX
  8
PLAN_1
 62
     2
  6
CONTINUOUS
 10
0.556185
 20
3.333807
  0
VERTEX
  8
PLAN_1
 62
     2
  6
CONTINUOUS
 10
0.556185
 20
3.531661
  0
SEQEND
  8
0
  0
SOLID
  8
PLAN_1
 62
     2
 10
0.556185
 20
3.560976
 11
0.540614
 21
3.502350
 12
0.556185
 22
3.560976
 13
0.572213
 23
3.502350
  0
POLYLINE
  8
PLAN_1
 62
     2
  6
CONTINUOUS
 66
     1
 40
0.003000
 41
0.003000
  0
VERTEX
  8
PLAN_1
 62
     2
  6
CONTINUOUS
 10
0.556185
 20
3.560976
  0
VERTEX
  8
PLAN_1
 62
     2
  6
CONTINUOUS
 10
0.540614
 20
3.502350
  0
VERTEX
  8
PLAN_1
 62
     2
  6
CONTINUOUS
 10
0.572213
 20
3.502350
  0
VERTEX
  8
PLAN_1
 62
     2
  6
CONTINUOUS
 10
0.556185
 20
3.560976
  0
SEQEND
  8
0
  0
SOLID
  8
PLAN_1
 62
     2
 10
0.556185
 20
3.304039
 11
0.540614
 21
3.363122
 12
0.556185
 22
3.304039
 13
0.572213
 23
3.363122
  0
POLYLINE
  8
PLAN_1
 62
     2
  6
CONTINUOUS
 66
     1
 40
0.003000
 41
0.003000
  0
VERTEX
  8
PLAN_1
 62
     2
  6
CONTINUOUS
 10
0.556185
 20
3.304039
  0
VERTEX
  8
PLAN_1
 62
     2
  6
CONTINUOUS
 10
0.540614
 20
3.363122
  0
VERTEX
  8
PLAN_1
 62
     2
  6
CONTINUOUS
 10
0.572213
 20
3.363122
  0
VERTEX
  8
PLAN_1
 62
     2
  6
CONTINUOUS
 10
0.556185
 20
3.304039
  0
SEQEND
  8
0
  0
POLYLINE
  8
PLAN_1
 62
     2
  6
CONTINUOUS
 66
     1
 40
0.003000
 41
0.003000
  0
VERTEX
  8
PLAN_1
 62
     2
  6
CONTINUOUS
 10
0.479240
 20
3.403882
  0
VERTEX
  8
PLAN_1
 62
     2
  6
CONTINUOUS
 10
0.476949
 20
3.402965
  0
VERTEX
  8
PLAN_1
 62
     2
  6
CONTINUOUS
 10
0.474661
 20
3.402508
  0
VERTEX
  8
PLAN_1
 62
     2
  6
CONTINUOUS
 10
0.472831
 20
3.401134
  0
VERTEX
  8
PLAN_1
 62
     2
  6
CONTINUOUS
 10
0.470996
 20
3.399760
  0
VERTEX
  8
PLAN_1
 62
     2
  6
CONTINUOUS
 10
0.469622
 20
3.398386
  0
VERTEX
  8
PLAN_1
 62
     2
  6
CONTINUOUS
 10
0.468709
 20
3.396094
  0
VERTEX
  8
PLAN_1
 62
     2
  6
CONTINUOUS
 10
0.468248
 20
3.393807
  0
VERTEX
  8
PLAN_1
 62
     2
  6
CONTINUOUS
 10
0.467791
 20
3.391059
  0
VERTEX
  8
PLAN_1
 62
     2
  6
CONTINUOUS
 10
0.468248
 20
3.388768
  0
VERTEX
  8
PLAN_1
 62
     2
  6
CONTINUOUS
 10
0.468709
 20
3.386476
  0
VERTEX
  8
PLAN_1
 62
     2
  6
CONTINUOUS
 10
0.469622
 20
3.384189
  0
VERTEX
  8
PLAN_1
 62
     2
  6
CONTINUOUS
 10
0.470996
 20
3.382358
  0
VERTEX
  8
PLAN_1
 62
     2
  6
CONTINUOUS
 10
0.472370
 20
3.380524
  0
VERTEX
  8
PLAN_1
 62
     2
  6
CONTINUOUS
 10
0.474205
 20
3.379150
  0
VERTEX
  8
PLAN_1
 62
     2
  6
CONTINUOUS
 10
0.476492
 20
3.378236
  0
VERTEX
  8
PLAN_1
 62
     2
  6
CONTINUOUS
 10
0.478323
 20
3.376862
  0
VERTEX
  8
PLAN_1
 62
     2
  6
CONTINUOUS
 10
0.482906
 20
3.375488
  0
VERTEX
  8
PLAN_1
 62
     2
  6
CONTINUOUS
 10
0.487484
 20
3.374571
  0
VERTEX
  8
PLAN_1
 62
     2
  6
CONTINUOUS
 10
0.491606
 20
3.374114
  0
VERTEX
  8
PLAN_1
 62
     2
  6
CONTINUOUS
 10
0.494811
 20
3.373654
  0
VERTEX
  8
PLAN_1
 62
     2
  6
CONTINUOUS
 10
0.495272
 20
3.374114
  0
VERTEX
  8
PLAN_1
 62
     2
  6
CONTINUOUS
 10
0.493437
 20
3.375028
  0
VERTEX
  8
PLAN_1
 62
     2
  6
CONTINUOUS
 10
0.492063
 20
3.376402
  0
VERTEX
  8
PLAN_1
 62
     2
  6
CONTINUOUS
 10
0.490689
 20
3.377776
  0
VERTEX
  8
PLAN_1
 62
     2
  6
CONTINUOUS
 10
0.489315
 20
3.379610
  0
VERTEX
  8
PLAN_1
 62
     2
  6
CONTINUOUS
 10
0.487941
 20
3.381898
  0
VERTEX
  8
PLAN_1
 62
     2
  6
CONTINUOUS
 10
0.487028
 20
3.384646
  0
VERTEX
  8
PLAN_1
 62
     2
  6
CONTINUOUS
 10
0.486567
 20
3.387850
  0
VERTEX
  8
PLAN_1
 62
     2
  6
CONTINUOUS
 10
0.486110
 20
3.391516
  0
VERTEX
  8
PLAN_1
 62
     2
  6
CONTINUOUS
 10
0.486567
 20
3.394720
  0
VERTEX
  8
PLAN_1
 62
     2
  6
CONTINUOUS
 10
0.487484
 20
3.398843
  0
VERTEX
  8
PLAN_1
 62
     2
  6
CONTINUOUS
 10
0.488858
 20
3.402508
  0
VERTEX
  8
PLAN_1
 62
     2
  6
CONTINUOUS
 10
0.491150
 20
3.406173
  0
VERTEX
  8
PLAN_1
 62
     2
  6
CONTINUOUS
 10
0.492524
 20
3.408004
  0
VERTEX
  8
PLAN_1
 62
     2
  6
CONTINUOUS
 10
0.494354
 20
3.409378
  0
VERTEX
  8
PLAN_1
 62
     2
  6
CONTINUOUS
 10
0.496185
 20
3.410752
  0
VERTEX
  8
PLAN_1
 62
     2
  6
CONTINUOUS
 10
0.498476
 20
3.412126
  0
VERTEX
  8
PLAN_1
 62
     2
  6
CONTINUOUS
 10
0.500768
 20
3.413043
  0
VERTEX
  8
PLAN_1
 62
     2
  6
CONTINUOUS
 10
0.503516
 20
3.413500
  0
VERTEX
  8
PLAN_1
 62
     2
  6
CONTINUOUS
 10
0.506264
 20
3.413957
  0
VERTEX
  8
PLAN_1
 62
     2
  6
CONTINUOUS
 10
0.509469
 20
3.414417
  0
VERTEX
  8
PLAN_1
 62
     2
  6
CONTINUOUS
 10
0.512217
 20
3.413957
  0
VERTEX
  8
PLAN_1
 62
     2
  6
CONTINUOUS
 10
0.514508
 20
3.413957
  0
VERTEX
  8
PLAN_1
 62
     2
  6
CONTINUOUS
 10
0.516795
 20
3.413500
  0
VERTEX
  8
PLAN_1
 62
     2
  6
CONTINUOUS
 10
0.519087
 20
3.412583
  0
VERTEX
  8
PLAN_1
 62
     2
  6
CONTINUOUS
 10
0.521378
 20
3.411669
  0
VERTEX
  8
PLAN_1
 62
     2
  6
CONTINUOUS
 10
0.523665
 20
3.410295
  0
VERTEX
  8
PLAN_1
 62
     2
  6
CONTINUOUS
 10
0.525500
 20
3.408921
  0
VERTEX
  8
PLAN_1
 62
     2
  6
CONTINUOUS
 10
0.527787
 20
3.407087
  0
VERTEX
  8
PLAN_1
 62
     2
  6
CONTINUOUS
 10
0.529161
 20
3.405713
  0
VERTEX
  8
PLAN_1
 62
     2
  6
CONTINUOUS
 10
0.530535
 20
3.404339
  0
VERTEX
  8
PLAN_1
 62
     2
  6
CONTINUOUS
 10
0.531909
 20
3.402508
  0
VERTEX
  8
PLAN_1
 62
     2
  6
CONTINUOUS
 10
0.532827
 20
3.400217
  0
VERTEX
  8
PLAN_1
 62
     2
  6
CONTINUOUS
 10
0.533744
 20
3.397929
  0
VERTEX
  8
PLAN_1
 62
     2
  6
CONTINUOUS
 10
0.534201
 20
3.395638
  0
VERTEX
  8
PLAN_1
 62
     2
  6
CONTINUOUS
 10
0.534657
 20
3.392433
  0
VERTEX
  8
PLAN_1
 62
     2
  6
CONTINUOUS
 10
0.534657
 20
3.388768
  0
VERTEX
  8
PLAN_1
 62
     2
  6
CONTINUOUS
 10
0.534657
 20
3.386476
  0
VERTEX
  8
PLAN_1
 62
     2
  6
CONTINUOUS
 10
0.534201
 20
3.384189
  0
VERTEX
  8
PLAN_1
 62
     2
  6
CONTINUOUS
 10
0.533744
 20
3.381898
  0
VERTEX
  8
PLAN_1
 62
     2
  6
CONTINUOUS
 10
0.532370
 20
3.379150
  0
VERTEX
  8
PLAN_1
 62
     2
  6
CONTINUOUS
 10
0.530996
 20
3.376862
  0
VERTEX
  8
PLAN_1
 62
     2
  6
CONTINUOUS
 10
0.529161
 20
3.374114
  0
VERTEX
  8
PLAN_1
 62
     2
  6
CONTINUOUS
 10
0.526874
 20
3.371823
  0
VERTEX
  8
PLAN_1
 62
     2
  6
CONTINUOUS
 10
0.524126
 20
3.369992
  0
VERTEX
  8
PLAN_1
 62
     2
  6
CONTINUOUS
 10
0.521378
 20
3.368618
  0
VERTEX
  8
PLAN_1
 62
     2
  6
CONTINUOUS
 10
0.518630
 20
3.367244
  0
VERTEX
  8
PLAN_1
 62
     2
  6
CONTINUOUS
 10
0.515421
 20
3.366327
  0
VERTEX
  8
PLAN_1
 62
     2
  6
CONTINUOUS
 10
0.512673
 20
3.365409
  0
VERTEX
  8
PLAN_1
 62
     2
  6
CONTINUOUS
 10
0.509012
 20
3.364953
  0
VERTEX
  8
PLAN_1
 62
     2
  6
CONTINUOUS
 10
0.505803
 20
3.364496
  0
VERTEX
  8
PLAN_1
 62
     2
  6
CONTINUOUS
 10
0.502142
 20
3.364496
  0
VERTEX
  8
PLAN_1
 62
     2
  6
CONTINUOUS
 10
0.498933
 20
3.364496
  0
VERTEX
  8
PLAN_1
 62
     2
  6
CONTINUOUS
 10
0.492524
 20
3.364496
  0
VERTEX
  8
PLAN_1
 62
     2
  6
CONTINUOUS
 10
0.485654
 20
3.365409
  0
VERTEX
  8
PLAN_1
 62
     2
  6
CONTINUOUS
 10
0.482445
 20
3.366327
  0
VERTEX
  8
PLAN_1
 62
     2
  6
CONTINUOUS
 10
0.479240
 20
3.367244
  0
VERTEX
  8
PLAN_1
 62
     2
  6
CONTINUOUS
 10
0.476035
 20
3.368157
  0
VERTEX
  8
PLAN_1
 62
     2
  6
CONTINUOUS
 10
0.473287
 20
3.369531
  0
VERTEX
  8
PLAN_1
 62
     2
  6
CONTINUOUS
 10
0.470539
 20
3.371366
  0
VERTEX
  8
PLAN_1
 62
     2
  6
CONTINUOUS
 10
0.467791
 20
3.373197
  0
VERTEX
  8
PLAN_1
 62
     2
  6
CONTINUOUS
 10
0.465500
 20
3.375488
  0
VERTEX
  8
PLAN_1
 62
     2
  6
CONTINUOUS
 10
0.463669
 20
3.377776
  0
VERTEX
  8
PLAN_1
 62
     2
  6
CONTINUOUS
 10
0.461839
 20
3.380524
  0
VERTEX
  8
PLAN_1
 62
     2
  6
CONTINUOUS
 10
0.460465
 20
3.383728
  0
VERTEX
  8
PLAN_1
 62
     2
  6
CONTINUOUS
 10
0.460004
 20
3.387394
  0
VERTEX
  8
PLAN_1
 62
     2
  6
CONTINUOUS
 10
0.459547
 20
3.391516
  0
VERTEX
  8
PLAN_1
 62
     2
  6
CONTINUOUS
 10
0.460004
 20
3.394720
  0
VERTEX
  8
PLAN_1
 62
     2
  6
CONTINUOUS
 10
0.460465
 20
3.397929
  0
VERTEX
  8
PLAN_1
 62
     2
  6
CONTINUOUS
 10
0.461839
 20
3.401591
  0
VERTEX
  8
PLAN_1
 62
     2
  6
CONTINUOUS
 10
0.463669
 20
3.404799
  0
VERTEX
  8
PLAN_1
 62
     2
  6
CONTINUOUS
 10
0.466417
 20
3.407547
  0
VERTEX
  8
PLAN_1
 62
     2
  6
CONTINUOUS
 10
0.469622
 20
3.410295
  0
VERTEX
  8
PLAN_1
 62
     2
  6
CONTINUOUS
 10
0.471913
 20
3.411209
  0
VERTEX
  8
PLAN_1
 62
     2
  6
CONTINUOUS
 10
0.473744
 20
3.411669
  0
VERTEX
  8
PLAN_1
 62
     2
  6
CONTINUOUS
 10
0.476492
 20
3.412126
  0
VERTEX
  8
PLAN_1
 62
     2
  6
CONTINUOUS
 10
0.479240
 20
3.412583
  0
VERTEX
  8
PLAN_1
 62
     2
  6
CONTINUOUS
 10
0.479240
 20
3.403882
  0
SEQEND
  8
0
  0
POLYLINE
  8
PLAN_1
 62
     2
  6
CONTINUOUS
 66
     1
 40
0.003000
 41
0.003000
  0
VERTEX
  8
PLAN_1
 62
     2
  6
CONTINUOUS
 10
0.526413
 20
3.390598
  0
VERTEX
  8
PLAN_1
 62
     2
  6
CONTINUOUS
 10
0.526413
 20
3.393346
  0
VERTEX
  8
PLAN_1
 62
     2
  6
CONTINUOUS
 10
0.525500
 20
3.396094
  0
VERTEX
  8
PLAN_1
 62
     2
  6
CONTINUOUS
 10
0.523665
 20
3.398843
  0
VERTEX
  8
PLAN_1
 62
     2
  6
CONTINUOUS
 10
0.521835
 20
3.400677
  0
VERTEX
  8
PLAN_1
 62
     2
  6
CONTINUOUS
 10
0.519543
 20
3.402508
  0
VERTEX
  8
PLAN_1
 62
     2
  6
CONTINUOUS
 10
0.516339
 20
3.403882
  0
VERTEX
  8
PLAN_1
 62
     2
  6
CONTINUOUS
 10
0.513134
 20
3.404339
  0
VERTEX
  8
PLAN_1
 62
     2
  6
CONTINUOUS
 10
0.509925
 20
3.404799
  0
VERTEX
  8
PLAN_1
 62
     2
  6
CONTINUOUS
 10
0.507177
 20
3.404799
  0
VERTEX
  8
PLAN_1
 62
     2
  6
CONTINUOUS
 10
0.504429
 20
3.403882
  0
VERTEX
  8
PLAN_1
 62
     2
  6
CONTINUOUS
 10
0.502142
 20
3.402965
  0
VERTEX
  8
PLAN_1
 62
     2
  6
CONTINUOUS
 10
0.499850
 20
3.401591
  0
VERTEX
  8
PLAN_1
 62
     2
  6
CONTINUOUS
 10
0.497559
 20
3.399760
  0
VERTEX
  8
PLAN_1
 62
     2
  6
CONTINUOUS
 10
0.495728
 20
3.397012
  0
VERTEX
  8
PLAN_1
 62
     2
  6
CONTINUOUS
 10
0.494811
 20
3.393807
  0
VERTEX
  8
PLAN_1
 62
     2
  6
CONTINUOUS
 10
0.494354
 20
3.390142
  0
VERTEX
  8
PLAN_1
 62
     2
  6
CONTINUOUS
 10
0.494811
 20
3.386476
  0
VERTEX
  8
PLAN_1
 62
     2
  6
CONTINUOUS
 10
0.495728
 20
3.383272
  0
VERTEX
  8
PLAN_1
 62
     2
  6
CONTINUOUS
 10
0.497102
 20
3.380984
  0
VERTEX
  8
PLAN_1
 62
     2
  6
CONTINUOUS
 10
0.498933
 20
3.378693
  0
VERTEX
  8
PLAN_1
 62
     2
  6
CONTINUOUS
 10
0.501224
 20
3.376862
  0
VERTEX
  8
PLAN_1
 62
     2
  6
CONTINUOUS
 10
0.503972
 20
3.375945
  0
VERTEX
  8
PLAN_1
 62
     2
  6
CONTINUOUS
 10
0.507177
 20
3.375028
  0
VERTEX
  8
PLAN_1
 62
     2
  6
CONTINUOUS
 10
0.510386
 20
3.375028
  0
VERTEX
  8
PLAN_1
 62
     2
  6
CONTINUOUS
 10
0.513134
 20
3.375028
  0
VERTEX
  8
PLAN_1
 62
     2
  6
CONTINUOUS
 10
0.516339
 20
3.375945
  0
VERTEX
  8
PLAN_1
 62
     2
  6
CONTINUOUS
 10
0.518630
 20
3.376862
  0
VERTEX
  8
PLAN_1
 62
     2
  6
CONTINUOUS
 10
0.521378
 20
3.378693
  0
VERTEX
  8
PLAN_1
 62
     2
  6
CONTINUOUS
 10
0.523209
 20
3.380984
  0
VERTEX
  8
PLAN_1
 62
     2
  6
CONTINUOUS
 10
0.525039
 20
3.383272
  0
VERTEX
  8
PLAN_1
 62
     2
  6
CONTINUOUS
 10
0.525957
 20
3.386476
  0
VERTEX
  8
PLAN_1
 62
     2
  6
CONTINUOUS
 10
0.526413
 20
3.390598
  0
SEQEND
  8
0
  0
POLYLINE
  8
PLAN_1
 62
     2
  6
CONTINUOUS
 66
     1
 40
0.003000
 41
0.003000
  0
VERTEX
  8
PLAN_1
 62
     2
  6
CONTINUOUS
 10
0.532827
 20
3.427240
  0
VERTEX
  8
PLAN_1
 62
     2
  6
CONTINUOUS
 10
0.532827
 20
3.432736
  0
VERTEX
  8
PLAN_1
 62
     2
  6
CONTINUOUS
 10
0.534657
 20
3.432736
  0
VERTEX
  8
PLAN_1
 62
     2
  6
CONTINUOUS
 10
0.536492
 20
3.432736
  0
VERTEX
  8
PLAN_1
 62
     2
  6
CONTINUOUS
 10
0.538323
 20
3.432280
  0
VERTEX
  8
PLAN_1
 62
     2
  6
CONTINUOUS
 10
0.539697
 20
3.431819
  0
VERTEX
  8
PLAN_1
 62
     2
  6
CONTINUOUS
 10
0.541071
 20
3.430906
  0
VERTEX
  8
PLAN_1
 62
     2
  6
CONTINUOUS
 10
0.541988
 20
3.429988
  0
VERTEX
  8
PLAN_1
 62
     2
  6
CONTINUOUS
 10
0.542902
 20
3.428614
  0
VERTEX
  8
PLAN_1
 62
     2
  6
CONTINUOUS
 10
0.543362
 20
3.427240
  0
VERTEX
  8
PLAN_1
 62
     2
  6
CONTINUOUS
 10
0.547941
 20
3.427240
  0
VERTEX
  8
PLAN_1
 62
     2
  6
CONTINUOUS
 10
0.547941
 20
3.428157
  0
VERTEX
  8
PLAN_1
 62
     2
  6
CONTINUOUS
 10
0.547480
 20
3.429988
  0
VERTEX
  8
PLAN_1
 62
     2
  6
CONTINUOUS
 10
0.546567
 20
3.431819
  0
VERTEX
  8
PLAN_1
 62
     2
  6
CONTINUOUS
 10
0.545193
 20
3.433654
  0
VERTEX
  8
PLAN_1
 62
     2
  6
CONTINUOUS
 10
0.543362
 20
3.435028
  0
VERTEX
  8
PLAN_1
 62
     2
  6
CONTINUOUS
 10
0.540154
 20
3.436858
  0
VERTEX
  8
PLAN_1
 62
     2
  6
CONTINUOUS
 10
0.536492
 20
3.437776
  0
VERTEX
  8
PLAN_1
 62
     2
  6
CONTINUOUS
 10
0.531909
 20
3.438232
  0
VERTEX
  8
PLAN_1
 62
     2
  6
CONTINUOUS
 10
0.521835
 20
3.438232
  0
VERTEX
  8
PLAN_1
 62
     2
  6
CONTINUOUS
 10
0.521835
 20
3.427240
  0
VERTEX
  8
PLAN_1
 62
     2
  6
CONTINUOUS
 10
0.532827
 20
3.427240
  0
SEQEND
  8
0
  0
POLYLINE
  8
PLAN_1
 62
     2
  6
CONTINUOUS
 66
     1
 40
0.003000
 41
0.003000
  0
VERTEX
  8
PLAN_1
 62
     2
  6
CONTINUOUS
 10
0.490232
 20
3.462504
  0
VERTEX
  8
PLAN_1
 62
     2
  6
CONTINUOUS
 10
0.489315
 20
3.463878
  0
VERTEX
  8
PLAN_1
 62
     2
  6
CONTINUOUS
 10
0.488402
 20
3.465252
  0
VERTEX
  8
PLAN_1
 62
     2
  6
CONTINUOUS
 10
0.487484
 20
3.466626
  0
VERTEX
  8
PLAN_1
 62
     2
  6
CONTINUOUS
 10
0.487028
 20
3.468461
  0
VERTEX
  8
PLAN_1
 62
     2
  6
CONTINUOUS
 10
0.486567
 20
3.469835
  0
VERTEX
  8
PLAN_1
 62
     2
  6
CONTINUOUS
 10
0.486110
 20
3.472122
  0
VERTEX
  8
PLAN_1
 62
     2
  6
CONTINUOUS
 10
0.485654
 20
3.474413
  0
VERTEX
  8
PLAN_1
 62
     2
  6
CONTINUOUS
 10
0.485654
 20
3.476705
  0
VERTEX
  8
PLAN_1
 62
     2
  6
CONTINUOUS
 10
0.486110
 20
3.480827
  0
VERTEX
  8
PLAN_1
 62
     2
  6
CONTINUOUS
 10
0.487028
 20
3.485406
  0
VERTEX
  8
PLAN_1
 62
     2
  6
CONTINUOUS
 10
0.488858
 20
3.489528
  0
VERTEX
  8
PLAN_1
 62
     2
  6
CONTINUOUS
 10
0.491606
 20
3.493193
  0
VERTEX
  8
PLAN_1
 62
     2
  6
CONTINUOUS
 10
0.493437
 20
3.494567
  0
VERTEX
  8
PLAN_1
 62
     2
  6
CONTINUOUS
 10
0.494811
 20
3.495941
  0
VERTEX
  8
PLAN_1
 62
     2
  6
CONTINUOUS
 10
0.497102
 20
3.497315
  0
VERTEX
  8
PLAN_1
 62
     2
  6
CONTINUOUS
 10
0.498933
 20
3.498689
  0
VERTEX
  8
PLAN_1
 62
     2
  6
CONTINUOUS
 10
0.501224
 20
3.499602
  0
VERTEX
  8
PLAN_1
 62
     2
  6
CONTINUOUS
 10
0.503516
 20
3.500063
  0
VERTEX
  8
PLAN_1
 62
     2
  6
CONTINUOUS
 10
0.506264
 20
3.500520
  0
VERTEX
  8
PLAN_1
 62
     2
  6
CONTINUOUS
 10
0.509012
 20
3.500520
  0
VERTEX
  8
PLAN_1
 62
     2
  6
CONTINUOUS
 10
0.512673
 20
3.500520
  0
VERTEX
  8
PLAN_1
 62
     2
  6
CONTINUOUS
 10
0.516339
 20
3.499602
  0
VERTEX
  8
PLAN_1
 62
     2
  6
CONTINUOUS
 10
0.520917
 20
3.498228
  0
VERTEX
  8
PLAN_1
 62
     2
  6
CONTINUOUS
 10
0.525039
 20
3.495941
  0
VERTEX
  8
PLAN_1
 62
     2
  6
CONTINUOUS
 10
0.526874
 20
3.494567
  0
VERTEX
  8
PLAN_1
 62
     2
  6
CONTINUOUS
 10
0.528705
 20
3.492732
  0
VERTEX
  8
PLAN_1
 62
     2
  6
CONTINUOUS
 10
0.530535
 20
3.490445
  0
VERTEX
  8
PLAN_1
 62
     2
  6
CONTINUOUS
 10
0.531909
 20
3.487697
  0
VERTEX
  8
PLAN_1
 62
     2
  6
CONTINUOUS
 10
0.533283
 20
3.484949
  0
VERTEX
  8
PLAN_1
 62
     2
  6
CONTINUOUS
 10
0.533744
 20
3.481740
  0
VERTEX
  8
PLAN_1
 62
     2
  6
CONTINUOUS
 10
0.534657
 20
3.478079
  0
VERTEX
  8
PLAN_1
 62
     2
  6
CONTINUOUS
 10
0.534657
 20
3.473957
  0
VERTEX
  8
PLAN_1
 62
     2
  6
CONTINUOUS
 10
0.534657
 20
3.470291
  0
VERTEX
  8
PLAN_1
 62
     2
  6
CONTINUOUS
 10
0.533744
 20
3.466626
  0
VERTEX
  8
PLAN_1
 62
     2
  6
CONTINUOUS
 10
0.532827
 20
3.462965
  0
VERTEX
  8
PLAN_1
 62
     2
  6
CONTINUOUS
 10
0.530996
 20
3.459299
  0
VERTEX
  8
PLAN_1
 62
     2
  6
CONTINUOUS
 10
0.529622
 20
3.457925
  0
VERTEX
  8
PLAN_1
 62
     2
  6
CONTINUOUS
 10
0.528248
 20
3.456094
  0
VERTEX
  8
PLAN_1
 62
     2
  6
CONTINUOUS
 10
0.526413
 20
3.454720
  0
VERTEX
  8
PLAN_1
 62
     2
  6
CONTINUOUS
 10
0.524583
 20
3.453803
  0
VERTEX
  8
PLAN_1
 62
     2
  6
CONTINUOUS
 10
0.522291
 20
3.452429
  0
VERTEX
  8
PLAN_1
 62
     2
  6
CONTINUOUS
 10
0.520004
 20
3.451516
  0
VERTEX
  8
PLAN_1
 62
     2
  6
CONTINUOUS
 10
0.517256
 20
3.451055
  0
VERTEX
  8
PLAN_1
 62
     2
  6
CONTINUOUS
 10
0.514508
 20
3.450598
  0
VERTEX
  8
PLAN_1
 62
     2
  6
CONTINUOUS
 10
0.514508
 20
3.459756
  0
VERTEX
  8
PLAN_1
 62
     2
  6
CONTINUOUS
 10
0.517713
 20
3.460673
  0
VERTEX
  8
PLAN_1
 62
     2
  6
CONTINUOUS
 10
0.520004
 20
3.461591
  0
VERTEX
  8
PLAN_1
 62
     2
  6
CONTINUOUS
 10
0.522291
 20
3.462965
  0
VERTEX
  8
PLAN_1
 62
     2
  6
CONTINUOUS
 10
0.523665
 20
3.464795
  0
VERTEX
  8
PLAN_1
 62
     2
  6
CONTINUOUS
 10
0.525039
 20
3.467087
  0
VERTEX
  8
PLAN_1
 62
     2
  6
CONTINUOUS
 10
0.525957
 20
3.469835
  0
VERTEX
  8
PLAN_1
 62
     2
  6
CONTINUOUS
 10
0.526874
 20
3.472583
  0
VERTEX
  8
PLAN_1
 62
     2
  6
CONTINUOUS
 10
0.526874
 20
3.475331
  0
VERTEX
  8
PLAN_1
 62
     2
  6
CONTINUOUS
 10
0.526413
 20
3.478992
  0
VERTEX
  8
PLAN_1
 62
     2
  6
CONTINUOUS
 10
0.525500
 20
3.481740
  0
VERTEX
  8
PLAN_1
 62
     2
  6
CONTINUOUS
 10
0.524126
 20
3.484488
  0
VERTEX
  8
PLAN_1
 62
     2
  6
CONTINUOUS
 10
0.521835
 20
3.486780
  0
VERTEX
  8
PLAN_1
 62
     2
  6
CONTINUOUS
 10
0.519543
 20
3.488610
  0
VERTEX
  8
PLAN_1
 62
     2
  6
CONTINUOUS
 10
0.516339
 20
3.489984
  0
VERTEX
  8
PLAN_1
 62
     2
  6
CONTINUOUS
 10
0.513591
 20
3.490445
  0
VERTEX
  8
PLAN_1
 62
     2
  6
CONTINUOUS
 10
0.509925
 20
3.490902
  0
VERTEX
  8
PLAN_1
 62
     2
  6
CONTINUOUS
 10
0.506264
 20
3.490445
  0
VERTEX
  8
PLAN_1
 62
     2
  6
CONTINUOUS
 10
0.503055
 20
3.489528
  0
VERTEX
  8
PLAN_1
 62
     2
  6
CONTINUOUS
 10
0.500307
 20
3.488154
  0
VERTEX
  8
PLAN_1
 62
     2
  6
CONTINUOUS
 10
0.498020
 20
3.486323
  0
VERTEX
  8
PLAN_1
 62
     2
  6
CONTINUOUS
 10
0.496185
 20
3.483575
  0
VERTEX
  8
PLAN_1
 62
     2
  6
CONTINUOUS
 10
0.494811
 20
3.480827
  0
VERTEX
  8
PLAN_1
 62
     2
  6
CONTINUOUS
 10
0.493898
 20
3.478079
  0
VERTEX
  8
PLAN_1
 62
     2
  6
CONTINUOUS
 10
0.493898
 20
3.474413
  0
VERTEX
  8
PLAN_1
 62
     2
  6
CONTINUOUS
 10
0.493898
 20
3.472583
  0
VERTEX
  8
PLAN_1
 62
     2
  6
CONTINUOUS
 10
0.494354
 20
3.470748
  0
VERTEX
  8
PLAN_1
 62
     2
  6
CONTINUOUS
 10
0.494811
 20
3.468917
  0
VERTEX
  8
PLAN_1
 62
     2
  6
CONTINUOUS
 10
0.495728
 20
3.467087
  0
VERTEX
  8
PLAN_1
 62
     2
  6
CONTINUOUS
 10
0.496646
 20
3.465713
  0
VERTEX
  8
PLAN_1
 62
     2
  6
CONTINUOUS
 10
0.498020
 20
3.463878
  0
VERTEX
  8
PLAN_1
 62
     2
  6
CONTINUOUS
 10
0.499394
 20
3.462504
  0
VERTEX
  8
PLAN_1
 62
     2
  6
CONTINUOUS
 10
0.500768
 20
3.461130
  0
VERTEX
  8
PLAN_1
 62
     2
  6
CONTINUOUS
 10
0.500307
 20
3.453346
  0
VERTEX
  8
PLAN_1
 62
     2
  6
CONTINUOUS
 10
0.461378
 20
3.458843
  0
VERTEX
  8
PLAN_1
 62
     2
  6
CONTINUOUS
 10
0.461378
 20
3.496398
  0
VERTEX
  8
PLAN_1
 62
     2
  6
CONTINUOUS
 10
0.470083
 20
3.496398
  0
VERTEX
  8
PLAN_1
 62
     2
  6
CONTINUOUS
 10
0.470083
 20
3.465713
  0
VERTEX
  8
PLAN_1
 62
     2
  6
CONTINUOUS
 10
0.490232
 20
3.462504
  0
SEQEND
  8
0
  0
POLYLINE
  8
PLAN_1
 62
     2
  6
CONTINUOUS
 66
     1
 40
0.004118
 41
0.004118
  0
VERTEX
  8
PLAN_1
 62
     2
  6
CONTINUOUS
 10
0.092232
 20
0.665976
  0
VERTEX
  8
PLAN_1
 62
     2
  6
CONTINUOUS
 10
0.580000
 20
0.665976
  0
SEQEND
  8
0
  0
POLYLINE
  8
PLAN_1
 62
     2
  6
CONTINUOUS
 66
     1
 40
0.004118
 41
0.004118
  0
VERTEX
  8
PLAN_1
 62
     2
  6
CONTINUOUS
 10
-0.031882
 20
3.560976
  0
VERTEX
  8
PLAN_1
 62
     2
  6
CONTINUOUS
 10
0.580000
 20
3.560976
  0
SEQEND
  8
0
  0
POLYLINE
  8
PLAN_1
 62
     2
  6
CONTINUOUS
 66
     1
 40
0.004118
 41
0.004118
  0
VERTEX
  8
PLAN_1
 62
     2
  6
CONTINUOUS
 10
0.091319
 20
3.304039
  0
VERTEX
  8
PLAN_1
 62
     2
  6
CONTINUOUS
 10
0.580000
 20
3.304039
  0
SEQEND
  8
0
  0
POLYLINE
  8
PLAN_1
 62
     2
  6
CONTINUOUS
 66
     1
 40
0.003000
 41
0.003000
  0
VERTEX
  8
PLAN_1
 62
     2
  6
CONTINUOUS
 10
-2.395602
 20
3.669063
  0
VERTEX
  8
PLAN_1
 62
     2
  6
CONTINUOUS
 10
-2.395602
 20
3.673642
  0
VERTEX
  8
PLAN_1
 62
     2
  6
CONTINUOUS
 10
-2.395146
 20
3.677307
  0
VERTEX
  8
PLAN_1
 62
     2
  6
CONTINUOUS
 10
-2.394228
 20
3.680512
  0
VERTEX
  8
PLAN_1
 62
     2
  6
CONTINUOUS
 10
-2.392854
 20
3.683260
  0
VERTEX
  8
PLAN_1
 62
     2
  6
CONTINUOUS
 10
-2.391480
 20
3.686008
  0
VERTEX
  8
PLAN_1
 62
     2
  6
CONTINUOUS
 10
-2.390106
 20
3.687839
  0
VERTEX
  8
PLAN_1
 62
     2
  6
CONTINUOUS
 10
-2.388276
 20
3.689673
  0
VERTEX
  8
PLAN_1
 62
     2
  6
CONTINUOUS
 10
-2.385988
 20
3.691047
  0
VERTEX
  8
PLAN_1
 62
     2
  6
CONTINUOUS
 10
-2.381866
 20
3.693335
  0
VERTEX
  8
PLAN_1
 62
     2
  6
CONTINUOUS
 10
-2.377744
 20
3.694709
  0
VERTEX
  8
PLAN_1
 62
     2
  6
CONTINUOUS
 10
-2.374079
 20
3.695169
  0
VERTEX
  8
PLAN_1
 62
     2
  6
CONTINUOUS
 10
-2.370413
 20
3.695626
  0
VERTEX
  8
PLAN_1
 62
     2
  6
CONTINUOUS
 10
-2.365835
 20
3.695169
  0
VERTEX
  8
PLAN_1
 62
     2
  6
CONTINUOUS
 10
-2.361713
 20
3.693795
  0
VERTEX
  8
PLAN_1
 62
     2
  6
CONTINUOUS
 10
-2.357591
 20
3.691961
  0
VERTEX
  8
PLAN_1
 62
     2
  6
CONTINUOUS
 10
-2.354386
 20
3.689673
  0
VERTEX
  8
PLAN_1
 62
     2
  6
CONTINUOUS
 10
-2.351638
 20
3.686465
  0
VERTEX
  8
PLAN_1
 62
     2
  6
CONTINUOUS
 10
-2.349346
 20
3.682803
  0
VERTEX
  8
PLAN_1
 62
     2
  6
CONTINUOUS
 10
-2.348890
 20
3.680512
  0
VERTEX
  8
PLAN_1
 62
     2
  6
CONTINUOUS
 10
-2.347972
 20
3.678220
  0
VERTEX
  8
PLAN_1
 62
     2
  6
CONTINUOUS
 10
-2.347972
 20
3.675933
  0
VERTEX
  8
PLAN_1
 62
     2
  6
CONTINUOUS
 10
-2.347516
 20
3.673642
  0
VERTEX
  8
PLAN_1
 62
     2
  6
CONTINUOUS
 10
-2.347972
 20
3.669063
  0
VERTEX
  8
PLAN_1
 62
     2
  6
CONTINUOUS
 10
-2.349346
 20
3.664941
  0
VERTEX
  8
PLAN_1
 62
     2
  6
CONTINUOUS
 10
-2.350720
 20
3.661736
  0
VERTEX
  8
PLAN_1
 62
     2
  6
CONTINUOUS
 10
-2.353469
 20
3.658528
  0
VERTEX
  8
PLAN_1
 62
     2
  6
CONTINUOUS
 10
-2.356217
 20
3.655780
  0
VERTEX
  8
PLAN_1
 62
     2
  6
CONTINUOUS
 10
-2.359421
 20
3.653492
  0
VERTEX
  8
PLAN_1
 62
     2
  6
CONTINUOUS
 10
-2.363087
 20
3.651201
  0
VERTEX
  8
PLAN_1
 62
     2
  6
CONTINUOUS
 10
-2.367209
 20
3.649370
  0
VERTEX
  8
PLAN_1
 62
     2
  6
CONTINUOUS
 10
-2.374996
 20
3.644787
  0
VERTEX
  8
PLAN_1
 62
     2
  6
CONTINUOUS
 10
-2.378201
 20
3.642957
  0
VERTEX
  8
PLAN_1
 62
     2
  6
CONTINUOUS
 10
-2.380949
 20
3.640665
  0
VERTEX
  8
PLAN_1
 62
     2
  6
CONTINUOUS
 10
-2.383240
 20
3.638835
  0
VERTEX
  8
PLAN_1
 62
     2
  6
CONTINUOUS
 10
-2.384614
 20
3.637004
  0
VERTEX
  8
PLAN_1
 62
     2
  6
CONTINUOUS
 10
-2.385988
 20
3.635169
  0
VERTEX
  8
PLAN_1
 62
     2
  6
CONTINUOUS
 10
-2.386445
 20
3.633339
  0
VERTEX
  8
PLAN_1
 62
     2
  6
CONTINUOUS
 10
-2.386902
 20
3.631965
  0
VERTEX
  8
PLAN_1
 62
     2
  6
CONTINUOUS
 10
-2.387362
 20
3.631047
  0
VERTEX
  8
PLAN_1
 62
     2
  6
CONTINUOUS
 10
-2.347516
 20
3.631047
  0
VERTEX
  8
PLAN_1
 62
     2
  6
CONTINUOUS
 10
-2.347516
 20
3.622346
  0
VERTEX
  8
PLAN_1
 62
     2
  6
CONTINUOUS
 10
-2.397894
 20
3.622346
  0
VERTEX
  8
PLAN_1
 62
     2
  6
CONTINUOUS
 10
-2.396976
 20
3.627843
  0
VERTEX
  8
PLAN_1
 62
     2
  6
CONTINUOUS
 10
-2.396063
 20
3.632421
  0
VERTEX
  8
PLAN_1
 62
     2
  6
CONTINUOUS
 10
-2.394689
 20
3.636543
  0
VERTEX
  8
PLAN_1
 62
     2
  6
CONTINUOUS
 10
-2.392398
 20
3.640209
  0
VERTEX
  8
PLAN_1
 62
     2
  6
CONTINUOUS
 10
-2.390106
 20
3.643413
  0
VERTEX
  8
PLAN_1
 62
     2
  6
CONTINUOUS
 10
-2.387362
 20
3.646622
  0
VERTEX
  8
PLAN_1
 62
     2
  6
CONTINUOUS
 10
-2.384154
 20
3.648909
  0
VERTEX
  8
PLAN_1
 62
     2
  6
CONTINUOUS
 10
-2.380492
 20
3.651201
  0
VERTEX
  8
PLAN_1
 62
     2
  6
CONTINUOUS
 10
-2.370874
 20
3.657154
  0
VERTEX
  8
PLAN_1
 62
     2
  6
CONTINUOUS
 10
-2.368126
 20
3.658528
  0
VERTEX
  8
PLAN_1
 62
     2
  6
CONTINUOUS
 10
-2.365378
 20
3.660362
  0
VERTEX
  8
PLAN_1
 62
     2
  6
CONTINUOUS
 10
-2.363087
 20
3.661736
  0
VERTEX
  8
PLAN_1
 62
     2
  6
CONTINUOUS
 10
-2.361256
 20
3.663567
  0
VERTEX
  8
PLAN_1
 62
     2
  6
CONTINUOUS
 10
-2.359421
 20
3.665398
  0
VERTEX
  8
PLAN_1
 62
     2
  6
CONTINUOUS
 10
-2.358508
 20
3.668146
  0
VERTEX
  8
PLAN_1
 62
     2
  6
CONTINUOUS
 10
-2.357591
 20
3.670894
  0
VERTEX
  8
PLAN_1
 62
     2
  6
CONTINUOUS
 10
-2.357591
 20
3.674098
  0
VERTEX
  8
PLAN_1
 62
     2
  6
CONTINUOUS
 10
-2.357591
 20
3.676390
  0
VERTEX
  8
PLAN_1
 62
     2
  6
CONTINUOUS
 10
-2.358047
 20
3.678681
  0
VERTEX
  8
PLAN_1
 62
     2
  6
CONTINUOUS
 10
-2.358965
 20
3.680969
  0
VERTEX
  8
PLAN_1
 62
     2
  6
CONTINUOUS
 10
-2.360795
 20
3.682803
  0
VERTEX
  8
PLAN_1
 62
     2
  6
CONTINUOUS
 10
-2.362630
 20
3.684634
  0
VERTEX
  8
PLAN_1
 62
     2
  6
CONTINUOUS
 10
-2.364917
 20
3.686008
  0
VERTEX
  8
PLAN_1
 62
     2
  6
CONTINUOUS
 10
-2.368126
 20
3.686925
  0
VERTEX
  8
PLAN_1
 62
     2
  6
CONTINUOUS
 10
-2.371787
 20
3.687382
  0
VERTEX
  8
PLAN_1
 62
     2
  6
CONTINUOUS
 10
-2.374535
 20
3.686925
  0
VERTEX
  8
PLAN_1
 62
     2
  6
CONTINUOUS
 10
-2.376370
 20
3.686465
  0
VERTEX
  8
PLAN_1
 62
     2
  6
CONTINUOUS
 10
-2.378201
 20
3.686008
  0
VERTEX
  8
PLAN_1
 62
     2
  6
CONTINUOUS
 10
-2.380031
 20
3.685091
  0
VERTEX
  8
PLAN_1
 62
     2
  6
CONTINUOUS
 10
-2.382323
 20
3.682803
  0
VERTEX
  8
PLAN_1
 62
     2
  6
CONTINUOUS
 10
-2.384154
 20
3.680055
  0
VERTEX
  8
PLAN_1
 62
     2
  6
CONTINUOUS
 10
-2.385528
 20
3.677307
  0
VERTEX
  8
PLAN_1
 62
     2
  6
CONTINUOUS
 10
-2.385988
 20
3.674098
  0
VERTEX
  8
PLAN_1
 62
     2
  6
CONTINUOUS
 10
-2.386445
 20
3.671350
  0
VERTEX
  8
PLAN_1
 62
     2
  6
CONTINUOUS
 10
-2.386445
 20
3.669063
  0
VERTEX
  8
PLAN_1
 62
     2
  6
CONTINUOUS
 10
-2.395602
 20
3.669063
  0
SEQEND
  8
0
  0
POLYLINE
  8
PLAN_1
 62
     2
  6
CONTINUOUS
 66
     1
 40
0.003000
 41
0.003000
  0
VERTEX
  8
PLAN_1
 62
     2
  6
CONTINUOUS
 10
-2.295760
 20
3.669063
  0
VERTEX
  8
PLAN_1
 62
     2
  6
CONTINUOUS
 10
-2.295760
 20
3.633795
  0
VERTEX
  8
PLAN_1
 62
     2
  6
CONTINUOUS
 10
-2.295303
 20
3.632421
  0
VERTEX
  8
PLAN_1
 62
     2
  6
CONTINUOUS
 10
-2.294846
 20
3.631047
  0
VERTEX
  8
PLAN_1
 62
     2
  6
CONTINUOUS
 10
-2.294386
 20
3.630591
  0
VERTEX
  8
PLAN_1
 62
     2
  6
CONTINUOUS
 10
-2.293472
 20
3.630134
  0
VERTEX
  8
PLAN_1
 62
     2
  6
CONTINUOUS
 10
-2.292555
 20
3.629673
  0
VERTEX
  8
PLAN_1
 62
     2
  6
CONTINUOUS
 10
-2.291638
 20
3.629673
  0
VERTEX
  8
PLAN_1
 62
     2
  6
CONTINUOUS
 10
-2.290724
 20
3.629673
  0
VERTEX
  8
PLAN_1
 62
     2
  6
CONTINUOUS
 10
-2.289807
 20
3.629673
  0
VERTEX
  8
PLAN_1
 62
     2
  6
CONTINUOUS
 10
-2.286602
 20
3.629673
  0
VERTEX
  8
PLAN_1
 62
     2
  6
CONTINUOUS
 10
-2.286602
 20
3.622346
  0
VERTEX
  8
PLAN_1
 62
     2
  6
CONTINUOUS
 10
-2.287976
 20
3.622346
  0
VERTEX
  8
PLAN_1
 62
     2
  6
CONTINUOUS
 10
-2.289350
 20
3.621890
  0
VERTEX
  8
PLAN_1
 62
     2
  6
CONTINUOUS
 10
-2.290264
 20
3.621890
  0
VERTEX
  8
PLAN_1
 62
     2
  6
CONTINUOUS
 10
-2.291181
 20
3.621890
  0
VERTEX
  8
PLAN_1
 62
     2
  6
CONTINUOUS
 10
-2.292098
 20
3.621890
  0
VERTEX
  8
PLAN_1
 62
     2
  6
CONTINUOUS
 10
-2.292555
 20
3.621429
  0
VERTEX
  8
PLAN_1
 62
     2
  6
CONTINUOUS
 10
-2.293472
 20
3.621429
  0
VERTEX
  8
PLAN_1
 62
     2
  6
CONTINUOUS
 10
-2.296677
 20
3.621890
  0
VERTEX
  8
PLAN_1
 62
     2
  6
CONTINUOUS
 10
-2.299425
 20
3.622346
  0
VERTEX
  8
PLAN_1
 62
     2
  6
CONTINUOUS
 10
-2.301256
 20
3.623720
  0
VERTEX
  8
PLAN_1
 62
     2
  6
CONTINUOUS
 10
-2.302630
 20
3.625094
  0
VERTEX
  8
PLAN_1
 62
     2
  6
CONTINUOUS
 10
-2.303547
 20
3.626469
  0
VERTEX
  8
PLAN_1
 62
     2
  6
CONTINUOUS
 10
-2.304465
 20
3.628760
  0
VERTEX
  8
PLAN_1
 62
     2
  6
CONTINUOUS
 10
-2.304465
 20
3.631047
  0
VERTEX
  8
PLAN_1
 62
     2
  6
CONTINUOUS
 10
-2.304921
 20
3.633339
  0
VERTEX
  8
PLAN_1
 62
     2
  6
CONTINUOUS
 10
-2.304921
 20
3.669063
  0
VERTEX
  8
PLAN_1
 62
     2
  6
CONTINUOUS
 10
-2.312248
 20
3.669063
  0
VERTEX
  8
PLAN_1
 62
     2
  6
CONTINUOUS
 10
-2.312248
 20
3.676846
  0
VERTEX
  8
PLAN_1
 62
     2
  6
CONTINUOUS
 10
-2.304921
 20
3.676846
  0
VERTEX
  8
PLAN_1
 62
     2
  6
CONTINUOUS
 10
-2.304921
 20
3.691961
  0
VERTEX
  8
PLAN_1
 62
     2
  6
CONTINUOUS
 10
-2.295760
 20
3.691961
  0
VERTEX
  8
PLAN_1
 62
     2
  6
CONTINUOUS
 10
-2.295760
 20
3.676846
  0
VERTEX
  8
PLAN_1
 62
     2
  6
CONTINUOUS
 10
-2.286602
 20
3.676846
  0
VERTEX
  8
PLAN_1
 62
     2
  6
CONTINUOUS
 10
-2.286602
 20
3.669063
  0
VERTEX
  8
PLAN_1
 62
     2
  6
CONTINUOUS
 10
-2.295760
 20
3.669063
  0
SEQEND
  8
0
  0
POLYLINE
  8
PLAN_1
 62
     2
  6
CONTINUOUS
 66
     1
 40
0.003000
 41
0.003000
  0
VERTEX
  8
PLAN_1
 62
     2
  6
CONTINUOUS
 10
-2.267366
 20
3.622346
  0
VERTEX
  8
PLAN_1
 62
     2
  6
CONTINUOUS
 10
-2.276524
 20
3.622346
  0
VERTEX
  8
PLAN_1
 62
     2
  6
CONTINUOUS
 10
-2.276524
 20
3.676846
  0
VERTEX
  8
PLAN_1
 62
     2
  6
CONTINUOUS
 10
-2.267823
 20
3.676846
  0
VERTEX
  8
PLAN_1
 62
     2
  6
CONTINUOUS
 10
-2.267823
 20
3.667689
  0
VERTEX
  8
PLAN_1
 62
     2
  6
CONTINUOUS
 10
-2.266449
 20
3.669976
  0
VERTEX
  8
PLAN_1
 62
     2
  6
CONTINUOUS
 10
-2.264618
 20
3.671811
  0
VERTEX
  8
PLAN_1
 62
     2
  6
CONTINUOUS
 10
-2.263244
 20
3.673642
  0
VERTEX
  8
PLAN_1
 62
     2
  6
CONTINUOUS
 10
-2.261409
 20
3.675472
  0
VERTEX
  8
PLAN_1
 62
     2
  6
CONTINUOUS
 10
-2.259579
 20
3.676390
  0
VERTEX
  8
PLAN_1
 62
     2
  6
CONTINUOUS
 10
-2.257287
 20
3.677307
  0
VERTEX
  8
PLAN_1
 62
     2
  6
CONTINUOUS
 10
-2.255000
 20
3.678220
  0
VERTEX
  8
PLAN_1
 62
     2
  6
CONTINUOUS
 10
-2.252252
 20
3.678220
  0
VERTEX
  8
PLAN_1
 62
     2
  6
CONTINUOUS
 10
-2.251791
 20
3.678220
  0
VERTEX
  8
PLAN_1
 62
     2
  6
CONTINUOUS
 10
-2.251335
 20
3.678220
  0
VERTEX
  8
PLAN_1
 62
     2
  6
CONTINUOUS
 10
-2.250878
 20
3.678220
  0
VERTEX
  8
PLAN_1
 62
     2
  6
CONTINUOUS
 10
-2.250417
 20
3.678220
  0
VERTEX
  8
PLAN_1
 62
     2
  6
CONTINUOUS
 10
-2.249961
 20
3.677764
  0
VERTEX
  8
PLAN_1
 62
     2
  6
CONTINUOUS
 10
-2.249961
 20
3.668602
  0
VERTEX
  8
PLAN_1
 62
     2
  6
CONTINUOUS
 10
-2.253626
 20
3.668602
  0
VERTEX
  8
PLAN_1
 62
     2
  6
CONTINUOUS
 10
-2.256374
 20
3.668146
  0
VERTEX
  8
PLAN_1
 62
     2
  6
CONTINUOUS
 10
-2.259122
 20
3.667228
  0
VERTEX
  8
PLAN_1
 62
     2
  6
CONTINUOUS
 10
-2.261870
 20
3.665854
  0
VERTEX
  8
PLAN_1
 62
     2
  6
CONTINUOUS
 10
-2.263701
 20
3.664024
  0
VERTEX
  8
PLAN_1
 62
     2
  6
CONTINUOUS
 10
-2.265075
 20
3.662193
  0
VERTEX
  8
PLAN_1
 62
     2
  6
CONTINUOUS
 10
-2.266449
 20
3.659445
  0
VERTEX
  8
PLAN_1
 62
     2
  6
CONTINUOUS
 10
-2.267366
 20
3.656697
  0
VERTEX
  8
PLAN_1
 62
     2
  6
CONTINUOUS
 10
-2.267366
 20
3.653949
  0
VERTEX
  8
PLAN_1
 62
     2
  6
CONTINUOUS
 10
-2.267366
 20
3.622346
  0
SEQEND
  8
0
  0
POLYLINE
  8
PLAN_1
 62
     2
  6
CONTINUOUS
 66
     1
 40
0.003000
 41
0.003000
  0
VERTEX
  8
PLAN_1
 62
     2
  6
CONTINUOUS
 10
-2.221106
 20
3.678220
  0
VERTEX
  8
PLAN_1
 62
     2
  6
CONTINUOUS
 10
-2.217902
 20
3.678220
  0
VERTEX
  8
PLAN_1
 62
     2
  6
CONTINUOUS
 10
-2.215154
 20
3.677764
  0
VERTEX
  8
PLAN_1
 62
     2
  6
CONTINUOUS
 10
-2.212406
 20
3.676846
  0
VERTEX
  8
PLAN_1
 62
     2
  6
CONTINUOUS
 10
-2.209657
 20
3.675933
  0
VERTEX
  8
PLAN_1
 62
     2
  6
CONTINUOUS
 10
-2.207366
 20
3.674559
  0
VERTEX
  8
PLAN_1
 62
     2
  6
CONTINUOUS
 10
-2.205535
 20
3.672724
  0
VERTEX
  8
PLAN_1
 62
     2
  6
CONTINUOUS
 10
-2.203705
 20
3.671350
  0
VERTEX
  8
PLAN_1
 62
     2
  6
CONTINUOUS
 10
-2.201870
 20
3.669063
  0
VERTEX
  8
PLAN_1
 62
     2
  6
CONTINUOUS
 10
-2.200496
 20
3.667228
  0
VERTEX
  8
PLAN_1
 62
     2
  6
CONTINUOUS
 10
-2.199122
 20
3.664941
  0
VERTEX
  8
PLAN_1
 62
     2
  6
CONTINUOUS
 10
-2.198209
 20
3.662650
  0
VERTEX
  8
PLAN_1
 62
     2
  6
CONTINUOUS
 10
-2.197291
 20
3.659902
  0
VERTEX
  8
PLAN_1
 62
     2
  6
CONTINUOUS
 10
-2.195917
 20
3.654866
  0
VERTEX
  8
PLAN_1
 62
     2
  6
CONTINUOUS
 10
-2.195917
 20
3.649370
  0
VERTEX
  8
PLAN_1
 62
     2
  6
CONTINUOUS
 10
-2.195917
 20
3.644331
  0
VERTEX
  8
PLAN_1
 62
     2
  6
CONTINUOUS
 10
-2.197291
 20
3.639291
  0
VERTEX
  8
PLAN_1
 62
     2
  6
CONTINUOUS
 10
-2.198209
 20
3.636543
  0
VERTEX
  8
PLAN_1
 62
     2
  6
CONTINUOUS
 10
-2.199122
 20
3.634256
  0
VERTEX
  8
PLAN_1
 62
     2
  6
CONTINUOUS
 10
-2.200496
 20
3.631965
  0
VERTEX
  8
PLAN_1
 62
     2
  6
CONTINUOUS
 10
-2.201870
 20
3.630134
  0
VERTEX
  8
PLAN_1
 62
     2
  6
CONTINUOUS
 10
-2.203705
 20
3.627843
  0
VERTEX
  8
PLAN_1
 62
     2
  6
CONTINUOUS
 10
-2.205535
 20
3.626012
  0
VERTEX
  8
PLAN_1
 62
     2
  6
CONTINUOUS
 10
-2.207366
 20
3.624638
  0
VERTEX
  8
PLAN_1
 62
     2
  6
CONTINUOUS
 10
-2.209657
 20
3.623264
  0
VERTEX
  8
PLAN_1
 62
     2
  6
CONTINUOUS
 10
-2.212406
 20
3.622346
  0
VERTEX
  8
PLAN_1
 62
     2
  6
CONTINUOUS
 10
-2.215154
 20
3.621429
  0
VERTEX
  8
PLAN_1
 62
     2
  6
CONTINUOUS
 10
-2.217902
 20
3.620972
  0
VERTEX
  8
PLAN_1
 62
     2
  6
CONTINUOUS
 10
-2.221106
 20
3.620972
  0
VERTEX
  8
PLAN_1
 62
     2
  6
CONTINUOUS
 10
-2.224315
 20
3.620972
  0
VERTEX
  8
PLAN_1
 62
     2
  6
CONTINUOUS
 10
-2.227063
 20
3.621429
  0
VERTEX
  8
PLAN_1
 62
     2
  6
CONTINUOUS
 10
-2.229811
 20
3.622346
  0
VERTEX
  8
PLAN_1
 62
     2
  6
CONTINUOUS
 10
-2.232098
 20
3.623264
  0
VERTEX
  8
PLAN_1
 62
     2
  6
CONTINUOUS
 10
-2.234390
 20
3.624638
  0
VERTEX
  8
PLAN_1
 62
     2
  6
CONTINUOUS
 10
-2.236681
 20
3.626012
  0
VERTEX
  8
PLAN_1
 62
     2
  6
CONTINUOUS
 10
-2.238512
 20
3.627843
  0
VERTEX
  8
PLAN_1
 62
     2
  6
CONTINUOUS
 10
-2.240343
 20
3.630134
  0
VERTEX
  8
PLAN_1
 62
     2
  6
CONTINUOUS
 10
-2.241717
 20
3.631965
  0
VERTEX
  8
PLAN_1
 62
     2
  6
CONTINUOUS
 10
-2.243091
 20
3.634256
  0
VERTEX
  8
PLAN_1
 62
     2
  6
CONTINUOUS
 10
-2.244008
 20
3.636543
  0
VERTEX
  8
PLAN_1
 62
     2
  6
CONTINUOUS
 10
-2.244925
 20
3.639291
  0
VERTEX
  8
PLAN_1
 62
     2
  6
CONTINUOUS
 10
-2.245839
 20
3.644331
  0
VERTEX
  8
PLAN_1
 62
     2
  6
CONTINUOUS
 10
-2.246299
 20
3.649370
  0
VERTEX
  8
PLAN_1
 62
     2
  6
CONTINUOUS
 10
-2.245839
 20
3.654866
  0
VERTEX
  8
PLAN_1
 62
     2
  6
CONTINUOUS
 10
-2.244925
 20
3.659902
  0
VERTEX
  8
PLAN_1
 62
     2
  6
CONTINUOUS
 10
-2.244008
 20
3.662650
  0
VERTEX
  8
PLAN_1
 62
     2
  6
CONTINUOUS
 10
-2.243091
 20
3.664941
  0
VERTEX
  8
PLAN_1
 62
     2
  6
CONTINUOUS
 10
-2.241717
 20
3.667228
  0
VERTEX
  8
PLAN_1
 62
     2
  6
CONTINUOUS
 10
-2.240343
 20
3.669063
  0
VERTEX
  8
PLAN_1
 62
     2
  6
CONTINUOUS
 10
-2.238512
 20
3.671350
  0
VERTEX
  8
PLAN_1
 62
     2
  6
CONTINUOUS
 10
-2.236681
 20
3.672724
  0
VERTEX
  8
PLAN_1
 62
     2
  6
CONTINUOUS
 10
-2.234390
 20
3.674559
  0
VERTEX
  8
PLAN_1
 62
     2
  6
CONTINUOUS
 10
-2.232098
 20
3.675933
  0
VERTEX
  8
PLAN_1
 62
     2
  6
CONTINUOUS
 10
-2.229811
 20
3.676846
  0
VERTEX
  8
PLAN_1
 62
     2
  6
CONTINUOUS
 10
-2.227063
 20
3.677764
  0
VERTEX
  8
PLAN_1
 62
     2
  6
CONTINUOUS
 10
-2.224315
 20
3.678220
  0
VERTEX
  8
PLAN_1
 62
     2
  6
CONTINUOUS
 10
-2.221106
 20
3.678220
  0
SEQEND
  8
0
  0
POLYLINE
  8
PLAN_1
 62
     2
  6
CONTINUOUS
 66
     1
 40
0.003000
 41
0.003000
  0
VERTEX
  8
PLAN_1
 62
     2
  6
CONTINUOUS
 10
-2.221106
 20
3.628760
  0
VERTEX
  8
PLAN_1
 62
     2
  6
CONTINUOUS
 10
-2.218819
 20
3.628760
  0
VERTEX
  8
PLAN_1
 62
     2
  6
CONTINUOUS
 10
-2.216528
 20
3.629217
  0
VERTEX
  8
PLAN_1
 62
     2
  6
CONTINUOUS
 10
-2.214697
 20
3.630134
  0
VERTEX
  8
PLAN_1
 62
     2
  6
CONTINUOUS
 10
-2.212862
 20
3.631047
  0
VERTEX
  8
PLAN_1
 62
     2
  6
CONTINUOUS
 10
-2.210114
 20
3.633339
  0
VERTEX
  8
PLAN_1
 62
     2
  6
CONTINUOUS
 10
-2.208283
 20
3.636543
  0
VERTEX
  8
PLAN_1
 62
     2
  6
CONTINUOUS
 10
-2.206909
 20
3.639752
  0
VERTEX
  8
PLAN_1
 62
     2
  6
CONTINUOUS
 10
-2.205992
 20
3.643413
  0
VERTEX
  8
PLAN_1
 62
     2
  6
CONTINUOUS
 10
-2.205535
 20
3.646622
  0
VERTEX
  8
PLAN_1
 62
     2
  6
CONTINUOUS
 10
-2.205079
 20
3.649370
  0
VERTEX
  8
PLAN_1
 62
     2
  6
CONTINUOUS
 10
-2.205535
 20
3.652575
  0
VERTEX
  8
PLAN_1
 62
     2
  6
CONTINUOUS
 10
-2.205992
 20
3.655780
  0
VERTEX
  8
PLAN_1
 62
     2
  6
CONTINUOUS
 10
-2.206909
 20
3.659445
  0
VERTEX
  8
PLAN_1
 62
     2
  6
CONTINUOUS
 10
-2.208283
 20
3.662650
  0
VERTEX
  8
PLAN_1
 62
     2
  6
CONTINUOUS
 10
-2.210114
 20
3.665854
  0
VERTEX
  8
PLAN_1
 62
     2
  6
CONTINUOUS
 10
-2.212862
 20
3.668146
  0
VERTEX
  8
PLAN_1
 62
     2
  6
CONTINUOUS
 10
-2.214697
 20
3.669063
  0
VERTEX
  8
PLAN_1
 62
     2
  6
CONTINUOUS
 10
-2.216528
 20
3.669976
  0
VERTEX
  8
PLAN_1
 62
     2
  6
CONTINUOUS
 10
-2.218819
 20
3.670437
  0
VERTEX
  8
PLAN_1
 62
     2
  6
CONTINUOUS
 10
-2.221106
 20
3.670437
  0
VERTEX
  8
PLAN_1
 62
     2
  6
CONTINUOUS
 10
-2.223398
 20
3.670437
  0
VERTEX
  8
PLAN_1
 62
     2
  6
CONTINUOUS
 10
-2.225689
 20
3.669976
  0
VERTEX
  8
PLAN_1
 62
     2
  6
CONTINUOUS
 10
-2.227520
 20
3.669063
  0
VERTEX
  8
PLAN_1
 62
     2
  6
CONTINUOUS
 10
-2.228894
 20
3.668146
  0
VERTEX
  8
PLAN_1
 62
     2
  6
CONTINUOUS
 10
-2.231642
 20
3.665854
  0
VERTEX
  8
PLAN_1
 62
     2
  6
CONTINUOUS
 10
-2.233933
 20
3.662650
  0
VERTEX
  8
PLAN_1
 62
     2
  6
CONTINUOUS
 10
-2.235307
 20
3.659445
  0
VERTEX
  8
PLAN_1
 62
     2
  6
CONTINUOUS
 10
-2.236220
 20
3.655780
  0
VERTEX
  8
PLAN_1
 62
     2
  6
CONTINUOUS
 10
-2.236681
 20
3.652575
  0
VERTEX
  8
PLAN_1
 62
     2
  6
CONTINUOUS
 10
-2.236681
 20
3.649370
  0
VERTEX
  8
PLAN_1
 62
     2
  6
CONTINUOUS
 10
-2.236681
 20
3.646622
  0
VERTEX
  8
PLAN_1
 62
     2
  6
CONTINUOUS
 10
-2.236220
 20
3.643413
  0
VERTEX
  8
PLAN_1
 62
     2
  6
CONTINUOUS
 10
-2.235307
 20
3.639752
  0
VERTEX
  8
PLAN_1
 62
     2
  6
CONTINUOUS
 10
-2.233933
 20
3.636543
  0
VERTEX
  8
PLAN_1
 62
     2
  6
CONTINUOUS
 10
-2.231642
 20
3.633339
  0
VERTEX
  8
PLAN_1
 62
     2
  6
CONTINUOUS
 10
-2.228894
 20
3.631047
  0
VERTEX
  8
PLAN_1
 62
     2
  6
CONTINUOUS
 10
-2.227520
 20
3.630134
  0
VERTEX
  8
PLAN_1
 62
     2
  6
CONTINUOUS
 10
-2.225689
 20
3.629217
  0
VERTEX
  8
PLAN_1
 62
     2
  6
CONTINUOUS
 10
-2.223398
 20
3.628760
  0
VERTEX
  8
PLAN_1
 62
     2
  6
CONTINUOUS
 10
-2.221106
 20
3.628760
  0
SEQEND
  8
0
  0
POLYLINE
  8
PLAN_1
 62
     2
  6
CONTINUOUS
 66
     1
 40
0.003000
 41
0.003000
  0
VERTEX
  8
PLAN_1
 62
     2
  6
CONTINUOUS
 10
-2.149661
 20
3.622346
  0
VERTEX
  8
PLAN_1
 62
     2
  6
CONTINUOUS
 10
-2.149661
 20
3.630134
  0
VERTEX
  8
PLAN_1
 62
     2
  6
CONTINUOUS
 10
-2.150118
 20
3.630591
  0
VERTEX
  8
PLAN_1
 62
     2
  6
CONTINUOUS
 10
-2.151492
 20
3.628299
  0
VERTEX
  8
PLAN_1
 62
     2
  6
CONTINUOUS
 10
-2.153323
 20
3.626012
  0
VERTEX
  8
PLAN_1
 62
     2
  6
CONTINUOUS
 10
-2.154697
 20
3.624638
  0
VERTEX
  8
PLAN_1
 62
     2
  6
CONTINUOUS
 10
-2.156988
 20
3.623264
  0
VERTEX
  8
PLAN_1
 62
     2
  6
CONTINUOUS
 10
-2.158819
 20
3.622346
  0
VERTEX
  8
PLAN_1
 62
     2
  6
CONTINUOUS
 10
-2.161567
 20
3.621429
  0
VERTEX
  8
PLAN_1
 62
     2
  6
CONTINUOUS
 10
-2.164315
 20
3.620972
  0
VERTEX
  8
PLAN_1
 62
     2
  6
CONTINUOUS
 10
-2.167524
 20
3.620516
  0
VERTEX
  8
PLAN_1
 62
     2
  6
CONTINUOUS
 10
-2.170272
 20
3.620972
  0
VERTEX
  8
PLAN_1
 62
     2
  6
CONTINUOUS
 10
-2.173476
 20
3.621429
  0
VERTEX
  8
PLAN_1
 62
     2
  6
CONTINUOUS
 10
-2.176224
 20
3.622803
  0
VERTEX
  8
PLAN_1
 62
     2
  6
CONTINUOUS
 10
-2.178972
 20
3.624177
  0
VERTEX
  8
PLAN_1
 62
     2
  6
CONTINUOUS
 10
-2.181720
 20
3.626469
  0
VERTEX
  8
PLAN_1
 62
     2
  6
CONTINUOUS
 10
-2.183551
 20
3.629673
  0
VERTEX
  8
PLAN_1
 62
     2
  6
CONTINUOUS
 10
-2.184008
 20
3.631047
  0
VERTEX
  8
PLAN_1
 62
     2
  6
CONTINUOUS
 10
-2.184469
 20
3.633339
  0
VERTEX
  8
PLAN_1
 62
     2
  6
CONTINUOUS
 10
-2.184925
 20
3.635169
  0
VERTEX
  8
PLAN_1
 62
     2
  6
CONTINUOUS
 10
-2.184925
 20
3.637461
  0
VERTEX
  8
PLAN_1
 62
     2
  6
CONTINUOUS
 10
-2.184925
 20
3.676846
  0
VERTEX
  8
PLAN_1
 62
     2
  6
CONTINUOUS
 10
-2.175768
 20
3.676846
  0
VERTEX
  8
PLAN_1
 62
     2
  6
CONTINUOUS
 10
-2.175768
 20
3.640665
  0
VERTEX
  8
PLAN_1
 62
     2
  6
CONTINUOUS
 10
-2.175768
 20
3.637461
  0
VERTEX
  8
PLAN_1
 62
     2
  6
CONTINUOUS
 10
-2.174850
 20
3.635169
  0
VERTEX
  8
PLAN_1
 62
     2
  6
CONTINUOUS
 10
-2.173933
 20
3.632882
  0
VERTEX
  8
PLAN_1
 62
     2
  6
CONTINUOUS
 10
-2.173020
 20
3.631047
  0
VERTEX
  8
PLAN_1
 62
     2
  6
CONTINUOUS
 10
-2.171185
 20
3.630134
  0
VERTEX
  8
PLAN_1
 62
     2
  6
CONTINUOUS
 10
-2.169354
 20
3.629217
  0
VERTEX
  8
PLAN_1
 62
     2
  6
CONTINUOUS
 10
-2.167524
 20
3.628760
  0
VERTEX
  8
PLAN_1
 62
     2
  6
CONTINUOUS
 10
-2.165232
 20
3.628760
  0
VERTEX
  8
PLAN_1
 62
     2
  6
CONTINUOUS
 10
-2.163402
 20
3.628760
  0
VERTEX
  8
PLAN_1
 62
     2
  6
CONTINUOUS
 10
-2.161567
 20
3.629217
  0
VERTEX
  8
PLAN_1
 62
     2
  6
CONTINUOUS
 10
-2.159736
 20
3.629673
  0
VERTEX
  8
PLAN_1
 62
     2
  6
CONTINUOUS
 10
-2.157906
 20
3.630134
  0
VERTEX
  8
PLAN_1
 62
     2
  6
CONTINUOUS
 10
-2.155614
 20
3.632421
  0
VERTEX
  8
PLAN_1
 62
     2
  6
CONTINUOUS
 10
-2.153323
 20
3.634713
  0
VERTEX
  8
PLAN_1
 62
     2
  6
CONTINUOUS
 10
-2.151949
 20
3.637461
  0
VERTEX
  8
PLAN_1
 62
     2
  6
CONTINUOUS
 10
-2.151035
 20
3.640665
  0
VERTEX
  8
PLAN_1
 62
     2
  6
CONTINUOUS
 10
-2.150575
 20
3.643874
  0
VERTEX
  8
PLAN_1
 62
     2
  6
CONTINUOUS
 10
-2.150118
 20
3.646622
  0
VERTEX
  8
PLAN_1
 62
     2
  6
CONTINUOUS
 10
-2.150118
 20
3.676846
  0
VERTEX
  8
PLAN_1
 62
     2
  6
CONTINUOUS
 10
-2.140957
 20
3.676846
  0
VERTEX
  8
PLAN_1
 62
     2
  6
CONTINUOUS
 10
-2.140957
 20
3.622346
  0
VERTEX
  8
PLAN_1
 62
     2
  6
CONTINUOUS
 10
-2.149661
 20
3.622346
  0
SEQEND
  8
0
  0
POLYLINE
  8
PLAN_1
 62
     2
  6
CONTINUOUS
 66
     1
 40
0.003000
 41
0.003000
  0
VERTEX
  8
PLAN_1
 62
     2
  6
CONTINUOUS
 10
-2.096531
 20
3.661276
  0
VERTEX
  8
PLAN_1
 62
     2
  6
CONTINUOUS
 10
-2.096531
 20
3.662650
  0
VERTEX
  8
PLAN_1
 62
     2
  6
CONTINUOUS
 10
-2.096992
 20
3.664024
  0
VERTEX
  8
PLAN_1
 62
     2
  6
CONTINUOUS
 10
-2.097449
 20
3.665398
  0
VERTEX
  8
PLAN_1
 62
     2
  6
CONTINUOUS
 10
-2.098823
 20
3.667228
  0
VERTEX
  8
PLAN_1
 62
     2
  6
CONTINUOUS
 10
-2.100197
 20
3.668146
  0
VERTEX
  8
PLAN_1
 62
     2
  6
CONTINUOUS
 10
-2.102488
 20
3.669520
  0
VERTEX
  8
PLAN_1
 62
     2
  6
CONTINUOUS
 10
-2.105693
 20
3.669976
  0
VERTEX
  8
PLAN_1
 62
     2
  6
CONTINUOUS
 10
-2.109358
 20
3.670437
  0
VERTEX
  8
PLAN_1
 62
     2
  6
CONTINUOUS
 10
-2.110728
 20
3.670437
  0
VERTEX
  8
PLAN_1
 62
     2
  6
CONTINUOUS
 10
-2.112102
 20
3.669976
  0
VERTEX
  8
PLAN_1
 62
     2
  6
CONTINUOUS
 10
-2.113937
 20
3.669520
  0
VERTEX
  8
PLAN_1
 62
     2
  6
CONTINUOUS
 10
-2.115768
 20
3.669063
  0
VERTEX
  8
PLAN_1
 62
     2
  6
CONTINUOUS
 10
-2.117598
 20
3.668146
  0
VERTEX
  8
PLAN_1
 62
     2
  6
CONTINUOUS
 10
-2.118972
 20
3.666772
  0
VERTEX
  8
PLAN_1
 62
     2
  6
CONTINUOUS
 10
-2.119890
 20
3.664941
  0
VERTEX
  8
PLAN_1
 62
     2
  6
CONTINUOUS
 10
-2.120346
 20
3.662650
  0
VERTEX
  8
PLAN_1
 62
     2
  6
CONTINUOUS
 10
-2.119890
 20
3.661276
  0
VERTEX
  8
PLAN_1
 62
     2
  6
CONTINUOUS
 10
-2.119890
 20
3.659902
  0
VERTEX
  8
PLAN_1
 62
     2
  6
CONTINUOUS
 10
-2.118972
 20
3.658988
  0
VERTEX
  8
PLAN_1
 62
     2
  6
CONTINUOUS
 10
-2.118059
 20
3.658071
  0
VERTEX
  8
PLAN_1
 62
     2
  6
CONTINUOUS
 10
-2.116685
 20
3.657154
  0
VERTEX
  8
PLAN_1
 62
     2
  6
CONTINUOUS
 10
-2.114850
 20
3.656697
  0
VERTEX
  8
PLAN_1
 62
     2
  6
CONTINUOUS
 10
-2.113020
 20
3.656240
  0
VERTEX
  8
PLAN_1
 62
     2
  6
CONTINUOUS
 10
-2.110272
 20
3.655323
  0
VERTEX
  8
PLAN_1
 62
     2
  6
CONTINUOUS
 10
-2.101114
 20
3.653031
  0
VERTEX
  8
PLAN_1
 62
     2
  6
CONTINUOUS
 10
-2.097449
 20
3.652118
  0
VERTEX
  8
PLAN_1
 62
     2
  6
CONTINUOUS
 10
-2.094244
 20
3.650744
  0
VERTEX
  8
PLAN_1
 62
     2
  6
CONTINUOUS
 10
-2.091496
 20
3.649370
  0
VERTEX
  8
PLAN_1
 62
     2
  6
CONTINUOUS
 10
-2.089205
 20
3.647535
  0
VERTEX
  8
PLAN_1
 62
     2
  6
CONTINUOUS
 10
-2.087831
 20
3.645705
  0
VERTEX
  8
PLAN_1
 62
     2
  6
CONTINUOUS
 10
-2.086913
 20
3.643874
  0
VERTEX
  8
PLAN_1
 62
     2
  6
CONTINUOUS
 10
-2.086000
 20
3.641583
  0
VERTEX
  8
PLAN_1
 62
     2
  6
CONTINUOUS
 10
-2.086000
 20
3.638835
  0
VERTEX
  8
PLAN_1
 62
     2
  6
CONTINUOUS
 10
-2.086457
 20
3.634713
  0
VERTEX
  8
PLAN_1
 62
     2
  6
CONTINUOUS
 10
-2.087374
 20
3.631047
  0
VERTEX
  8
PLAN_1
 62
     2
  6
CONTINUOUS
 10
-2.089661
 20
3.628299
  0
VERTEX
  8
PLAN_1
 62
     2
  6
CONTINUOUS
 10
-2.091953
 20
3.625551
  0
VERTEX
  8
PLAN_1
 62
     2
  6
CONTINUOUS
 10
-2.095157
 20
3.623264
  0
VERTEX
  8
PLAN_1
 62
     2
  6
CONTINUOUS
 10
-2.098823
 20
3.621890
  0
VERTEX
  8
PLAN_1
 62
     2
  6
CONTINUOUS
 10
-2.102945
 20
3.620972
  0
VERTEX
  8
PLAN_1
 62
     2
  6
CONTINUOUS
 10
-2.107524
 20
3.620516
  0
VERTEX
  8
PLAN_1
 62
     2
  6
CONTINUOUS
 10
-2.111189
 20
3.620972
  0
VERTEX
  8
PLAN_1
 62
     2
  6
CONTINUOUS
 10
-2.114394
 20
3.621429
  0
VERTEX
  8
PLAN_1
 62
     2
  6
CONTINUOUS
 10
-2.117598
 20
3.621890
  0
VERTEX
  8
PLAN_1
 62
     2
  6
CONTINUOUS
 10
-2.120346
 20
3.622803
  0
VERTEX
  8
PLAN_1
 62
     2
  6
CONTINUOUS
 10
-2.122181
 20
3.623720
  0
VERTEX
  8
PLAN_1
 62
     2
  6
CONTINUOUS
 10
-2.124012
 20
3.625094
  0
VERTEX
  8
PLAN_1
 62
     2
  6
CONTINUOUS
 10
-2.125843
 20
3.626469
  0
VERTEX
  8
PLAN_1
 62
     2
  6
CONTINUOUS
 10
-2.127217
 20
3.627843
  0
VERTEX
  8
PLAN_1
 62
     2
  6
CONTINUOUS
 10
-2.129051
 20
3.631047
  0
VERTEX
  8
PLAN_1
 62
     2
  6
CONTINUOUS
 10
-2.129965
 20
3.634256
  0
VERTEX
  8
PLAN_1
 62
     2
  6
CONTINUOUS
 10
-2.130425
 20
3.637004
  0
VERTEX
  8
PLAN_1
 62
     2
  6
CONTINUOUS
 10
-2.130882
 20
3.639752
  0
VERTEX
  8
PLAN_1
 62
     2
  6
CONTINUOUS
 10
-2.122181
 20
3.639752
  0
VERTEX
  8
PLAN_1
 62
     2
  6
CONTINUOUS
 10
-2.121720
 20
3.637917
  0
VERTEX
  8
PLAN_1
 62
     2
  6
CONTINUOUS
 10
-2.121264
 20
3.636087
  0
VERTEX
  8
PLAN_1
 62
     2
  6
CONTINUOUS
 10
-2.120807
 20
3.634256
  0
VERTEX
  8
PLAN_1
 62
     2
  6
CONTINUOUS
 10
-2.119433
 20
3.632421
  0
VERTEX
  8
PLAN_1
 62
     2
  6
CONTINUOUS
 10
-2.117598
 20
3.631047
  0
VERTEX
  8
PLAN_1
 62
     2
  6
CONTINUOUS
 10
-2.115311
 20
3.629673
  0
VERTEX
  8
PLAN_1
 62
     2
  6
CONTINUOUS
 10
-2.111646
 20
3.628760
  0
VERTEX
  8
PLAN_1
 62
     2
  6
CONTINUOUS
 10
-2.107524
 20
3.628760
  0
VERTEX
  8
PLAN_1
 62
     2
  6
CONTINUOUS
 10
-2.105236
 20
3.628760
  0
VERTEX
  8
PLAN_1
 62
     2
  6
CONTINUOUS
 10
-2.102945
 20
3.629217
  0
VERTEX
  8
PLAN_1
 62
     2
  6
CONTINUOUS
 10
-2.100654
 20
3.629673
  0
VERTEX
  8
PLAN_1
 62
     2
  6
CONTINUOUS
 10
-2.098823
 20
3.630591
  0
VERTEX
  8
PLAN_1
 62
     2
  6
CONTINUOUS
 10
-2.097449
 20
3.631965
  0
VERTEX
  8
PLAN_1
 62
     2
  6
CONTINUOUS
 10
-2.096075
 20
3.633339
  0
VERTEX
  8
PLAN_1
 62
     2
  6
CONTINUOUS
 10
-2.095157
 20
3.635169
  0
VERTEX
  8
PLAN_1
 62
     2
  6
CONTINUOUS
 10
-2.095157
 20
3.637461
  0
VERTEX
  8
PLAN_1
 62
     2
  6
CONTINUOUS
 10
-2.095157
 20
3.638835
  0
VERTEX
  8
PLAN_1
 62
     2
  6
CONTINUOUS
 10
-2.095618
 20
3.640209
  0
VERTEX
  8
PLAN_1
 62
     2
  6
CONTINUOUS
 10
-2.096531
 20
3.641126
  0
VERTEX
  8
PLAN_1
 62
     2
  6
CONTINUOUS
 10
-2.097449
 20
3.642039
  0
VERTEX
  8
PLAN_1
 62
     2
  6
CONTINUOUS
 10
-2.098823
 20
3.642957
  0
VERTEX
  8
PLAN_1
 62
     2
  6
CONTINUOUS
 10
-2.101114
 20
3.643874
  0
VERTEX
  8
PLAN_1
 62
     2
  6
CONTINUOUS
 10
-2.102945
 20
3.644331
  0
VERTEX
  8
PLAN_1
 62
     2
  6
CONTINUOUS
 10
-2.105693
 20
3.645248
  0
VERTEX
  8
PLAN_1
 62
     2
  6
CONTINUOUS
 10
-2.116685
 20
3.647535
  0
VERTEX
  8
PLAN_1
 62
     2
  6
CONTINUOUS
 10
-2.119433
 20
3.648453
  0
VERTEX
  8
PLAN_1
 62
     2
  6
CONTINUOUS
 10
-2.121720
 20
3.649370
  0
VERTEX
  8
PLAN_1
 62
     2
  6
CONTINUOUS
 10
-2.124012
 20
3.650744
  0
VERTEX
  8
PLAN_1
 62
     2
  6
CONTINUOUS
 10
-2.125843
 20
3.652118
  0
VERTEX
  8
PLAN_1
 62
     2
  6
CONTINUOUS
 10
-2.127217
 20
3.653949
  0
VERTEX
  8
PLAN_1
 62
     2
  6
CONTINUOUS
 10
-2.128134
 20
3.655780
  0
VERTEX
  8
PLAN_1
 62
     2
  6
CONTINUOUS
 10
-2.129051
 20
3.658071
  0
VERTEX
  8
PLAN_1
 62
     2
  6
CONTINUOUS
 10
-2.129051
 20
3.660819
  0
VERTEX
  8
PLAN_1
 62
     2
  6
CONTINUOUS
 10
-2.129051
 20
3.663106
  0
VERTEX
  8
PLAN_1
 62
     2
  6
CONTINUOUS
 10
-2.128591
 20
3.664941
  0
VERTEX
  8
PLAN_1
 62
     2
  6
CONTINUOUS
 10
-2.128134
 20
3.666772
  0
VERTEX
  8
PLAN_1
 62
     2
  6
CONTINUOUS
 10
-2.127217
 20
3.668602
  0
VERTEX
  8
PLAN_1
 62
     2
  6
CONTINUOUS
 10
-2.125386
 20
3.671811
  0
VERTEX
  8
PLAN_1
 62
     2
  6
CONTINUOUS
 10
-2.122638
 20
3.674098
  0
VERTEX
  8
PLAN_1
 62
     2
  6
CONTINUOUS
 10
-2.119890
 20
3.675933
  0
VERTEX
  8
PLAN_1
 62
     2
  6
CONTINUOUS
 10
-2.116224
 20
3.677307
  0
VERTEX
  8
PLAN_1
 62
     2
  6
CONTINUOUS
 10
-2.112563
 20
3.678220
  0
VERTEX
  8
PLAN_1
 62
     2
  6
CONTINUOUS
 10
-2.108441
 20
3.678220
  0
VERTEX
  8
PLAN_1
 62
     2
  6
CONTINUOUS
 10
-2.105236
 20
3.678220
  0
VERTEX
  8
PLAN_1
 62
     2
  6
CONTINUOUS
 10
-2.102028
 20
3.677764
  0
VERTEX
  8
PLAN_1
 62
     2
  6
CONTINUOUS
 10
-2.099280
 20
3.676846
  0
VERTEX
  8
PLAN_1
 62
     2
  6
CONTINUOUS
 10
-2.096992
 20
3.675933
  0
VERTEX
  8
PLAN_1
 62
     2
  6
CONTINUOUS
 10
-2.095157
 20
3.675016
  0
VERTEX
  8
PLAN_1
 62
     2
  6
CONTINUOUS
 10
-2.093327
 20
3.673642
  0
VERTEX
  8
PLAN_1
 62
     2
  6
CONTINUOUS
 10
-2.091953
 20
3.672268
  0
VERTEX
  8
PLAN_1
 62
     2
  6
CONTINUOUS
 10
-2.090579
 20
3.670894
  0
VERTEX
  8
PLAN_1
 62
     2
  6
CONTINUOUS
 10
-2.089205
 20
3.667689
  0
VERTEX
  8
PLAN_1
 62
     2
  6
CONTINUOUS
 10
-2.088287
 20
3.664941
  0
VERTEX
  8
PLAN_1
 62
     2
  6
CONTINUOUS
 10
-2.087831
 20
3.662650
  0
VERTEX
  8
PLAN_1
 62
     2
  6
CONTINUOUS
 10
-2.087831
 20
3.661276
  0
VERTEX
  8
PLAN_1
 62
     2
  6
CONTINUOUS
 10
-2.096531
 20
3.661276
  0
SEQEND
  8
0
  0
POLYLINE
  8
PLAN_1
 62
     2
  6
CONTINUOUS
 66
     1
 40
0.003000
 41
0.003000
  0
VERTEX
  8
PLAN_1
 62
     2
  6
CONTINUOUS
 10
-2.024169
 20
3.678220
  0
VERTEX
  8
PLAN_1
 62
     2
  6
CONTINUOUS
 10
-2.020965
 20
3.678220
  0
VERTEX
  8
PLAN_1
 62
     2
  6
CONTINUOUS
 10
-2.018217
 20
3.677764
  0
VERTEX
  8
PLAN_1
 62
     2
  6
CONTINUOUS
 10
-2.015469
 20
3.676846
  0
VERTEX
  8
PLAN_1
 62
     2
  6
CONTINUOUS
 10
-2.013177
 20
3.675933
  0
VERTEX
  8
PLAN_1
 62
     2
  6
CONTINUOUS
 10
-2.010886
 20
3.674559
  0
VERTEX
  8
PLAN_1
 62
     2
  6
CONTINUOUS
 10
-2.008598
 20
3.672724
  0
VERTEX
  8
PLAN_1
 62
     2
  6
CONTINUOUS
 10
-2.006764
 20
3.671350
  0
VERTEX
  8
PLAN_1
 62
     2
  6
CONTINUOUS
 10
-2.004933
 20
3.669063
  0
VERTEX
  8
PLAN_1
 62
     2
  6
CONTINUOUS
 10
-2.003559
 20
3.667228
  0
VERTEX
  8
PLAN_1
 62
     2
  6
CONTINUOUS
 10
-2.002185
 20
3.664941
  0
VERTEX
  8
PLAN_1
 62
     2
  6
CONTINUOUS
 10
-2.001268
 20
3.662650
  0
VERTEX
  8
PLAN_1
 62
     2
  6
CONTINUOUS
 10
-2.000354
 20
3.659902
  0
VERTEX
  8
PLAN_1
 62
     2
  6
CONTINUOUS
 10
-1.999437
 20
3.654866
  0
VERTEX
  8
PLAN_1
 62
     2
  6
CONTINUOUS
 10
-1.998980
 20
3.649370
  0
VERTEX
  8
PLAN_1
 62
     2
  6
CONTINUOUS
 10
-1.999437
 20
3.644331
  0
VERTEX
  8
PLAN_1
 62
     2
  6
CONTINUOUS
 10
-2.000354
 20
3.639291
  0
VERTEX
  8
PLAN_1
 62
     2
  6
CONTINUOUS
 10
-2.001268
 20
3.636543
  0
VERTEX
  8
PLAN_1
 62
     2
  6
CONTINUOUS
 10
-2.002185
 20
3.634256
  0
VERTEX
  8
PLAN_1
 62
     2
  6
CONTINUOUS
 10
-2.003559
 20
3.631965
  0
VERTEX
  8
PLAN_1
 62
     2
  6
CONTINUOUS
 10
-2.004933
 20
3.630134
  0
VERTEX
  8
PLAN_1
 62
     2
  6
CONTINUOUS
 10
-2.006764
 20
3.627843
  0
VERTEX
  8
PLAN_1
 62
     2
  6
CONTINUOUS
 10
-2.008598
 20
3.626012
  0
VERTEX
  8
PLAN_1
 62
     2
  6
CONTINUOUS
 10
-2.010886
 20
3.624638
  0
VERTEX
  8
PLAN_1
 62
     2
  6
CONTINUOUS
 10
-2.013177
 20
3.623264
  0
VERTEX
  8
PLAN_1
 62
     2
  6
CONTINUOUS
 10
-2.015469
 20
3.622346
  0
VERTEX
  8
PLAN_1
 62
     2
  6
CONTINUOUS
 10
-2.018217
 20
3.621429
  0
VERTEX
  8
PLAN_1
 62
     2
  6
CONTINUOUS
 10
-2.020965
 20
3.620972
  0
VERTEX
  8
PLAN_1
 62
     2
  6
CONTINUOUS
 10
-2.024169
 20
3.620972
  0
VERTEX
  8
PLAN_1
 62
     2
  6
CONTINUOUS
 10
-2.027374
 20
3.620972
  0
VERTEX
  8
PLAN_1
 62
     2
  6
CONTINUOUS
 10
-2.030122
 20
3.621429
  0
VERTEX
  8
PLAN_1
 62
     2
  6
CONTINUOUS
 10
-2.032870
 20
3.622346
  0
VERTEX
  8
PLAN_1
 62
     2
  6
CONTINUOUS
 10
-2.035618
 20
3.623264
  0
VERTEX
  8
PLAN_1
 62
     2
  6
CONTINUOUS
 10
-2.037909
 20
3.624638
  0
VERTEX
  8
PLAN_1
 62
     2
  6
CONTINUOUS
 10
-2.039740
 20
3.626012
  0
VERTEX
  8
PLAN_1
 62
     2
  6
CONTINUOUS
 10
-2.041571
 20
3.627843
  0
VERTEX
  8
PLAN_1
 62
     2
  6
CONTINUOUS
 10
-2.043406
 20
3.630134
  0
VERTEX
  8
PLAN_1
 62
     2
  6
CONTINUOUS
 10
-2.044780
 20
3.631965
  0
VERTEX
  8
PLAN_1
 62
     2
  6
CONTINUOUS
 10
-2.046154
 20
3.634256
  0
VERTEX
  8
PLAN_1
 62
     2
  6
CONTINUOUS
 10
-2.047067
 20
3.636543
  0
VERTEX
  8
PLAN_1
 62
     2
  6
CONTINUOUS
 10
-2.047984
 20
3.639291
  0
VERTEX
  8
PLAN_1
 62
     2
  6
CONTINUOUS
 10
-2.049358
 20
3.644331
  0
VERTEX
  8
PLAN_1
 62
     2
  6
CONTINUOUS
 10
-2.049358
 20
3.649370
  0
VERTEX
  8
PLAN_1
 62
     2
  6
CONTINUOUS
 10
-2.049358
 20
3.654866
  0
VERTEX
  8
PLAN_1
 62
     2
  6
CONTINUOUS
 10
-2.047984
 20
3.659902
  0
VERTEX
  8
PLAN_1
 62
     2
  6
CONTINUOUS
 10
-2.047067
 20
3.662650
  0
VERTEX
  8
PLAN_1
 62
     2
  6
CONTINUOUS
 10
-2.046154
 20
3.664941
  0
VERTEX
  8
PLAN_1
 62
     2
  6
CONTINUOUS
 10
-2.044780
 20
3.667228
  0
VERTEX
  8
PLAN_1
 62
     2
  6
CONTINUOUS
 10
-2.043406
 20
3.669063
  0
VERTEX
  8
PLAN_1
 62
     2
  6
CONTINUOUS
 10
-2.041571
 20
3.671350
  0
VERTEX
  8
PLAN_1
 62
     2
  6
CONTINUOUS
 10
-2.039740
 20
3.672724
  0
VERTEX
  8
PLAN_1
 62
     2
  6
CONTINUOUS
 10
-2.037909
 20
3.674559
  0
VERTEX
  8
PLAN_1
 62
     2
  6
CONTINUOUS
 10
-2.035618
 20
3.675933
  0
VERTEX
  8
PLAN_1
 62
     2
  6
CONTINUOUS
 10
-2.032870
 20
3.676846
  0
VERTEX
  8
PLAN_1
 62
     2
  6
CONTINUOUS
 10
-2.030122
 20
3.677764
  0
VERTEX
  8
PLAN_1
 62
     2
  6
CONTINUOUS
 10
-2.027374
 20
3.678220
  0
VERTEX
  8
PLAN_1
 62
     2
  6
CONTINUOUS
 10
-2.024169
 20
3.678220
  0
SEQEND
  8
0
  0
POLYLINE
  8
PLAN_1
 62
     2
  6
CONTINUOUS
 66
     1
 40
0.003000
 41
0.003000
  0
VERTEX
  8
PLAN_1
 62
     2
  6
CONTINUOUS
 10
-2.024169
 20
3.628760
  0
VERTEX
  8
PLAN_1
 62
     2
  6
CONTINUOUS
 10
-2.021878
 20
3.628760
  0
VERTEX
  8
PLAN_1
 62
     2
  6
CONTINUOUS
 10
-2.019591
 20
3.629217
  0
VERTEX
  8
PLAN_1
 62
     2
  6
CONTINUOUS
 10
-2.017756
 20
3.630134
  0
VERTEX
  8
PLAN_1
 62
     2
  6
CONTINUOUS
 10
-2.016382
 20
3.631047
  0
VERTEX
  8
PLAN_1
 62
     2
  6
CONTINUOUS
 10
-2.013634
 20
3.633339
  0
VERTEX
  8
PLAN_1
 62
     2
  6
CONTINUOUS
 10
-2.011346
 20
3.636543
  0
VERTEX
  8
PLAN_1
 62
     2
  6
CONTINUOUS
 10
-2.009972
 20
3.639752
  0
VERTEX
  8
PLAN_1
 62
     2
  6
CONTINUOUS
 10
-2.009055
 20
3.643413
  0
VERTEX
  8
PLAN_1
 62
     2
  6
CONTINUOUS
 10
-2.008598
 20
3.646622
  0
VERTEX
  8
PLAN_1
 62
     2
  6
CONTINUOUS
 10
-2.008598
 20
3.649370
  0
VERTEX
  8
PLAN_1
 62
     2
  6
CONTINUOUS
 10
-2.008598
 20
3.652575
  0
VERTEX
  8
PLAN_1
 62
     2
  6
CONTINUOUS
 10
-2.009055
 20
3.655780
  0
VERTEX
  8
PLAN_1
 62
     2
  6
CONTINUOUS
 10
-2.009972
 20
3.659445
  0
VERTEX
  8
PLAN_1
 62
     2
  6
CONTINUOUS
 10
-2.011346
 20
3.662650
  0
VERTEX
  8
PLAN_1
 62
     2
  6
CONTINUOUS
 10
-2.013634
 20
3.665854
  0
VERTEX
  8
PLAN_1
 62
     2
  6
CONTINUOUS
 10
-2.016382
 20
3.668146
  0
VERTEX
  8
PLAN_1
 62
     2
  6
CONTINUOUS
 10
-2.017756
 20
3.669063
  0
VERTEX
  8
PLAN_1
 62
     2
  6
CONTINUOUS
 10
-2.019591
 20
3.669976
  0
VERTEX
  8
PLAN_1
 62
     2
  6
CONTINUOUS
 10
-2.021878
 20
3.670437
  0
VERTEX
  8
PLAN_1
 62
     2
  6
CONTINUOUS
 10
-2.024169
 20
3.670437
  0
VERTEX
  8
PLAN_1
 62
     2
  6
CONTINUOUS
 10
-2.026461
 20
3.670437
  0
VERTEX
  8
PLAN_1
 62
     2
  6
CONTINUOUS
 10
-2.028748
 20
3.669976
  0
VERTEX
  8
PLAN_1
 62
     2
  6
CONTINUOUS
 10
-2.030583
 20
3.669063
  0
VERTEX
  8
PLAN_1
 62
     2
  6
CONTINUOUS
 10
-2.032413
 20
3.668146
  0
VERTEX
  8
PLAN_1
 62
     2
  6
CONTINUOUS
 10
-2.035161
 20
3.665854
  0
VERTEX
  8
PLAN_1
 62
     2
  6
CONTINUOUS
 10
-2.036992
 20
3.662650
  0
VERTEX
  8
PLAN_1
 62
     2
  6
CONTINUOUS
 10
-2.038366
 20
3.659445
  0
VERTEX
  8
PLAN_1
 62
     2
  6
CONTINUOUS
 10
-2.039283
 20
3.655780
  0
VERTEX
  8
PLAN_1
 62
     2
  6
CONTINUOUS
 10
-2.039740
 20
3.652575
  0
VERTEX
  8
PLAN_1
 62
     2
  6
CONTINUOUS
 10
-2.040197
 20
3.649370
  0
VERTEX
  8
PLAN_1
 62
     2
  6
CONTINUOUS
 10
-2.039740
 20
3.646622
  0
VERTEX
  8
PLAN_1
 62
     2
  6
CONTINUOUS
 10
-2.039283
 20
3.643413
  0
VERTEX
  8
PLAN_1
 62
     2
  6
CONTINUOUS
 10
-2.038366
 20
3.639752
  0
VERTEX
  8
PLAN_1
 62
     2
  6
CONTINUOUS
 10
-2.036992
 20
3.636543
  0
VERTEX
  8
PLAN_1
 62
     2
  6
CONTINUOUS
 10
-2.035161
 20
3.633339
  0
VERTEX
  8
PLAN_1
 62
     2
  6
CONTINUOUS
 10
-2.032413
 20
3.631047
  0
VERTEX
  8
PLAN_1
 62
     2
  6
CONTINUOUS
 10
-2.030583
 20
3.630134
  0
VERTEX
  8
PLAN_1
 62
     2
  6
CONTINUOUS
 10
-2.028748
 20
3.629217
  0
VERTEX
  8
PLAN_1
 62
     2
  6
CONTINUOUS
 10
-2.026461
 20
3.628760
  0
VERTEX
  8
PLAN_1
 62
     2
  6
CONTINUOUS
 10
-2.024169
 20
3.628760
  0
SEQEND
  8
0
  0
POLYLINE
  8
PLAN_1
 62
     2
  6
CONTINUOUS
 66
     1
 40
0.003000
 41
0.003000
  0
VERTEX
  8
PLAN_1
 62
     2
  6
CONTINUOUS
 10
-1.989362
 20
3.622346
  0
VERTEX
  8
PLAN_1
 62
     2
  6
CONTINUOUS
 10
-1.989362
 20
3.697000
  0
VERTEX
  8
PLAN_1
 62
     2
  6
CONTINUOUS
 10
-1.980201
 20
3.697000
  0
VERTEX
  8
PLAN_1
 62
     2
  6
CONTINUOUS
 10
-1.980201
 20
3.669976
  0
VERTEX
  8
PLAN_1
 62
     2
  6
CONTINUOUS
 10
-1.979744
 20
3.669976
  0
VERTEX
  8
PLAN_1
 62
     2
  6
CONTINUOUS
 10
-1.978370
 20
3.671811
  0
VERTEX
  8
PLAN_1
 62
     2
  6
CONTINUOUS
 10
-1.976535
 20
3.673642
  0
VERTEX
  8
PLAN_1
 62
     2
  6
CONTINUOUS
 10
-1.974705
 20
3.675016
  0
VERTEX
  8
PLAN_1
 62
     2
  6
CONTINUOUS
 10
-1.972874
 20
3.676390
  0
VERTEX
  8
PLAN_1
 62
     2
  6
CONTINUOUS
 10
-1.971039
 20
3.676846
  0
VERTEX
  8
PLAN_1
 62
     2
  6
CONTINUOUS
 10
-1.968752
 20
3.677764
  0
VERTEX
  8
PLAN_1
 62
     2
  6
CONTINUOUS
 10
-1.966461
 20
3.678220
  0
VERTEX
  8
PLAN_1
 62
     2
  6
CONTINUOUS
 10
-1.964173
 20
3.678220
  0
VERTEX
  8
PLAN_1
 62
     2
  6
CONTINUOUS
 10
-1.961425
 20
3.678220
  0
VERTEX
  8
PLAN_1
 62
     2
  6
CONTINUOUS
 10
-1.959134
 20
3.677764
  0
VERTEX
  8
PLAN_1
 62
     2
  6
CONTINUOUS
 10
-1.956843
 20
3.676846
  0
VERTEX
  8
PLAN_1
 62
     2
  6
CONTINUOUS
 10
-1.954555
 20
3.676390
  0
VERTEX
  8
PLAN_1
 62
     2
  6
CONTINUOUS
 10
-1.952720
 20
3.675016
  0
VERTEX
  8
PLAN_1
 62
     2
  6
CONTINUOUS
 10
-1.950433
 20
3.673642
  0
VERTEX
  8
PLAN_1
 62
     2
  6
CONTINUOUS
 10
-1.949059
 20
3.672268
  0
VERTEX
  8
PLAN_1
 62
     2
  6
CONTINUOUS
 10
-1.947224
 20
3.670437
  0
VERTEX
  8
PLAN_1
 62
     2
  6
CONTINUOUS
 10
-1.944937
 20
3.666315
  0
VERTEX
  8
PLAN_1
 62
     2
  6
CONTINUOUS
 10
-1.943102
 20
3.661736
  0
VERTEX
  8
PLAN_1
 62
     2
  6
CONTINUOUS
 10
-1.941728
 20
3.656697
  0
VERTEX
  8
PLAN_1
 62
     2
  6
CONTINUOUS
 10
-1.941272
 20
3.651201
  0
VERTEX
  8
PLAN_1
 62
     2
  6
CONTINUOUS
 10
-1.941728
 20
3.646161
  0
VERTEX
  8
PLAN_1
 62
     2
  6
CONTINUOUS
 10
-1.942646
 20
3.640665
  0
VERTEX
  8
PLAN_1
 62
     2
  6
CONTINUOUS
 10
-1.944020
 20
3.635630
  0
VERTEX
  8
PLAN_1
 62
     2
  6
CONTINUOUS
 10
-1.946311
 20
3.631047
  0
VERTEX
  8
PLAN_1
 62
     2
  6
CONTINUOUS
 10
-1.948142
 20
3.628760
  0
VERTEX
  8
PLAN_1
 62
     2
  6
CONTINUOUS
 10
-1.949516
 20
3.626925
  0
VERTEX
  8
PLAN_1
 62
     2
  6
CONTINUOUS
 10
-1.951807
 20
3.625094
  0
VERTEX
  8
PLAN_1
 62
     2
  6
CONTINUOUS
 10
-1.953638
 20
3.623720
  0
VERTEX
  8
PLAN_1
 62
     2
  6
CONTINUOUS
 10
-1.956386
 20
3.622346
  0
VERTEX
  8
PLAN_1
 62
     2
  6
CONTINUOUS
 10
-1.959134
 20
3.621429
  0
VERTEX
  8
PLAN_1
 62
     2
  6
CONTINUOUS
 10
-1.961882
 20
3.620972
  0
VERTEX
  8
PLAN_1
 62
     2
  6
CONTINUOUS
 10
-1.965547
 20
3.620516
  0
VERTEX
  8
PLAN_1
 62
     2
  6
CONTINUOUS
 10
-1.968752
 20
3.620972
  0
VERTEX
  8
PLAN_1
 62
     2
  6
CONTINUOUS
 10
-1.971500
 20
3.621429
  0
VERTEX
  8
PLAN_1
 62
     2
  6
CONTINUOUS
 10
-1.973787
 20
3.622346
  0
VERTEX
  8
PLAN_1
 62
     2
  6
CONTINUOUS
 10
-1.975622
 20
3.623720
  0
VERTEX
  8
PLAN_1
 62
     2
  6
CONTINUOUS
 10
-1.977453
 20
3.625094
  0
VERTEX
  8
PLAN_1
 62
     2
  6
CONTINUOUS
 10
-1.978370
 20
3.626469
  0
VERTEX
  8
PLAN_1
 62
     2
  6
CONTINUOUS
 10
-1.979744
 20
3.627843
  0
VERTEX
  8
PLAN_1
 62
     2
  6
CONTINUOUS
 10
-1.980201
 20
3.629217
  0
VERTEX
  8
PLAN_1
 62
     2
  6
CONTINUOUS
 10
-1.980657
 20
3.629217
  0
VERTEX
  8
PLAN_1
 62
     2
  6
CONTINUOUS
 10
-1.980657
 20
3.622346
  0
VERTEX
  8
PLAN_1
 62
     2
  6
CONTINUOUS
 10
-1.989362
 20
3.622346
  0
SEQEND
  8
0
  0
POLYLINE
  8
PLAN_1
 62
     2
  6
CONTINUOUS
 66
     1
 40
0.003000
 41
0.003000
  0
VERTEX
  8
PLAN_1
 62
     2
  6
CONTINUOUS
 10
-1.966004
 20
3.669976
  0
VERTEX
  8
PLAN_1
 62
     2
  6
CONTINUOUS
 10
-1.968295
 20
3.669976
  0
VERTEX
  8
PLAN_1
 62
     2
  6
CONTINUOUS
 10
-1.970126
 20
3.669520
  0
VERTEX
  8
PLAN_1
 62
     2
  6
CONTINUOUS
 10
-1.971957
 20
3.668602
  0
VERTEX
  8
PLAN_1
 62
     2
  6
CONTINUOUS
 10
-1.973787
 20
3.667689
  0
VERTEX
  8
PLAN_1
 62
     2
  6
CONTINUOUS
 10
-1.975161
 20
3.666315
  0
VERTEX
  8
PLAN_1
 62
     2
  6
CONTINUOUS
 10
-1.976079
 20
3.664941
  0
VERTEX
  8
PLAN_1
 62
     2
  6
CONTINUOUS
 10
-1.977453
 20
3.663567
  0
VERTEX
  8
PLAN_1
 62
     2
  6
CONTINUOUS
 10
-1.977909
 20
3.661736
  0
VERTEX
  8
PLAN_1
 62
     2
  6
CONTINUOUS
 10
-1.979283
 20
3.658071
  0
VERTEX
  8
PLAN_1
 62
     2
  6
CONTINUOUS
 10
-1.980201
 20
3.654406
  0
VERTEX
  8
PLAN_1
 62
     2
  6
CONTINUOUS
 10
-1.980201
 20
3.650283
  0
VERTEX
  8
PLAN_1
 62
     2
  6
CONTINUOUS
 10
-1.980657
 20
3.647079
  0
VERTEX
  8
PLAN_1
 62
     2
  6
CONTINUOUS
 10
-1.980201
 20
3.642039
  0
VERTEX
  8
PLAN_1
 62
     2
  6
CONTINUOUS
 10
-1.978827
 20
3.637917
  0
VERTEX
  8
PLAN_1
 62
     2
  6
CONTINUOUS
 10
-1.977453
 20
3.634713
  0
VERTEX
  8
PLAN_1
 62
     2
  6
CONTINUOUS
 10
-1.975161
 20
3.632421
  0
VERTEX
  8
PLAN_1
 62
     2
  6
CONTINUOUS
 10
-1.972874
 20
3.630591
  0
VERTEX
  8
PLAN_1
 62
     2
  6
CONTINUOUS
 10
-1.970583
 20
3.629673
  0
VERTEX
  8
PLAN_1
 62
     2
  6
CONTINUOUS
 10
-1.967835
 20
3.628760
  0
VERTEX
  8
PLAN_1
 62
     2
  6
CONTINUOUS
 10
-1.965547
 20
3.628760
  0
VERTEX
  8
PLAN_1
 62
     2
  6
CONTINUOUS
 10
-1.962339
 20
3.629217
  0
VERTEX
  8
PLAN_1
 62
     2
  6
CONTINUOUS
 10
-1.959134
 20
3.630134
  0
VERTEX
  8
PLAN_1
 62
     2
  6
CONTINUOUS
 10
-1.956386
 20
3.631965
  0
VERTEX
  8
PLAN_1
 62
     2
  6
CONTINUOUS
 10
-1.954555
 20
3.634713
  0
VERTEX
  8
PLAN_1
 62
     2
  6
CONTINUOUS
 10
-1.953181
 20
3.637917
  0
VERTEX
  8
PLAN_1
 62
     2
  6
CONTINUOUS
 10
-1.951807
 20
3.641126
  0
VERTEX
  8
PLAN_1
 62
     2
  6
CONTINUOUS
 10
-1.951346
 20
3.645248
  0
VERTEX
  8
PLAN_1
 62
     2
  6
CONTINUOUS
 10
-1.950890
 20
3.649827
  0
VERTEX
  8
PLAN_1
 62
     2
  6
CONTINUOUS
 10
-1.950890
 20
3.652575
  0
VERTEX
  8
PLAN_1
 62
     2
  6
CONTINUOUS
 10
-1.951346
 20
3.655780
  0
VERTEX
  8
PLAN_1
 62
     2
  6
CONTINUOUS
 10
-1.951807
 20
3.658988
  0
VERTEX
  8
PLAN_1
 62
     2
  6
CONTINUOUS
 10
-1.953181
 20
3.662650
  0
VERTEX
  8
PLAN_1
 62
     2
  6
CONTINUOUS
 10
-1.954094
 20
3.664024
  0
VERTEX
  8
PLAN_1
 62
     2
  6
CONTINUOUS
 10
-1.955012
 20
3.665398
  0
VERTEX
  8
PLAN_1
 62
     2
  6
CONTINUOUS
 10
-1.955929
 20
3.666772
  0
VERTEX
  8
PLAN_1
 62
     2
  6
CONTINUOUS
 10
-1.957303
 20
3.667689
  0
VERTEX
  8
PLAN_1
 62
     2
  6
CONTINUOUS
 10
-1.959134
 20
3.668602
  0
VERTEX
  8
PLAN_1
 62
     2
  6
CONTINUOUS
 10
-1.960965
 20
3.669520
  0
VERTEX
  8
PLAN_1
 62
     2
  6
CONTINUOUS
 10
-1.963256
 20
3.669976
  0
VERTEX
  8
PLAN_1
 62
     2
  6
CONTINUOUS
 10
-1.966004
 20
3.669976
  0
SEQEND
  8
0
  0
SOLID
  8
PLAN_1
 62
     2
 10
-1.923409
 20
3.622346
 11
-1.932571
 21
3.622346
 12
-1.923409
 22
3.697000
 13
-1.932571
 23
3.697000
  0
POLYLINE
  8
PLAN_1
 62
     2
  6
CONTINUOUS
 66
     1
 40
0.003000
 41
0.003000
  0
VERTEX
  8
PLAN_1
 62
     2
  6
CONTINUOUS
 10
-1.923409
 20
3.622346
  0
VERTEX
  8
PLAN_1
 62
     2
  6
CONTINUOUS
 10
-1.932571
 20
3.622346
  0
VERTEX
  8
PLAN_1
 62
     2
  6
CONTINUOUS
 10
-1.932571
 20
3.697000
  0
VERTEX
  8
PLAN_1
 62
     2
  6
CONTINUOUS
 10
-1.923409
 20
3.697000
  0
VERTEX
  8
PLAN_1
 62
     2
  6
CONTINUOUS
 10
-1.923409
 20
3.622346
  0
SEQEND
  8
0
  0
POLYLINE
  8
PLAN_1
 62
     2
  6
CONTINUOUS
 66
     1
 40
0.003000
 41
0.003000
  0
VERTEX
  8
PLAN_1
 62
     2
  6
CONTINUOUS
 10
-1.887228
 20
3.678220
  0
VERTEX
  8
PLAN_1
 62
     2
  6
CONTINUOUS
 10
-1.884024
 20
3.678220
  0
VERTEX
  8
PLAN_1
 62
     2
  6
CONTINUOUS
 10
-1.881276
 20
3.677764
  0
VERTEX
  8
PLAN_1
 62
     2
  6
CONTINUOUS
 10
-1.878528
 20
3.676846
  0
VERTEX
  8
PLAN_1
 62
     2
  6
CONTINUOUS
 10
-1.876236
 20
3.675933
  0
VERTEX
  8
PLAN_1
 62
     2
  6
CONTINUOUS
 10
-1.873945
 20
3.674559
  0
VERTEX
  8
PLAN_1
 62
     2
  6
CONTINUOUS
 10
-1.871657
 20
3.672724
  0
VERTEX
  8
PLAN_1
 62
     2
  6
CONTINUOUS
 10
-1.869823
 20
3.671350
  0
VERTEX
  8
PLAN_1
 62
     2
  6
CONTINUOUS
 10
-1.868449
 20
3.669063
  0
VERTEX
  8
PLAN_1
 62
     2
  6
CONTINUOUS
 10
-1.866618
 20
3.667228
  0
VERTEX
  8
PLAN_1
 62
     2
  6
CONTINUOUS
 10
-1.865701
 20
3.664941
  0
VERTEX
  8
PLAN_1
 62
     2
  6
CONTINUOUS
 10
-1.864327
 20
3.662650
  0
VERTEX
  8
PLAN_1
 62
     2
  6
CONTINUOUS
 10
-1.863413
 20
3.659902
  0
VERTEX
  8
PLAN_1
 62
     2
  6
CONTINUOUS
 10
-1.862496
 20
3.654866
  0
VERTEX
  8
PLAN_1
 62
     2
  6
CONTINUOUS
 10
-1.862039
 20
3.649370
  0
VERTEX
  8
PLAN_1
 62
     2
  6
CONTINUOUS
 10
-1.862496
 20
3.644331
  0
VERTEX
  8
PLAN_1
 62
     2
  6
CONTINUOUS
 10
-1.863413
 20
3.639291
  0
VERTEX
  8
PLAN_1
 62
     2
  6
CONTINUOUS
 10
-1.864327
 20
3.636543
  0
VERTEX
  8
PLAN_1
 62
     2
  6
CONTINUOUS
 10
-1.865701
 20
3.634256
  0
VERTEX
  8
PLAN_1
 62
     2
  6
CONTINUOUS
 10
-1.866618
 20
3.631965
  0
VERTEX
  8
PLAN_1
 62
     2
  6
CONTINUOUS
 10
-1.868449
 20
3.630134
  0
VERTEX
  8
PLAN_1
 62
     2
  6
CONTINUOUS
 10
-1.869823
 20
3.627843
  0
VERTEX
  8
PLAN_1
 62
     2
  6
CONTINUOUS
 10
-1.871657
 20
3.626012
  0
VERTEX
  8
PLAN_1
 62
     2
  6
CONTINUOUS
 10
-1.873945
 20
3.624638
  0
VERTEX
  8
PLAN_1
 62
     2
  6
CONTINUOUS
 10
-1.876236
 20
3.623264
  0
VERTEX
  8
PLAN_1
 62
     2
  6
CONTINUOUS
 10
-1.878528
 20
3.622346
  0
VERTEX
  8
PLAN_1
 62
     2
  6
CONTINUOUS
 10
-1.881276
 20
3.621429
  0
VERTEX
  8
PLAN_1
 62
     2
  6
CONTINUOUS
 10
-1.884024
 20
3.620972
  0
VERTEX
  8
PLAN_1
 62
     2
  6
CONTINUOUS
 10
-1.887228
 20
3.620972
  0
VERTEX
  8
PLAN_1
 62
     2
  6
CONTINUOUS
 10
-1.890433
 20
3.620972
  0
VERTEX
  8
PLAN_1
 62
     2
  6
CONTINUOUS
 10
-1.893642
 20
3.621429
  0
VERTEX
  8
PLAN_1
 62
     2
  6
CONTINUOUS
 10
-1.896390
 20
3.622346
  0
VERTEX
  8
PLAN_1
 62
     2
  6
CONTINUOUS
 10
-1.898677
 20
3.623264
  0
VERTEX
  8
PLAN_1
 62
     2
  6
CONTINUOUS
 10
-1.900969
 20
3.624638
  0
VERTEX
  8
PLAN_1
 62
     2
  6
CONTINUOUS
 10
-1.903256
 20
3.626012
  0
VERTEX
  8
PLAN_1
 62
     2
  6
CONTINUOUS
 10
-1.905091
 20
3.627843
  0
VERTEX
  8
PLAN_1
 62
     2
  6
CONTINUOUS
 10
-1.906465
 20
3.630134
  0
VERTEX
  8
PLAN_1
 62
     2
  6
CONTINUOUS
 10
-1.907839
 20
3.631965
  0
VERTEX
  8
PLAN_1
 62
     2
  6
CONTINUOUS
 10
-1.909213
 20
3.634256
  0
VERTEX
  8
PLAN_1
 62
     2
  6
CONTINUOUS
 10
-1.910126
 20
3.636543
  0
VERTEX
  8
PLAN_1
 62
     2
  6
CONTINUOUS
 10
-1.911043
 20
3.639291
  0
VERTEX
  8
PLAN_1
 62
     2
  6
CONTINUOUS
 10
-1.912417
 20
3.644331
  0
VERTEX
  8
PLAN_1
 62
     2
  6
CONTINUOUS
 10
-1.912874
 20
3.649370
  0
VERTEX
  8
PLAN_1
 62
     2
  6
CONTINUOUS
 10
-1.912417
 20
3.654866
  0
VERTEX
  8
PLAN_1
 62
     2
  6
CONTINUOUS
 10
-1.911043
 20
3.659902
  0
VERTEX
  8
PLAN_1
 62
     2
  6
CONTINUOUS
 10
-1.910126
 20
3.662650
  0
VERTEX
  8
PLAN_1
 62
     2
  6
CONTINUOUS
 10
-1.909213
 20
3.664941
  0
VERTEX
  8
PLAN_1
 62
     2
  6
CONTINUOUS
 10
-1.907839
 20
3.667228
  0
VERTEX
  8
PLAN_1
 62
     2
  6
CONTINUOUS
 10
-1.906465
 20
3.669063
  0
VERTEX
  8
PLAN_1
 62
     2
  6
CONTINUOUS
 10
-1.905091
 20
3.671350
  0
VERTEX
  8
PLAN_1
 62
     2
  6
CONTINUOUS
 10
-1.903256
 20
3.672724
  0
VERTEX
  8
PLAN_1
 62
     2
  6
CONTINUOUS
 10
-1.900969
 20
3.674559
  0
VERTEX
  8
PLAN_1
 62
     2
  6
CONTINUOUS
 10
-1.898677
 20
3.675933
  0
VERTEX
  8
PLAN_1
 62
     2
  6
CONTINUOUS
 10
-1.896390
 20
3.676846
  0
VERTEX
  8
PLAN_1
 62
     2
  6
CONTINUOUS
 10
-1.893642
 20
3.677764
  0
VERTEX
  8
PLAN_1
 62
     2
  6
CONTINUOUS
 10
-1.890433
 20
3.678220
  0
VERTEX
  8
PLAN_1
 62
     2
  6
CONTINUOUS
 10
-1.887228
 20
3.678220
  0
SEQEND
  8
0
  0
POLYLINE
  8
PLAN_1
 62
     2
  6
CONTINUOUS
 66
     1
 40
0.003000
 41
0.003000
  0
VERTEX
  8
PLAN_1
 62
     2
  6
CONTINUOUS
 10
-1.887228
 20
3.628760
  0
VERTEX
  8
PLAN_1
 62
     2
  6
CONTINUOUS
 10
-1.884937
 20
3.628760
  0
VERTEX
  8
PLAN_1
 62
     2
  6
CONTINUOUS
 10
-1.883106
 20
3.629217
  0
VERTEX
  8
PLAN_1
 62
     2
  6
CONTINUOUS
 10
-1.881276
 20
3.630134
  0
VERTEX
  8
PLAN_1
 62
     2
  6
CONTINUOUS
 10
-1.879441
 20
3.631047
  0
VERTEX
  8
PLAN_1
 62
     2
  6
CONTINUOUS
 10
-1.876693
 20
3.633339
  0
VERTEX
  8
PLAN_1
 62
     2
  6
CONTINUOUS
 10
-1.874406
 20
3.636543
  0
VERTEX
  8
PLAN_1
 62
     2
  6
CONTINUOUS
 10
-1.873031
 20
3.639752
  0
VERTEX
  8
PLAN_1
 62
     2
  6
CONTINUOUS
 10
-1.872114
 20
3.643413
  0
VERTEX
  8
PLAN_1
 62
     2
  6
CONTINUOUS
 10
-1.871657
 20
3.646622
  0
VERTEX
  8
PLAN_1
 62
     2
  6
CONTINUOUS
 10
-1.871657
 20
3.649370
  0
VERTEX
  8
PLAN_1
 62
     2
  6
CONTINUOUS
 10
-1.871657
 20
3.652575
  0
VERTEX
  8
PLAN_1
 62
     2
  6
CONTINUOUS
 10
-1.872114
 20
3.655780
  0
VERTEX
  8
PLAN_1
 62
     2
  6
CONTINUOUS
 10
-1.873031
 20
3.659445
  0
VERTEX
  8
PLAN_1
 62
     2
  6
CONTINUOUS
 10
-1.874406
 20
3.662650
  0
VERTEX
  8
PLAN_1
 62
     2
  6
CONTINUOUS
 10
-1.876693
 20
3.665854
  0
VERTEX
  8
PLAN_1
 62
     2
  6
CONTINUOUS
 10
-1.879441
 20
3.668146
  0
VERTEX
  8
PLAN_1
 62
     2
  6
CONTINUOUS
 10
-1.881276
 20
3.669063
  0
VERTEX
  8
PLAN_1
 62
     2
  6
CONTINUOUS
 10
-1.883106
 20
3.669976
  0
VERTEX
  8
PLAN_1
 62
     2
  6
CONTINUOUS
 10
-1.884937
 20
3.670437
  0
VERTEX
  8
PLAN_1
 62
     2
  6
CONTINUOUS
 10
-1.887228
 20
3.670437
  0
VERTEX
  8
PLAN_1
 62
     2
  6
CONTINUOUS
 10
-1.889520
 20
3.670437
  0
VERTEX
  8
PLAN_1
 62
     2
  6
CONTINUOUS
 10
-1.891807
 20
3.669976
  0
VERTEX
  8
PLAN_1
 62
     2
  6
CONTINUOUS
 10
-1.893642
 20
3.669063
  0
VERTEX
  8
PLAN_1
 62
     2
  6
CONTINUOUS
 10
-1.895472
 20
3.668146
  0
VERTEX
  8
PLAN_1
 62
     2
  6
CONTINUOUS
 10
-1.898220
 20
3.665854
  0
VERTEX
  8
PLAN_1
 62
     2
  6
CONTINUOUS
 10
-1.900051
 20
3.662650
  0
VERTEX
  8
PLAN_1
 62
     2
  6
CONTINUOUS
 10
-1.901882
 20
3.659445
  0
VERTEX
  8
PLAN_1
 62
     2
  6
CONTINUOUS
 10
-1.902799
 20
3.655780
  0
VERTEX
  8
PLAN_1
 62
     2
  6
CONTINUOUS
 10
-1.903256
 20
3.652575
  0
VERTEX
  8
PLAN_1
 62
     2
  6
CONTINUOUS
 10
-1.903256
 20
3.649370
  0
VERTEX
  8
PLAN_1
 62
     2
  6
CONTINUOUS
 10
-1.903256
 20
3.646622
  0
VERTEX
  8
PLAN_1
 62
     2
  6
CONTINUOUS
 10
-1.902799
 20
3.643413
  0
VERTEX
  8
PLAN_1
 62
     2
  6
CONTINUOUS
 10
-1.901882
 20
3.639752
  0
VERTEX
  8
PLAN_1
 62
     2
  6
CONTINUOUS
 10
-1.900051
 20
3.636543
  0
VERTEX
  8
PLAN_1
 62
     2
  6
CONTINUOUS
 10
-1.898220
 20
3.633339
  0
VERTEX
  8
PLAN_1
 62
     2
  6
CONTINUOUS
 10
-1.895472
 20
3.631047
  0
VERTEX
  8
PLAN_1
 62
     2
  6
CONTINUOUS
 10
-1.893642
 20
3.630134
  0
VERTEX
  8
PLAN_1
 62
     2
  6
CONTINUOUS
 10
-1.891807
 20
3.629217
  0
VERTEX
  8
PLAN_1
 62
     2
  6
CONTINUOUS
 10
-1.889520
 20
3.628760
  0
VERTEX
  8
PLAN_1
 62
     2
  6
CONTINUOUS
 10
-1.887228
 20
3.628760
  0
SEQEND
  8
0
  0
POLYLINE
  8
PLAN_1
 62
     2
  6
CONTINUOUS
 66
     1
 40
0.003000
 41
0.003000
  0
VERTEX
  8
PLAN_1
 62
     2
  6
CONTINUOUS
 10
-1.807535
 20
3.622346
  0
VERTEX
  8
PLAN_1
 62
     2
  6
CONTINUOUS
 10
-1.816697
 20
3.622346
  0
VERTEX
  8
PLAN_1
 62
     2
  6
CONTINUOUS
 10
-1.816697
 20
3.655780
  0
VERTEX
  8
PLAN_1
 62
     2
  6
CONTINUOUS
 10
-1.816697
 20
3.658988
  0
VERTEX
  8
PLAN_1
 62
     2
  6
CONTINUOUS
 10
-1.817154
 20
3.662193
  0
VERTEX
  8
PLAN_1
 62
     2
  6
CONTINUOUS
 10
-1.817614
 20
3.664480
  0
VERTEX
  8
PLAN_1
 62
     2
  6
CONTINUOUS
 10
-1.818988
 20
3.666315
  0
VERTEX
  8
PLAN_1
 62
     2
  6
CONTINUOUS
 10
-1.820362
 20
3.668146
  0
VERTEX
  8
PLAN_1
 62
     2
  6
CONTINUOUS
 10
-1.822650
 20
3.669063
  0
VERTEX
  8
PLAN_1
 62
     2
  6
CONTINUOUS
 10
-1.824941
 20
3.669976
  0
VERTEX
  8
PLAN_1
 62
     2
  6
CONTINUOUS
 10
-1.828146
 20
3.669976
  0
VERTEX
  8
PLAN_1
 62
     2
  6
CONTINUOUS
 10
-1.830437
 20
3.669976
  0
VERTEX
  8
PLAN_1
 62
     2
  6
CONTINUOUS
 10
-1.832724
 20
3.669520
  0
VERTEX
  8
PLAN_1
 62
     2
  6
CONTINUOUS
 10
-1.835016
 20
3.668146
  0
VERTEX
  8
PLAN_1
 62
     2
  6
CONTINUOUS
 10
-1.837307
 20
3.666315
  0
VERTEX
  8
PLAN_1
 62
     2
  6
CONTINUOUS
 10
-1.839138
 20
3.664024
  0
VERTEX
  8
PLAN_1
 62
     2
  6
CONTINUOUS
 10
-1.840969
 20
3.660819
  0
VERTEX
  8
PLAN_1
 62
     2
  6
CONTINUOUS
 10
-1.841886
 20
3.657154
  0
VERTEX
  8
PLAN_1
 62
     2
  6
CONTINUOUS
 10
-1.842343
 20
3.652118
  0
VERTEX
  8
PLAN_1
 62
     2
  6
CONTINUOUS
 10
-1.842343
 20
3.622346
  0
VERTEX
  8
PLAN_1
 62
     2
  6
CONTINUOUS
 10
-1.851504
 20
3.622346
  0
VERTEX
  8
PLAN_1
 62
     2
  6
CONTINUOUS
 10
-1.851504
 20
3.676846
  0
VERTEX
  8
PLAN_1
 62
     2
  6
CONTINUOUS
 10
-1.842803
 20
3.676846
  0
VERTEX
  8
PLAN_1
 62
     2
  6
CONTINUOUS
 10
-1.842803
 20
3.669063
  0
VERTEX
  8
PLAN_1
 62
     2
  6
CONTINUOUS
 10
-1.841886
 20
3.670437
  0
VERTEX
  8
PLAN_1
 62
     2
  6
CONTINUOUS
 10
-1.840512
 20
3.671811
  0
VERTEX
  8
PLAN_1
 62
     2
  6
CONTINUOUS
 10
-1.839138
 20
3.673185
  0
VERTEX
  8
PLAN_1
 62
     2
  6
CONTINUOUS
 10
-1.837307
 20
3.674559
  0
VERTEX
  8
PLAN_1
 62
     2
  6
CONTINUOUS
 10
-1.835016
 20
3.675933
  0
VERTEX
  8
PLAN_1
 62
     2
  6
CONTINUOUS
 10
-1.832724
 20
3.677307
  0
VERTEX
  8
PLAN_1
 62
     2
  6
CONTINUOUS
 10
-1.829520
 20
3.677764
  0
VERTEX
  8
PLAN_1
 62
     2
  6
CONTINUOUS
 10
-1.826315
 20
3.678220
  0
VERTEX
  8
PLAN_1
 62
     2
  6
CONTINUOUS
 10
-1.823110
 20
3.678220
  0
VERTEX
  8
PLAN_1
 62
     2
  6
CONTINUOUS
 10
-1.819902
 20
3.677307
  0
VERTEX
  8
PLAN_1
 62
     2
  6
CONTINUOUS
 10
-1.816697
 20
3.676390
  0
VERTEX
  8
PLAN_1
 62
     2
  6
CONTINUOUS
 10
-1.813492
 20
3.674559
  0
VERTEX
  8
PLAN_1
 62
     2
  6
CONTINUOUS
 10
-1.812575
 20
3.673642
  0
VERTEX
  8
PLAN_1
 62
     2
  6
CONTINUOUS
 10
-1.811201
 20
3.672268
  0
VERTEX
  8
PLAN_1
 62
     2
  6
CONTINUOUS
 10
-1.809827
 20
3.670437
  0
VERTEX
  8
PLAN_1
 62
     2
  6
CONTINUOUS
 10
-1.808909
 20
3.668602
  0
VERTEX
  8
PLAN_1
 62
     2
  6
CONTINUOUS
 10
-1.808453
 20
3.666772
  0
VERTEX
  8
PLAN_1
 62
     2
  6
CONTINUOUS
 10
-1.807996
 20
3.664480
  0
VERTEX
  8
PLAN_1
 62
     2
  6
CONTINUOUS
 10
-1.807535
 20
3.662193
  0
VERTEX
  8
PLAN_1
 62
     2
  6
CONTINUOUS
 10
-1.807535
 20
3.659445
  0
VERTEX
  8
PLAN_1
 62
     2
  6
CONTINUOUS
 10
-1.807535
 20
3.622346
  0
SEQEND
  8
0
  0
POLYLINE
  8
PLAN_1
 62
     2
  6
CONTINUOUS
 66
     1
 40
0.003000
 41
0.003000
  0
VERTEX
  8
PLAN_1
 62
     2
  6
CONTINUOUS
 10
-1.748457
 20
3.626925
  0
VERTEX
  8
PLAN_1
 62
     2
  6
CONTINUOUS
 10
-1.748457
 20
3.623264
  0
VERTEX
  8
PLAN_1
 62
     2
  6
CONTINUOUS
 10
-1.748913
 20
3.619142
  0
VERTEX
  8
PLAN_1
 62
     2
  6
CONTINUOUS
 10
-1.749831
 20
3.614559
  0
VERTEX
  8
PLAN_1
 62
     2
  6
CONTINUOUS
 10
-1.751661
 20
3.609980
  0
VERTEX
  8
PLAN_1
 62
     2
  6
CONTINUOUS
 10
-1.753035
 20
3.608150
  0
VERTEX
  8
PLAN_1
 62
     2
  6
CONTINUOUS
 10
-1.754866
 20
3.605858
  0
VERTEX
  8
PLAN_1
 62
     2
  6
CONTINUOUS
 10
-1.756701
 20
3.604028
  0
VERTEX
  8
PLAN_1
 62
     2
  6
CONTINUOUS
 10
-1.759449
 20
3.602654
  0
VERTEX
  8
PLAN_1
 62
     2
  6
CONTINUOUS
 10
-1.762193
 20
3.601280
  0
VERTEX
  8
PLAN_1
 62
     2
  6
CONTINUOUS
 10
-1.765402
 20
3.600362
  0
VERTEX
  8
PLAN_1
 62
     2
  6
CONTINUOUS
 10
-1.769524
 20
3.599445
  0
VERTEX
  8
PLAN_1
 62
     2
  6
CONTINUOUS
 10
-1.774102
 20
3.599445
  0
VERTEX
  8
PLAN_1
 62
     2
  6
CONTINUOUS
 10
-1.776394
 20
3.599445
  0
VERTEX
  8
PLAN_1
 62
     2
  6
CONTINUOUS
 10
-1.779598
 20
3.599906
  0
VERTEX
  8
PLAN_1
 62
     2
  6
CONTINUOUS
 10
-1.782803
 20
3.600819
  0
VERTEX
  8
PLAN_1
 62
     2
  6
CONTINUOUS
 10
-1.786012
 20
3.602193
  0
VERTEX
  8
PLAN_1
 62
     2
  6
CONTINUOUS
 10
-1.789217
 20
3.604028
  0
VERTEX
  8
PLAN_1
 62
     2
  6
CONTINUOUS
 10
-1.791508
 20
3.606776
  0
VERTEX
  8
PLAN_1
 62
     2
  6
CONTINUOUS
 10
-1.792882
 20
3.608606
  0
VERTEX
  8
PLAN_1
 62
     2
  6
CONTINUOUS
 10
-1.793339
 20
3.610898
  0
VERTEX
  8
PLAN_1
 62
     2
  6
CONTINUOUS
 10
-1.794256
 20
3.613185
  0
VERTEX
  8
PLAN_1
 62
     2
  6
CONTINUOUS
 10
-1.794713
 20
3.615476
  0
VERTEX
  8
PLAN_1
 62
     2
  6
CONTINUOUS
 10
-1.785551
 20
3.615476
  0
VERTEX
  8
PLAN_1
 62
     2
  6
CONTINUOUS
 10
-1.784638
 20
3.612728
  0
VERTEX
  8
PLAN_1
 62
     2
  6
CONTINUOUS
 10
-1.783264
 20
3.610437
  0
VERTEX
  8
PLAN_1
 62
     2
  6
CONTINUOUS
 10
-1.781429
 20
3.609063
  0
VERTEX
  8
PLAN_1
 62
     2
  6
CONTINUOUS
 10
-1.779598
 20
3.608150
  0
VERTEX
  8
PLAN_1
 62
     2
  6
CONTINUOUS
 10
-1.777768
 20
3.607232
  0
VERTEX
  8
PLAN_1
 62
     2
  6
CONTINUOUS
 10
-1.775933
 20
3.607232
  0
VERTEX
  8
PLAN_1
 62
     2
  6
CONTINUOUS
 10
-1.774559
 20
3.607232
  0
VERTEX
  8
PLAN_1
 62
     2
  6
CONTINUOUS
 10
-1.773185
 20
3.607232
  0
VERTEX
  8
PLAN_1
 62
     2
  6
CONTINUOUS
 10
-1.770437
 20
3.607232
  0
VERTEX
  8
PLAN_1
 62
     2
  6
CONTINUOUS
 10
-1.768150
 20
3.607689
  0
VERTEX
  8
PLAN_1
 62
     2
  6
CONTINUOUS
 10
-1.765858
 20
3.608150
  0
VERTEX
  8
PLAN_1
 62
     2
  6
CONTINUOUS
 10
-1.764028
 20
3.609063
  0
VERTEX
  8
PLAN_1
 62
     2
  6
CONTINUOUS
 10
-1.762654
 20
3.609980
  0
VERTEX
  8
PLAN_1
 62
     2
  6
CONTINUOUS
 10
-1.761280
 20
3.611354
  0
VERTEX
  8
PLAN_1
 62
     2
  6
CONTINUOUS
 10
-1.760362
 20
3.612728
  0
VERTEX
  8
PLAN_1
 62
     2
  6
CONTINUOUS
 10
-1.759449
 20
3.614102
  0
VERTEX
  8
PLAN_1
 62
     2
  6
CONTINUOUS
 10
-1.758531
 20
3.617307
  0
VERTEX
  8
PLAN_1
 62
     2
  6
CONTINUOUS
 10
-1.758075
 20
3.620516
  0
VERTEX
  8
PLAN_1
 62
     2
  6
CONTINUOUS
 10
-1.757614
 20
3.623264
  0
VERTEX
  8
PLAN_1
 62
     2
  6
CONTINUOUS
 10
-1.757614
 20
3.626012
  0
VERTEX
  8
PLAN_1
 62
     2
  6
CONTINUOUS
 10
-1.757614
 20
3.628299
  0
VERTEX
  8
PLAN_1
 62
     2
  6
CONTINUOUS
 10
-1.758075
 20
3.628299
  0
VERTEX
  8
PLAN_1
 62
     2
  6
CONTINUOUS
 10
-1.758075
 20
3.627843
  0
VERTEX
  8
PLAN_1
 62
     2
  6
CONTINUOUS
 10
-1.758988
 20
3.626469
  0
VERTEX
  8
PLAN_1
 62
     2
  6
CONTINUOUS
 10
-1.760362
 20
3.625094
  0
VERTEX
  8
PLAN_1
 62
     2
  6
CONTINUOUS
 10
-1.761736
 20
3.624177
  0
VERTEX
  8
PLAN_1
 62
     2
  6
CONTINUOUS
 10
-1.763567
 20
3.622803
  0
VERTEX
  8
PLAN_1
 62
     2
  6
CONTINUOUS
 10
-1.765402
 20
3.621890
  0
VERTEX
  8
PLAN_1
 62
     2
  6
CONTINUOUS
 10
-1.767232
 20
3.621429
  0
VERTEX
  8
PLAN_1
 62
     2
  6
CONTINUOUS
 10
-1.769980
 20
3.620972
  0
VERTEX
  8
PLAN_1
 62
     2
  6
CONTINUOUS
 10
-1.772272
 20
3.620516
  0
VERTEX
  8
PLAN_1
 62
     2
  6
CONTINUOUS
 10
-1.775933
 20
3.620972
  0
VERTEX
  8
PLAN_1
 62
     2
  6
CONTINUOUS
 10
-1.778681
 20
3.621429
  0
VERTEX
  8
PLAN_1
 62
     2
  6
CONTINUOUS
 10
-1.781429
 20
3.622346
  0
VERTEX
  8
PLAN_1
 62
     2
  6
CONTINUOUS
 10
-1.784177
 20
3.623720
  0
VERTEX
  8
PLAN_1
 62
     2
  6
CONTINUOUS
 10
-1.786012
 20
3.625094
  0
VERTEX
  8
PLAN_1
 62
     2
  6
CONTINUOUS
 10
-1.788299
 20
3.626925
  0
VERTEX
  8
PLAN_1
 62
     2
  6
CONTINUOUS
 10
-1.789673
 20
3.628760
  0
VERTEX
  8
PLAN_1
 62
     2
  6
CONTINUOUS
 10
-1.791508
 20
3.631047
  0
VERTEX
  8
PLAN_1
 62
     2
  6
CONTINUOUS
 10
-1.793795
 20
3.635630
  0
VERTEX
  8
PLAN_1
 62
     2
  6
CONTINUOUS
 10
-1.795169
 20
3.640665
  0
VERTEX
  8
PLAN_1
 62
     2
  6
CONTINUOUS
 10
-1.796087
 20
3.646161
  0
VERTEX
  8
PLAN_1
 62
     2
  6
CONTINUOUS
 10
-1.796543
 20
3.651201
  0
VERTEX
  8
PLAN_1
 62
     2
  6
CONTINUOUS
 10
-1.796087
 20
3.656697
  0
VERTEX
  8
PLAN_1
 62
     2
  6
CONTINUOUS
 10
-1.794713
 20
3.661736
  0
VERTEX
  8
PLAN_1
 62
     2
  6
CONTINUOUS
 10
-1.792882
 20
3.666315
  0
VERTEX
  8
PLAN_1
 62
     2
  6
CONTINUOUS
 10
-1.790591
 20
3.670437
  0
VERTEX
  8
PLAN_1
 62
     2
  6
CONTINUOUS
 10
-1.788760
 20
3.672268
  0
VERTEX
  8
PLAN_1
 62
     2
  6
CONTINUOUS
 10
-1.787386
 20
3.673642
  0
VERTEX
  8
PLAN_1
 62
     2
  6
CONTINUOUS
 10
-1.785551
 20
3.675016
  0
VERTEX
  8
PLAN_1
 62
     2
  6
CONTINUOUS
 10
-1.783264
 20
3.676390
  0
VERTEX
  8
PLAN_1
 62
     2
  6
CONTINUOUS
 10
-1.780972
 20
3.676846
  0
VERTEX
  8
PLAN_1
 62
     2
  6
CONTINUOUS
 10
-1.778681
 20
3.677764
  0
VERTEX
  8
PLAN_1
 62
     2
  6
CONTINUOUS
 10
-1.776394
 20
3.678220
  0
VERTEX
  8
PLAN_1
 62
     2
  6
CONTINUOUS
 10
-1.773646
 20
3.678220
  0
VERTEX
  8
PLAN_1
 62
     2
  6
CONTINUOUS
 10
-1.770437
 20
3.678220
  0
VERTEX
  8
PLAN_1
 62
     2
  6
CONTINUOUS
 10
-1.767232
 20
3.677307
  0
VERTEX
  8
PLAN_1
 62
     2
  6
CONTINUOUS
 10
-1.764941
 20
3.676390
  0
VERTEX
  8
PLAN_1
 62
     2
  6
CONTINUOUS
 10
-1.762654
 20
3.675016
  0
VERTEX
  8
PLAN_1
 62
     2
  6
CONTINUOUS
 10
-1.760819
 20
3.673185
  0
VERTEX
  8
PLAN_1
 62
     2
  6
CONTINUOUS
 10
-1.759449
 20
3.671811
  0
VERTEX
  8
PLAN_1
 62
     2
  6
CONTINUOUS
 10
-1.758531
 20
3.670437
  0
VERTEX
  8
PLAN_1
 62
     2
  6
CONTINUOUS
 10
-1.757614
 20
3.669063
  0
VERTEX
  8
PLAN_1
 62
     2
  6
CONTINUOUS
 10
-1.757157
 20
3.669063
  0
VERTEX
  8
PLAN_1
 62
     2
  6
CONTINUOUS
 10
-1.757157
 20
3.676846
  0
VERTEX
  8
PLAN_1
 62
     2
  6
CONTINUOUS
 10
-1.748457
 20
3.676846
  0
VERTEX
  8
PLAN_1
 62
     2
  6
CONTINUOUS
 10
-1.748457
 20
3.626925
  0
SEQEND
  8
0
  0
POLYLINE
  8
PLAN_1
 62
     2
  6
CONTINUOUS
 66
     1
 40
0.003000
 41
0.003000
  0
VERTEX
  8
PLAN_1
 62
     2
  6
CONTINUOUS
 10
-1.772272
 20
3.628760
  0
VERTEX
  8
PLAN_1
 62
     2
  6
CONTINUOUS
 10
-1.769980
 20
3.628760
  0
VERTEX
  8
PLAN_1
 62
     2
  6
CONTINUOUS
 10
-1.767232
 20
3.629673
  0
VERTEX
  8
PLAN_1
 62
     2
  6
CONTINUOUS
 10
-1.764941
 20
3.630591
  0
VERTEX
  8
PLAN_1
 62
     2
  6
CONTINUOUS
 10
-1.762654
 20
3.632421
  0
VERTEX
  8
PLAN_1
 62
     2
  6
CONTINUOUS
 10
-1.760362
 20
3.634713
  0
VERTEX
  8
PLAN_1
 62
     2
  6
CONTINUOUS
 10
-1.758988
 20
3.637917
  0
VERTEX
  8
PLAN_1
 62
     2
  6
CONTINUOUS
 10
-1.757614
 20
3.642039
  0
VERTEX
  8
PLAN_1
 62
     2
  6
CONTINUOUS
 10
-1.757157
 20
3.647079
  0
VERTEX
  8
PLAN_1
 62
     2
  6
CONTINUOUS
 10
-1.757614
 20
3.650283
  0
VERTEX
  8
PLAN_1
 62
     2
  6
CONTINUOUS
 10
-1.757614
 20
3.654406
  0
VERTEX
  8
PLAN_1
 62
     2
  6
CONTINUOUS
 10
-1.758531
 20
3.658071
  0
VERTEX
  8
PLAN_1
 62
     2
  6
CONTINUOUS
 10
-1.759906
 20
3.661736
  0
VERTEX
  8
PLAN_1
 62
     2
  6
CONTINUOUS
 10
-1.760362
 20
3.663567
  0
VERTEX
  8
PLAN_1
 62
     2
  6
CONTINUOUS
 10
-1.761736
 20
3.664941
  0
VERTEX
  8
PLAN_1
 62
     2
  6
CONTINUOUS
 10
-1.762654
 20
3.666315
  0
VERTEX
  8
PLAN_1
 62
     2
  6
CONTINUOUS
 10
-1.764028
 20
3.667689
  0
VERTEX
  8
PLAN_1
 62
     2
  6
CONTINUOUS
 10
-1.765858
 20
3.668602
  0
VERTEX
  8
PLAN_1
 62
     2
  6
CONTINUOUS
 10
-1.767689
 20
3.669520
  0
VERTEX
  8
PLAN_1
 62
     2
  6
CONTINUOUS
 10
-1.769524
 20
3.669976
  0
VERTEX
  8
PLAN_1
 62
     2
  6
CONTINUOUS
 10
-1.771811
 20
3.669976
  0
VERTEX
  8
PLAN_1
 62
     2
  6
CONTINUOUS
 10
-1.774559
 20
3.669976
  0
VERTEX
  8
PLAN_1
 62
     2
  6
CONTINUOUS
 10
-1.776850
 20
3.669520
  0
VERTEX
  8
PLAN_1
 62
     2
  6
CONTINUOUS
 10
-1.778681
 20
3.668602
  0
VERTEX
  8
PLAN_1
 62
     2
  6
CONTINUOUS
 10
-1.780516
 20
3.667689
  0
VERTEX
  8
PLAN_1
 62
     2
  6
CONTINUOUS
 10
-1.781890
 20
3.666772
  0
VERTEX
  8
PLAN_1
 62
     2
  6
CONTINUOUS
 10
-1.782803
 20
3.665398
  0
VERTEX
  8
PLAN_1
 62
     2
  6
CONTINUOUS
 10
-1.783720
 20
3.664024
  0
VERTEX
  8
PLAN_1
 62
     2
  6
CONTINUOUS
 10
-1.784638
 20
3.662650
  0
VERTEX
  8
PLAN_1
 62
     2
  6
CONTINUOUS
 10
-1.786012
 20
3.658988
  0
VERTEX
  8
PLAN_1
 62
     2
  6
CONTINUOUS
 10
-1.786469
 20
3.655780
  0
VERTEX
  8
PLAN_1
 62
     2
  6
CONTINUOUS
 10
-1.786925
 20
3.652575
  0
VERTEX
  8
PLAN_1
 62
     2
  6
CONTINUOUS
 10
-1.786925
 20
3.649827
  0
VERTEX
  8
PLAN_1
 62
     2
  6
CONTINUOUS
 10
-1.786469
 20
3.645248
  0
VERTEX
  8
PLAN_1
 62
     2
  6
CONTINUOUS
 10
-1.786012
 20
3.641126
  0
VERTEX
  8
PLAN_1
 62
     2
  6
CONTINUOUS
 10
-1.785094
 20
3.637917
  0
VERTEX
  8
PLAN_1
 62
     2
  6
CONTINUOUS
 10
-1.783264
 20
3.634713
  0
VERTEX
  8
PLAN_1
 62
     2
  6
CONTINUOUS
 10
-1.781429
 20
3.631965
  0
VERTEX
  8
PLAN_1
 62
     2
  6
CONTINUOUS
 10
-1.778681
 20
3.630134
  0
VERTEX
  8
PLAN_1
 62
     2
  6
CONTINUOUS
 10
-1.775933
 20
3.629217
  0
VERTEX
  8
PLAN_1
 62
     2
  6
CONTINUOUS
 10
-1.772272
 20
3.628760
  0
SEQEND
  8
0
  0
POLYLINE
  8
PLAN_1
 62
     2
  6
CONTINUOUS
 66
     1
 40
0.003000
 41
0.003000
  0
VERTEX
  8
PLAN_1
 62
     2
  6
CONTINUOUS
 10
-1.704945
 20
3.661276
  0
VERTEX
  8
PLAN_1
 62
     2
  6
CONTINUOUS
 10
-1.704945
 20
3.662650
  0
VERTEX
  8
PLAN_1
 62
     2
  6
CONTINUOUS
 10
-1.705402
 20
3.664024
  0
VERTEX
  8
PLAN_1
 62
     2
  6
CONTINUOUS
 10
-1.705862
 20
3.665398
  0
VERTEX
  8
PLAN_1
 62
     2
  6
CONTINUOUS
 10
-1.707236
 20
3.667228
  0
VERTEX
  8
PLAN_1
 62
     2
  6
CONTINUOUS
 10
-1.708610
 20
3.668146
  0
VERTEX
  8
PLAN_1
 62
     2
  6
CONTINUOUS
 10
-1.710898
 20
3.669520
  0
VERTEX
  8
PLAN_1
 62
     2
  6
CONTINUOUS
 10
-1.714106
 20
3.669976
  0
VERTEX
  8
PLAN_1
 62
     2
  6
CONTINUOUS
 10
-1.717768
 20
3.670437
  0
VERTEX
  8
PLAN_1
 62
     2
  6
CONTINUOUS
 10
-1.719142
 20
3.670437
  0
VERTEX
  8
PLAN_1
 62
     2
  6
CONTINUOUS
 10
-1.720516
 20
3.669976
  0
VERTEX
  8
PLAN_1
 62
     2
  6
CONTINUOUS
 10
-1.722350
 20
3.669520
  0
VERTEX
  8
PLAN_1
 62
     2
  6
CONTINUOUS
 10
-1.724181
 20
3.669063
  0
VERTEX
  8
PLAN_1
 62
     2
  6
CONTINUOUS
 10
-1.726012
 20
3.668146
  0
VERTEX
  8
PLAN_1
 62
     2
  6
CONTINUOUS
 10
-1.727386
 20
3.666772
  0
VERTEX
  8
PLAN_1
 62
     2
  6
CONTINUOUS
 10
-1.728303
 20
3.664941
  0
VERTEX
  8
PLAN_1
 62
     2
  6
CONTINUOUS
 10
-1.728760
 20
3.662650
  0
VERTEX
  8
PLAN_1
 62
     2
  6
CONTINUOUS
 10
-1.728760
 20
3.661276
  0
VERTEX
  8
PLAN_1
 62
     2
  6
CONTINUOUS
 10
-1.728303
 20
3.659902
  0
VERTEX
  8
PLAN_1
 62
     2
  6
CONTINUOUS
 10
-1.727386
 20
3.658988
  0
VERTEX
  8
PLAN_1
 62
     2
  6
CONTINUOUS
 10
-1.726472
 20
3.658071
  0
VERTEX
  8
PLAN_1
 62
     2
  6
CONTINUOUS
 10
-1.725098
 20
3.657154
  0
VERTEX
  8
PLAN_1
 62
     2
  6
CONTINUOUS
 10
-1.723264
 20
3.656697
  0
VERTEX
  8
PLAN_1
 62
     2
  6
CONTINUOUS
 10
-1.721433
 20
3.656240
  0
VERTEX
  8
PLAN_1
 62
     2
  6
CONTINUOUS
 10
-1.718685
 20
3.655323
  0
VERTEX
  8
PLAN_1
 62
     2
  6
CONTINUOUS
 10
-1.709524
 20
3.653031
  0
VERTEX
  8
PLAN_1
 62
     2
  6
CONTINUOUS
 10
-1.705862
 20
3.652118
  0
VERTEX
  8
PLAN_1
 62
     2
  6
CONTINUOUS
 10
-1.702654
 20
3.650744
  0
VERTEX
  8
PLAN_1
 62
     2
  6
CONTINUOUS
 10
-1.699906
 20
3.649370
  0
VERTEX
  8
PLAN_1
 62
     2
  6
CONTINUOUS
 10
-1.697618
 20
3.647535
  0
VERTEX
  8
PLAN_1
 62
     2
  6
CONTINUOUS
 10
-1.696244
 20
3.645705
  0
VERTEX
  8
PLAN_1
 62
     2
  6
CONTINUOUS
 10
-1.695327
 20
3.643874
  0
VERTEX
  8
PLAN_1
 62
     2
  6
CONTINUOUS
 10
-1.694409
 20
3.641583
  0
VERTEX
  8
PLAN_1
 62
     2
  6
CONTINUOUS
 10
-1.694409
 20
3.638835
  0
VERTEX
  8
PLAN_1
 62
     2
  6
CONTINUOUS
 10
-1.694870
 20
3.634713
  0
VERTEX
  8
PLAN_1
 62
     2
  6
CONTINUOUS
 10
-1.695783
 20
3.631047
  0
VERTEX
  8
PLAN_1
 62
     2
  6
CONTINUOUS
 10
-1.698075
 20
3.628299
  0
VERTEX
  8
PLAN_1
 62
     2
  6
CONTINUOUS
 10
-1.700366
 20
3.625551
  0
VERTEX
  8
PLAN_1
 62
     2
  6
CONTINUOUS
 10
-1.703571
 20
3.623264
  0
VERTEX
  8
PLAN_1
 62
     2
  6
CONTINUOUS
 10
-1.707236
 20
3.621890
  0
VERTEX
  8
PLAN_1
 62
     2
  6
CONTINUOUS
 10
-1.711358
 20
3.620972
  0
VERTEX
  8
PLAN_1
 62
     2
  6
CONTINUOUS
 10
-1.715937
 20
3.620516
  0
VERTEX
  8
PLAN_1
 62
     2
  6
CONTINUOUS
 10
-1.719602
 20
3.620972
  0
VERTEX
  8
PLAN_1
 62
     2
  6
CONTINUOUS
 10
-1.723264
 20
3.621429
  0
VERTEX
  8
PLAN_1
 62
     2
  6
CONTINUOUS
 10
-1.726012
 20
3.621890
  0
VERTEX
  8
PLAN_1
 62
     2
  6
CONTINUOUS
 10
-1.728760
 20
3.622803
  0
VERTEX
  8
PLAN_1
 62
     2
  6
CONTINUOUS
 10
-1.730594
 20
3.623720
  0
VERTEX
  8
PLAN_1
 62
     2
  6
CONTINUOUS
 10
-1.732882
 20
3.625094
  0
VERTEX
  8
PLAN_1
 62
     2
  6
CONTINUOUS
 10
-1.734256
 20
3.626469
  0
VERTEX
  8
PLAN_1
 62
     2
  6
CONTINUOUS
 10
-1.735630
 20
3.627843
  0
VERTEX
  8
PLAN_1
 62
     2
  6
CONTINUOUS
 10
-1.737465
 20
3.631047
  0
VERTEX
  8
PLAN_1
 62
     2
  6
CONTINUOUS
 10
-1.738378
 20
3.634256
  0
VERTEX
  8
PLAN_1
 62
     2
  6
CONTINUOUS
 10
-1.739295
 20
3.637004
  0
VERTEX
  8
PLAN_1
 62
     2
  6
CONTINUOUS
 10
-1.739295
 20
3.639752
  0
VERTEX
  8
PLAN_1
 62
     2
  6
CONTINUOUS
 10
-1.730594
 20
3.639752
  0
VERTEX
  8
PLAN_1
 62
     2
  6
CONTINUOUS
 10
-1.730134
 20
3.637917
  0
VERTEX
  8
PLAN_1
 62
     2
  6
CONTINUOUS
 10
-1.729677
 20
3.636087
  0
VERTEX
  8
PLAN_1
 62
     2
  6
CONTINUOUS
 10
-1.729220
 20
3.634256
  0
VERTEX
  8
PLAN_1
 62
     2
  6
CONTINUOUS
 10
-1.727846
 20
3.632421
  0
VERTEX
  8
PLAN_1
 62
     2
  6
CONTINUOUS
 10
-1.726012
 20
3.631047
  0
VERTEX
  8
PLAN_1
 62
     2
  6
CONTINUOUS
 10
-1.723724
 20
3.629673
  0
VERTEX
  8
PLAN_1
 62
     2
  6
CONTINUOUS
 10
-1.720516
 20
3.628760
  0
VERTEX
  8
PLAN_1
 62
     2
  6
CONTINUOUS
 10
-1.715937
 20
3.628760
  0
VERTEX
  8
PLAN_1
 62
     2
  6
CONTINUOUS
 10
-1.713646
 20
3.628760
  0
VERTEX
  8
PLAN_1
 62
     2
  6
CONTINUOUS
 10
-1.711358
 20
3.629217
  0
VERTEX
  8
PLAN_1
 62
     2
  6
CONTINUOUS
 10
-1.709067
 20
3.629673
  0
VERTEX
  8
PLAN_1
 62
     2
  6
CONTINUOUS
 10
-1.707236
 20
3.630591
  0
VERTEX
  8
PLAN_1
 62
     2
  6
CONTINUOUS
 10
-1.705862
 20
3.631965
  0
VERTEX
  8
PLAN_1
 62
     2
  6
CONTINUOUS
 10
-1.704488
 20
3.633339
  0
VERTEX
  8
PLAN_1
 62
     2
  6
CONTINUOUS
 10
-1.703571
 20
3.635169
  0
VERTEX
  8
PLAN_1
 62
     2
  6
CONTINUOUS
 10
-1.703571
 20
3.637461
  0
VERTEX
  8
PLAN_1
 62
     2
  6
CONTINUOUS
 10
-1.703571
 20
3.638835
  0
VERTEX
  8
PLAN_1
 62
     2
  6
CONTINUOUS
 10
-1.704028
 20
3.640209
  0
VERTEX
  8
PLAN_1
 62
     2
  6
CONTINUOUS
 10
-1.704945
 20
3.641126
  0
VERTEX
  8
PLAN_1
 62
     2
  6
CONTINUOUS
 10
-1.705862
 20
3.642039
  0
VERTEX
  8
PLAN_1
 62
     2
  6
CONTINUOUS
 10
-1.707693
 20
3.642957
  0
VERTEX
  8
PLAN_1
 62
     2
  6
CONTINUOUS
 10
-1.709524
 20
3.643874
  0
VERTEX
  8
PLAN_1
 62
     2
  6
CONTINUOUS
 10
-1.711815
 20
3.644331
  0
VERTEX
  8
PLAN_1
 62
     2
  6
CONTINUOUS
 10
-1.714106
 20
3.645248
  0
VERTEX
  8
PLAN_1
 62
     2
  6
CONTINUOUS
 10
-1.725098
 20
3.647535
  0
VERTEX
  8
PLAN_1
 62
     2
  6
CONTINUOUS
 10
-1.727846
 20
3.648453
  0
VERTEX
  8
PLAN_1
 62
     2
  6
CONTINUOUS
 10
-1.730134
 20
3.649370
  0
VERTEX
  8
PLAN_1
 62
     2
  6
CONTINUOUS
 10
-1.732425
 20
3.650744
  0
VERTEX
  8
PLAN_1
 62
     2
  6
CONTINUOUS
 10
-1.734256
 20
3.652118
  0
VERTEX
  8
PLAN_1
 62
     2
  6
CONTINUOUS
 10
-1.735630
 20
3.653949
  0
VERTEX
  8
PLAN_1
 62
     2
  6
CONTINUOUS
 10
-1.736547
 20
3.655780
  0
VERTEX
  8
PLAN_1
 62
     2
  6
CONTINUOUS
 10
-1.737465
 20
3.658071
  0
VERTEX
  8
PLAN_1
 62
     2
  6
CONTINUOUS
 10
-1.737465
 20
3.660819
  0
VERTEX
  8
PLAN_1
 62
     2
  6
CONTINUOUS
 10
-1.737465
 20
3.663106
  0
VERTEX
  8
PLAN_1
 62
     2
  6
CONTINUOUS
 10
-1.737004
 20
3.664941
  0
VERTEX
  8
PLAN_1
 62
     2
  6
CONTINUOUS
 10
-1.736547
 20
3.666772
  0
VERTEX
  8
PLAN_1
 62
     2
  6
CONTINUOUS
 10
-1.735630
 20
3.668602
  0
VERTEX
  8
PLAN_1
 62
     2
  6
CONTINUOUS
 10
-1.733799
 20
3.671811
  0
VERTEX
  8
PLAN_1
 62
     2
  6
CONTINUOUS
 10
-1.731051
 20
3.674098
  0
VERTEX
  8
PLAN_1
 62
     2
  6
CONTINUOUS
 10
-1.728303
 20
3.675933
  0
VERTEX
  8
PLAN_1
 62
     2
  6
CONTINUOUS
 10
-1.724638
 20
3.677307
  0
VERTEX
  8
PLAN_1
 62
     2
  6
CONTINUOUS
 10
-1.720976
 20
3.678220
  0
VERTEX
  8
PLAN_1
 62
     2
  6
CONTINUOUS
 10
-1.716854
 20
3.678220
  0
VERTEX
  8
PLAN_1
 62
     2
  6
CONTINUOUS
 10
-1.713646
 20
3.678220
  0
VERTEX
  8
PLAN_1
 62
     2
  6
CONTINUOUS
 10
-1.710441
 20
3.677764
  0
VERTEX
  8
PLAN_1
 62
     2
  6
CONTINUOUS
 10
-1.707693
 20
3.676846
  0
VERTEX
  8
PLAN_1
 62
     2
  6
CONTINUOUS
 10
-1.705402
 20
3.675933
  0
VERTEX
  8
PLAN_1
 62
     2
  6
CONTINUOUS
 10
-1.703571
 20
3.675016
  0
VERTEX
  8
PLAN_1
 62
     2
  6
CONTINUOUS
 10
-1.701740
 20
3.673642
  0
VERTEX
  8
PLAN_1
 62
     2
  6
CONTINUOUS
 10
-1.700366
 20
3.672268
  0
VERTEX
  8
PLAN_1
 62
     2
  6
CONTINUOUS
 10
-1.699449
 20
3.670894
  0
VERTEX
  8
PLAN_1
 62
     2
  6
CONTINUOUS
 10
-1.697618
 20
3.667689
  0
VERTEX
  8
PLAN_1
 62
     2
  6
CONTINUOUS
 10
-1.696701
 20
3.664941
  0
VERTEX
  8
PLAN_1
 62
     2
  6
CONTINUOUS
 10
-1.696244
 20
3.662650
  0
VERTEX
  8
PLAN_1
 62
     2
  6
CONTINUOUS
 10
-1.696244
 20
3.661276
  0
VERTEX
  8
PLAN_1
 62
     2
  6
CONTINUOUS
 10
-1.704945
 20
3.661276
  0
SEQEND
  8
0
  0
POLYLINE
  8
PLAN_1
 62
     2
  6
CONTINUOUS
 66
     1
 40
0.003000
 41
0.003000
  0
VERTEX
  8
PLAN_1
 62
     2
  6
CONTINUOUS
 10
-2.331941
 20
3.561433
  0
VERTEX
  8
PLAN_1
 62
     2
  6
CONTINUOUS
 10
-2.329654
 20
3.558228
  0
VERTEX
  8
PLAN_1
 62
     2
  6
CONTINUOUS
 10
-2.328280
 20
3.555020
  0
VERTEX
  8
PLAN_1
 62
     2
  6
CONTINUOUS
 10
-2.326445
 20
3.551815
  0
VERTEX
  8
PLAN_1
 62
     2
  6
CONTINUOUS
 10
-2.325531
 20
3.548150
  0
VERTEX
  8
PLAN_1
 62
     2
  6
CONTINUOUS
 10
-2.324614
 20
3.544945
  0
VERTEX
  8
PLAN_1
 62
     2
  6
CONTINUOUS
 10
-2.324157
 20
3.541280
  0
VERTEX
  8
PLAN_1
 62
     2
  6
CONTINUOUS
 10
-2.323697
 20
3.538075
  0
VERTEX
  8
PLAN_1
 62
     2
  6
CONTINUOUS
 10
-2.323697
 20
3.534870
  0
VERTEX
  8
PLAN_1
 62
     2
  6
CONTINUOUS
 10
-2.323697
 20
3.528457
  0
VERTEX
  8
PLAN_1
 62
     2
  6
CONTINUOUS
 10
-2.325071
 20
3.521587
  0
VERTEX
  8
PLAN_1
 62
     2
  6
CONTINUOUS
 10
-2.326445
 20
3.518382
  0
VERTEX
  8
PLAN_1
 62
     2
  6
CONTINUOUS
 10
-2.327819
 20
3.515177
  0
VERTEX
  8
PLAN_1
 62
     2
  6
CONTINUOUS
 10
-2.329193
 20
3.511969
  0
VERTEX
  8
PLAN_1
 62
     2
  6
CONTINUOUS
 10
-2.331028
 20
3.508764
  0
VERTEX
  8
PLAN_1
 62
     2
  6
CONTINUOUS
 10
-2.333315
 20
3.506016
  0
VERTEX
  8
PLAN_1
 62
     2
  6
CONTINUOUS
 10
-2.336063
 20
3.503724
  0
VERTEX
  8
PLAN_1
 62
     2
  6
CONTINUOUS
 10
-2.339272
 20
3.501437
  0
VERTEX
  8
PLAN_1
 62
     2
  6
CONTINUOUS
 10
-2.342476
 20
3.499146
  0
VERTEX
  8
PLAN_1
 62
     2
  6
CONTINUOUS
 10
-2.346142
 20
3.497772
  0
VERTEX
  8
PLAN_1
 62
     2
  6
CONTINUOUS
 10
-2.350264
 20
3.496398
  0
VERTEX
  8
PLAN_1
 62
     2
  6
CONTINUOUS
 10
-2.354843
 20
3.495480
  0
VERTEX
  8
PLAN_1
 62
     2
  6
CONTINUOUS
 10
-2.359882
 20
3.495480
  0
VERTEX
  8
PLAN_1
 62
     2
  6
CONTINUOUS
 10
-2.364004
 20
3.495480
  0
VERTEX
  8
PLAN_1
 62
     2
  6
CONTINUOUS
 10
-2.367665
 20
3.495941
  0
VERTEX
  8
PLAN_1
 62
     2
  6
CONTINUOUS
 10
-2.370874
 20
3.496854
  0
VERTEX
  8
PLAN_1
 62
     2
  6
CONTINUOUS
 10
-2.374079
 20
3.497772
  0
VERTEX
  8
PLAN_1
 62
     2
  6
CONTINUOUS
 10
-2.377283
 20
3.499146
  0
VERTEX
  8
PLAN_1
 62
     2
  6
CONTINUOUS
 10
-2.379575
 20
3.500520
  0
VERTEX
  8
PLAN_1
 62
     2
  6
CONTINUOUS
 10
-2.382323
 20
3.502350
  0
VERTEX
  8
PLAN_1
 62
     2
  6
CONTINUOUS
 10
-2.384614
 20
3.504185
  0
VERTEX
  8
PLAN_1
 62
     2
  6
CONTINUOUS
 10
-2.392854
 20
3.495480
  0
VERTEX
  8
PLAN_1
 62
     2
  6
CONTINUOUS
 10
-2.396063
 20
3.498228
  0
VERTEX
  8
PLAN_1
 62
     2
  6
CONTINUOUS
 10
-2.387362
 20
3.507846
  0
VERTEX
  8
PLAN_1
 62
     2
  6
CONTINUOUS
 10
-2.389650
 20
3.510594
  0
VERTEX
  8
PLAN_1
 62
     2
  6
CONTINUOUS
 10
-2.391480
 20
3.513803
  0
VERTEX
  8
PLAN_1
 62
     2
  6
CONTINUOUS
 10
-2.393315
 20
3.517465
  0
VERTEX
  8
PLAN_1
 62
     2
  6
CONTINUOUS
 10
-2.394228
 20
3.521130
  0
VERTEX
  8
PLAN_1
 62
     2
  6
CONTINUOUS
 10
-2.395146
 20
3.524335
  0
VERTEX
  8
PLAN_1
 62
     2
  6
CONTINUOUS
 10
-2.396063
 20
3.528000
  0
VERTEX
  8
PLAN_1
 62
     2
  6
CONTINUOUS
 10
-2.396063
 20
3.531205
  0
VERTEX
  8
PLAN_1
 62
     2
  6
CONTINUOUS
 10
-2.396520
 20
3.534870
  0
VERTEX
  8
PLAN_1
 62
     2
  6
CONTINUOUS
 10
-2.396063
 20
3.540823
  0
VERTEX
  8
PLAN_1
 62
     2
  6
CONTINUOUS
 10
-2.394689
 20
3.547693
  0
VERTEX
  8
PLAN_1
 62
     2
  6
CONTINUOUS
 10
-2.393315
 20
3.550898
  0
VERTEX
  8
PLAN_1
 62
     2
  6
CONTINUOUS
 10
-2.391941
 20
3.554106
  0
VERTEX
  8
PLAN_1
 62
     2
  6
CONTINUOUS
 10
-2.390567
 20
3.557311
  0
VERTEX
  8
PLAN_1
 62
     2
  6
CONTINUOUS
 10
-2.388736
 20
3.560516
  0
VERTEX
  8
PLAN_1
 62
     2
  6
CONTINUOUS
 10
-2.386445
 20
3.563264
  0
VERTEX
  8
PLAN_1
 62
     2
  6
CONTINUOUS
 10
-2.383697
 20
3.566012
  0
VERTEX
  8
PLAN_1
 62
     2
  6
CONTINUOUS
 10
-2.380949
 20
3.568303
  0
VERTEX
  8
PLAN_1
 62
     2
  6
CONTINUOUS
 10
-2.377283
 20
3.570134
  0
VERTEX
  8
PLAN_1
 62
     2
  6
CONTINUOUS
 10
-2.373622
 20
3.571969
  0
VERTEX
  8
PLAN_1
 62
     2
  6
CONTINUOUS
 10
-2.369500
 20
3.572882
  0
VERTEX
  8
PLAN_1
 62
     2
  6
CONTINUOUS
 10
-2.364917
 20
3.573799
  0
VERTEX
  8
PLAN_1
 62
     2
  6
CONTINUOUS
 10
-2.359882
 20
3.573799
  0
VERTEX
  8
PLAN_1
 62
     2
  6
CONTINUOUS
 10
-2.355760
 20
3.573799
  0
VERTEX
  8
PLAN_1
 62
     2
  6
CONTINUOUS
 10
-2.352094
 20
3.573343
  0
VERTEX
  8
PLAN_1
 62
     2
  6
CONTINUOUS
 10
-2.348429
 20
3.572425
  0
VERTEX
  8
PLAN_1
 62
     2
  6
CONTINUOUS
 10
-2.345224
 20
3.571508
  0
VERTEX
  8
PLAN_1
 62
     2
  6
CONTINUOUS
 10
-2.342476
 20
3.570134
  0
VERTEX
  8
PLAN_1
 62
     2
  6
CONTINUOUS
 10
-2.339728
 20
3.568303
  0
VERTEX
  8
PLAN_1
 62
     2
  6
CONTINUOUS
 10
-2.337437
 20
3.566929
  0
VERTEX
  8
PLAN_1
 62
     2
  6
CONTINUOUS
 10
-2.335150
 20
3.564638
  0
VERTEX
  8
PLAN_1
 62
     2
  6
CONTINUOUS
 10
-2.326445
 20
3.573799
  0
VERTEX
  8
PLAN_1
 62
     2
  6
CONTINUOUS
 10
-2.323240
 20
3.571051
  0
VERTEX
  8
PLAN_1
 62
     2
  6
CONTINUOUS
 10
-2.331941
 20
3.561433
  0
SEQEND
  8
0
  0
POLYLINE
  8
PLAN_1
 62
     2
  6
CONTINUOUS
 66
     1
 40
0.003000
 41
0.003000
  0
VERTEX
  8
PLAN_1
 62
     2
  6
CONTINUOUS
 10
-2.377744
 20
3.511512
  0
VERTEX
  8
PLAN_1
 62
     2
  6
CONTINUOUS
 10
-2.375909
 20
3.510138
  0
VERTEX
  8
PLAN_1
 62
     2
  6
CONTINUOUS
 10
-2.374079
 20
3.508764
  0
VERTEX
  8
PLAN_1
 62
     2
  6
CONTINUOUS
 10
-2.372248
 20
3.507390
  0
VERTEX
  8
PLAN_1
 62
     2
  6
CONTINUOUS
 10
-2.369957
 20
3.506016
  0
VERTEX
  8
PLAN_1
 62
     2
  6
CONTINUOUS
 10
-2.367665
 20
3.505559
  0
VERTEX
  8
PLAN_1
 62
     2
  6
CONTINUOUS
 10
-2.365378
 20
3.504642
  0
VERTEX
  8
PLAN_1
 62
     2
  6
CONTINUOUS
 10
-2.362630
 20
3.504642
  0
VERTEX
  8
PLAN_1
 62
     2
  6
CONTINUOUS
 10
-2.359882
 20
3.504185
  0
VERTEX
  8
PLAN_1
 62
     2
  6
CONTINUOUS
 10
-2.357134
 20
3.504642
  0
VERTEX
  8
PLAN_1
 62
     2
  6
CONTINUOUS
 10
-2.353925
 20
3.505098
  0
VERTEX
  8
PLAN_1
 62
     2
  6
CONTINUOUS
 10
-2.351638
 20
3.505559
  0
VERTEX
  8
PLAN_1
 62
     2
  6
CONTINUOUS
 10
-2.348890
 20
3.506472
  0
VERTEX
  8
PLAN_1
 62
     2
  6
CONTINUOUS
 10
-2.346598
 20
3.507846
  0
VERTEX
  8
PLAN_1
 62
     2
  6
CONTINUOUS
 10
-2.344768
 20
3.509220
  0
VERTEX
  8
PLAN_1
 62
     2
  6
CONTINUOUS
 10
-2.342476
 20
3.511055
  0
VERTEX
  8
PLAN_1
 62
     2
  6
CONTINUOUS
 10
-2.340646
 20
3.512886
  0
VERTEX
  8
PLAN_1
 62
     2
  6
CONTINUOUS
 10
-2.339272
 20
3.515177
  0
VERTEX
  8
PLAN_1
 62
     2
  6
CONTINUOUS
 10
-2.337898
 20
3.517465
  0
VERTEX
  8
PLAN_1
 62
     2
  6
CONTINUOUS
 10
-2.336524
 20
3.519756
  0
VERTEX
  8
PLAN_1
 62
     2
  6
CONTINUOUS
 10
-2.335606
 20
3.522504
  0
VERTEX
  8
PLAN_1
 62
     2
  6
CONTINUOUS
 10
-2.335150
 20
3.525252
  0
VERTEX
  8
PLAN_1
 62
     2
  6
CONTINUOUS
 10
-2.334232
 20
3.528457
  0
VERTEX
  8
PLAN_1
 62
     2
  6
CONTINUOUS
 10
-2.334232
 20
3.531205
  0
VERTEX
  8
PLAN_1
 62
     2
  6
CONTINUOUS
 10
-2.333776
 20
3.534870
  0
VERTEX
  8
PLAN_1
 62
     2
  6
CONTINUOUS
 10
-2.333776
 20
3.537618
  0
VERTEX
  8
PLAN_1
 62
     2
  6
CONTINUOUS
 10
-2.334232
 20
3.539906
  0
VERTEX
  8
PLAN_1
 62
     2
  6
CONTINUOUS
 10
-2.334689
 20
3.542654
  0
VERTEX
  8
PLAN_1
 62
     2
  6
CONTINUOUS
 10
-2.335150
 20
3.545402
  0
VERTEX
  8
PLAN_1
 62
     2
  6
CONTINUOUS
 10
-2.336063
 20
3.547693
  0
VERTEX
  8
PLAN_1
 62
     2
  6
CONTINUOUS
 10
-2.336980
 20
3.549984
  0
VERTEX
  8
PLAN_1
 62
     2
  6
CONTINUOUS
 10
-2.337898
 20
3.551815
  0
VERTEX
  8
PLAN_1
 62
     2
  6
CONTINUOUS
 10
-2.338811
 20
3.553646
  0
VERTEX
  8
PLAN_1
 62
     2
  6
CONTINUOUS
 10
-2.377744
 20
3.511512
  0
SEQEND
  8
0
  0
POLYLINE
  8
PLAN_1
 62
     2
  6
CONTINUOUS
 66
     1
 40
0.003000
 41
0.003000
  0
VERTEX
  8
PLAN_1
 62
     2
  6
CONTINUOUS
 10
-2.341559
 20
3.557311
  0
VERTEX
  8
PLAN_1
 62
     2
  6
CONTINUOUS
 10
-2.343394
 20
3.559142
  0
VERTEX
  8
PLAN_1
 62
     2
  6
CONTINUOUS
 10
-2.345224
 20
3.560516
  0
VERTEX
  8
PLAN_1
 62
     2
  6
CONTINUOUS
 10
-2.347516
 20
3.561890
  0
VERTEX
  8
PLAN_1
 62
     2
  6
CONTINUOUS
 10
-2.349803
 20
3.563264
  0
VERTEX
  8
PLAN_1
 62
     2
  6
CONTINUOUS
 10
-2.352094
 20
3.563724
  0
VERTEX
  8
PLAN_1
 62
     2
  6
CONTINUOUS
 10
-2.354386
 20
3.564638
  0
VERTEX
  8
PLAN_1
 62
     2
  6
CONTINUOUS
 10
-2.357134
 20
3.565098
  0
VERTEX
  8
PLAN_1
 62
     2
  6
CONTINUOUS
 10
-2.359882
 20
3.565098
  0
VERTEX
  8
PLAN_1
 62
     2
  6
CONTINUOUS
 10
-2.363087
 20
3.565098
  0
VERTEX
  8
PLAN_1
 62
     2
  6
CONTINUOUS
 10
-2.365835
 20
3.564638
  0
VERTEX
  8
PLAN_1
 62
     2
  6
CONTINUOUS
 10
-2.368126
 20
3.563724
  0
VERTEX
  8
PLAN_1
 62
     2
  6
CONTINUOUS
 10
-2.370874
 20
3.562807
  0
VERTEX
  8
PLAN_1
 62
     2
  6
CONTINUOUS
 10
-2.373161
 20
3.561433
  0
VERTEX
  8
PLAN_1
 62
     2
  6
CONTINUOUS
 10
-2.375453
 20
3.560059
  0
VERTEX
  8
PLAN_1
 62
     2
  6
CONTINUOUS
 10
-2.377283
 20
3.558228
  0
VERTEX
  8
PLAN_1
 62
     2
  6
CONTINUOUS
 10
-2.379118
 20
3.556394
  0
VERTEX
  8
PLAN_1
 62
     2
  6
CONTINUOUS
 10
-2.380492
 20
3.554106
  0
VERTEX
  8
PLAN_1
 62
     2
  6
CONTINUOUS
 10
-2.381866
 20
3.551815
  0
VERTEX
  8
PLAN_1
 62
     2
  6
CONTINUOUS
 10
-2.383240
 20
3.549524
  0
VERTEX
  8
PLAN_1
 62
     2
  6
CONTINUOUS
 10
-2.384154
 20
3.546776
  0
VERTEX
  8
PLAN_1
 62
     2
  6
CONTINUOUS
 10
-2.385071
 20
3.544028
  0
VERTEX
  8
PLAN_1
 62
     2
  6
CONTINUOUS
 10
-2.385528
 20
3.540823
  0
VERTEX
  8
PLAN_1
 62
     2
  6
CONTINUOUS
 10
-2.385988
 20
3.538075
  0
VERTEX
  8
PLAN_1
 62
     2
  6
CONTINUOUS
 10
-2.385988
 20
3.534870
  0
VERTEX
  8
PLAN_1
 62
     2
  6
CONTINUOUS
 10
-2.385988
 20
3.531661
  0
VERTEX
  8
PLAN_1
 62
     2
  6
CONTINUOUS
 10
-2.385528
 20
3.529374
  0
VERTEX
  8
PLAN_1
 62
     2
  6
CONTINUOUS
 10
-2.385071
 20
3.526626
  0
VERTEX
  8
PLAN_1
 62
     2
  6
CONTINUOUS
 10
-2.384614
 20
3.523878
  0
VERTEX
  8
PLAN_1
 62
     2
  6
CONTINUOUS
 10
-2.383697
 20
3.521587
  0
VERTEX
  8
PLAN_1
 62
     2
  6
CONTINUOUS
 10
-2.382780
 20
3.519299
  0
VERTEX
  8
PLAN_1
 62
     2
  6
CONTINUOUS
 10
-2.381866
 20
3.517008
  0
VERTEX
  8
PLAN_1
 62
     2
  6
CONTINUOUS
 10
-2.380492
 20
3.515177
  0
VERTEX
  8
PLAN_1
 62
     2
  6
CONTINUOUS
 10
-2.341559
 20
3.557311
  0
SEQEND
  8
0
  0
POLYLINE
  8
PLAN_1
 62
     2
  6
CONTINUOUS
 66
     1
 40
0.003000
 41
0.003000
  0
VERTEX
  8
PLAN_1
 62
     2
  6
CONTINUOUS
 10
-2.304004
 20
3.539906
  0
VERTEX
  8
PLAN_1
 62
     2
  6
CONTINUOUS
 10
-2.302630
 20
3.540823
  0
VERTEX
  8
PLAN_1
 62
     2
  6
CONTINUOUS
 10
-2.301256
 20
3.541740
  0
VERTEX
  8
PLAN_1
 62
     2
  6
CONTINUOUS
 10
-2.299882
 20
3.542197
  0
VERTEX
  8
PLAN_1
 62
     2
  6
CONTINUOUS
 10
-2.298508
 20
3.543114
  0
VERTEX
  8
PLAN_1
 62
     2
  6
CONTINUOUS
 10
-2.296677
 20
3.543571
  0
VERTEX
  8
PLAN_1
 62
     2
  6
CONTINUOUS
 10
-2.294386
 20
3.544028
  0
VERTEX
  8
PLAN_1
 62
     2
  6
CONTINUOUS
 10
-2.292098
 20
3.544488
  0
VERTEX
  8
PLAN_1
 62
     2
  6
CONTINUOUS
 10
-2.289807
 20
3.544488
  0
VERTEX
  8
PLAN_1
 62
     2
  6
CONTINUOUS
 10
-2.285685
 20
3.544028
  0
VERTEX
  8
PLAN_1
 62
     2
  6
CONTINUOUS
 10
-2.281106
 20
3.543114
  0
VERTEX
  8
PLAN_1
 62
     2
  6
CONTINUOUS
 10
-2.276984
 20
3.540823
  0
VERTEX
  8
PLAN_1
 62
     2
  6
CONTINUOUS
 10
-2.273319
 20
3.538531
  0
VERTEX
  8
PLAN_1
 62
     2
  6
CONTINUOUS
 10
-2.271945
 20
3.536701
  0
VERTEX
  8
PLAN_1
 62
     2
  6
CONTINUOUS
 10
-2.270571
 20
3.534870
  0
VERTEX
  8
PLAN_1
 62
     2
  6
CONTINUOUS
 10
-2.269197
 20
3.533035
  0
VERTEX
  8
PLAN_1
 62
     2
  6
CONTINUOUS
 10
-2.267823
 20
3.531205
  0
VERTEX
  8
PLAN_1
 62
     2
  6
CONTINUOUS
 10
-2.266906
 20
3.528913
  0
VERTEX
  8
PLAN_1
 62
     2
  6
CONTINUOUS
 10
-2.266449
 20
3.526165
  0
VERTEX
  8
PLAN_1
 62
     2
  6
CONTINUOUS
 10
-2.265992
 20
3.523878
  0
VERTEX
  8
PLAN_1
 62
     2
  6
CONTINUOUS
 10
-2.265992
 20
3.521130
  0
VERTEX
  8
PLAN_1
 62
     2
  6
CONTINUOUS
 10
-2.265992
 20
3.517465
  0
VERTEX
  8
PLAN_1
 62
     2
  6
CONTINUOUS
 10
-2.266906
 20
3.513803
  0
VERTEX
  8
PLAN_1
 62
     2
  6
CONTINUOUS
 10
-2.268280
 20
3.509220
  0
VERTEX
  8
PLAN_1
 62
     2
  6
CONTINUOUS
 10
-2.270571
 20
3.505098
  0
VERTEX
  8
PLAN_1
 62
     2
  6
CONTINUOUS
 10
-2.271945
 20
3.503268
  0
VERTEX
  8
PLAN_1
 62
     2
  6
CONTINUOUS
 10
-2.273776
 20
3.501437
  0
VERTEX
  8
PLAN_1
 62
     2
  6
CONTINUOUS
 10
-2.276067
 20
3.499602
  0
VERTEX
  8
PLAN_1
 62
     2
  6
CONTINUOUS
 10
-2.278815
 20
3.498228
  0
VERTEX
  8
PLAN_1
 62
     2
  6
CONTINUOUS
 10
-2.281563
 20
3.496854
  0
VERTEX
  8
PLAN_1
 62
     2
  6
CONTINUOUS
 10
-2.284768
 20
3.495941
  0
VERTEX
  8
PLAN_1
 62
     2
  6
CONTINUOUS
 10
-2.288433
 20
3.495480
  0
VERTEX
  8
PLAN_1
 62
     2
  6
CONTINUOUS
 10
-2.292555
 20
3.495480
  0
VERTEX
  8
PLAN_1
 62
     2
  6
CONTINUOUS
 10
-2.296220
 20
3.495480
  0
VERTEX
  8
PLAN_1
 62
     2
  6
CONTINUOUS
 10
-2.299882
 20
3.496398
  0
VERTEX
  8
PLAN_1
 62
     2
  6
CONTINUOUS
 10
-2.303547
 20
3.497315
  0
VERTEX
  8
PLAN_1
 62
     2
  6
CONTINUOUS
 10
-2.307213
 20
3.499146
  0
VERTEX
  8
PLAN_1
 62
     2
  6
CONTINUOUS
 10
-2.308587
 20
3.500520
  0
VERTEX
  8
PLAN_1
 62
     2
  6
CONTINUOUS
 10
-2.310417
 20
3.501894
  0
VERTEX
  8
PLAN_1
 62
     2
  6
CONTINUOUS
 10
-2.311791
 20
3.503724
  0
VERTEX
  8
PLAN_1
 62
     2
  6
CONTINUOUS
 10
-2.313165
 20
3.505559
  0
VERTEX
  8
PLAN_1
 62
     2
  6
CONTINUOUS
 10
-2.314083
 20
3.507390
  0
VERTEX
  8
PLAN_1
 62
     2
  6
CONTINUOUS
 10
-2.314996
 20
3.510138
  0
VERTEX
  8
PLAN_1
 62
     2
  6
CONTINUOUS
 10
-2.315457
 20
3.512429
  0
VERTEX
  8
PLAN_1
 62
     2
  6
CONTINUOUS
 10
-2.315913
 20
3.515634
  0
VERTEX
  8
PLAN_1
 62
     2
  6
CONTINUOUS
 10
-2.306752
 20
3.515634
  0
VERTEX
  8
PLAN_1
 62
     2
  6
CONTINUOUS
 10
-2.305839
 20
3.512429
  0
VERTEX
  8
PLAN_1
 62
     2
  6
CONTINUOUS
 10
-2.304921
 20
3.510138
  0
VERTEX
  8
PLAN_1
 62
     2
  6
CONTINUOUS
 10
-2.303547
 20
3.507846
  0
VERTEX
  8
PLAN_1
 62
     2
  6
CONTINUOUS
 10
-2.301717
 20
3.506016
  0
VERTEX
  8
PLAN_1
 62
     2
  6
CONTINUOUS
 10
-2.299425
 20
3.505098
  0
VERTEX
  8
PLAN_1
 62
     2
  6
CONTINUOUS
 10
-2.296677
 20
3.504185
  0
VERTEX
  8
PLAN_1
 62
     2
  6
CONTINUOUS
 10
-2.293929
 20
3.503268
  0
VERTEX
  8
PLAN_1
 62
     2
  6
CONTINUOUS
 10
-2.291181
 20
3.503268
  0
VERTEX
  8
PLAN_1
 62
     2
  6
CONTINUOUS
 10
-2.287516
 20
3.503724
  0
VERTEX
  8
PLAN_1
 62
     2
  6
CONTINUOUS
 10
-2.284768
 20
3.504642
  0
VERTEX
  8
PLAN_1
 62
     2
  6
CONTINUOUS
 10
-2.282020
 20
3.506016
  0
VERTEX
  8
PLAN_1
 62
     2
  6
CONTINUOUS
 10
-2.279732
 20
3.508307
  0
VERTEX
  8
PLAN_1
 62
     2
  6
CONTINUOUS
 10
-2.277898
 20
3.510594
  0
VERTEX
  8
PLAN_1
 62
     2
  6
CONTINUOUS
 10
-2.276524
 20
3.513343
  0
VERTEX
  8
PLAN_1
 62
     2
  6
CONTINUOUS
 10
-2.276067
 20
3.516551
  0
VERTEX
  8
PLAN_1
 62
     2
  6
CONTINUOUS
 10
-2.275610
 20
3.520213
  0
VERTEX
  8
PLAN_1
 62
     2
  6
CONTINUOUS
 10
-2.276067
 20
3.523878
  0
VERTEX
  8
PLAN_1
 62
     2
  6
CONTINUOUS
 10
-2.276984
 20
3.527083
  0
VERTEX
  8
PLAN_1
 62
     2
  6
CONTINUOUS
 10
-2.278358
 20
3.529831
  0
VERTEX
  8
PLAN_1
 62
     2
  6
CONTINUOUS
 10
-2.280189
 20
3.532122
  0
VERTEX
  8
PLAN_1
 62
     2
  6
CONTINUOUS
 10
-2.282937
 20
3.533953
  0
VERTEX
  8
PLAN_1
 62
     2
  6
CONTINUOUS
 10
-2.285685
 20
3.535327
  0
VERTEX
  8
PLAN_1
 62
     2
  6
CONTINUOUS
 10
-2.288433
 20
3.535783
  0
VERTEX
  8
PLAN_1
 62
     2
  6
CONTINUOUS
 10
-2.292098
 20
3.536244
  0
VERTEX
  8
PLAN_1
 62
     2
  6
CONTINUOUS
 10
-2.293929
 20
3.536244
  0
VERTEX
  8
PLAN_1
 62
     2
  6
CONTINUOUS
 10
-2.295760
 20
3.535783
  0
VERTEX
  8
PLAN_1
 62
     2
  6
CONTINUOUS
 10
-2.297594
 20
3.535327
  0
VERTEX
  8
PLAN_1
 62
     2
  6
CONTINUOUS
 10
-2.299425
 20
3.534409
  0
VERTEX
  8
PLAN_1
 62
     2
  6
CONTINUOUS
 10
-2.301256
 20
3.533496
  0
VERTEX
  8
PLAN_1
 62
     2
  6
CONTINUOUS
 10
-2.302630
 20
3.532122
  0
VERTEX
  8
PLAN_1
 62
     2
  6
CONTINUOUS
 10
-2.304004
 20
3.530748
  0
VERTEX
  8
PLAN_1
 62
     2
  6
CONTINUOUS
 10
-2.305378
 20
3.529374
  0
VERTEX
  8
PLAN_1
 62
     2
  6
CONTINUOUS
 10
-2.313165
 20
3.529831
  0
VERTEX
  8
PLAN_1
 62
     2
  6
CONTINUOUS
 10
-2.307669
 20
3.568760
  0
VERTEX
  8
PLAN_1
 62
     2
  6
CONTINUOUS
 10
-2.270114
 20
3.568760
  0
VERTEX
  8
PLAN_1
 62
     2
  6
CONTINUOUS
 10
-2.270114
 20
3.560059
  0
VERTEX
  8
PLAN_1
 62
     2
  6
CONTINUOUS
 10
-2.300799
 20
3.560059
  0
VERTEX
  8
PLAN_1
 62
     2
  6
CONTINUOUS
 10
-2.304004
 20
3.539906
  0
SEQEND
  8
0
  0
POLYLINE
  8
PLAN_1
 62
     2
  6
CONTINUOUS
 66
     1
 40
0.003000
 41
0.003000
  0
VERTEX
  8
PLAN_1
 62
     2
  6
CONTINUOUS
 10
-2.252252
 20
3.508307
  0
VERTEX
  8
PLAN_1
 62
     2
  6
CONTINUOUS
 10
-2.241717
 20
3.508307
  0
VERTEX
  8
PLAN_1
 62
     2
  6
CONTINUOUS
 10
-2.241717
 20
3.498228
  0
VERTEX
  8
PLAN_1
 62
     2
  6
CONTINUOUS
 10
-2.242177
 20
3.493193
  0
VERTEX
  8
PLAN_1
 62
     2
  6
CONTINUOUS
 10
-2.243091
 20
3.489528
  0
VERTEX
  8
PLAN_1
 62
     2
  6
CONTINUOUS
 10
-2.244465
 20
3.486780
  0
VERTEX
  8
PLAN_1
 62
     2
  6
CONTINUOUS
 10
-2.246299
 20
3.484949
  0
VERTEX
  8
PLAN_1
 62
     2
  6
CONTINUOUS
 10
-2.248130
 20
3.483575
  0
VERTEX
  8
PLAN_1
 62
     2
  6
CONTINUOUS
 10
-2.249961
 20
3.482657
  0
VERTEX
  8
PLAN_1
 62
     2
  6
CONTINUOUS
 10
-2.251335
 20
3.482201
  0
VERTEX
  8
PLAN_1
 62
     2
  6
CONTINUOUS
 10
-2.252252
 20
3.482201
  0
VERTEX
  8
PLAN_1
 62
     2
  6
CONTINUOUS
 10
-2.252252
 20
3.486780
  0
VERTEX
  8
PLAN_1
 62
     2
  6
CONTINUOUS
 10
-2.250878
 20
3.487236
  0
VERTEX
  8
PLAN_1
 62
     2
  6
CONTINUOUS
 10
-2.249504
 20
3.488154
  0
VERTEX
  8
PLAN_1
 62
     2
  6
CONTINUOUS
 10
-2.248587
 20
3.489071
  0
VERTEX
  8
PLAN_1
 62
     2
  6
CONTINUOUS
 10
-2.248130
 20
3.490445
  0
VERTEX
  8
PLAN_1
 62
     2
  6
CONTINUOUS
 10
-2.247673
 20
3.491819
  0
VERTEX
  8
PLAN_1
 62
     2
  6
CONTINUOUS
 10
-2.247213
 20
3.493650
  0
VERTEX
  8
PLAN_1
 62
     2
  6
CONTINUOUS
 10
-2.246756
 20
3.495480
  0
VERTEX
  8
PLAN_1
 62
     2
  6
CONTINUOUS
 10
-2.246756
 20
3.497315
  0
VERTEX
  8
PLAN_1
 62
     2
  6
CONTINUOUS
 10
-2.252252
 20
3.497315
  0
VERTEX
  8
PLAN_1
 62
     2
  6
CONTINUOUS
 10
-2.252252
 20
3.508307
  0
SEQEND
  8
0
  0
POLYLINE
  8
PLAN_1
 62
     2
  6
CONTINUOUS
 66
     1
 40
0.003000
 41
0.003000
  0
VERTEX
  8
PLAN_1
 62
     2
  6
CONTINUOUS
 10
-2.209201
 20
3.538992
  0
VERTEX
  8
PLAN_1
 62
     2
  6
CONTINUOUS
 10
-2.208740
 20
3.538992
  0
VERTEX
  8
PLAN_1
 62
     2
  6
CONTINUOUS
 10
-2.207827
 20
3.538992
  0
VERTEX
  8
PLAN_1
 62
     2
  6
CONTINUOUS
 10
-2.207366
 20
3.538992
  0
VERTEX
  8
PLAN_1
 62
     2
  6
CONTINUOUS
 10
-2.206909
 20
3.538992
  0
VERTEX
  8
PLAN_1
 62
     2
  6
CONTINUOUS
 10
-2.206453
 20
3.538992
  0
VERTEX
  8
PLAN_1
 62
     2
  6
CONTINUOUS
 10
-2.205535
 20
3.538531
  0
VERTEX
  8
PLAN_1
 62
     2
  6
CONTINUOUS
 10
-2.205079
 20
3.538531
  0
VERTEX
  8
PLAN_1
 62
     2
  6
CONTINUOUS
 10
-2.204618
 20
3.538531
  0
VERTEX
  8
PLAN_1
 62
     2
  6
CONTINUOUS
 10
-2.201870
 20
3.538992
  0
VERTEX
  8
PLAN_1
 62
     2
  6
CONTINUOUS
 10
-2.199122
 20
3.539449
  0
VERTEX
  8
PLAN_1
 62
     2
  6
CONTINUOUS
 10
-2.196835
 20
3.539906
  0
VERTEX
  8
PLAN_1
 62
     2
  6
CONTINUOUS
 10
-2.195000
 20
3.541280
  0
VERTEX
  8
PLAN_1
 62
     2
  6
CONTINUOUS
 10
-2.193169
 20
3.542654
  0
VERTEX
  8
PLAN_1
 62
     2
  6
CONTINUOUS
 10
-2.191795
 20
3.544945
  0
VERTEX
  8
PLAN_1
 62
     2
  6
CONTINUOUS
 10
-2.190878
 20
3.547693
  0
VERTEX
  8
PLAN_1
 62
     2
  6
CONTINUOUS
 10
-2.190421
 20
3.550898
  0
VERTEX
  8
PLAN_1
 62
     2
  6
CONTINUOUS
 10
-2.190878
 20
3.552272
  0
VERTEX
  8
PLAN_1
 62
     2
  6
CONTINUOUS
 10
-2.190878
 20
3.554563
  0
VERTEX
  8
PLAN_1
 62
     2
  6
CONTINUOUS
 10
-2.191795
 20
3.556394
  0
VERTEX
  8
PLAN_1
 62
     2
  6
CONTINUOUS
 10
-2.193169
 20
3.558228
  0
VERTEX
  8
PLAN_1
 62
     2
  6
CONTINUOUS
 10
-2.195000
 20
3.559602
  0
VERTEX
  8
PLAN_1
 62
     2
  6
CONTINUOUS
 10
-2.197291
 20
3.560976
  0
VERTEX
  8
PLAN_1
 62
     2
  6
CONTINUOUS
 10
-2.200496
 20
3.561890
  0
VERTEX
  8
PLAN_1
 62
     2
  6
CONTINUOUS
 10
-2.204161
 20
3.562350
  0
VERTEX
  8
PLAN_1
 62
     2
  6
CONTINUOUS
 10
-2.206453
 20
3.561890
  0
VERTEX
  8
PLAN_1
 62
     2
  6
CONTINUOUS
 10
-2.208283
 20
3.561890
  0
VERTEX
  8
PLAN_1
 62
     2
  6
CONTINUOUS
 10
-2.210114
 20
3.561433
  0
VERTEX
  8
PLAN_1
 62
     2
  6
CONTINUOUS
 10
-2.211488
 20
3.560516
  0
VERTEX
  8
PLAN_1
 62
     2
  6
CONTINUOUS
 10
-2.214236
 20
3.558685
  0
VERTEX
  8
PLAN_1
 62
     2
  6
CONTINUOUS
 10
-2.216071
 20
3.556394
  0
VERTEX
  8
PLAN_1
 62
     2
  6
CONTINUOUS
 10
-2.216984
 20
3.553646
  0
VERTEX
  8
PLAN_1
 62
     2
  6
CONTINUOUS
 10
-2.217902
 20
3.551358
  0
VERTEX
  8
PLAN_1
 62
     2
  6
CONTINUOUS
 10
-2.217902
 20
3.548610
  0
VERTEX
  8
PLAN_1
 62
     2
  6
CONTINUOUS
 10
-2.218358
 20
3.546319
  0
VERTEX
  8
PLAN_1
 62
     2
  6
CONTINUOUS
 10
-2.227063
 20
3.546319
  0
VERTEX
  8
PLAN_1
 62
     2
  6
CONTINUOUS
 10
-2.227063
 20
3.550441
  0
VERTEX
  8
PLAN_1
 62
     2
  6
CONTINUOUS
 10
-2.226146
 20
3.554563
  0
VERTEX
  8
PLAN_1
 62
     2
  6
CONTINUOUS
 10
-2.224772
 20
3.558685
  0
VERTEX
  8
PLAN_1
 62
     2
  6
CONTINUOUS
 10
-2.222480
 20
3.562350
  0
VERTEX
  8
PLAN_1
 62
     2
  6
CONTINUOUS
 10
-2.221106
 20
3.564181
  0
VERTEX
  8
PLAN_1
 62
     2
  6
CONTINUOUS
 10
-2.219732
 20
3.565555
  0
VERTEX
  8
PLAN_1
 62
     2
  6
CONTINUOUS
 10
-2.217445
 20
3.566929
  0
VERTEX
  8
PLAN_1
 62
     2
  6
CONTINUOUS
 10
-2.215610
 20
3.568303
  0
VERTEX
  8
PLAN_1
 62
     2
  6
CONTINUOUS
 10
-2.212862
 20
3.569220
  0
VERTEX
  8
PLAN_1
 62
     2
  6
CONTINUOUS
 10
-2.210114
 20
3.569677
  0
VERTEX
  8
PLAN_1
 62
     2
  6
CONTINUOUS
 10
-2.206909
 20
3.570134
  0
VERTEX
  8
PLAN_1
 62
     2
  6
CONTINUOUS
 10
-2.203705
 20
3.570594
  0
VERTEX
  8
PLAN_1
 62
     2
  6
CONTINUOUS
 10
-2.198665
 20
3.570134
  0
VERTEX
  8
PLAN_1
 62
     2
  6
CONTINUOUS
 10
-2.194087
 20
3.569220
  0
VERTEX
  8
PLAN_1
 62
     2
  6
CONTINUOUS
 10
-2.190421
 20
3.567386
  0
VERTEX
  8
PLAN_1
 62
     2
  6
CONTINUOUS
 10
-2.187217
 20
3.565098
  0
VERTEX
  8
PLAN_1
 62
     2
  6
CONTINUOUS
 10
-2.184469
 20
3.562350
  0
VERTEX
  8
PLAN_1
 62
     2
  6
CONTINUOUS
 10
-2.182634
 20
3.559142
  0
VERTEX
  8
PLAN_1
 62
     2
  6
CONTINUOUS
 10
-2.181260
 20
3.555020
  0
VERTEX
  8
PLAN_1
 62
     2
  6
CONTINUOUS
 10
-2.181260
 20
3.551358
  0
VERTEX
  8
PLAN_1
 62
     2
  6
CONTINUOUS
 10
-2.181260
 20
3.548150
  0
VERTEX
  8
PLAN_1
 62
     2
  6
CONTINUOUS
 10
-2.181720
 20
3.544945
  0
VERTEX
  8
PLAN_1
 62
     2
  6
CONTINUOUS
 10
-2.183094
 20
3.542654
  0
VERTEX
  8
PLAN_1
 62
     2
  6
CONTINUOUS
 10
-2.184469
 20
3.540823
  0
VERTEX
  8
PLAN_1
 62
     2
  6
CONTINUOUS
 10
-2.185843
 20
3.538992
  0
VERTEX
  8
PLAN_1
 62
     2
  6
CONTINUOUS
 10
-2.187217
 20
3.537618
  0
VERTEX
  8
PLAN_1
 62
     2
  6
CONTINUOUS
 10
-2.189047
 20
3.536701
  0
VERTEX
  8
PLAN_1
 62
     2
  6
CONTINUOUS
 10
-2.190421
 20
3.536244
  0
VERTEX
  8
PLAN_1
 62
     2
  6
CONTINUOUS
 10
-2.190421
 20
3.535783
  0
VERTEX
  8
PLAN_1
 62
     2
  6
CONTINUOUS
 10
-2.187673
 20
3.534870
  0
VERTEX
  8
PLAN_1
 62
     2
  6
CONTINUOUS
 10
-2.185382
 20
3.533496
  0
VERTEX
  8
PLAN_1
 62
     2
  6
CONTINUOUS
 10
-2.183551
 20
3.532122
  0
VERTEX
  8
PLAN_1
 62
     2
  6
CONTINUOUS
 10
-2.181720
 20
3.530287
  0
VERTEX
  8
PLAN_1
 62
     2
  6
CONTINUOUS
 10
-2.180346
 20
3.528000
  0
VERTEX
  8
PLAN_1
 62
     2
  6
CONTINUOUS
 10
-2.178972
 20
3.525252
  0
VERTEX
  8
PLAN_1
 62
     2
  6
CONTINUOUS
 10
-2.178516
 20
3.522504
  0
VERTEX
  8
PLAN_1
 62
     2
  6
CONTINUOUS
 10
-2.178055
 20
3.518839
  0
VERTEX
  8
PLAN_1
 62
     2
  6
CONTINUOUS
 10
-2.178516
 20
3.514260
  0
VERTEX
  8
PLAN_1
 62
     2
  6
CONTINUOUS
 10
-2.179886
 20
3.510138
  0
VERTEX
  8
PLAN_1
 62
     2
  6
CONTINUOUS
 10
-2.180803
 20
3.508307
  0
VERTEX
  8
PLAN_1
 62
     2
  6
CONTINUOUS
 10
-2.181720
 20
3.506016
  0
VERTEX
  8
PLAN_1
 62
     2
  6
CONTINUOUS
 10
-2.183094
 20
3.504185
  0
VERTEX
  8
PLAN_1
 62
     2
  6
CONTINUOUS
 10
-2.184469
 20
3.502811
  0
VERTEX
  8
PLAN_1
 62
     2
  6
CONTINUOUS
 10
-2.186299
 20
3.500976
  0
VERTEX
  8
PLAN_1
 62
     2
  6
CONTINUOUS
 10
-2.188130
 20
3.499602
  0
VERTEX
  8
PLAN_1
 62
     2
  6
CONTINUOUS
 10
-2.190421
 20
3.498228
  0
VERTEX
  8
PLAN_1
 62
     2
  6
CONTINUOUS
 10
-2.192713
 20
3.497315
  0
VERTEX
  8
PLAN_1
 62
     2
  6
CONTINUOUS
 10
-2.195000
 20
3.496398
  0
VERTEX
  8
PLAN_1
 62
     2
  6
CONTINUOUS
 10
-2.198209
 20
3.495941
  0
VERTEX
  8
PLAN_1
 62
     2
  6
CONTINUOUS
 10
-2.201413
 20
3.495480
  0
VERTEX
  8
PLAN_1
 62
     2
  6
CONTINUOUS
 10
-2.204618
 20
3.495480
  0
VERTEX
  8
PLAN_1
 62
     2
  6
CONTINUOUS
 10
-2.206453
 20
3.495480
  0
VERTEX
  8
PLAN_1
 62
     2
  6
CONTINUOUS
 10
-2.208283
 20
3.495480
  0
VERTEX
  8
PLAN_1
 62
     2
  6
CONTINUOUS
 10
-2.210114
 20
3.495941
  0
VERTEX
  8
PLAN_1
 62
     2
  6
CONTINUOUS
 10
-2.211949
 20
3.496398
  0
VERTEX
  8
PLAN_1
 62
     2
  6
CONTINUOUS
 10
-2.213780
 20
3.496854
  0
VERTEX
  8
PLAN_1
 62
     2
  6
CONTINUOUS
 10
-2.215154
 20
3.497315
  0
VERTEX
  8
PLAN_1
 62
     2
  6
CONTINUOUS
 10
-2.216528
 20
3.497772
  0
VERTEX
  8
PLAN_1
 62
     2
  6
CONTINUOUS
 10
-2.217902
 20
3.498689
  0
VERTEX
  8
PLAN_1
 62
     2
  6
CONTINUOUS
 10
-2.220650
 20
3.500520
  0
VERTEX
  8
PLAN_1
 62
     2
  6
CONTINUOUS
 10
-2.222941
 20
3.502350
  0
VERTEX
  8
PLAN_1
 62
     2
  6
CONTINUOUS
 10
-2.224772
 20
3.505098
  0
VERTEX
  8
PLAN_1
 62
     2
  6
CONTINUOUS
 10
-2.226146
 20
3.507390
  0
VERTEX
  8
PLAN_1
 62
     2
  6
CONTINUOUS
 10
-2.227520
 20
3.510594
  0
VERTEX
  8
PLAN_1
 62
     2
  6
CONTINUOUS
 10
-2.227976
 20
3.513343
  0
VERTEX
  8
PLAN_1
 62
     2
  6
CONTINUOUS
 10
-2.228894
 20
3.516551
  0
VERTEX
  8
PLAN_1
 62
     2
  6
CONTINUOUS
 10
-2.228894
 20
3.519756
  0
VERTEX
  8
PLAN_1
 62
     2
  6
CONTINUOUS
 10
-2.219732
 20
3.519756
  0
VERTEX
  8
PLAN_1
 62
     2
  6
CONTINUOUS
 10
-2.219276
 20
3.517008
  0
VERTEX
  8
PLAN_1
 62
     2
  6
CONTINUOUS
 10
-2.218819
 20
3.514260
  0
VERTEX
  8
PLAN_1
 62
     2
  6
CONTINUOUS
 10
-2.217902
 20
3.511512
  0
VERTEX
  8
PLAN_1
 62
     2
  6
CONTINUOUS
 10
-2.216528
 20
3.509220
  0
VERTEX
  8
PLAN_1
 62
     2
  6
CONTINUOUS
 10
-2.214697
 20
3.506933
  0
VERTEX
  8
PLAN_1
 62
     2
  6
CONTINUOUS
 10
-2.211949
 20
3.505098
  0
VERTEX
  8
PLAN_1
 62
     2
  6
CONTINUOUS
 10
-2.210575
 20
3.504642
  0
VERTEX
  8
PLAN_1
 62
     2
  6
CONTINUOUS
 10
-2.208283
 20
3.504185
  0
VERTEX
  8
PLAN_1
 62
     2
  6
CONTINUOUS
 10
-2.206453
 20
3.503724
  0
VERTEX
  8
PLAN_1
 62
     2
  6
CONTINUOUS
 10
-2.203705
 20
3.503724
  0
VERTEX
  8
PLAN_1
 62
     2
  6
CONTINUOUS
 10
-2.200496
 20
3.503724
  0
VERTEX
  8
PLAN_1
 62
     2
  6
CONTINUOUS
 10
-2.197291
 20
3.504642
  0
VERTEX
  8
PLAN_1
 62
     2
  6
CONTINUOUS
 10
-2.195000
 20
3.506016
  0
VERTEX
  8
PLAN_1
 62
     2
  6
CONTINUOUS
 10
-2.192252
 20
3.507390
  0
VERTEX
  8
PLAN_1
 62
     2
  6
CONTINUOUS
 10
-2.190421
 20
3.509681
  0
VERTEX
  8
PLAN_1
 62
     2
  6
CONTINUOUS
 10
-2.189047
 20
3.511969
  0
VERTEX
  8
PLAN_1
 62
     2
  6
CONTINUOUS
 10
-2.188130
 20
3.514717
  0
VERTEX
  8
PLAN_1
 62
     2
  6
CONTINUOUS
 10
-2.188130
 20
3.517925
  0
VERTEX
  8
PLAN_1
 62
     2
  6
CONTINUOUS
 10
-2.188130
 20
3.519756
  0
VERTEX
  8
PLAN_1
 62
     2
  6
CONTINUOUS
 10
-2.188591
 20
3.521587
  0
VERTEX
  8
PLAN_1
 62
     2
  6
CONTINUOUS
 10
-2.189047
 20
3.523417
  0
VERTEX
  8
PLAN_1
 62
     2
  6
CONTINUOUS
 10
-2.189965
 20
3.524791
  0
VERTEX
  8
PLAN_1
 62
     2
  6
CONTINUOUS
 10
-2.191795
 20
3.527539
  0
VERTEX
  8
PLAN_1
 62
     2
  6
CONTINUOUS
 10
-2.194087
 20
3.528913
  0
VERTEX
  8
PLAN_1
 62
     2
  6
CONTINUOUS
 10
-2.196835
 20
3.530287
  0
VERTEX
  8
PLAN_1
 62
     2
  6
CONTINUOUS
 10
-2.199583
 20
3.530748
  0
VERTEX
  8
PLAN_1
 62
     2
  6
CONTINUOUS
 10
-2.202331
 20
3.531205
  0
VERTEX
  8
PLAN_1
 62
     2
  6
CONTINUOUS
 10
-2.205079
 20
3.531205
  0
VERTEX
  8
PLAN_1
 62
     2
  6
CONTINUOUS
 10
-2.205535
 20
3.531205
  0
VERTEX
  8
PLAN_1
 62
     2
  6
CONTINUOUS
 10
-2.205992
 20
3.531205
  0
VERTEX
  8
PLAN_1
 62
     2
  6
CONTINUOUS
 10
-2.206453
 20
3.531205
  0
VERTEX
  8
PLAN_1
 62
     2
  6
CONTINUOUS
 10
-2.207366
 20
3.531205
  0
VERTEX
  8
PLAN_1
 62
     2
  6
CONTINUOUS
 10
-2.207827
 20
3.531205
  0
VERTEX
  8
PLAN_1
 62
     2
  6
CONTINUOUS
 10
-2.208283
 20
3.531205
  0
VERTEX
  8
PLAN_1
 62
     2
  6
CONTINUOUS
 10
-2.208740
 20
3.531205
  0
VERTEX
  8
PLAN_1
 62
     2
  6
CONTINUOUS
 10
-2.209201
 20
3.531205
  0
VERTEX
  8
PLAN_1
 62
     2
  6
CONTINUOUS
 10
-2.209201
 20
3.538992
  0
SEQEND
  8
0
  0
POLYLINE
  8
PLAN_1
 62
     2
  6
CONTINUOUS
 66
     1
 40
0.003000
 41
0.003000
  0
VERTEX
  8
PLAN_1
 62
     2
  6
CONTINUOUS
 10
-2.094701
 20
3.497315
  0
VERTEX
  8
PLAN_1
 62
     2
  6
CONTINUOUS
 10
-2.106610
 20
3.497315
  0
VERTEX
  8
PLAN_1
 62
     2
  6
CONTINUOUS
 10
-2.119890
 20
3.517925
  0
VERTEX
  8
PLAN_1
 62
     2
  6
CONTINUOUS
 10
-2.133173
 20
3.497315
  0
VERTEX
  8
PLAN_1
 62
     2
  6
CONTINUOUS
 10
-2.144622
 20
3.497315
  0
VERTEX
  8
PLAN_1
 62
     2
  6
CONTINUOUS
 10
-2.125386
 20
3.525252
  0
VERTEX
  8
PLAN_1
 62
     2
  6
CONTINUOUS
 10
-2.143705
 20
3.551815
  0
VERTEX
  8
PLAN_1
 62
     2
  6
CONTINUOUS
 10
-2.131799
 20
3.551815
  0
VERTEX
  8
PLAN_1
 62
     2
  6
CONTINUOUS
 10
-2.119433
 20
3.532579
  0
VERTEX
  8
PLAN_1
 62
     2
  6
CONTINUOUS
 10
-2.106610
 20
3.551815
  0
VERTEX
  8
PLAN_1
 62
     2
  6
CONTINUOUS
 10
-2.095618
 20
3.551815
  0
VERTEX
  8
PLAN_1
 62
     2
  6
CONTINUOUS
 10
-2.113937
 20
3.525252
  0
VERTEX
  8
PLAN_1
 62
     2
  6
CONTINUOUS
 10
-2.094701
 20
3.497315
  0
SEQEND
  8
0
  0
POLYLINE
  8
PLAN_1
 62
     2
  6
CONTINUOUS
 66
     1
 40
0.003000
 41
0.003000
  0
VERTEX
  8
PLAN_1
 62
     2
  6
CONTINUOUS
 10
-2.060807
 20
3.568760
  0
VERTEX
  8
PLAN_1
 62
     2
  6
CONTINUOUS
 10
-2.010429
 20
3.568760
  0
VERTEX
  8
PLAN_1
 62
     2
  6
CONTINUOUS
 10
-2.010429
 20
3.560976
  0
VERTEX
  8
PLAN_1
 62
     2
  6
CONTINUOUS
 10
-2.013634
 20
3.557311
  0
VERTEX
  8
PLAN_1
 62
     2
  6
CONTINUOUS
 10
-2.017299
 20
3.552272
  0
VERTEX
  8
PLAN_1
 62
     2
  6
CONTINUOUS
 10
-2.021421
 20
3.545862
  0
VERTEX
  8
PLAN_1
 62
     2
  6
CONTINUOUS
 10
-2.026000
 20
3.538531
  0
VERTEX
  8
PLAN_1
 62
     2
  6
CONTINUOUS
 10
-2.030583
 20
3.529831
  0
VERTEX
  8
PLAN_1
 62
     2
  6
CONTINUOUS
 10
-2.034244
 20
3.519756
  0
VERTEX
  8
PLAN_1
 62
     2
  6
CONTINUOUS
 10
-2.036079
 20
3.514717
  0
VERTEX
  8
PLAN_1
 62
     2
  6
CONTINUOUS
 10
-2.037909
 20
3.509220
  0
VERTEX
  8
PLAN_1
 62
     2
  6
CONTINUOUS
 10
-2.039283
 20
3.503268
  0
VERTEX
  8
PLAN_1
 62
     2
  6
CONTINUOUS
 10
-2.040197
 20
3.497315
  0
VERTEX
  8
PLAN_1
 62
     2
  6
CONTINUOUS
 10
-2.050276
 20
3.497315
  0
VERTEX
  8
PLAN_1
 62
     2
  6
CONTINUOUS
 10
-2.048902
 20
3.505098
  0
VERTEX
  8
PLAN_1
 62
     2
  6
CONTINUOUS
 10
-2.046610
 20
3.513343
  0
VERTEX
  8
PLAN_1
 62
     2
  6
CONTINUOUS
 10
-2.043406
 20
3.521587
  0
VERTEX
  8
PLAN_1
 62
     2
  6
CONTINUOUS
 10
-2.039740
 20
3.529831
  0
VERTEX
  8
PLAN_1
 62
     2
  6
CONTINUOUS
 10
-2.035618
 20
3.538075
  0
VERTEX
  8
PLAN_1
 62
     2
  6
CONTINUOUS
 10
-2.031039
 20
3.546319
  0
VERTEX
  8
PLAN_1
 62
     2
  6
CONTINUOUS
 10
-2.026000
 20
3.553189
  0
VERTEX
  8
PLAN_1
 62
     2
  6
CONTINUOUS
 10
-2.020504
 20
3.560059
  0
VERTEX
  8
PLAN_1
 62
     2
  6
CONTINUOUS
 10
-2.060807
 20
3.560059
  0
VERTEX
  8
PLAN_1
 62
     2
  6
CONTINUOUS
 10
-2.060807
 20
3.568760
  0
SEQEND
  8
0
  0
POLYLINE
  8
PLAN_1
 62
     2
  6
CONTINUOUS
 66
     1
 40
0.003000
 41
0.003000
  0
VERTEX
  8
PLAN_1
 62
     2
  6
CONTINUOUS
 10
-1.997606
 20
3.508307
  0
VERTEX
  8
PLAN_1
 62
     2
  6
CONTINUOUS
 10
-1.987071
 20
3.508307
  0
VERTEX
  8
PLAN_1
 62
     2
  6
CONTINUOUS
 10
-1.987071
 20
3.498228
  0
VERTEX
  8
PLAN_1
 62
     2
  6
CONTINUOUS
 10
-1.987528
 20
3.493193
  0
VERTEX
  8
PLAN_1
 62
     2
  6
CONTINUOUS
 10
-1.988445
 20
3.489528
  0
VERTEX
  8
PLAN_1
 62
     2
  6
CONTINUOUS
 10
-1.989819
 20
3.486780
  0
VERTEX
  8
PLAN_1
 62
     2
  6
CONTINUOUS
 10
-1.991650
 20
3.484949
  0
VERTEX
  8
PLAN_1
 62
     2
  6
CONTINUOUS
 10
-1.993484
 20
3.483575
  0
VERTEX
  8
PLAN_1
 62
     2
  6
CONTINUOUS
 10
-1.995315
 20
3.482657
  0
VERTEX
  8
PLAN_1
 62
     2
  6
CONTINUOUS
 10
-1.996689
 20
3.482201
  0
VERTEX
  8
PLAN_1
 62
     2
  6
CONTINUOUS
 10
-1.997606
 20
3.482201
  0
VERTEX
  8
PLAN_1
 62
     2
  6
CONTINUOUS
 10
-1.997606
 20
3.486780
  0
VERTEX
  8
PLAN_1
 62
     2
  6
CONTINUOUS
 10
-1.996232
 20
3.487236
  0
VERTEX
  8
PLAN_1
 62
     2
  6
CONTINUOUS
 10
-1.994858
 20
3.488154
  0
VERTEX
  8
PLAN_1
 62
     2
  6
CONTINUOUS
 10
-1.993941
 20
3.489071
  0
VERTEX
  8
PLAN_1
 62
     2
  6
CONTINUOUS
 10
-1.993484
 20
3.490445
  0
VERTEX
  8
PLAN_1
 62
     2
  6
CONTINUOUS
 10
-1.993024
 20
3.491819
  0
VERTEX
  8
PLAN_1
 62
     2
  6
CONTINUOUS
 10
-1.992567
 20
3.493650
  0
VERTEX
  8
PLAN_1
 62
     2
  6
CONTINUOUS
 10
-1.992110
 20
3.495480
  0
VERTEX
  8
PLAN_1
 62
     2
  6
CONTINUOUS
 10
-1.992110
 20
3.497315
  0
VERTEX
  8
PLAN_1
 62
     2
  6
CONTINUOUS
 10
-1.997606
 20
3.497315
  0
VERTEX
  8
PLAN_1
 62
     2
  6
CONTINUOUS
 10
-1.997606
 20
3.508307
  0
SEQEND
  8
0
  0
POLYLINE
  8
PLAN_1
 62
     2
  6
CONTINUOUS
 66
     1
 40
0.003000
 41
0.003000
  0
VERTEX
  8
PLAN_1
 62
     2
  6
CONTINUOUS
 10
-1.954555
 20
3.538992
  0
VERTEX
  8
PLAN_1
 62
     2
  6
CONTINUOUS
 10
-1.954094
 20
3.538992
  0
VERTEX
  8
PLAN_1
 62
     2
  6
CONTINUOUS
 10
-1.953181
 20
3.538992
  0
VERTEX
  8
PLAN_1
 62
     2
  6
CONTINUOUS
 10
-1.952720
 20
3.538992
  0
VERTEX
  8
PLAN_1
 62
     2
  6
CONTINUOUS
 10
-1.952264
 20
3.538992
  0
VERTEX
  8
PLAN_1
 62
     2
  6
CONTINUOUS
 10
-1.951346
 20
3.538992
  0
VERTEX
  8
PLAN_1
 62
     2
  6
CONTINUOUS
 10
-1.950890
 20
3.538531
  0
VERTEX
  8
PLAN_1
 62
     2
  6
CONTINUOUS
 10
-1.950433
 20
3.538531
  0
VERTEX
  8
PLAN_1
 62
     2
  6
CONTINUOUS
 10
-1.949972
 20
3.538531
  0
VERTEX
  8
PLAN_1
 62
     2
  6
CONTINUOUS
 10
-1.947224
 20
3.538992
  0
VERTEX
  8
PLAN_1
 62
     2
  6
CONTINUOUS
 10
-1.944476
 20
3.539449
  0
VERTEX
  8
PLAN_1
 62
     2
  6
CONTINUOUS
 10
-1.942189
 20
3.539906
  0
VERTEX
  8
PLAN_1
 62
     2
  6
CONTINUOUS
 10
-1.940354
 20
3.541280
  0
VERTEX
  8
PLAN_1
 62
     2
  6
CONTINUOUS
 10
-1.938524
 20
3.542654
  0
VERTEX
  8
PLAN_1
 62
     2
  6
CONTINUOUS
 10
-1.937150
 20
3.544945
  0
VERTEX
  8
PLAN_1
 62
     2
  6
CONTINUOUS
 10
-1.936232
 20
3.547693
  0
VERTEX
  8
PLAN_1
 62
     2
  6
CONTINUOUS
 10
-1.935776
 20
3.550898
  0
VERTEX
  8
PLAN_1
 62
     2
  6
CONTINUOUS
 10
-1.935776
 20
3.552272
  0
VERTEX
  8
PLAN_1
 62
     2
  6
CONTINUOUS
 10
-1.936232
 20
3.554563
  0
VERTEX
  8
PLAN_1
 62
     2
  6
CONTINUOUS
 10
-1.937150
 20
3.556394
  0
VERTEX
  8
PLAN_1
 62
     2
  6
CONTINUOUS
 10
-1.938524
 20
3.558228
  0
VERTEX
  8
PLAN_1
 62
     2
  6
CONTINUOUS
 10
-1.940354
 20
3.559602
  0
VERTEX
  8
PLAN_1
 62
     2
  6
CONTINUOUS
 10
-1.942646
 20
3.560976
  0
VERTEX
  8
PLAN_1
 62
     2
  6
CONTINUOUS
 10
-1.945850
 20
3.561890
  0
VERTEX
  8
PLAN_1
 62
     2
  6
CONTINUOUS
 10
-1.949516
 20
3.562350
  0
VERTEX
  8
PLAN_1
 62
     2
  6
CONTINUOUS
 10
-1.951807
 20
3.561890
  0
VERTEX
  8
PLAN_1
 62
     2
  6
CONTINUOUS
 10
-1.953638
 20
3.561890
  0
VERTEX
  8
PLAN_1
 62
     2
  6
CONTINUOUS
 10
-1.955469
 20
3.561433
  0
VERTEX
  8
PLAN_1
 62
     2
  6
CONTINUOUS
 10
-1.956843
 20
3.560516
  0
VERTEX
  8
PLAN_1
 62
     2
  6
CONTINUOUS
 10
-1.959591
 20
3.558685
  0
VERTEX
  8
PLAN_1
 62
     2
  6
CONTINUOUS
 10
-1.961425
 20
3.556394
  0
VERTEX
  8
PLAN_1
 62
     2
  6
CONTINUOUS
 10
-1.962339
 20
3.553646
  0
VERTEX
  8
PLAN_1
 62
     2
  6
CONTINUOUS
 10
-1.963256
 20
3.551358
  0
VERTEX
  8
PLAN_1
 62
     2
  6
CONTINUOUS
 10
-1.963256
 20
3.548610
  0
VERTEX
  8
PLAN_1
 62
     2
  6
CONTINUOUS
 10
-1.963713
 20
3.546319
  0
VERTEX
  8
PLAN_1
 62
     2
  6
CONTINUOUS
 10
-1.972413
 20
3.546319
  0
VERTEX
  8
PLAN_1
 62
     2
  6
CONTINUOUS
 10
-1.972413
 20
3.550441
  0
VERTEX
  8
PLAN_1
 62
     2
  6
CONTINUOUS
 10
-1.971500
 20
3.554563
  0
VERTEX
  8
PLAN_1
 62
     2
  6
CONTINUOUS
 10
-1.970126
 20
3.558685
  0
VERTEX
  8
PLAN_1
 62
     2
  6
CONTINUOUS
 10
-1.967835
 20
3.562350
  0
VERTEX
  8
PLAN_1
 62
     2
  6
CONTINUOUS
 10
-1.966461
 20
3.564181
  0
VERTEX
  8
PLAN_1
 62
     2
  6
CONTINUOUS
 10
-1.965087
 20
3.565555
  0
VERTEX
  8
PLAN_1
 62
     2
  6
CONTINUOUS
 10
-1.962799
 20
3.566929
  0
VERTEX
  8
PLAN_1
 62
     2
  6
CONTINUOUS
 10
-1.960965
 20
3.568303
  0
VERTEX
  8
PLAN_1
 62
     2
  6
CONTINUOUS
 10
-1.958217
 20
3.569220
  0
VERTEX
  8
PLAN_1
 62
     2
  6
CONTINUOUS
 10
-1.955469
 20
3.569677
  0
VERTEX
  8
PLAN_1
 62
     2
  6
CONTINUOUS
 10
-1.952264
 20
3.570134
  0
VERTEX
  8
PLAN_1
 62
     2
  6
CONTINUOUS
 10
-1.949059
 20
3.570594
  0
VERTEX
  8
PLAN_1
 62
     2
  6
CONTINUOUS
 10
-1.944020
 20
3.570134
  0
VERTEX
  8
PLAN_1
 62
     2
  6
CONTINUOUS
 10
-1.939441
 20
3.569220
  0
VERTEX
  8
PLAN_1
 62
     2
  6
CONTINUOUS
 10
-1.935776
 20
3.567386
  0
VERTEX
  8
PLAN_1
 62
     2
  6
CONTINUOUS
 10
-1.932571
 20
3.565098
  0
VERTEX
  8
PLAN_1
 62
     2
  6
CONTINUOUS
 10
-1.929823
 20
3.562350
  0
VERTEX
  8
PLAN_1
 62
     2
  6
CONTINUOUS
 10
-1.927988
 20
3.559142
  0
VERTEX
  8
PLAN_1
 62
     2
  6
CONTINUOUS
 10
-1.926614
 20
3.555020
  0
VERTEX
  8
PLAN_1
 62
     2
  6
CONTINUOUS
 10
-1.926157
 20
3.551358
  0
VERTEX
  8
PLAN_1
 62
     2
  6
CONTINUOUS
 10
-1.926614
 20
3.548150
  0
VERTEX
  8
PLAN_1
 62
     2
  6
CONTINUOUS
 10
-1.927075
 20
3.544945
  0
VERTEX
  8
PLAN_1
 62
     2
  6
CONTINUOUS
 10
-1.928449
 20
3.542654
  0
VERTEX
  8
PLAN_1
 62
     2
  6
CONTINUOUS
 10
-1.929362
 20
3.540823
  0
VERTEX
  8
PLAN_1
 62
     2
  6
CONTINUOUS
 10
-1.931197
 20
3.538992
  0
VERTEX
  8
PLAN_1
 62
     2
  6
CONTINUOUS
 10
-1.932571
 20
3.537618
  0
VERTEX
  8
PLAN_1
 62
     2
  6
CONTINUOUS
 10
-1.934402
 20
3.536701
  0
VERTEX
  8
PLAN_1
 62
     2
  6
CONTINUOUS
 10
-1.935776
 20
3.536244
  0
VERTEX
  8
PLAN_1
 62
     2
  6
CONTINUOUS
 10
-1.935776
 20
3.535783
  0
VERTEX
  8
PLAN_1
 62
     2
  6
CONTINUOUS
 10
-1.933028
 20
3.534870
  0
VERTEX
  8
PLAN_1
 62
     2
  6
CONTINUOUS
 10
-1.930736
 20
3.533496
  0
VERTEX
  8
PLAN_1
 62
     2
  6
CONTINUOUS
 10
-1.928906
 20
3.532122
  0
VERTEX
  8
PLAN_1
 62
     2
  6
CONTINUOUS
 10
-1.927075
 20
3.530287
  0
VERTEX
  8
PLAN_1
 62
     2
  6
CONTINUOUS
 10
-1.925701
 20
3.528000
  0
VERTEX
  8
PLAN_1
 62
     2
  6
CONTINUOUS
 10
-1.924327
 20
3.525252
  0
VERTEX
  8
PLAN_1
 62
     2
  6
CONTINUOUS
 10
-1.923866
 20
3.522504
  0
VERTEX
  8
PLAN_1
 62
     2
  6
CONTINUOUS
 10
-1.923409
 20
3.518839
  0
VERTEX
  8
PLAN_1
 62
     2
  6
CONTINUOUS
 10
-1.923866
 20
3.514260
  0
VERTEX
  8
PLAN_1
 62
     2
  6
CONTINUOUS
 10
-1.925240
 20
3.510138
  0
VERTEX
  8
PLAN_1
 62
     2
  6
CONTINUOUS
 10
-1.925701
 20
3.508307
  0
VERTEX
  8
PLAN_1
 62
     2
  6
CONTINUOUS
 10
-1.927075
 20
3.506016
  0
VERTEX
  8
PLAN_1
 62
     2
  6
CONTINUOUS
 10
-1.928449
 20
3.504185
  0
VERTEX
  8
PLAN_1
 62
     2
  6
CONTINUOUS
 10
-1.929823
 20
3.502811
  0
VERTEX
  8
PLAN_1
 62
     2
  6
CONTINUOUS
 10
-1.931654
 20
3.500976
  0
VERTEX
  8
PLAN_1
 62
     2
  6
CONTINUOUS
 10
-1.933484
 20
3.499602
  0
VERTEX
  8
PLAN_1
 62
     2
  6
CONTINUOUS
 10
-1.935319
 20
3.498228
  0
VERTEX
  8
PLAN_1
 62
     2
  6
CONTINUOUS
 10
-1.938067
 20
3.497315
  0
VERTEX
  8
PLAN_1
 62
     2
  6
CONTINUOUS
 10
-1.940354
 20
3.496398
  0
VERTEX
  8
PLAN_1
 62
     2
  6
CONTINUOUS
 10
-1.943563
 20
3.495941
  0
VERTEX
  8
PLAN_1
 62
     2
  6
CONTINUOUS
 10
-1.946311
 20
3.495480
  0
VERTEX
  8
PLAN_1
 62
     2
  6
CONTINUOUS
 10
-1.949972
 20
3.495480
  0
VERTEX
  8
PLAN_1
 62
     2
  6
CONTINUOUS
 10
-1.951807
 20
3.495480
  0
VERTEX
  8
PLAN_1
 62
     2
  6
CONTINUOUS
 10
-1.953638
 20
3.495480
  0
VERTEX
  8
PLAN_1
 62
     2
  6
CONTINUOUS
 10
-1.955469
 20
3.495941
  0
VERTEX
  8
PLAN_1
 62
     2
  6
CONTINUOUS
 10
-1.957303
 20
3.496398
  0
VERTEX
  8
PLAN_1
 62
     2
  6
CONTINUOUS
 10
-1.959134
 20
3.496854
  0
VERTEX
  8
PLAN_1
 62
     2
  6
CONTINUOUS
 10
-1.960508
 20
3.497315
  0
VERTEX
  8
PLAN_1
 62
     2
  6
CONTINUOUS
 10
-1.961882
 20
3.497772
  0
VERTEX
  8
PLAN_1
 62
     2
  6
CONTINUOUS
 10
-1.963256
 20
3.498689
  0
VERTEX
  8
PLAN_1
 62
     2
  6
CONTINUOUS
 10
-1.966004
 20
3.500520
  0
VERTEX
  8
PLAN_1
 62
     2
  6
CONTINUOUS
 10
-1.968295
 20
3.502350
  0
VERTEX
  8
PLAN_1
 62
     2
  6
CONTINUOUS
 10
-1.970126
 20
3.505098
  0
VERTEX
  8
PLAN_1
 62
     2
  6
CONTINUOUS
 10
-1.971500
 20
3.507390
  0
VERTEX
  8
PLAN_1
 62
     2
  6
CONTINUOUS
 10
-1.972874
 20
3.510594
  0
VERTEX
  8
PLAN_1
 62
     2
  6
CONTINUOUS
 10
-1.973331
 20
3.513343
  0
VERTEX
  8
PLAN_1
 62
     2
  6
CONTINUOUS
 10
-1.974248
 20
3.516551
  0
VERTEX
  8
PLAN_1
 62
     2
  6
CONTINUOUS
 10
-1.974248
 20
3.519756
  0
VERTEX
  8
PLAN_1
 62
     2
  6
CONTINUOUS
 10
-1.965087
 20
3.519756
  0
VERTEX
  8
PLAN_1
 62
     2
  6
CONTINUOUS
 10
-1.964630
 20
3.517008
  0
VERTEX
  8
PLAN_1
 62
     2
  6
CONTINUOUS
 10
-1.964173
 20
3.514260
  0
VERTEX
  8
PLAN_1
 62
     2
  6
CONTINUOUS
 10
-1.963256
 20
3.511512
  0
VERTEX
  8
PLAN_1
 62
     2
  6
CONTINUOUS
 10
-1.961882
 20
3.509220
  0
VERTEX
  8
PLAN_1
 62
     2
  6
CONTINUOUS
 10
-1.960051
 20
3.506933
  0
VERTEX
  8
PLAN_1
 62
     2
  6
CONTINUOUS
 10
-1.957303
 20
3.505098
  0
VERTEX
  8
PLAN_1
 62
     2
  6
CONTINUOUS
 10
-1.955929
 20
3.504642
  0
VERTEX
  8
PLAN_1
 62
     2
  6
CONTINUOUS
 10
-1.953638
 20
3.504185
  0
VERTEX
  8
PLAN_1
 62
     2
  6
CONTINUOUS
 10
-1.951807
 20
3.503724
  0
VERTEX
  8
PLAN_1
 62
     2
  6
CONTINUOUS
 10
-1.949059
 20
3.503724
  0
VERTEX
  8
PLAN_1
 62
     2
  6
CONTINUOUS
 10
-1.945850
 20
3.503724
  0
VERTEX
  8
PLAN_1
 62
     2
  6
CONTINUOUS
 10
-1.942646
 20
3.504642
  0
VERTEX
  8
PLAN_1
 62
     2
  6
CONTINUOUS
 10
-1.939898
 20
3.506016
  0
VERTEX
  8
PLAN_1
 62
     2
  6
CONTINUOUS
 10
-1.937606
 20
3.507390
  0
VERTEX
  8
PLAN_1
 62
     2
  6
CONTINUOUS
 10
-1.935776
 20
3.509681
  0
VERTEX
  8
PLAN_1
 62
     2
  6
CONTINUOUS
 10
-1.934402
 20
3.511969
  0
VERTEX
  8
PLAN_1
 62
     2
  6
CONTINUOUS
 10
-1.933484
 20
3.514717
  0
VERTEX
  8
PLAN_1
 62
     2
  6
CONTINUOUS
 10
-1.933484
 20
3.517925
  0
VERTEX
  8
PLAN_1
 62
     2
  6
CONTINUOUS
 10
-1.933484
 20
3.519756
  0
VERTEX
  8
PLAN_1
 62
     2
  6
CONTINUOUS
 10
-1.933945
 20
3.521587
  0
VERTEX
  8
PLAN_1
 62
     2
  6
CONTINUOUS
 10
-1.934402
 20
3.523417
  0
VERTEX
  8
PLAN_1
 62
     2
  6
CONTINUOUS
 10
-1.935319
 20
3.524791
  0
VERTEX
  8
PLAN_1
 62
     2
  6
CONTINUOUS
 10
-1.937150
 20
3.527539
  0
VERTEX
  8
PLAN_1
 62
     2
  6
CONTINUOUS
 10
-1.939441
 20
3.528913
  0
VERTEX
  8
PLAN_1
 62
     2
  6
CONTINUOUS
 10
-1.942189
 20
3.530287
  0
VERTEX
  8
PLAN_1
 62
     2
  6
CONTINUOUS
 10
-1.944937
 20
3.530748
  0
VERTEX
  8
PLAN_1
 62
     2
  6
CONTINUOUS
 10
-1.947685
 20
3.531205
  0
VERTEX
  8
PLAN_1
 62
     2
  6
CONTINUOUS
 10
-1.950433
 20
3.531205
  0
VERTEX
  8
PLAN_1
 62
     2
  6
CONTINUOUS
 10
-1.950890
 20
3.531205
  0
VERTEX
  8
PLAN_1
 62
     2
  6
CONTINUOUS
 10
-1.951346
 20
3.531205
  0
VERTEX
  8
PLAN_1
 62
     2
  6
CONTINUOUS
 10
-1.951807
 20
3.531205
  0
VERTEX
  8
PLAN_1
 62
     2
  6
CONTINUOUS
 10
-1.952264
 20
3.531205
  0
VERTEX
  8
PLAN_1
 62
     2
  6
CONTINUOUS
 10
-1.953181
 20
3.531205
  0
VERTEX
  8
PLAN_1
 62
     2
  6
CONTINUOUS
 10
-1.953638
 20
3.531205
  0
VERTEX
  8
PLAN_1
 62
     2
  6
CONTINUOUS
 10
-1.954094
 20
3.531205
  0
VERTEX
  8
PLAN_1
 62
     2
  6
CONTINUOUS
 10
-1.954555
 20
3.531205
  0
VERTEX
  8
PLAN_1
 62
     2
  6
CONTINUOUS
 10
-1.954555
 20
3.538992
  0
SEQEND
  8
0
  0
SOLID
  8
PLAN_1
 62
     2
 10
-1.513504
 20
3.447850
 11
-1.544189
 21
3.500520
 12
-1.513504
 22
3.447850
 13
-1.566173
 23
3.478079
  0
POLYLINE
  8
PLAN_1
 62
     2
  6
CONTINUOUS
 66
     1
 40
0.003000
 41
0.003000
  0
VERTEX
  8
PLAN_1
 62
     2
  6
CONTINUOUS
 10
-1.513504
 20
3.447850
  0
VERTEX
  8
PLAN_1
 62
     2
  6
CONTINUOUS
 10
-1.544189
 20
3.500520
  0
VERTEX
  8
PLAN_1
 62
     2
  6
CONTINUOUS
 10
-1.566173
 20
3.478079
  0
VERTEX
  8
PLAN_1
 62
     2
  6
CONTINUOUS
 10
-1.513504
 20
3.447850
  0
SEQEND
  8
0
  0
POLYLINE
  8
PLAN_1
 62
     2
  6
CONTINUOUS
 66
     1
 40
0.004118
 41
0.004118
  0
VERTEX
  8
PLAN_1
 62
     2
  6
CONTINUOUS
 10
-1.540067
 20
3.473957
  0
VERTEX
  8
PLAN_1
 62
     2
  6
CONTINUOUS
 10
-1.669681
 20
3.598531
  0
VERTEX
  8
PLAN_1
 62
     2
  6
CONTINUOUS
 10
-2.424000
 20
3.598531
  0
SEQEND
  8
0
  0
ENDSEC
  0
EOF
