  0
SECTION
  2
HEADER
  9
$ACADVER
  1
AC1006
  9
$EXTMIN
 10
-2.084000
 20
-3.933354
  9
$EXTMAX
 10
2.086000
 20
3.942248
  9
$LTSCALE
 40
0.000394
  9
$PDMODE
 70
    35
  9
$PDSIZE
 40
0.000315
  0
ENDSEC
  0
SECTION
  2
TABLES
  0
TABLE
  2
LTYPE
 70
     9
  0
LTYPE
  2
CONTINUOUS
 70
    64
  3
Solid line
 72
    65
 73
     0
 40
0.000000
  0
LTYPE
  2
DASHED
 70
    64
  3
__ __ __ __ __ __ __ __ __ __ __ __ __ __ __
 72
    65
 73
     2
 40
0.000003
 49
0.000002
 49
-0.000001
  0
LTYPE
  2
HIDDEN
 70
    64
  3
 _ _ _ _ _ _ _ _ _ _ _ _ _ _ _ _ _ _ _ _ _ _
 72
    65
 73
     2
 40
0.000001
 49
0.000001
 49
-0.000000
  0
LTYPE
  2
CENTER
 70
    64
  3
____ _ ____ _ ____ _ ____ _ ____ _ ____ _ ____
 72
    65
 73
     4
 40
0.000008
 49
0.000005
 49
-0.000001
 49
0.000001
 49
-0.000001
  0
LTYPE
  2
PHANTOM
 70
    64
  3
_____ _ _ _____ _ _ _____ _ _ _____ _ _ ____
 72
    65
 73
     6
 40
0.000010
 49
0.000005
 49
-0.000001
 49
0.000001
 49
-0.000001
 49
0.000001
 49
-0.000001
  0
LTYPE
  2
DOT
 70
    64
  3
...............................................
 72
    65
 73
     2
 40
0.000001
 49
0.000000
 49
-0.000001
  0
LTYPE
  2
DASHDOT
 70
    64
  3
__ . __ . __ . __ . __ . __ . __ . __ . __ . __
 72
    65
 73
     4
 40
0.000004
 49
0.000002
 49
-0.000001
 49
0.000000
 49
-0.000001
  0
LTYPE
  2
BORDER
 70
    64
  3
__ __ . __ __ . __ __ . __ __ . __ __ . __ __
 72
    65
 73
     6
 40
0.000007
 49
0.000002
 49
-0.000001
 49
0.000002
 49
-0.000001
 49
0.000000
 49
-0.000001
  0
LTYPE
  2
DIVIDE
 70
    64
  3
__ . . __ . . __ . . __ . . __ . . __ . . __
 72
    65
 73
     6
 40
0.000005
 49
0.000002
 49
-0.000001
 49
0.000000
 49
-0.000001
 49
0.000000
 49
-0.000001
  0
LTYPE
  2
DOTDOT
 70
    64
  3
 . .  . .  . .  . .  . .  . . 
 72
    65
 73
     5
 40
0.000002
 49
-0.000001
 49
0.000000
 49
-0.000001
 49
0.000000
 49
-0.000001
  0
ENDTAB
  0
TABLE
  2
STYLE
 70
     0
  0
ENDTAB
  0
TABLE
  2
LAYER
 70
     3
  0
LAYER
  2
FOREGROUND
 70
    64
 62
     7
  6
CONTINUOUS
  0
LAYER
  2
BACKGROUND
 70
    65
 62
    -7
  6
CONTINUOUS
  0
LAYER
  2
PLAN_1
 70
    64
 62
     7
  6
CONTINUOUS
  0
ENDTAB
  0
ENDSEC
  0
SECTION
  2
ENTITIES
  0
POLYLINE
  8
PLAN_1
  6
CONTINUOUS
 66
     1
 40
0.003000
 41
0.003000
  0
VERTEX
  8
PLAN_1
  6
CONTINUOUS
 10
0.344563
 20
-3.927941
  0
VERTEX
  8
PLAN_1
  6
CONTINUOUS
 10
0.187547
 20
-3.927941
  0
VERTEX
  8
PLAN_1
  6
CONTINUOUS
 10
0.187547
 20
-3.905791
  0
VERTEX
  8
PLAN_1
  6
CONTINUOUS
 10
0.309614
 20
-3.752713
  0
VERTEX
  8
PLAN_1
  6
CONTINUOUS
 10
0.196898
 20
-3.752713
  0
VERTEX
  8
PLAN_1
  6
CONTINUOUS
 10
0.196898
 20
-3.728594
  0
VERTEX
  8
PLAN_1
  6
CONTINUOUS
 10
0.344563
 20
-3.728594
  0
VERTEX
  8
PLAN_1
  6
CONTINUOUS
 10
0.344563
 20
-3.752220
  0
VERTEX
  8
PLAN_1
  6
CONTINUOUS
 10
0.222004
 20
-3.904315
  0
VERTEX
  8
PLAN_1
  6
CONTINUOUS
 10
0.344563
 20
-3.904315
  0
VERTEX
  8
PLAN_1
  6
CONTINUOUS
 10
0.344563
 20
-3.927941
  0
SEQEND
  8
0
  0
POLYLINE
  8
PLAN_1
  6
CONTINUOUS
 66
     1
 40
0.003000
 41
0.003000
  0
VERTEX
  8
PLAN_1
  6
CONTINUOUS
 10
0.511913
 20
-3.788646
  0
VERTEX
  8
PLAN_1
  6
CONTINUOUS
 10
0.509945
 20
-3.782736
  0
VERTEX
  8
PLAN_1
  6
CONTINUOUS
 10
0.507976
 20
-3.776831
  0
VERTEX
  8
PLAN_1
  6
CONTINUOUS
 10
0.505516
 20
-3.771909
  0
VERTEX
  8
PLAN_1
  6
CONTINUOUS
 10
0.502563
 20
-3.767480
  0
VERTEX
  8
PLAN_1
  6
CONTINUOUS
 10
0.499610
 20
-3.763543
  0
VERTEX
  8
PLAN_1
  6
CONTINUOUS
 10
0.496161
 20
-3.760094
  0
VERTEX
  8
PLAN_1
  6
CONTINUOUS
 10
0.492224
 20
-3.757634
  0
VERTEX
  8
PLAN_1
  6
CONTINUOUS
 10
0.488287
 20
-3.755173
  0
VERTEX
  8
PLAN_1
  6
CONTINUOUS
 10
0.484350
 20
-3.752713
  0
VERTEX
  8
PLAN_1
  6
CONTINUOUS
 10
0.479921
 20
-3.751236
  0
VERTEX
  8
PLAN_1
  6
CONTINUOUS
 10
0.475984
 20
-3.749760
  0
VERTEX
  8
PLAN_1
  6
CONTINUOUS
 10
0.471551
 20
-3.748776
  0
VERTEX
  8
PLAN_1
  6
CONTINUOUS
 10
0.463677
 20
-3.747791
  0
VERTEX
  8
PLAN_1
  6
CONTINUOUS
 10
0.455803
 20
-3.747299
  0
VERTEX
  8
PLAN_1
  6
CONTINUOUS
 10
0.449402
 20
-3.747791
  0
VERTEX
  8
PLAN_1
  6
CONTINUOUS
 10
0.443004
 20
-3.748776
  0
VERTEX
  8
PLAN_1
  6
CONTINUOUS
 10
0.436606
 20
-3.750252
  0
VERTEX
  8
PLAN_1
  6
CONTINUOUS
 10
0.430701
 20
-3.752220
  0
VERTEX
  8
PLAN_1
  6
CONTINUOUS
 10
0.424791
 20
-3.755173
  0
VERTEX
  8
PLAN_1
  6
CONTINUOUS
 10
0.419378
 20
-3.758618
  0
VERTEX
  8
PLAN_1
  6
CONTINUOUS
 10
0.414457
 20
-3.762559
  0
VERTEX
  8
PLAN_1
  6
CONTINUOUS
 10
0.410028
 20
-3.767480
  0
VERTEX
  8
PLAN_1
  6
CONTINUOUS
 10
0.405594
 20
-3.772402
  0
VERTEX
  8
PLAN_1
  6
CONTINUOUS
 10
0.402150
 20
-3.778307
  0
VERTEX
  8
PLAN_1
  6
CONTINUOUS
 10
0.398705
 20
-3.784709
  0
VERTEX
  8
PLAN_1
  6
CONTINUOUS
 10
0.395752
 20
-3.792091
  0
VERTEX
  8
PLAN_1
  6
CONTINUOUS
 10
0.393783
 20
-3.799965
  0
VERTEX
  8
PLAN_1
  6
CONTINUOUS
 10
0.392307
 20
-3.807843
  0
VERTEX
  8
PLAN_1
  6
CONTINUOUS
 10
0.391323
 20
-3.817193
  0
VERTEX
  8
PLAN_1
  6
CONTINUOUS
 10
0.390831
 20
-3.826543
  0
VERTEX
  8
PLAN_1
  6
CONTINUOUS
 10
0.390831
 20
-3.835406
  0
VERTEX
  8
PLAN_1
  6
CONTINUOUS
 10
0.391815
 20
-3.843772
  0
VERTEX
  8
PLAN_1
  6
CONTINUOUS
 10
0.392799
 20
-3.851646
  0
VERTEX
  8
PLAN_1
  6
CONTINUOUS
 10
0.394276
 20
-3.859031
  0
VERTEX
  8
PLAN_1
  6
CONTINUOUS
 10
0.396244
 20
-3.866413
  0
VERTEX
  8
PLAN_1
  6
CONTINUOUS
 10
0.398705
 20
-3.873303
  0
VERTEX
  8
PLAN_1
  6
CONTINUOUS
 10
0.401657
 20
-3.879705
  0
VERTEX
  8
PLAN_1
  6
CONTINUOUS
 10
0.405102
 20
-3.885610
  0
VERTEX
  8
PLAN_1
  6
CONTINUOUS
 10
0.409535
 20
-3.891024
  0
VERTEX
  8
PLAN_1
  6
CONTINUOUS
 10
0.414457
 20
-3.895453
  0
VERTEX
  8
PLAN_1
  6
CONTINUOUS
 10
0.419870
 20
-3.899882
  0
VERTEX
  8
PLAN_1
  6
CONTINUOUS
 10
0.425776
 20
-3.903331
  0
VERTEX
  8
PLAN_1
  6
CONTINUOUS
 10
0.432669
 20
-3.905791
  0
VERTEX
  8
PLAN_1
  6
CONTINUOUS
 10
0.440051
 20
-3.907760
  0
VERTEX
  8
PLAN_1
  6
CONTINUOUS
 10
0.447925
 20
-3.909236
  0
VERTEX
  8
PLAN_1
  6
CONTINUOUS
 10
0.456787
 20
-3.909728
  0
VERTEX
  8
PLAN_1
  6
CONTINUOUS
 10
0.460232
 20
-3.909236
  0
VERTEX
  8
PLAN_1
  6
CONTINUOUS
 10
0.464169
 20
-3.909236
  0
VERTEX
  8
PLAN_1
  6
CONTINUOUS
 10
0.467614
 20
-3.908252
  0
VERTEX
  8
PLAN_1
  6
CONTINUOUS
 10
0.472043
 20
-3.907268
  0
VERTEX
  8
PLAN_1
  6
CONTINUOUS
 10
0.475984
 20
-3.906283
  0
VERTEX
  8
PLAN_1
  6
CONTINUOUS
 10
0.479921
 20
-3.904315
  0
VERTEX
  8
PLAN_1
  6
CONTINUOUS
 10
0.484350
 20
-3.902346
  0
VERTEX
  8
PLAN_1
  6
CONTINUOUS
 10
0.488287
 20
-3.899390
  0
VERTEX
  8
PLAN_1
  6
CONTINUOUS
 10
0.492224
 20
-3.896437
  0
VERTEX
  8
PLAN_1
  6
CONTINUOUS
 10
0.496161
 20
-3.892500
  0
VERTEX
  8
PLAN_1
  6
CONTINUOUS
 10
0.500102
 20
-3.888071
  0
VERTEX
  8
PLAN_1
  6
CONTINUOUS
 10
0.503547
 20
-3.883150
  0
VERTEX
  8
PLAN_1
  6
CONTINUOUS
 10
0.506500
 20
-3.877244
  0
VERTEX
  8
PLAN_1
  6
CONTINUOUS
 10
0.509453
 20
-3.870350
  0
VERTEX
  8
PLAN_1
  6
CONTINUOUS
 10
0.511913
 20
-3.862969
  0
VERTEX
  8
PLAN_1
  6
CONTINUOUS
 10
0.513882
 20
-3.854602
  0
VERTEX
  8
PLAN_1
  6
CONTINUOUS
 10
0.539969
 20
-3.854602
  0
VERTEX
  8
PLAN_1
  6
CONTINUOUS
 10
0.538492
 20
-3.861492
  0
VERTEX
  8
PLAN_1
  6
CONTINUOUS
 10
0.537016
 20
-3.867890
  0
VERTEX
  8
PLAN_1
  6
CONTINUOUS
 10
0.535539
 20
-3.874287
  0
VERTEX
  8
PLAN_1
  6
CONTINUOUS
 10
0.533571
 20
-3.879705
  0
VERTEX
  8
PLAN_1
  6
CONTINUOUS
 10
0.531110
 20
-3.885118
  0
VERTEX
  8
PLAN_1
  6
CONTINUOUS
 10
0.529142
 20
-3.890039
  0
VERTEX
  8
PLAN_1
  6
CONTINUOUS
 10
0.526189
 20
-3.894469
  0
VERTEX
  8
PLAN_1
  6
CONTINUOUS
 10
0.523728
 20
-3.898898
  0
VERTEX
  8
PLAN_1
  6
CONTINUOUS
 10
0.520772
 20
-3.902839
  0
VERTEX
  8
PLAN_1
  6
CONTINUOUS
 10
0.517819
 20
-3.906283
  0
VERTEX
  8
PLAN_1
  6
CONTINUOUS
 10
0.514374
 20
-3.909728
  0
VERTEX
  8
PLAN_1
  6
CONTINUOUS
 10
0.511421
 20
-3.912681
  0
VERTEX
  8
PLAN_1
  6
CONTINUOUS
 10
0.504531
 20
-3.918094
  0
VERTEX
  8
PLAN_1
  6
CONTINUOUS
 10
0.497638
 20
-3.922524
  0
VERTEX
  8
PLAN_1
  6
CONTINUOUS
 10
0.490748
 20
-3.925480
  0
VERTEX
  8
PLAN_1
  6
CONTINUOUS
 10
0.483858
 20
-3.928433
  0
VERTEX
  8
PLAN_1
  6
CONTINUOUS
 10
0.477461
 20
-3.930402
  0
VERTEX
  8
PLAN_1
  6
CONTINUOUS
 10
0.471059
 20
-3.931878
  0
VERTEX
  8
PLAN_1
  6
CONTINUOUS
 10
0.460232
 20
-3.932862
  0
VERTEX
  8
PLAN_1
  6
CONTINUOUS
 10
0.452850
 20
-3.933354
  0
VERTEX
  8
PLAN_1
  6
CONTINUOUS
 10
0.444480
 20
-3.932862
  0
VERTEX
  8
PLAN_1
  6
CONTINUOUS
 10
0.435622
 20
-3.931878
  0
VERTEX
  8
PLAN_1
  6
CONTINUOUS
 10
0.427744
 20
-3.929909
  0
VERTEX
  8
PLAN_1
  6
CONTINUOUS
 10
0.419378
 20
-3.927449
  0
VERTEX
  8
PLAN_1
  6
CONTINUOUS
 10
0.411996
 20
-3.924004
  0
VERTEX
  8
PLAN_1
  6
CONTINUOUS
 10
0.404610
 20
-3.920063
  0
VERTEX
  8
PLAN_1
  6
CONTINUOUS
 10
0.397228
 20
-3.915142
  0
VERTEX
  8
PLAN_1
  6
CONTINUOUS
 10
0.390831
 20
-3.909236
  0
VERTEX
  8
PLAN_1
  6
CONTINUOUS
 10
0.387878
 20
-3.905791
  0
VERTEX
  8
PLAN_1
  6
CONTINUOUS
 10
0.384925
 20
-3.902346
  0
VERTEX
  8
PLAN_1
  6
CONTINUOUS
 10
0.381969
 20
-3.898406
  0
VERTEX
  8
PLAN_1
  6
CONTINUOUS
 10
0.379508
 20
-3.894469
  0
VERTEX
  8
PLAN_1
  6
CONTINUOUS
 10
0.377047
 20
-3.890531
  0
VERTEX
  8
PLAN_1
  6
CONTINUOUS
 10
0.374587
 20
-3.886102
  0
VERTEX
  8
PLAN_1
  6
CONTINUOUS
 10
0.372618
 20
-3.881181
  0
VERTEX
  8
PLAN_1
  6
CONTINUOUS
 10
0.370650
 20
-3.876256
  0
VERTEX
  8
PLAN_1
  6
CONTINUOUS
 10
0.369173
 20
-3.870843
  0
VERTEX
  8
PLAN_1
  6
CONTINUOUS
 10
0.367697
 20
-3.865429
  0
VERTEX
  8
PLAN_1
  6
CONTINUOUS
 10
0.366220
 20
-3.860016
  0
VERTEX
  8
PLAN_1
  6
CONTINUOUS
 10
0.365236
 20
-3.854110
  0
VERTEX
  8
PLAN_1
  6
CONTINUOUS
 10
0.364252
 20
-3.847709
  0
VERTEX
  8
PLAN_1
  6
CONTINUOUS
 10
0.363760
 20
-3.841311
  0
VERTEX
  8
PLAN_1
  6
CONTINUOUS
 10
0.363268
 20
-3.834421
  0
VERTEX
  8
PLAN_1
  6
CONTINUOUS
 10
0.363268
 20
-3.827528
  0
VERTEX
  8
PLAN_1
  6
CONTINUOUS
 10
0.363268
 20
-3.816209
  0
VERTEX
  8
PLAN_1
  6
CONTINUOUS
 10
0.364744
 20
-3.805378
  0
VERTEX
  8
PLAN_1
  6
CONTINUOUS
 10
0.366713
 20
-3.795043
  0
VERTEX
  8
PLAN_1
  6
CONTINUOUS
 10
0.369665
 20
-3.785201
  0
VERTEX
  8
PLAN_1
  6
CONTINUOUS
 10
0.373110
 20
-3.776339
  0
VERTEX
  8
PLAN_1
  6
CONTINUOUS
 10
0.377047
 20
-3.767480
  0
VERTEX
  8
PLAN_1
  6
CONTINUOUS
 10
0.381969
 20
-3.759602
  0
VERTEX
  8
PLAN_1
  6
CONTINUOUS
 10
0.387878
 20
-3.752220
  0
VERTEX
  8
PLAN_1
  6
CONTINUOUS
 10
0.390831
 20
-3.749268
  0
VERTEX
  8
PLAN_1
  6
CONTINUOUS
 10
0.394276
 20
-3.745823
  0
VERTEX
  8
PLAN_1
  6
CONTINUOUS
 10
0.397720
 20
-3.742870
  0
VERTEX
  8
PLAN_1
  6
CONTINUOUS
 10
0.401165
 20
-3.740409
  0
VERTEX
  8
PLAN_1
  6
CONTINUOUS
 10
0.405102
 20
-3.737453
  0
VERTEX
  8
PLAN_1
  6
CONTINUOUS
 10
0.408551
 20
-3.735484
  0
VERTEX
  8
PLAN_1
  6
CONTINUOUS
 10
0.412980
 20
-3.733024
  0
VERTEX
  8
PLAN_1
  6
CONTINUOUS
 10
0.416917
 20
-3.731055
  0
VERTEX
  8
PLAN_1
  6
CONTINUOUS
 10
0.421346
 20
-3.729579
  0
VERTEX
  8
PLAN_1
  6
CONTINUOUS
 10
0.425776
 20
-3.728102
  0
VERTEX
  8
PLAN_1
  6
CONTINUOUS
 10
0.430701
 20
-3.726626
  0
VERTEX
  8
PLAN_1
  6
CONTINUOUS
 10
0.435622
 20
-3.725642
  0
VERTEX
  8
PLAN_1
  6
CONTINUOUS
 10
0.440543
 20
-3.724657
  0
VERTEX
  8
PLAN_1
  6
CONTINUOUS
 10
0.445465
 20
-3.724165
  0
VERTEX
  8
PLAN_1
  6
CONTINUOUS
 10
0.450878
 20
-3.723673
  0
VERTEX
  8
PLAN_1
  6
CONTINUOUS
 10
0.455803
 20
-3.723673
  0
VERTEX
  8
PLAN_1
  6
CONTINUOUS
 10
0.465154
 20
-3.723673
  0
VERTEX
  8
PLAN_1
  6
CONTINUOUS
 10
0.474012
 20
-3.725150
  0
VERTEX
  8
PLAN_1
  6
CONTINUOUS
 10
0.482382
 20
-3.726626
  0
VERTEX
  8
PLAN_1
  6
CONTINUOUS
 10
0.489764
 20
-3.729087
  0
VERTEX
  8
PLAN_1
  6
CONTINUOUS
 10
0.497146
 20
-3.732039
  0
VERTEX
  8
PLAN_1
  6
CONTINUOUS
 10
0.503547
 20
-3.735484
  0
VERTEX
  8
PLAN_1
  6
CONTINUOUS
 10
0.509453
 20
-3.739425
  0
VERTEX
  8
PLAN_1
  6
CONTINUOUS
 10
0.514866
 20
-3.743854
  0
VERTEX
  8
PLAN_1
  6
CONTINUOUS
 10
0.519787
 20
-3.748283
  0
VERTEX
  8
PLAN_1
  6
CONTINUOUS
 10
0.523728
 20
-3.753697
  0
VERTEX
  8
PLAN_1
  6
CONTINUOUS
 10
0.527665
 20
-3.759110
  0
VERTEX
  8
PLAN_1
  6
CONTINUOUS
 10
0.530618
 20
-3.764528
  0
VERTEX
  8
PLAN_1
  6
CONTINUOUS
 10
0.533079
 20
-3.770433
  0
VERTEX
  8
PLAN_1
  6
CONTINUOUS
 10
0.535539
 20
-3.776339
  0
VERTEX
  8
PLAN_1
  6
CONTINUOUS
 10
0.537016
 20
-3.782736
  0
VERTEX
  8
PLAN_1
  6
CONTINUOUS
 10
0.538000
 20
-3.788646
  0
VERTEX
  8
PLAN_1
  6
CONTINUOUS
 10
0.511913
 20
-3.788646
  0
SEQEND
  8
0
  0
POLYLINE
  8
PLAN_1
  6
CONTINUOUS
 66
     1
 40
0.003000
 41
0.003000
  0
VERTEX
  8
PLAN_1
  6
CONTINUOUS
 10
0.599528
 20
-3.927941
  0
VERTEX
  8
PLAN_1
  6
CONTINUOUS
 10
0.572457
 20
-3.927941
  0
VERTEX
  8
PLAN_1
  6
CONTINUOUS
 10
0.572457
 20
-3.728594
  0
VERTEX
  8
PLAN_1
  6
CONTINUOUS
 10
0.599528
 20
-3.728594
  0
VERTEX
  8
PLAN_1
  6
CONTINUOUS
 10
0.599528
 20
-3.825559
  0
VERTEX
  8
PLAN_1
  6
CONTINUOUS
 10
0.696000
 20
-3.728594
  0
VERTEX
  8
PLAN_1
  6
CONTINUOUS
 10
0.732917
 20
-3.728594
  0
VERTEX
  8
PLAN_1
  6
CONTINUOUS
 10
0.650224
 20
-3.809319
  0
VERTEX
  8
PLAN_1
  6
CONTINUOUS
 10
0.735378
 20
-3.927941
  0
VERTEX
  8
PLAN_1
  6
CONTINUOUS
 10
0.700429
 20
-3.927941
  0
VERTEX
  8
PLAN_1
  6
CONTINUOUS
 10
0.630535
 20
-3.828020
  0
VERTEX
  8
PLAN_1
  6
CONTINUOUS
 10
0.599528
 20
-3.858047
  0
VERTEX
  8
PLAN_1
  6
CONTINUOUS
 10
0.599528
 20
-3.927941
  0
SEQEND
  8
0
  0
POLYLINE
  8
PLAN_1
  6
CONTINUOUS
 66
     1
 40
0.003000
 41
0.003000
  0
VERTEX
  8
PLAN_1
  6
CONTINUOUS
 10
0.766386
 20
-3.863953
  0
VERTEX
  8
PLAN_1
  6
CONTINUOUS
 10
0.766386
 20
-3.877736
  0
VERTEX
  8
PLAN_1
  6
CONTINUOUS
 10
0.766386
 20
-3.882165
  0
VERTEX
  8
PLAN_1
  6
CONTINUOUS
 10
0.766878
 20
-3.886102
  0
VERTEX
  8
PLAN_1
  6
CONTINUOUS
 10
0.767862
 20
-3.889547
  0
VERTEX
  8
PLAN_1
  6
CONTINUOUS
 10
0.768354
 20
-3.892992
  0
VERTEX
  8
PLAN_1
  6
CONTINUOUS
 10
0.769831
 20
-3.895945
  0
VERTEX
  8
PLAN_1
  6
CONTINUOUS
 10
0.770815
 20
-3.898406
  0
VERTEX
  8
PLAN_1
  6
CONTINUOUS
 10
0.772783
 20
-3.900870
  0
VERTEX
  8
PLAN_1
  6
CONTINUOUS
 10
0.774260
 20
-3.902839
  0
VERTEX
  8
PLAN_1
  6
CONTINUOUS
 10
0.776720
 20
-3.904807
  0
VERTEX
  8
PLAN_1
  6
CONTINUOUS
 10
0.778693
 20
-3.906283
  0
VERTEX
  8
PLAN_1
  6
CONTINUOUS
 10
0.781154
 20
-3.907760
  0
VERTEX
  8
PLAN_1
  6
CONTINUOUS
 10
0.784106
 20
-3.908744
  0
VERTEX
  8
PLAN_1
  6
CONTINUOUS
 10
0.790012
 20
-3.909728
  0
VERTEX
  8
PLAN_1
  6
CONTINUOUS
 10
0.796409
 20
-3.910220
  0
VERTEX
  8
PLAN_1
  6
CONTINUOUS
 10
0.800843
 20
-3.910220
  0
VERTEX
  8
PLAN_1
  6
CONTINUOUS
 10
0.804780
 20
-3.909728
  0
VERTEX
  8
PLAN_1
  6
CONTINUOUS
 10
0.808717
 20
-3.908744
  0
VERTEX
  8
PLAN_1
  6
CONTINUOUS
 10
0.812161
 20
-3.907760
  0
VERTEX
  8
PLAN_1
  6
CONTINUOUS
 10
0.815114
 20
-3.906283
  0
VERTEX
  8
PLAN_1
  6
CONTINUOUS
 10
0.817575
 20
-3.904315
  0
VERTEX
  8
PLAN_1
  6
CONTINUOUS
 10
0.820035
 20
-3.902839
  0
VERTEX
  8
PLAN_1
  6
CONTINUOUS
 10
0.822004
 20
-3.900378
  0
VERTEX
  8
PLAN_1
  6
CONTINUOUS
 10
0.823484
 20
-3.897913
  0
VERTEX
  8
PLAN_1
  6
CONTINUOUS
 10
0.824961
 20
-3.895453
  0
VERTEX
  8
PLAN_1
  6
CONTINUOUS
 10
0.825945
 20
-3.892500
  0
VERTEX
  8
PLAN_1
  6
CONTINUOUS
 10
0.826929
 20
-3.889547
  0
VERTEX
  8
PLAN_1
  6
CONTINUOUS
 10
0.827913
 20
-3.883150
  0
VERTEX
  8
PLAN_1
  6
CONTINUOUS
 10
0.828406
 20
-3.875764
  0
VERTEX
  8
PLAN_1
  6
CONTINUOUS
 10
0.828406
 20
-3.728594
  0
VERTEX
  8
PLAN_1
  6
CONTINUOUS
 10
0.855476
 20
-3.728594
  0
VERTEX
  8
PLAN_1
  6
CONTINUOUS
 10
0.855476
 20
-3.874287
  0
VERTEX
  8
PLAN_1
  6
CONTINUOUS
 10
0.854984
 20
-3.882657
  0
VERTEX
  8
PLAN_1
  6
CONTINUOUS
 10
0.854000
 20
-3.890039
  0
VERTEX
  8
PLAN_1
  6
CONTINUOUS
 10
0.852524
 20
-3.896929
  0
VERTEX
  8
PLAN_1
  6
CONTINUOUS
 10
0.850063
 20
-3.903331
  0
VERTEX
  8
PLAN_1
  6
CONTINUOUS
 10
0.847602
 20
-3.908744
  0
VERTEX
  8
PLAN_1
  6
CONTINUOUS
 10
0.844154
 20
-3.913665
  0
VERTEX
  8
PLAN_1
  6
CONTINUOUS
 10
0.840709
 20
-3.917602
  0
VERTEX
  8
PLAN_1
  6
CONTINUOUS
 10
0.836772
 20
-3.921047
  0
VERTEX
  8
PLAN_1
  6
CONTINUOUS
 10
0.832343
 20
-3.924496
  0
VERTEX
  8
PLAN_1
  6
CONTINUOUS
 10
0.827913
 20
-3.926957
  0
VERTEX
  8
PLAN_1
  6
CONTINUOUS
 10
0.822988
 20
-3.928925
  0
VERTEX
  8
PLAN_1
  6
CONTINUOUS
 10
0.818067
 20
-3.930894
  0
VERTEX
  8
PLAN_1
  6
CONTINUOUS
 10
0.813146
 20
-3.931878
  0
VERTEX
  8
PLAN_1
  6
CONTINUOUS
 10
0.808224
 20
-3.932862
  0
VERTEX
  8
PLAN_1
  6
CONTINUOUS
 10
0.802811
 20
-3.933354
  0
VERTEX
  8
PLAN_1
  6
CONTINUOUS
 10
0.797886
 20
-3.933354
  0
VERTEX
  8
PLAN_1
  6
CONTINUOUS
 10
0.789520
 20
-3.932862
  0
VERTEX
  8
PLAN_1
  6
CONTINUOUS
 10
0.782138
 20
-3.931878
  0
VERTEX
  8
PLAN_1
  6
CONTINUOUS
 10
0.775244
 20
-3.930402
  0
VERTEX
  8
PLAN_1
  6
CONTINUOUS
 10
0.769339
 20
-3.928433
  0
VERTEX
  8
PLAN_1
  6
CONTINUOUS
 10
0.764417
 20
-3.925480
  0
VERTEX
  8
PLAN_1
  6
CONTINUOUS
 10
0.759496
 20
-3.922524
  0
VERTEX
  8
PLAN_1
  6
CONTINUOUS
 10
0.755559
 20
-3.919079
  0
VERTEX
  8
PLAN_1
  6
CONTINUOUS
 10
0.752110
 20
-3.915634
  0
VERTEX
  8
PLAN_1
  6
CONTINUOUS
 10
0.749157
 20
-3.911697
  0
VERTEX
  8
PLAN_1
  6
CONTINUOUS
 10
0.746697
 20
-3.907760
  0
VERTEX
  8
PLAN_1
  6
CONTINUOUS
 10
0.745220
 20
-3.903331
  0
VERTEX
  8
PLAN_1
  6
CONTINUOUS
 10
0.743744
 20
-3.899390
  0
VERTEX
  8
PLAN_1
  6
CONTINUOUS
 10
0.742268
 20
-3.894961
  0
VERTEX
  8
PLAN_1
  6
CONTINUOUS
 10
0.741776
 20
-3.891024
  0
VERTEX
  8
PLAN_1
  6
CONTINUOUS
 10
0.741283
 20
-3.887087
  0
VERTEX
  8
PLAN_1
  6
CONTINUOUS
 10
0.741283
 20
-3.883642
  0
VERTEX
  8
PLAN_1
  6
CONTINUOUS
 10
0.741283
 20
-3.863953
  0
VERTEX
  8
PLAN_1
  6
CONTINUOUS
 10
0.766386
 20
-3.863953
  0
SEQEND
  8
0
  0
POLYLINE
  8
PLAN_1
  6
CONTINUOUS
 66
     1
 40
0.003000
 41
0.003000
  0
VERTEX
  8
PLAN_1
  6
CONTINUOUS
 10
0.991819
 20
-3.880689
  0
VERTEX
  8
PLAN_1
  6
CONTINUOUS
 10
0.991819
 20
-3.927941
  0
VERTEX
  8
PLAN_1
  6
CONTINUOUS
 10
0.967701
 20
-3.927941
  0
VERTEX
  8
PLAN_1
  6
CONTINUOUS
 10
0.967701
 20
-3.880689
  0
VERTEX
  8
PLAN_1
  6
CONTINUOUS
 10
0.882055
 20
-3.880689
  0
VERTEX
  8
PLAN_1
  6
CONTINUOUS
 10
0.882055
 20
-3.856571
  0
VERTEX
  8
PLAN_1
  6
CONTINUOUS
 10
0.971638
 20
-3.733024
  0
VERTEX
  8
PLAN_1
  6
CONTINUOUS
 10
0.991819
 20
-3.733024
  0
VERTEX
  8
PLAN_1
  6
CONTINUOUS
 10
0.991819
 20
-3.859524
  0
VERTEX
  8
PLAN_1
  6
CONTINUOUS
 10
1.020366
 20
-3.859524
  0
VERTEX
  8
PLAN_1
  6
CONTINUOUS
 10
1.020366
 20
-3.880689
  0
VERTEX
  8
PLAN_1
  6
CONTINUOUS
 10
0.991819
 20
-3.880689
  0
SEQEND
  8
0
  0
SOLID
  8
PLAN_1
 10
0.904697
 20
-3.859524
 11
0.967701
 21
-3.859524
 12
0.966717
 22
-3.770925
 13
0.967701
 23
-3.770925
  0
POLYLINE
  8
PLAN_1
  6
CONTINUOUS
 66
     1
 40
0.003000
 41
0.003000
  0
VERTEX
  8
PLAN_1
  6
CONTINUOUS
 10
0.904697
 20
-3.859524
  0
VERTEX
  8
PLAN_1
  6
CONTINUOUS
 10
0.967701
 20
-3.859524
  0
VERTEX
  8
PLAN_1
  6
CONTINUOUS
 10
0.967701
 20
-3.770925
  0
VERTEX
  8
PLAN_1
  6
CONTINUOUS
 10
0.966717
 20
-3.770925
  0
VERTEX
  8
PLAN_1
  6
CONTINUOUS
 10
0.904697
 20
-3.859524
  0
SEQEND
  8
0
  0
POLYLINE
  8
PLAN_1
  6
CONTINUOUS
 66
     1
 40
0.003000
 41
0.003000
  0
VERTEX
  8
PLAN_1
  6
CONTINUOUS
 10
1.129146
 20
-3.927941
  0
VERTEX
  8
PLAN_1
  6
CONTINUOUS
 10
1.103059
 20
-3.927941
  0
VERTEX
  8
PLAN_1
  6
CONTINUOUS
 10
1.103059
 20
-3.789630
  0
VERTEX
  8
PLAN_1
  6
CONTINUOUS
 10
1.057776
 20
-3.789630
  0
VERTEX
  8
PLAN_1
  6
CONTINUOUS
 10
1.057776
 20
-3.769941
  0
VERTEX
  8
PLAN_1
  6
CONTINUOUS
 10
1.068602
 20
-3.769449
  0
VERTEX
  8
PLAN_1
  6
CONTINUOUS
 10
1.077953
 20
-3.767972
  0
VERTEX
  8
PLAN_1
  6
CONTINUOUS
 10
1.082386
 20
-3.766988
  0
VERTEX
  8
PLAN_1
  6
CONTINUOUS
 10
1.086323
 20
-3.766004
  0
VERTEX
  8
PLAN_1
  6
CONTINUOUS
 10
1.089768
 20
-3.764528
  0
VERTEX
  8
PLAN_1
  6
CONTINUOUS
 10
1.092720
 20
-3.762559
  0
VERTEX
  8
PLAN_1
  6
CONTINUOUS
 10
1.095673
 20
-3.760587
  0
VERTEX
  8
PLAN_1
  6
CONTINUOUS
 10
1.098626
 20
-3.758126
  0
VERTEX
  8
PLAN_1
  6
CONTINUOUS
 10
1.101087
 20
-3.755173
  0
VERTEX
  8
PLAN_1
  6
CONTINUOUS
 10
1.103059
 20
-3.751728
  0
VERTEX
  8
PLAN_1
  6
CONTINUOUS
 10
1.105028
 20
-3.748283
  0
VERTEX
  8
PLAN_1
  6
CONTINUOUS
 10
1.106996
 20
-3.743854
  0
VERTEX
  8
PLAN_1
  6
CONTINUOUS
 10
1.108472
 20
-3.738441
  0
VERTEX
  8
PLAN_1
  6
CONTINUOUS
 10
1.109949
 20
-3.733024
  0
VERTEX
  8
PLAN_1
  6
CONTINUOUS
 10
1.129146
 20
-3.733024
  0
VERTEX
  8
PLAN_1
  6
CONTINUOUS
 10
1.129146
 20
-3.927941
  0
SEQEND
  8
0
  0
POLYLINE
  8
PLAN_1
  6
CONTINUOUS
 66
     1
 40
0.003000
 41
0.003000
  0
VERTEX
  8
PLAN_1
  6
CONTINUOUS
 10
1.261055
 20
-3.933354
  0
VERTEX
  8
PLAN_1
  6
CONTINUOUS
 10
1.256134
 20
-3.933354
  0
VERTEX
  8
PLAN_1
  6
CONTINUOUS
 10
1.251213
 20
-3.932862
  0
VERTEX
  8
PLAN_1
  6
CONTINUOUS
 10
1.246783
 20
-3.931878
  0
VERTEX
  8
PLAN_1
  6
CONTINUOUS
 10
1.242354
 20
-3.930894
  0
VERTEX
  8
PLAN_1
  6
CONTINUOUS
 10
1.237921
 20
-3.929417
  0
VERTEX
  8
PLAN_1
  6
CONTINUOUS
 10
1.233984
 20
-3.927449
  0
VERTEX
  8
PLAN_1
  6
CONTINUOUS
 10
1.230539
 20
-3.925480
  0
VERTEX
  8
PLAN_1
  6
CONTINUOUS
 10
1.227094
 20
-3.923512
  0
VERTEX
  8
PLAN_1
  6
CONTINUOUS
 10
1.223650
 20
-3.921047
  0
VERTEX
  8
PLAN_1
  6
CONTINUOUS
 10
1.220697
 20
-3.918094
  0
VERTEX
  8
PLAN_1
  6
CONTINUOUS
 10
1.218236
 20
-3.915634
  0
VERTEX
  8
PLAN_1
  6
CONTINUOUS
 10
1.215280
 20
-3.912189
  0
VERTEX
  8
PLAN_1
  6
CONTINUOUS
 10
1.210850
 20
-3.905791
  0
VERTEX
  8
PLAN_1
  6
CONTINUOUS
 10
1.206913
 20
-3.898406
  0
VERTEX
  8
PLAN_1
  6
CONTINUOUS
 10
1.203469
 20
-3.890531
  0
VERTEX
  8
PLAN_1
  6
CONTINUOUS
 10
1.200516
 20
-3.882657
  0
VERTEX
  8
PLAN_1
  6
CONTINUOUS
 10
1.198547
 20
-3.874287
  0
VERTEX
  8
PLAN_1
  6
CONTINUOUS
 10
1.197071
 20
-3.865921
  0
VERTEX
  8
PLAN_1
  6
CONTINUOUS
 10
1.195594
 20
-3.857555
  0
VERTEX
  8
PLAN_1
  6
CONTINUOUS
 10
1.195102
 20
-3.849185
  0
VERTEX
  8
PLAN_1
  6
CONTINUOUS
 10
1.194610
 20
-3.840819
  0
VERTEX
  8
PLAN_1
  6
CONTINUOUS
 10
1.194118
 20
-3.832945
  0
VERTEX
  8
PLAN_1
  6
CONTINUOUS
 10
1.194610
 20
-3.825559
  0
VERTEX
  8
PLAN_1
  6
CONTINUOUS
 10
1.195102
 20
-3.817193
  0
VERTEX
  8
PLAN_1
  6
CONTINUOUS
 10
1.195594
 20
-3.808827
  0
VERTEX
  8
PLAN_1
  6
CONTINUOUS
 10
1.197071
 20
-3.800457
  0
VERTEX
  8
PLAN_1
  6
CONTINUOUS
 10
1.198547
 20
-3.792091
  0
VERTEX
  8
PLAN_1
  6
CONTINUOUS
 10
1.200516
 20
-3.783720
  0
VERTEX
  8
PLAN_1
  6
CONTINUOUS
 10
1.203469
 20
-3.775846
  0
VERTEX
  8
PLAN_1
  6
CONTINUOUS
 10
1.206913
 20
-3.767972
  0
VERTEX
  8
PLAN_1
  6
CONTINUOUS
 10
1.210850
 20
-3.760587
  0
VERTEX
  8
PLAN_1
  6
CONTINUOUS
 10
1.215280
 20
-3.754189
  0
VERTEX
  8
PLAN_1
  6
CONTINUOUS
 10
1.218236
 20
-3.750744
  0
VERTEX
  8
PLAN_1
  6
CONTINUOUS
 10
1.220697
 20
-3.748283
  0
VERTEX
  8
PLAN_1
  6
CONTINUOUS
 10
1.223650
 20
-3.745331
  0
VERTEX
  8
PLAN_1
  6
CONTINUOUS
 10
1.227094
 20
-3.742870
  0
VERTEX
  8
PLAN_1
  6
CONTINUOUS
 10
1.230539
 20
-3.740902
  0
VERTEX
  8
PLAN_1
  6
CONTINUOUS
 10
1.233984
 20
-3.738933
  0
VERTEX
  8
PLAN_1
  6
CONTINUOUS
 10
1.237921
 20
-3.736961
  0
VERTEX
  8
PLAN_1
  6
CONTINUOUS
 10
1.242354
 20
-3.735484
  0
VERTEX
  8
PLAN_1
  6
CONTINUOUS
 10
1.246783
 20
-3.734500
  0
VERTEX
  8
PLAN_1
  6
CONTINUOUS
 10
1.251213
 20
-3.733516
  0
VERTEX
  8
PLAN_1
  6
CONTINUOUS
 10
1.256134
 20
-3.733024
  0
VERTEX
  8
PLAN_1
  6
CONTINUOUS
 10
1.261055
 20
-3.733024
  0
VERTEX
  8
PLAN_1
  6
CONTINUOUS
 10
1.266472
 20
-3.733024
  0
VERTEX
  8
PLAN_1
  6
CONTINUOUS
 10
1.271394
 20
-3.733516
  0
VERTEX
  8
PLAN_1
  6
CONTINUOUS
 10
1.275823
 20
-3.734500
  0
VERTEX
  8
PLAN_1
  6
CONTINUOUS
 10
1.280252
 20
-3.735484
  0
VERTEX
  8
PLAN_1
  6
CONTINUOUS
 10
1.284189
 20
-3.736961
  0
VERTEX
  8
PLAN_1
  6
CONTINUOUS
 10
1.288130
 20
-3.738933
  0
VERTEX
  8
PLAN_1
  6
CONTINUOUS
 10
1.292067
 20
-3.740902
  0
VERTEX
  8
PLAN_1
  6
CONTINUOUS
 10
1.295512
 20
-3.742870
  0
VERTEX
  8
PLAN_1
  6
CONTINUOUS
 10
1.298465
 20
-3.745331
  0
VERTEX
  8
PLAN_1
  6
CONTINUOUS
 10
1.301417
 20
-3.748283
  0
VERTEX
  8
PLAN_1
  6
CONTINUOUS
 10
1.304370
 20
-3.750744
  0
VERTEX
  8
PLAN_1
  6
CONTINUOUS
 10
1.306831
 20
-3.754189
  0
VERTEX
  8
PLAN_1
  6
CONTINUOUS
 10
1.311756
 20
-3.760587
  0
VERTEX
  8
PLAN_1
  6
CONTINUOUS
 10
1.315693
 20
-3.767972
  0
VERTEX
  8
PLAN_1
  6
CONTINUOUS
 10
1.319138
 20
-3.775846
  0
VERTEX
  8
PLAN_1
  6
CONTINUOUS
 10
1.321598
 20
-3.783720
  0
VERTEX
  8
PLAN_1
  6
CONTINUOUS
 10
1.324059
 20
-3.792091
  0
VERTEX
  8
PLAN_1
  6
CONTINUOUS
 10
1.325535
 20
-3.800457
  0
VERTEX
  8
PLAN_1
  6
CONTINUOUS
 10
1.326520
 20
-3.808827
  0
VERTEX
  8
PLAN_1
  6
CONTINUOUS
 10
1.327504
 20
-3.817193
  0
VERTEX
  8
PLAN_1
  6
CONTINUOUS
 10
1.327996
 20
-3.825559
  0
VERTEX
  8
PLAN_1
  6
CONTINUOUS
 10
1.327996
 20
-3.832945
  0
VERTEX
  8
PLAN_1
  6
CONTINUOUS
 10
1.327996
 20
-3.840819
  0
VERTEX
  8
PLAN_1
  6
CONTINUOUS
 10
1.327504
 20
-3.849185
  0
VERTEX
  8
PLAN_1
  6
CONTINUOUS
 10
1.326520
 20
-3.857555
  0
VERTEX
  8
PLAN_1
  6
CONTINUOUS
 10
1.325535
 20
-3.865921
  0
VERTEX
  8
PLAN_1
  6
CONTINUOUS
 10
1.324059
 20
-3.874287
  0
VERTEX
  8
PLAN_1
  6
CONTINUOUS
 10
1.321598
 20
-3.882657
  0
VERTEX
  8
PLAN_1
  6
CONTINUOUS
 10
1.319138
 20
-3.890531
  0
VERTEX
  8
PLAN_1
  6
CONTINUOUS
 10
1.315693
 20
-3.898406
  0
VERTEX
  8
PLAN_1
  6
CONTINUOUS
 10
1.311756
 20
-3.905791
  0
VERTEX
  8
PLAN_1
  6
CONTINUOUS
 10
1.306831
 20
-3.912189
  0
VERTEX
  8
PLAN_1
  6
CONTINUOUS
 10
1.304370
 20
-3.915634
  0
VERTEX
  8
PLAN_1
  6
CONTINUOUS
 10
1.301417
 20
-3.918094
  0
VERTEX
  8
PLAN_1
  6
CONTINUOUS
 10
1.298465
 20
-3.921047
  0
VERTEX
  8
PLAN_1
  6
CONTINUOUS
 10
1.295512
 20
-3.923512
  0
VERTEX
  8
PLAN_1
  6
CONTINUOUS
 10
1.292067
 20
-3.925480
  0
VERTEX
  8
PLAN_1
  6
CONTINUOUS
 10
1.288130
 20
-3.927449
  0
VERTEX
  8
PLAN_1
  6
CONTINUOUS
 10
1.284189
 20
-3.929417
  0
VERTEX
  8
PLAN_1
  6
CONTINUOUS
 10
1.280252
 20
-3.930894
  0
VERTEX
  8
PLAN_1
  6
CONTINUOUS
 10
1.275823
 20
-3.931878
  0
VERTEX
  8
PLAN_1
  6
CONTINUOUS
 10
1.271394
 20
-3.932862
  0
VERTEX
  8
PLAN_1
  6
CONTINUOUS
 10
1.266472
 20
-3.933354
  0
VERTEX
  8
PLAN_1
  6
CONTINUOUS
 10
1.261055
 20
-3.933354
  0
SEQEND
  8
0
  0
POLYLINE
  8
PLAN_1
  6
CONTINUOUS
 66
     1
 40
0.003000
 41
0.003000
  0
VERTEX
  8
PLAN_1
  6
CONTINUOUS
 10
1.261055
 20
-3.754681
  0
VERTEX
  8
PLAN_1
  6
CONTINUOUS
 10
1.256134
 20
-3.755173
  0
VERTEX
  8
PLAN_1
  6
CONTINUOUS
 10
1.251213
 20
-3.756157
  0
VERTEX
  8
PLAN_1
  6
CONTINUOUS
 10
1.246783
 20
-3.758126
  0
VERTEX
  8
PLAN_1
  6
CONTINUOUS
 10
1.242846
 20
-3.760094
  0
VERTEX
  8
PLAN_1
  6
CONTINUOUS
 10
1.239398
 20
-3.763051
  0
VERTEX
  8
PLAN_1
  6
CONTINUOUS
 10
1.235953
 20
-3.766988
  0
VERTEX
  8
PLAN_1
  6
CONTINUOUS
 10
1.233000
 20
-3.770925
  0
VERTEX
  8
PLAN_1
  6
CONTINUOUS
 10
1.230539
 20
-3.775846
  0
VERTEX
  8
PLAN_1
  6
CONTINUOUS
 10
1.228079
 20
-3.781260
  0
VERTEX
  8
PLAN_1
  6
CONTINUOUS
 10
1.226110
 20
-3.787169
  0
VERTEX
  8
PLAN_1
  6
CONTINUOUS
 10
1.224142
 20
-3.793567
  0
VERTEX
  8
PLAN_1
  6
CONTINUOUS
 10
1.222665
 20
-3.800457
  0
VERTEX
  8
PLAN_1
  6
CONTINUOUS
 10
1.221681
 20
-3.807843
  0
VERTEX
  8
PLAN_1
  6
CONTINUOUS
 10
1.221189
 20
-3.815717
  0
VERTEX
  8
PLAN_1
  6
CONTINUOUS
 10
1.220697
 20
-3.824083
  0
VERTEX
  8
PLAN_1
  6
CONTINUOUS
 10
1.220205
 20
-3.832945
  0
VERTEX
  8
PLAN_1
  6
CONTINUOUS
 10
1.220697
 20
-3.842295
  0
VERTEX
  8
PLAN_1
  6
CONTINUOUS
 10
1.221189
 20
-3.850661
  0
VERTEX
  8
PLAN_1
  6
CONTINUOUS
 10
1.221681
 20
-3.858539
  0
VERTEX
  8
PLAN_1
  6
CONTINUOUS
 10
1.222665
 20
-3.865921
  0
VERTEX
  8
PLAN_1
  6
CONTINUOUS
 10
1.224142
 20
-3.872811
  0
VERTEX
  8
PLAN_1
  6
CONTINUOUS
 10
1.226110
 20
-3.879213
  0
VERTEX
  8
PLAN_1
  6
CONTINUOUS
 10
1.228079
 20
-3.885118
  0
VERTEX
  8
PLAN_1
  6
CONTINUOUS
 10
1.230539
 20
-3.890531
  0
VERTEX
  8
PLAN_1
  6
CONTINUOUS
 10
1.233000
 20
-3.895453
  0
VERTEX
  8
PLAN_1
  6
CONTINUOUS
 10
1.235953
 20
-3.899390
  0
VERTEX
  8
PLAN_1
  6
CONTINUOUS
 10
1.239398
 20
-3.903331
  0
VERTEX
  8
PLAN_1
  6
CONTINUOUS
 10
1.242846
 20
-3.906283
  0
VERTEX
  8
PLAN_1
  6
CONTINUOUS
 10
1.246783
 20
-3.908252
  0
VERTEX
  8
PLAN_1
  6
CONTINUOUS
 10
1.251213
 20
-3.910220
  0
VERTEX
  8
PLAN_1
  6
CONTINUOUS
 10
1.256134
 20
-3.911205
  0
VERTEX
  8
PLAN_1
  6
CONTINUOUS
 10
1.261055
 20
-3.911205
  0
VERTEX
  8
PLAN_1
  6
CONTINUOUS
 10
1.266472
 20
-3.911205
  0
VERTEX
  8
PLAN_1
  6
CONTINUOUS
 10
1.270902
 20
-3.910220
  0
VERTEX
  8
PLAN_1
  6
CONTINUOUS
 10
1.275331
 20
-3.908252
  0
VERTEX
  8
PLAN_1
  6
CONTINUOUS
 10
1.279268
 20
-3.906283
  0
VERTEX
  8
PLAN_1
  6
CONTINUOUS
 10
1.283205
 20
-3.903331
  0
VERTEX
  8
PLAN_1
  6
CONTINUOUS
 10
1.286650
 20
-3.899390
  0
VERTEX
  8
PLAN_1
  6
CONTINUOUS
 10
1.289606
 20
-3.895453
  0
VERTEX
  8
PLAN_1
  6
CONTINUOUS
 10
1.292067
 20
-3.890531
  0
VERTEX
  8
PLAN_1
  6
CONTINUOUS
 10
1.294528
 20
-3.885118
  0
VERTEX
  8
PLAN_1
  6
CONTINUOUS
 10
1.296496
 20
-3.879213
  0
VERTEX
  8
PLAN_1
  6
CONTINUOUS
 10
1.297972
 20
-3.872811
  0
VERTEX
  8
PLAN_1
  6
CONTINUOUS
 10
1.299449
 20
-3.865921
  0
VERTEX
  8
PLAN_1
  6
CONTINUOUS
 10
1.300433
 20
-3.858539
  0
VERTEX
  8
PLAN_1
  6
CONTINUOUS
 10
1.301417
 20
-3.850661
  0
VERTEX
  8
PLAN_1
  6
CONTINUOUS
 10
1.301909
 20
-3.842295
  0
VERTEX
  8
PLAN_1
  6
CONTINUOUS
 10
1.301909
 20
-3.832945
  0
VERTEX
  8
PLAN_1
  6
CONTINUOUS
 10
1.301909
 20
-3.824083
  0
VERTEX
  8
PLAN_1
  6
CONTINUOUS
 10
1.301417
 20
-3.815717
  0
VERTEX
  8
PLAN_1
  6
CONTINUOUS
 10
1.300433
 20
-3.807843
  0
VERTEX
  8
PLAN_1
  6
CONTINUOUS
 10
1.299449
 20
-3.800457
  0
VERTEX
  8
PLAN_1
  6
CONTINUOUS
 10
1.297972
 20
-3.793567
  0
VERTEX
  8
PLAN_1
  6
CONTINUOUS
 10
1.296496
 20
-3.787169
  0
VERTEX
  8
PLAN_1
  6
CONTINUOUS
 10
1.294528
 20
-3.781260
  0
VERTEX
  8
PLAN_1
  6
CONTINUOUS
 10
1.292067
 20
-3.775846
  0
VERTEX
  8
PLAN_1
  6
CONTINUOUS
 10
1.289606
 20
-3.770925
  0
VERTEX
  8
PLAN_1
  6
CONTINUOUS
 10
1.286650
 20
-3.766988
  0
VERTEX
  8
PLAN_1
  6
CONTINUOUS
 10
1.283205
 20
-3.763051
  0
VERTEX
  8
PLAN_1
  6
CONTINUOUS
 10
1.279268
 20
-3.760094
  0
VERTEX
  8
PLAN_1
  6
CONTINUOUS
 10
1.275331
 20
-3.758126
  0
VERTEX
  8
PLAN_1
  6
CONTINUOUS
 10
1.270902
 20
-3.756157
  0
VERTEX
  8
PLAN_1
  6
CONTINUOUS
 10
1.266472
 20
-3.755173
  0
VERTEX
  8
PLAN_1
  6
CONTINUOUS
 10
1.261055
 20
-3.754681
  0
SEQEND
  8
0
  0
POLYLINE
  8
PLAN_1
  6
CONTINUOUS
 66
     1
 40
0.003000
 41
0.003000
  0
VERTEX
  8
PLAN_1
  6
CONTINUOUS
 10
1.389031
 20
-3.927941
  0
VERTEX
  8
PLAN_1
  6
CONTINUOUS
 10
1.362453
 20
-3.927941
  0
VERTEX
  8
PLAN_1
  6
CONTINUOUS
 10
1.362453
 20
-3.728594
  0
VERTEX
  8
PLAN_1
  6
CONTINUOUS
 10
1.500272
 20
-3.728594
  0
VERTEX
  8
PLAN_1
  6
CONTINUOUS
 10
1.500272
 20
-3.752713
  0
VERTEX
  8
PLAN_1
  6
CONTINUOUS
 10
1.389031
 20
-3.752713
  0
VERTEX
  8
PLAN_1
  6
CONTINUOUS
 10
1.389031
 20
-3.813748
  0
VERTEX
  8
PLAN_1
  6
CONTINUOUS
 10
1.486980
 20
-3.813748
  0
VERTEX
  8
PLAN_1
  6
CONTINUOUS
 10
1.486980
 20
-3.837374
  0
VERTEX
  8
PLAN_1
  6
CONTINUOUS
 10
1.389031
 20
-3.837374
  0
VERTEX
  8
PLAN_1
  6
CONTINUOUS
 10
1.389031
 20
-3.927941
  0
SEQEND
  8
0
  0
SOLID
  8
PLAN_1
 10
1.519469
 20
-3.927941
 11
1.490425
 21
-3.927941
 12
1.519469
 22
-3.898898
 13
1.490425
 23
-3.898898
  0
POLYLINE
  8
PLAN_1
  6
CONTINUOUS
 66
     1
 40
0.003000
 41
0.003000
  0
VERTEX
  8
PLAN_1
  6
CONTINUOUS
 10
1.519469
 20
-3.927941
  0
VERTEX
  8
PLAN_1
  6
CONTINUOUS
 10
1.490425
 20
-3.927941
  0
VERTEX
  8
PLAN_1
  6
CONTINUOUS
 10
1.490425
 20
-3.898898
  0
VERTEX
  8
PLAN_1
  6
CONTINUOUS
 10
1.519469
 20
-3.898898
  0
VERTEX
  8
PLAN_1
  6
CONTINUOUS
 10
1.519469
 20
-3.927941
  0
SEQEND
  8
0
  0
POLYLINE
  8
PLAN_1
  6
CONTINUOUS
 66
     1
 40
0.003000
 41
0.003000
  0
VERTEX
  8
PLAN_1
  6
CONTINUOUS
 10
1.714382
 20
-3.927941
  0
VERTEX
  8
PLAN_1
  6
CONTINUOUS
 10
1.567213
 20
-3.927941
  0
VERTEX
  8
PLAN_1
  6
CONTINUOUS
 10
1.567213
 20
-3.728594
  0
VERTEX
  8
PLAN_1
  6
CONTINUOUS
 10
1.712413
 20
-3.728594
  0
VERTEX
  8
PLAN_1
  6
CONTINUOUS
 10
1.712413
 20
-3.752713
  0
VERTEX
  8
PLAN_1
  6
CONTINUOUS
 10
1.594283
 20
-3.752713
  0
VERTEX
  8
PLAN_1
  6
CONTINUOUS
 10
1.594283
 20
-3.813748
  0
VERTEX
  8
PLAN_1
  6
CONTINUOUS
 10
1.703551
 20
-3.813748
  0
VERTEX
  8
PLAN_1
  6
CONTINUOUS
 10
1.703551
 20
-3.837374
  0
VERTEX
  8
PLAN_1
  6
CONTINUOUS
 10
1.594283
 20
-3.837374
  0
VERTEX
  8
PLAN_1
  6
CONTINUOUS
 10
1.594283
 20
-3.904315
  0
VERTEX
  8
PLAN_1
  6
CONTINUOUS
 10
1.714382
 20
-3.904315
  0
VERTEX
  8
PLAN_1
  6
CONTINUOUS
 10
1.714382
 20
-3.927941
  0
SEQEND
  8
0
  0
POLYLINE
  8
PLAN_1
  6
CONTINUOUS
 66
     1
 40
0.003000
 41
0.003000
  0
VERTEX
  8
PLAN_1
  6
CONTINUOUS
 10
1.779354
 20
-3.927941
  0
VERTEX
  8
PLAN_1
  6
CONTINUOUS
 10
1.752776
 20
-3.927941
  0
VERTEX
  8
PLAN_1
  6
CONTINUOUS
 10
1.752776
 20
-3.728594
  0
VERTEX
  8
PLAN_1
  6
CONTINUOUS
 10
1.842354
 20
-3.728594
  0
VERTEX
  8
PLAN_1
  6
CONTINUOUS
 10
1.848756
 20
-3.729087
  0
VERTEX
  8
PLAN_1
  6
CONTINUOUS
 10
1.855154
 20
-3.730071
  0
VERTEX
  8
PLAN_1
  6
CONTINUOUS
 10
1.861551
 20
-3.731055
  0
VERTEX
  8
PLAN_1
  6
CONTINUOUS
 10
1.866969
 20
-3.733024
  0
VERTEX
  8
PLAN_1
  6
CONTINUOUS
 10
1.872382
 20
-3.735484
  0
VERTEX
  8
PLAN_1
  6
CONTINUOUS
 10
1.877303
 20
-3.737949
  0
VERTEX
  8
PLAN_1
  6
CONTINUOUS
 10
1.881732
 20
-3.741394
  0
VERTEX
  8
PLAN_1
  6
CONTINUOUS
 10
1.885669
 20
-3.744839
  0
VERTEX
  8
PLAN_1
  6
CONTINUOUS
 10
1.889118
 20
-3.748776
  0
VERTEX
  8
PLAN_1
  6
CONTINUOUS
 10
1.892563
 20
-3.753205
  0
VERTEX
  8
PLAN_1
  6
CONTINUOUS
 10
1.895024
 20
-3.757634
  0
VERTEX
  8
PLAN_1
  6
CONTINUOUS
 10
1.897484
 20
-3.762559
  0
VERTEX
  8
PLAN_1
  6
CONTINUOUS
 10
1.898961
 20
-3.767972
  0
VERTEX
  8
PLAN_1
  6
CONTINUOUS
 10
1.900437
 20
-3.773386
  0
VERTEX
  8
PLAN_1
  6
CONTINUOUS
 10
1.900929
 20
-3.778799
  0
VERTEX
  8
PLAN_1
  6
CONTINUOUS
 10
1.901421
 20
-3.784709
  0
VERTEX
  8
PLAN_1
  6
CONTINUOUS
 10
1.900929
 20
-3.790122
  0
VERTEX
  8
PLAN_1
  6
CONTINUOUS
 10
1.900437
 20
-3.795535
  0
VERTEX
  8
PLAN_1
  6
CONTINUOUS
 10
1.899453
 20
-3.800457
  0
VERTEX
  8
PLAN_1
  6
CONTINUOUS
 10
1.897976
 20
-3.805870
  0
VERTEX
  8
PLAN_1
  6
CONTINUOUS
 10
1.896500
 20
-3.810795
  0
VERTEX
  8
PLAN_1
  6
CONTINUOUS
 10
1.894039
 20
-3.815717
  0
VERTEX
  8
PLAN_1
  6
CONTINUOUS
 10
1.891087
 20
-3.820638
  0
VERTEX
  8
PLAN_1
  6
CONTINUOUS
 10
1.888130
 20
-3.825067
  0
VERTEX
  8
PLAN_1
  6
CONTINUOUS
 10
1.884193
 20
-3.829004
  0
VERTEX
  8
PLAN_1
  6
CONTINUOUS
 10
1.879764
 20
-3.832453
  0
VERTEX
  8
PLAN_1
  6
CONTINUOUS
 10
1.875335
 20
-3.835898
  0
VERTEX
  8
PLAN_1
  6
CONTINUOUS
 10
1.869921
 20
-3.838850
  0
VERTEX
  8
PLAN_1
  6
CONTINUOUS
 10
1.864012
 20
-3.840819
  0
VERTEX
  8
PLAN_1
  6
CONTINUOUS
 10
1.857122
 20
-3.842787
  0
VERTEX
  8
PLAN_1
  6
CONTINUOUS
 10
1.850232
 20
-3.843772
  0
VERTEX
  8
PLAN_1
  6
CONTINUOUS
 10
1.842354
 20
-3.843772
  0
VERTEX
  8
PLAN_1
  6
CONTINUOUS
 10
1.779354
 20
-3.843772
  0
VERTEX
  8
PLAN_1
  6
CONTINUOUS
 10
1.779354
 20
-3.927941
  0
SEQEND
  8
0
  0
POLYLINE
  8
PLAN_1
  6
CONTINUOUS
 66
     1
 40
0.003000
 41
0.003000
  0
VERTEX
  8
PLAN_1
  6
CONTINUOUS
 10
1.779354
 20
-3.821130
  0
VERTEX
  8
PLAN_1
  6
CONTINUOUS
 10
1.833004
 20
-3.821130
  0
VERTEX
  8
PLAN_1
  6
CONTINUOUS
 10
1.837433
 20
-3.820638
  0
VERTEX
  8
PLAN_1
  6
CONTINUOUS
 10
1.841862
 20
-3.820638
  0
VERTEX
  8
PLAN_1
  6
CONTINUOUS
 10
1.845803
 20
-3.820146
  0
VERTEX
  8
PLAN_1
  6
CONTINUOUS
 10
1.849740
 20
-3.819161
  0
VERTEX
  8
PLAN_1
  6
CONTINUOUS
 10
1.853185
 20
-3.818177
  0
VERTEX
  8
PLAN_1
  6
CONTINUOUS
 10
1.856630
 20
-3.816701
  0
VERTEX
  8
PLAN_1
  6
CONTINUOUS
 10
1.859583
 20
-3.815224
  0
VERTEX
  8
PLAN_1
  6
CONTINUOUS
 10
1.862535
 20
-3.813256
  0
VERTEX
  8
PLAN_1
  6
CONTINUOUS
 10
1.864996
 20
-3.810795
  0
VERTEX
  8
PLAN_1
  6
CONTINUOUS
 10
1.866969
 20
-3.808335
  0
VERTEX
  8
PLAN_1
  6
CONTINUOUS
 10
1.868937
 20
-3.805378
  0
VERTEX
  8
PLAN_1
  6
CONTINUOUS
 10
1.870906
 20
-3.801933
  0
VERTEX
  8
PLAN_1
  6
CONTINUOUS
 10
1.871890
 20
-3.798488
  0
VERTEX
  8
PLAN_1
  6
CONTINUOUS
 10
1.872874
 20
-3.794551
  0
VERTEX
  8
PLAN_1
  6
CONTINUOUS
 10
1.873366
 20
-3.790122
  0
VERTEX
  8
PLAN_1
  6
CONTINUOUS
 10
1.873366
 20
-3.785201
  0
VERTEX
  8
PLAN_1
  6
CONTINUOUS
 10
1.873366
 20
-3.780768
  0
VERTEX
  8
PLAN_1
  6
CONTINUOUS
 10
1.872874
 20
-3.776339
  0
VERTEX
  8
PLAN_1
  6
CONTINUOUS
 10
1.871890
 20
-3.772894
  0
VERTEX
  8
PLAN_1
  6
CONTINUOUS
 10
1.870413
 20
-3.769449
  0
VERTEX
  8
PLAN_1
  6
CONTINUOUS
 10
1.868937
 20
-3.766496
  0
VERTEX
  8
PLAN_1
  6
CONTINUOUS
 10
1.866969
 20
-3.763543
  0
VERTEX
  8
PLAN_1
  6
CONTINUOUS
 10
1.864504
 20
-3.761083
  0
VERTEX
  8
PLAN_1
  6
CONTINUOUS
 10
1.862043
 20
-3.759110
  0
VERTEX
  8
PLAN_1
  6
CONTINUOUS
 10
1.859583
 20
-3.757142
  0
VERTEX
  8
PLAN_1
  6
CONTINUOUS
 10
1.856630
 20
-3.755665
  0
VERTEX
  8
PLAN_1
  6
CONTINUOUS
 10
1.853185
 20
-3.754681
  0
VERTEX
  8
PLAN_1
  6
CONTINUOUS
 10
1.849740
 20
-3.753697
  0
VERTEX
  8
PLAN_1
  6
CONTINUOUS
 10
1.842354
 20
-3.752220
  0
VERTEX
  8
PLAN_1
  6
CONTINUOUS
 10
1.833988
 20
-3.751728
  0
VERTEX
  8
PLAN_1
  6
CONTINUOUS
 10
1.779354
 20
-3.751728
  0
VERTEX
  8
PLAN_1
  6
CONTINUOUS
 10
1.779354
 20
-3.821130
  0
SEQEND
  8
0
  0
POLYLINE
  8
PLAN_1
  6
CONTINUOUS
 66
     1
 40
0.003000
 41
0.003000
  0
VERTEX
  8
PLAN_1
  6
CONTINUOUS
 10
2.054992
 20
-3.787169
  0
VERTEX
  8
PLAN_1
  6
CONTINUOUS
 10
2.054500
 20
-3.781752
  0
VERTEX
  8
PLAN_1
  6
CONTINUOUS
 10
2.053516
 20
-3.776339
  0
VERTEX
  8
PLAN_1
  6
CONTINUOUS
 10
2.052039
 20
-3.771909
  0
VERTEX
  8
PLAN_1
  6
CONTINUOUS
 10
2.050067
 20
-3.767972
  0
VERTEX
  8
PLAN_1
  6
CONTINUOUS
 10
2.047606
 20
-3.764035
  0
VERTEX
  8
PLAN_1
  6
CONTINUOUS
 10
2.044654
 20
-3.760587
  0
VERTEX
  8
PLAN_1
  6
CONTINUOUS
 10
2.041701
 20
-3.757634
  0
VERTEX
  8
PLAN_1
  6
CONTINUOUS
 10
2.038256
 20
-3.755173
  0
VERTEX
  8
PLAN_1
  6
CONTINUOUS
 10
2.034811
 20
-3.753205
  0
VERTEX
  8
PLAN_1
  6
CONTINUOUS
 10
2.030874
 20
-3.751236
  0
VERTEX
  8
PLAN_1
  6
CONTINUOUS
 10
2.026933
 20
-3.749760
  0
VERTEX
  8
PLAN_1
  6
CONTINUOUS
 10
2.022996
 20
-3.748776
  0
VERTEX
  8
PLAN_1
  6
CONTINUOUS
 10
2.018567
 20
-3.747791
  0
VERTEX
  8
PLAN_1
  6
CONTINUOUS
 10
2.014138
 20
-3.747299
  0
VERTEX
  8
PLAN_1
  6
CONTINUOUS
 10
2.010201
 20
-3.746807
  0
VERTEX
  8
PLAN_1
  6
CONTINUOUS
 10
2.005772
 20
-3.746807
  0
VERTEX
  8
PLAN_1
  6
CONTINUOUS
 10
1.998878
 20
-3.746807
  0
VERTEX
  8
PLAN_1
  6
CONTINUOUS
 10
1.991496
 20
-3.747791
  0
VERTEX
  8
PLAN_1
  6
CONTINUOUS
 10
1.987559
 20
-3.748776
  0
VERTEX
  8
PLAN_1
  6
CONTINUOUS
 10
1.984114
 20
-3.749760
  0
VERTEX
  8
PLAN_1
  6
CONTINUOUS
 10
1.980173
 20
-3.751236
  0
VERTEX
  8
PLAN_1
  6
CONTINUOUS
 10
1.976728
 20
-3.752713
  0
VERTEX
  8
PLAN_1
  6
CONTINUOUS
 10
1.973283
 20
-3.754681
  0
VERTEX
  8
PLAN_1
  6
CONTINUOUS
 10
1.970331
 20
-3.757142
  0
VERTEX
  8
PLAN_1
  6
CONTINUOUS
 10
1.967378
 20
-3.760094
  0
VERTEX
  8
PLAN_1
  6
CONTINUOUS
 10
1.964917
 20
-3.763543
  0
VERTEX
  8
PLAN_1
  6
CONTINUOUS
 10
1.962949
 20
-3.766988
  0
VERTEX
  8
PLAN_1
  6
CONTINUOUS
 10
1.961472
 20
-3.771417
  0
VERTEX
  8
PLAN_1
  6
CONTINUOUS
 10
1.960488
 20
-3.776339
  0
VERTEX
  8
PLAN_1
  6
CONTINUOUS
 10
1.960488
 20
-3.781752
  0
VERTEX
  8
PLAN_1
  6
CONTINUOUS
 10
1.960488
 20
-3.784709
  0
VERTEX
  8
PLAN_1
  6
CONTINUOUS
 10
1.960980
 20
-3.787169
  0
VERTEX
  8
PLAN_1
  6
CONTINUOUS
 10
1.961472
 20
-3.790122
  0
VERTEX
  8
PLAN_1
  6
CONTINUOUS
 10
1.962457
 20
-3.792091
  0
VERTEX
  8
PLAN_1
  6
CONTINUOUS
 10
1.963441
 20
-3.794551
  0
VERTEX
  8
PLAN_1
  6
CONTINUOUS
 10
1.964917
 20
-3.796028
  0
VERTEX
  8
PLAN_1
  6
CONTINUOUS
 10
1.965902
 20
-3.797996
  0
VERTEX
  8
PLAN_1
  6
CONTINUOUS
 10
1.967870
 20
-3.799472
  0
VERTEX
  8
PLAN_1
  6
CONTINUOUS
 10
1.971315
 20
-3.801933
  0
VERTEX
  8
PLAN_1
  6
CONTINUOUS
 10
1.975252
 20
-3.803902
  0
VERTEX
  8
PLAN_1
  6
CONTINUOUS
 10
1.979681
 20
-3.805378
  0
VERTEX
  8
PLAN_1
  6
CONTINUOUS
 10
1.984114
 20
-3.806854
  0
VERTEX
  8
PLAN_1
  6
CONTINUOUS
 10
2.040717
 20
-3.819654
  0
VERTEX
  8
PLAN_1
  6
CONTINUOUS
 10
2.045638
 20
-3.821130
  0
VERTEX
  8
PLAN_1
  6
CONTINUOUS
 10
2.050067
 20
-3.822606
  0
VERTEX
  8
PLAN_1
  6
CONTINUOUS
 10
2.054500
 20
-3.824083
  0
VERTEX
  8
PLAN_1
  6
CONTINUOUS
 10
2.058929
 20
-3.826543
  0
VERTEX
  8
PLAN_1
  6
CONTINUOUS
 10
2.062866
 20
-3.828512
  0
VERTEX
  8
PLAN_1
  6
CONTINUOUS
 10
2.066311
 20
-3.830976
  0
VERTEX
  8
PLAN_1
  6
CONTINUOUS
 10
2.069756
 20
-3.833929
  0
VERTEX
  8
PLAN_1
  6
CONTINUOUS
 10
2.073201
 20
-3.836882
  0
VERTEX
  8
PLAN_1
  6
CONTINUOUS
 10
2.076157
 20
-3.840327
  0
VERTEX
  8
PLAN_1
  6
CONTINUOUS
 10
2.078618
 20
-3.843772
  0
VERTEX
  8
PLAN_1
  6
CONTINUOUS
 10
2.080587
 20
-3.848201
  0
VERTEX
  8
PLAN_1
  6
CONTINUOUS
 10
2.082555
 20
-3.852138
  0
VERTEX
  8
PLAN_1
  6
CONTINUOUS
 10
2.084031
 20
-3.857063
  0
VERTEX
  8
PLAN_1
  6
CONTINUOUS
 10
2.085016
 20
-3.861984
  0
VERTEX
  8
PLAN_1
  6
CONTINUOUS
 10
2.086000
 20
-3.867398
  0
VERTEX
  8
PLAN_1
  6
CONTINUOUS
 10
2.086000
 20
-3.873303
  0
VERTEX
  8
PLAN_1
  6
CONTINUOUS
 10
2.086000
 20
-3.877244
  0
VERTEX
  8
PLAN_1
  6
CONTINUOUS
 10
2.085508
 20
-3.881673
  0
VERTEX
  8
PLAN_1
  6
CONTINUOUS
 10
2.085016
 20
-3.885610
  0
VERTEX
  8
PLAN_1
  6
CONTINUOUS
 10
2.084031
 20
-3.889055
  0
VERTEX
  8
PLAN_1
  6
CONTINUOUS
 10
2.083047
 20
-3.892992
  0
VERTEX
  8
PLAN_1
  6
CONTINUOUS
 10
2.081571
 20
-3.896437
  0
VERTEX
  8
PLAN_1
  6
CONTINUOUS
 10
2.080094
 20
-3.899390
  0
VERTEX
  8
PLAN_1
  6
CONTINUOUS
 10
2.078618
 20
-3.902346
  0
VERTEX
  8
PLAN_1
  6
CONTINUOUS
 10
2.074681
 20
-3.908252
  0
VERTEX
  8
PLAN_1
  6
CONTINUOUS
 10
2.070248
 20
-3.912681
  0
VERTEX
  8
PLAN_1
  6
CONTINUOUS
 10
2.065327
 20
-3.917110
  0
VERTEX
  8
PLAN_1
  6
CONTINUOUS
 10
2.059913
 20
-3.921047
  0
VERTEX
  8
PLAN_1
  6
CONTINUOUS
 10
2.054008
 20
-3.924004
  0
VERTEX
  8
PLAN_1
  6
CONTINUOUS
 10
2.047606
 20
-3.926957
  0
VERTEX
  8
PLAN_1
  6
CONTINUOUS
 10
2.041209
 20
-3.928925
  0
VERTEX
  8
PLAN_1
  6
CONTINUOUS
 10
2.034811
 20
-3.930402
  0
VERTEX
  8
PLAN_1
  6
CONTINUOUS
 10
2.027917
 20
-3.931878
  0
VERTEX
  8
PLAN_1
  6
CONTINUOUS
 10
2.021028
 20
-3.932862
  0
VERTEX
  8
PLAN_1
  6
CONTINUOUS
 10
2.014630
 20
-3.933354
  0
VERTEX
  8
PLAN_1
  6
CONTINUOUS
 10
2.008232
 20
-3.933354
  0
VERTEX
  8
PLAN_1
  6
CONTINUOUS
 10
2.001339
 20
-3.933354
  0
VERTEX
  8
PLAN_1
  6
CONTINUOUS
 10
1.995433
 20
-3.932862
  0
VERTEX
  8
PLAN_1
  6
CONTINUOUS
 10
1.989528
 20
-3.932370
  0
VERTEX
  8
PLAN_1
  6
CONTINUOUS
 10
1.984114
 20
-3.931386
  0
VERTEX
  8
PLAN_1
  6
CONTINUOUS
 10
1.975252
 20
-3.929417
  0
VERTEX
  8
PLAN_1
  6
CONTINUOUS
 10
1.967378
 20
-3.926957
  0
VERTEX
  8
PLAN_1
  6
CONTINUOUS
 10
1.960980
 20
-3.924004
  0
VERTEX
  8
PLAN_1
  6
CONTINUOUS
 10
1.955563
 20
-3.920555
  0
VERTEX
  8
PLAN_1
  6
CONTINUOUS
 10
1.951626
 20
-3.917110
  0
VERTEX
  8
PLAN_1
  6
CONTINUOUS
 10
1.947689
 20
-3.914157
  0
VERTEX
  8
PLAN_1
  6
CONTINUOUS
 10
1.942276
 20
-3.908252
  0
VERTEX
  8
PLAN_1
  6
CONTINUOUS
 10
1.937354
 20
-3.902346
  0
VERTEX
  8
PLAN_1
  6
CONTINUOUS
 10
1.933906
 20
-3.896437
  0
VERTEX
  8
PLAN_1
  6
CONTINUOUS
 10
1.931445
 20
-3.890039
  0
VERTEX
  8
PLAN_1
  6
CONTINUOUS
 10
1.929476
 20
-3.883642
  0
VERTEX
  8
PLAN_1
  6
CONTINUOUS
 10
1.928492
 20
-3.877244
  0
VERTEX
  8
PLAN_1
  6
CONTINUOUS
 10
1.927508
 20
-3.870350
  0
VERTEX
  8
PLAN_1
  6
CONTINUOUS
 10
1.927508
 20
-3.863461
  0
VERTEX
  8
PLAN_1
  6
CONTINUOUS
 10
1.952610
 20
-3.863461
  0
VERTEX
  8
PLAN_1
  6
CONTINUOUS
 10
1.953102
 20
-3.870350
  0
VERTEX
  8
PLAN_1
  6
CONTINUOUS
 10
1.954087
 20
-3.876256
  0
VERTEX
  8
PLAN_1
  6
CONTINUOUS
 10
1.955563
 20
-3.881181
  0
VERTEX
  8
PLAN_1
  6
CONTINUOUS
 10
1.958024
 20
-3.886102
  0
VERTEX
  8
PLAN_1
  6
CONTINUOUS
 10
1.960488
 20
-3.890531
  0
VERTEX
  8
PLAN_1
  6
CONTINUOUS
 10
1.963441
 20
-3.894469
  0
VERTEX
  8
PLAN_1
  6
CONTINUOUS
 10
1.966886
 20
-3.897421
  0
VERTEX
  8
PLAN_1
  6
CONTINUOUS
 10
1.970823
 20
-3.900378
  0
VERTEX
  8
PLAN_1
  6
CONTINUOUS
 10
1.974760
 20
-3.902839
  0
VERTEX
  8
PLAN_1
  6
CONTINUOUS
 10
1.979189
 20
-3.905299
  0
VERTEX
  8
PLAN_1
  6
CONTINUOUS
 10
1.983622
 20
-3.906776
  0
VERTEX
  8
PLAN_1
  6
CONTINUOUS
 10
1.988543
 20
-3.908252
  0
VERTEX
  8
PLAN_1
  6
CONTINUOUS
 10
1.992972
 20
-3.909236
  0
VERTEX
  8
PLAN_1
  6
CONTINUOUS
 10
1.997894
 20
-3.909728
  0
VERTEX
  8
PLAN_1
  6
CONTINUOUS
 10
2.002815
 20
-3.910220
  0
VERTEX
  8
PLAN_1
  6
CONTINUOUS
 10
2.007740
 20
-3.910220
  0
VERTEX
  8
PLAN_1
  6
CONTINUOUS
 10
2.015614
 20
-3.910220
  0
VERTEX
  8
PLAN_1
  6
CONTINUOUS
 10
2.023980
 20
-3.909236
  0
VERTEX
  8
PLAN_1
  6
CONTINUOUS
 10
2.028413
 20
-3.908252
  0
VERTEX
  8
PLAN_1
  6
CONTINUOUS
 10
2.032843
 20
-3.907268
  0
VERTEX
  8
PLAN_1
  6
CONTINUOUS
 10
2.036780
 20
-3.905791
  0
VERTEX
  8
PLAN_1
  6
CONTINUOUS
 10
2.041209
 20
-3.904315
  0
VERTEX
  8
PLAN_1
  6
CONTINUOUS
 10
2.045146
 20
-3.902346
  0
VERTEX
  8
PLAN_1
  6
CONTINUOUS
 10
2.048591
 20
-3.899882
  0
VERTEX
  8
PLAN_1
  6
CONTINUOUS
 10
2.051547
 20
-3.897421
  0
VERTEX
  8
PLAN_1
  6
CONTINUOUS
 10
2.054500
 20
-3.893976
  0
VERTEX
  8
PLAN_1
  6
CONTINUOUS
 10
2.056961
 20
-3.890531
  0
VERTEX
  8
PLAN_1
  6
CONTINUOUS
 10
2.058437
 20
-3.886594
  0
VERTEX
  8
PLAN_1
  6
CONTINUOUS
 10
2.059421
 20
-3.881673
  0
VERTEX
  8
PLAN_1
  6
CONTINUOUS
 10
2.059913
 20
-3.876752
  0
VERTEX
  8
PLAN_1
  6
CONTINUOUS
 10
2.059913
 20
-3.872811
  0
VERTEX
  8
PLAN_1
  6
CONTINUOUS
 10
2.059421
 20
-3.869366
  0
VERTEX
  8
PLAN_1
  6
CONTINUOUS
 10
2.058929
 20
-3.866413
  0
VERTEX
  8
PLAN_1
  6
CONTINUOUS
 10
2.057945
 20
-3.863461
  0
VERTEX
  8
PLAN_1
  6
CONTINUOUS
 10
2.056469
 20
-3.861000
  0
VERTEX
  8
PLAN_1
  6
CONTINUOUS
 10
2.054992
 20
-3.858539
  0
VERTEX
  8
PLAN_1
  6
CONTINUOUS
 10
2.053024
 20
-3.856079
  0
VERTEX
  8
PLAN_1
  6
CONTINUOUS
 10
2.051051
 20
-3.854110
  0
VERTEX
  8
PLAN_1
  6
CONTINUOUS
 10
2.048098
 20
-3.852138
  0
VERTEX
  8
PLAN_1
  6
CONTINUOUS
 10
2.045146
 20
-3.850661
  0
VERTEX
  8
PLAN_1
  6
CONTINUOUS
 10
2.041701
 20
-3.848693
  0
VERTEX
  8
PLAN_1
  6
CONTINUOUS
 10
2.037764
 20
-3.847217
  0
VERTEX
  8
PLAN_1
  6
CONTINUOUS
 10
2.028906
 20
-3.844264
  0
VERTEX
  8
PLAN_1
  6
CONTINUOUS
 10
2.017583
 20
-3.841311
  0
VERTEX
  8
PLAN_1
  6
CONTINUOUS
 10
1.976728
 20
-3.831961
  0
VERTEX
  8
PLAN_1
  6
CONTINUOUS
 10
1.971315
 20
-3.830484
  0
VERTEX
  8
PLAN_1
  6
CONTINUOUS
 10
1.964425
 20
-3.828512
  0
VERTEX
  8
PLAN_1
  6
CONTINUOUS
 10
1.960980
 20
-3.827035
  0
VERTEX
  8
PLAN_1
  6
CONTINUOUS
 10
1.957531
 20
-3.825067
  0
VERTEX
  8
PLAN_1
  6
CONTINUOUS
 10
1.954087
 20
-3.823098
  0
VERTEX
  8
PLAN_1
  6
CONTINUOUS
 10
1.950642
 20
-3.820638
  0
VERTEX
  8
PLAN_1
  6
CONTINUOUS
 10
1.947197
 20
-3.817685
  0
VERTEX
  8
PLAN_1
  6
CONTINUOUS
 10
1.944244
 20
-3.814240
  0
VERTEX
  8
PLAN_1
  6
CONTINUOUS
 10
1.941291
 20
-3.810795
  0
VERTEX
  8
PLAN_1
  6
CONTINUOUS
 10
1.938831
 20
-3.806854
  0
VERTEX
  8
PLAN_1
  6
CONTINUOUS
 10
1.936862
 20
-3.801933
  0
VERTEX
  8
PLAN_1
  6
CONTINUOUS
 10
1.935382
 20
-3.797012
  0
VERTEX
  8
PLAN_1
  6
CONTINUOUS
 10
1.934398
 20
-3.791598
  0
VERTEX
  8
PLAN_1
  6
CONTINUOUS
 10
1.934398
 20
-3.785201
  0
VERTEX
  8
PLAN_1
  6
CONTINUOUS
 10
1.934398
 20
-3.779291
  0
VERTEX
  8
PLAN_1
  6
CONTINUOUS
 10
1.935382
 20
-3.773386
  0
VERTEX
  8
PLAN_1
  6
CONTINUOUS
 10
1.936370
 20
-3.767972
  0
VERTEX
  8
PLAN_1
  6
CONTINUOUS
 10
1.938339
 20
-3.762559
  0
VERTEX
  8
PLAN_1
  6
CONTINUOUS
 10
1.940307
 20
-3.757142
  0
VERTEX
  8
PLAN_1
  6
CONTINUOUS
 10
1.943260
 20
-3.752220
  0
VERTEX
  8
PLAN_1
  6
CONTINUOUS
 10
1.946705
 20
-3.747299
  0
VERTEX
  8
PLAN_1
  6
CONTINUOUS
 10
1.950150
 20
-3.742870
  0
VERTEX
  8
PLAN_1
  6
CONTINUOUS
 10
1.954579
 20
-3.738441
  0
VERTEX
  8
PLAN_1
  6
CONTINUOUS
 10
1.959996
 20
-3.734992
  0
VERTEX
  8
PLAN_1
  6
CONTINUOUS
 10
1.965409
 20
-3.731547
  0
VERTEX
  8
PLAN_1
  6
CONTINUOUS
 10
1.971807
 20
-3.728594
  0
VERTEX
  8
PLAN_1
  6
CONTINUOUS
 10
1.978697
 20
-3.726626
  0
VERTEX
  8
PLAN_1
  6
CONTINUOUS
 10
1.986083
 20
-3.725150
  0
VERTEX
  8
PLAN_1
  6
CONTINUOUS
 10
1.993957
 20
-3.723673
  0
VERTEX
  8
PLAN_1
  6
CONTINUOUS
 10
2.002815
 20
-3.723673
  0
VERTEX
  8
PLAN_1
  6
CONTINUOUS
 10
2.009217
 20
-3.723673
  0
VERTEX
  8
PLAN_1
  6
CONTINUOUS
 10
2.015122
 20
-3.724165
  0
VERTEX
  8
PLAN_1
  6
CONTINUOUS
 10
2.020535
 20
-3.724657
  0
VERTEX
  8
PLAN_1
  6
CONTINUOUS
 10
2.025949
 20
-3.725150
  0
VERTEX
  8
PLAN_1
  6
CONTINUOUS
 10
2.030874
 20
-3.726134
  0
VERTEX
  8
PLAN_1
  6
CONTINUOUS
 10
2.035795
 20
-3.727610
  0
VERTEX
  8
PLAN_1
  6
CONTINUOUS
 10
2.040224
 20
-3.729087
  0
VERTEX
  8
PLAN_1
  6
CONTINUOUS
 10
2.044161
 20
-3.730563
  0
VERTEX
  8
PLAN_1
  6
CONTINUOUS
 10
2.051547
 20
-3.734008
  0
VERTEX
  8
PLAN_1
  6
CONTINUOUS
 10
2.057453
 20
-3.737949
  0
VERTEX
  8
PLAN_1
  6
CONTINUOUS
 10
2.062866
 20
-3.742378
  0
VERTEX
  8
PLAN_1
  6
CONTINUOUS
 10
2.067295
 20
-3.747299
  0
VERTEX
  8
PLAN_1
  6
CONTINUOUS
 10
2.070740
 20
-3.752220
  0
VERTEX
  8
PLAN_1
  6
CONTINUOUS
 10
2.073693
 20
-3.757142
  0
VERTEX
  8
PLAN_1
  6
CONTINUOUS
 10
2.076157
 20
-3.762559
  0
VERTEX
  8
PLAN_1
  6
CONTINUOUS
 10
2.077634
 20
-3.767972
  0
VERTEX
  8
PLAN_1
  6
CONTINUOUS
 10
2.078618
 20
-3.772894
  0
VERTEX
  8
PLAN_1
  6
CONTINUOUS
 10
2.079602
 20
-3.778307
  0
VERTEX
  8
PLAN_1
  6
CONTINUOUS
 10
2.080094
 20
-3.782736
  0
VERTEX
  8
PLAN_1
  6
CONTINUOUS
 10
2.080587
 20
-3.787169
  0
VERTEX
  8
PLAN_1
  6
CONTINUOUS
 10
2.054992
 20
-3.787169
  0
SEQEND
  8
0
  0
POLYLINE
  8
PLAN_1
  6
CONTINUOUS
 66
     1
 40
0.008366
 41
0.008366
  0
VERTEX
  8
PLAN_1
  6
CONTINUOUS
 10
0.204283
 20
2.953150
  0
VERTEX
  8
PLAN_1
  6
CONTINUOUS
 10
0.203791
 20
2.957087
  0
VERTEX
  8
PLAN_1
  6
CONTINUOUS
 10
0.203299
 20
2.961028
  0
VERTEX
  8
PLAN_1
  6
CONTINUOUS
 10
0.201823
 20
2.964472
  0
VERTEX
  8
PLAN_1
  6
CONTINUOUS
 10
0.200346
 20
2.967917
  0
VERTEX
  8
PLAN_1
  6
CONTINUOUS
 10
0.198870
 20
2.971362
  0
VERTEX
  8
PLAN_1
  6
CONTINUOUS
 10
0.196898
 20
2.974807
  0
VERTEX
  8
PLAN_1
  6
CONTINUOUS
 10
0.194437
 20
2.977760
  0
VERTEX
  8
PLAN_1
  6
CONTINUOUS
 10
0.191976
 20
2.980220
  0
VERTEX
  8
PLAN_1
  6
CONTINUOUS
 10
0.189024
 20
2.982685
  0
VERTEX
  8
PLAN_1
  6
CONTINUOUS
 10
0.186071
 20
2.985146
  0
VERTEX
  8
PLAN_1
  6
CONTINUOUS
 10
0.183118
 20
2.987114
  0
VERTEX
  8
PLAN_1
  6
CONTINUOUS
 10
0.179673
 20
2.988591
  0
VERTEX
  8
PLAN_1
  6
CONTINUOUS
 10
0.176228
 20
2.989575
  0
VERTEX
  8
PLAN_1
  6
CONTINUOUS
 10
0.172780
 20
2.990559
  0
VERTEX
  8
PLAN_1
  6
CONTINUOUS
 10
0.168843
 20
2.991543
  0
VERTEX
  8
PLAN_1
  6
CONTINUOUS
 10
0.164906
 20
2.991543
  0
SEQEND
  8
0
  0
POLYLINE
  8
PLAN_1
  6
CONTINUOUS
 66
     1
 40
0.008366
 41
0.008366
  0
VERTEX
  8
PLAN_1
  6
CONTINUOUS
 10
0.164906
 20
2.991543
  0
VERTEX
  8
PLAN_1
  6
CONTINUOUS
 10
0.019213
 20
2.991543
  0
VERTEX
  8
PLAN_1
  6
CONTINUOUS
 10
0.019213
 20
3.938063
  0
VERTEX
  8
PLAN_1
  6
CONTINUOUS
 10
-1.241339
 20
3.938063
  0
VERTEX
  8
PLAN_1
  6
CONTINUOUS
 10
-1.241339
 20
2.991543
  0
VERTEX
  8
PLAN_1
  6
CONTINUOUS
 10
-1.389984
 20
2.991543
  0
SEQEND
  8
0
  0
POLYLINE
  8
PLAN_1
  6
CONTINUOUS
 66
     1
 40
0.008366
 41
0.008366
  0
VERTEX
  8
PLAN_1
  6
CONTINUOUS
 10
-1.389984
 20
2.991543
  0
VERTEX
  8
PLAN_1
  6
CONTINUOUS
 10
-1.393921
 20
2.991543
  0
VERTEX
  8
PLAN_1
  6
CONTINUOUS
 10
-1.397366
 20
2.990559
  0
VERTEX
  8
PLAN_1
  6
CONTINUOUS
 10
-1.400815
 20
2.990067
  0
VERTEX
  8
PLAN_1
  6
CONTINUOUS
 10
-1.403768
 20
2.988591
  0
VERTEX
  8
PLAN_1
  6
CONTINUOUS
 10
-1.406228
 20
2.987114
  0
VERTEX
  8
PLAN_1
  6
CONTINUOUS
 10
-1.408689
 20
2.985146
  0
VERTEX
  8
PLAN_1
  6
CONTINUOUS
 10
-1.411150
 20
2.982685
  0
VERTEX
  8
PLAN_1
  6
CONTINUOUS
 10
-1.412626
 20
2.980220
  0
VERTEX
  8
PLAN_1
  6
CONTINUOUS
 10
-1.414594
 20
2.977760
  0
VERTEX
  8
PLAN_1
  6
CONTINUOUS
 10
-1.415579
 20
2.974807
  0
VERTEX
  8
PLAN_1
  6
CONTINUOUS
 10
-1.416563
 20
2.971362
  0
VERTEX
  8
PLAN_1
  6
CONTINUOUS
 10
-1.417547
 20
2.968409
  0
VERTEX
  8
PLAN_1
  6
CONTINUOUS
 10
-1.418039
 20
2.964472
  0
VERTEX
  8
PLAN_1
  6
CONTINUOUS
 10
-1.418039
 20
2.961028
  0
VERTEX
  8
PLAN_1
  6
CONTINUOUS
 10
-1.418039
 20
2.957087
  0
VERTEX
  8
PLAN_1
  6
CONTINUOUS
 10
-1.417547
 20
2.952657
  0
SEQEND
  8
0
  0
POLYLINE
  8
PLAN_1
  6
CONTINUOUS
 66
     1
 40
0.008366
 41
0.008366
  0
VERTEX
  8
PLAN_1
  6
CONTINUOUS
 10
-1.417547
 20
2.952657
  0
VERTEX
  8
PLAN_1
  6
CONTINUOUS
 10
-1.417547
 20
-0.072953
  0
SEQEND
  8
0
  0
POLYLINE
  8
PLAN_1
  6
CONTINUOUS
 66
     1
 40
0.008366
 41
0.008366
  0
VERTEX
  8
PLAN_1
  6
CONTINUOUS
 10
-1.417547
 20
-0.072953
  0
VERTEX
  8
PLAN_1
  6
CONTINUOUS
 10
-1.418039
 20
-0.074429
  0
VERTEX
  8
PLAN_1
  6
CONTINUOUS
 10
-1.418531
 20
-0.080831
  0
VERTEX
  8
PLAN_1
  6
CONTINUOUS
 10
-1.418531
 20
-0.085752
  0
VERTEX
  8
PLAN_1
  6
CONTINUOUS
 10
-1.418039
 20
-0.090673
  0
VERTEX
  8
PLAN_1
  6
CONTINUOUS
 10
-1.417055
 20
-0.096579
  0
VERTEX
  8
PLAN_1
  6
CONTINUOUS
 10
-1.415579
 20
-0.102488
  0
VERTEX
  8
PLAN_1
  6
CONTINUOUS
 10
-1.413610
 20
-0.108394
  0
VERTEX
  8
PLAN_1
  6
CONTINUOUS
 10
-1.410657
 20
-0.114299
  0
VERTEX
  8
PLAN_1
  6
CONTINUOUS
 10
-1.408689
 20
-0.117252
  0
VERTEX
  8
PLAN_1
  6
CONTINUOUS
 10
-1.406720
 20
-0.120205
  0
VERTEX
  8
PLAN_1
  6
CONTINUOUS
 10
-1.404752
 20
-0.122665
  0
VERTEX
  8
PLAN_1
  6
CONTINUOUS
 10
-1.402291
 20
-0.125130
  0
VERTEX
  8
PLAN_1
  6
CONTINUOUS
 10
-1.399335
 20
-0.127098
  0
VERTEX
  8
PLAN_1
  6
CONTINUOUS
 10
-1.396382
 20
-0.129067
  0
VERTEX
  8
PLAN_1
  6
CONTINUOUS
 10
-1.392937
 20
-0.131035
  0
VERTEX
  8
PLAN_1
  6
CONTINUOUS
 10
-1.389492
 20
-0.132512
  0
VERTEX
  8
PLAN_1
  6
CONTINUOUS
 10
-1.385063
 20
-0.133496
  0
VERTEX
  8
PLAN_1
  6
CONTINUOUS
 10
-1.380634
 20
-0.134480
  0
VERTEX
  8
PLAN_1
  6
CONTINUOUS
 10
-1.376201
 20
-0.134972
  0
VERTEX
  8
PLAN_1
  6
CONTINUOUS
 10
-1.370787
 20
-0.135465
  0
VERTEX
  8
PLAN_1
  6
CONTINUOUS
 10
-1.305815
 20
-0.135465
  0
VERTEX
  8
PLAN_1
  6
CONTINUOUS
 10
-1.133543
 20
-0.135465
  0
VERTEX
  8
PLAN_1
  6
CONTINUOUS
 10
-0.890390
 20
-0.135465
  0
VERTEX
  8
PLAN_1
  6
CONTINUOUS
 10
-0.611799
 20
-0.135465
  0
VERTEX
  8
PLAN_1
  6
CONTINUOUS
 10
-0.333209
 20
-0.135465
  0
VERTEX
  8
PLAN_1
  6
CONTINUOUS
 10
-0.089567
 20
-0.135465
  0
VERTEX
  8
PLAN_1
  6
CONTINUOUS
 10
0.082217
 20
-0.135465
  0
VERTEX
  8
PLAN_1
  6
CONTINUOUS
 10
0.147677
 20
-0.135465
  0
VERTEX
  8
PLAN_1
  6
CONTINUOUS
 10
0.153587
 20
-0.135465
  0
VERTEX
  8
PLAN_1
  6
CONTINUOUS
 10
0.159000
 20
-0.134972
  0
VERTEX
  8
PLAN_1
  6
CONTINUOUS
 10
0.163921
 20
-0.134480
  0
VERTEX
  8
PLAN_1
  6
CONTINUOUS
 10
0.168843
 20
-0.133496
  0
VERTEX
  8
PLAN_1
  6
CONTINUOUS
 10
0.173272
 20
-0.132020
  0
VERTEX
  8
PLAN_1
  6
CONTINUOUS
 10
0.177213
 20
-0.130543
  0
VERTEX
  8
PLAN_1
  6
CONTINUOUS
 10
0.180657
 20
-0.128575
  0
VERTEX
  8
PLAN_1
  6
CONTINUOUS
 10
0.184102
 20
-0.126606
  0
VERTEX
  8
PLAN_1
  6
CONTINUOUS
 10
0.187055
 20
-0.124146
  0
VERTEX
  8
PLAN_1
  6
CONTINUOUS
 10
0.189516
 20
-0.121681
  0
VERTEX
  8
PLAN_1
  6
CONTINUOUS
 10
0.191976
 20
-0.118728
  0
VERTEX
  8
PLAN_1
  6
CONTINUOUS
 10
0.194437
 20
-0.115776
  0
VERTEX
  8
PLAN_1
  6
CONTINUOUS
 10
0.197882
 20
-0.109870
  0
VERTEX
  8
PLAN_1
  6
CONTINUOUS
 10
0.200346
 20
-0.103965
  0
VERTEX
  8
PLAN_1
  6
CONTINUOUS
 10
0.202315
 20
-0.097563
  0
VERTEX
  8
PLAN_1
  6
CONTINUOUS
 10
0.203791
 20
-0.091657
  0
VERTEX
  8
PLAN_1
  6
CONTINUOUS
 10
0.204283
 20
-0.086244
  0
VERTEX
  8
PLAN_1
  6
CONTINUOUS
 10
0.204776
 20
-0.081323
  0
VERTEX
  8
PLAN_1
  6
CONTINUOUS
 10
0.204776
 20
-0.074429
  0
VERTEX
  8
PLAN_1
  6
CONTINUOUS
 10
0.204283
 20
-0.072953
  0
SEQEND
  8
0
  0
POLYLINE
  8
PLAN_1
  6
CONTINUOUS
 66
     1
 40
0.008366
 41
0.008366
  0
VERTEX
  8
PLAN_1
  6
CONTINUOUS
 10
0.204283
 20
-0.072953
  0
VERTEX
  8
PLAN_1
  6
CONTINUOUS
 10
0.204283
 20
2.953150
  0
SEQEND
  8
0
  0
POLYLINE
  8
PLAN_1
  6
CONTINUOUS
 66
     1
 40
0.008366
 41
0.008366
  0
VERTEX
  8
PLAN_1
  6
CONTINUOUS
 10
-0.119098
 20
2.826161
  0
VERTEX
  8
PLAN_1
  6
CONTINUOUS
 10
-0.118606
 20
2.836004
  0
VERTEX
  8
PLAN_1
  6
CONTINUOUS
 10
-0.117622
 20
2.845358
  0
VERTEX
  8
PLAN_1
  6
CONTINUOUS
 10
-0.115161
 20
2.854709
  0
VERTEX
  8
PLAN_1
  6
CONTINUOUS
 10
-0.111717
 20
2.863567
  0
VERTEX
  8
PLAN_1
  6
CONTINUOUS
 10
-0.107780
 20
2.871937
  0
VERTEX
  8
PLAN_1
  6
CONTINUOUS
 10
-0.102854
 20
2.879811
  0
VERTEX
  8
PLAN_1
  6
CONTINUOUS
 10
-0.097441
 20
2.887193
  0
VERTEX
  8
PLAN_1
  6
CONTINUOUS
 10
-0.091043
 20
2.894087
  0
VERTEX
  8
PLAN_1
  6
CONTINUOUS
 10
-0.084646
 20
2.899992
  0
VERTEX
  8
PLAN_1
  6
CONTINUOUS
 10
-0.077260
 20
2.905406
  0
VERTEX
  8
PLAN_1
  6
CONTINUOUS
 10
-0.069386
 20
2.910327
  0
VERTEX
  8
PLAN_1
  6
CONTINUOUS
 10
-0.061020
 20
2.914268
  0
VERTEX
  8
PLAN_1
  6
CONTINUOUS
 10
-0.052157
 20
2.917713
  0
VERTEX
  8
PLAN_1
  6
CONTINUOUS
 10
-0.042807
 20
2.920173
  0
VERTEX
  8
PLAN_1
  6
CONTINUOUS
 10
-0.033453
 20
2.921650
  0
VERTEX
  8
PLAN_1
  6
CONTINUOUS
 10
-0.023610
 20
2.922142
  0
VERTEX
  8
PLAN_1
  6
CONTINUOUS
 10
-0.013768
 20
2.921650
  0
VERTEX
  8
PLAN_1
  6
CONTINUOUS
 10
-0.004413
 20
2.920173
  0
VERTEX
  8
PLAN_1
  6
CONTINUOUS
 10
0.004937
 20
2.917713
  0
VERTEX
  8
PLAN_1
  6
CONTINUOUS
 10
0.013799
 20
2.914268
  0
VERTEX
  8
PLAN_1
  6
CONTINUOUS
 10
0.022165
 20
2.910327
  0
VERTEX
  8
PLAN_1
  6
CONTINUOUS
 10
0.030039
 20
2.905406
  0
VERTEX
  8
PLAN_1
  6
CONTINUOUS
 10
0.037425
 20
2.899992
  0
VERTEX
  8
PLAN_1
  6
CONTINUOUS
 10
0.044315
 20
2.894087
  0
VERTEX
  8
PLAN_1
  6
CONTINUOUS
 10
0.050220
 20
2.887193
  0
VERTEX
  8
PLAN_1
  6
CONTINUOUS
 10
0.056126
 20
2.879811
  0
VERTEX
  8
PLAN_1
  6
CONTINUOUS
 10
0.060559
 20
2.871937
  0
VERTEX
  8
PLAN_1
  6
CONTINUOUS
 10
0.064988
 20
2.863567
  0
VERTEX
  8
PLAN_1
  6
CONTINUOUS
 10
0.067941
 20
2.854709
  0
VERTEX
  8
PLAN_1
  6
CONTINUOUS
 10
0.070402
 20
2.845358
  0
VERTEX
  8
PLAN_1
  6
CONTINUOUS
 10
0.071878
 20
2.836004
  0
VERTEX
  8
PLAN_1
  6
CONTINUOUS
 10
0.072370
 20
2.826161
  0
VERTEX
  8
PLAN_1
  6
CONTINUOUS
 10
0.071878
 20
2.816315
  0
VERTEX
  8
PLAN_1
  6
CONTINUOUS
 10
0.070402
 20
2.806965
  0
VERTEX
  8
PLAN_1
  6
CONTINUOUS
 10
0.067941
 20
2.797614
  0
VERTEX
  8
PLAN_1
  6
CONTINUOUS
 10
0.064988
 20
2.788752
  0
VERTEX
  8
PLAN_1
  6
CONTINUOUS
 10
0.060559
 20
2.780386
  0
VERTEX
  8
PLAN_1
  6
CONTINUOUS
 10
0.056126
 20
2.772512
  0
VERTEX
  8
PLAN_1
  6
CONTINUOUS
 10
0.050220
 20
2.765126
  0
VERTEX
  8
PLAN_1
  6
CONTINUOUS
 10
0.044315
 20
2.758236
  0
VERTEX
  8
PLAN_1
  6
CONTINUOUS
 10
0.037425
 20
2.752331
  0
VERTEX
  8
PLAN_1
  6
CONTINUOUS
 10
0.030039
 20
2.746421
  0
VERTEX
  8
PLAN_1
  6
CONTINUOUS
 10
0.022165
 20
2.741992
  0
VERTEX
  8
PLAN_1
  6
CONTINUOUS
 10
0.013799
 20
2.737563
  0
VERTEX
  8
PLAN_1
  6
CONTINUOUS
 10
0.004937
 20
2.734610
  0
VERTEX
  8
PLAN_1
  6
CONTINUOUS
 10
-0.004413
 20
2.732150
  0
VERTEX
  8
PLAN_1
  6
CONTINUOUS
 10
-0.013768
 20
2.730673
  0
VERTEX
  8
PLAN_1
  6
CONTINUOUS
 10
-0.023610
 20
2.730181
  0
VERTEX
  8
PLAN_1
  6
CONTINUOUS
 10
-0.033453
 20
2.730673
  0
VERTEX
  8
PLAN_1
  6
CONTINUOUS
 10
-0.042807
 20
2.732150
  0
VERTEX
  8
PLAN_1
  6
CONTINUOUS
 10
-0.052157
 20
2.734610
  0
VERTEX
  8
PLAN_1
  6
CONTINUOUS
 10
-0.061020
 20
2.737563
  0
VERTEX
  8
PLAN_1
  6
CONTINUOUS
 10
-0.069386
 20
2.741992
  0
VERTEX
  8
PLAN_1
  6
CONTINUOUS
 10
-0.077260
 20
2.746421
  0
VERTEX
  8
PLAN_1
  6
CONTINUOUS
 10
-0.084646
 20
2.752331
  0
VERTEX
  8
PLAN_1
  6
CONTINUOUS
 10
-0.091043
 20
2.758236
  0
VERTEX
  8
PLAN_1
  6
CONTINUOUS
 10
-0.097441
 20
2.765126
  0
VERTEX
  8
PLAN_1
  6
CONTINUOUS
 10
-0.102854
 20
2.772512
  0
VERTEX
  8
PLAN_1
  6
CONTINUOUS
 10
-0.107780
 20
2.780386
  0
VERTEX
  8
PLAN_1
  6
CONTINUOUS
 10
-0.111717
 20
2.788752
  0
VERTEX
  8
PLAN_1
  6
CONTINUOUS
 10
-0.115161
 20
2.797614
  0
VERTEX
  8
PLAN_1
  6
CONTINUOUS
 10
-0.117622
 20
2.806965
  0
VERTEX
  8
PLAN_1
  6
CONTINUOUS
 10
-0.118606
 20
2.816315
  0
VERTEX
  8
PLAN_1
  6
CONTINUOUS
 10
-0.119098
 20
2.826161
  0
SEQEND
  8
0
  0
POLYLINE
  8
PLAN_1
  6
CONTINUOUS
 66
     1
 40
0.008366
 41
0.008366
  0
VERTEX
  8
PLAN_1
  6
CONTINUOUS
 10
-1.291051
 20
0.520650
  0
VERTEX
  8
PLAN_1
  6
CONTINUOUS
 10
-1.290559
 20
0.530496
  0
VERTEX
  8
PLAN_1
  6
CONTINUOUS
 10
-1.289083
 20
0.539846
  0
VERTEX
  8
PLAN_1
  6
CONTINUOUS
 10
-1.286622
 20
0.549201
  0
VERTEX
  8
PLAN_1
  6
CONTINUOUS
 10
-1.283665
 20
0.557567
  0
VERTEX
  8
PLAN_1
  6
CONTINUOUS
 10
-1.279236
 20
0.565933
  0
VERTEX
  8
PLAN_1
  6
CONTINUOUS
 10
-1.274807
 20
0.573811
  0
VERTEX
  8
PLAN_1
  6
CONTINUOUS
 10
-1.268902
 20
0.581193
  0
VERTEX
  8
PLAN_1
  6
CONTINUOUS
 10
-1.262996
 20
0.588083
  0
VERTEX
  8
PLAN_1
  6
CONTINUOUS
 10
-1.256102
 20
0.594484
  0
VERTEX
  8
PLAN_1
  6
CONTINUOUS
 10
-1.248720
 20
0.599898
  0
VERTEX
  8
PLAN_1
  6
CONTINUOUS
 10
-1.240846
 20
0.604819
  0
VERTEX
  8
PLAN_1
  6
CONTINUOUS
 10
-1.232476
 20
0.608756
  0
VERTEX
  8
PLAN_1
  6
CONTINUOUS
 10
-1.223618
 20
0.612201
  0
VERTEX
  8
PLAN_1
  6
CONTINUOUS
 10
-1.214264
 20
0.614169
  0
VERTEX
  8
PLAN_1
  6
CONTINUOUS
 10
-1.204913
 20
0.615646
  0
VERTEX
  8
PLAN_1
  6
CONTINUOUS
 10
-1.195071
 20
0.616138
  0
VERTEX
  8
PLAN_1
  6
CONTINUOUS
 10
-1.185224
 20
0.615646
  0
VERTEX
  8
PLAN_1
  6
CONTINUOUS
 10
-1.175874
 20
0.614169
  0
VERTEX
  8
PLAN_1
  6
CONTINUOUS
 10
-1.166520
 20
0.612201
  0
VERTEX
  8
PLAN_1
  6
CONTINUOUS
 10
-1.157661
 20
0.608756
  0
VERTEX
  8
PLAN_1
  6
CONTINUOUS
 10
-1.149295
 20
0.604819
  0
VERTEX
  8
PLAN_1
  6
CONTINUOUS
 10
-1.141417
 20
0.599898
  0
VERTEX
  8
PLAN_1
  6
CONTINUOUS
 10
-1.134035
 20
0.594484
  0
VERTEX
  8
PLAN_1
  6
CONTINUOUS
 10
-1.127146
 20
0.588083
  0
VERTEX
  8
PLAN_1
  6
CONTINUOUS
 10
-1.121236
 20
0.581193
  0
VERTEX
  8
PLAN_1
  6
CONTINUOUS
 10
-1.115823
 20
0.573811
  0
VERTEX
  8
PLAN_1
  6
CONTINUOUS
 10
-1.110902
 20
0.565933
  0
VERTEX
  8
PLAN_1
  6
CONTINUOUS
 10
-1.106965
 20
0.557567
  0
VERTEX
  8
PLAN_1
  6
CONTINUOUS
 10
-1.103520
 20
0.549201
  0
VERTEX
  8
PLAN_1
  6
CONTINUOUS
 10
-1.101059
 20
0.539846
  0
VERTEX
  8
PLAN_1
  6
CONTINUOUS
 10
-1.099583
 20
0.530496
  0
VERTEX
  8
PLAN_1
  6
CONTINUOUS
 10
-1.099087
 20
0.520650
  0
VERTEX
  8
PLAN_1
  6
CONTINUOUS
 10
-1.099583
 20
0.510807
  0
VERTEX
  8
PLAN_1
  6
CONTINUOUS
 10
-1.101059
 20
0.500961
  0
VERTEX
  8
PLAN_1
  6
CONTINUOUS
 10
-1.103520
 20
0.492102
  0
VERTEX
  8
PLAN_1
  6
CONTINUOUS
 10
-1.106965
 20
0.483244
  0
VERTEX
  8
PLAN_1
  6
CONTINUOUS
 10
-1.110902
 20
0.474874
  0
VERTEX
  8
PLAN_1
  6
CONTINUOUS
 10
-1.115823
 20
0.467000
  0
VERTEX
  8
PLAN_1
  6
CONTINUOUS
 10
-1.121236
 20
0.459618
  0
VERTEX
  8
PLAN_1
  6
CONTINUOUS
 10
-1.127146
 20
0.452724
  0
VERTEX
  8
PLAN_1
  6
CONTINUOUS
 10
-1.134035
 20
0.446327
  0
VERTEX
  8
PLAN_1
  6
CONTINUOUS
 10
-1.141417
 20
0.440913
  0
VERTEX
  8
PLAN_1
  6
CONTINUOUS
 10
-1.149295
 20
0.435992
  0
VERTEX
  8
PLAN_1
  6
CONTINUOUS
 10
-1.157661
 20
0.432051
  0
VERTEX
  8
PLAN_1
  6
CONTINUOUS
 10
-1.166520
 20
0.429098
  0
VERTEX
  8
PLAN_1
  6
CONTINUOUS
 10
-1.175874
 20
0.426638
  0
VERTEX
  8
PLAN_1
  6
CONTINUOUS
 10
-1.185224
 20
0.425161
  0
VERTEX
  8
PLAN_1
  6
CONTINUOUS
 10
-1.195071
 20
0.424669
  0
VERTEX
  8
PLAN_1
  6
CONTINUOUS
 10
-1.204913
 20
0.425161
  0
VERTEX
  8
PLAN_1
  6
CONTINUOUS
 10
-1.214264
 20
0.426638
  0
VERTEX
  8
PLAN_1
  6
CONTINUOUS
 10
-1.223618
 20
0.429098
  0
VERTEX
  8
PLAN_1
  6
CONTINUOUS
 10
-1.232476
 20
0.432051
  0
VERTEX
  8
PLAN_1
  6
CONTINUOUS
 10
-1.240846
 20
0.435992
  0
VERTEX
  8
PLAN_1
  6
CONTINUOUS
 10
-1.248720
 20
0.440913
  0
VERTEX
  8
PLAN_1
  6
CONTINUOUS
 10
-1.256102
 20
0.446327
  0
VERTEX
  8
PLAN_1
  6
CONTINUOUS
 10
-1.262996
 20
0.452724
  0
VERTEX
  8
PLAN_1
  6
CONTINUOUS
 10
-1.268902
 20
0.459618
  0
VERTEX
  8
PLAN_1
  6
CONTINUOUS
 10
-1.274807
 20
0.467000
  0
VERTEX
  8
PLAN_1
  6
CONTINUOUS
 10
-1.279236
 20
0.474874
  0
VERTEX
  8
PLAN_1
  6
CONTINUOUS
 10
-1.283665
 20
0.483244
  0
VERTEX
  8
PLAN_1
  6
CONTINUOUS
 10
-1.286622
 20
0.492102
  0
VERTEX
  8
PLAN_1
  6
CONTINUOUS
 10
-1.289083
 20
0.500961
  0
VERTEX
  8
PLAN_1
  6
CONTINUOUS
 10
-1.290559
 20
0.510807
  0
VERTEX
  8
PLAN_1
  6
CONTINUOUS
 10
-1.291051
 20
0.520650
  0
SEQEND
  8
0
  0
POLYLINE
  8
PLAN_1
  6
CONTINUOUS
 66
     1
 40
0.003937
 41
0.003937
  0
VERTEX
  8
PLAN_1
  6
CONTINUOUS
 10
-1.188177
 20
0.634350
  0
VERTEX
  8
PLAN_1
  6
CONTINUOUS
 10
-1.188177
 20
-0.080831
  0
SEQEND
  8
0
  0
POLYLINE
  8
PLAN_1
  6
CONTINUOUS
 66
     1
 40
0.003937
 41
0.003937
  0
VERTEX
  8
PLAN_1
  6
CONTINUOUS
 10
0.198378
 20
0.510807
  0
VERTEX
  8
PLAN_1
  6
CONTINUOUS
 10
-0.267748
 20
0.510807
  0
SEQEND
  8
0
  0
POLYLINE
  8
PLAN_1
  6
CONTINUOUS
 66
     1
 40
0.003937
 41
0.003937
  0
VERTEX
  8
PLAN_1
  6
CONTINUOUS
 10
-0.017705
 20
0.674220
  0
VERTEX
  8
PLAN_1
  6
CONTINUOUS
 10
-0.017705
 20
-0.086244
  0
SEQEND
  8
0
  0
POLYLINE
  8
PLAN_1
  6
CONTINUOUS
 66
     1
 40
0.008366
 41
0.008366
  0
VERTEX
  8
PLAN_1
  6
CONTINUOUS
 10
-1.224602
 20
2.992035
  0
VERTEX
  8
PLAN_1
  6
CONTINUOUS
 10
-1.003106
 20
2.991543
  0
VERTEX
  8
PLAN_1
  6
CONTINUOUS
 10
-1.003598
 20
2.826161
  0
SEQEND
  8
0
  0
POLYLINE
  8
PLAN_1
  6
CONTINUOUS
 66
     1
 40
0.008366
 41
0.008366
  0
VERTEX
  8
PLAN_1
  6
CONTINUOUS
 10
-1.003598
 20
2.826161
  0
VERTEX
  8
PLAN_1
  6
CONTINUOUS
 10
-1.003598
 20
2.816315
  0
VERTEX
  8
PLAN_1
  6
CONTINUOUS
 10
-1.004583
 20
2.806472
  0
VERTEX
  8
PLAN_1
  6
CONTINUOUS
 10
-1.005567
 20
2.797122
  0
VERTEX
  8
PLAN_1
  6
CONTINUOUS
 10
-1.007539
 20
2.787276
  0
VERTEX
  8
PLAN_1
  6
CONTINUOUS
 10
-1.009508
 20
2.778417
  0
VERTEX
  8
PLAN_1
  6
CONTINUOUS
 10
-1.011969
 20
2.769063
  0
VERTEX
  8
PLAN_1
  6
CONTINUOUS
 10
-1.014921
 20
2.760205
  0
VERTEX
  8
PLAN_1
  6
CONTINUOUS
 10
-1.018366
 20
2.751346
  0
VERTEX
  8
PLAN_1
  6
CONTINUOUS
 10
-1.022303
 20
2.742976
  0
VERTEX
  8
PLAN_1
  6
CONTINUOUS
 10
-1.026732
 20
2.734610
  0
VERTEX
  8
PLAN_1
  6
CONTINUOUS
 10
-1.031165
 20
2.726736
  0
VERTEX
  8
PLAN_1
  6
CONTINUOUS
 10
-1.036087
 20
2.718858
  0
VERTEX
  8
PLAN_1
  6
CONTINUOUS
 10
-1.041500
 20
2.711476
  0
VERTEX
  8
PLAN_1
  6
CONTINUOUS
 10
-1.047406
 20
2.704094
  0
VERTEX
  8
PLAN_1
  6
CONTINUOUS
 10
-1.053315
 20
2.697201
  0
VERTEX
  8
PLAN_1
  6
CONTINUOUS
 10
-1.059713
 20
2.690803
  0
VERTEX
  8
PLAN_1
  6
CONTINUOUS
 10
-1.066110
 20
2.684406
  0
VERTEX
  8
PLAN_1
  6
CONTINUOUS
 10
-1.073000
 20
2.678004
  0
VERTEX
  8
PLAN_1
  6
CONTINUOUS
 10
-1.080386
 20
2.672591
  0
VERTEX
  8
PLAN_1
  6
CONTINUOUS
 10
-1.087768
 20
2.667177
  0
VERTEX
  8
PLAN_1
  6
CONTINUOUS
 10
-1.095642
 20
2.662256
  0
VERTEX
  8
PLAN_1
  6
CONTINUOUS
 10
-1.103520
 20
2.657827
  0
VERTEX
  8
PLAN_1
  6
CONTINUOUS
 10
-1.111886
 20
2.653394
  0
VERTEX
  8
PLAN_1
  6
CONTINUOUS
 10
-1.120252
 20
2.649457
  0
VERTEX
  8
PLAN_1
  6
CONTINUOUS
 10
-1.129114
 20
2.646012
  0
VERTEX
  8
PLAN_1
  6
CONTINUOUS
 10
-1.137972
 20
2.643059
  0
VERTEX
  8
PLAN_1
  6
CONTINUOUS
 10
-1.147327
 20
2.640598
  0
VERTEX
  8
PLAN_1
  6
CONTINUOUS
 10
-1.156677
 20
2.638630
  0
VERTEX
  8
PLAN_1
  6
CONTINUOUS
 10
-1.166028
 20
2.636661
  0
VERTEX
  8
PLAN_1
  6
CONTINUOUS
 10
-1.175382
 20
2.635677
  0
VERTEX
  8
PLAN_1
  6
CONTINUOUS
 10
-1.185224
 20
2.634693
  0
VERTEX
  8
PLAN_1
  6
CONTINUOUS
 10
-1.195071
 20
2.634693
  0
SEQEND
  8
0
  0
POLYLINE
  8
PLAN_1
  6
CONTINUOUS
 66
     1
 40
0.008366
 41
0.008366
  0
VERTEX
  8
PLAN_1
  6
CONTINUOUS
 10
-1.195071
 20
2.634693
  0
VERTEX
  8
PLAN_1
  6
CONTINUOUS
 10
-1.397366
 20
2.634693
  0
SEQEND
  8
0
  0
POLYLINE
  8
PLAN_1
  6
CONTINUOUS
 66
     1
 40
0.008366
 41
0.008366
  0
VERTEX
  8
PLAN_1
  6
CONTINUOUS
 10
-1.397366
 20
2.634693
  0
VERTEX
  8
PLAN_1
  6
CONTINUOUS
 10
-1.401307
 20
2.634201
  0
VERTEX
  8
PLAN_1
  6
CONTINUOUS
 10
-1.404260
 20
2.633217
  0
VERTEX
  8
PLAN_1
  6
CONTINUOUS
 10
-1.407705
 20
2.631244
  0
VERTEX
  8
PLAN_1
  6
CONTINUOUS
 10
-1.410165
 20
2.628783
  0
VERTEX
  8
PLAN_1
  6
CONTINUOUS
 10
-1.412134
 20
2.626323
  0
VERTEX
  8
PLAN_1
  6
CONTINUOUS
 10
-1.413610
 20
2.622878
  0
VERTEX
  8
PLAN_1
  6
CONTINUOUS
 10
-1.414594
 20
2.619433
  0
VERTEX
  8
PLAN_1
  6
CONTINUOUS
 10
-1.414594
 20
2.615496
  0
SEQEND
  8
0
  0
POLYLINE
  8
PLAN_1
  6
CONTINUOUS
 66
     1
 40
0.008366
 41
0.008366
  0
VERTEX
  8
PLAN_1
  6
CONTINUOUS
 10
0.008382
 20
2.992035
  0
VERTEX
  8
PLAN_1
  6
CONTINUOUS
 10
-0.211142
 20
2.991543
  0
VERTEX
  8
PLAN_1
  6
CONTINUOUS
 10
-0.211142
 20
2.826161
  0
SEQEND
  8
0
  0
POLYLINE
  8
PLAN_1
  6
CONTINUOUS
 66
     1
 40
0.008366
 41
0.008366
  0
VERTEX
  8
PLAN_1
  6
CONTINUOUS
 10
-0.211142
 20
2.826161
  0
VERTEX
  8
PLAN_1
  6
CONTINUOUS
 10
-0.211142
 20
2.816315
  0
VERTEX
  8
PLAN_1
  6
CONTINUOUS
 10
-0.210157
 20
2.806472
  0
VERTEX
  8
PLAN_1
  6
CONTINUOUS
 10
-0.209173
 20
2.797122
  0
VERTEX
  8
PLAN_1
  6
CONTINUOUS
 10
-0.207205
 20
2.787276
  0
VERTEX
  8
PLAN_1
  6
CONTINUOUS
 10
-0.205236
 20
2.778417
  0
VERTEX
  8
PLAN_1
  6
CONTINUOUS
 10
-0.202776
 20
2.769063
  0
VERTEX
  8
PLAN_1
  6
CONTINUOUS
 10
-0.199823
 20
2.760205
  0
VERTEX
  8
PLAN_1
  6
CONTINUOUS
 10
-0.196378
 20
2.751346
  0
VERTEX
  8
PLAN_1
  6
CONTINUOUS
 10
-0.192929
 20
2.742976
  0
VERTEX
  8
PLAN_1
  6
CONTINUOUS
 10
-0.188500
 20
2.734610
  0
VERTEX
  8
PLAN_1
  6
CONTINUOUS
 10
-0.184071
 20
2.726736
  0
VERTEX
  8
PLAN_1
  6
CONTINUOUS
 10
-0.179150
 20
2.718858
  0
VERTEX
  8
PLAN_1
  6
CONTINUOUS
 10
-0.173736
 20
2.711476
  0
VERTEX
  8
PLAN_1
  6
CONTINUOUS
 10
-0.168319
 20
2.704094
  0
VERTEX
  8
PLAN_1
  6
CONTINUOUS
 10
-0.162413
 20
2.697201
  0
VERTEX
  8
PLAN_1
  6
CONTINUOUS
 10
-0.156016
 20
2.690803
  0
VERTEX
  8
PLAN_1
  6
CONTINUOUS
 10
-0.149618
 20
2.684406
  0
VERTEX
  8
PLAN_1
  6
CONTINUOUS
 10
-0.142724
 20
2.678004
  0
VERTEX
  8
PLAN_1
  6
CONTINUOUS
 10
-0.135343
 20
2.672591
  0
VERTEX
  8
PLAN_1
  6
CONTINUOUS
 10
-0.127961
 20
2.667177
  0
VERTEX
  8
PLAN_1
  6
CONTINUOUS
 10
-0.120083
 20
2.662256
  0
VERTEX
  8
PLAN_1
  6
CONTINUOUS
 10
-0.112209
 20
2.657827
  0
VERTEX
  8
PLAN_1
  6
CONTINUOUS
 10
-0.104335
 20
2.653394
  0
VERTEX
  8
PLAN_1
  6
CONTINUOUS
 10
-0.095965
 20
2.649457
  0
VERTEX
  8
PLAN_1
  6
CONTINUOUS
 10
-0.087106
 20
2.646012
  0
VERTEX
  8
PLAN_1
  6
CONTINUOUS
 10
-0.078244
 20
2.643059
  0
VERTEX
  8
PLAN_1
  6
CONTINUOUS
 10
-0.069386
 20
2.640598
  0
VERTEX
  8
PLAN_1
  6
CONTINUOUS
 10
-0.060035
 20
2.638630
  0
VERTEX
  8
PLAN_1
  6
CONTINUOUS
 10
-0.050681
 20
2.636661
  0
VERTEX
  8
PLAN_1
  6
CONTINUOUS
 10
-0.040839
 20
2.635677
  0
VERTEX
  8
PLAN_1
  6
CONTINUOUS
 10
-0.031484
 20
2.634693
  0
VERTEX
  8
PLAN_1
  6
CONTINUOUS
 10
-0.021642
 20
2.634693
  0
SEQEND
  8
0
  0
POLYLINE
  8
PLAN_1
  6
CONTINUOUS
 66
     1
 40
0.008366
 41
0.008366
  0
VERTEX
  8
PLAN_1
  6
CONTINUOUS
 10
-0.021642
 20
2.634693
  0
VERTEX
  8
PLAN_1
  6
CONTINUOUS
 10
0.188039
 20
2.634693
  0
SEQEND
  8
0
  0
POLYLINE
  8
PLAN_1
  6
CONTINUOUS
 66
     1
 40
0.008366
 41
0.008366
  0
VERTEX
  8
PLAN_1
  6
CONTINUOUS
 10
0.188039
 20
2.634693
  0
VERTEX
  8
PLAN_1
  6
CONTINUOUS
 10
0.191976
 20
2.634201
  0
VERTEX
  8
PLAN_1
  6
CONTINUOUS
 10
0.195421
 20
2.633217
  0
VERTEX
  8
PLAN_1
  6
CONTINUOUS
 10
0.197882
 20
2.631244
  0
VERTEX
  8
PLAN_1
  6
CONTINUOUS
 10
0.200346
 20
2.628783
  0
VERTEX
  8
PLAN_1
  6
CONTINUOUS
 10
0.202315
 20
2.626323
  0
VERTEX
  8
PLAN_1
  6
CONTINUOUS
 10
0.203299
 20
2.622878
  0
VERTEX
  8
PLAN_1
  6
CONTINUOUS
 10
0.204283
 20
2.619433
  0
VERTEX
  8
PLAN_1
  6
CONTINUOUS
 10
0.204283
 20
2.615496
  0
SEQEND
  8
0
  0
POLYLINE
  8
PLAN_1
  6
CONTINUOUS
 66
     1
 40
0.008366
 41
0.008366
  0
VERTEX
  8
PLAN_1
  6
CONTINUOUS
 10
-1.417547
 20
0.309000
  0
VERTEX
  8
PLAN_1
  6
CONTINUOUS
 10
-1.418039
 20
0.312937
  0
VERTEX
  8
PLAN_1
  6
CONTINUOUS
 10
-1.419024
 20
0.316382
  0
VERTEX
  8
PLAN_1
  6
CONTINUOUS
 10
-1.420500
 20
0.319831
  0
VERTEX
  8
PLAN_1
  6
CONTINUOUS
 10
-1.421484
 20
0.322783
  0
VERTEX
  8
PLAN_1
  6
CONTINUOUS
 10
-1.422469
 20
0.324752
  0
VERTEX
  8
PLAN_1
  6
CONTINUOUS
 10
-1.421976
 20
0.326720
  0
VERTEX
  8
PLAN_1
  6
CONTINUOUS
 10
-1.421484
 20
0.327213
  0
VERTEX
  8
PLAN_1
  6
CONTINUOUS
 10
-1.420992
 20
0.327705
  0
VERTEX
  8
PLAN_1
  6
CONTINUOUS
 10
-1.419516
 20
0.328197
  0
VERTEX
  8
PLAN_1
  6
CONTINUOUS
 10
-1.417547
 20
0.328197
  0
SEQEND
  8
0
  0
POLYLINE
  8
PLAN_1
  6
CONTINUOUS
 66
     1
 40
0.008366
 41
0.008366
  0
VERTEX
  8
PLAN_1
  6
CONTINUOUS
 10
-1.417547
 20
0.328197
  0
VERTEX
  8
PLAN_1
  6
CONTINUOUS
 10
-1.194579
 20
0.328689
  0
SEQEND
  8
0
  0
POLYLINE
  8
PLAN_1
  6
CONTINUOUS
 66
     1
 40
0.008366
 41
0.008366
  0
VERTEX
  8
PLAN_1
  6
CONTINUOUS
 10
-1.194579
 20
0.328689
  0
VERTEX
  8
PLAN_1
  6
CONTINUOUS
 10
-1.184732
 20
0.328689
  0
VERTEX
  8
PLAN_1
  6
CONTINUOUS
 10
-1.175382
 20
0.329673
  0
VERTEX
  8
PLAN_1
  6
CONTINUOUS
 10
-1.165535
 20
0.330657
  0
VERTEX
  8
PLAN_1
  6
CONTINUOUS
 10
-1.156185
 20
0.332134
  0
VERTEX
  8
PLAN_1
  6
CONTINUOUS
 10
-1.146835
 20
0.334594
  0
VERTEX
  8
PLAN_1
  6
CONTINUOUS
 10
-1.137972
 20
0.337055
  0
VERTEX
  8
PLAN_1
  6
CONTINUOUS
 10
-1.129114
 20
0.340012
  0
VERTEX
  8
PLAN_1
  6
CONTINUOUS
 10
-1.120252
 20
0.343457
  0
VERTEX
  8
PLAN_1
  6
CONTINUOUS
 10
-1.111886
 20
0.347394
  0
VERTEX
  8
PLAN_1
  6
CONTINUOUS
 10
-1.103520
 20
0.351823
  0
VERTEX
  8
PLAN_1
  6
CONTINUOUS
 10
-1.095642
 20
0.356252
  0
VERTEX
  8
PLAN_1
  6
CONTINUOUS
 10
-1.087768
 20
0.361173
  0
VERTEX
  8
PLAN_1
  6
CONTINUOUS
 10
-1.079894
 20
0.366591
  0
VERTEX
  8
PLAN_1
  6
CONTINUOUS
 10
-1.073000
 20
0.372004
  0
VERTEX
  8
PLAN_1
  6
CONTINUOUS
 10
-1.066110
 20
0.378402
  0
VERTEX
  8
PLAN_1
  6
CONTINUOUS
 10
-1.059220
 20
0.384799
  0
VERTEX
  8
PLAN_1
  6
CONTINUOUS
 10
-1.052819
 20
0.391201
  0
VERTEX
  8
PLAN_1
  6
CONTINUOUS
 10
-1.046913
 20
0.398091
  0
VERTEX
  8
PLAN_1
  6
CONTINUOUS
 10
-1.041008
 20
0.405472
  0
VERTEX
  8
PLAN_1
  6
CONTINUOUS
 10
-1.036087
 20
0.412858
  0
VERTEX
  8
PLAN_1
  6
CONTINUOUS
 10
-1.030673
 20
0.420732
  0
VERTEX
  8
PLAN_1
  6
CONTINUOUS
 10
-1.026240
 20
0.428606
  0
VERTEX
  8
PLAN_1
  6
CONTINUOUS
 10
-1.021811
 20
0.436976
  0
VERTEX
  8
PLAN_1
  6
CONTINUOUS
 10
-1.018366
 20
0.445343
  0
VERTEX
  8
PLAN_1
  6
CONTINUOUS
 10
-1.014921
 20
0.454201
  0
VERTEX
  8
PLAN_1
  6
CONTINUOUS
 10
-1.011969
 20
0.463063
  0
VERTEX
  8
PLAN_1
  6
CONTINUOUS
 10
-1.009016
 20
0.472413
  0
VERTEX
  8
PLAN_1
  6
CONTINUOUS
 10
-1.007047
 20
0.481768
  0
VERTEX
  8
PLAN_1
  6
CONTINUOUS
 10
-1.005075
 20
0.491118
  0
VERTEX
  8
PLAN_1
  6
CONTINUOUS
 10
-1.004091
 20
0.500469
  0
VERTEX
  8
PLAN_1
  6
CONTINUOUS
 10
-1.003598
 20
0.510315
  0
VERTEX
  8
PLAN_1
  6
CONTINUOUS
 10
-1.003106
 20
0.520157
  0
VERTEX
  8
PLAN_1
  6
CONTINUOUS
 10
-1.003598
 20
0.530004
  0
VERTEX
  8
PLAN_1
  6
CONTINUOUS
 10
-1.004091
 20
0.539846
  0
VERTEX
  8
PLAN_1
  6
CONTINUOUS
 10
-1.005075
 20
0.549201
  0
VERTEX
  8
PLAN_1
  6
CONTINUOUS
 10
-1.007047
 20
0.558551
  0
VERTEX
  8
PLAN_1
  6
CONTINUOUS
 10
-1.009016
 20
0.567902
  0
VERTEX
  8
PLAN_1
  6
CONTINUOUS
 10
-1.011969
 20
0.577256
  0
VERTEX
  8
PLAN_1
  6
CONTINUOUS
 10
-1.014921
 20
0.586114
  0
VERTEX
  8
PLAN_1
  6
CONTINUOUS
 10
-1.018366
 20
0.594976
  0
VERTEX
  8
PLAN_1
  6
CONTINUOUS
 10
-1.021811
 20
0.603343
  0
VERTEX
  8
PLAN_1
  6
CONTINUOUS
 10
-1.026240
 20
0.611709
  0
VERTEX
  8
PLAN_1
  6
CONTINUOUS
 10
-1.030673
 20
0.619587
  0
VERTEX
  8
PLAN_1
  6
CONTINUOUS
 10
-1.036087
 20
0.627461
  0
VERTEX
  8
PLAN_1
  6
CONTINUOUS
 10
-1.041008
 20
0.634843
  0
VERTEX
  8
PLAN_1
  6
CONTINUOUS
 10
-1.046913
 20
0.642228
  0
VERTEX
  8
PLAN_1
  6
CONTINUOUS
 10
-1.052819
 20
0.649118
  0
VERTEX
  8
PLAN_1
  6
CONTINUOUS
 10
-1.059220
 20
0.655516
  0
VERTEX
  8
PLAN_1
  6
CONTINUOUS
 10
-1.066110
 20
0.661913
  0
VERTEX
  8
PLAN_1
  6
CONTINUOUS
 10
-1.073000
 20
0.668315
  0
VERTEX
  8
PLAN_1
  6
CONTINUOUS
 10
-1.079894
 20
0.673728
  0
VERTEX
  8
PLAN_1
  6
CONTINUOUS
 10
-1.087768
 20
0.679142
  0
VERTEX
  8
PLAN_1
  6
CONTINUOUS
 10
-1.095642
 20
0.684063
  0
VERTEX
  8
PLAN_1
  6
CONTINUOUS
 10
-1.103520
 20
0.688496
  0
VERTEX
  8
PLAN_1
  6
CONTINUOUS
 10
-1.111886
 20
0.692925
  0
VERTEX
  8
PLAN_1
  6
CONTINUOUS
 10
-1.120252
 20
0.696862
  0
VERTEX
  8
PLAN_1
  6
CONTINUOUS
 10
-1.129114
 20
0.700307
  0
VERTEX
  8
PLAN_1
  6
CONTINUOUS
 10
-1.137972
 20
0.703260
  0
VERTEX
  8
PLAN_1
  6
CONTINUOUS
 10
-1.146835
 20
0.705720
  0
VERTEX
  8
PLAN_1
  6
CONTINUOUS
 10
-1.156185
 20
0.708181
  0
VERTEX
  8
PLAN_1
  6
CONTINUOUS
 10
-1.165535
 20
0.709657
  0
VERTEX
  8
PLAN_1
  6
CONTINUOUS
 10
-1.175382
 20
0.710646
  0
VERTEX
  8
PLAN_1
  6
CONTINUOUS
 10
-1.184732
 20
0.711630
  0
VERTEX
  8
PLAN_1
  6
CONTINUOUS
 10
-1.194579
 20
0.711630
  0
SEQEND
  8
0
  0
POLYLINE
  8
PLAN_1
  6
CONTINUOUS
 66
     1
 40
0.008366
 41
0.008366
  0
VERTEX
  8
PLAN_1
  6
CONTINUOUS
 10
-1.194579
 20
0.711630
  0
VERTEX
  8
PLAN_1
  6
CONTINUOUS
 10
-1.417547
 20
0.711630
  0
SEQEND
  8
0
  0
POLYLINE
  8
PLAN_1
  6
CONTINUOUS
 66
     1
 40
0.008366
 41
0.008366
  0
VERTEX
  8
PLAN_1
  6
CONTINUOUS
 10
-1.417547
 20
0.711630
  0
VERTEX
  8
PLAN_1
  6
CONTINUOUS
 10
-1.419516
 20
0.711630
  0
VERTEX
  8
PLAN_1
  6
CONTINUOUS
 10
-1.420992
 20
0.712122
  0
VERTEX
  8
PLAN_1
  6
CONTINUOUS
 10
-1.421484
 20
0.712614
  0
VERTEX
  8
PLAN_1
  6
CONTINUOUS
 10
-1.421976
 20
0.713106
  0
VERTEX
  8
PLAN_1
  6
CONTINUOUS
 10
-1.422469
 20
0.715075
  0
VERTEX
  8
PLAN_1
  6
CONTINUOUS
 10
-1.421484
 20
0.717535
  0
VERTEX
  8
PLAN_1
  6
CONTINUOUS
 10
-1.420500
 20
0.719996
  0
VERTEX
  8
PLAN_1
  6
CONTINUOUS
 10
-1.419024
 20
0.723441
  0
VERTEX
  8
PLAN_1
  6
CONTINUOUS
 10
-1.418039
 20
0.726886
  0
VERTEX
  8
PLAN_1
  6
CONTINUOUS
 10
-1.417547
 20
0.730823
  0
SEQEND
  8
0
  0
POLYLINE
  8
PLAN_1
  6
CONTINUOUS
 66
     1
 40
0.008366
 41
0.008366
  0
VERTEX
  8
PLAN_1
  6
CONTINUOUS
 10
0.204283
 20
0.309000
  0
VERTEX
  8
PLAN_1
  6
CONTINUOUS
 10
0.203791
 20
0.312937
  0
VERTEX
  8
PLAN_1
  6
CONTINUOUS
 10
0.202807
 20
0.316382
  0
VERTEX
  8
PLAN_1
  6
CONTINUOUS
 10
0.200839
 20
0.319831
  0
VERTEX
  8
PLAN_1
  6
CONTINUOUS
 10
0.198378
 20
0.322783
  0
VERTEX
  8
PLAN_1
  6
CONTINUOUS
 10
0.195421
 20
0.324752
  0
VERTEX
  8
PLAN_1
  6
CONTINUOUS
 10
0.191976
 20
0.326720
  0
VERTEX
  8
PLAN_1
  6
CONTINUOUS
 10
0.188531
 20
0.327705
  0
VERTEX
  8
PLAN_1
  6
CONTINUOUS
 10
0.184594
 20
0.328197
  0
SEQEND
  8
0
  0
POLYLINE
  8
PLAN_1
  6
CONTINUOUS
 66
     1
 40
0.008366
 41
0.008366
  0
VERTEX
  8
PLAN_1
  6
CONTINUOUS
 10
0.184594
 20
0.328197
  0
VERTEX
  8
PLAN_1
  6
CONTINUOUS
 10
-0.025579
 20
0.328689
  0
SEQEND
  8
0
  0
POLYLINE
  8
PLAN_1
  6
CONTINUOUS
 66
     1
 40
0.008366
 41
0.008366
  0
VERTEX
  8
PLAN_1
  6
CONTINUOUS
 10
-0.025579
 20
0.328689
  0
VERTEX
  8
PLAN_1
  6
CONTINUOUS
 10
-0.035425
 20
0.328689
  0
VERTEX
  8
PLAN_1
  6
CONTINUOUS
 10
-0.045268
 20
0.329673
  0
VERTEX
  8
PLAN_1
  6
CONTINUOUS
 10
-0.054618
 20
0.330657
  0
VERTEX
  8
PLAN_1
  6
CONTINUOUS
 10
-0.063972
 20
0.332134
  0
VERTEX
  8
PLAN_1
  6
CONTINUOUS
 10
-0.073323
 20
0.334594
  0
VERTEX
  8
PLAN_1
  6
CONTINUOUS
 10
-0.082677
 20
0.337055
  0
VERTEX
  8
PLAN_1
  6
CONTINUOUS
 10
-0.091535
 20
0.340012
  0
VERTEX
  8
PLAN_1
  6
CONTINUOUS
 10
-0.099902
 20
0.343457
  0
VERTEX
  8
PLAN_1
  6
CONTINUOUS
 10
-0.108764
 20
0.347394
  0
VERTEX
  8
PLAN_1
  6
CONTINUOUS
 10
-0.116638
 20
0.351823
  0
VERTEX
  8
PLAN_1
  6
CONTINUOUS
 10
-0.125004
 20
0.356252
  0
VERTEX
  8
PLAN_1
  6
CONTINUOUS
 10
-0.132390
 20
0.361173
  0
VERTEX
  8
PLAN_1
  6
CONTINUOUS
 10
-0.140264
 20
0.366591
  0
VERTEX
  8
PLAN_1
  6
CONTINUOUS
 10
-0.147154
 20
0.372004
  0
VERTEX
  8
PLAN_1
  6
CONTINUOUS
 10
-0.154539
 20
0.378402
  0
VERTEX
  8
PLAN_1
  6
CONTINUOUS
 10
-0.160937
 20
0.384799
  0
VERTEX
  8
PLAN_1
  6
CONTINUOUS
 10
-0.167335
 20
0.391201
  0
VERTEX
  8
PLAN_1
  6
CONTINUOUS
 10
-0.173244
 20
0.398091
  0
VERTEX
  8
PLAN_1
  6
CONTINUOUS
 10
-0.179150
 20
0.405472
  0
VERTEX
  8
PLAN_1
  6
CONTINUOUS
 10
-0.184563
 20
0.412858
  0
VERTEX
  8
PLAN_1
  6
CONTINUOUS
 10
-0.189484
 20
0.420732
  0
VERTEX
  8
PLAN_1
  6
CONTINUOUS
 10
-0.193913
 20
0.428606
  0
VERTEX
  8
PLAN_1
  6
CONTINUOUS
 10
-0.198346
 20
0.436976
  0
VERTEX
  8
PLAN_1
  6
CONTINUOUS
 10
-0.202283
 20
0.445343
  0
VERTEX
  8
PLAN_1
  6
CONTINUOUS
 10
-0.205728
 20
0.454201
  0
VERTEX
  8
PLAN_1
  6
CONTINUOUS
 10
-0.208681
 20
0.463063
  0
VERTEX
  8
PLAN_1
  6
CONTINUOUS
 10
-0.211142
 20
0.472413
  0
VERTEX
  8
PLAN_1
  6
CONTINUOUS
 10
-0.213110
 20
0.481768
  0
VERTEX
  8
PLAN_1
  6
CONTINUOUS
 10
-0.215079
 20
0.491118
  0
VERTEX
  8
PLAN_1
  6
CONTINUOUS
 10
-0.216063
 20
0.500469
  0
VERTEX
  8
PLAN_1
  6
CONTINUOUS
 10
-0.217047
 20
0.510315
  0
VERTEX
  8
PLAN_1
  6
CONTINUOUS
 10
-0.217047
 20
0.520157
  0
VERTEX
  8
PLAN_1
  6
CONTINUOUS
 10
-0.217047
 20
0.530004
  0
VERTEX
  8
PLAN_1
  6
CONTINUOUS
 10
-0.216063
 20
0.539846
  0
VERTEX
  8
PLAN_1
  6
CONTINUOUS
 10
-0.215079
 20
0.549201
  0
VERTEX
  8
PLAN_1
  6
CONTINUOUS
 10
-0.213110
 20
0.558551
  0
VERTEX
  8
PLAN_1
  6
CONTINUOUS
 10
-0.211142
 20
0.567902
  0
VERTEX
  8
PLAN_1
  6
CONTINUOUS
 10
-0.208681
 20
0.577256
  0
VERTEX
  8
PLAN_1
  6
CONTINUOUS
 10
-0.205728
 20
0.586114
  0
VERTEX
  8
PLAN_1
  6
CONTINUOUS
 10
-0.202283
 20
0.594976
  0
VERTEX
  8
PLAN_1
  6
CONTINUOUS
 10
-0.198346
 20
0.603343
  0
VERTEX
  8
PLAN_1
  6
CONTINUOUS
 10
-0.193913
 20
0.611709
  0
VERTEX
  8
PLAN_1
  6
CONTINUOUS
 10
-0.189484
 20
0.619587
  0
VERTEX
  8
PLAN_1
  6
CONTINUOUS
 10
-0.184563
 20
0.627461
  0
VERTEX
  8
PLAN_1
  6
CONTINUOUS
 10
-0.179150
 20
0.634843
  0
VERTEX
  8
PLAN_1
  6
CONTINUOUS
 10
-0.173244
 20
0.642228
  0
VERTEX
  8
PLAN_1
  6
CONTINUOUS
 10
-0.167335
 20
0.649118
  0
VERTEX
  8
PLAN_1
  6
CONTINUOUS
 10
-0.160937
 20
0.655516
  0
VERTEX
  8
PLAN_1
  6
CONTINUOUS
 10
-0.154539
 20
0.661913
  0
VERTEX
  8
PLAN_1
  6
CONTINUOUS
 10
-0.147154
 20
0.668315
  0
VERTEX
  8
PLAN_1
  6
CONTINUOUS
 10
-0.140264
 20
0.673728
  0
VERTEX
  8
PLAN_1
  6
CONTINUOUS
 10
-0.132390
 20
0.679142
  0
VERTEX
  8
PLAN_1
  6
CONTINUOUS
 10
-0.125004
 20
0.684063
  0
VERTEX
  8
PLAN_1
  6
CONTINUOUS
 10
-0.116638
 20
0.688496
  0
VERTEX
  8
PLAN_1
  6
CONTINUOUS
 10
-0.108764
 20
0.692925
  0
VERTEX
  8
PLAN_1
  6
CONTINUOUS
 10
-0.099902
 20
0.696862
  0
VERTEX
  8
PLAN_1
  6
CONTINUOUS
 10
-0.091535
 20
0.700307
  0
VERTEX
  8
PLAN_1
  6
CONTINUOUS
 10
-0.082677
 20
0.703260
  0
VERTEX
  8
PLAN_1
  6
CONTINUOUS
 10
-0.073323
 20
0.705720
  0
VERTEX
  8
PLAN_1
  6
CONTINUOUS
 10
-0.063972
 20
0.708181
  0
VERTEX
  8
PLAN_1
  6
CONTINUOUS
 10
-0.054618
 20
0.709657
  0
VERTEX
  8
PLAN_1
  6
CONTINUOUS
 10
-0.045268
 20
0.710646
  0
VERTEX
  8
PLAN_1
  6
CONTINUOUS
 10
-0.035425
 20
0.711630
  0
VERTEX
  8
PLAN_1
  6
CONTINUOUS
 10
-0.025579
 20
0.711630
  0
SEQEND
  8
0
  0
POLYLINE
  8
PLAN_1
  6
CONTINUOUS
 66
     1
 40
0.008366
 41
0.008366
  0
VERTEX
  8
PLAN_1
  6
CONTINUOUS
 10
-0.025579
 20
0.711630
  0
VERTEX
  8
PLAN_1
  6
CONTINUOUS
 10
0.184594
 20
0.711630
  0
SEQEND
  8
0
  0
POLYLINE
  8
PLAN_1
  6
CONTINUOUS
 66
     1
 40
0.008366
 41
0.008366
  0
VERTEX
  8
PLAN_1
  6
CONTINUOUS
 10
0.184594
 20
0.711630
  0
VERTEX
  8
PLAN_1
  6
CONTINUOUS
 10
0.188531
 20
0.712122
  0
VERTEX
  8
PLAN_1
  6
CONTINUOUS
 10
0.191976
 20
0.713106
  0
VERTEX
  8
PLAN_1
  6
CONTINUOUS
 10
0.195421
 20
0.715075
  0
VERTEX
  8
PLAN_1
  6
CONTINUOUS
 10
0.198378
 20
0.717535
  0
VERTEX
  8
PLAN_1
  6
CONTINUOUS
 10
0.200839
 20
0.719996
  0
VERTEX
  8
PLAN_1
  6
CONTINUOUS
 10
0.202807
 20
0.723441
  0
VERTEX
  8
PLAN_1
  6
CONTINUOUS
 10
0.203791
 20
0.726886
  0
VERTEX
  8
PLAN_1
  6
CONTINUOUS
 10
0.204283
 20
0.730823
  0
SEQEND
  8
0
  0
POLYLINE
  8
PLAN_1
  6
CONTINUOUS
 66
     1
 40
0.008366
 41
0.008366
  0
VERTEX
  8
PLAN_1
  6
CONTINUOUS
 10
-1.185224
 20
2.652409
  0
VERTEX
  8
PLAN_1
  6
CONTINUOUS
 10
-1.176858
 20
2.652902
  0
VERTEX
  8
PLAN_1
  6
CONTINUOUS
 10
-1.168488
 20
2.653394
  0
VERTEX
  8
PLAN_1
  6
CONTINUOUS
 10
-1.160122
 20
2.654378
  0
VERTEX
  8
PLAN_1
  6
CONTINUOUS
 10
-1.152248
 20
2.655854
  0
VERTEX
  8
PLAN_1
  6
CONTINUOUS
 10
-1.144370
 20
2.657827
  0
VERTEX
  8
PLAN_1
  6
CONTINUOUS
 10
-1.136496
 20
2.659795
  0
VERTEX
  8
PLAN_1
  6
CONTINUOUS
 10
-1.128622
 20
2.662748
  0
VERTEX
  8
PLAN_1
  6
CONTINUOUS
 10
-1.121236
 20
2.665701
  0
VERTEX
  8
PLAN_1
  6
CONTINUOUS
 10
-1.113854
 20
2.668654
  0
VERTEX
  8
PLAN_1
  6
CONTINUOUS
 10
-1.106965
 20
2.672591
  0
VERTEX
  8
PLAN_1
  6
CONTINUOUS
 10
-1.100075
 20
2.676528
  0
VERTEX
  8
PLAN_1
  6
CONTINUOUS
 10
-1.093181
 20
2.680469
  0
VERTEX
  8
PLAN_1
  6
CONTINUOUS
 10
-1.086783
 20
2.685390
  0
VERTEX
  8
PLAN_1
  6
CONTINUOUS
 10
-1.080878
 20
2.690311
  0
VERTEX
  8
PLAN_1
  6
CONTINUOUS
 10
-1.074969
 20
2.695232
  0
VERTEX
  8
PLAN_1
  6
CONTINUOUS
 10
-1.069063
 20
2.700646
  0
VERTEX
  8
PLAN_1
  6
CONTINUOUS
 10
-1.063650
 20
2.706555
  0
VERTEX
  8
PLAN_1
  6
CONTINUOUS
 10
-1.058236
 20
2.712461
  0
VERTEX
  8
PLAN_1
  6
CONTINUOUS
 10
-1.053315
 20
2.718858
  0
VERTEX
  8
PLAN_1
  6
CONTINUOUS
 10
-1.048882
 20
2.725256
  0
VERTEX
  8
PLAN_1
  6
CONTINUOUS
 10
-1.044453
 20
2.731657
  0
VERTEX
  8
PLAN_1
  6
CONTINUOUS
 10
-1.040516
 20
2.738547
  0
VERTEX
  8
PLAN_1
  6
CONTINUOUS
 10
-1.037071
 20
2.745929
  0
VERTEX
  8
PLAN_1
  6
CONTINUOUS
 10
-1.033626
 20
2.752823
  0
VERTEX
  8
PLAN_1
  6
CONTINUOUS
 10
-1.030673
 20
2.760697
  0
VERTEX
  8
PLAN_1
  6
CONTINUOUS
 10
-1.028209
 20
2.768079
  0
VERTEX
  8
PLAN_1
  6
CONTINUOUS
 10
-1.026240
 20
2.775957
  0
VERTEX
  8
PLAN_1
  6
CONTINUOUS
 10
-1.024272
 20
2.783831
  0
VERTEX
  8
PLAN_1
  6
CONTINUOUS
 10
-1.022795
 20
2.792197
  0
VERTEX
  8
PLAN_1
  6
CONTINUOUS
 10
-1.021811
 20
2.800075
  0
VERTEX
  8
PLAN_1
  6
CONTINUOUS
 10
-1.021319
 20
2.808441
  0
VERTEX
  8
PLAN_1
  6
CONTINUOUS
 10
-1.020827
 20
2.817299
  0
VERTEX
  8
PLAN_1
  6
CONTINUOUS
 10
-1.021319
 20
2.825669
  0
VERTEX
  8
PLAN_1
  6
CONTINUOUS
 10
-1.021811
 20
2.834035
  0
VERTEX
  8
PLAN_1
  6
CONTINUOUS
 10
-1.022795
 20
2.841913
  0
VERTEX
  8
PLAN_1
  6
CONTINUOUS
 10
-1.024272
 20
2.850280
  0
VERTEX
  8
PLAN_1
  6
CONTINUOUS
 10
-1.026240
 20
2.858154
  0
VERTEX
  8
PLAN_1
  6
CONTINUOUS
 10
-1.028209
 20
2.866031
  0
VERTEX
  8
PLAN_1
  6
CONTINUOUS
 10
-1.030673
 20
2.873413
  0
VERTEX
  8
PLAN_1
  6
CONTINUOUS
 10
-1.033626
 20
2.881287
  0
VERTEX
  8
PLAN_1
  6
CONTINUOUS
 10
-1.037071
 20
2.888181
  0
VERTEX
  8
PLAN_1
  6
CONTINUOUS
 10
-1.040516
 20
2.895563
  0
VERTEX
  8
PLAN_1
  6
CONTINUOUS
 10
-1.044453
 20
2.902453
  0
VERTEX
  8
PLAN_1
  6
CONTINUOUS
 10
-1.048882
 20
2.908850
  0
VERTEX
  8
PLAN_1
  6
CONTINUOUS
 10
-1.053315
 20
2.915252
  0
VERTEX
  8
PLAN_1
  6
CONTINUOUS
 10
-1.058236
 20
2.921650
  0
VERTEX
  8
PLAN_1
  6
CONTINUOUS
 10
-1.063650
 20
2.927555
  0
VERTEX
  8
PLAN_1
  6
CONTINUOUS
 10
-1.069063
 20
2.933461
  0
VERTEX
  8
PLAN_1
  6
CONTINUOUS
 10
-1.074969
 20
2.938878
  0
VERTEX
  8
PLAN_1
  6
CONTINUOUS
 10
-1.080878
 20
2.943799
  0
VERTEX
  8
PLAN_1
  6
CONTINUOUS
 10
-1.086783
 20
2.948720
  0
VERTEX
  8
PLAN_1
  6
CONTINUOUS
 10
-1.093181
 20
2.953642
  0
VERTEX
  8
PLAN_1
  6
CONTINUOUS
 10
-1.100075
 20
2.957583
  0
VERTEX
  8
PLAN_1
  6
CONTINUOUS
 10
-1.106965
 20
2.961520
  0
VERTEX
  8
PLAN_1
  6
CONTINUOUS
 10
-1.113854
 20
2.965457
  0
VERTEX
  8
PLAN_1
  6
CONTINUOUS
 10
-1.121236
 20
2.968409
  0
VERTEX
  8
PLAN_1
  6
CONTINUOUS
 10
-1.128622
 20
2.971362
  0
VERTEX
  8
PLAN_1
  6
CONTINUOUS
 10
-1.136496
 20
2.974315
  0
VERTEX
  8
PLAN_1
  6
CONTINUOUS
 10
-1.144370
 20
2.976283
  0
VERTEX
  8
PLAN_1
  6
CONTINUOUS
 10
-1.152248
 20
2.978252
  0
VERTEX
  8
PLAN_1
  6
CONTINUOUS
 10
-1.160122
 20
2.979728
  0
VERTEX
  8
PLAN_1
  6
CONTINUOUS
 10
-1.168488
 20
2.980717
  0
VERTEX
  8
PLAN_1
  6
CONTINUOUS
 10
-1.176858
 20
2.981209
  0
VERTEX
  8
PLAN_1
  6
CONTINUOUS
 10
-1.185224
 20
2.981701
  0
VERTEX
  8
PLAN_1
  6
CONTINUOUS
 10
-1.193594
 20
2.981209
  0
VERTEX
  8
PLAN_1
  6
CONTINUOUS
 10
-1.201961
 20
2.980717
  0
VERTEX
  8
PLAN_1
  6
CONTINUOUS
 10
-1.210327
 20
2.979728
  0
VERTEX
  8
PLAN_1
  6
CONTINUOUS
 10
-1.218697
 20
2.978252
  0
VERTEX
  8
PLAN_1
  6
CONTINUOUS
 10
-1.226571
 20
2.976283
  0
VERTEX
  8
PLAN_1
  6
CONTINUOUS
 10
-1.234445
 20
2.974315
  0
VERTEX
  8
PLAN_1
  6
CONTINUOUS
 10
-1.241831
 20
2.971362
  0
VERTEX
  8
PLAN_1
  6
CONTINUOUS
 10
-1.249213
 20
2.968409
  0
VERTEX
  8
PLAN_1
  6
CONTINUOUS
 10
-1.256594
 20
2.965457
  0
VERTEX
  8
PLAN_1
  6
CONTINUOUS
 10
-1.263980
 20
2.961520
  0
VERTEX
  8
PLAN_1
  6
CONTINUOUS
 10
-1.270870
 20
2.957583
  0
VERTEX
  8
PLAN_1
  6
CONTINUOUS
 10
-1.277268
 20
2.953642
  0
VERTEX
  8
PLAN_1
  6
CONTINUOUS
 10
-1.283665
 20
2.948720
  0
VERTEX
  8
PLAN_1
  6
CONTINUOUS
 10
-1.290067
 20
2.943799
  0
VERTEX
  8
PLAN_1
  6
CONTINUOUS
 10
-1.295972
 20
2.938878
  0
VERTEX
  8
PLAN_1
  6
CONTINUOUS
 10
-1.301878
 20
2.933461
  0
VERTEX
  8
PLAN_1
  6
CONTINUOUS
 10
-1.307291
 20
2.927555
  0
VERTEX
  8
PLAN_1
  6
CONTINUOUS
 10
-1.312217
 20
2.921650
  0
VERTEX
  8
PLAN_1
  6
CONTINUOUS
 10
-1.317138
 20
2.915252
  0
VERTEX
  8
PLAN_1
  6
CONTINUOUS
 10
-1.321567
 20
2.908850
  0
VERTEX
  8
PLAN_1
  6
CONTINUOUS
 10
-1.325996
 20
2.902453
  0
VERTEX
  8
PLAN_1
  6
CONTINUOUS
 10
-1.329933
 20
2.895563
  0
VERTEX
  8
PLAN_1
  6
CONTINUOUS
 10
-1.333382
 20
2.888181
  0
VERTEX
  8
PLAN_1
  6
CONTINUOUS
 10
-1.336827
 20
2.881287
  0
VERTEX
  8
PLAN_1
  6
CONTINUOUS
 10
-1.339780
 20
2.873413
  0
VERTEX
  8
PLAN_1
  6
CONTINUOUS
 10
-1.342240
 20
2.866031
  0
VERTEX
  8
PLAN_1
  6
CONTINUOUS
 10
-1.344701
 20
2.858154
  0
VERTEX
  8
PLAN_1
  6
CONTINUOUS
 10
-1.346669
 20
2.850280
  0
VERTEX
  8
PLAN_1
  6
CONTINUOUS
 10
-1.348146
 20
2.841913
  0
VERTEX
  8
PLAN_1
  6
CONTINUOUS
 10
-1.349130
 20
2.834035
  0
VERTEX
  8
PLAN_1
  6
CONTINUOUS
 10
-1.349622
 20
2.825669
  0
VERTEX
  8
PLAN_1
  6
CONTINUOUS
 10
-1.349622
 20
2.817299
  0
VERTEX
  8
PLAN_1
  6
CONTINUOUS
 10
-1.349622
 20
2.808441
  0
VERTEX
  8
PLAN_1
  6
CONTINUOUS
 10
-1.349130
 20
2.800075
  0
VERTEX
  8
PLAN_1
  6
CONTINUOUS
 10
-1.348146
 20
2.792197
  0
VERTEX
  8
PLAN_1
  6
CONTINUOUS
 10
-1.346669
 20
2.783831
  0
VERTEX
  8
PLAN_1
  6
CONTINUOUS
 10
-1.344701
 20
2.775957
  0
VERTEX
  8
PLAN_1
  6
CONTINUOUS
 10
-1.342240
 20
2.768079
  0
VERTEX
  8
PLAN_1
  6
CONTINUOUS
 10
-1.339780
 20
2.760697
  0
VERTEX
  8
PLAN_1
  6
CONTINUOUS
 10
-1.336827
 20
2.752823
  0
VERTEX
  8
PLAN_1
  6
CONTINUOUS
 10
-1.333382
 20
2.745929
  0
VERTEX
  8
PLAN_1
  6
CONTINUOUS
 10
-1.329933
 20
2.738547
  0
VERTEX
  8
PLAN_1
  6
CONTINUOUS
 10
-1.325996
 20
2.731657
  0
VERTEX
  8
PLAN_1
  6
CONTINUOUS
 10
-1.321567
 20
2.725256
  0
VERTEX
  8
PLAN_1
  6
CONTINUOUS
 10
-1.317138
 20
2.718858
  0
VERTEX
  8
PLAN_1
  6
CONTINUOUS
 10
-1.312217
 20
2.712461
  0
VERTEX
  8
PLAN_1
  6
CONTINUOUS
 10
-1.307291
 20
2.706555
  0
VERTEX
  8
PLAN_1
  6
CONTINUOUS
 10
-1.301878
 20
2.700646
  0
VERTEX
  8
PLAN_1
  6
CONTINUOUS
 10
-1.295972
 20
2.695232
  0
VERTEX
  8
PLAN_1
  6
CONTINUOUS
 10
-1.290067
 20
2.690311
  0
VERTEX
  8
PLAN_1
  6
CONTINUOUS
 10
-1.283665
 20
2.685390
  0
VERTEX
  8
PLAN_1
  6
CONTINUOUS
 10
-1.277268
 20
2.680469
  0
VERTEX
  8
PLAN_1
  6
CONTINUOUS
 10
-1.270870
 20
2.676528
  0
VERTEX
  8
PLAN_1
  6
CONTINUOUS
 10
-1.263980
 20
2.672591
  0
VERTEX
  8
PLAN_1
  6
CONTINUOUS
 10
-1.256594
 20
2.668654
  0
VERTEX
  8
PLAN_1
  6
CONTINUOUS
 10
-1.249213
 20
2.665701
  0
VERTEX
  8
PLAN_1
  6
CONTINUOUS
 10
-1.241831
 20
2.662748
  0
VERTEX
  8
PLAN_1
  6
CONTINUOUS
 10
-1.234445
 20
2.659795
  0
VERTEX
  8
PLAN_1
  6
CONTINUOUS
 10
-1.226571
 20
2.657827
  0
VERTEX
  8
PLAN_1
  6
CONTINUOUS
 10
-1.218697
 20
2.655854
  0
VERTEX
  8
PLAN_1
  6
CONTINUOUS
 10
-1.210327
 20
2.654378
  0
VERTEX
  8
PLAN_1
  6
CONTINUOUS
 10
-1.201961
 20
2.653394
  0
VERTEX
  8
PLAN_1
  6
CONTINUOUS
 10
-1.193594
 20
2.652902
  0
VERTEX
  8
PLAN_1
  6
CONTINUOUS
 10
-1.185224
 20
2.652409
  0
SEQEND
  8
0
  0
POLYLINE
  8
PLAN_1
  6
CONTINUOUS
 66
     1
 40
0.008366
 41
0.008366
  0
VERTEX
  8
PLAN_1
  6
CONTINUOUS
 10
-1.309264
 20
2.924110
  0
VERTEX
  8
PLAN_1
  6
CONTINUOUS
 10
-1.087276
 20
2.687850
  0
SEQEND
  8
0
  0
POLYLINE
  8
PLAN_1
  6
CONTINUOUS
 66
     1
 40
0.008366
 41
0.008366
  0
VERTEX
  8
PLAN_1
  6
CONTINUOUS
 10
-1.283665
 20
2.948720
  0
VERTEX
  8
PLAN_1
  6
CONTINUOUS
 10
-1.059220
 20
2.709016
  0
SEQEND
  8
0
  0
POLYLINE
  8
PLAN_1
  6
CONTINUOUS
 66
     1
 40
0.008366
 41
0.008366
  0
VERTEX
  8
PLAN_1
  6
CONTINUOUS
 10
-0.023610
 20
0.353299
  0
VERTEX
  8
PLAN_1
  6
CONTINUOUS
 10
-0.015244
 20
0.353791
  0
VERTEX
  8
PLAN_1
  6
CONTINUOUS
 10
-0.006874
 20
0.354283
  0
VERTEX
  8
PLAN_1
  6
CONTINUOUS
 10
0.001492
 20
0.355268
  0
VERTEX
  8
PLAN_1
  6
CONTINUOUS
 10
0.009858
 20
0.356744
  0
VERTEX
  8
PLAN_1
  6
CONTINUOUS
 10
0.017736
 20
0.358713
  0
VERTEX
  8
PLAN_1
  6
CONTINUOUS
 10
0.025610
 20
0.360681
  0
VERTEX
  8
PLAN_1
  6
CONTINUOUS
 10
0.032992
 20
0.363638
  0
VERTEX
  8
PLAN_1
  6
CONTINUOUS
 10
0.040378
 20
0.366591
  0
VERTEX
  8
PLAN_1
  6
CONTINUOUS
 10
0.047760
 20
0.369543
  0
VERTEX
  8
PLAN_1
  6
CONTINUOUS
 10
0.055142
 20
0.373480
  0
VERTEX
  8
PLAN_1
  6
CONTINUOUS
 10
0.061543
 20
0.377417
  0
VERTEX
  8
PLAN_1
  6
CONTINUOUS
 10
0.068433
 20
0.381354
  0
VERTEX
  8
PLAN_1
  6
CONTINUOUS
 10
0.074831
 20
0.386280
  0
VERTEX
  8
PLAN_1
  6
CONTINUOUS
 10
0.081228
 20
0.391201
  0
VERTEX
  8
PLAN_1
  6
CONTINUOUS
 10
0.087138
 20
0.396122
  0
VERTEX
  8
PLAN_1
  6
CONTINUOUS
 10
0.093043
 20
0.401535
  0
VERTEX
  8
PLAN_1
  6
CONTINUOUS
 10
0.098457
 20
0.407441
  0
VERTEX
  8
PLAN_1
  6
CONTINUOUS
 10
0.103378
 20
0.413350
  0
VERTEX
  8
PLAN_1
  6
CONTINUOUS
 10
0.108303
 20
0.419748
  0
VERTEX
  8
PLAN_1
  6
CONTINUOUS
 10
0.112732
 20
0.426146
  0
VERTEX
  8
PLAN_1
  6
CONTINUOUS
 10
0.117161
 20
0.432547
  0
VERTEX
  8
PLAN_1
  6
CONTINUOUS
 10
0.121098
 20
0.439437
  0
VERTEX
  8
PLAN_1
  6
CONTINUOUS
 10
0.124543
 20
0.446819
  0
VERTEX
  8
PLAN_1
  6
CONTINUOUS
 10
0.127988
 20
0.453709
  0
VERTEX
  8
PLAN_1
  6
CONTINUOUS
 10
0.130945
 20
0.461587
  0
VERTEX
  8
PLAN_1
  6
CONTINUOUS
 10
0.133406
 20
0.468969
  0
VERTEX
  8
PLAN_1
  6
CONTINUOUS
 10
0.135866
 20
0.476843
  0
VERTEX
  8
PLAN_1
  6
CONTINUOUS
 10
0.137835
 20
0.484720
  0
VERTEX
  8
PLAN_1
  6
CONTINUOUS
 10
0.139311
 20
0.493087
  0
VERTEX
  8
PLAN_1
  6
CONTINUOUS
 10
0.140295
 20
0.500961
  0
VERTEX
  8
PLAN_1
  6
CONTINUOUS
 10
0.140787
 20
0.509331
  0
VERTEX
  8
PLAN_1
  6
CONTINUOUS
 10
0.140787
 20
0.517697
  0
VERTEX
  8
PLAN_1
  6
CONTINUOUS
 10
0.140787
 20
0.526559
  0
VERTEX
  8
PLAN_1
  6
CONTINUOUS
 10
0.140295
 20
0.534925
  0
VERTEX
  8
PLAN_1
  6
CONTINUOUS
 10
0.139311
 20
0.542799
  0
VERTEX
  8
PLAN_1
  6
CONTINUOUS
 10
0.137835
 20
0.551169
  0
VERTEX
  8
PLAN_1
  6
CONTINUOUS
 10
0.135866
 20
0.559043
  0
VERTEX
  8
PLAN_1
  6
CONTINUOUS
 10
0.133406
 20
0.566917
  0
VERTEX
  8
PLAN_1
  6
CONTINUOUS
 10
0.130945
 20
0.574303
  0
VERTEX
  8
PLAN_1
  6
CONTINUOUS
 10
0.127988
 20
0.582177
  0
VERTEX
  8
PLAN_1
  6
CONTINUOUS
 10
0.124543
 20
0.589067
  0
VERTEX
  8
PLAN_1
  6
CONTINUOUS
 10
0.121098
 20
0.596453
  0
VERTEX
  8
PLAN_1
  6
CONTINUOUS
 10
0.117161
 20
0.603343
  0
VERTEX
  8
PLAN_1
  6
CONTINUOUS
 10
0.112732
 20
0.609740
  0
VERTEX
  8
PLAN_1
  6
CONTINUOUS
 10
0.108303
 20
0.616138
  0
VERTEX
  8
PLAN_1
  6
CONTINUOUS
 10
0.103378
 20
0.622539
  0
VERTEX
  8
PLAN_1
  6
CONTINUOUS
 10
0.098457
 20
0.628445
  0
VERTEX
  8
PLAN_1
  6
CONTINUOUS
 10
0.093043
 20
0.634350
  0
VERTEX
  8
PLAN_1
  6
CONTINUOUS
 10
0.087138
 20
0.639764
  0
VERTEX
  8
PLAN_1
  6
CONTINUOUS
 10
0.081228
 20
0.644689
  0
VERTEX
  8
PLAN_1
  6
CONTINUOUS
 10
0.074831
 20
0.649610
  0
VERTEX
  8
PLAN_1
  6
CONTINUOUS
 10
0.068433
 20
0.654531
  0
VERTEX
  8
PLAN_1
  6
CONTINUOUS
 10
0.061543
 20
0.658469
  0
VERTEX
  8
PLAN_1
  6
CONTINUOUS
 10
0.055142
 20
0.662406
  0
VERTEX
  8
PLAN_1
  6
CONTINUOUS
 10
0.047760
 20
0.666346
  0
VERTEX
  8
PLAN_1
  6
CONTINUOUS
 10
0.040378
 20
0.669299
  0
VERTEX
  8
PLAN_1
  6
CONTINUOUS
 10
0.032992
 20
0.672252
  0
VERTEX
  8
PLAN_1
  6
CONTINUOUS
 10
0.025610
 20
0.675205
  0
VERTEX
  8
PLAN_1
  6
CONTINUOUS
 10
0.017736
 20
0.677173
  0
VERTEX
  8
PLAN_1
  6
CONTINUOUS
 10
0.009858
 20
0.679142
  0
VERTEX
  8
PLAN_1
  6
CONTINUOUS
 10
0.001492
 20
0.680618
  0
VERTEX
  8
PLAN_1
  6
CONTINUOUS
 10
-0.006874
 20
0.681602
  0
VERTEX
  8
PLAN_1
  6
CONTINUOUS
 10
-0.015244
 20
0.682094
  0
VERTEX
  8
PLAN_1
  6
CONTINUOUS
 10
-0.023610
 20
0.682587
  0
VERTEX
  8
PLAN_1
  6
CONTINUOUS
 10
-0.031976
 20
0.682094
  0
VERTEX
  8
PLAN_1
  6
CONTINUOUS
 10
-0.040346
 20
0.681602
  0
VERTEX
  8
PLAN_1
  6
CONTINUOUS
 10
-0.048713
 20
0.680618
  0
VERTEX
  8
PLAN_1
  6
CONTINUOUS
 10
-0.056587
 20
0.679142
  0
VERTEX
  8
PLAN_1
  6
CONTINUOUS
 10
-0.064465
 20
0.677173
  0
VERTEX
  8
PLAN_1
  6
CONTINUOUS
 10
-0.072339
 20
0.675205
  0
VERTEX
  8
PLAN_1
  6
CONTINUOUS
 10
-0.080217
 20
0.672252
  0
VERTEX
  8
PLAN_1
  6
CONTINUOUS
 10
-0.087598
 20
0.669299
  0
VERTEX
  8
PLAN_1
  6
CONTINUOUS
 10
-0.094980
 20
0.666346
  0
VERTEX
  8
PLAN_1
  6
CONTINUOUS
 10
-0.101870
 20
0.662406
  0
VERTEX
  8
PLAN_1
  6
CONTINUOUS
 10
-0.108764
 20
0.658469
  0
VERTEX
  8
PLAN_1
  6
CONTINUOUS
 10
-0.115654
 20
0.654531
  0
VERTEX
  8
PLAN_1
  6
CONTINUOUS
 10
-0.122051
 20
0.649610
  0
VERTEX
  8
PLAN_1
  6
CONTINUOUS
 10
-0.127961
 20
0.644689
  0
VERTEX
  8
PLAN_1
  6
CONTINUOUS
 10
-0.133866
 20
0.639764
  0
VERTEX
  8
PLAN_1
  6
CONTINUOUS
 10
-0.139772
 20
0.634350
  0
VERTEX
  8
PLAN_1
  6
CONTINUOUS
 10
-0.145185
 20
0.628445
  0
VERTEX
  8
PLAN_1
  6
CONTINUOUS
 10
-0.150602
 20
0.622539
  0
VERTEX
  8
PLAN_1
  6
CONTINUOUS
 10
-0.155524
 20
0.616138
  0
VERTEX
  8
PLAN_1
  6
CONTINUOUS
 10
-0.159953
 20
0.609740
  0
VERTEX
  8
PLAN_1
  6
CONTINUOUS
 10
-0.164382
 20
0.603343
  0
VERTEX
  8
PLAN_1
  6
CONTINUOUS
 10
-0.168319
 20
0.596453
  0
VERTEX
  8
PLAN_1
  6
CONTINUOUS
 10
-0.171764
 20
0.589067
  0
VERTEX
  8
PLAN_1
  6
CONTINUOUS
 10
-0.175213
 20
0.582177
  0
VERTEX
  8
PLAN_1
  6
CONTINUOUS
 10
-0.178165
 20
0.574303
  0
VERTEX
  8
PLAN_1
  6
CONTINUOUS
 10
-0.180626
 20
0.566917
  0
VERTEX
  8
PLAN_1
  6
CONTINUOUS
 10
-0.182594
 20
0.559043
  0
VERTEX
  8
PLAN_1
  6
CONTINUOUS
 10
-0.184563
 20
0.551169
  0
VERTEX
  8
PLAN_1
  6
CONTINUOUS
 10
-0.186039
 20
0.542799
  0
VERTEX
  8
PLAN_1
  6
CONTINUOUS
 10
-0.187024
 20
0.534925
  0
VERTEX
  8
PLAN_1
  6
CONTINUOUS
 10
-0.187516
 20
0.526559
  0
VERTEX
  8
PLAN_1
  6
CONTINUOUS
 10
-0.188008
 20
0.517697
  0
VERTEX
  8
PLAN_1
  6
CONTINUOUS
 10
-0.187516
 20
0.509331
  0
VERTEX
  8
PLAN_1
  6
CONTINUOUS
 10
-0.187024
 20
0.500961
  0
VERTEX
  8
PLAN_1
  6
CONTINUOUS
 10
-0.186039
 20
0.493087
  0
VERTEX
  8
PLAN_1
  6
CONTINUOUS
 10
-0.184563
 20
0.484720
  0
VERTEX
  8
PLAN_1
  6
CONTINUOUS
 10
-0.182594
 20
0.476843
  0
VERTEX
  8
PLAN_1
  6
CONTINUOUS
 10
-0.180626
 20
0.468969
  0
VERTEX
  8
PLAN_1
  6
CONTINUOUS
 10
-0.178165
 20
0.461587
  0
VERTEX
  8
PLAN_1
  6
CONTINUOUS
 10
-0.175213
 20
0.453709
  0
VERTEX
  8
PLAN_1
  6
CONTINUOUS
 10
-0.171764
 20
0.446819
  0
VERTEX
  8
PLAN_1
  6
CONTINUOUS
 10
-0.168319
 20
0.439437
  0
VERTEX
  8
PLAN_1
  6
CONTINUOUS
 10
-0.164382
 20
0.432547
  0
VERTEX
  8
PLAN_1
  6
CONTINUOUS
 10
-0.159953
 20
0.426146
  0
VERTEX
  8
PLAN_1
  6
CONTINUOUS
 10
-0.155524
 20
0.419748
  0
VERTEX
  8
PLAN_1
  6
CONTINUOUS
 10
-0.150602
 20
0.413350
  0
VERTEX
  8
PLAN_1
  6
CONTINUOUS
 10
-0.145185
 20
0.407441
  0
VERTEX
  8
PLAN_1
  6
CONTINUOUS
 10
-0.139772
 20
0.401535
  0
VERTEX
  8
PLAN_1
  6
CONTINUOUS
 10
-0.133866
 20
0.396122
  0
VERTEX
  8
PLAN_1
  6
CONTINUOUS
 10
-0.127961
 20
0.391201
  0
VERTEX
  8
PLAN_1
  6
CONTINUOUS
 10
-0.122051
 20
0.386280
  0
VERTEX
  8
PLAN_1
  6
CONTINUOUS
 10
-0.115654
 20
0.381354
  0
VERTEX
  8
PLAN_1
  6
CONTINUOUS
 10
-0.108764
 20
0.377417
  0
VERTEX
  8
PLAN_1
  6
CONTINUOUS
 10
-0.101870
 20
0.373480
  0
VERTEX
  8
PLAN_1
  6
CONTINUOUS
 10
-0.094980
 20
0.369543
  0
VERTEX
  8
PLAN_1
  6
CONTINUOUS
 10
-0.087598
 20
0.366591
  0
VERTEX
  8
PLAN_1
  6
CONTINUOUS
 10
-0.080217
 20
0.363638
  0
VERTEX
  8
PLAN_1
  6
CONTINUOUS
 10
-0.072339
 20
0.360681
  0
VERTEX
  8
PLAN_1
  6
CONTINUOUS
 10
-0.064465
 20
0.358713
  0
VERTEX
  8
PLAN_1
  6
CONTINUOUS
 10
-0.056587
 20
0.356744
  0
VERTEX
  8
PLAN_1
  6
CONTINUOUS
 10
-0.048713
 20
0.355268
  0
VERTEX
  8
PLAN_1
  6
CONTINUOUS
 10
-0.040346
 20
0.354283
  0
VERTEX
  8
PLAN_1
  6
CONTINUOUS
 10
-0.031976
 20
0.353791
  0
VERTEX
  8
PLAN_1
  6
CONTINUOUS
 10
-0.023610
 20
0.353299
  0
SEQEND
  8
0
  0
POLYLINE
  8
PLAN_1
  6
CONTINUOUS
 66
     1
 40
0.008366
 41
0.008366
  0
VERTEX
  8
PLAN_1
  6
CONTINUOUS
 10
-0.147154
 20
0.625000
  0
VERTEX
  8
PLAN_1
  6
CONTINUOUS
 10
0.074831
 20
0.388740
  0
SEQEND
  8
0
  0
POLYLINE
  8
PLAN_1
  6
CONTINUOUS
 66
     1
 40
0.008366
 41
0.008366
  0
VERTEX
  8
PLAN_1
  6
CONTINUOUS
 10
-0.121559
 20
0.649610
  0
VERTEX
  8
PLAN_1
  6
CONTINUOUS
 10
0.102394
 20
0.409906
  0
SEQEND
  8
0
  0
POLYLINE
  8
PLAN_1
  6
CONTINUOUS
 66
     1
 40
0.008366
 41
0.008366
  0
VERTEX
  8
PLAN_1
  6
CONTINUOUS
 10
-1.195071
 20
2.634693
  0
VERTEX
  8
PLAN_1
  6
CONTINUOUS
 10
-0.023610
 20
2.634693
  0
SEQEND
  8
0
  0
POLYLINE
  8
PLAN_1
 62
     5
  6
CONTINUOUS
 66
     1
 40
0.003000
 41
0.003000
  0
VERTEX
  8
PLAN_1
 62
     5
  6
CONTINUOUS
 10
-1.378665
 20
0.514744
  0
VERTEX
  8
PLAN_1
 62
     5
  6
CONTINUOUS
 10
-1.370295
 20
0.514744
  0
SEQEND
  8
0
  0
POLYLINE
  8
PLAN_1
 62
     5
  6
CONTINUOUS
 66
     1
 40
0.003000
 41
0.003000
  0
VERTEX
  8
PLAN_1
 62
     5
  6
CONTINUOUS
 10
-1.361929
 20
0.514744
  0
VERTEX
  8
PLAN_1
 62
     5
  6
CONTINUOUS
 10
-1.353559
 20
0.514744
  0
SEQEND
  8
0
  0
POLYLINE
  8
PLAN_1
 62
     5
  6
CONTINUOUS
 66
     1
 40
0.003000
 41
0.003000
  0
VERTEX
  8
PLAN_1
 62
     5
  6
CONTINUOUS
 10
-1.345193
 20
0.514744
  0
VERTEX
  8
PLAN_1
 62
     5
  6
CONTINUOUS
 10
-1.336827
 20
0.514744
  0
SEQEND
  8
0
  0
POLYLINE
  8
PLAN_1
 62
     5
  6
CONTINUOUS
 66
     1
 40
0.003000
 41
0.003000
  0
VERTEX
  8
PLAN_1
 62
     5
  6
CONTINUOUS
 10
-1.328457
 20
0.514744
  0
VERTEX
  8
PLAN_1
 62
     5
  6
CONTINUOUS
 10
-1.320091
 20
0.514744
  0
SEQEND
  8
0
  0
POLYLINE
  8
PLAN_1
 62
     5
  6
CONTINUOUS
 66
     1
 40
0.003000
 41
0.003000
  0
VERTEX
  8
PLAN_1
 62
     5
  6
CONTINUOUS
 10
-1.311724
 20
0.514744
  0
VERTEX
  8
PLAN_1
 62
     5
  6
CONTINUOUS
 10
-1.303354
 20
0.514744
  0
SEQEND
  8
0
  0
POLYLINE
  8
PLAN_1
 62
     5
  6
CONTINUOUS
 66
     1
 40
0.003000
 41
0.003000
  0
VERTEX
  8
PLAN_1
 62
     5
  6
CONTINUOUS
 10
-1.295480
 20
0.514744
  0
VERTEX
  8
PLAN_1
 62
     5
  6
CONTINUOUS
 10
-1.287114
 20
0.514744
  0
SEQEND
  8
0
  0
POLYLINE
  8
PLAN_1
 62
     5
  6
CONTINUOUS
 66
     1
 40
0.003000
 41
0.003000
  0
VERTEX
  8
PLAN_1
 62
     5
  6
CONTINUOUS
 10
-1.278744
 20
0.514744
  0
VERTEX
  8
PLAN_1
 62
     5
  6
CONTINUOUS
 10
-1.270378
 20
0.514744
  0
SEQEND
  8
0
  0
POLYLINE
  8
PLAN_1
 62
     5
  6
CONTINUOUS
 66
     1
 40
0.003000
 41
0.003000
  0
VERTEX
  8
PLAN_1
 62
     5
  6
CONTINUOUS
 10
-1.262012
 20
0.514744
  0
VERTEX
  8
PLAN_1
 62
     5
  6
CONTINUOUS
 10
-1.253642
 20
0.514744
  0
SEQEND
  8
0
  0
POLYLINE
  8
PLAN_1
 62
     5
  6
CONTINUOUS
 66
     1
 40
0.003000
 41
0.003000
  0
VERTEX
  8
PLAN_1
 62
     5
  6
CONTINUOUS
 10
-1.245276
 20
0.514744
  0
VERTEX
  8
PLAN_1
 62
     5
  6
CONTINUOUS
 10
-1.236906
 20
0.514744
  0
SEQEND
  8
0
  0
POLYLINE
  8
PLAN_1
 62
     5
  6
CONTINUOUS
 66
     1
 40
0.003000
 41
0.003000
  0
VERTEX
  8
PLAN_1
 62
     5
  6
CONTINUOUS
 10
-1.228539
 20
0.514744
  0
VERTEX
  8
PLAN_1
 62
     5
  6
CONTINUOUS
 10
-1.220173
 20
0.514744
  0
SEQEND
  8
0
  0
POLYLINE
  8
PLAN_1
 62
     5
  6
CONTINUOUS
 66
     1
 40
0.003000
 41
0.003000
  0
VERTEX
  8
PLAN_1
 62
     5
  6
CONTINUOUS
 10
-1.211803
 20
0.514744
  0
VERTEX
  8
PLAN_1
 62
     5
  6
CONTINUOUS
 10
-1.203437
 20
0.514744
  0
SEQEND
  8
0
  0
POLYLINE
  8
PLAN_1
 62
     5
  6
CONTINUOUS
 66
     1
 40
0.003000
 41
0.003000
  0
VERTEX
  8
PLAN_1
 62
     5
  6
CONTINUOUS
 10
-1.195563
 20
0.514744
  0
VERTEX
  8
PLAN_1
 62
     5
  6
CONTINUOUS
 10
-1.187193
 20
0.514744
  0
SEQEND
  8
0
  0
POLYLINE
  8
PLAN_1
 62
     5
  6
CONTINUOUS
 66
     1
 40
0.003000
 41
0.003000
  0
VERTEX
  8
PLAN_1
 62
     5
  6
CONTINUOUS
 10
-1.178827
 20
0.514744
  0
VERTEX
  8
PLAN_1
 62
     5
  6
CONTINUOUS
 10
-1.170461
 20
0.514744
  0
SEQEND
  8
0
  0
POLYLINE
  8
PLAN_1
 62
     5
  6
CONTINUOUS
 66
     1
 40
0.003000
 41
0.003000
  0
VERTEX
  8
PLAN_1
 62
     5
  6
CONTINUOUS
 10
-1.162091
 20
0.514744
  0
VERTEX
  8
PLAN_1
 62
     5
  6
CONTINUOUS
 10
-1.153724
 20
0.514744
  0
SEQEND
  8
0
  0
POLYLINE
  8
PLAN_1
 62
     5
  6
CONTINUOUS
 66
     1
 40
0.003000
 41
0.003000
  0
VERTEX
  8
PLAN_1
 62
     5
  6
CONTINUOUS
 10
-1.145354
 20
0.514744
  0
VERTEX
  8
PLAN_1
 62
     5
  6
CONTINUOUS
 10
-1.136988
 20
0.514744
  0
SEQEND
  8
0
  0
POLYLINE
  8
PLAN_1
 62
     5
  6
CONTINUOUS
 66
     1
 40
0.003000
 41
0.003000
  0
VERTEX
  8
PLAN_1
 62
     5
  6
CONTINUOUS
 10
-1.128622
 20
0.514744
  0
VERTEX
  8
PLAN_1
 62
     5
  6
CONTINUOUS
 10
-1.120252
 20
0.514744
  0
SEQEND
  8
0
  0
POLYLINE
  8
PLAN_1
 62
     5
  6
CONTINUOUS
 66
     1
 40
0.003000
 41
0.003000
  0
VERTEX
  8
PLAN_1
 62
     5
  6
CONTINUOUS
 10
-1.111886
 20
0.514744
  0
VERTEX
  8
PLAN_1
 62
     5
  6
CONTINUOUS
 10
-1.103520
 20
0.514744
  0
SEQEND
  8
0
  0
POLYLINE
  8
PLAN_1
 62
     5
  6
CONTINUOUS
 66
     1
 40
0.003000
 41
0.003000
  0
VERTEX
  8
PLAN_1
 62
     5
  6
CONTINUOUS
 10
-1.095642
 20
0.514744
  0
VERTEX
  8
PLAN_1
 62
     5
  6
CONTINUOUS
 10
-1.087276
 20
0.514744
  0
SEQEND
  8
0
  0
POLYLINE
  8
PLAN_1
 62
     5
  6
CONTINUOUS
 66
     1
 40
0.003000
 41
0.003000
  0
VERTEX
  8
PLAN_1
 62
     5
  6
CONTINUOUS
 10
-1.078909
 20
0.514744
  0
VERTEX
  8
PLAN_1
 62
     5
  6
CONTINUOUS
 10
-1.070539
 20
0.514744
  0
SEQEND
  8
0
  0
POLYLINE
  8
PLAN_1
 62
     5
  6
CONTINUOUS
 66
     1
 40
0.003000
 41
0.003000
  0
VERTEX
  8
PLAN_1
 62
     5
  6
CONTINUOUS
 10
-1.062173
 20
0.514744
  0
VERTEX
  8
PLAN_1
 62
     5
  6
CONTINUOUS
 10
-1.053807
 20
0.514744
  0
SEQEND
  8
0
  0
POLYLINE
  8
PLAN_1
 62
     5
  6
CONTINUOUS
 66
     1
 40
0.003000
 41
0.003000
  0
VERTEX
  8
PLAN_1
 62
     5
  6
CONTINUOUS
 10
-1.045437
 20
0.514744
  0
VERTEX
  8
PLAN_1
 62
     5
  6
CONTINUOUS
 10
-1.037071
 20
0.514744
  0
SEQEND
  8
0
  0
POLYLINE
  8
PLAN_1
 62
     5
  6
CONTINUOUS
 66
     1
 40
0.003000
 41
0.003000
  0
VERTEX
  8
PLAN_1
 62
     5
  6
CONTINUOUS
 10
-1.028701
 20
0.514744
  0
VERTEX
  8
PLAN_1
 62
     5
  6
CONTINUOUS
 10
-1.027224
 20
0.514744
  0
SEQEND
  8
0
  0
POLYLINE
  8
PLAN_1
 62
     5
  6
CONTINUOUS
 66
     1
 40
0.003000
 41
0.003000
  0
VERTEX
  8
PLAN_1
 62
     5
  6
CONTINUOUS
 10
-1.028701
 20
0.514744
  0
VERTEX
  8
PLAN_1
 62
     5
  6
CONTINUOUS
 10
-1.027224
 20
0.514744
  0
SEQEND
  8
0
  0
POLYLINE
  8
PLAN_1
 62
     5
  6
CONTINUOUS
 66
     1
 40
0.003000
 41
0.003000
  0
VERTEX
  8
PLAN_1
 62
     5
  6
CONTINUOUS
 10
-0.211142
 20
2.826654
  0
VERTEX
  8
PLAN_1
 62
     5
  6
CONTINUOUS
 10
-0.202776
 20
2.826654
  0
SEQEND
  8
0
  0
POLYLINE
  8
PLAN_1
 62
     5
  6
CONTINUOUS
 66
     1
 40
0.003000
 41
0.003000
  0
VERTEX
  8
PLAN_1
 62
     5
  6
CONTINUOUS
 10
-0.194406
 20
2.826654
  0
VERTEX
  8
PLAN_1
 62
     5
  6
CONTINUOUS
 10
-0.186039
 20
2.826654
  0
SEQEND
  8
0
  0
POLYLINE
  8
PLAN_1
 62
     5
  6
CONTINUOUS
 66
     1
 40
0.003000
 41
0.003000
  0
VERTEX
  8
PLAN_1
 62
     5
  6
CONTINUOUS
 10
-0.178165
 20
2.826654
  0
VERTEX
  8
PLAN_1
 62
     5
  6
CONTINUOUS
 10
-0.169795
 20
2.826654
  0
SEQEND
  8
0
  0
POLYLINE
  8
PLAN_1
 62
     5
  6
CONTINUOUS
 66
     1
 40
0.003000
 41
0.003000
  0
VERTEX
  8
PLAN_1
 62
     5
  6
CONTINUOUS
 10
-0.161429
 20
2.826654
  0
VERTEX
  8
PLAN_1
 62
     5
  6
CONTINUOUS
 10
-0.153063
 20
2.826654
  0
SEQEND
  8
0
  0
POLYLINE
  8
PLAN_1
 62
     5
  6
CONTINUOUS
 66
     1
 40
0.003000
 41
0.003000
  0
VERTEX
  8
PLAN_1
 62
     5
  6
CONTINUOUS
 10
-0.144693
 20
2.826654
  0
VERTEX
  8
PLAN_1
 62
     5
  6
CONTINUOUS
 10
-0.136327
 20
2.826654
  0
SEQEND
  8
0
  0
POLYLINE
  8
PLAN_1
 62
     5
  6
CONTINUOUS
 66
     1
 40
0.003000
 41
0.003000
  0
VERTEX
  8
PLAN_1
 62
     5
  6
CONTINUOUS
 10
-0.127961
 20
2.826654
  0
VERTEX
  8
PLAN_1
 62
     5
  6
CONTINUOUS
 10
-0.119591
 20
2.826654
  0
SEQEND
  8
0
  0
POLYLINE
  8
PLAN_1
 62
     5
  6
CONTINUOUS
 66
     1
 40
0.003000
 41
0.003000
  0
VERTEX
  8
PLAN_1
 62
     5
  6
CONTINUOUS
 10
-0.111224
 20
2.826654
  0
VERTEX
  8
PLAN_1
 62
     5
  6
CONTINUOUS
 10
-0.102854
 20
2.826654
  0
SEQEND
  8
0
  0
POLYLINE
  8
PLAN_1
 62
     5
  6
CONTINUOUS
 66
     1
 40
0.003000
 41
0.003000
  0
VERTEX
  8
PLAN_1
 62
     5
  6
CONTINUOUS
 10
-0.094488
 20
2.826654
  0
VERTEX
  8
PLAN_1
 62
     5
  6
CONTINUOUS
 10
-0.086122
 20
2.826654
  0
SEQEND
  8
0
  0
POLYLINE
  8
PLAN_1
 62
     5
  6
CONTINUOUS
 66
     1
 40
0.003000
 41
0.003000
  0
VERTEX
  8
PLAN_1
 62
     5
  6
CONTINUOUS
 10
-0.078244
 20
2.826654
  0
VERTEX
  8
PLAN_1
 62
     5
  6
CONTINUOUS
 10
-0.069878
 20
2.826654
  0
SEQEND
  8
0
  0
POLYLINE
  8
PLAN_1
 62
     5
  6
CONTINUOUS
 66
     1
 40
0.003000
 41
0.003000
  0
VERTEX
  8
PLAN_1
 62
     5
  6
CONTINUOUS
 10
-0.061512
 20
2.826654
  0
VERTEX
  8
PLAN_1
 62
     5
  6
CONTINUOUS
 10
-0.053142
 20
2.826654
  0
SEQEND
  8
0
  0
POLYLINE
  8
PLAN_1
 62
     5
  6
CONTINUOUS
 66
     1
 40
0.003000
 41
0.003000
  0
VERTEX
  8
PLAN_1
 62
     5
  6
CONTINUOUS
 10
-0.044776
 20
2.826654
  0
VERTEX
  8
PLAN_1
 62
     5
  6
CONTINUOUS
 10
-0.036409
 20
2.826654
  0
SEQEND
  8
0
  0
POLYLINE
  8
PLAN_1
 62
     5
  6
CONTINUOUS
 66
     1
 40
0.003000
 41
0.003000
  0
VERTEX
  8
PLAN_1
 62
     5
  6
CONTINUOUS
 10
-0.028039
 20
2.826654
  0
VERTEX
  8
PLAN_1
 62
     5
  6
CONTINUOUS
 10
-0.019673
 20
2.826654
  0
SEQEND
  8
0
  0
POLYLINE
  8
PLAN_1
 62
     5
  6
CONTINUOUS
 66
     1
 40
0.003000
 41
0.003000
  0
VERTEX
  8
PLAN_1
 62
     5
  6
CONTINUOUS
 10
-0.011307
 20
2.826654
  0
VERTEX
  8
PLAN_1
 62
     5
  6
CONTINUOUS
 10
-0.002937
 20
2.826654
  0
SEQEND
  8
0
  0
POLYLINE
  8
PLAN_1
 62
     5
  6
CONTINUOUS
 66
     1
 40
0.003000
 41
0.003000
  0
VERTEX
  8
PLAN_1
 62
     5
  6
CONTINUOUS
 10
0.005429
 20
2.826654
  0
VERTEX
  8
PLAN_1
 62
     5
  6
CONTINUOUS
 10
0.013799
 20
2.826654
  0
SEQEND
  8
0
  0
POLYLINE
  8
PLAN_1
 62
     5
  6
CONTINUOUS
 66
     1
 40
0.003000
 41
0.003000
  0
VERTEX
  8
PLAN_1
 62
     5
  6
CONTINUOUS
 10
0.021673
 20
2.826654
  0
VERTEX
  8
PLAN_1
 62
     5
  6
CONTINUOUS
 10
0.030039
 20
2.826654
  0
SEQEND
  8
0
  0
POLYLINE
  8
PLAN_1
 62
     5
  6
CONTINUOUS
 66
     1
 40
0.003000
 41
0.003000
  0
VERTEX
  8
PLAN_1
 62
     5
  6
CONTINUOUS
 10
0.038409
 20
2.826654
  0
VERTEX
  8
PLAN_1
 62
     5
  6
CONTINUOUS
 10
0.046776
 20
2.826654
  0
SEQEND
  8
0
  0
POLYLINE
  8
PLAN_1
 62
     5
  6
CONTINUOUS
 66
     1
 40
0.003000
 41
0.003000
  0
VERTEX
  8
PLAN_1
 62
     5
  6
CONTINUOUS
 10
0.055142
 20
2.826654
  0
VERTEX
  8
PLAN_1
 62
     5
  6
CONTINUOUS
 10
0.063512
 20
2.826654
  0
SEQEND
  8
0
  0
POLYLINE
  8
PLAN_1
 62
     5
  6
CONTINUOUS
 66
     1
 40
0.003000
 41
0.003000
  0
VERTEX
  8
PLAN_1
 62
     5
  6
CONTINUOUS
 10
0.071878
 20
2.826654
  0
VERTEX
  8
PLAN_1
 62
     5
  6
CONTINUOUS
 10
0.080244
 20
2.826654
  0
SEQEND
  8
0
  0
POLYLINE
  8
PLAN_1
 62
     5
  6
CONTINUOUS
 66
     1
 40
0.003000
 41
0.003000
  0
VERTEX
  8
PLAN_1
 62
     5
  6
CONTINUOUS
 10
0.088614
 20
2.826654
  0
VERTEX
  8
PLAN_1
 62
     5
  6
CONTINUOUS
 10
0.096980
 20
2.826654
  0
SEQEND
  8
0
  0
POLYLINE
  8
PLAN_1
 62
     5
  6
CONTINUOUS
 66
     1
 40
0.003000
 41
0.003000
  0
VERTEX
  8
PLAN_1
 62
     5
  6
CONTINUOUS
 10
0.105350
 20
2.826654
  0
VERTEX
  8
PLAN_1
 62
     5
  6
CONTINUOUS
 10
0.113717
 20
2.826654
  0
SEQEND
  8
0
  0
POLYLINE
  8
PLAN_1
 62
     5
  6
CONTINUOUS
 66
     1
 40
0.003000
 41
0.003000
  0
VERTEX
  8
PLAN_1
 62
     5
  6
CONTINUOUS
 10
0.121591
 20
2.826654
  0
VERTEX
  8
PLAN_1
 62
     5
  6
CONTINUOUS
 10
0.129961
 20
2.826654
  0
SEQEND
  8
0
  0
POLYLINE
  8
PLAN_1
 62
     5
  6
CONTINUOUS
 66
     1
 40
0.003000
 41
0.003000
  0
VERTEX
  8
PLAN_1
 62
     5
  6
CONTINUOUS
 10
0.138327
 20
2.826654
  0
VERTEX
  8
PLAN_1
 62
     5
  6
CONTINUOUS
 10
0.145709
 20
2.826654
  0
SEQEND
  8
0
  0
POLYLINE
  8
PLAN_1
 62
     5
  6
CONTINUOUS
 66
     1
 40
0.003000
 41
0.003000
  0
VERTEX
  8
PLAN_1
 62
     5
  6
CONTINUOUS
 10
0.138327
 20
2.826654
  0
VERTEX
  8
PLAN_1
 62
     5
  6
CONTINUOUS
 10
0.145709
 20
2.826654
  0
SEQEND
  8
0
  0
POLYLINE
  8
PLAN_1
 62
     5
  6
CONTINUOUS
 66
     1
 40
0.003000
 41
0.003000
  0
VERTEX
  8
PLAN_1
 62
     5
  6
CONTINUOUS
 10
-0.024594
 20
2.646996
  0
VERTEX
  8
PLAN_1
 62
     5
  6
CONTINUOUS
 10
-0.024594
 20
2.655362
  0
SEQEND
  8
0
  0
POLYLINE
  8
PLAN_1
 62
     5
  6
CONTINUOUS
 66
     1
 40
0.003000
 41
0.003000
  0
VERTEX
  8
PLAN_1
 62
     5
  6
CONTINUOUS
 10
-0.024594
 20
2.663732
  0
VERTEX
  8
PLAN_1
 62
     5
  6
CONTINUOUS
 10
-0.024594
 20
2.672098
  0
SEQEND
  8
0
  0
POLYLINE
  8
PLAN_1
 62
     5
  6
CONTINUOUS
 66
     1
 40
0.003000
 41
0.003000
  0
VERTEX
  8
PLAN_1
 62
     5
  6
CONTINUOUS
 10
-0.024594
 20
2.679976
  0
VERTEX
  8
PLAN_1
 62
     5
  6
CONTINUOUS
 10
-0.024594
 20
2.688343
  0
SEQEND
  8
0
  0
POLYLINE
  8
PLAN_1
 62
     5
  6
CONTINUOUS
 66
     1
 40
0.003000
 41
0.003000
  0
VERTEX
  8
PLAN_1
 62
     5
  6
CONTINUOUS
 10
-0.024594
 20
2.696709
  0
VERTEX
  8
PLAN_1
 62
     5
  6
CONTINUOUS
 10
-0.024594
 20
2.705079
  0
SEQEND
  8
0
  0
POLYLINE
  8
PLAN_1
 62
     5
  6
CONTINUOUS
 66
     1
 40
0.003000
 41
0.003000
  0
VERTEX
  8
PLAN_1
 62
     5
  6
CONTINUOUS
 10
-0.024594
 20
2.713445
  0
VERTEX
  8
PLAN_1
 62
     5
  6
CONTINUOUS
 10
-0.024594
 20
2.721811
  0
SEQEND
  8
0
  0
POLYLINE
  8
PLAN_1
 62
     5
  6
CONTINUOUS
 66
     1
 40
0.003000
 41
0.003000
  0
VERTEX
  8
PLAN_1
 62
     5
  6
CONTINUOUS
 10
-0.024594
 20
2.730181
  0
VERTEX
  8
PLAN_1
 62
     5
  6
CONTINUOUS
 10
-0.024594
 20
2.738547
  0
SEQEND
  8
0
  0
POLYLINE
  8
PLAN_1
 62
     5
  6
CONTINUOUS
 66
     1
 40
0.003000
 41
0.003000
  0
VERTEX
  8
PLAN_1
 62
     5
  6
CONTINUOUS
 10
-0.024594
 20
2.746913
  0
VERTEX
  8
PLAN_1
 62
     5
  6
CONTINUOUS
 10
-0.024594
 20
2.755283
  0
SEQEND
  8
0
  0
POLYLINE
  8
PLAN_1
 62
     5
  6
CONTINUOUS
 66
     1
 40
0.003000
 41
0.003000
  0
VERTEX
  8
PLAN_1
 62
     5
  6
CONTINUOUS
 10
-0.024594
 20
2.763650
  0
VERTEX
  8
PLAN_1
 62
     5
  6
CONTINUOUS
 10
-0.024594
 20
2.772016
  0
SEQEND
  8
0
  0
POLYLINE
  8
PLAN_1
 62
     5
  6
CONTINUOUS
 66
     1
 40
0.003000
 41
0.003000
  0
VERTEX
  8
PLAN_1
 62
     5
  6
CONTINUOUS
 10
-0.024594
 20
2.780386
  0
VERTEX
  8
PLAN_1
 62
     5
  6
CONTINUOUS
 10
-0.024594
 20
2.788260
  0
SEQEND
  8
0
  0
POLYLINE
  8
PLAN_1
 62
     5
  6
CONTINUOUS
 66
     1
 40
0.003000
 41
0.003000
  0
VERTEX
  8
PLAN_1
 62
     5
  6
CONTINUOUS
 10
-0.024594
 20
2.796630
  0
VERTEX
  8
PLAN_1
 62
     5
  6
CONTINUOUS
 10
-0.024594
 20
2.804996
  0
SEQEND
  8
0
  0
POLYLINE
  8
PLAN_1
 62
     5
  6
CONTINUOUS
 66
     1
 40
0.003000
 41
0.003000
  0
VERTEX
  8
PLAN_1
 62
     5
  6
CONTINUOUS
 10
-0.024594
 20
2.813362
  0
VERTEX
  8
PLAN_1
 62
     5
  6
CONTINUOUS
 10
-0.024594
 20
2.821732
  0
SEQEND
  8
0
  0
POLYLINE
  8
PLAN_1
 62
     5
  6
CONTINUOUS
 66
     1
 40
0.003000
 41
0.003000
  0
VERTEX
  8
PLAN_1
 62
     5
  6
CONTINUOUS
 10
-0.024594
 20
2.830098
  0
VERTEX
  8
PLAN_1
 62
     5
  6
CONTINUOUS
 10
-0.024594
 20
2.838465
  0
SEQEND
  8
0
  0
POLYLINE
  8
PLAN_1
 62
     5
  6
CONTINUOUS
 66
     1
 40
0.003000
 41
0.003000
  0
VERTEX
  8
PLAN_1
 62
     5
  6
CONTINUOUS
 10
-0.024594
 20
2.846835
  0
VERTEX
  8
PLAN_1
 62
     5
  6
CONTINUOUS
 10
-0.024594
 20
2.855201
  0
SEQEND
  8
0
  0
POLYLINE
  8
PLAN_1
 62
     5
  6
CONTINUOUS
 66
     1
 40
0.003000
 41
0.003000
  0
VERTEX
  8
PLAN_1
 62
     5
  6
CONTINUOUS
 10
-0.024594
 20
2.863567
  0
VERTEX
  8
PLAN_1
 62
     5
  6
CONTINUOUS
 10
-0.024594
 20
2.871937
  0
SEQEND
  8
0
  0
POLYLINE
  8
PLAN_1
 62
     5
  6
CONTINUOUS
 66
     1
 40
0.003000
 41
0.003000
  0
VERTEX
  8
PLAN_1
 62
     5
  6
CONTINUOUS
 10
-0.024594
 20
2.880303
  0
VERTEX
  8
PLAN_1
 62
     5
  6
CONTINUOUS
 10
-0.024594
 20
2.888181
  0
SEQEND
  8
0
  0
POLYLINE
  8
PLAN_1
 62
     5
  6
CONTINUOUS
 66
     1
 40
0.003000
 41
0.003000
  0
VERTEX
  8
PLAN_1
 62
     5
  6
CONTINUOUS
 10
-0.024594
 20
2.896547
  0
VERTEX
  8
PLAN_1
 62
     5
  6
CONTINUOUS
 10
-0.024594
 20
2.904913
  0
SEQEND
  8
0
  0
POLYLINE
  8
PLAN_1
 62
     5
  6
CONTINUOUS
 66
     1
 40
0.003000
 41
0.003000
  0
VERTEX
  8
PLAN_1
 62
     5
  6
CONTINUOUS
 10
-0.024594
 20
2.913283
  0
VERTEX
  8
PLAN_1
 62
     5
  6
CONTINUOUS
 10
-0.024594
 20
2.921650
  0
SEQEND
  8
0
  0
POLYLINE
  8
PLAN_1
 62
     5
  6
CONTINUOUS
 66
     1
 40
0.003000
 41
0.003000
  0
VERTEX
  8
PLAN_1
 62
     5
  6
CONTINUOUS
 10
-0.024594
 20
2.930016
  0
VERTEX
  8
PLAN_1
 62
     5
  6
CONTINUOUS
 10
-0.024594
 20
2.938386
  0
SEQEND
  8
0
  0
POLYLINE
  8
PLAN_1
 62
     5
  6
CONTINUOUS
 66
     1
 40
0.003000
 41
0.003000
  0
VERTEX
  8
PLAN_1
 62
     5
  6
CONTINUOUS
 10
-0.024594
 20
2.946752
  0
VERTEX
  8
PLAN_1
 62
     5
  6
CONTINUOUS
 10
-0.024594
 20
2.955118
  0
SEQEND
  8
0
  0
POLYLINE
  8
PLAN_1
 62
     5
  6
CONTINUOUS
 66
     1
 40
0.003000
 41
0.003000
  0
VERTEX
  8
PLAN_1
 62
     5
  6
CONTINUOUS
 10
-0.024594
 20
2.963488
  0
VERTEX
  8
PLAN_1
 62
     5
  6
CONTINUOUS
 10
-0.024594
 20
2.971854
  0
SEQEND
  8
0
  0
POLYLINE
  8
PLAN_1
 62
     5
  6
CONTINUOUS
 66
     1
 40
0.003000
 41
0.003000
  0
VERTEX
  8
PLAN_1
 62
     5
  6
CONTINUOUS
 10
-0.024594
 20
2.980220
  0
VERTEX
  8
PLAN_1
 62
     5
  6
CONTINUOUS
 10
-0.024594
 20
2.988098
  0
SEQEND
  8
0
  0
POLYLINE
  8
PLAN_1
 62
     5
  6
CONTINUOUS
 66
     1
 40
0.003000
 41
0.003000
  0
VERTEX
  8
PLAN_1
 62
     5
  6
CONTINUOUS
 10
-0.024594
 20
2.996465
  0
VERTEX
  8
PLAN_1
 62
     5
  6
CONTINUOUS
 10
-0.024594
 20
3.000894
  0
SEQEND
  8
0
  0
POLYLINE
  8
PLAN_1
 62
     5
  6
CONTINUOUS
 66
     1
 40
0.003000
 41
0.003000
  0
VERTEX
  8
PLAN_1
 62
     5
  6
CONTINUOUS
 10
-0.024594
 20
2.996465
  0
VERTEX
  8
PLAN_1
 62
     5
  6
CONTINUOUS
 10
-0.024594
 20
3.000894
  0
SEQEND
  8
0
  0
POLYLINE
  8
PLAN_1
 62
     5
  6
CONTINUOUS
 66
     1
 40
0.003000
 41
0.003000
  0
VERTEX
  8
PLAN_1
 62
     5
  6
CONTINUOUS
 10
-1.019843
 20
3.532972
  0
VERTEX
  8
PLAN_1
 62
     5
  6
CONTINUOUS
 10
-1.011476
 20
3.532972
  0
SEQEND
  8
0
  0
POLYLINE
  8
PLAN_1
 62
     5
  6
CONTINUOUS
 66
     1
 40
0.003000
 41
0.003000
  0
VERTEX
  8
PLAN_1
 62
     5
  6
CONTINUOUS
 10
-1.003106
 20
3.532972
  0
VERTEX
  8
PLAN_1
 62
     5
  6
CONTINUOUS
 10
-0.994740
 20
3.532972
  0
SEQEND
  8
0
  0
POLYLINE
  8
PLAN_1
 62
     5
  6
CONTINUOUS
 66
     1
 40
0.003000
 41
0.003000
  0
VERTEX
  8
PLAN_1
 62
     5
  6
CONTINUOUS
 10
-0.986374
 20
3.532972
  0
VERTEX
  8
PLAN_1
 62
     5
  6
CONTINUOUS
 10
-0.978004
 20
3.532972
  0
SEQEND
  8
0
  0
POLYLINE
  8
PLAN_1
 62
     5
  6
CONTINUOUS
 66
     1
 40
0.003000
 41
0.003000
  0
VERTEX
  8
PLAN_1
 62
     5
  6
CONTINUOUS
 10
-0.969638
 20
3.532972
  0
VERTEX
  8
PLAN_1
 62
     5
  6
CONTINUOUS
 10
-0.961272
 20
3.532972
  0
SEQEND
  8
0
  0
POLYLINE
  8
PLAN_1
 62
     5
  6
CONTINUOUS
 66
     1
 40
0.003000
 41
0.003000
  0
VERTEX
  8
PLAN_1
 62
     5
  6
CONTINUOUS
 10
-0.952902
 20
3.532972
  0
VERTEX
  8
PLAN_1
 62
     5
  6
CONTINUOUS
 10
-0.944535
 20
3.532972
  0
SEQEND
  8
0
  0
POLYLINE
  8
PLAN_1
 62
     5
  6
CONTINUOUS
 66
     1
 40
0.003000
 41
0.003000
  0
VERTEX
  8
PLAN_1
 62
     5
  6
CONTINUOUS
 10
-0.936657
 20
3.532972
  0
VERTEX
  8
PLAN_1
 62
     5
  6
CONTINUOUS
 10
-0.928291
 20
3.532972
  0
SEQEND
  8
0
  0
POLYLINE
  8
PLAN_1
 62
     5
  6
CONTINUOUS
 66
     1
 40
0.003000
 41
0.003000
  0
VERTEX
  8
PLAN_1
 62
     5
  6
CONTINUOUS
 10
-0.919925
 20
3.532972
  0
VERTEX
  8
PLAN_1
 62
     5
  6
CONTINUOUS
 10
-0.911555
 20
3.532972
  0
SEQEND
  8
0
  0
POLYLINE
  8
PLAN_1
 62
     5
  6
CONTINUOUS
 66
     1
 40
0.003000
 41
0.003000
  0
VERTEX
  8
PLAN_1
 62
     5
  6
CONTINUOUS
 10
-0.903189
 20
3.532972
  0
VERTEX
  8
PLAN_1
 62
     5
  6
CONTINUOUS
 10
-0.894823
 20
3.532972
  0
SEQEND
  8
0
  0
POLYLINE
  8
PLAN_1
 62
     5
  6
CONTINUOUS
 66
     1
 40
0.003000
 41
0.003000
  0
VERTEX
  8
PLAN_1
 62
     5
  6
CONTINUOUS
 10
-0.886453
 20
3.532972
  0
VERTEX
  8
PLAN_1
 62
     5
  6
CONTINUOUS
 10
-0.878087
 20
3.532972
  0
SEQEND
  8
0
  0
POLYLINE
  8
PLAN_1
 62
     5
  6
CONTINUOUS
 66
     1
 40
0.003000
 41
0.003000
  0
VERTEX
  8
PLAN_1
 62
     5
  6
CONTINUOUS
 10
-0.869720
 20
3.532972
  0
VERTEX
  8
PLAN_1
 62
     5
  6
CONTINUOUS
 10
-0.861350
 20
3.532972
  0
SEQEND
  8
0
  0
POLYLINE
  8
PLAN_1
 62
     5
  6
CONTINUOUS
 66
     1
 40
0.003000
 41
0.003000
  0
VERTEX
  8
PLAN_1
 62
     5
  6
CONTINUOUS
 10
-0.852984
 20
3.532972
  0
VERTEX
  8
PLAN_1
 62
     5
  6
CONTINUOUS
 10
-0.844618
 20
3.532972
  0
SEQEND
  8
0
  0
POLYLINE
  8
PLAN_1
 62
     5
  6
CONTINUOUS
 66
     1
 40
0.003000
 41
0.003000
  0
VERTEX
  8
PLAN_1
 62
     5
  6
CONTINUOUS
 10
-0.836740
 20
3.532972
  0
VERTEX
  8
PLAN_1
 62
     5
  6
CONTINUOUS
 10
-0.828374
 20
3.532972
  0
SEQEND
  8
0
  0
POLYLINE
  8
PLAN_1
 62
     5
  6
CONTINUOUS
 66
     1
 40
0.003000
 41
0.003000
  0
VERTEX
  8
PLAN_1
 62
     5
  6
CONTINUOUS
 10
-0.820004
 20
3.532972
  0
VERTEX
  8
PLAN_1
 62
     5
  6
CONTINUOUS
 10
-0.811638
 20
3.532972
  0
SEQEND
  8
0
  0
POLYLINE
  8
PLAN_1
 62
     5
  6
CONTINUOUS
 66
     1
 40
0.003000
 41
0.003000
  0
VERTEX
  8
PLAN_1
 62
     5
  6
CONTINUOUS
 10
-0.803272
 20
3.532972
  0
VERTEX
  8
PLAN_1
 62
     5
  6
CONTINUOUS
 10
-0.794902
 20
3.532972
  0
SEQEND
  8
0
  0
POLYLINE
  8
PLAN_1
 62
     5
  6
CONTINUOUS
 66
     1
 40
0.003000
 41
0.003000
  0
VERTEX
  8
PLAN_1
 62
     5
  6
CONTINUOUS
 10
-0.786535
 20
3.532972
  0
VERTEX
  8
PLAN_1
 62
     5
  6
CONTINUOUS
 10
-0.778169
 20
3.532972
  0
SEQEND
  8
0
  0
POLYLINE
  8
PLAN_1
 62
     5
  6
CONTINUOUS
 66
     1
 40
0.003000
 41
0.003000
  0
VERTEX
  8
PLAN_1
 62
     5
  6
CONTINUOUS
 10
-0.769799
 20
3.532972
  0
VERTEX
  8
PLAN_1
 62
     5
  6
CONTINUOUS
 10
-0.761433
 20
3.532972
  0
SEQEND
  8
0
  0
POLYLINE
  8
PLAN_1
 62
     5
  6
CONTINUOUS
 66
     1
 40
0.003000
 41
0.003000
  0
VERTEX
  8
PLAN_1
 62
     5
  6
CONTINUOUS
 10
-0.753067
 20
3.532972
  0
VERTEX
  8
PLAN_1
 62
     5
  6
CONTINUOUS
 10
-0.744697
 20
3.532972
  0
SEQEND
  8
0
  0
POLYLINE
  8
PLAN_1
 62
     5
  6
CONTINUOUS
 66
     1
 40
0.003000
 41
0.003000
  0
VERTEX
  8
PLAN_1
 62
     5
  6
CONTINUOUS
 10
-0.736823
 20
3.532972
  0
VERTEX
  8
PLAN_1
 62
     5
  6
CONTINUOUS
 10
-0.728453
 20
3.532972
  0
SEQEND
  8
0
  0
POLYLINE
  8
PLAN_1
 62
     5
  6
CONTINUOUS
 66
     1
 40
0.003000
 41
0.003000
  0
VERTEX
  8
PLAN_1
 62
     5
  6
CONTINUOUS
 10
-0.720087
 20
3.532972
  0
VERTEX
  8
PLAN_1
 62
     5
  6
CONTINUOUS
 10
-0.711720
 20
3.532972
  0
SEQEND
  8
0
  0
POLYLINE
  8
PLAN_1
 62
     5
  6
CONTINUOUS
 66
     1
 40
0.003000
 41
0.003000
  0
VERTEX
  8
PLAN_1
 62
     5
  6
CONTINUOUS
 10
-0.703350
 20
3.532972
  0
VERTEX
  8
PLAN_1
 62
     5
  6
CONTINUOUS
 10
-0.694984
 20
3.532972
  0
SEQEND
  8
0
  0
POLYLINE
  8
PLAN_1
 62
     5
  6
CONTINUOUS
 66
     1
 40
0.003000
 41
0.003000
  0
VERTEX
  8
PLAN_1
 62
     5
  6
CONTINUOUS
 10
-0.686618
 20
3.532972
  0
VERTEX
  8
PLAN_1
 62
     5
  6
CONTINUOUS
 10
-0.678248
 20
3.532972
  0
SEQEND
  8
0
  0
POLYLINE
  8
PLAN_1
 62
     5
  6
CONTINUOUS
 66
     1
 40
0.003000
 41
0.003000
  0
VERTEX
  8
PLAN_1
 62
     5
  6
CONTINUOUS
 10
-0.669882
 20
3.532972
  0
VERTEX
  8
PLAN_1
 62
     5
  6
CONTINUOUS
 10
-0.661516
 20
3.532972
  0
SEQEND
  8
0
  0
POLYLINE
  8
PLAN_1
 62
     5
  6
CONTINUOUS
 66
     1
 40
0.003000
 41
0.003000
  0
VERTEX
  8
PLAN_1
 62
     5
  6
CONTINUOUS
 10
-0.653146
 20
3.532972
  0
VERTEX
  8
PLAN_1
 62
     5
  6
CONTINUOUS
 10
-0.644780
 20
3.532972
  0
SEQEND
  8
0
  0
POLYLINE
  8
PLAN_1
 62
     5
  6
CONTINUOUS
 66
     1
 40
0.003000
 41
0.003000
  0
VERTEX
  8
PLAN_1
 62
     5
  6
CONTINUOUS
 10
-0.636906
 20
3.532972
  0
VERTEX
  8
PLAN_1
 62
     5
  6
CONTINUOUS
 10
-0.628535
 20
3.532972
  0
SEQEND
  8
0
  0
POLYLINE
  8
PLAN_1
 62
     5
  6
CONTINUOUS
 66
     1
 40
0.003000
 41
0.003000
  0
VERTEX
  8
PLAN_1
 62
     5
  6
CONTINUOUS
 10
-0.620169
 20
3.532972
  0
VERTEX
  8
PLAN_1
 62
     5
  6
CONTINUOUS
 10
-0.611799
 20
3.532972
  0
SEQEND
  8
0
  0
POLYLINE
  8
PLAN_1
 62
     5
  6
CONTINUOUS
 66
     1
 40
0.003000
 41
0.003000
  0
VERTEX
  8
PLAN_1
 62
     5
  6
CONTINUOUS
 10
-0.603433
 20
3.532972
  0
VERTEX
  8
PLAN_1
 62
     5
  6
CONTINUOUS
 10
-0.595067
 20
3.532972
  0
SEQEND
  8
0
  0
POLYLINE
  8
PLAN_1
 62
     5
  6
CONTINUOUS
 66
     1
 40
0.003000
 41
0.003000
  0
VERTEX
  8
PLAN_1
 62
     5
  6
CONTINUOUS
 10
-0.586697
 20
3.532972
  0
VERTEX
  8
PLAN_1
 62
     5
  6
CONTINUOUS
 10
-0.578331
 20
3.532972
  0
SEQEND
  8
0
  0
POLYLINE
  8
PLAN_1
 62
     5
  6
CONTINUOUS
 66
     1
 40
0.003000
 41
0.003000
  0
VERTEX
  8
PLAN_1
 62
     5
  6
CONTINUOUS
 10
-0.569965
 20
3.532972
  0
VERTEX
  8
PLAN_1
 62
     5
  6
CONTINUOUS
 10
-0.561594
 20
3.532972
  0
SEQEND
  8
0
  0
POLYLINE
  8
PLAN_1
 62
     5
  6
CONTINUOUS
 66
     1
 40
0.003000
 41
0.003000
  0
VERTEX
  8
PLAN_1
 62
     5
  6
CONTINUOUS
 10
-0.553228
 20
3.532972
  0
VERTEX
  8
PLAN_1
 62
     5
  6
CONTINUOUS
 10
-0.544862
 20
3.532972
  0
SEQEND
  8
0
  0
POLYLINE
  8
PLAN_1
 62
     5
  6
CONTINUOUS
 66
     1
 40
0.003000
 41
0.003000
  0
VERTEX
  8
PLAN_1
 62
     5
  6
CONTINUOUS
 10
-0.536492
 20
3.532972
  0
VERTEX
  8
PLAN_1
 62
     5
  6
CONTINUOUS
 10
-0.528618
 20
3.532972
  0
SEQEND
  8
0
  0
POLYLINE
  8
PLAN_1
 62
     5
  6
CONTINUOUS
 66
     1
 40
0.003000
 41
0.003000
  0
VERTEX
  8
PLAN_1
 62
     5
  6
CONTINUOUS
 10
-0.520252
 20
3.532972
  0
VERTEX
  8
PLAN_1
 62
     5
  6
CONTINUOUS
 10
-0.511882
 20
3.532972
  0
SEQEND
  8
0
  0
POLYLINE
  8
PLAN_1
 62
     5
  6
CONTINUOUS
 66
     1
 40
0.003000
 41
0.003000
  0
VERTEX
  8
PLAN_1
 62
     5
  6
CONTINUOUS
 10
-0.503516
 20
3.532972
  0
VERTEX
  8
PLAN_1
 62
     5
  6
CONTINUOUS
 10
-0.495146
 20
3.532972
  0
SEQEND
  8
0
  0
POLYLINE
  8
PLAN_1
 62
     5
  6
CONTINUOUS
 66
     1
 40
0.003000
 41
0.003000
  0
VERTEX
  8
PLAN_1
 62
     5
  6
CONTINUOUS
 10
-0.486780
 20
3.532972
  0
VERTEX
  8
PLAN_1
 62
     5
  6
CONTINUOUS
 10
-0.478413
 20
3.532972
  0
SEQEND
  8
0
  0
POLYLINE
  8
PLAN_1
 62
     5
  6
CONTINUOUS
 66
     1
 40
0.003000
 41
0.003000
  0
VERTEX
  8
PLAN_1
 62
     5
  6
CONTINUOUS
 10
-0.470043
 20
3.532972
  0
VERTEX
  8
PLAN_1
 62
     5
  6
CONTINUOUS
 10
-0.461677
 20
3.532972
  0
SEQEND
  8
0
  0
POLYLINE
  8
PLAN_1
 62
     5
  6
CONTINUOUS
 66
     1
 40
0.003000
 41
0.003000
  0
VERTEX
  8
PLAN_1
 62
     5
  6
CONTINUOUS
 10
-0.453311
 20
3.532972
  0
VERTEX
  8
PLAN_1
 62
     5
  6
CONTINUOUS
 10
-0.444941
 20
3.532972
  0
SEQEND
  8
0
  0
POLYLINE
  8
PLAN_1
 62
     5
  6
CONTINUOUS
 66
     1
 40
0.003000
 41
0.003000
  0
VERTEX
  8
PLAN_1
 62
     5
  6
CONTINUOUS
 10
-0.436575
 20
3.532972
  0
VERTEX
  8
PLAN_1
 62
     5
  6
CONTINUOUS
 10
-0.428701
 20
3.532972
  0
SEQEND
  8
0
  0
POLYLINE
  8
PLAN_1
 62
     5
  6
CONTINUOUS
 66
     1
 40
0.003000
 41
0.003000
  0
VERTEX
  8
PLAN_1
 62
     5
  6
CONTINUOUS
 10
-0.420331
 20
3.532972
  0
VERTEX
  8
PLAN_1
 62
     5
  6
CONTINUOUS
 10
-0.411965
 20
3.532972
  0
SEQEND
  8
0
  0
POLYLINE
  8
PLAN_1
 62
     5
  6
CONTINUOUS
 66
     1
 40
0.003000
 41
0.003000
  0
VERTEX
  8
PLAN_1
 62
     5
  6
CONTINUOUS
 10
-0.403594
 20
3.532972
  0
VERTEX
  8
PLAN_1
 62
     5
  6
CONTINUOUS
 10
-0.395228
 20
3.532972
  0
SEQEND
  8
0
  0
POLYLINE
  8
PLAN_1
 62
     5
  6
CONTINUOUS
 66
     1
 40
0.003000
 41
0.003000
  0
VERTEX
  8
PLAN_1
 62
     5
  6
CONTINUOUS
 10
-0.386862
 20
3.532972
  0
VERTEX
  8
PLAN_1
 62
     5
  6
CONTINUOUS
 10
-0.378492
 20
3.532972
  0
SEQEND
  8
0
  0
POLYLINE
  8
PLAN_1
 62
     5
  6
CONTINUOUS
 66
     1
 40
0.003000
 41
0.003000
  0
VERTEX
  8
PLAN_1
 62
     5
  6
CONTINUOUS
 10
-0.370126
 20
3.532972
  0
VERTEX
  8
PLAN_1
 62
     5
  6
CONTINUOUS
 10
-0.361760
 20
3.532972
  0
SEQEND
  8
0
  0
POLYLINE
  8
PLAN_1
 62
     5
  6
CONTINUOUS
 66
     1
 40
0.003000
 41
0.003000
  0
VERTEX
  8
PLAN_1
 62
     5
  6
CONTINUOUS
 10
-0.353390
 20
3.532972
  0
VERTEX
  8
PLAN_1
 62
     5
  6
CONTINUOUS
 10
-0.345024
 20
3.532972
  0
SEQEND
  8
0
  0
POLYLINE
  8
PLAN_1
 62
     5
  6
CONTINUOUS
 66
     1
 40
0.003000
 41
0.003000
  0
VERTEX
  8
PLAN_1
 62
     5
  6
CONTINUOUS
 10
-0.336657
 20
3.532972
  0
VERTEX
  8
PLAN_1
 62
     5
  6
CONTINUOUS
 10
-0.328780
 20
3.532972
  0
SEQEND
  8
0
  0
POLYLINE
  8
PLAN_1
 62
     5
  6
CONTINUOUS
 66
     1
 40
0.003000
 41
0.003000
  0
VERTEX
  8
PLAN_1
 62
     5
  6
CONTINUOUS
 10
-0.320413
 20
3.532972
  0
VERTEX
  8
PLAN_1
 62
     5
  6
CONTINUOUS
 10
-0.312047
 20
3.532972
  0
SEQEND
  8
0
  0
POLYLINE
  8
PLAN_1
 62
     5
  6
CONTINUOUS
 66
     1
 40
0.003000
 41
0.003000
  0
VERTEX
  8
PLAN_1
 62
     5
  6
CONTINUOUS
 10
-0.303677
 20
3.532972
  0
VERTEX
  8
PLAN_1
 62
     5
  6
CONTINUOUS
 10
-0.295311
 20
3.532972
  0
SEQEND
  8
0
  0
POLYLINE
  8
PLAN_1
 62
     5
  6
CONTINUOUS
 66
     1
 40
0.003000
 41
0.003000
  0
VERTEX
  8
PLAN_1
 62
     5
  6
CONTINUOUS
 10
-0.286941
 20
3.532972
  0
VERTEX
  8
PLAN_1
 62
     5
  6
CONTINUOUS
 10
-0.278575
 20
3.532972
  0
SEQEND
  8
0
  0
POLYLINE
  8
PLAN_1
 62
     5
  6
CONTINUOUS
 66
     1
 40
0.003000
 41
0.003000
  0
VERTEX
  8
PLAN_1
 62
     5
  6
CONTINUOUS
 10
-0.270209
 20
3.532972
  0
VERTEX
  8
PLAN_1
 62
     5
  6
CONTINUOUS
 10
-0.261839
 20
3.532972
  0
SEQEND
  8
0
  0
POLYLINE
  8
PLAN_1
 62
     5
  6
CONTINUOUS
 66
     1
 40
0.003000
 41
0.003000
  0
VERTEX
  8
PLAN_1
 62
     5
  6
CONTINUOUS
 10
-0.253472
 20
3.532972
  0
VERTEX
  8
PLAN_1
 62
     5
  6
CONTINUOUS
 10
-0.245106
 20
3.532972
  0
SEQEND
  8
0
  0
POLYLINE
  8
PLAN_1
 62
     5
  6
CONTINUOUS
 66
     1
 40
0.003000
 41
0.003000
  0
VERTEX
  8
PLAN_1
 62
     5
  6
CONTINUOUS
 10
-0.236736
 20
3.532972
  0
VERTEX
  8
PLAN_1
 62
     5
  6
CONTINUOUS
 10
-0.228862
 20
3.532972
  0
SEQEND
  8
0
  0
POLYLINE
  8
PLAN_1
 62
     5
  6
CONTINUOUS
 66
     1
 40
0.003000
 41
0.003000
  0
VERTEX
  8
PLAN_1
 62
     5
  6
CONTINUOUS
 10
-0.220496
 20
3.532972
  0
VERTEX
  8
PLAN_1
 62
     5
  6
CONTINUOUS
 10
-0.212126
 20
3.532972
  0
SEQEND
  8
0
  0
POLYLINE
  8
PLAN_1
 62
     5
  6
CONTINUOUS
 66
     1
 40
0.003000
 41
0.003000
  0
VERTEX
  8
PLAN_1
 62
     5
  6
CONTINUOUS
 10
-0.203760
 20
3.532972
  0
VERTEX
  8
PLAN_1
 62
     5
  6
CONTINUOUS
 10
-0.195390
 20
3.532972
  0
SEQEND
  8
0
  0
POLYLINE
  8
PLAN_1
 62
     5
  6
CONTINUOUS
 66
     1
 40
0.003000
 41
0.003000
  0
VERTEX
  8
PLAN_1
 62
     5
  6
CONTINUOUS
 10
-0.187024
 20
3.532972
  0
VERTEX
  8
PLAN_1
 62
     5
  6
CONTINUOUS
 10
-0.178657
 20
3.532972
  0
SEQEND
  8
0
  0
POLYLINE
  8
PLAN_1
 62
     5
  6
CONTINUOUS
 66
     1
 40
0.003000
 41
0.003000
  0
VERTEX
  8
PLAN_1
 62
     5
  6
CONTINUOUS
 10
-0.170287
 20
3.532972
  0
VERTEX
  8
PLAN_1
 62
     5
  6
CONTINUOUS
 10
-0.165366
 20
3.532972
  0
SEQEND
  8
0
  0
POLYLINE
  8
PLAN_1
 62
     5
  6
CONTINUOUS
 66
     1
 40
0.003000
 41
0.003000
  0
VERTEX
  8
PLAN_1
 62
     5
  6
CONTINUOUS
 10
-0.170287
 20
3.532972
  0
VERTEX
  8
PLAN_1
 62
     5
  6
CONTINUOUS
 10
-0.165366
 20
3.532972
  0
SEQEND
  8
0
  0
POLYLINE
  8
PLAN_1
  6
CONTINUOUS
 66
     1
 40
0.008366
 41
0.008366
  0
VERTEX
  8
PLAN_1
  6
CONTINUOUS
 10
0.019213
 20
3.243063
  0
VERTEX
  8
PLAN_1
  6
CONTINUOUS
 10
-0.282512
 20
3.243063
  0
VERTEX
  8
PLAN_1
  6
CONTINUOUS
 10
-0.282512
 20
3.053071
  0
VERTEX
  8
PLAN_1
  6
CONTINUOUS
 10
-0.937150
 20
3.053071
  0
VERTEX
  8
PLAN_1
  6
CONTINUOUS
 10
-0.937150
 20
3.244047
  0
VERTEX
  8
PLAN_1
  6
CONTINUOUS
 10
-1.241339
 20
3.244047
  0
SEQEND
  8
0
  0
POLYLINE
  8
PLAN_1
 62
     5
  6
CONTINUOUS
 66
     1
 40
0.003000
 41
0.003000
  0
VERTEX
  8
PLAN_1
 62
     5
  6
CONTINUOUS
 10
-0.605894
 20
3.934126
  0
VERTEX
  8
PLAN_1
 62
     5
  6
CONTINUOUS
 10
-0.605894
 20
3.925756
  0
SEQEND
  8
0
  0
POLYLINE
  8
PLAN_1
 62
     5
  6
CONTINUOUS
 66
     1
 40
0.003000
 41
0.003000
  0
VERTEX
  8
PLAN_1
 62
     5
  6
CONTINUOUS
 10
-0.605894
 20
3.917390
  0
VERTEX
  8
PLAN_1
 62
     5
  6
CONTINUOUS
 10
-0.605894
 20
3.909024
  0
SEQEND
  8
0
  0
POLYLINE
  8
PLAN_1
 62
     5
  6
CONTINUOUS
 66
     1
 40
0.003000
 41
0.003000
  0
VERTEX
  8
PLAN_1
 62
     5
  6
CONTINUOUS
 10
-0.605894
 20
3.900654
  0
VERTEX
  8
PLAN_1
 62
     5
  6
CONTINUOUS
 10
-0.605894
 20
3.892287
  0
SEQEND
  8
0
  0
POLYLINE
  8
PLAN_1
 62
     5
  6
CONTINUOUS
 66
     1
 40
0.003000
 41
0.003000
  0
VERTEX
  8
PLAN_1
 62
     5
  6
CONTINUOUS
 10
-0.605894
 20
3.883917
  0
VERTEX
  8
PLAN_1
 62
     5
  6
CONTINUOUS
 10
-0.605894
 20
3.876043
  0
SEQEND
  8
0
  0
POLYLINE
  8
PLAN_1
 62
     5
  6
CONTINUOUS
 66
     1
 40
0.003000
 41
0.003000
  0
VERTEX
  8
PLAN_1
 62
     5
  6
CONTINUOUS
 10
-0.605894
 20
3.867677
  0
VERTEX
  8
PLAN_1
 62
     5
  6
CONTINUOUS
 10
-0.605894
 20
3.859307
  0
SEQEND
  8
0
  0
POLYLINE
  8
PLAN_1
 62
     5
  6
CONTINUOUS
 66
     1
 40
0.003000
 41
0.003000
  0
VERTEX
  8
PLAN_1
 62
     5
  6
CONTINUOUS
 10
-0.605894
 20
3.850941
  0
VERTEX
  8
PLAN_1
 62
     5
  6
CONTINUOUS
 10
-0.605894
 20
3.842575
  0
SEQEND
  8
0
  0
POLYLINE
  8
PLAN_1
 62
     5
  6
CONTINUOUS
 66
     1
 40
0.003000
 41
0.003000
  0
VERTEX
  8
PLAN_1
 62
     5
  6
CONTINUOUS
 10
-0.605894
 20
3.834205
  0
VERTEX
  8
PLAN_1
 62
     5
  6
CONTINUOUS
 10
-0.605894
 20
3.825839
  0
SEQEND
  8
0
  0
POLYLINE
  8
PLAN_1
 62
     5
  6
CONTINUOUS
 66
     1
 40
0.003000
 41
0.003000
  0
VERTEX
  8
PLAN_1
 62
     5
  6
CONTINUOUS
 10
-0.605894
 20
3.817472
  0
VERTEX
  8
PLAN_1
 62
     5
  6
CONTINUOUS
 10
-0.605894
 20
3.809102
  0
SEQEND
  8
0
  0
POLYLINE
  8
PLAN_1
 62
     5
  6
CONTINUOUS
 66
     1
 40
0.003000
 41
0.003000
  0
VERTEX
  8
PLAN_1
 62
     5
  6
CONTINUOUS
 10
-0.605894
 20
3.800736
  0
VERTEX
  8
PLAN_1
 62
     5
  6
CONTINUOUS
 10
-0.605894
 20
3.792370
  0
SEQEND
  8
0
  0
POLYLINE
  8
PLAN_1
 62
     5
  6
CONTINUOUS
 66
     1
 40
0.003000
 41
0.003000
  0
VERTEX
  8
PLAN_1
 62
     5
  6
CONTINUOUS
 10
-0.605894
 20
3.784000
  0
VERTEX
  8
PLAN_1
 62
     5
  6
CONTINUOUS
 10
-0.605894
 20
3.776126
  0
SEQEND
  8
0
  0
POLYLINE
  8
PLAN_1
 62
     5
  6
CONTINUOUS
 66
     1
 40
0.003000
 41
0.003000
  0
VERTEX
  8
PLAN_1
 62
     5
  6
CONTINUOUS
 10
-0.605894
 20
3.767756
  0
VERTEX
  8
PLAN_1
 62
     5
  6
CONTINUOUS
 10
-0.605894
 20
3.759390
  0
SEQEND
  8
0
  0
POLYLINE
  8
PLAN_1
 62
     5
  6
CONTINUOUS
 66
     1
 40
0.003000
 41
0.003000
  0
VERTEX
  8
PLAN_1
 62
     5
  6
CONTINUOUS
 10
-0.605894
 20
3.751024
  0
VERTEX
  8
PLAN_1
 62
     5
  6
CONTINUOUS
 10
-0.605894
 20
3.742654
  0
SEQEND
  8
0
  0
POLYLINE
  8
PLAN_1
 62
     5
  6
CONTINUOUS
 66
     1
 40
0.003000
 41
0.003000
  0
VERTEX
  8
PLAN_1
 62
     5
  6
CONTINUOUS
 10
-0.605894
 20
3.734287
  0
VERTEX
  8
PLAN_1
 62
     5
  6
CONTINUOUS
 10
-0.605894
 20
3.725921
  0
SEQEND
  8
0
  0
POLYLINE
  8
PLAN_1
 62
     5
  6
CONTINUOUS
 66
     1
 40
0.003000
 41
0.003000
  0
VERTEX
  8
PLAN_1
 62
     5
  6
CONTINUOUS
 10
-0.605894
 20
3.717551
  0
VERTEX
  8
PLAN_1
 62
     5
  6
CONTINUOUS
 10
-0.605894
 20
3.709185
  0
SEQEND
  8
0
  0
POLYLINE
  8
PLAN_1
 62
     5
  6
CONTINUOUS
 66
     1
 40
0.003000
 41
0.003000
  0
VERTEX
  8
PLAN_1
 62
     5
  6
CONTINUOUS
 10
-0.605894
 20
3.700819
  0
VERTEX
  8
PLAN_1
 62
     5
  6
CONTINUOUS
 10
-0.605894
 20
3.692449
  0
SEQEND
  8
0
  0
POLYLINE
  8
PLAN_1
 62
     5
  6
CONTINUOUS
 66
     1
 40
0.003000
 41
0.003000
  0
VERTEX
  8
PLAN_1
 62
     5
  6
CONTINUOUS
 10
-0.605894
 20
3.684083
  0
VERTEX
  8
PLAN_1
 62
     5
  6
CONTINUOUS
 10
-0.605894
 20
3.676209
  0
SEQEND
  8
0
  0
POLYLINE
  8
PLAN_1
 62
     5
  6
CONTINUOUS
 66
     1
 40
0.003000
 41
0.003000
  0
VERTEX
  8
PLAN_1
 62
     5
  6
CONTINUOUS
 10
-0.605894
 20
3.667839
  0
VERTEX
  8
PLAN_1
 62
     5
  6
CONTINUOUS
 10
-0.605894
 20
3.659472
  0
SEQEND
  8
0
  0
POLYLINE
  8
PLAN_1
 62
     5
  6
CONTINUOUS
 66
     1
 40
0.003000
 41
0.003000
  0
VERTEX
  8
PLAN_1
 62
     5
  6
CONTINUOUS
 10
-0.605894
 20
3.651102
  0
VERTEX
  8
PLAN_1
 62
     5
  6
CONTINUOUS
 10
-0.605894
 20
3.642736
  0
SEQEND
  8
0
  0
POLYLINE
  8
PLAN_1
 62
     5
  6
CONTINUOUS
 66
     1
 40
0.003000
 41
0.003000
  0
VERTEX
  8
PLAN_1
 62
     5
  6
CONTINUOUS
 10
-0.605894
 20
3.634370
  0
VERTEX
  8
PLAN_1
 62
     5
  6
CONTINUOUS
 10
-0.605894
 20
3.626000
  0
SEQEND
  8
0
  0
POLYLINE
  8
PLAN_1
 62
     5
  6
CONTINUOUS
 66
     1
 40
0.003000
 41
0.003000
  0
VERTEX
  8
PLAN_1
 62
     5
  6
CONTINUOUS
 10
-0.605894
 20
3.617634
  0
VERTEX
  8
PLAN_1
 62
     5
  6
CONTINUOUS
 10
-0.605894
 20
3.609268
  0
SEQEND
  8
0
  0
POLYLINE
  8
PLAN_1
 62
     5
  6
CONTINUOUS
 66
     1
 40
0.003000
 41
0.003000
  0
VERTEX
  8
PLAN_1
 62
     5
  6
CONTINUOUS
 10
-0.605894
 20
3.600898
  0
VERTEX
  8
PLAN_1
 62
     5
  6
CONTINUOUS
 10
-0.605894
 20
3.592531
  0
SEQEND
  8
0
  0
POLYLINE
  8
PLAN_1
 62
     5
  6
CONTINUOUS
 66
     1
 40
0.003000
 41
0.003000
  0
VERTEX
  8
PLAN_1
 62
     5
  6
CONTINUOUS
 10
-0.605894
 20
3.584165
  0
VERTEX
  8
PLAN_1
 62
     5
  6
CONTINUOUS
 10
-0.605894
 20
3.575795
  0
SEQEND
  8
0
  0
POLYLINE
  8
PLAN_1
 62
     5
  6
CONTINUOUS
 66
     1
 40
0.003000
 41
0.003000
  0
VERTEX
  8
PLAN_1
 62
     5
  6
CONTINUOUS
 10
-0.605894
 20
3.567921
  0
VERTEX
  8
PLAN_1
 62
     5
  6
CONTINUOUS
 10
-0.605894
 20
3.559551
  0
SEQEND
  8
0
  0
POLYLINE
  8
PLAN_1
 62
     5
  6
CONTINUOUS
 66
     1
 40
0.003000
 41
0.003000
  0
VERTEX
  8
PLAN_1
 62
     5
  6
CONTINUOUS
 10
-0.605894
 20
3.551185
  0
VERTEX
  8
PLAN_1
 62
     5
  6
CONTINUOUS
 10
-0.605894
 20
3.542819
  0
SEQEND
  8
0
  0
POLYLINE
  8
PLAN_1
 62
     5
  6
CONTINUOUS
 66
     1
 40
0.003000
 41
0.003000
  0
VERTEX
  8
PLAN_1
 62
     5
  6
CONTINUOUS
 10
-0.605894
 20
3.534449
  0
VERTEX
  8
PLAN_1
 62
     5
  6
CONTINUOUS
 10
-0.605894
 20
3.526083
  0
SEQEND
  8
0
  0
POLYLINE
  8
PLAN_1
 62
     5
  6
CONTINUOUS
 66
     1
 40
0.003000
 41
0.003000
  0
VERTEX
  8
PLAN_1
 62
     5
  6
CONTINUOUS
 10
-0.605894
 20
3.517717
  0
VERTEX
  8
PLAN_1
 62
     5
  6
CONTINUOUS
 10
-0.605894
 20
3.509346
  0
SEQEND
  8
0
  0
POLYLINE
  8
PLAN_1
 62
     5
  6
CONTINUOUS
 66
     1
 40
0.003000
 41
0.003000
  0
VERTEX
  8
PLAN_1
 62
     5
  6
CONTINUOUS
 10
-0.605894
 20
3.500980
  0
VERTEX
  8
PLAN_1
 62
     5
  6
CONTINUOUS
 10
-0.605894
 20
3.492614
  0
SEQEND
  8
0
  0
POLYLINE
  8
PLAN_1
 62
     5
  6
CONTINUOUS
 66
     1
 40
0.003000
 41
0.003000
  0
VERTEX
  8
PLAN_1
 62
     5
  6
CONTINUOUS
 10
-0.605894
 20
3.484244
  0
VERTEX
  8
PLAN_1
 62
     5
  6
CONTINUOUS
 10
-0.605894
 20
3.475878
  0
SEQEND
  8
0
  0
POLYLINE
  8
PLAN_1
 62
     5
  6
CONTINUOUS
 66
     1
 40
0.003000
 41
0.003000
  0
VERTEX
  8
PLAN_1
 62
     5
  6
CONTINUOUS
 10
-0.605894
 20
3.468004
  0
VERTEX
  8
PLAN_1
 62
     5
  6
CONTINUOUS
 10
-0.605894
 20
3.459634
  0
SEQEND
  8
0
  0
POLYLINE
  8
PLAN_1
 62
     5
  6
CONTINUOUS
 66
     1
 40
0.003000
 41
0.003000
  0
VERTEX
  8
PLAN_1
 62
     5
  6
CONTINUOUS
 10
-0.605894
 20
3.451268
  0
VERTEX
  8
PLAN_1
 62
     5
  6
CONTINUOUS
 10
-0.605894
 20
3.442898
  0
SEQEND
  8
0
  0
POLYLINE
  8
PLAN_1
 62
     5
  6
CONTINUOUS
 66
     1
 40
0.003000
 41
0.003000
  0
VERTEX
  8
PLAN_1
 62
     5
  6
CONTINUOUS
 10
-0.605894
 20
3.434531
  0
VERTEX
  8
PLAN_1
 62
     5
  6
CONTINUOUS
 10
-0.605894
 20
3.426165
  0
SEQEND
  8
0
  0
POLYLINE
  8
PLAN_1
 62
     5
  6
CONTINUOUS
 66
     1
 40
0.003000
 41
0.003000
  0
VERTEX
  8
PLAN_1
 62
     5
  6
CONTINUOUS
 10
-0.605894
 20
3.417795
  0
VERTEX
  8
PLAN_1
 62
     5
  6
CONTINUOUS
 10
-0.605894
 20
3.409429
  0
SEQEND
  8
0
  0
POLYLINE
  8
PLAN_1
 62
     5
  6
CONTINUOUS
 66
     1
 40
0.003000
 41
0.003000
  0
VERTEX
  8
PLAN_1
 62
     5
  6
CONTINUOUS
 10
-0.605894
 20
3.401063
  0
VERTEX
  8
PLAN_1
 62
     5
  6
CONTINUOUS
 10
-0.605894
 20
3.392693
  0
SEQEND
  8
0
  0
POLYLINE
  8
PLAN_1
 62
     5
  6
CONTINUOUS
 66
     1
 40
0.003000
 41
0.003000
  0
VERTEX
  8
PLAN_1
 62
     5
  6
CONTINUOUS
 10
-0.605894
 20
3.384327
  0
VERTEX
  8
PLAN_1
 62
     5
  6
CONTINUOUS
 10
-0.605894
 20
3.375961
  0
SEQEND
  8
0
  0
POLYLINE
  8
PLAN_1
 62
     5
  6
CONTINUOUS
 66
     1
 40
0.003000
 41
0.003000
  0
VERTEX
  8
PLAN_1
 62
     5
  6
CONTINUOUS
 10
-0.605894
 20
3.368083
  0
VERTEX
  8
PLAN_1
 62
     5
  6
CONTINUOUS
 10
-0.605894
 20
3.359717
  0
SEQEND
  8
0
  0
POLYLINE
  8
PLAN_1
 62
     5
  6
CONTINUOUS
 66
     1
 40
0.003000
 41
0.003000
  0
VERTEX
  8
PLAN_1
 62
     5
  6
CONTINUOUS
 10
-0.605894
 20
3.351350
  0
VERTEX
  8
PLAN_1
 62
     5
  6
CONTINUOUS
 10
-0.605894
 20
3.342980
  0
SEQEND
  8
0
  0
POLYLINE
  8
PLAN_1
 62
     5
  6
CONTINUOUS
 66
     1
 40
0.003000
 41
0.003000
  0
VERTEX
  8
PLAN_1
 62
     5
  6
CONTINUOUS
 10
-0.605894
 20
3.334614
  0
VERTEX
  8
PLAN_1
 62
     5
  6
CONTINUOUS
 10
-0.605894
 20
3.326244
  0
SEQEND
  8
0
  0
POLYLINE
  8
PLAN_1
 62
     5
  6
CONTINUOUS
 66
     1
 40
0.003000
 41
0.003000
  0
VERTEX
  8
PLAN_1
 62
     5
  6
CONTINUOUS
 10
-0.605894
 20
3.317878
  0
VERTEX
  8
PLAN_1
 62
     5
  6
CONTINUOUS
 10
-0.605894
 20
3.309512
  0
SEQEND
  8
0
  0
POLYLINE
  8
PLAN_1
 62
     5
  6
CONTINUOUS
 66
     1
 40
0.003000
 41
0.003000
  0
VERTEX
  8
PLAN_1
 62
     5
  6
CONTINUOUS
 10
-0.605894
 20
3.301142
  0
VERTEX
  8
PLAN_1
 62
     5
  6
CONTINUOUS
 10
-0.605894
 20
3.292776
  0
SEQEND
  8
0
  0
POLYLINE
  8
PLAN_1
 62
     5
  6
CONTINUOUS
 66
     1
 40
0.003000
 41
0.003000
  0
VERTEX
  8
PLAN_1
 62
     5
  6
CONTINUOUS
 10
-0.605894
 20
3.284409
  0
VERTEX
  8
PLAN_1
 62
     5
  6
CONTINUOUS
 10
-0.605894
 20
3.276039
  0
SEQEND
  8
0
  0
POLYLINE
  8
PLAN_1
 62
     5
  6
CONTINUOUS
 66
     1
 40
0.003000
 41
0.003000
  0
VERTEX
  8
PLAN_1
 62
     5
  6
CONTINUOUS
 10
-0.605894
 20
3.267673
  0
VERTEX
  8
PLAN_1
 62
     5
  6
CONTINUOUS
 10
-0.605894
 20
3.259799
  0
SEQEND
  8
0
  0
POLYLINE
  8
PLAN_1
 62
     5
  6
CONTINUOUS
 66
     1
 40
0.003000
 41
0.003000
  0
VERTEX
  8
PLAN_1
 62
     5
  6
CONTINUOUS
 10
-0.605894
 20
3.251429
  0
VERTEX
  8
PLAN_1
 62
     5
  6
CONTINUOUS
 10
-0.605894
 20
3.243063
  0
SEQEND
  8
0
  0
POLYLINE
  8
PLAN_1
 62
     5
  6
CONTINUOUS
 66
     1
 40
0.003000
 41
0.003000
  0
VERTEX
  8
PLAN_1
 62
     5
  6
CONTINUOUS
 10
-0.605894
 20
3.234693
  0
VERTEX
  8
PLAN_1
 62
     5
  6
CONTINUOUS
 10
-0.605894
 20
3.226327
  0
SEQEND
  8
0
  0
POLYLINE
  8
PLAN_1
 62
     5
  6
CONTINUOUS
 66
     1
 40
0.003000
 41
0.003000
  0
VERTEX
  8
PLAN_1
 62
     5
  6
CONTINUOUS
 10
-0.605894
 20
3.217961
  0
VERTEX
  8
PLAN_1
 62
     5
  6
CONTINUOUS
 10
-0.605894
 20
3.209591
  0
SEQEND
  8
0
  0
POLYLINE
  8
PLAN_1
 62
     5
  6
CONTINUOUS
 66
     1
 40
0.003000
 41
0.003000
  0
VERTEX
  8
PLAN_1
 62
     5
  6
CONTINUOUS
 10
-0.605894
 20
3.201224
  0
VERTEX
  8
PLAN_1
 62
     5
  6
CONTINUOUS
 10
-0.605894
 20
3.192858
  0
SEQEND
  8
0
  0
POLYLINE
  8
PLAN_1
 62
     5
  6
CONTINUOUS
 66
     1
 40
0.003000
 41
0.003000
  0
VERTEX
  8
PLAN_1
 62
     5
  6
CONTINUOUS
 10
-0.605894
 20
3.184488
  0
VERTEX
  8
PLAN_1
 62
     5
  6
CONTINUOUS
 10
-0.605894
 20
3.176122
  0
SEQEND
  8
0
  0
POLYLINE
  8
PLAN_1
 62
     5
  6
CONTINUOUS
 66
     1
 40
0.003000
 41
0.003000
  0
VERTEX
  8
PLAN_1
 62
     5
  6
CONTINUOUS
 10
-0.605894
 20
3.167756
  0
VERTEX
  8
PLAN_1
 62
     5
  6
CONTINUOUS
 10
-0.605894
 20
3.159878
  0
SEQEND
  8
0
  0
POLYLINE
  8
PLAN_1
 62
     5
  6
CONTINUOUS
 66
     1
 40
0.003000
 41
0.003000
  0
VERTEX
  8
PLAN_1
 62
     5
  6
CONTINUOUS
 10
-0.605894
 20
3.151512
  0
VERTEX
  8
PLAN_1
 62
     5
  6
CONTINUOUS
 10
-0.605894
 20
3.143146
  0
SEQEND
  8
0
  0
POLYLINE
  8
PLAN_1
 62
     5
  6
CONTINUOUS
 66
     1
 40
0.003000
 41
0.003000
  0
VERTEX
  8
PLAN_1
 62
     5
  6
CONTINUOUS
 10
-0.605894
 20
3.134776
  0
VERTEX
  8
PLAN_1
 62
     5
  6
CONTINUOUS
 10
-0.605894
 20
3.126409
  0
SEQEND
  8
0
  0
POLYLINE
  8
PLAN_1
 62
     5
  6
CONTINUOUS
 66
     1
 40
0.003000
 41
0.003000
  0
VERTEX
  8
PLAN_1
 62
     5
  6
CONTINUOUS
 10
-0.605894
 20
3.118039
  0
VERTEX
  8
PLAN_1
 62
     5
  6
CONTINUOUS
 10
-0.605894
 20
3.109673
  0
SEQEND
  8
0
  0
POLYLINE
  8
PLAN_1
 62
     5
  6
CONTINUOUS
 66
     1
 40
0.003000
 41
0.003000
  0
VERTEX
  8
PLAN_1
 62
     5
  6
CONTINUOUS
 10
-0.605894
 20
3.101307
  0
VERTEX
  8
PLAN_1
 62
     5
  6
CONTINUOUS
 10
-0.605894
 20
3.094413
  0
SEQEND
  8
0
  0
POLYLINE
  8
PLAN_1
 62
     5
  6
CONTINUOUS
 66
     1
 40
0.003000
 41
0.003000
  0
VERTEX
  8
PLAN_1
 62
     5
  6
CONTINUOUS
 10
-0.605894
 20
3.101307
  0
VERTEX
  8
PLAN_1
 62
     5
  6
CONTINUOUS
 10
-0.605894
 20
3.094413
  0
SEQEND
  8
0
  0
POLYLINE
  8
PLAN_1
  6
CONTINUOUS
 66
     1
 40
0.008366
 41
0.008366
  0
VERTEX
  8
PLAN_1
  6
CONTINUOUS
 10
-0.605402
 20
3.306067
  0
VERTEX
  8
PLAN_1
  6
CONTINUOUS
 10
-0.593591
 20
3.306559
  0
VERTEX
  8
PLAN_1
  6
CONTINUOUS
 10
-0.581776
 20
3.307543
  0
VERTEX
  8
PLAN_1
  6
CONTINUOUS
 10
-0.570457
 20
3.309020
  0
VERTEX
  8
PLAN_1
  6
CONTINUOUS
 10
-0.559134
 20
3.310988
  0
VERTEX
  8
PLAN_1
  6
CONTINUOUS
 10
-0.547815
 20
3.313449
  0
VERTEX
  8
PLAN_1
  6
CONTINUOUS
 10
-0.536984
 20
3.316402
  0
VERTEX
  8
PLAN_1
  6
CONTINUOUS
 10
-0.526650
 20
3.320339
  0
VERTEX
  8
PLAN_1
  6
CONTINUOUS
 10
-0.516311
 20
3.324276
  0
VERTEX
  8
PLAN_1
  6
CONTINUOUS
 10
-0.505976
 20
3.328709
  0
VERTEX
  8
PLAN_1
  6
CONTINUOUS
 10
-0.496130
 20
3.334122
  0
VERTEX
  8
PLAN_1
  6
CONTINUOUS
 10
-0.486287
 20
3.339535
  0
VERTEX
  8
PLAN_1
  6
CONTINUOUS
 10
-0.476937
 20
3.345441
  0
VERTEX
  8
PLAN_1
  6
CONTINUOUS
 10
-0.468075
 20
3.351843
  0
VERTEX
  8
PLAN_1
  6
CONTINUOUS
 10
-0.459709
 20
3.358732
  0
VERTEX
  8
PLAN_1
  6
CONTINUOUS
 10
-0.451343
 20
3.365622
  0
VERTEX
  8
PLAN_1
  6
CONTINUOUS
 10
-0.442972
 20
3.373496
  0
VERTEX
  8
PLAN_1
  6
CONTINUOUS
 10
-0.435591
 20
3.381374
  0
VERTEX
  8
PLAN_1
  6
CONTINUOUS
 10
-0.428209
 20
3.389740
  0
VERTEX
  8
PLAN_1
  6
CONTINUOUS
 10
-0.421315
 20
3.398602
  0
VERTEX
  8
PLAN_1
  6
CONTINUOUS
 10
-0.414917
 20
3.407461
  0
VERTEX
  8
PLAN_1
  6
CONTINUOUS
 10
-0.409012
 20
3.416811
  0
VERTEX
  8
PLAN_1
  6
CONTINUOUS
 10
-0.403594
 20
3.426165
  0
VERTEX
  8
PLAN_1
  6
CONTINUOUS
 10
-0.398673
 20
3.436008
  0
VERTEX
  8
PLAN_1
  6
CONTINUOUS
 10
-0.394244
 20
3.446346
  0
VERTEX
  8
PLAN_1
  6
CONTINUOUS
 10
-0.389815
 20
3.456681
  0
VERTEX
  8
PLAN_1
  6
CONTINUOUS
 10
-0.386370
 20
3.467512
  0
VERTEX
  8
PLAN_1
  6
CONTINUOUS
 10
-0.383417
 20
3.478339
  0
VERTEX
  8
PLAN_1
  6
CONTINUOUS
 10
-0.380461
 20
3.489165
  0
VERTEX
  8
PLAN_1
  6
CONTINUOUS
 10
-0.378492
 20
3.500488
  0
VERTEX
  8
PLAN_1
  6
CONTINUOUS
 10
-0.377016
 20
3.512299
  0
VERTEX
  8
PLAN_1
  6
CONTINUOUS
 10
-0.376524
 20
3.523622
  0
VERTEX
  8
PLAN_1
  6
CONTINUOUS
 10
-0.376031
 20
3.535433
  0
VERTEX
  8
PLAN_1
  6
CONTINUOUS
 10
-0.376524
 20
3.547248
  0
VERTEX
  8
PLAN_1
  6
CONTINUOUS
 10
-0.377016
 20
3.559059
  0
VERTEX
  8
PLAN_1
  6
CONTINUOUS
 10
-0.378492
 20
3.570382
  0
VERTEX
  8
PLAN_1
  6
CONTINUOUS
 10
-0.380461
 20
3.581701
  0
VERTEX
  8
PLAN_1
  6
CONTINUOUS
 10
-0.383417
 20
3.593024
  0
VERTEX
  8
PLAN_1
  6
CONTINUOUS
 10
-0.386370
 20
3.603850
  0
VERTEX
  8
PLAN_1
  6
CONTINUOUS
 10
-0.389815
 20
3.614681
  0
VERTEX
  8
PLAN_1
  6
CONTINUOUS
 10
-0.394244
 20
3.625016
  0
VERTEX
  8
PLAN_1
  6
CONTINUOUS
 10
-0.398673
 20
3.634862
  0
VERTEX
  8
PLAN_1
  6
CONTINUOUS
 10
-0.403594
 20
3.644705
  0
VERTEX
  8
PLAN_1
  6
CONTINUOUS
 10
-0.409012
 20
3.654551
  0
VERTEX
  8
PLAN_1
  6
CONTINUOUS
 10
-0.414917
 20
3.663902
  0
VERTEX
  8
PLAN_1
  6
CONTINUOUS
 10
-0.421315
 20
3.672760
  0
VERTEX
  8
PLAN_1
  6
CONTINUOUS
 10
-0.428209
 20
3.681622
  0
VERTEX
  8
PLAN_1
  6
CONTINUOUS
 10
-0.435591
 20
3.689988
  0
VERTEX
  8
PLAN_1
  6
CONTINUOUS
 10
-0.442972
 20
3.697862
  0
VERTEX
  8
PLAN_1
  6
CONTINUOUS
 10
-0.451343
 20
3.705248
  0
VERTEX
  8
PLAN_1
  6
CONTINUOUS
 10
-0.459709
 20
3.712630
  0
VERTEX
  8
PLAN_1
  6
CONTINUOUS
 10
-0.468075
 20
3.719520
  0
VERTEX
  8
PLAN_1
  6
CONTINUOUS
 10
-0.476937
 20
3.725921
  0
VERTEX
  8
PLAN_1
  6
CONTINUOUS
 10
-0.486287
 20
3.731827
  0
VERTEX
  8
PLAN_1
  6
CONTINUOUS
 10
-0.496130
 20
3.737240
  0
VERTEX
  8
PLAN_1
  6
CONTINUOUS
 10
-0.505976
 20
3.742161
  0
VERTEX
  8
PLAN_1
  6
CONTINUOUS
 10
-0.516311
 20
3.747087
  0
VERTEX
  8
PLAN_1
  6
CONTINUOUS
 10
-0.526650
 20
3.751024
  0
VERTEX
  8
PLAN_1
  6
CONTINUOUS
 10
-0.536984
 20
3.754469
  0
VERTEX
  8
PLAN_1
  6
CONTINUOUS
 10
-0.547815
 20
3.757913
  0
VERTEX
  8
PLAN_1
  6
CONTINUOUS
 10
-0.559134
 20
3.760374
  0
VERTEX
  8
PLAN_1
  6
CONTINUOUS
 10
-0.570457
 20
3.762343
  0
VERTEX
  8
PLAN_1
  6
CONTINUOUS
 10
-0.581776
 20
3.763819
  0
VERTEX
  8
PLAN_1
  6
CONTINUOUS
 10
-0.593591
 20
3.764803
  0
VERTEX
  8
PLAN_1
  6
CONTINUOUS
 10
-0.605402
 20
3.764803
  0
VERTEX
  8
PLAN_1
  6
CONTINUOUS
 10
-0.617217
 20
3.764803
  0
VERTEX
  8
PLAN_1
  6
CONTINUOUS
 10
-0.629028
 20
3.763819
  0
VERTEX
  8
PLAN_1
  6
CONTINUOUS
 10
-0.640350
 20
3.762343
  0
VERTEX
  8
PLAN_1
  6
CONTINUOUS
 10
-0.651669
 20
3.760374
  0
VERTEX
  8
PLAN_1
  6
CONTINUOUS
 10
-0.662500
 20
3.757913
  0
VERTEX
  8
PLAN_1
  6
CONTINUOUS
 10
-0.673327
 20
3.754469
  0
VERTEX
  8
PLAN_1
  6
CONTINUOUS
 10
-0.684157
 20
3.751024
  0
VERTEX
  8
PLAN_1
  6
CONTINUOUS
 10
-0.694492
 20
3.747087
  0
VERTEX
  8
PLAN_1
  6
CONTINUOUS
 10
-0.704827
 20
3.742161
  0
VERTEX
  8
PLAN_1
  6
CONTINUOUS
 10
-0.714673
 20
3.737240
  0
VERTEX
  8
PLAN_1
  6
CONTINUOUS
 10
-0.724516
 20
3.731827
  0
VERTEX
  8
PLAN_1
  6
CONTINUOUS
 10
-0.733378
 20
3.725921
  0
VERTEX
  8
PLAN_1
  6
CONTINUOUS
 10
-0.742728
 20
3.719520
  0
VERTEX
  8
PLAN_1
  6
CONTINUOUS
 10
-0.751094
 20
3.712630
  0
VERTEX
  8
PLAN_1
  6
CONTINUOUS
 10
-0.759465
 20
3.705248
  0
VERTEX
  8
PLAN_1
  6
CONTINUOUS
 10
-0.767339
 20
3.697862
  0
VERTEX
  8
PLAN_1
  6
CONTINUOUS
 10
-0.775217
 20
3.689988
  0
VERTEX
  8
PLAN_1
  6
CONTINUOUS
 10
-0.782106
 20
3.681622
  0
VERTEX
  8
PLAN_1
  6
CONTINUOUS
 10
-0.788996
 20
3.672760
  0
VERTEX
  8
PLAN_1
  6
CONTINUOUS
 10
-0.795394
 20
3.663902
  0
VERTEX
  8
PLAN_1
  6
CONTINUOUS
 10
-0.801303
 20
3.654551
  0
VERTEX
  8
PLAN_1
  6
CONTINUOUS
 10
-0.807209
 20
3.644705
  0
VERTEX
  8
PLAN_1
  6
CONTINUOUS
 10
-0.812130
 20
3.634862
  0
VERTEX
  8
PLAN_1
  6
CONTINUOUS
 10
-0.816559
 20
3.625016
  0
VERTEX
  8
PLAN_1
  6
CONTINUOUS
 10
-0.820988
 20
3.614681
  0
VERTEX
  8
PLAN_1
  6
CONTINUOUS
 10
-0.824437
 20
3.603850
  0
VERTEX
  8
PLAN_1
  6
CONTINUOUS
 10
-0.827390
 20
3.593024
  0
VERTEX
  8
PLAN_1
  6
CONTINUOUS
 10
-0.829850
 20
3.581701
  0
VERTEX
  8
PLAN_1
  6
CONTINUOUS
 10
-0.832311
 20
3.570382
  0
VERTEX
  8
PLAN_1
  6
CONTINUOUS
 10
-0.833295
 20
3.559059
  0
VERTEX
  8
PLAN_1
  6
CONTINUOUS
 10
-0.834280
 20
3.547248
  0
VERTEX
  8
PLAN_1
  6
CONTINUOUS
 10
-0.834772
 20
3.535433
  0
VERTEX
  8
PLAN_1
  6
CONTINUOUS
 10
-0.834280
 20
3.523622
  0
VERTEX
  8
PLAN_1
  6
CONTINUOUS
 10
-0.833295
 20
3.512299
  0
VERTEX
  8
PLAN_1
  6
CONTINUOUS
 10
-0.832311
 20
3.500488
  0
VERTEX
  8
PLAN_1
  6
CONTINUOUS
 10
-0.829850
 20
3.489165
  0
VERTEX
  8
PLAN_1
  6
CONTINUOUS
 10
-0.827390
 20
3.478339
  0
VERTEX
  8
PLAN_1
  6
CONTINUOUS
 10
-0.824437
 20
3.467512
  0
VERTEX
  8
PLAN_1
  6
CONTINUOUS
 10
-0.820988
 20
3.456681
  0
VERTEX
  8
PLAN_1
  6
CONTINUOUS
 10
-0.816559
 20
3.446346
  0
VERTEX
  8
PLAN_1
  6
CONTINUOUS
 10
-0.812130
 20
3.436008
  0
VERTEX
  8
PLAN_1
  6
CONTINUOUS
 10
-0.807209
 20
3.426165
  0
VERTEX
  8
PLAN_1
  6
CONTINUOUS
 10
-0.801303
 20
3.416811
  0
VERTEX
  8
PLAN_1
  6
CONTINUOUS
 10
-0.795394
 20
3.407461
  0
VERTEX
  8
PLAN_1
  6
CONTINUOUS
 10
-0.788996
 20
3.398602
  0
VERTEX
  8
PLAN_1
  6
CONTINUOUS
 10
-0.782106
 20
3.389740
  0
VERTEX
  8
PLAN_1
  6
CONTINUOUS
 10
-0.775217
 20
3.381374
  0
VERTEX
  8
PLAN_1
  6
CONTINUOUS
 10
-0.767339
 20
3.373496
  0
VERTEX
  8
PLAN_1
  6
CONTINUOUS
 10
-0.759465
 20
3.365622
  0
VERTEX
  8
PLAN_1
  6
CONTINUOUS
 10
-0.751094
 20
3.358732
  0
VERTEX
  8
PLAN_1
  6
CONTINUOUS
 10
-0.742728
 20
3.351843
  0
VERTEX
  8
PLAN_1
  6
CONTINUOUS
 10
-0.733378
 20
3.345441
  0
VERTEX
  8
PLAN_1
  6
CONTINUOUS
 10
-0.724516
 20
3.339535
  0
VERTEX
  8
PLAN_1
  6
CONTINUOUS
 10
-0.714673
 20
3.334122
  0
VERTEX
  8
PLAN_1
  6
CONTINUOUS
 10
-0.704827
 20
3.328709
  0
VERTEX
  8
PLAN_1
  6
CONTINUOUS
 10
-0.694492
 20
3.324276
  0
VERTEX
  8
PLAN_1
  6
CONTINUOUS
 10
-0.684157
 20
3.320339
  0
VERTEX
  8
PLAN_1
  6
CONTINUOUS
 10
-0.673327
 20
3.316402
  0
VERTEX
  8
PLAN_1
  6
CONTINUOUS
 10
-0.662500
 20
3.313449
  0
VERTEX
  8
PLAN_1
  6
CONTINUOUS
 10
-0.651669
 20
3.310988
  0
VERTEX
  8
PLAN_1
  6
CONTINUOUS
 10
-0.640350
 20
3.309020
  0
VERTEX
  8
PLAN_1
  6
CONTINUOUS
 10
-0.629028
 20
3.307543
  0
VERTEX
  8
PLAN_1
  6
CONTINUOUS
 10
-0.617217
 20
3.306559
  0
VERTEX
  8
PLAN_1
  6
CONTINUOUS
 10
-0.605402
 20
3.306067
  0
SEQEND
  8
0
  0
POLYLINE
  8
PLAN_1
  6
CONTINUOUS
 66
     1
 40
0.008366
 41
0.008366
  0
VERTEX
  8
PLAN_1
  6
CONTINUOUS
 10
-0.608846
 20
3.758406
  0
VERTEX
  8
PLAN_1
  6
CONTINUOUS
 10
-0.411965
 20
3.652087
  0
VERTEX
  8
PLAN_1
  6
CONTINUOUS
 10
-0.411965
 20
3.418780
  0
VERTEX
  8
PLAN_1
  6
CONTINUOUS
 10
-0.608846
 20
3.309512
  0
VERTEX
  8
PLAN_1
  6
CONTINUOUS
 10
-0.797362
 20
3.418780
  0
VERTEX
  8
PLAN_1
  6
CONTINUOUS
 10
-0.797362
 20
3.652087
  0
VERTEX
  8
PLAN_1
  6
CONTINUOUS
 10
-0.608846
 20
3.758406
  0
SEQEND
  8
0
  0
POLYLINE
  8
PLAN_1
  6
CONTINUOUS
 66
     1
 40
0.008366
 41
0.008366
  0
VERTEX
  8
PLAN_1
  6
CONTINUOUS
 10
-0.604909
 20
3.181535
  0
VERTEX
  8
PLAN_1
  6
CONTINUOUS
 10
-0.586697
 20
3.182028
  0
VERTEX
  8
PLAN_1
  6
CONTINUOUS
 10
-0.568488
 20
3.183504
  0
VERTEX
  8
PLAN_1
  6
CONTINUOUS
 10
-0.550768
 20
3.185472
  0
VERTEX
  8
PLAN_1
  6
CONTINUOUS
 10
-0.533539
 20
3.188425
  0
VERTEX
  8
PLAN_1
  6
CONTINUOUS
 10
-0.516311
 20
3.192366
  0
VERTEX
  8
PLAN_1
  6
CONTINUOUS
 10
-0.499579
 20
3.197287
  0
VERTEX
  8
PLAN_1
  6
CONTINUOUS
 10
-0.483335
 20
3.202701
  0
VERTEX
  8
PLAN_1
  6
CONTINUOUS
 10
-0.467091
 20
3.209098
  0
VERTEX
  8
PLAN_1
  6
CONTINUOUS
 10
-0.451343
 20
3.216484
  0
VERTEX
  8
PLAN_1
  6
CONTINUOUS
 10
-0.436083
 20
3.224358
  0
VERTEX
  8
PLAN_1
  6
CONTINUOUS
 10
-0.421315
 20
3.232724
  0
VERTEX
  8
PLAN_1
  6
CONTINUOUS
 10
-0.407043
 20
3.242079
  0
VERTEX
  8
PLAN_1
  6
CONTINUOUS
 10
-0.393260
 20
3.251921
  0
VERTEX
  8
PLAN_1
  6
CONTINUOUS
 10
-0.379969
 20
3.262260
  0
VERTEX
  8
PLAN_1
  6
CONTINUOUS
 10
-0.367173
 20
3.273087
  0
VERTEX
  8
PLAN_1
  6
CONTINUOUS
 10
-0.354866
 20
3.284902
  0
VERTEX
  8
PLAN_1
  6
CONTINUOUS
 10
-0.343055
 20
3.297205
  0
VERTEX
  8
PLAN_1
  6
CONTINUOUS
 10
-0.331732
 20
3.310004
  0
VERTEX
  8
PLAN_1
  6
CONTINUOUS
 10
-0.321398
 20
3.323291
  0
VERTEX
  8
PLAN_1
  6
CONTINUOUS
 10
-0.311551
 20
3.337567
  0
VERTEX
  8
PLAN_1
  6
CONTINUOUS
 10
-0.302201
 20
3.351843
  0
VERTEX
  8
PLAN_1
  6
CONTINUOUS
 10
-0.293835
 20
3.366606
  0
VERTEX
  8
PLAN_1
  6
CONTINUOUS
 10
-0.285957
 20
3.381866
  0
VERTEX
  8
PLAN_1
  6
CONTINUOUS
 10
-0.279067
 20
3.397618
  0
VERTEX
  8
PLAN_1
  6
CONTINUOUS
 10
-0.272669
 20
3.413366
  0
VERTEX
  8
PLAN_1
  6
CONTINUOUS
 10
-0.267256
 20
3.430102
  0
VERTEX
  8
PLAN_1
  6
CONTINUOUS
 10
-0.262331
 20
3.446839
  0
VERTEX
  8
PLAN_1
  6
CONTINUOUS
 10
-0.258394
 20
3.463571
  0
VERTEX
  8
PLAN_1
  6
CONTINUOUS
 10
-0.255441
 20
3.481291
  0
VERTEX
  8
PLAN_1
  6
CONTINUOUS
 10
-0.252980
 20
3.499012
  0
VERTEX
  8
PLAN_1
  6
CONTINUOUS
 10
-0.251504
 20
3.516732
  0
VERTEX
  8
PLAN_1
  6
CONTINUOUS
 10
-0.251012
 20
3.534941
  0
VERTEX
  8
PLAN_1
  6
CONTINUOUS
 10
-0.251504
 20
3.553154
  0
VERTEX
  8
PLAN_1
  6
CONTINUOUS
 10
-0.252980
 20
3.571366
  0
VERTEX
  8
PLAN_1
  6
CONTINUOUS
 10
-0.255441
 20
3.589087
  0
VERTEX
  8
PLAN_1
  6
CONTINUOUS
 10
-0.258394
 20
3.606315
  0
VERTEX
  8
PLAN_1
  6
CONTINUOUS
 10
-0.262331
 20
3.623539
  0
VERTEX
  8
PLAN_1
  6
CONTINUOUS
 10
-0.267256
 20
3.640276
  0
VERTEX
  8
PLAN_1
  6
CONTINUOUS
 10
-0.272669
 20
3.656520
  0
VERTEX
  8
PLAN_1
  6
CONTINUOUS
 10
-0.279067
 20
3.672760
  0
VERTEX
  8
PLAN_1
  6
CONTINUOUS
 10
-0.285957
 20
3.688512
  0
VERTEX
  8
PLAN_1
  6
CONTINUOUS
 10
-0.293835
 20
3.703772
  0
VERTEX
  8
PLAN_1
  6
CONTINUOUS
 10
-0.302201
 20
3.718535
  0
VERTEX
  8
PLAN_1
  6
CONTINUOUS
 10
-0.311551
 20
3.732811
  0
VERTEX
  8
PLAN_1
  6
CONTINUOUS
 10
-0.321398
 20
3.746594
  0
VERTEX
  8
PLAN_1
  6
CONTINUOUS
 10
-0.331732
 20
3.759882
  0
VERTEX
  8
PLAN_1
  6
CONTINUOUS
 10
-0.343055
 20
3.772681
  0
VERTEX
  8
PLAN_1
  6
CONTINUOUS
 10
-0.354866
 20
3.784984
  0
VERTEX
  8
PLAN_1
  6
CONTINUOUS
 10
-0.367173
 20
3.796799
  0
VERTEX
  8
PLAN_1
  6
CONTINUOUS
 10
-0.379969
 20
3.808118
  0
VERTEX
  8
PLAN_1
  6
CONTINUOUS
 10
-0.393260
 20
3.818457
  0
VERTEX
  8
PLAN_1
  6
CONTINUOUS
 10
-0.407043
 20
3.828299
  0
VERTEX
  8
PLAN_1
  6
CONTINUOUS
 10
-0.421315
 20
3.837650
  0
VERTEX
  8
PLAN_1
  6
CONTINUOUS
 10
-0.436083
 20
3.846020
  0
VERTEX
  8
PLAN_1
  6
CONTINUOUS
 10
-0.451343
 20
3.853894
  0
VERTEX
  8
PLAN_1
  6
CONTINUOUS
 10
-0.467091
 20
3.860783
  0
VERTEX
  8
PLAN_1
  6
CONTINUOUS
 10
-0.483335
 20
3.867185
  0
VERTEX
  8
PLAN_1
  6
CONTINUOUS
 10
-0.499579
 20
3.872598
  0
VERTEX
  8
PLAN_1
  6
CONTINUOUS
 10
-0.516311
 20
3.877520
  0
VERTEX
  8
PLAN_1
  6
CONTINUOUS
 10
-0.533539
 20
3.881457
  0
VERTEX
  8
PLAN_1
  6
CONTINUOUS
 10
-0.550768
 20
3.884413
  0
VERTEX
  8
PLAN_1
  6
CONTINUOUS
 10
-0.568488
 20
3.886874
  0
VERTEX
  8
PLAN_1
  6
CONTINUOUS
 10
-0.586697
 20
3.888350
  0
VERTEX
  8
PLAN_1
  6
CONTINUOUS
 10
-0.604909
 20
3.888843
  0
VERTEX
  8
PLAN_1
  6
CONTINUOUS
 10
-0.623122
 20
3.888350
  0
VERTEX
  8
PLAN_1
  6
CONTINUOUS
 10
-0.640843
 20
3.886874
  0
VERTEX
  8
PLAN_1
  6
CONTINUOUS
 10
-0.658559
 20
3.884413
  0
VERTEX
  8
PLAN_1
  6
CONTINUOUS
 10
-0.676280
 20
3.881457
  0
VERTEX
  8
PLAN_1
  6
CONTINUOUS
 10
-0.693016
 20
3.877520
  0
VERTEX
  8
PLAN_1
  6
CONTINUOUS
 10
-0.709752
 20
3.872598
  0
VERTEX
  8
PLAN_1
  6
CONTINUOUS
 10
-0.726484
 20
3.867185
  0
VERTEX
  8
PLAN_1
  6
CONTINUOUS
 10
-0.742236
 20
3.860783
  0
VERTEX
  8
PLAN_1
  6
CONTINUOUS
 10
-0.757988
 20
3.853894
  0
VERTEX
  8
PLAN_1
  6
CONTINUOUS
 10
-0.773244
 20
3.846020
  0
VERTEX
  8
PLAN_1
  6
CONTINUOUS
 10
-0.788012
 20
3.837650
  0
VERTEX
  8
PLAN_1
  6
CONTINUOUS
 10
-0.802287
 20
3.828299
  0
VERTEX
  8
PLAN_1
  6
CONTINUOUS
 10
-0.816559
 20
3.818457
  0
VERTEX
  8
PLAN_1
  6
CONTINUOUS
 10
-0.829850
 20
3.808118
  0
VERTEX
  8
PLAN_1
  6
CONTINUOUS
 10
-0.842646
 20
3.796799
  0
VERTEX
  8
PLAN_1
  6
CONTINUOUS
 10
-0.854953
 20
3.784984
  0
VERTEX
  8
PLAN_1
  6
CONTINUOUS
 10
-0.866764
 20
3.772681
  0
VERTEX
  8
PLAN_1
  6
CONTINUOUS
 10
-0.877594
 20
3.759882
  0
VERTEX
  8
PLAN_1
  6
CONTINUOUS
 10
-0.887929
 20
3.746594
  0
VERTEX
  8
PLAN_1
  6
CONTINUOUS
 10
-0.897776
 20
3.732811
  0
VERTEX
  8
PLAN_1
  6
CONTINUOUS
 10
-0.907126
 20
3.718535
  0
VERTEX
  8
PLAN_1
  6
CONTINUOUS
 10
-0.915496
 20
3.703772
  0
VERTEX
  8
PLAN_1
  6
CONTINUOUS
 10
-0.923370
 20
3.688512
  0
VERTEX
  8
PLAN_1
  6
CONTINUOUS
 10
-0.930752
 20
3.672760
  0
VERTEX
  8
PLAN_1
  6
CONTINUOUS
 10
-0.937150
 20
3.656520
  0
VERTEX
  8
PLAN_1
  6
CONTINUOUS
 10
-0.942567
 20
3.640276
  0
VERTEX
  8
PLAN_1
  6
CONTINUOUS
 10
-0.947488
 20
3.623539
  0
VERTEX
  8
PLAN_1
  6
CONTINUOUS
 10
-0.951425
 20
3.606315
  0
VERTEX
  8
PLAN_1
  6
CONTINUOUS
 10
-0.954378
 20
3.589087
  0
VERTEX
  8
PLAN_1
  6
CONTINUOUS
 10
-0.956346
 20
3.571366
  0
VERTEX
  8
PLAN_1
  6
CONTINUOUS
 10
-0.957823
 20
3.553154
  0
VERTEX
  8
PLAN_1
  6
CONTINUOUS
 10
-0.958315
 20
3.534941
  0
VERTEX
  8
PLAN_1
  6
CONTINUOUS
 10
-0.957823
 20
3.516732
  0
VERTEX
  8
PLAN_1
  6
CONTINUOUS
 10
-0.956346
 20
3.499012
  0
VERTEX
  8
PLAN_1
  6
CONTINUOUS
 10
-0.954378
 20
3.481291
  0
VERTEX
  8
PLAN_1
  6
CONTINUOUS
 10
-0.951425
 20
3.463571
  0
VERTEX
  8
PLAN_1
  6
CONTINUOUS
 10
-0.947488
 20
3.446839
  0
VERTEX
  8
PLAN_1
  6
CONTINUOUS
 10
-0.942567
 20
3.430102
  0
VERTEX
  8
PLAN_1
  6
CONTINUOUS
 10
-0.937150
 20
3.413366
  0
VERTEX
  8
PLAN_1
  6
CONTINUOUS
 10
-0.930752
 20
3.397618
  0
VERTEX
  8
PLAN_1
  6
CONTINUOUS
 10
-0.923370
 20
3.381866
  0
VERTEX
  8
PLAN_1
  6
CONTINUOUS
 10
-0.915496
 20
3.366606
  0
VERTEX
  8
PLAN_1
  6
CONTINUOUS
 10
-0.907126
 20
3.351843
  0
VERTEX
  8
PLAN_1
  6
CONTINUOUS
 10
-0.897776
 20
3.337567
  0
VERTEX
  8
PLAN_1
  6
CONTINUOUS
 10
-0.887929
 20
3.323291
  0
VERTEX
  8
PLAN_1
  6
CONTINUOUS
 10
-0.877594
 20
3.310004
  0
VERTEX
  8
PLAN_1
  6
CONTINUOUS
 10
-0.866764
 20
3.297205
  0
VERTEX
  8
PLAN_1
  6
CONTINUOUS
 10
-0.854953
 20
3.284902
  0
VERTEX
  8
PLAN_1
  6
CONTINUOUS
 10
-0.842646
 20
3.273087
  0
VERTEX
  8
PLAN_1
  6
CONTINUOUS
 10
-0.829850
 20
3.262260
  0
VERTEX
  8
PLAN_1
  6
CONTINUOUS
 10
-0.816559
 20
3.251921
  0
VERTEX
  8
PLAN_1
  6
CONTINUOUS
 10
-0.802287
 20
3.242079
  0
VERTEX
  8
PLAN_1
  6
CONTINUOUS
 10
-0.788012
 20
3.232724
  0
VERTEX
  8
PLAN_1
  6
CONTINUOUS
 10
-0.773244
 20
3.224358
  0
VERTEX
  8
PLAN_1
  6
CONTINUOUS
 10
-0.757988
 20
3.216484
  0
VERTEX
  8
PLAN_1
  6
CONTINUOUS
 10
-0.742236
 20
3.209098
  0
VERTEX
  8
PLAN_1
  6
CONTINUOUS
 10
-0.726484
 20
3.202701
  0
VERTEX
  8
PLAN_1
  6
CONTINUOUS
 10
-0.709752
 20
3.197287
  0
VERTEX
  8
PLAN_1
  6
CONTINUOUS
 10
-0.693016
 20
3.192366
  0
VERTEX
  8
PLAN_1
  6
CONTINUOUS
 10
-0.676280
 20
3.188425
  0
VERTEX
  8
PLAN_1
  6
CONTINUOUS
 10
-0.658559
 20
3.185472
  0
VERTEX
  8
PLAN_1
  6
CONTINUOUS
 10
-0.640843
 20
3.183504
  0
VERTEX
  8
PLAN_1
  6
CONTINUOUS
 10
-0.623122
 20
3.182028
  0
VERTEX
  8
PLAN_1
  6
CONTINUOUS
 10
-0.604909
 20
3.181535
  0
SEQEND
  8
0
  0
POLYLINE
  8
PLAN_1
  6
CONTINUOUS
 66
     1
 40
0.008366
 41
0.008366
  0
VERTEX
  8
PLAN_1
  6
CONTINUOUS
 10
-0.605402
 20
3.145114
  0
VERTEX
  8
PLAN_1
  6
CONTINUOUS
 10
-0.584728
 20
3.145606
  0
VERTEX
  8
PLAN_1
  6
CONTINUOUS
 10
-0.565039
 20
3.147083
  0
VERTEX
  8
PLAN_1
  6
CONTINUOUS
 10
-0.545354
 20
3.149543
  0
VERTEX
  8
PLAN_1
  6
CONTINUOUS
 10
-0.525665
 20
3.153480
  0
VERTEX
  8
PLAN_1
  6
CONTINUOUS
 10
-0.506961
 20
3.157417
  0
VERTEX
  8
PLAN_1
  6
CONTINUOUS
 10
-0.488256
 20
3.162831
  0
VERTEX
  8
PLAN_1
  6
CONTINUOUS
 10
-0.470043
 20
3.169232
  0
VERTEX
  8
PLAN_1
  6
CONTINUOUS
 10
-0.451835
 20
3.176122
  0
VERTEX
  8
PLAN_1
  6
CONTINUOUS
 10
-0.434606
 20
3.183996
  0
VERTEX
  8
PLAN_1
  6
CONTINUOUS
 10
-0.417378
 20
3.192858
  0
VERTEX
  8
PLAN_1
  6
CONTINUOUS
 10
-0.401134
 20
3.202209
  0
VERTEX
  8
PLAN_1
  6
CONTINUOUS
 10
-0.384894
 20
3.212547
  0
VERTEX
  8
PLAN_1
  6
CONTINUOUS
 10
-0.369634
 20
3.223374
  0
VERTEX
  8
PLAN_1
  6
CONTINUOUS
 10
-0.354866
 20
3.235185
  0
VERTEX
  8
PLAN_1
  6
CONTINUOUS
 10
-0.340594
 20
3.247492
  0
VERTEX
  8
PLAN_1
  6
CONTINUOUS
 10
-0.326811
 20
3.260783
  0
VERTEX
  8
PLAN_1
  6
CONTINUOUS
 10
-0.314016
 20
3.274071
  0
VERTEX
  8
PLAN_1
  6
CONTINUOUS
 10
-0.301217
 20
3.288346
  0
VERTEX
  8
PLAN_1
  6
CONTINUOUS
 10
-0.289898
 20
3.303602
  0
VERTEX
  8
PLAN_1
  6
CONTINUOUS
 10
-0.278575
 20
3.318862
  0
VERTEX
  8
PLAN_1
  6
CONTINUOUS
 10
-0.268732
 20
3.334614
  0
VERTEX
  8
PLAN_1
  6
CONTINUOUS
 10
-0.258886
 20
3.351350
  0
VERTEX
  8
PLAN_1
  6
CONTINUOUS
 10
-0.250520
 20
3.368083
  0
VERTEX
  8
PLAN_1
  6
CONTINUOUS
 10
-0.242646
 20
3.385803
  0
VERTEX
  8
PLAN_1
  6
CONTINUOUS
 10
-0.235260
 20
3.403524
  0
VERTEX
  8
PLAN_1
  6
CONTINUOUS
 10
-0.229354
 20
3.421736
  0
VERTEX
  8
PLAN_1
  6
CONTINUOUS
 10
-0.223941
 20
3.440437
  0
VERTEX
  8
PLAN_1
  6
CONTINUOUS
 10
-0.219512
 20
3.459634
  0
VERTEX
  8
PLAN_1
  6
CONTINUOUS
 10
-0.216063
 20
3.478831
  0
VERTEX
  8
PLAN_1
  6
CONTINUOUS
 10
-0.213602
 20
3.498520
  0
VERTEX
  8
PLAN_1
  6
CONTINUOUS
 10
-0.212126
 20
3.518701
  0
VERTEX
  8
PLAN_1
  6
CONTINUOUS
 10
-0.211634
 20
3.538882
  0
VERTEX
  8
PLAN_1
  6
CONTINUOUS
 10
-0.212126
 20
3.559059
  0
VERTEX
  8
PLAN_1
  6
CONTINUOUS
 10
-0.213602
 20
3.579240
  0
VERTEX
  8
PLAN_1
  6
CONTINUOUS
 10
-0.216063
 20
3.598929
  0
VERTEX
  8
PLAN_1
  6
CONTINUOUS
 10
-0.219512
 20
3.618126
  0
VERTEX
  8
PLAN_1
  6
CONTINUOUS
 10
-0.223941
 20
3.637323
  0
VERTEX
  8
PLAN_1
  6
CONTINUOUS
 10
-0.229354
 20
3.656028
  0
VERTEX
  8
PLAN_1
  6
CONTINUOUS
 10
-0.235260
 20
3.674236
  0
VERTEX
  8
PLAN_1
  6
CONTINUOUS
 10
-0.242646
 20
3.692449
  0
VERTEX
  8
PLAN_1
  6
CONTINUOUS
 10
-0.250520
 20
3.709677
  0
VERTEX
  8
PLAN_1
  6
CONTINUOUS
 10
-0.258886
 20
3.726906
  0
VERTEX
  8
PLAN_1
  6
CONTINUOUS
 10
-0.268732
 20
3.743146
  0
VERTEX
  8
PLAN_1
  6
CONTINUOUS
 10
-0.278575
 20
3.758898
  0
VERTEX
  8
PLAN_1
  6
CONTINUOUS
 10
-0.289898
 20
3.774650
  0
VERTEX
  8
PLAN_1
  6
CONTINUOUS
 10
-0.301217
 20
3.789413
  0
VERTEX
  8
PLAN_1
  6
CONTINUOUS
 10
-0.314016
 20
3.803689
  0
VERTEX
  8
PLAN_1
  6
CONTINUOUS
 10
-0.326811
 20
3.817472
  0
VERTEX
  8
PLAN_1
  6
CONTINUOUS
 10
-0.340594
 20
3.830268
  0
VERTEX
  8
PLAN_1
  6
CONTINUOUS
 10
-0.354866
 20
3.843067
  0
VERTEX
  8
PLAN_1
  6
CONTINUOUS
 10
-0.369634
 20
3.854386
  0
VERTEX
  8
PLAN_1
  6
CONTINUOUS
 10
-0.384894
 20
3.865709
  0
VERTEX
  8
PLAN_1
  6
CONTINUOUS
 10
-0.401134
 20
3.875551
  0
VERTEX
  8
PLAN_1
  6
CONTINUOUS
 10
-0.417378
 20
3.885398
  0
VERTEX
  8
PLAN_1
  6
CONTINUOUS
 10
-0.434606
 20
3.893764
  0
VERTEX
  8
PLAN_1
  6
CONTINUOUS
 10
-0.451835
 20
3.901638
  0
VERTEX
  8
PLAN_1
  6
CONTINUOUS
 10
-0.470043
 20
3.909024
  0
VERTEX
  8
PLAN_1
  6
CONTINUOUS
 10
-0.488256
 20
3.914929
  0
VERTEX
  8
PLAN_1
  6
CONTINUOUS
 10
-0.506961
 20
3.920343
  0
VERTEX
  8
PLAN_1
  6
CONTINUOUS
 10
-0.525665
 20
3.924772
  0
VERTEX
  8
PLAN_1
  6
CONTINUOUS
 10
-0.545354
 20
3.928217
  0
VERTEX
  8
PLAN_1
  6
CONTINUOUS
 10
-0.565039
 20
3.930681
  0
VERTEX
  8
PLAN_1
  6
CONTINUOUS
 10
-0.584728
 20
3.932157
  0
VERTEX
  8
PLAN_1
  6
CONTINUOUS
 10
-0.605402
 20
3.932650
  0
VERTEX
  8
PLAN_1
  6
CONTINUOUS
 10
-0.625583
 20
3.932157
  0
VERTEX
  8
PLAN_1
  6
CONTINUOUS
 10
-0.645272
 20
3.930681
  0
VERTEX
  8
PLAN_1
  6
CONTINUOUS
 10
-0.664961
 20
3.928217
  0
VERTEX
  8
PLAN_1
  6
CONTINUOUS
 10
-0.684650
 20
3.924772
  0
VERTEX
  8
PLAN_1
  6
CONTINUOUS
 10
-0.703843
 20
3.920343
  0
VERTEX
  8
PLAN_1
  6
CONTINUOUS
 10
-0.722547
 20
3.914929
  0
VERTEX
  8
PLAN_1
  6
CONTINUOUS
 10
-0.740760
 20
3.909024
  0
VERTEX
  8
PLAN_1
  6
CONTINUOUS
 10
-0.758480
 20
3.901638
  0
VERTEX
  8
PLAN_1
  6
CONTINUOUS
 10
-0.775709
 20
3.893764
  0
VERTEX
  8
PLAN_1
  6
CONTINUOUS
 10
-0.792933
 20
3.885398
  0
VERTEX
  8
PLAN_1
  6
CONTINUOUS
 10
-0.809177
 20
3.875551
  0
VERTEX
  8
PLAN_1
  6
CONTINUOUS
 10
-0.825421
 20
3.865709
  0
VERTEX
  8
PLAN_1
  6
CONTINUOUS
 10
-0.840677
 20
3.854386
  0
VERTEX
  8
PLAN_1
  6
CONTINUOUS
 10
-0.855445
 20
3.843067
  0
VERTEX
  8
PLAN_1
  6
CONTINUOUS
 10
-0.869720
 20
3.830268
  0
VERTEX
  8
PLAN_1
  6
CONTINUOUS
 10
-0.883500
 20
3.817472
  0
VERTEX
  8
PLAN_1
  6
CONTINUOUS
 10
-0.896791
 20
3.803689
  0
VERTEX
  8
PLAN_1
  6
CONTINUOUS
 10
-0.909094
 20
3.789413
  0
VERTEX
  8
PLAN_1
  6
CONTINUOUS
 10
-0.920909
 20
3.774650
  0
VERTEX
  8
PLAN_1
  6
CONTINUOUS
 10
-0.931736
 20
3.758898
  0
VERTEX
  8
PLAN_1
  6
CONTINUOUS
 10
-0.942075
 20
3.743146
  0
VERTEX
  8
PLAN_1
  6
CONTINUOUS
 10
-0.951425
 20
3.726906
  0
VERTEX
  8
PLAN_1
  6
CONTINUOUS
 10
-0.960283
 20
3.709677
  0
VERTEX
  8
PLAN_1
  6
CONTINUOUS
 10
-0.968161
 20
3.692449
  0
VERTEX
  8
PLAN_1
  6
CONTINUOUS
 10
-0.975051
 20
3.674236
  0
VERTEX
  8
PLAN_1
  6
CONTINUOUS
 10
-0.981449
 20
3.656028
  0
VERTEX
  8
PLAN_1
  6
CONTINUOUS
 10
-0.986374
 20
3.637323
  0
VERTEX
  8
PLAN_1
  6
CONTINUOUS
 10
-0.990803
 20
3.618126
  0
VERTEX
  8
PLAN_1
  6
CONTINUOUS
 10
-0.994248
 20
3.598929
  0
VERTEX
  8
PLAN_1
  6
CONTINUOUS
 10
-0.996709
 20
3.579240
  0
VERTEX
  8
PLAN_1
  6
CONTINUOUS
 10
-0.998677
 20
3.559059
  0
VERTEX
  8
PLAN_1
  6
CONTINUOUS
 10
-0.999169
 20
3.538882
  0
VERTEX
  8
PLAN_1
  6
CONTINUOUS
 10
-0.998677
 20
3.518701
  0
VERTEX
  8
PLAN_1
  6
CONTINUOUS
 10
-0.996709
 20
3.498520
  0
VERTEX
  8
PLAN_1
  6
CONTINUOUS
 10
-0.994248
 20
3.478831
  0
VERTEX
  8
PLAN_1
  6
CONTINUOUS
 10
-0.990803
 20
3.459634
  0
VERTEX
  8
PLAN_1
  6
CONTINUOUS
 10
-0.986374
 20
3.440437
  0
VERTEX
  8
PLAN_1
  6
CONTINUOUS
 10
-0.981449
 20
3.421736
  0
VERTEX
  8
PLAN_1
  6
CONTINUOUS
 10
-0.975051
 20
3.403524
  0
VERTEX
  8
PLAN_1
  6
CONTINUOUS
 10
-0.968161
 20
3.385803
  0
VERTEX
  8
PLAN_1
  6
CONTINUOUS
 10
-0.960283
 20
3.368083
  0
VERTEX
  8
PLAN_1
  6
CONTINUOUS
 10
-0.951425
 20
3.351350
  0
VERTEX
  8
PLAN_1
  6
CONTINUOUS
 10
-0.942075
 20
3.334614
  0
VERTEX
  8
PLAN_1
  6
CONTINUOUS
 10
-0.931736
 20
3.318862
  0
VERTEX
  8
PLAN_1
  6
CONTINUOUS
 10
-0.920909
 20
3.303602
  0
VERTEX
  8
PLAN_1
  6
CONTINUOUS
 10
-0.909094
 20
3.288346
  0
VERTEX
  8
PLAN_1
  6
CONTINUOUS
 10
-0.896791
 20
3.274071
  0
VERTEX
  8
PLAN_1
  6
CONTINUOUS
 10
-0.883500
 20
3.260783
  0
VERTEX
  8
PLAN_1
  6
CONTINUOUS
 10
-0.869720
 20
3.247492
  0
VERTEX
  8
PLAN_1
  6
CONTINUOUS
 10
-0.855445
 20
3.235185
  0
VERTEX
  8
PLAN_1
  6
CONTINUOUS
 10
-0.840677
 20
3.223374
  0
VERTEX
  8
PLAN_1
  6
CONTINUOUS
 10
-0.825421
 20
3.212547
  0
VERTEX
  8
PLAN_1
  6
CONTINUOUS
 10
-0.809177
 20
3.202209
  0
VERTEX
  8
PLAN_1
  6
CONTINUOUS
 10
-0.792933
 20
3.192858
  0
VERTEX
  8
PLAN_1
  6
CONTINUOUS
 10
-0.775709
 20
3.183996
  0
VERTEX
  8
PLAN_1
  6
CONTINUOUS
 10
-0.758480
 20
3.176122
  0
VERTEX
  8
PLAN_1
  6
CONTINUOUS
 10
-0.740760
 20
3.169232
  0
VERTEX
  8
PLAN_1
  6
CONTINUOUS
 10
-0.722547
 20
3.162831
  0
VERTEX
  8
PLAN_1
  6
CONTINUOUS
 10
-0.703843
 20
3.157417
  0
VERTEX
  8
PLAN_1
  6
CONTINUOUS
 10
-0.684650
 20
3.153480
  0
VERTEX
  8
PLAN_1
  6
CONTINUOUS
 10
-0.664961
 20
3.149543
  0
VERTEX
  8
PLAN_1
  6
CONTINUOUS
 10
-0.645272
 20
3.147083
  0
VERTEX
  8
PLAN_1
  6
CONTINUOUS
 10
-0.625583
 20
3.145606
  0
VERTEX
  8
PLAN_1
  6
CONTINUOUS
 10
-0.605402
 20
3.145114
  0
SEQEND
  8
0
  0
POLYLINE
  8
PLAN_1
  6
CONTINUOUS
 66
     1
 40
0.008366
 41
0.008366
  0
VERTEX
  8
PLAN_1
  6
CONTINUOUS
 10
-1.234937
 20
2.991543
  0
VERTEX
  8
PLAN_1
  6
CONTINUOUS
 10
0.025610
 20
2.991543
  0
SEQEND
  8
0
  0
POLYLINE
  8
PLAN_1
  6
CONTINUOUS
 66
     1
 40
0.006890
 41
0.006890
  0
VERTEX
  8
PLAN_1
  6
CONTINUOUS
 10
-0.604909
 20
3.412874
  0
VERTEX
  8
PLAN_1
  6
CONTINUOUS
 10
-0.599004
 20
3.412874
  0
VERTEX
  8
PLAN_1
  6
CONTINUOUS
 10
-0.592606
 20
3.413366
  0
VERTEX
  8
PLAN_1
  6
CONTINUOUS
 10
-0.586697
 20
3.414350
  0
VERTEX
  8
PLAN_1
  6
CONTINUOUS
 10
-0.580791
 20
3.415335
  0
VERTEX
  8
PLAN_1
  6
CONTINUOUS
 10
-0.574886
 20
3.416319
  0
VERTEX
  8
PLAN_1
  6
CONTINUOUS
 10
-0.569472
 20
3.418287
  0
VERTEX
  8
PLAN_1
  6
CONTINUOUS
 10
-0.563563
 20
3.420256
  0
VERTEX
  8
PLAN_1
  6
CONTINUOUS
 10
-0.558150
 20
3.422228
  0
VERTEX
  8
PLAN_1
  6
CONTINUOUS
 10
-0.552736
 20
3.424689
  0
VERTEX
  8
PLAN_1
  6
CONTINUOUS
 10
-0.547815
 20
3.427150
  0
VERTEX
  8
PLAN_1
  6
CONTINUOUS
 10
-0.542890
 20
3.430102
  0
VERTEX
  8
PLAN_1
  6
CONTINUOUS
 10
-0.537969
 20
3.433547
  0
VERTEX
  8
PLAN_1
  6
CONTINUOUS
 10
-0.533047
 20
3.436500
  0
VERTEX
  8
PLAN_1
  6
CONTINUOUS
 10
-0.528618
 20
3.440437
  0
VERTEX
  8
PLAN_1
  6
CONTINUOUS
 10
-0.524189
 20
3.443882
  0
VERTEX
  8
PLAN_1
  6
CONTINUOUS
 10
-0.519756
 20
3.448315
  0
VERTEX
  8
PLAN_1
  6
CONTINUOUS
 10
-0.515819
 20
3.452252
  0
VERTEX
  8
PLAN_1
  6
CONTINUOUS
 10
-0.512374
 20
3.456681
  0
VERTEX
  8
PLAN_1
  6
CONTINUOUS
 10
-0.508437
 20
3.461110
  0
VERTEX
  8
PLAN_1
  6
CONTINUOUS
 10
-0.504992
 20
3.466031
  0
VERTEX
  8
PLAN_1
  6
CONTINUOUS
 10
-0.502039
 20
3.470957
  0
VERTEX
  8
PLAN_1
  6
CONTINUOUS
 10
-0.499087
 20
3.475878
  0
VERTEX
  8
PLAN_1
  6
CONTINUOUS
 10
-0.496622
 20
3.480799
  0
VERTEX
  8
PLAN_1
  6
CONTINUOUS
 10
-0.494161
 20
3.486213
  0
VERTEX
  8
PLAN_1
  6
CONTINUOUS
 10
-0.491701
 20
3.491630
  0
VERTEX
  8
PLAN_1
  6
CONTINUOUS
 10
-0.490224
 20
3.497535
  0
VERTEX
  8
PLAN_1
  6
CONTINUOUS
 10
-0.488256
 20
3.502949
  0
VERTEX
  8
PLAN_1
  6
CONTINUOUS
 10
-0.487272
 20
3.508854
  0
VERTEX
  8
PLAN_1
  6
CONTINUOUS
 10
-0.485795
 20
3.514764
  0
VERTEX
  8
PLAN_1
  6
CONTINUOUS
 10
-0.485303
 20
3.521161
  0
VERTEX
  8
PLAN_1
  6
CONTINUOUS
 10
-0.484811
 20
3.527067
  0
VERTEX
  8
PLAN_1
  6
CONTINUOUS
 10
-0.484811
 20
3.533465
  0
VERTEX
  8
PLAN_1
  6
CONTINUOUS
 10
-0.484811
 20
3.539374
  0
VERTEX
  8
PLAN_1
  6
CONTINUOUS
 10
-0.485303
 20
3.545772
  0
VERTEX
  8
PLAN_1
  6
CONTINUOUS
 10
-0.485795
 20
3.551677
  0
VERTEX
  8
PLAN_1
  6
CONTINUOUS
 10
-0.487272
 20
3.557583
  0
VERTEX
  8
PLAN_1
  6
CONTINUOUS
 10
-0.488256
 20
3.563492
  0
VERTEX
  8
PLAN_1
  6
CONTINUOUS
 10
-0.490224
 20
3.568906
  0
VERTEX
  8
PLAN_1
  6
CONTINUOUS
 10
-0.491701
 20
3.574811
  0
VERTEX
  8
PLAN_1
  6
CONTINUOUS
 10
-0.494161
 20
3.580224
  0
VERTEX
  8
PLAN_1
  6
CONTINUOUS
 10
-0.496622
 20
3.585642
  0
VERTEX
  8
PLAN_1
  6
CONTINUOUS
 10
-0.499087
 20
3.590563
  0
VERTEX
  8
PLAN_1
  6
CONTINUOUS
 10
-0.502039
 20
3.595976
  0
VERTEX
  8
PLAN_1
  6
CONTINUOUS
 10
-0.504992
 20
3.600898
  0
VERTEX
  8
PLAN_1
  6
CONTINUOUS
 10
-0.508437
 20
3.605327
  0
VERTEX
  8
PLAN_1
  6
CONTINUOUS
 10
-0.512374
 20
3.609760
  0
VERTEX
  8
PLAN_1
  6
CONTINUOUS
 10
-0.515819
 20
3.614189
  0
VERTEX
  8
PLAN_1
  6
CONTINUOUS
 10
-0.519756
 20
3.618618
  0
VERTEX
  8
PLAN_1
  6
CONTINUOUS
 10
-0.524189
 20
3.622555
  0
VERTEX
  8
PLAN_1
  6
CONTINUOUS
 10
-0.528618
 20
3.626492
  0
VERTEX
  8
PLAN_1
  6
CONTINUOUS
 10
-0.533047
 20
3.629941
  0
VERTEX
  8
PLAN_1
  6
CONTINUOUS
 10
-0.537969
 20
3.633386
  0
VERTEX
  8
PLAN_1
  6
CONTINUOUS
 10
-0.542890
 20
3.636339
  0
VERTEX
  8
PLAN_1
  6
CONTINUOUS
 10
-0.547815
 20
3.639291
  0
VERTEX
  8
PLAN_1
  6
CONTINUOUS
 10
-0.552736
 20
3.641752
  0
VERTEX
  8
PLAN_1
  6
CONTINUOUS
 10
-0.558150
 20
3.644213
  0
VERTEX
  8
PLAN_1
  6
CONTINUOUS
 10
-0.563563
 20
3.646673
  0
VERTEX
  8
PLAN_1
  6
CONTINUOUS
 10
-0.569472
 20
3.648642
  0
VERTEX
  8
PLAN_1
  6
CONTINUOUS
 10
-0.574886
 20
3.650118
  0
VERTEX
  8
PLAN_1
  6
CONTINUOUS
 10
-0.580791
 20
3.651594
  0
VERTEX
  8
PLAN_1
  6
CONTINUOUS
 10
-0.586697
 20
3.652583
  0
VERTEX
  8
PLAN_1
  6
CONTINUOUS
 10
-0.592606
 20
3.653075
  0
VERTEX
  8
PLAN_1
  6
CONTINUOUS
 10
-0.599004
 20
3.653567
  0
VERTEX
  8
PLAN_1
  6
CONTINUOUS
 10
-0.604909
 20
3.654059
  0
VERTEX
  8
PLAN_1
  6
CONTINUOUS
 10
-0.611307
 20
3.653567
  0
VERTEX
  8
PLAN_1
  6
CONTINUOUS
 10
-0.617709
 20
3.653075
  0
VERTEX
  8
PLAN_1
  6
CONTINUOUS
 10
-0.623614
 20
3.652583
  0
VERTEX
  8
PLAN_1
  6
CONTINUOUS
 10
-0.629520
 20
3.651594
  0
VERTEX
  8
PLAN_1
  6
CONTINUOUS
 10
-0.635425
 20
3.650118
  0
VERTEX
  8
PLAN_1
  6
CONTINUOUS
 10
-0.640843
 20
3.648642
  0
VERTEX
  8
PLAN_1
  6
CONTINUOUS
 10
-0.646748
 20
3.646673
  0
VERTEX
  8
PLAN_1
  6
CONTINUOUS
 10
-0.652161
 20
3.644213
  0
VERTEX
  8
PLAN_1
  6
CONTINUOUS
 10
-0.657575
 20
3.641752
  0
VERTEX
  8
PLAN_1
  6
CONTINUOUS
 10
-0.662500
 20
3.639291
  0
VERTEX
  8
PLAN_1
  6
CONTINUOUS
 10
-0.667421
 20
3.636339
  0
VERTEX
  8
PLAN_1
  6
CONTINUOUS
 10
-0.672343
 20
3.633386
  0
VERTEX
  8
PLAN_1
  6
CONTINUOUS
 10
-0.677264
 20
3.629941
  0
VERTEX
  8
PLAN_1
  6
CONTINUOUS
 10
-0.681693
 20
3.626492
  0
VERTEX
  8
PLAN_1
  6
CONTINUOUS
 10
-0.686126
 20
3.622555
  0
VERTEX
  8
PLAN_1
  6
CONTINUOUS
 10
-0.690555
 20
3.618618
  0
VERTEX
  8
PLAN_1
  6
CONTINUOUS
 10
-0.694492
 20
3.614189
  0
VERTEX
  8
PLAN_1
  6
CONTINUOUS
 10
-0.697937
 20
3.609760
  0
VERTEX
  8
PLAN_1
  6
CONTINUOUS
 10
-0.701874
 20
3.605327
  0
VERTEX
  8
PLAN_1
  6
CONTINUOUS
 10
-0.705319
 20
3.600898
  0
VERTEX
  8
PLAN_1
  6
CONTINUOUS
 10
-0.708276
 20
3.595976
  0
VERTEX
  8
PLAN_1
  6
CONTINUOUS
 10
-0.711228
 20
3.590563
  0
VERTEX
  8
PLAN_1
  6
CONTINUOUS
 10
-0.713689
 20
3.585642
  0
VERTEX
  8
PLAN_1
  6
CONTINUOUS
 10
-0.716150
 20
3.580224
  0
VERTEX
  8
PLAN_1
  6
CONTINUOUS
 10
-0.718118
 20
3.574811
  0
VERTEX
  8
PLAN_1
  6
CONTINUOUS
 10
-0.720087
 20
3.568906
  0
VERTEX
  8
PLAN_1
  6
CONTINUOUS
 10
-0.722055
 20
3.563492
  0
VERTEX
  8
PLAN_1
  6
CONTINUOUS
 10
-0.723039
 20
3.557583
  0
VERTEX
  8
PLAN_1
  6
CONTINUOUS
 10
-0.724516
 20
3.551677
  0
VERTEX
  8
PLAN_1
  6
CONTINUOUS
 10
-0.725008
 20
3.545772
  0
VERTEX
  8
PLAN_1
  6
CONTINUOUS
 10
-0.725500
 20
3.539374
  0
VERTEX
  8
PLAN_1
  6
CONTINUOUS
 10
-0.725500
 20
3.533465
  0
VERTEX
  8
PLAN_1
  6
CONTINUOUS
 10
-0.725500
 20
3.527067
  0
VERTEX
  8
PLAN_1
  6
CONTINUOUS
 10
-0.725008
 20
3.521161
  0
VERTEX
  8
PLAN_1
  6
CONTINUOUS
 10
-0.724516
 20
3.514764
  0
VERTEX
  8
PLAN_1
  6
CONTINUOUS
 10
-0.723039
 20
3.508854
  0
VERTEX
  8
PLAN_1
  6
CONTINUOUS
 10
-0.722055
 20
3.502949
  0
VERTEX
  8
PLAN_1
  6
CONTINUOUS
 10
-0.720087
 20
3.497535
  0
VERTEX
  8
PLAN_1
  6
CONTINUOUS
 10
-0.718118
 20
3.491630
  0
VERTEX
  8
PLAN_1
  6
CONTINUOUS
 10
-0.716150
 20
3.486213
  0
VERTEX
  8
PLAN_1
  6
CONTINUOUS
 10
-0.713689
 20
3.480799
  0
VERTEX
  8
PLAN_1
  6
CONTINUOUS
 10
-0.711228
 20
3.475878
  0
VERTEX
  8
PLAN_1
  6
CONTINUOUS
 10
-0.708276
 20
3.470957
  0
VERTEX
  8
PLAN_1
  6
CONTINUOUS
 10
-0.705319
 20
3.466031
  0
VERTEX
  8
PLAN_1
  6
CONTINUOUS
 10
-0.701874
 20
3.461110
  0
VERTEX
  8
PLAN_1
  6
CONTINUOUS
 10
-0.697937
 20
3.456681
  0
VERTEX
  8
PLAN_1
  6
CONTINUOUS
 10
-0.694492
 20
3.452252
  0
VERTEX
  8
PLAN_1
  6
CONTINUOUS
 10
-0.690555
 20
3.448315
  0
VERTEX
  8
PLAN_1
  6
CONTINUOUS
 10
-0.686126
 20
3.443882
  0
VERTEX
  8
PLAN_1
  6
CONTINUOUS
 10
-0.681693
 20
3.440437
  0
VERTEX
  8
PLAN_1
  6
CONTINUOUS
 10
-0.677264
 20
3.436500
  0
VERTEX
  8
PLAN_1
  6
CONTINUOUS
 10
-0.672343
 20
3.433547
  0
VERTEX
  8
PLAN_1
  6
CONTINUOUS
 10
-0.667421
 20
3.430102
  0
VERTEX
  8
PLAN_1
  6
CONTINUOUS
 10
-0.662500
 20
3.427150
  0
VERTEX
  8
PLAN_1
  6
CONTINUOUS
 10
-0.657575
 20
3.424689
  0
VERTEX
  8
PLAN_1
  6
CONTINUOUS
 10
-0.652161
 20
3.422228
  0
VERTEX
  8
PLAN_1
  6
CONTINUOUS
 10
-0.646748
 20
3.420256
  0
VERTEX
  8
PLAN_1
  6
CONTINUOUS
 10
-0.640843
 20
3.418287
  0
VERTEX
  8
PLAN_1
  6
CONTINUOUS
 10
-0.635425
 20
3.416319
  0
VERTEX
  8
PLAN_1
  6
CONTINUOUS
 10
-0.629520
 20
3.415335
  0
VERTEX
  8
PLAN_1
  6
CONTINUOUS
 10
-0.623614
 20
3.414350
  0
VERTEX
  8
PLAN_1
  6
CONTINUOUS
 10
-0.617709
 20
3.413366
  0
VERTEX
  8
PLAN_1
  6
CONTINUOUS
 10
-0.611307
 20
3.412874
  0
VERTEX
  8
PLAN_1
  6
CONTINUOUS
 10
-0.604909
 20
3.412874
  0
SEQEND
  8
0
  0
SOLID
  8
PLAN_1
 62
     2
 10
-1.263488
 20
0.589559
 11
-1.294004
 21
0.642228
 12
-1.263488
 22
0.589559
 13
-1.316154
 23
0.620079
  0
POLYLINE
  8
PLAN_1
 62
     2
  6
CONTINUOUS
 66
     1
 40
0.003000
 41
0.003000
  0
VERTEX
  8
PLAN_1
 62
     2
  6
CONTINUOUS
 10
-1.263488
 20
0.589559
  0
VERTEX
  8
PLAN_1
 62
     2
  6
CONTINUOUS
 10
-1.294004
 20
0.642228
  0
VERTEX
  8
PLAN_1
 62
     2
  6
CONTINUOUS
 10
-1.316154
 20
0.620079
  0
VERTEX
  8
PLAN_1
 62
     2
  6
CONTINUOUS
 10
-1.263488
 20
0.589559
  0
SEQEND
  8
0
  0
POLYLINE
  8
PLAN_1
 62
     2
  6
CONTINUOUS
 66
     1
 40
0.003937
 41
0.003937
  0
VERTEX
  8
PLAN_1
 62
     2
  6
CONTINUOUS
 10
-1.289575
 20
0.616138
  0
VERTEX
  8
PLAN_1
 62
     2
  6
CONTINUOUS
 10
-1.639535
 20
0.966102
  0
VERTEX
  8
PLAN_1
 62
     2
  6
CONTINUOUS
 10
-2.084000
 20
0.966102
  0
SEQEND
  8
0
  0
POLYLINE
  8
PLAN_1
 62
     2
  6
CONTINUOUS
 66
     1
 40
0.003000
 41
0.003000
  0
VERTEX
  8
PLAN_1
 62
     2
  6
CONTINUOUS
 10
-2.055945
 20
1.036488
  0
VERTEX
  8
PLAN_1
 62
     2
  6
CONTINUOUS
 10
-2.055453
 20
1.040917
  0
VERTEX
  8
PLAN_1
 62
     2
  6
CONTINUOUS
 10
-2.054961
 20
1.044362
  0
VERTEX
  8
PLAN_1
 62
     2
  6
CONTINUOUS
 10
-2.053976
 20
1.047807
  0
VERTEX
  8
PLAN_1
 62
     2
  6
CONTINUOUS
 10
-2.052992
 20
1.050760
  0
VERTEX
  8
PLAN_1
 62
     2
  6
CONTINUOUS
 10
-2.051516
 20
1.053220
  0
VERTEX
  8
PLAN_1
 62
     2
  6
CONTINUOUS
 10
-2.050039
 20
1.055189
  0
VERTEX
  8
PLAN_1
 62
     2
  6
CONTINUOUS
 10
-2.048067
 20
1.057157
  0
VERTEX
  8
PLAN_1
 62
     2
  6
CONTINUOUS
 10
-2.046098
 20
1.058638
  0
VERTEX
  8
PLAN_1
 62
     2
  6
CONTINUOUS
 10
-2.042161
 20
1.060606
  0
VERTEX
  8
PLAN_1
 62
     2
  6
CONTINUOUS
 10
-2.037732
 20
1.062083
  0
VERTEX
  8
PLAN_1
 62
     2
  6
CONTINUOUS
 10
-2.033795
 20
1.062575
  0
VERTEX
  8
PLAN_1
 62
     2
  6
CONTINUOUS
 10
-2.030350
 20
1.062575
  0
VERTEX
  8
PLAN_1
 62
     2
  6
CONTINUOUS
 10
-2.025917
 20
1.062083
  0
VERTEX
  8
PLAN_1
 62
     2
  6
CONTINUOUS
 10
-2.021488
 20
1.061098
  0
VERTEX
  8
PLAN_1
 62
     2
  6
CONTINUOUS
 10
-2.017551
 20
1.059130
  0
VERTEX
  8
PLAN_1
 62
     2
  6
CONTINUOUS
 10
-2.014106
 20
1.056665
  0
VERTEX
  8
PLAN_1
 62
     2
  6
CONTINUOUS
 10
-2.011646
 20
1.053713
  0
VERTEX
  8
PLAN_1
 62
     2
  6
CONTINUOUS
 10
-2.009677
 20
1.049776
  0
VERTEX
  8
PLAN_1
 62
     2
  6
CONTINUOUS
 10
-2.008201
 20
1.045839
  0
VERTEX
  8
PLAN_1
 62
     2
  6
CONTINUOUS
 10
-2.007709
 20
1.040917
  0
VERTEX
  8
PLAN_1
 62
     2
  6
CONTINUOUS
 10
-2.008201
 20
1.036488
  0
VERTEX
  8
PLAN_1
 62
     2
  6
CONTINUOUS
 10
-2.009185
 20
1.032547
  0
VERTEX
  8
PLAN_1
 62
     2
  6
CONTINUOUS
 10
-2.011154
 20
1.029102
  0
VERTEX
  8
PLAN_1
 62
     2
  6
CONTINUOUS
 10
-2.013122
 20
1.025657
  0
VERTEX
  8
PLAN_1
 62
     2
  6
CONTINUOUS
 10
-2.016075
 20
1.023197
  0
VERTEX
  8
PLAN_1
 62
     2
  6
CONTINUOUS
 10
-2.019520
 20
1.020736
  0
VERTEX
  8
PLAN_1
 62
     2
  6
CONTINUOUS
 10
-2.023457
 20
1.018768
  0
VERTEX
  8
PLAN_1
 62
     2
  6
CONTINUOUS
 10
-2.027398
 20
1.016307
  0
VERTEX
  8
PLAN_1
 62
     2
  6
CONTINUOUS
 10
-2.034780
 20
1.012370
  0
VERTEX
  8
PLAN_1
 62
     2
  6
CONTINUOUS
 10
-2.038224
 20
1.010398
  0
VERTEX
  8
PLAN_1
 62
     2
  6
CONTINUOUS
 10
-2.040685
 20
1.007937
  0
VERTEX
  8
PLAN_1
 62
     2
  6
CONTINUOUS
 10
-2.043146
 20
1.005969
  0
VERTEX
  8
PLAN_1
 62
     2
  6
CONTINUOUS
 10
-2.044622
 20
1.004000
  0
VERTEX
  8
PLAN_1
 62
     2
  6
CONTINUOUS
 10
-2.046098
 20
1.002524
  0
VERTEX
  8
PLAN_1
 62
     2
  6
CONTINUOUS
 10
-2.046591
 20
1.000555
  0
VERTEX
  8
PLAN_1
 62
     2
  6
CONTINUOUS
 10
-2.047083
 20
0.999571
  0
VERTEX
  8
PLAN_1
 62
     2
  6
CONTINUOUS
 10
-2.047575
 20
0.998094
  0
VERTEX
  8
PLAN_1
 62
     2
  6
CONTINUOUS
 10
-2.007709
 20
0.998094
  0
VERTEX
  8
PLAN_1
 62
     2
  6
CONTINUOUS
 10
-2.007709
 20
0.989728
  0
VERTEX
  8
PLAN_1
 62
     2
  6
CONTINUOUS
 10
-2.057913
 20
0.989728
  0
VERTEX
  8
PLAN_1
 62
     2
  6
CONTINUOUS
 10
-2.057421
 20
0.995142
  0
VERTEX
  8
PLAN_1
 62
     2
  6
CONTINUOUS
 10
-2.055945
 20
0.999571
  0
VERTEX
  8
PLAN_1
 62
     2
  6
CONTINUOUS
 10
-2.054469
 20
1.004000
  0
VERTEX
  8
PLAN_1
 62
     2
  6
CONTINUOUS
 10
-2.052500
 20
1.007445
  0
VERTEX
  8
PLAN_1
 62
     2
  6
CONTINUOUS
 10
-2.050039
 20
1.010890
  0
VERTEX
  8
PLAN_1
 62
     2
  6
CONTINUOUS
 10
-2.047083
 20
1.013846
  0
VERTEX
  8
PLAN_1
 62
     2
  6
CONTINUOUS
 10
-2.044130
 20
1.016307
  0
VERTEX
  8
PLAN_1
 62
     2
  6
CONTINUOUS
 10
-2.040685
 20
1.018768
  0
VERTEX
  8
PLAN_1
 62
     2
  6
CONTINUOUS
 10
-2.030843
 20
1.024181
  0
VERTEX
  8
PLAN_1
 62
     2
  6
CONTINUOUS
 10
-2.027890
 20
1.025657
  0
VERTEX
  8
PLAN_1
 62
     2
  6
CONTINUOUS
 10
-2.025425
 20
1.027626
  0
VERTEX
  8
PLAN_1
 62
     2
  6
CONTINUOUS
 10
-2.022965
 20
1.029102
  0
VERTEX
  8
PLAN_1
 62
     2
  6
CONTINUOUS
 10
-2.020996
 20
1.030579
  0
VERTEX
  8
PLAN_1
 62
     2
  6
CONTINUOUS
 10
-2.019520
 20
1.033039
  0
VERTEX
  8
PLAN_1
 62
     2
  6
CONTINUOUS
 10
-2.018535
 20
1.035012
  0
VERTEX
  8
PLAN_1
 62
     2
  6
CONTINUOUS
 10
-2.017551
 20
1.037965
  0
VERTEX
  8
PLAN_1
 62
     2
  6
CONTINUOUS
 10
-2.017551
 20
1.041409
  0
VERTEX
  8
PLAN_1
 62
     2
  6
CONTINUOUS
 10
-2.017551
 20
1.043378
  0
VERTEX
  8
PLAN_1
 62
     2
  6
CONTINUOUS
 10
-2.018043
 20
1.045839
  0
VERTEX
  8
PLAN_1
 62
     2
  6
CONTINUOUS
 10
-2.019028
 20
1.047807
  0
VERTEX
  8
PLAN_1
 62
     2
  6
CONTINUOUS
 10
-2.020504
 20
1.050268
  0
VERTEX
  8
PLAN_1
 62
     2
  6
CONTINUOUS
 10
-2.022472
 20
1.051744
  0
VERTEX
  8
PLAN_1
 62
     2
  6
CONTINUOUS
 10
-2.024933
 20
1.053220
  0
VERTEX
  8
PLAN_1
 62
     2
  6
CONTINUOUS
 10
-2.028382
 20
1.054205
  0
VERTEX
  8
PLAN_1
 62
     2
  6
CONTINUOUS
 10
-2.031827
 20
1.054697
  0
VERTEX
  8
PLAN_1
 62
     2
  6
CONTINUOUS
 10
-2.034287
 20
1.054205
  0
VERTEX
  8
PLAN_1
 62
     2
  6
CONTINUOUS
 10
-2.036256
 20
1.053713
  0
VERTEX
  8
PLAN_1
 62
     2
  6
CONTINUOUS
 10
-2.038224
 20
1.053220
  0
VERTEX
  8
PLAN_1
 62
     2
  6
CONTINUOUS
 10
-2.040193
 20
1.052236
  0
VERTEX
  8
PLAN_1
 62
     2
  6
CONTINUOUS
 10
-2.042654
 20
1.050268
  0
VERTEX
  8
PLAN_1
 62
     2
  6
CONTINUOUS
 10
-2.044130
 20
1.047315
  0
VERTEX
  8
PLAN_1
 62
     2
  6
CONTINUOUS
 10
-2.045606
 20
1.044362
  0
VERTEX
  8
PLAN_1
 62
     2
  6
CONTINUOUS
 10
-2.046098
 20
1.041409
  0
VERTEX
  8
PLAN_1
 62
     2
  6
CONTINUOUS
 10
-2.046591
 20
1.038949
  0
VERTEX
  8
PLAN_1
 62
     2
  6
CONTINUOUS
 10
-2.046591
 20
1.036488
  0
VERTEX
  8
PLAN_1
 62
     2
  6
CONTINUOUS
 10
-2.055945
 20
1.036488
  0
SEQEND
  8
0
  0
POLYLINE
  8
PLAN_1
 62
     2
  6
CONTINUOUS
 66
     1
 40
0.003000
 41
0.003000
  0
VERTEX
  8
PLAN_1
 62
     2
  6
CONTINUOUS
 10
-1.922555
 20
0.989728
  0
VERTEX
  8
PLAN_1
 62
     2
  6
CONTINUOUS
 10
-1.934370
 20
0.989728
  0
VERTEX
  8
PLAN_1
 62
     2
  6
CONTINUOUS
 10
-1.947657
 20
1.009906
  0
VERTEX
  8
PLAN_1
 62
     2
  6
CONTINUOUS
 10
-1.960949
 20
0.989728
  0
VERTEX
  8
PLAN_1
 62
     2
  6
CONTINUOUS
 10
-1.972268
 20
0.989728
  0
VERTEX
  8
PLAN_1
 62
     2
  6
CONTINUOUS
 10
-1.953071
 20
1.017783
  0
VERTEX
  8
PLAN_1
 62
     2
  6
CONTINUOUS
 10
-1.971283
 20
1.043870
  0
VERTEX
  8
PLAN_1
 62
     2
  6
CONTINUOUS
 10
-1.959965
 20
1.043870
  0
VERTEX
  8
PLAN_1
 62
     2
  6
CONTINUOUS
 10
-1.947165
 20
1.024673
  0
VERTEX
  8
PLAN_1
 62
     2
  6
CONTINUOUS
 10
-1.934370
 20
1.043870
  0
VERTEX
  8
PLAN_1
 62
     2
  6
CONTINUOUS
 10
-1.923539
 20
1.043870
  0
VERTEX
  8
PLAN_1
 62
     2
  6
CONTINUOUS
 10
-1.941752
 20
1.017783
  0
VERTEX
  8
PLAN_1
 62
     2
  6
CONTINUOUS
 10
-1.922555
 20
0.989728
  0
SEQEND
  8
0
  0
POLYLINE
  8
PLAN_1
 62
     2
  6
CONTINUOUS
 66
     1
 40
0.003000
 41
0.003000
  0
VERTEX
  8
PLAN_1
 62
     2
  6
CONTINUOUS
 10
-1.824114
 20
1.053713
  0
VERTEX
  8
PLAN_1
 62
     2
  6
CONTINUOUS
 10
-1.822146
 20
1.050760
  0
VERTEX
  8
PLAN_1
 62
     2
  6
CONTINUOUS
 10
-1.820177
 20
1.047315
  0
VERTEX
  8
PLAN_1
 62
     2
  6
CONTINUOUS
 10
-1.818701
 20
1.043870
  0
VERTEX
  8
PLAN_1
 62
     2
  6
CONTINUOUS
 10
-1.817717
 20
1.040425
  0
VERTEX
  8
PLAN_1
 62
     2
  6
CONTINUOUS
 10
-1.816728
 20
1.036980
  0
VERTEX
  8
PLAN_1
 62
     2
  6
CONTINUOUS
 10
-1.816236
 20
1.033531
  0
VERTEX
  8
PLAN_1
 62
     2
  6
CONTINUOUS
 10
-1.815744
 20
1.030087
  0
VERTEX
  8
PLAN_1
 62
     2
  6
CONTINUOUS
 10
-1.815744
 20
1.027134
  0
VERTEX
  8
PLAN_1
 62
     2
  6
CONTINUOUS
 10
-1.816236
 20
1.020736
  0
VERTEX
  8
PLAN_1
 62
     2
  6
CONTINUOUS
 10
-1.817717
 20
1.013846
  0
VERTEX
  8
PLAN_1
 62
     2
  6
CONTINUOUS
 10
-1.818701
 20
1.010398
  0
VERTEX
  8
PLAN_1
 62
     2
  6
CONTINUOUS
 10
-1.819685
 20
1.007445
  0
VERTEX
  8
PLAN_1
 62
     2
  6
CONTINUOUS
 10
-1.821654
 20
1.004000
  0
VERTEX
  8
PLAN_1
 62
     2
  6
CONTINUOUS
 10
-1.823622
 20
1.001047
  0
VERTEX
  8
PLAN_1
 62
     2
  6
CONTINUOUS
 10
-1.825591
 20
0.998587
  0
VERTEX
  8
PLAN_1
 62
     2
  6
CONTINUOUS
 10
-1.828543
 20
0.995634
  0
VERTEX
  8
PLAN_1
 62
     2
  6
CONTINUOUS
 10
-1.831496
 20
0.993665
  0
VERTEX
  8
PLAN_1
 62
     2
  6
CONTINUOUS
 10
-1.834449
 20
0.991697
  0
VERTEX
  8
PLAN_1
 62
     2
  6
CONTINUOUS
 10
-1.838386
 20
0.989728
  0
VERTEX
  8
PLAN_1
 62
     2
  6
CONTINUOUS
 10
-1.842327
 20
0.988744
  0
VERTEX
  8
PLAN_1
 62
     2
  6
CONTINUOUS
 10
-1.847248
 20
0.987756
  0
VERTEX
  8
PLAN_1
 62
     2
  6
CONTINUOUS
 10
-1.852169
 20
0.987756
  0
VERTEX
  8
PLAN_1
 62
     2
  6
CONTINUOUS
 10
-1.856106
 20
0.987756
  0
VERTEX
  8
PLAN_1
 62
     2
  6
CONTINUOUS
 10
-1.859551
 20
0.988252
  0
VERTEX
  8
PLAN_1
 62
     2
  6
CONTINUOUS
 10
-1.862996
 20
0.989236
  0
VERTEX
  8
PLAN_1
 62
     2
  6
CONTINUOUS
 10
-1.866445
 20
0.990220
  0
VERTEX
  8
PLAN_1
 62
     2
  6
CONTINUOUS
 10
-1.869398
 20
0.991205
  0
VERTEX
  8
PLAN_1
 62
     2
  6
CONTINUOUS
 10
-1.871858
 20
0.993173
  0
VERTEX
  8
PLAN_1
 62
     2
  6
CONTINUOUS
 10
-1.874319
 20
0.994650
  0
VERTEX
  8
PLAN_1
 62
     2
  6
CONTINUOUS
 10
-1.876780
 20
0.996618
  0
VERTEX
  8
PLAN_1
 62
     2
  6
CONTINUOUS
 10
-1.885146
 20
0.987756
  0
VERTEX
  8
PLAN_1
 62
     2
  6
CONTINUOUS
 10
-1.888102
 20
0.990713
  0
VERTEX
  8
PLAN_1
 62
     2
  6
CONTINUOUS
 10
-1.879732
 20
1.000063
  0
VERTEX
  8
PLAN_1
 62
     2
  6
CONTINUOUS
 10
-1.881701
 20
1.003016
  0
VERTEX
  8
PLAN_1
 62
     2
  6
CONTINUOUS
 10
-1.883669
 20
1.006461
  0
VERTEX
  8
PLAN_1
 62
     2
  6
CONTINUOUS
 10
-1.885146
 20
1.009906
  0
VERTEX
  8
PLAN_1
 62
     2
  6
CONTINUOUS
 10
-1.886622
 20
1.013354
  0
VERTEX
  8
PLAN_1
 62
     2
  6
CONTINUOUS
 10
-1.887610
 20
1.016799
  0
VERTEX
  8
PLAN_1
 62
     2
  6
CONTINUOUS
 10
-1.888102
 20
1.020244
  0
VERTEX
  8
PLAN_1
 62
     2
  6
CONTINUOUS
 10
-1.888594
 20
1.023689
  0
VERTEX
  8
PLAN_1
 62
     2
  6
CONTINUOUS
 10
-1.888594
 20
1.027134
  0
VERTEX
  8
PLAN_1
 62
     2
  6
CONTINUOUS
 10
-1.888102
 20
1.033039
  0
VERTEX
  8
PLAN_1
 62
     2
  6
CONTINUOUS
 10
-1.886622
 20
1.039933
  0
VERTEX
  8
PLAN_1
 62
     2
  6
CONTINUOUS
 10
-1.885638
 20
1.043378
  0
VERTEX
  8
PLAN_1
 62
     2
  6
CONTINUOUS
 10
-1.884161
 20
1.046331
  0
VERTEX
  8
PLAN_1
 62
     2
  6
CONTINUOUS
 10
-1.882685
 20
1.049776
  0
VERTEX
  8
PLAN_1
 62
     2
  6
CONTINUOUS
 10
-1.880717
 20
1.052728
  0
VERTEX
  8
PLAN_1
 62
     2
  6
CONTINUOUS
 10
-1.878748
 20
1.055189
  0
VERTEX
  8
PLAN_1
 62
     2
  6
CONTINUOUS
 10
-1.875795
 20
1.058146
  0
VERTEX
  8
PLAN_1
 62
     2
  6
CONTINUOUS
 10
-1.872843
 20
1.060114
  0
VERTEX
  8
PLAN_1
 62
     2
  6
CONTINUOUS
 10
-1.869398
 20
1.062575
  0
VERTEX
  8
PLAN_1
 62
     2
  6
CONTINUOUS
 10
-1.865953
 20
1.064051
  0
VERTEX
  8
PLAN_1
 62
     2
  6
CONTINUOUS
 10
-1.861520
 20
1.065035
  0
VERTEX
  8
PLAN_1
 62
     2
  6
CONTINUOUS
 10
-1.857091
 20
1.066020
  0
VERTEX
  8
PLAN_1
 62
     2
  6
CONTINUOUS
 10
-1.852169
 20
1.066020
  0
VERTEX
  8
PLAN_1
 62
     2
  6
CONTINUOUS
 10
-1.848232
 20
1.066020
  0
VERTEX
  8
PLAN_1
 62
     2
  6
CONTINUOUS
 10
-1.844295
 20
1.065528
  0
VERTEX
  8
PLAN_1
 62
     2
  6
CONTINUOUS
 10
-1.840850
 20
1.064543
  0
VERTEX
  8
PLAN_1
 62
     2
  6
CONTINUOUS
 10
-1.837402
 20
1.063559
  0
VERTEX
  8
PLAN_1
 62
     2
  6
CONTINUOUS
 10
-1.834449
 20
1.062083
  0
VERTEX
  8
PLAN_1
 62
     2
  6
CONTINUOUS
 10
-1.831988
 20
1.060606
  0
VERTEX
  8
PLAN_1
 62
     2
  6
CONTINUOUS
 10
-1.829528
 20
1.059130
  0
VERTEX
  8
PLAN_1
 62
     2
  6
CONTINUOUS
 10
-1.827067
 20
1.057157
  0
VERTEX
  8
PLAN_1
 62
     2
  6
CONTINUOUS
 10
-1.818701
 20
1.066020
  0
VERTEX
  8
PLAN_1
 62
     2
  6
CONTINUOUS
 10
-1.815744
 20
1.063067
  0
VERTEX
  8
PLAN_1
 62
     2
  6
CONTINUOUS
 10
-1.824114
 20
1.053713
  0
SEQEND
  8
0
  0
POLYLINE
  8
PLAN_1
 62
     2
  6
CONTINUOUS
 66
     1
 40
0.003000
 41
0.003000
  0
VERTEX
  8
PLAN_1
 62
     2
  6
CONTINUOUS
 10
-1.869890
 20
1.004000
  0
VERTEX
  8
PLAN_1
 62
     2
  6
CONTINUOUS
 10
-1.868413
 20
1.002031
  0
VERTEX
  8
PLAN_1
 62
     2
  6
CONTINUOUS
 10
-1.866445
 20
1.000555
  0
VERTEX
  8
PLAN_1
 62
     2
  6
CONTINUOUS
 10
-1.864476
 20
0.999571
  0
VERTEX
  8
PLAN_1
 62
     2
  6
CONTINUOUS
 10
-1.862012
 20
0.998587
  0
VERTEX
  8
PLAN_1
 62
     2
  6
CONTINUOUS
 10
-1.860043
 20
0.997602
  0
VERTEX
  8
PLAN_1
 62
     2
  6
CONTINUOUS
 10
-1.857583
 20
0.997110
  0
VERTEX
  8
PLAN_1
 62
     2
  6
CONTINUOUS
 10
-1.854630
 20
0.996618
  0
VERTEX
  8
PLAN_1
 62
     2
  6
CONTINUOUS
 10
-1.852169
 20
0.996618
  0
VERTEX
  8
PLAN_1
 62
     2
  6
CONTINUOUS
 10
-1.849217
 20
0.996618
  0
VERTEX
  8
PLAN_1
 62
     2
  6
CONTINUOUS
 10
-1.846264
 20
0.997110
  0
VERTEX
  8
PLAN_1
 62
     2
  6
CONTINUOUS
 10
-1.843803
 20
0.997602
  0
VERTEX
  8
PLAN_1
 62
     2
  6
CONTINUOUS
 10
-1.841343
 20
0.998587
  0
VERTEX
  8
PLAN_1
 62
     2
  6
CONTINUOUS
 10
-1.838878
 20
1.000063
  0
VERTEX
  8
PLAN_1
 62
     2
  6
CONTINUOUS
 10
-1.836909
 20
1.001539
  0
VERTEX
  8
PLAN_1
 62
     2
  6
CONTINUOUS
 10
-1.834941
 20
1.003016
  0
VERTEX
  8
PLAN_1
 62
     2
  6
CONTINUOUS
 10
-1.832972
 20
1.004984
  0
VERTEX
  8
PLAN_1
 62
     2
  6
CONTINUOUS
 10
-1.831496
 20
1.007445
  0
VERTEX
  8
PLAN_1
 62
     2
  6
CONTINUOUS
 10
-1.830020
 20
1.009413
  0
VERTEX
  8
PLAN_1
 62
     2
  6
CONTINUOUS
 10
-1.829035
 20
1.011878
  0
VERTEX
  8
PLAN_1
 62
     2
  6
CONTINUOUS
 10
-1.828051
 20
1.014831
  0
VERTEX
  8
PLAN_1
 62
     2
  6
CONTINUOUS
 10
-1.826575
 20
1.020736
  0
VERTEX
  8
PLAN_1
 62
     2
  6
CONTINUOUS
 10
-1.826083
 20
1.027134
  0
VERTEX
  8
PLAN_1
 62
     2
  6
CONTINUOUS
 10
-1.826083
 20
1.029594
  0
VERTEX
  8
PLAN_1
 62
     2
  6
CONTINUOUS
 10
-1.826575
 20
1.032547
  0
VERTEX
  8
PLAN_1
 62
     2
  6
CONTINUOUS
 10
-1.827067
 20
1.035012
  0
VERTEX
  8
PLAN_1
 62
     2
  6
CONTINUOUS
 10
-1.827559
 20
1.037472
  0
VERTEX
  8
PLAN_1
 62
     2
  6
CONTINUOUS
 10
-1.828051
 20
1.039933
  0
VERTEX
  8
PLAN_1
 62
     2
  6
CONTINUOUS
 10
-1.829035
 20
1.041902
  0
VERTEX
  8
PLAN_1
 62
     2
  6
CONTINUOUS
 10
-1.830020
 20
1.043870
  0
VERTEX
  8
PLAN_1
 62
     2
  6
CONTINUOUS
 10
-1.831004
 20
1.045839
  0
VERTEX
  8
PLAN_1
 62
     2
  6
CONTINUOUS
 10
-1.869890
 20
1.004000
  0
SEQEND
  8
0
  0
POLYLINE
  8
PLAN_1
 62
     2
  6
CONTINUOUS
 66
     1
 40
0.003000
 41
0.003000
  0
VERTEX
  8
PLAN_1
 62
     2
  6
CONTINUOUS
 10
-1.833957
 20
1.049776
  0
VERTEX
  8
PLAN_1
 62
     2
  6
CONTINUOUS
 10
-1.835433
 20
1.051252
  0
VERTEX
  8
PLAN_1
 62
     2
  6
CONTINUOUS
 10
-1.837402
 20
1.052728
  0
VERTEX
  8
PLAN_1
 62
     2
  6
CONTINUOUS
 10
-1.839370
 20
1.054205
  0
VERTEX
  8
PLAN_1
 62
     2
  6
CONTINUOUS
 10
-1.841835
 20
1.055189
  0
VERTEX
  8
PLAN_1
 62
     2
  6
CONTINUOUS
 10
-1.844295
 20
1.056173
  0
VERTEX
  8
PLAN_1
 62
     2
  6
CONTINUOUS
 10
-1.846756
 20
1.056665
  0
VERTEX
  8
PLAN_1
 62
     2
  6
CONTINUOUS
 10
-1.849217
 20
1.057157
  0
VERTEX
  8
PLAN_1
 62
     2
  6
CONTINUOUS
 10
-1.852169
 20
1.057157
  0
VERTEX
  8
PLAN_1
 62
     2
  6
CONTINUOUS
 10
-1.855122
 20
1.057157
  0
VERTEX
  8
PLAN_1
 62
     2
  6
CONTINUOUS
 10
-1.858075
 20
1.056665
  0
VERTEX
  8
PLAN_1
 62
     2
  6
CONTINUOUS
 10
-1.860535
 20
1.056173
  0
VERTEX
  8
PLAN_1
 62
     2
  6
CONTINUOUS
 10
-1.862996
 20
1.055189
  0
VERTEX
  8
PLAN_1
 62
     2
  6
CONTINUOUS
 10
-1.865461
 20
1.053713
  0
VERTEX
  8
PLAN_1
 62
     2
  6
CONTINUOUS
 10
-1.867429
 20
1.052236
  0
VERTEX
  8
PLAN_1
 62
     2
  6
CONTINUOUS
 10
-1.869398
 20
1.050760
  0
VERTEX
  8
PLAN_1
 62
     2
  6
CONTINUOUS
 10
-1.871366
 20
1.048791
  0
VERTEX
  8
PLAN_1
 62
     2
  6
CONTINUOUS
 10
-1.872843
 20
1.046331
  0
VERTEX
  8
PLAN_1
 62
     2
  6
CONTINUOUS
 10
-1.874319
 20
1.044362
  0
VERTEX
  8
PLAN_1
 62
     2
  6
CONTINUOUS
 10
-1.875303
 20
1.041902
  0
VERTEX
  8
PLAN_1
 62
     2
  6
CONTINUOUS
 10
-1.876287
 20
1.038949
  0
VERTEX
  8
PLAN_1
 62
     2
  6
CONTINUOUS
 10
-1.877764
 20
1.033039
  0
VERTEX
  8
PLAN_1
 62
     2
  6
CONTINUOUS
 10
-1.878256
 20
1.027134
  0
VERTEX
  8
PLAN_1
 62
     2
  6
CONTINUOUS
 10
-1.878256
 20
1.024181
  0
VERTEX
  8
PLAN_1
 62
     2
  6
CONTINUOUS
 10
-1.877764
 20
1.021228
  0
VERTEX
  8
PLAN_1
 62
     2
  6
CONTINUOUS
 10
-1.877272
 20
1.018768
  0
VERTEX
  8
PLAN_1
 62
     2
  6
CONTINUOUS
 10
-1.876780
 20
1.016307
  0
VERTEX
  8
PLAN_1
 62
     2
  6
CONTINUOUS
 10
-1.875795
 20
1.013846
  0
VERTEX
  8
PLAN_1
 62
     2
  6
CONTINUOUS
 10
-1.875303
 20
1.011382
  0
VERTEX
  8
PLAN_1
 62
     2
  6
CONTINUOUS
 10
-1.873827
 20
1.009413
  0
VERTEX
  8
PLAN_1
 62
     2
  6
CONTINUOUS
 10
-1.872843
 20
1.007445
  0
VERTEX
  8
PLAN_1
 62
     2
  6
CONTINUOUS
 10
-1.833957
 20
1.049776
  0
SEQEND
  8
0
  0
POLYLINE
  8
PLAN_1
 62
     2
  6
CONTINUOUS
 66
     1
 40
0.003000
 41
0.003000
  0
VERTEX
  8
PLAN_1
 62
     2
  6
CONTINUOUS
 10
-1.796059
 20
1.032055
  0
VERTEX
  8
PLAN_1
 62
     2
  6
CONTINUOUS
 10
-1.795075
 20
1.033039
  0
VERTEX
  8
PLAN_1
 62
     2
  6
CONTINUOUS
 10
-1.793594
 20
1.034024
  0
VERTEX
  8
PLAN_1
 62
     2
  6
CONTINUOUS
 10
-1.792118
 20
1.034516
  0
VERTEX
  8
PLAN_1
 62
     2
  6
CONTINUOUS
 10
-1.790642
 20
1.035504
  0
VERTEX
  8
PLAN_1
 62
     2
  6
CONTINUOUS
 10
-1.788673
 20
1.035996
  0
VERTEX
  8
PLAN_1
 62
     2
  6
CONTINUOUS
 10
-1.786705
 20
1.036488
  0
VERTEX
  8
PLAN_1
 62
     2
  6
CONTINUOUS
 10
-1.784736
 20
1.036488
  0
VERTEX
  8
PLAN_1
 62
     2
  6
CONTINUOUS
 10
-1.782276
 20
1.036488
  0
VERTEX
  8
PLAN_1
 62
     2
  6
CONTINUOUS
 10
-1.777846
 20
1.036488
  0
VERTEX
  8
PLAN_1
 62
     2
  6
CONTINUOUS
 10
-1.773417
 20
1.035012
  0
VERTEX
  8
PLAN_1
 62
     2
  6
CONTINUOUS
 10
-1.769476
 20
1.033039
  0
VERTEX
  8
PLAN_1
 62
     2
  6
CONTINUOUS
 10
-1.765539
 20
1.030579
  0
VERTEX
  8
PLAN_1
 62
     2
  6
CONTINUOUS
 10
-1.762587
 20
1.027134
  0
VERTEX
  8
PLAN_1
 62
     2
  6
CONTINUOUS
 10
-1.760126
 20
1.023197
  0
VERTEX
  8
PLAN_1
 62
     2
  6
CONTINUOUS
 10
-1.759142
 20
1.021228
  0
VERTEX
  8
PLAN_1
 62
     2
  6
CONTINUOUS
 10
-1.758650
 20
1.018768
  0
VERTEX
  8
PLAN_1
 62
     2
  6
CONTINUOUS
 10
-1.758157
 20
1.015815
  0
VERTEX
  8
PLAN_1
 62
     2
  6
CONTINUOUS
 10
-1.758157
 20
1.013354
  0
VERTEX
  8
PLAN_1
 62
     2
  6
CONTINUOUS
 10
-1.758157
 20
1.009906
  0
VERTEX
  8
PLAN_1
 62
     2
  6
CONTINUOUS
 10
-1.759142
 20
1.005969
  0
VERTEX
  8
PLAN_1
 62
     2
  6
CONTINUOUS
 10
-1.760618
 20
1.001539
  0
VERTEX
  8
PLAN_1
 62
     2
  6
CONTINUOUS
 10
-1.762587
 20
0.997602
  0
VERTEX
  8
PLAN_1
 62
     2
  6
CONTINUOUS
 10
-1.764555
 20
0.995634
  0
VERTEX
  8
PLAN_1
 62
     2
  6
CONTINUOUS
 10
-1.766031
 20
0.993665
  0
VERTEX
  8
PLAN_1
 62
     2
  6
CONTINUOUS
 10
-1.768492
 20
0.991697
  0
VERTEX
  8
PLAN_1
 62
     2
  6
CONTINUOUS
 10
-1.770953
 20
0.990220
  0
VERTEX
  8
PLAN_1
 62
     2
  6
CONTINUOUS
 10
-1.773909
 20
0.989236
  0
VERTEX
  8
PLAN_1
 62
     2
  6
CONTINUOUS
 10
-1.776862
 20
0.988252
  0
VERTEX
  8
PLAN_1
 62
     2
  6
CONTINUOUS
 10
-1.780799
 20
0.987756
  0
VERTEX
  8
PLAN_1
 62
     2
  6
CONTINUOUS
 10
-1.784736
 20
0.987756
  0
VERTEX
  8
PLAN_1
 62
     2
  6
CONTINUOUS
 10
-1.788181
 20
0.987756
  0
VERTEX
  8
PLAN_1
 62
     2
  6
CONTINUOUS
 10
-1.792118
 20
0.988252
  0
VERTEX
  8
PLAN_1
 62
     2
  6
CONTINUOUS
 10
-1.796059
 20
0.989728
  0
VERTEX
  8
PLAN_1
 62
     2
  6
CONTINUOUS
 10
-1.799504
 20
0.991697
  0
VERTEX
  8
PLAN_1
 62
     2
  6
CONTINUOUS
 10
-1.802457
 20
0.994157
  0
VERTEX
  8
PLAN_1
 62
     2
  6
CONTINUOUS
 10
-1.805409
 20
0.997602
  0
VERTEX
  8
PLAN_1
 62
     2
  6
CONTINUOUS
 10
-1.806394
 20
1.000063
  0
VERTEX
  8
PLAN_1
 62
     2
  6
CONTINUOUS
 10
-1.807378
 20
1.002031
  0
VERTEX
  8
PLAN_1
 62
     2
  6
CONTINUOUS
 10
-1.807870
 20
1.004984
  0
VERTEX
  8
PLAN_1
 62
     2
  6
CONTINUOUS
 10
-1.808362
 20
1.007937
  0
VERTEX
  8
PLAN_1
 62
     2
  6
CONTINUOUS
 10
-1.799012
 20
1.007937
  0
VERTEX
  8
PLAN_1
 62
     2
  6
CONTINUOUS
 10
-1.798028
 20
1.004984
  0
VERTEX
  8
PLAN_1
 62
     2
  6
CONTINUOUS
 10
-1.797043
 20
1.002031
  0
VERTEX
  8
PLAN_1
 62
     2
  6
CONTINUOUS
 10
-1.795567
 20
1.000063
  0
VERTEX
  8
PLAN_1
 62
     2
  6
CONTINUOUS
 10
-1.793594
 20
0.998587
  0
VERTEX
  8
PLAN_1
 62
     2
  6
CONTINUOUS
 10
-1.791626
 20
0.997110
  0
VERTEX
  8
PLAN_1
 62
     2
  6
CONTINUOUS
 10
-1.789165
 20
0.996126
  0
VERTEX
  8
PLAN_1
 62
     2
  6
CONTINUOUS
 10
-1.786213
 20
0.995634
  0
VERTEX
  8
PLAN_1
 62
     2
  6
CONTINUOUS
 10
-1.783260
 20
0.995634
  0
VERTEX
  8
PLAN_1
 62
     2
  6
CONTINUOUS
 10
-1.779815
 20
0.995634
  0
VERTEX
  8
PLAN_1
 62
     2
  6
CONTINUOUS
 10
-1.776862
 20
0.996618
  0
VERTEX
  8
PLAN_1
 62
     2
  6
CONTINUOUS
 10
-1.774402
 20
0.998587
  0
VERTEX
  8
PLAN_1
 62
     2
  6
CONTINUOUS
 10
-1.771941
 20
1.000555
  0
VERTEX
  8
PLAN_1
 62
     2
  6
CONTINUOUS
 10
-1.770461
 20
1.003016
  0
VERTEX
  8
PLAN_1
 62
     2
  6
CONTINUOUS
 10
-1.768984
 20
1.005969
  0
VERTEX
  8
PLAN_1
 62
     2
  6
CONTINUOUS
 10
-1.768000
 20
1.008921
  0
VERTEX
  8
PLAN_1
 62
     2
  6
CONTINUOUS
 10
-1.768000
 20
1.012370
  0
VERTEX
  8
PLAN_1
 62
     2
  6
CONTINUOUS
 10
-1.768000
 20
1.015815
  0
VERTEX
  8
PLAN_1
 62
     2
  6
CONTINUOUS
 10
-1.768984
 20
1.019260
  0
VERTEX
  8
PLAN_1
 62
     2
  6
CONTINUOUS
 10
-1.770461
 20
1.022213
  0
VERTEX
  8
PLAN_1
 62
     2
  6
CONTINUOUS
 10
-1.772433
 20
1.024181
  0
VERTEX
  8
PLAN_1
 62
     2
  6
CONTINUOUS
 10
-1.774894
 20
1.026150
  0
VERTEX
  8
PLAN_1
 62
     2
  6
CONTINUOUS
 10
-1.777846
 20
1.027626
  0
VERTEX
  8
PLAN_1
 62
     2
  6
CONTINUOUS
 10
-1.780799
 20
1.028118
  0
VERTEX
  8
PLAN_1
 62
     2
  6
CONTINUOUS
 10
-1.784244
 20
1.028610
  0
VERTEX
  8
PLAN_1
 62
     2
  6
CONTINUOUS
 10
-1.786213
 20
1.028118
  0
VERTEX
  8
PLAN_1
 62
     2
  6
CONTINUOUS
 10
-1.788181
 20
1.028118
  0
VERTEX
  8
PLAN_1
 62
     2
  6
CONTINUOUS
 10
-1.789657
 20
1.027626
  0
VERTEX
  8
PLAN_1
 62
     2
  6
CONTINUOUS
 10
-1.791626
 20
1.026642
  0
VERTEX
  8
PLAN_1
 62
     2
  6
CONTINUOUS
 10
-1.793102
 20
1.025657
  0
VERTEX
  8
PLAN_1
 62
     2
  6
CONTINUOUS
 10
-1.795075
 20
1.024673
  0
VERTEX
  8
PLAN_1
 62
     2
  6
CONTINUOUS
 10
-1.796551
 20
1.023197
  0
VERTEX
  8
PLAN_1
 62
     2
  6
CONTINUOUS
 10
-1.797535
 20
1.021720
  0
VERTEX
  8
PLAN_1
 62
     2
  6
CONTINUOUS
 10
-1.805409
 20
1.021720
  0
VERTEX
  8
PLAN_1
 62
     2
  6
CONTINUOUS
 10
-1.799996
 20
1.061098
  0
VERTEX
  8
PLAN_1
 62
     2
  6
CONTINUOUS
 10
-1.762094
 20
1.061098
  0
VERTEX
  8
PLAN_1
 62
     2
  6
CONTINUOUS
 10
-1.762094
 20
1.052236
  0
VERTEX
  8
PLAN_1
 62
     2
  6
CONTINUOUS
 10
-1.793102
 20
1.052236
  0
VERTEX
  8
PLAN_1
 62
     2
  6
CONTINUOUS
 10
-1.796059
 20
1.032055
  0
SEQEND
  8
0
  0
POLYLINE
  8
PLAN_1
 62
     2
  6
CONTINUOUS
 66
     1
 40
0.003000
 41
0.003000
  0
VERTEX
  8
PLAN_1
 62
     2
  6
CONTINUOUS
 10
-1.744866
 20
1.000555
  0
VERTEX
  8
PLAN_1
 62
     2
  6
CONTINUOUS
 10
-1.734039
 20
1.000555
  0
VERTEX
  8
PLAN_1
 62
     2
  6
CONTINUOUS
 10
-1.734039
 20
0.990220
  0
VERTEX
  8
PLAN_1
 62
     2
  6
CONTINUOUS
 10
-1.734039
 20
0.985787
  0
VERTEX
  8
PLAN_1
 62
     2
  6
CONTINUOUS
 10
-1.735024
 20
0.981850
  0
VERTEX
  8
PLAN_1
 62
     2
  6
CONTINUOUS
 10
-1.736500
 20
0.979390
  0
VERTEX
  8
PLAN_1
 62
     2
  6
CONTINUOUS
 10
-1.738469
 20
0.976929
  0
VERTEX
  8
PLAN_1
 62
     2
  6
CONTINUOUS
 10
-1.740437
 20
0.975945
  0
VERTEX
  8
PLAN_1
 62
     2
  6
CONTINUOUS
 10
-1.741913
 20
0.974961
  0
VERTEX
  8
PLAN_1
 62
     2
  6
CONTINUOUS
 10
-1.743390
 20
0.974469
  0
VERTEX
  8
PLAN_1
 62
     2
  6
CONTINUOUS
 10
-1.744866
 20
0.974469
  0
VERTEX
  8
PLAN_1
 62
     2
  6
CONTINUOUS
 10
-1.744866
 20
0.978898
  0
VERTEX
  8
PLAN_1
 62
     2
  6
CONTINUOUS
 10
-1.743390
 20
0.979390
  0
VERTEX
  8
PLAN_1
 62
     2
  6
CONTINUOUS
 10
-1.741913
 20
0.980374
  0
VERTEX
  8
PLAN_1
 62
     2
  6
CONTINUOUS
 10
-1.740929
 20
0.981358
  0
VERTEX
  8
PLAN_1
 62
     2
  6
CONTINUOUS
 10
-1.740437
 20
0.982835
  0
VERTEX
  8
PLAN_1
 62
     2
  6
CONTINUOUS
 10
-1.739945
 20
0.984311
  0
VERTEX
  8
PLAN_1
 62
     2
  6
CONTINUOUS
 10
-1.739453
 20
0.985787
  0
VERTEX
  8
PLAN_1
 62
     2
  6
CONTINUOUS
 10
-1.738961
 20
0.987756
  0
VERTEX
  8
PLAN_1
 62
     2
  6
CONTINUOUS
 10
-1.738961
 20
0.989728
  0
VERTEX
  8
PLAN_1
 62
     2
  6
CONTINUOUS
 10
-1.744866
 20
0.989728
  0
VERTEX
  8
PLAN_1
 62
     2
  6
CONTINUOUS
 10
-1.744866
 20
1.000555
  0
SEQEND
  8
0
  0
POLYLINE
  8
PLAN_1
 62
     2
  6
CONTINUOUS
 66
     1
 40
0.003000
 41
0.003000
  0
VERTEX
  8
PLAN_1
 62
     2
  6
CONTINUOUS
 10
-1.701551
 20
1.031071
  0
VERTEX
  8
PLAN_1
 62
     2
  6
CONTINUOUS
 10
-1.701059
 20
1.031071
  0
VERTEX
  8
PLAN_1
 62
     2
  6
CONTINUOUS
 10
-1.700075
 20
1.031071
  0
VERTEX
  8
PLAN_1
 62
     2
  6
CONTINUOUS
 10
-1.699583
 20
1.031071
  0
VERTEX
  8
PLAN_1
 62
     2
  6
CONTINUOUS
 10
-1.699091
 20
1.031071
  0
VERTEX
  8
PLAN_1
 62
     2
  6
CONTINUOUS
 10
-1.698598
 20
1.031071
  0
VERTEX
  8
PLAN_1
 62
     2
  6
CONTINUOUS
 10
-1.698106
 20
1.031071
  0
VERTEX
  8
PLAN_1
 62
     2
  6
CONTINUOUS
 10
-1.697122
 20
1.031071
  0
VERTEX
  8
PLAN_1
 62
     2
  6
CONTINUOUS
 10
-1.696630
 20
1.031071
  0
VERTEX
  8
PLAN_1
 62
     2
  6
CONTINUOUS
 10
-1.694169
 20
1.031071
  0
VERTEX
  8
PLAN_1
 62
     2
  6
CONTINUOUS
 10
-1.691709
 20
1.031563
  0
VERTEX
  8
PLAN_1
 62
     2
  6
CONTINUOUS
 10
-1.689248
 20
1.032547
  0
VERTEX
  8
PLAN_1
 62
     2
  6
CONTINUOUS
 10
-1.687280
 20
1.033531
  0
VERTEX
  8
PLAN_1
 62
     2
  6
CONTINUOUS
 10
-1.685311
 20
1.035012
  0
VERTEX
  8
PLAN_1
 62
     2
  6
CONTINUOUS
 10
-1.683835
 20
1.036980
  0
VERTEX
  8
PLAN_1
 62
     2
  6
CONTINUOUS
 10
-1.682850
 20
1.039933
  0
VERTEX
  8
PLAN_1
 62
     2
  6
CONTINUOUS
 10
-1.682850
 20
1.042886
  0
VERTEX
  8
PLAN_1
 62
     2
  6
CONTINUOUS
 10
-1.682850
 20
1.044854
  0
VERTEX
  8
PLAN_1
 62
     2
  6
CONTINUOUS
 10
-1.683343
 20
1.046331
  0
VERTEX
  8
PLAN_1
 62
     2
  6
CONTINUOUS
 10
-1.684327
 20
1.048299
  0
VERTEX
  8
PLAN_1
 62
     2
  6
CONTINUOUS
 10
-1.685311
 20
1.050268
  0
VERTEX
  8
PLAN_1
 62
     2
  6
CONTINUOUS
 10
-1.687280
 20
1.051744
  0
VERTEX
  8
PLAN_1
 62
     2
  6
CONTINUOUS
 10
-1.689740
 20
1.053220
  0
VERTEX
  8
PLAN_1
 62
     2
  6
CONTINUOUS
 10
-1.692693
 20
1.054205
  0
VERTEX
  8
PLAN_1
 62
     2
  6
CONTINUOUS
 10
-1.696138
 20
1.054697
  0
VERTEX
  8
PLAN_1
 62
     2
  6
CONTINUOUS
 10
-1.698598
 20
1.054205
  0
VERTEX
  8
PLAN_1
 62
     2
  6
CONTINUOUS
 10
-1.700567
 20
1.054205
  0
VERTEX
  8
PLAN_1
 62
     2
  6
CONTINUOUS
 10
-1.702539
 20
1.053220
  0
VERTEX
  8
PLAN_1
 62
     2
  6
CONTINUOUS
 10
-1.704016
 20
1.052728
  0
VERTEX
  8
PLAN_1
 62
     2
  6
CONTINUOUS
 10
-1.706476
 20
1.050760
  0
VERTEX
  8
PLAN_1
 62
     2
  6
CONTINUOUS
 10
-1.707953
 20
1.048299
  0
VERTEX
  8
PLAN_1
 62
     2
  6
CONTINUOUS
 10
-1.709429
 20
1.045839
  0
VERTEX
  8
PLAN_1
 62
     2
  6
CONTINUOUS
 10
-1.709921
 20
1.043378
  0
VERTEX
  8
PLAN_1
 62
     2
  6
CONTINUOUS
 10
-1.710413
 20
1.040917
  0
VERTEX
  8
PLAN_1
 62
     2
  6
CONTINUOUS
 10
-1.710413
 20
1.038949
  0
VERTEX
  8
PLAN_1
 62
     2
  6
CONTINUOUS
 10
-1.719272
 20
1.038949
  0
VERTEX
  8
PLAN_1
 62
     2
  6
CONTINUOUS
 10
-1.719272
 20
1.042886
  0
VERTEX
  8
PLAN_1
 62
     2
  6
CONTINUOUS
 10
-1.718287
 20
1.046823
  0
VERTEX
  8
PLAN_1
 62
     2
  6
CONTINUOUS
 10
-1.717303
 20
1.051252
  0
VERTEX
  8
PLAN_1
 62
     2
  6
CONTINUOUS
 10
-1.714843
 20
1.054697
  0
VERTEX
  8
PLAN_1
 62
     2
  6
CONTINUOUS
 10
-1.713366
 20
1.056173
  0
VERTEX
  8
PLAN_1
 62
     2
  6
CONTINUOUS
 10
-1.711890
 20
1.058146
  0
VERTEX
  8
PLAN_1
 62
     2
  6
CONTINUOUS
 10
-1.709921
 20
1.059130
  0
VERTEX
  8
PLAN_1
 62
     2
  6
CONTINUOUS
 10
-1.707461
 20
1.060606
  0
VERTEX
  8
PLAN_1
 62
     2
  6
CONTINUOUS
 10
-1.705000
 20
1.061591
  0
VERTEX
  8
PLAN_1
 62
     2
  6
CONTINUOUS
 10
-1.702539
 20
1.062083
  0
VERTEX
  8
PLAN_1
 62
     2
  6
CONTINUOUS
 10
-1.699091
 20
1.062575
  0
VERTEX
  8
PLAN_1
 62
     2
  6
CONTINUOUS
 10
-1.695646
 20
1.062575
  0
VERTEX
  8
PLAN_1
 62
     2
  6
CONTINUOUS
 10
-1.690724
 20
1.062083
  0
VERTEX
  8
PLAN_1
 62
     2
  6
CONTINUOUS
 10
-1.686295
 20
1.061098
  0
VERTEX
  8
PLAN_1
 62
     2
  6
CONTINUOUS
 10
-1.682358
 20
1.059622
  0
VERTEX
  8
PLAN_1
 62
     2
  6
CONTINUOUS
 10
-1.679406
 20
1.057157
  0
VERTEX
  8
PLAN_1
 62
     2
  6
CONTINUOUS
 10
-1.676941
 20
1.054205
  0
VERTEX
  8
PLAN_1
 62
     2
  6
CONTINUOUS
 10
-1.674972
 20
1.051252
  0
VERTEX
  8
PLAN_1
 62
     2
  6
CONTINUOUS
 10
-1.673496
 20
1.047315
  0
VERTEX
  8
PLAN_1
 62
     2
  6
CONTINUOUS
 10
-1.673496
 20
1.043378
  0
VERTEX
  8
PLAN_1
 62
     2
  6
CONTINUOUS
 10
-1.673496
 20
1.039933
  0
VERTEX
  8
PLAN_1
 62
     2
  6
CONTINUOUS
 10
-1.673988
 20
1.037472
  0
VERTEX
  8
PLAN_1
 62
     2
  6
CONTINUOUS
 10
-1.674972
 20
1.035012
  0
VERTEX
  8
PLAN_1
 62
     2
  6
CONTINUOUS
 10
-1.676449
 20
1.033039
  0
VERTEX
  8
PLAN_1
 62
     2
  6
CONTINUOUS
 10
-1.677925
 20
1.031071
  0
VERTEX
  8
PLAN_1
 62
     2
  6
CONTINUOUS
 10
-1.679406
 20
1.030087
  0
VERTEX
  8
PLAN_1
 62
     2
  6
CONTINUOUS
 10
-1.680882
 20
1.029102
  0
VERTEX
  8
PLAN_1
 62
     2
  6
CONTINUOUS
 10
-1.682850
 20
1.028118
  0
VERTEX
  8
PLAN_1
 62
     2
  6
CONTINUOUS
 10
-1.679898
 20
1.027134
  0
VERTEX
  8
PLAN_1
 62
     2
  6
CONTINUOUS
 10
-1.677925
 20
1.025657
  0
VERTEX
  8
PLAN_1
 62
     2
  6
CONTINUOUS
 10
-1.675465
 20
1.024181
  0
VERTEX
  8
PLAN_1
 62
     2
  6
CONTINUOUS
 10
-1.673988
 20
1.022213
  0
VERTEX
  8
PLAN_1
 62
     2
  6
CONTINUOUS
 10
-1.672512
 20
1.020244
  0
VERTEX
  8
PLAN_1
 62
     2
  6
CONTINUOUS
 10
-1.671528
 20
1.017783
  0
VERTEX
  8
PLAN_1
 62
     2
  6
CONTINUOUS
 10
-1.670543
 20
1.014339
  0
VERTEX
  8
PLAN_1
 62
     2
  6
CONTINUOUS
 10
-1.670543
 20
1.010890
  0
VERTEX
  8
PLAN_1
 62
     2
  6
CONTINUOUS
 10
-1.671035
 20
1.006461
  0
VERTEX
  8
PLAN_1
 62
     2
  6
CONTINUOUS
 10
-1.672020
 20
1.002524
  0
VERTEX
  8
PLAN_1
 62
     2
  6
CONTINUOUS
 10
-1.673988
 20
0.998587
  0
VERTEX
  8
PLAN_1
 62
     2
  6
CONTINUOUS
 10
-1.676449
 20
0.994650
  0
VERTEX
  8
PLAN_1
 62
     2
  6
CONTINUOUS
 10
-1.678417
 20
0.993173
  0
VERTEX
  8
PLAN_1
 62
     2
  6
CONTINUOUS
 10
-1.680390
 20
0.991697
  0
VERTEX
  8
PLAN_1
 62
     2
  6
CONTINUOUS
 10
-1.682358
 20
0.990713
  0
VERTEX
  8
PLAN_1
 62
     2
  6
CONTINUOUS
 10
-1.684819
 20
0.989728
  0
VERTEX
  8
PLAN_1
 62
     2
  6
CONTINUOUS
 10
-1.687280
 20
0.988744
  0
VERTEX
  8
PLAN_1
 62
     2
  6
CONTINUOUS
 10
-1.690232
 20
0.988252
  0
VERTEX
  8
PLAN_1
 62
     2
  6
CONTINUOUS
 10
-1.693677
 20
0.987756
  0
VERTEX
  8
PLAN_1
 62
     2
  6
CONTINUOUS
 10
-1.696630
 20
0.987756
  0
VERTEX
  8
PLAN_1
 62
     2
  6
CONTINUOUS
 10
-1.698598
 20
0.987756
  0
VERTEX
  8
PLAN_1
 62
     2
  6
CONTINUOUS
 10
-1.700567
 20
0.987756
  0
VERTEX
  8
PLAN_1
 62
     2
  6
CONTINUOUS
 10
-1.702539
 20
0.988252
  0
VERTEX
  8
PLAN_1
 62
     2
  6
CONTINUOUS
 10
-1.704508
 20
0.988252
  0
VERTEX
  8
PLAN_1
 62
     2
  6
CONTINUOUS
 10
-1.705984
 20
0.988744
  0
VERTEX
  8
PLAN_1
 62
     2
  6
CONTINUOUS
 10
-1.707461
 20
0.989728
  0
VERTEX
  8
PLAN_1
 62
     2
  6
CONTINUOUS
 10
-1.708937
 20
0.990220
  0
VERTEX
  8
PLAN_1
 62
     2
  6
CONTINUOUS
 10
-1.710413
 20
0.990713
  0
VERTEX
  8
PLAN_1
 62
     2
  6
CONTINUOUS
 10
-1.712874
 20
0.992681
  0
VERTEX
  8
PLAN_1
 62
     2
  6
CONTINUOUS
 10
-1.715335
 20
0.994650
  0
VERTEX
  8
PLAN_1
 62
     2
  6
CONTINUOUS
 10
-1.717303
 20
0.997110
  0
VERTEX
  8
PLAN_1
 62
     2
  6
CONTINUOUS
 10
-1.718780
 20
0.999571
  0
VERTEX
  8
PLAN_1
 62
     2
  6
CONTINUOUS
 10
-1.719764
 20
1.002524
  0
VERTEX
  8
PLAN_1
 62
     2
  6
CONTINUOUS
 10
-1.720256
 20
1.005476
  0
VERTEX
  8
PLAN_1
 62
     2
  6
CONTINUOUS
 10
-1.720748
 20
1.008921
  0
VERTEX
  8
PLAN_1
 62
     2
  6
CONTINUOUS
 10
-1.721240
 20
1.011878
  0
VERTEX
  8
PLAN_1
 62
     2
  6
CONTINUOUS
 10
-1.711890
 20
1.011878
  0
VERTEX
  8
PLAN_1
 62
     2
  6
CONTINUOUS
 10
-1.711398
 20
1.009413
  0
VERTEX
  8
PLAN_1
 62
     2
  6
CONTINUOUS
 10
-1.710906
 20
1.006461
  0
VERTEX
  8
PLAN_1
 62
     2
  6
CONTINUOUS
 10
-1.710413
 20
1.004000
  0
VERTEX
  8
PLAN_1
 62
     2
  6
CONTINUOUS
 10
-1.708937
 20
1.001047
  0
VERTEX
  8
PLAN_1
 62
     2
  6
CONTINUOUS
 10
-1.706969
 20
0.999079
  0
VERTEX
  8
PLAN_1
 62
     2
  6
CONTINUOUS
 10
-1.704508
 20
0.997110
  0
VERTEX
  8
PLAN_1
 62
     2
  6
CONTINUOUS
 10
-1.700567
 20
0.996126
  0
VERTEX
  8
PLAN_1
 62
     2
  6
CONTINUOUS
 10
-1.696138
 20
0.995634
  0
VERTEX
  8
PLAN_1
 62
     2
  6
CONTINUOUS
 10
-1.692693
 20
0.996126
  0
VERTEX
  8
PLAN_1
 62
     2
  6
CONTINUOUS
 10
-1.689740
 20
0.996618
  0
VERTEX
  8
PLAN_1
 62
     2
  6
CONTINUOUS
 10
-1.686787
 20
0.998094
  0
VERTEX
  8
PLAN_1
 62
     2
  6
CONTINUOUS
 10
-1.684819
 20
0.999571
  0
VERTEX
  8
PLAN_1
 62
     2
  6
CONTINUOUS
 10
-1.682850
 20
1.001539
  0
VERTEX
  8
PLAN_1
 62
     2
  6
CONTINUOUS
 10
-1.681374
 20
1.004000
  0
VERTEX
  8
PLAN_1
 62
     2
  6
CONTINUOUS
 10
-1.680390
 20
1.006953
  0
VERTEX
  8
PLAN_1
 62
     2
  6
CONTINUOUS
 10
-1.680390
 20
1.009906
  0
VERTEX
  8
PLAN_1
 62
     2
  6
CONTINUOUS
 10
-1.680390
 20
1.011878
  0
VERTEX
  8
PLAN_1
 62
     2
  6
CONTINUOUS
 10
-1.680882
 20
1.013846
  0
VERTEX
  8
PLAN_1
 62
     2
  6
CONTINUOUS
 10
-1.681374
 20
1.015815
  0
VERTEX
  8
PLAN_1
 62
     2
  6
CONTINUOUS
 10
-1.681866
 20
1.017291
  0
VERTEX
  8
PLAN_1
 62
     2
  6
CONTINUOUS
 10
-1.683835
 20
1.019752
  0
VERTEX
  8
PLAN_1
 62
     2
  6
CONTINUOUS
 10
-1.686295
 20
1.021228
  0
VERTEX
  8
PLAN_1
 62
     2
  6
CONTINUOUS
 10
-1.689248
 20
1.022213
  0
VERTEX
  8
PLAN_1
 62
     2
  6
CONTINUOUS
 10
-1.692201
 20
1.023197
  0
VERTEX
  8
PLAN_1
 62
     2
  6
CONTINUOUS
 10
-1.694661
 20
1.023197
  0
VERTEX
  8
PLAN_1
 62
     2
  6
CONTINUOUS
 10
-1.697122
 20
1.023197
  0
VERTEX
  8
PLAN_1
 62
     2
  6
CONTINUOUS
 10
-1.697614
 20
1.023197
  0
VERTEX
  8
PLAN_1
 62
     2
  6
CONTINUOUS
 10
-1.698598
 20
1.023197
  0
VERTEX
  8
PLAN_1
 62
     2
  6
CONTINUOUS
 10
-1.699091
 20
1.023197
  0
VERTEX
  8
PLAN_1
 62
     2
  6
CONTINUOUS
 10
-1.699583
 20
1.023197
  0
VERTEX
  8
PLAN_1
 62
     2
  6
CONTINUOUS
 10
-1.700075
 20
1.023197
  0
VERTEX
  8
PLAN_1
 62
     2
  6
CONTINUOUS
 10
-1.700567
 20
1.023197
  0
VERTEX
  8
PLAN_1
 62
     2
  6
CONTINUOUS
 10
-1.701059
 20
1.023197
  0
VERTEX
  8
PLAN_1
 62
     2
  6
CONTINUOUS
 10
-1.701551
 20
1.023197
  0
VERTEX
  8
PLAN_1
 62
     2
  6
CONTINUOUS
 10
-1.701551
 20
1.031071
  0
SEQEND
  8
0
  0
POLYLINE
  8
PLAN_1
 62
     2
  6
CONTINUOUS
 66
     1
 40
0.003937
 41
0.003937
  0
VERTEX
  8
PLAN_1
 62
     2
  6
CONTINUOUS
 10
-1.388016
 20
-0.443587
  0
VERTEX
  8
PLAN_1
 62
     2
  6
CONTINUOUS
 10
0.172780
 20
-0.443587
  0
SEQEND
  8
0
  0
SOLID
  8
PLAN_1
 62
     2
 10
0.202315
 20
-0.443587
 11
0.143248
 21
-0.427839
 12
0.202315
 22
-0.443587
 13
0.143248
 23
-0.459339
  0
POLYLINE
  8
PLAN_1
 62
     2
  6
CONTINUOUS
 66
     1
 40
0.003000
 41
0.003000
  0
VERTEX
  8
PLAN_1
 62
     2
  6
CONTINUOUS
 10
0.202315
 20
-0.443587
  0
VERTEX
  8
PLAN_1
 62
     2
  6
CONTINUOUS
 10
0.143248
 20
-0.427839
  0
VERTEX
  8
PLAN_1
 62
     2
  6
CONTINUOUS
 10
0.143248
 20
-0.459339
  0
VERTEX
  8
PLAN_1
 62
     2
  6
CONTINUOUS
 10
0.202315
 20
-0.443587
  0
SEQEND
  8
0
  0
SOLID
  8
PLAN_1
 62
     2
 10
-1.417547
 20
-0.443587
 11
-1.358484
 21
-0.427839
 12
-1.417547
 22
-0.443587
 13
-1.358484
 23
-0.459339
  0
POLYLINE
  8
PLAN_1
 62
     2
  6
CONTINUOUS
 66
     1
 40
0.003000
 41
0.003000
  0
VERTEX
  8
PLAN_1
 62
     2
  6
CONTINUOUS
 10
-1.417547
 20
-0.443587
  0
VERTEX
  8
PLAN_1
 62
     2
  6
CONTINUOUS
 10
-1.358484
 20
-0.427839
  0
VERTEX
  8
PLAN_1
 62
     2
  6
CONTINUOUS
 10
-1.358484
 20
-0.459339
  0
VERTEX
  8
PLAN_1
 62
     2
  6
CONTINUOUS
 10
-1.417547
 20
-0.443587
  0
SEQEND
  8
0
  0
POLYLINE
  8
PLAN_1
 62
     2
  6
CONTINUOUS
 66
     1
 40
0.003000
 41
0.003000
  0
VERTEX
  8
PLAN_1
 62
     2
  6
CONTINUOUS
 10
-0.658067
 20
-0.402244
  0
VERTEX
  8
PLAN_1
 62
     2
  6
CONTINUOUS
 10
-0.658067
 20
-0.419961
  0
VERTEX
  8
PLAN_1
 62
     2
  6
CONTINUOUS
 10
-0.666929
 20
-0.419961
  0
VERTEX
  8
PLAN_1
 62
     2
  6
CONTINUOUS
 10
-0.666929
 20
-0.402244
  0
VERTEX
  8
PLAN_1
 62
     2
  6
CONTINUOUS
 10
-0.698921
 20
-0.402244
  0
VERTEX
  8
PLAN_1
 62
     2
  6
CONTINUOUS
 10
-0.698921
 20
-0.393382
  0
VERTEX
  8
PLAN_1
 62
     2
  6
CONTINUOUS
 10
-0.665453
 20
-0.346622
  0
VERTEX
  8
PLAN_1
 62
     2
  6
CONTINUOUS
 10
-0.658067
 20
-0.346622
  0
VERTEX
  8
PLAN_1
 62
     2
  6
CONTINUOUS
 10
-0.658067
 20
-0.394366
  0
VERTEX
  8
PLAN_1
 62
     2
  6
CONTINUOUS
 10
-0.647240
 20
-0.394366
  0
VERTEX
  8
PLAN_1
 62
     2
  6
CONTINUOUS
 10
-0.647240
 20
-0.402244
  0
VERTEX
  8
PLAN_1
 62
     2
  6
CONTINUOUS
 10
-0.658067
 20
-0.402244
  0
SEQEND
  8
0
  0
SOLID
  8
PLAN_1
 62
     2
 10
-0.690555
 20
-0.394366
 11
-0.666929
 21
-0.394366
 12
-0.667421
 22
-0.360898
 13
-0.666929
 23
-0.360898
  0
POLYLINE
  8
PLAN_1
 62
     2
  6
CONTINUOUS
 66
     1
 40
0.003000
 41
0.003000
  0
VERTEX
  8
PLAN_1
 62
     2
  6
CONTINUOUS
 10
-0.690555
 20
-0.394366
  0
VERTEX
  8
PLAN_1
 62
     2
  6
CONTINUOUS
 10
-0.666929
 20
-0.394366
  0
VERTEX
  8
PLAN_1
 62
     2
  6
CONTINUOUS
 10
-0.666929
 20
-0.360898
  0
VERTEX
  8
PLAN_1
 62
     2
  6
CONTINUOUS
 10
-0.667421
 20
-0.360898
  0
VERTEX
  8
PLAN_1
 62
     2
  6
CONTINUOUS
 10
-0.690555
 20
-0.394366
  0
SEQEND
  8
0
  0
POLYLINE
  8
PLAN_1
 62
     2
  6
CONTINUOUS
 66
     1
 40
0.003000
 41
0.003000
  0
VERTEX
  8
PLAN_1
 62
     2
  6
CONTINUOUS
 10
-0.639366
 20
-0.373201
  0
VERTEX
  8
PLAN_1
 62
     2
  6
CONTINUOUS
 10
-0.638874
 20
-0.368772
  0
VERTEX
  8
PLAN_1
 62
     2
  6
CONTINUOUS
 10
-0.638382
 20
-0.364835
  0
VERTEX
  8
PLAN_1
 62
     2
  6
CONTINUOUS
 10
-0.637398
 20
-0.361882
  0
VERTEX
  8
PLAN_1
 62
     2
  6
CONTINUOUS
 10
-0.636413
 20
-0.358929
  0
VERTEX
  8
PLAN_1
 62
     2
  6
CONTINUOUS
 10
-0.634933
 20
-0.356469
  0
VERTEX
  8
PLAN_1
 62
     2
  6
CONTINUOUS
 10
-0.633457
 20
-0.354496
  0
VERTEX
  8
PLAN_1
 62
     2
  6
CONTINUOUS
 10
-0.631488
 20
-0.352528
  0
VERTEX
  8
PLAN_1
 62
     2
  6
CONTINUOUS
 10
-0.629520
 20
-0.351051
  0
VERTEX
  8
PLAN_1
 62
     2
  6
CONTINUOUS
 10
-0.625583
 20
-0.348591
  0
VERTEX
  8
PLAN_1
 62
     2
  6
CONTINUOUS
 10
-0.621154
 20
-0.347606
  0
VERTEX
  8
PLAN_1
 62
     2
  6
CONTINUOUS
 10
-0.617217
 20
-0.347114
  0
VERTEX
  8
PLAN_1
 62
     2
  6
CONTINUOUS
 10
-0.613772
 20
-0.346622
  0
VERTEX
  8
PLAN_1
 62
     2
  6
CONTINUOUS
 10
-0.609339
 20
-0.347114
  0
VERTEX
  8
PLAN_1
 62
     2
  6
CONTINUOUS
 10
-0.604909
 20
-0.348098
  0
VERTEX
  8
PLAN_1
 62
     2
  6
CONTINUOUS
 10
-0.600972
 20
-0.350067
  0
VERTEX
  8
PLAN_1
 62
     2
  6
CONTINUOUS
 10
-0.597528
 20
-0.352528
  0
VERTEX
  8
PLAN_1
 62
     2
  6
CONTINUOUS
 10
-0.595067
 20
-0.355976
  0
VERTEX
  8
PLAN_1
 62
     2
  6
CONTINUOUS
 10
-0.592606
 20
-0.359421
  0
VERTEX
  8
PLAN_1
 62
     2
  6
CONTINUOUS
 10
-0.591622
 20
-0.363850
  0
VERTEX
  8
PLAN_1
 62
     2
  6
CONTINUOUS
 10
-0.591130
 20
-0.368772
  0
VERTEX
  8
PLAN_1
 62
     2
  6
CONTINUOUS
 10
-0.591622
 20
-0.373201
  0
VERTEX
  8
PLAN_1
 62
     2
  6
CONTINUOUS
 10
-0.592606
 20
-0.377138
  0
VERTEX
  8
PLAN_1
 62
     2
  6
CONTINUOUS
 10
-0.594083
 20
-0.380587
  0
VERTEX
  8
PLAN_1
 62
     2
  6
CONTINUOUS
 10
-0.596543
 20
-0.383539
  0
VERTEX
  8
PLAN_1
 62
     2
  6
CONTINUOUS
 10
-0.599496
 20
-0.386492
  0
VERTEX
  8
PLAN_1
 62
     2
  6
CONTINUOUS
 10
-0.602941
 20
-0.388461
  0
VERTEX
  8
PLAN_1
 62
     2
  6
CONTINUOUS
 10
-0.606386
 20
-0.390921
  0
VERTEX
  8
PLAN_1
 62
     2
  6
CONTINUOUS
 10
-0.610323
 20
-0.392890
  0
VERTEX
  8
PLAN_1
 62
     2
  6
CONTINUOUS
 10
-0.618201
 20
-0.397319
  0
VERTEX
  8
PLAN_1
 62
     2
  6
CONTINUOUS
 10
-0.621646
 20
-0.399287
  0
VERTEX
  8
PLAN_1
 62
     2
  6
CONTINUOUS
 10
-0.624106
 20
-0.401256
  0
VERTEX
  8
PLAN_1
 62
     2
  6
CONTINUOUS
 10
-0.626567
 20
-0.403228
  0
VERTEX
  8
PLAN_1
 62
     2
  6
CONTINUOUS
 10
-0.628043
 20
-0.405197
  0
VERTEX
  8
PLAN_1
 62
     2
  6
CONTINUOUS
 10
-0.629028
 20
-0.407165
  0
VERTEX
  8
PLAN_1
 62
     2
  6
CONTINUOUS
 10
-0.630012
 20
-0.408642
  0
VERTEX
  8
PLAN_1
 62
     2
  6
CONTINUOUS
 10
-0.630504
 20
-0.410118
  0
VERTEX
  8
PLAN_1
 62
     2
  6
CONTINUOUS
 10
-0.630504
 20
-0.411102
  0
VERTEX
  8
PLAN_1
 62
     2
  6
CONTINUOUS
 10
-0.591130
 20
-0.411102
  0
VERTEX
  8
PLAN_1
 62
     2
  6
CONTINUOUS
 10
-0.591130
 20
-0.419961
  0
VERTEX
  8
PLAN_1
 62
     2
  6
CONTINUOUS
 10
-0.640843
 20
-0.419961
  0
VERTEX
  8
PLAN_1
 62
     2
  6
CONTINUOUS
 10
-0.640350
 20
-0.414547
  0
VERTEX
  8
PLAN_1
 62
     2
  6
CONTINUOUS
 10
-0.639366
 20
-0.409626
  0
VERTEX
  8
PLAN_1
 62
     2
  6
CONTINUOUS
 10
-0.637890
 20
-0.405689
  0
VERTEX
  8
PLAN_1
 62
     2
  6
CONTINUOUS
 10
-0.635917
 20
-0.401752
  0
VERTEX
  8
PLAN_1
 62
     2
  6
CONTINUOUS
 10
-0.633457
 20
-0.398795
  0
VERTEX
  8
PLAN_1
 62
     2
  6
CONTINUOUS
 10
-0.630504
 20
-0.395843
  0
VERTEX
  8
PLAN_1
 62
     2
  6
CONTINUOUS
 10
-0.627551
 20
-0.393382
  0
VERTEX
  8
PLAN_1
 62
     2
  6
CONTINUOUS
 10
-0.624106
 20
-0.390921
  0
VERTEX
  8
PLAN_1
 62
     2
  6
CONTINUOUS
 10
-0.614264
 20
-0.385508
  0
VERTEX
  8
PLAN_1
 62
     2
  6
CONTINUOUS
 10
-0.611307
 20
-0.383539
  0
VERTEX
  8
PLAN_1
 62
     2
  6
CONTINUOUS
 10
-0.608846
 20
-0.382063
  0
VERTEX
  8
PLAN_1
 62
     2
  6
CONTINUOUS
 10
-0.606386
 20
-0.380587
  0
VERTEX
  8
PLAN_1
 62
     2
  6
CONTINUOUS
 10
-0.604417
 20
-0.378618
  0
VERTEX
  8
PLAN_1
 62
     2
  6
CONTINUOUS
 10
-0.602941
 20
-0.376646
  0
VERTEX
  8
PLAN_1
 62
     2
  6
CONTINUOUS
 10
-0.601957
 20
-0.374185
  0
VERTEX
  8
PLAN_1
 62
     2
  6
CONTINUOUS
 10
-0.600972
 20
-0.371724
  0
VERTEX
  8
PLAN_1
 62
     2
  6
CONTINUOUS
 10
-0.600972
 20
-0.368280
  0
VERTEX
  8
PLAN_1
 62
     2
  6
CONTINUOUS
 10
-0.600972
 20
-0.365819
  0
VERTEX
  8
PLAN_1
 62
     2
  6
CONTINUOUS
 10
-0.601465
 20
-0.363850
  0
VERTEX
  8
PLAN_1
 62
     2
  6
CONTINUOUS
 10
-0.602449
 20
-0.361390
  0
VERTEX
  8
PLAN_1
 62
     2
  6
CONTINUOUS
 10
-0.603925
 20
-0.359421
  0
VERTEX
  8
PLAN_1
 62
     2
  6
CONTINUOUS
 10
-0.605894
 20
-0.357453
  0
VERTEX
  8
PLAN_1
 62
     2
  6
CONTINUOUS
 10
-0.608354
 20
-0.356469
  0
VERTEX
  8
PLAN_1
 62
     2
  6
CONTINUOUS
 10
-0.611307
 20
-0.355484
  0
VERTEX
  8
PLAN_1
 62
     2
  6
CONTINUOUS
 10
-0.615248
 20
-0.354988
  0
VERTEX
  8
PLAN_1
 62
     2
  6
CONTINUOUS
 10
-0.617709
 20
-0.354988
  0
VERTEX
  8
PLAN_1
 62
     2
  6
CONTINUOUS
 10
-0.619677
 20
-0.355484
  0
VERTEX
  8
PLAN_1
 62
     2
  6
CONTINUOUS
 10
-0.621646
 20
-0.356469
  0
VERTEX
  8
PLAN_1
 62
     2
  6
CONTINUOUS
 10
-0.623122
 20
-0.356961
  0
VERTEX
  8
PLAN_1
 62
     2
  6
CONTINUOUS
 10
-0.626075
 20
-0.359421
  0
VERTEX
  8
PLAN_1
 62
     2
  6
CONTINUOUS
 10
-0.627551
 20
-0.361882
  0
VERTEX
  8
PLAN_1
 62
     2
  6
CONTINUOUS
 10
-0.629028
 20
-0.365327
  0
VERTEX
  8
PLAN_1
 62
     2
  6
CONTINUOUS
 10
-0.629520
 20
-0.368280
  0
VERTEX
  8
PLAN_1
 62
     2
  6
CONTINUOUS
 10
-0.630012
 20
-0.370740
  0
VERTEX
  8
PLAN_1
 62
     2
  6
CONTINUOUS
 10
-0.630012
 20
-0.373201
  0
VERTEX
  8
PLAN_1
 62
     2
  6
CONTINUOUS
 10
-0.639366
 20
-0.373201
  0
SEQEND
  8
0
  0
POLYLINE
  8
PLAN_1
 62
     2
  6
CONTINUOUS
 66
     1
 40
0.003000
 41
0.003000
  0
VERTEX
  8
PLAN_1
 62
     2
  6
CONTINUOUS
 10
-0.576854
 20
-0.409134
  0
VERTEX
  8
PLAN_1
 62
     2
  6
CONTINUOUS
 10
-0.566024
 20
-0.409134
  0
VERTEX
  8
PLAN_1
 62
     2
  6
CONTINUOUS
 10
-0.566024
 20
-0.418976
  0
VERTEX
  8
PLAN_1
 62
     2
  6
CONTINUOUS
 10
-0.566516
 20
-0.423898
  0
VERTEX
  8
PLAN_1
 62
     2
  6
CONTINUOUS
 10
-0.567504
 20
-0.427346
  0
VERTEX
  8
PLAN_1
 62
     2
  6
CONTINUOUS
 10
-0.568980
 20
-0.430299
  0
VERTEX
  8
PLAN_1
 62
     2
  6
CONTINUOUS
 10
-0.570457
 20
-0.432268
  0
VERTEX
  8
PLAN_1
 62
     2
  6
CONTINUOUS
 10
-0.572425
 20
-0.433744
  0
VERTEX
  8
PLAN_1
 62
     2
  6
CONTINUOUS
 10
-0.574394
 20
-0.434728
  0
VERTEX
  8
PLAN_1
 62
     2
  6
CONTINUOUS
 10
-0.575870
 20
-0.435220
  0
VERTEX
  8
PLAN_1
 62
     2
  6
CONTINUOUS
 10
-0.576854
 20
-0.435220
  0
VERTEX
  8
PLAN_1
 62
     2
  6
CONTINUOUS
 10
-0.576854
 20
-0.430299
  0
VERTEX
  8
PLAN_1
 62
     2
  6
CONTINUOUS
 10
-0.575378
 20
-0.430299
  0
VERTEX
  8
PLAN_1
 62
     2
  6
CONTINUOUS
 10
-0.573902
 20
-0.429315
  0
VERTEX
  8
PLAN_1
 62
     2
  6
CONTINUOUS
 10
-0.572917
 20
-0.428331
  0
VERTEX
  8
PLAN_1
 62
     2
  6
CONTINUOUS
 10
-0.572425
 20
-0.426854
  0
VERTEX
  8
PLAN_1
 62
     2
  6
CONTINUOUS
 10
-0.571933
 20
-0.425378
  0
VERTEX
  8
PLAN_1
 62
     2
  6
CONTINUOUS
 10
-0.571441
 20
-0.423406
  0
VERTEX
  8
PLAN_1
 62
     2
  6
CONTINUOUS
 10
-0.571441
 20
-0.421929
  0
VERTEX
  8
PLAN_1
 62
     2
  6
CONTINUOUS
 10
-0.571441
 20
-0.419961
  0
VERTEX
  8
PLAN_1
 62
     2
  6
CONTINUOUS
 10
-0.576854
 20
-0.419961
  0
VERTEX
  8
PLAN_1
 62
     2
  6
CONTINUOUS
 10
-0.576854
 20
-0.409134
  0
SEQEND
  8
0
  0
POLYLINE
  8
PLAN_1
 62
     2
  6
CONTINUOUS
 66
     1
 40
0.003000
 41
0.003000
  0
VERTEX
  8
PLAN_1
 62
     2
  6
CONTINUOUS
 10
-0.541413
 20
-0.377630
  0
VERTEX
  8
PLAN_1
 62
     2
  6
CONTINUOUS
 10
-0.540429
 20
-0.376646
  0
VERTEX
  8
PLAN_1
 62
     2
  6
CONTINUOUS
 10
-0.538953
 20
-0.375661
  0
VERTEX
  8
PLAN_1
 62
     2
  6
CONTINUOUS
 10
-0.537476
 20
-0.374677
  0
VERTEX
  8
PLAN_1
 62
     2
  6
CONTINUOUS
 10
-0.536000
 20
-0.374185
  0
VERTEX
  8
PLAN_1
 62
     2
  6
CONTINUOUS
 10
-0.534031
 20
-0.373693
  0
VERTEX
  8
PLAN_1
 62
     2
  6
CONTINUOUS
 10
-0.532063
 20
-0.373201
  0
VERTEX
  8
PLAN_1
 62
     2
  6
CONTINUOUS
 10
-0.530094
 20
-0.372709
  0
VERTEX
  8
PLAN_1
 62
     2
  6
CONTINUOUS
 10
-0.527634
 20
-0.372709
  0
VERTEX
  8
PLAN_1
 62
     2
  6
CONTINUOUS
 10
-0.523205
 20
-0.373201
  0
VERTEX
  8
PLAN_1
 62
     2
  6
CONTINUOUS
 10
-0.518772
 20
-0.374185
  0
VERTEX
  8
PLAN_1
 62
     2
  6
CONTINUOUS
 10
-0.514835
 20
-0.376154
  0
VERTEX
  8
PLAN_1
 62
     2
  6
CONTINUOUS
 10
-0.510898
 20
-0.379110
  0
VERTEX
  8
PLAN_1
 62
     2
  6
CONTINUOUS
 10
-0.507945
 20
-0.382063
  0
VERTEX
  8
PLAN_1
 62
     2
  6
CONTINUOUS
 10
-0.505484
 20
-0.386000
  0
VERTEX
  8
PLAN_1
 62
     2
  6
CONTINUOUS
 10
-0.504500
 20
-0.388461
  0
VERTEX
  8
PLAN_1
 62
     2
  6
CONTINUOUS
 10
-0.504008
 20
-0.390921
  0
VERTEX
  8
PLAN_1
 62
     2
  6
CONTINUOUS
 10
-0.503516
 20
-0.393382
  0
VERTEX
  8
PLAN_1
 62
     2
  6
CONTINUOUS
 10
-0.503516
 20
-0.396335
  0
VERTEX
  8
PLAN_1
 62
     2
  6
CONTINUOUS
 10
-0.503516
 20
-0.399780
  0
VERTEX
  8
PLAN_1
 62
     2
  6
CONTINUOUS
 10
-0.504500
 20
-0.403720
  0
VERTEX
  8
PLAN_1
 62
     2
  6
CONTINUOUS
 10
-0.505976
 20
-0.408150
  0
VERTEX
  8
PLAN_1
 62
     2
  6
CONTINUOUS
 10
-0.507945
 20
-0.412087
  0
VERTEX
  8
PLAN_1
 62
     2
  6
CONTINUOUS
 10
-0.509913
 20
-0.414055
  0
VERTEX
  8
PLAN_1
 62
     2
  6
CONTINUOUS
 10
-0.511390
 20
-0.416024
  0
VERTEX
  8
PLAN_1
 62
     2
  6
CONTINUOUS
 10
-0.513850
 20
-0.417500
  0
VERTEX
  8
PLAN_1
 62
     2
  6
CONTINUOUS
 10
-0.516311
 20
-0.418976
  0
VERTEX
  8
PLAN_1
 62
     2
  6
CONTINUOUS
 10
-0.519264
 20
-0.420453
  0
VERTEX
  8
PLAN_1
 62
     2
  6
CONTINUOUS
 10
-0.522220
 20
-0.420945
  0
VERTEX
  8
PLAN_1
 62
     2
  6
CONTINUOUS
 10
-0.526157
 20
-0.421929
  0
VERTEX
  8
PLAN_1
 62
     2
  6
CONTINUOUS
 10
-0.530094
 20
-0.421929
  0
VERTEX
  8
PLAN_1
 62
     2
  6
CONTINUOUS
 10
-0.533539
 20
-0.421929
  0
VERTEX
  8
PLAN_1
 62
     2
  6
CONTINUOUS
 10
-0.537476
 20
-0.420945
  0
VERTEX
  8
PLAN_1
 62
     2
  6
CONTINUOUS
 10
-0.541413
 20
-0.419961
  0
VERTEX
  8
PLAN_1
 62
     2
  6
CONTINUOUS
 10
-0.544862
 20
-0.417992
  0
VERTEX
  8
PLAN_1
 62
     2
  6
CONTINUOUS
 10
-0.546339
 20
-0.416516
  0
VERTEX
  8
PLAN_1
 62
     2
  6
CONTINUOUS
 10
-0.547815
 20
-0.415531
  0
VERTEX
  8
PLAN_1
 62
     2
  6
CONTINUOUS
 10
-0.549291
 20
-0.413563
  0
VERTEX
  8
PLAN_1
 62
     2
  6
CONTINUOUS
 10
-0.550276
 20
-0.411594
  0
VERTEX
  8
PLAN_1
 62
     2
  6
CONTINUOUS
 10
-0.551752
 20
-0.409626
  0
VERTEX
  8
PLAN_1
 62
     2
  6
CONTINUOUS
 10
-0.552244
 20
-0.407165
  0
VERTEX
  8
PLAN_1
 62
     2
  6
CONTINUOUS
 10
-0.553228
 20
-0.404705
  0
VERTEX
  8
PLAN_1
 62
     2
  6
CONTINUOUS
 10
-0.553720
 20
-0.401752
  0
VERTEX
  8
PLAN_1
 62
     2
  6
CONTINUOUS
 10
-0.544370
 20
-0.401752
  0
VERTEX
  8
PLAN_1
 62
     2
  6
CONTINUOUS
 10
-0.543382
 20
-0.404705
  0
VERTEX
  8
PLAN_1
 62
     2
  6
CONTINUOUS
 10
-0.542398
 20
-0.407165
  0
VERTEX
  8
PLAN_1
 62
     2
  6
CONTINUOUS
 10
-0.540921
 20
-0.409134
  0
VERTEX
  8
PLAN_1
 62
     2
  6
CONTINUOUS
 10
-0.538953
 20
-0.411102
  0
VERTEX
  8
PLAN_1
 62
     2
  6
CONTINUOUS
 10
-0.536984
 20
-0.412579
  0
VERTEX
  8
PLAN_1
 62
     2
  6
CONTINUOUS
 10
-0.534524
 20
-0.413071
  0
VERTEX
  8
PLAN_1
 62
     2
  6
CONTINUOUS
 10
-0.531571
 20
-0.414055
  0
VERTEX
  8
PLAN_1
 62
     2
  6
CONTINUOUS
 10
-0.528618
 20
-0.414055
  0
VERTEX
  8
PLAN_1
 62
     2
  6
CONTINUOUS
 10
-0.525173
 20
-0.413563
  0
VERTEX
  8
PLAN_1
 62
     2
  6
CONTINUOUS
 10
-0.522220
 20
-0.412579
  0
VERTEX
  8
PLAN_1
 62
     2
  6
CONTINUOUS
 10
-0.519756
 20
-0.411102
  0
VERTEX
  8
PLAN_1
 62
     2
  6
CONTINUOUS
 10
-0.517295
 20
-0.409134
  0
VERTEX
  8
PLAN_1
 62
     2
  6
CONTINUOUS
 10
-0.515819
 20
-0.406673
  0
VERTEX
  8
PLAN_1
 62
     2
  6
CONTINUOUS
 10
-0.514343
 20
-0.403720
  0
VERTEX
  8
PLAN_1
 62
     2
  6
CONTINUOUS
 10
-0.513358
 20
-0.400764
  0
VERTEX
  8
PLAN_1
 62
     2
  6
CONTINUOUS
 10
-0.513358
 20
-0.397319
  0
VERTEX
  8
PLAN_1
 62
     2
  6
CONTINUOUS
 10
-0.513358
 20
-0.393382
  0
VERTEX
  8
PLAN_1
 62
     2
  6
CONTINUOUS
 10
-0.514343
 20
-0.390429
  0
VERTEX
  8
PLAN_1
 62
     2
  6
CONTINUOUS
 10
-0.515819
 20
-0.387476
  0
VERTEX
  8
PLAN_1
 62
     2
  6
CONTINUOUS
 10
-0.517787
 20
-0.385016
  0
VERTEX
  8
PLAN_1
 62
     2
  6
CONTINUOUS
 10
-0.520252
 20
-0.383539
  0
VERTEX
  8
PLAN_1
 62
     2
  6
CONTINUOUS
 10
-0.523205
 20
-0.382063
  0
VERTEX
  8
PLAN_1
 62
     2
  6
CONTINUOUS
 10
-0.526157
 20
-0.381079
  0
VERTEX
  8
PLAN_1
 62
     2
  6
CONTINUOUS
 10
-0.529602
 20
-0.381079
  0
VERTEX
  8
PLAN_1
 62
     2
  6
CONTINUOUS
 10
-0.531571
 20
-0.381079
  0
VERTEX
  8
PLAN_1
 62
     2
  6
CONTINUOUS
 10
-0.533539
 20
-0.381571
  0
VERTEX
  8
PLAN_1
 62
     2
  6
CONTINUOUS
 10
-0.535016
 20
-0.382063
  0
VERTEX
  8
PLAN_1
 62
     2
  6
CONTINUOUS
 10
-0.536984
 20
-0.383047
  0
VERTEX
  8
PLAN_1
 62
     2
  6
CONTINUOUS
 10
-0.538461
 20
-0.384031
  0
VERTEX
  8
PLAN_1
 62
     2
  6
CONTINUOUS
 10
-0.540429
 20
-0.385016
  0
VERTEX
  8
PLAN_1
 62
     2
  6
CONTINUOUS
 10
-0.541413
 20
-0.386492
  0
VERTEX
  8
PLAN_1
 62
     2
  6
CONTINUOUS
 10
-0.542890
 20
-0.387969
  0
VERTEX
  8
PLAN_1
 62
     2
  6
CONTINUOUS
 10
-0.550768
 20
-0.387476
  0
VERTEX
  8
PLAN_1
 62
     2
  6
CONTINUOUS
 10
-0.545354
 20
-0.348591
  0
VERTEX
  8
PLAN_1
 62
     2
  6
CONTINUOUS
 10
-0.507453
 20
-0.348591
  0
VERTEX
  8
PLAN_1
 62
     2
  6
CONTINUOUS
 10
-0.507453
 20
-0.357453
  0
VERTEX
  8
PLAN_1
 62
     2
  6
CONTINUOUS
 10
-0.538461
 20
-0.357453
  0
VERTEX
  8
PLAN_1
 62
     2
  6
CONTINUOUS
 10
-0.541413
 20
-0.377630
  0
SEQEND
  8
0
  0
POLYLINE
  8
PLAN_1
 62
     2
  6
CONTINUOUS
 66
     1
 40
0.003937
 41
0.003937
  0
VERTEX
  8
PLAN_1
 62
     2
  6
CONTINUOUS
 10
-1.610496
 20
-0.287067
  0
VERTEX
  8
PLAN_1
 62
     2
  6
CONTINUOUS
 10
0.384433
 20
-0.287067
  0
SEQEND
  8
0
  0
SOLID
  8
PLAN_1
 62
     2
 10
-0.005890
 20
-0.287067
 11
-0.064957
 21
-0.271315
 12
-0.005890
 22
-0.287067
 13
-0.064957
 23
-0.302815
  0
POLYLINE
  8
PLAN_1
 62
     2
  6
CONTINUOUS
 66
     1
 40
0.003000
 41
0.003000
  0
VERTEX
  8
PLAN_1
 62
     2
  6
CONTINUOUS
 10
-0.005890
 20
-0.287067
  0
VERTEX
  8
PLAN_1
 62
     2
  6
CONTINUOUS
 10
-0.064957
 20
-0.271315
  0
VERTEX
  8
PLAN_1
 62
     2
  6
CONTINUOUS
 10
-0.064957
 20
-0.302815
  0
VERTEX
  8
PLAN_1
 62
     2
  6
CONTINUOUS
 10
-0.005890
 20
-0.287067
  0
SEQEND
  8
0
  0
SOLID
  8
PLAN_1
 62
     2
 10
-1.417547
 20
-0.287067
 11
-1.476614
 21
-0.271315
 12
-1.417547
 22
-0.287067
 13
-1.476614
 23
-0.302815
  0
POLYLINE
  8
PLAN_1
 62
     2
  6
CONTINUOUS
 66
     1
 40
0.003000
 41
0.003000
  0
VERTEX
  8
PLAN_1
 62
     2
  6
CONTINUOUS
 10
-1.417547
 20
-0.287067
  0
VERTEX
  8
PLAN_1
 62
     2
  6
CONTINUOUS
 10
-1.476614
 20
-0.271315
  0
VERTEX
  8
PLAN_1
 62
     2
  6
CONTINUOUS
 10
-1.476614
 20
-0.302815
  0
VERTEX
  8
PLAN_1
 62
     2
  6
CONTINUOUS
 10
-1.417547
 20
-0.287067
  0
SEQEND
  8
0
  0
SOLID
  8
PLAN_1
 62
     2
 10
-1.188177
 20
-0.287067
 11
-1.129114
 21
-0.271315
 12
-1.188177
 22
-0.287067
 13
-1.129114
 23
-0.302815
  0
POLYLINE
  8
PLAN_1
 62
     2
  6
CONTINUOUS
 66
     1
 40
0.003000
 41
0.003000
  0
VERTEX
  8
PLAN_1
 62
     2
  6
CONTINUOUS
 10
-1.188177
 20
-0.287067
  0
VERTEX
  8
PLAN_1
 62
     2
  6
CONTINUOUS
 10
-1.129114
 20
-0.271315
  0
VERTEX
  8
PLAN_1
 62
     2
  6
CONTINUOUS
 10
-1.129114
 20
-0.302815
  0
VERTEX
  8
PLAN_1
 62
     2
  6
CONTINUOUS
 10
-1.188177
 20
-0.287067
  0
SEQEND
  8
0
  0
SOLID
  8
PLAN_1
 62
     2
 10
0.204283
 20
-0.287067
 11
0.263346
 21
-0.271315
 12
0.204283
 22
-0.287067
 13
0.263346
 23
-0.302815
  0
POLYLINE
  8
PLAN_1
 62
     2
  6
CONTINUOUS
 66
     1
 40
0.003000
 41
0.003000
  0
VERTEX
  8
PLAN_1
 62
     2
  6
CONTINUOUS
 10
0.204283
 20
-0.287067
  0
VERTEX
  8
PLAN_1
 62
     2
  6
CONTINUOUS
 10
0.263346
 20
-0.271315
  0
VERTEX
  8
PLAN_1
 62
     2
  6
CONTINUOUS
 10
0.263346
 20
-0.302815
  0
VERTEX
  8
PLAN_1
 62
     2
  6
CONTINUOUS
 10
0.204283
 20
-0.287067
  0
SEQEND
  8
0
  0
POLYLINE
  8
PLAN_1
 62
     2
  6
CONTINUOUS
 66
     1
 40
0.003000
 41
0.003000
  0
VERTEX
  8
PLAN_1
 62
     2
  6
CONTINUOUS
 10
-0.634933
 20
-0.221602
  0
VERTEX
  8
PLAN_1
 62
     2
  6
CONTINUOUS
 10
-0.634441
 20
-0.221602
  0
VERTEX
  8
PLAN_1
 62
     2
  6
CONTINUOUS
 10
-0.633949
 20
-0.222094
  0
VERTEX
  8
PLAN_1
 62
     2
  6
CONTINUOUS
 10
-0.632965
 20
-0.222094
  0
VERTEX
  8
PLAN_1
 62
     2
  6
CONTINUOUS
 10
-0.632472
 20
-0.222094
  0
VERTEX
  8
PLAN_1
 62
     2
  6
CONTINUOUS
 10
-0.631980
 20
-0.222094
  0
VERTEX
  8
PLAN_1
 62
     2
  6
CONTINUOUS
 10
-0.631488
 20
-0.222094
  0
VERTEX
  8
PLAN_1
 62
     2
  6
CONTINUOUS
 10
-0.630504
 20
-0.222094
  0
VERTEX
  8
PLAN_1
 62
     2
  6
CONTINUOUS
 10
-0.630012
 20
-0.222094
  0
VERTEX
  8
PLAN_1
 62
     2
  6
CONTINUOUS
 10
-0.627551
 20
-0.222094
  0
VERTEX
  8
PLAN_1
 62
     2
  6
CONTINUOUS
 10
-0.625091
 20
-0.221602
  0
VERTEX
  8
PLAN_1
 62
     2
  6
CONTINUOUS
 10
-0.622630
 20
-0.220618
  0
VERTEX
  8
PLAN_1
 62
     2
  6
CONTINUOUS
 10
-0.620661
 20
-0.219634
  0
VERTEX
  8
PLAN_1
 62
     2
  6
CONTINUOUS
 10
-0.618693
 20
-0.217665
  0
VERTEX
  8
PLAN_1
 62
     2
  6
CONTINUOUS
 10
-0.617217
 20
-0.215693
  0
VERTEX
  8
PLAN_1
 62
     2
  6
CONTINUOUS
 10
-0.616724
 20
-0.213232
  0
VERTEX
  8
PLAN_1
 62
     2
  6
CONTINUOUS
 10
-0.616232
 20
-0.210280
  0
VERTEX
  8
PLAN_1
 62
     2
  6
CONTINUOUS
 10
-0.616232
 20
-0.208311
  0
VERTEX
  8
PLAN_1
 62
     2
  6
CONTINUOUS
 10
-0.616724
 20
-0.206343
  0
VERTEX
  8
PLAN_1
 62
     2
  6
CONTINUOUS
 10
-0.617709
 20
-0.204374
  0
VERTEX
  8
PLAN_1
 62
     2
  6
CONTINUOUS
 10
-0.618693
 20
-0.202406
  0
VERTEX
  8
PLAN_1
 62
     2
  6
CONTINUOUS
 10
-0.620661
 20
-0.200929
  0
VERTEX
  8
PLAN_1
 62
     2
  6
CONTINUOUS
 10
-0.623122
 20
-0.199453
  0
VERTEX
  8
PLAN_1
 62
     2
  6
CONTINUOUS
 10
-0.626075
 20
-0.198961
  0
VERTEX
  8
PLAN_1
 62
     2
  6
CONTINUOUS
 10
-0.629520
 20
-0.198469
  0
VERTEX
  8
PLAN_1
 62
     2
  6
CONTINUOUS
 10
-0.631980
 20
-0.198469
  0
VERTEX
  8
PLAN_1
 62
     2
  6
CONTINUOUS
 10
-0.633949
 20
-0.198961
  0
VERTEX
  8
PLAN_1
 62
     2
  6
CONTINUOUS
 10
-0.635917
 20
-0.199453
  0
VERTEX
  8
PLAN_1
 62
     2
  6
CONTINUOUS
 10
-0.637398
 20
-0.200437
  0
VERTEX
  8
PLAN_1
 62
     2
  6
CONTINUOUS
 10
-0.639858
 20
-0.201913
  0
VERTEX
  8
PLAN_1
 62
     2
  6
CONTINUOUS
 10
-0.641335
 20
-0.204374
  0
VERTEX
  8
PLAN_1
 62
     2
  6
CONTINUOUS
 10
-0.642811
 20
-0.206835
  0
VERTEX
  8
PLAN_1
 62
     2
  6
CONTINUOUS
 10
-0.643303
 20
-0.209787
  0
VERTEX
  8
PLAN_1
 62
     2
  6
CONTINUOUS
 10
-0.643795
 20
-0.212248
  0
VERTEX
  8
PLAN_1
 62
     2
  6
CONTINUOUS
 10
-0.643795
 20
-0.214217
  0
VERTEX
  8
PLAN_1
 62
     2
  6
CONTINUOUS
 10
-0.653146
 20
-0.214217
  0
VERTEX
  8
PLAN_1
 62
     2
  6
CONTINUOUS
 10
-0.652654
 20
-0.210280
  0
VERTEX
  8
PLAN_1
 62
     2
  6
CONTINUOUS
 10
-0.652161
 20
-0.205850
  0
VERTEX
  8
PLAN_1
 62
     2
  6
CONTINUOUS
 10
-0.650685
 20
-0.201913
  0
VERTEX
  8
PLAN_1
 62
     2
  6
CONTINUOUS
 10
-0.648224
 20
-0.198469
  0
VERTEX
  8
PLAN_1
 62
     2
  6
CONTINUOUS
 10
-0.646748
 20
-0.196500
  0
VERTEX
  8
PLAN_1
 62
     2
  6
CONTINUOUS
 10
-0.645272
 20
-0.195024
  0
VERTEX
  8
PLAN_1
 62
     2
  6
CONTINUOUS
 10
-0.643303
 20
-0.193547
  0
VERTEX
  8
PLAN_1
 62
     2
  6
CONTINUOUS
 10
-0.641335
 20
-0.192559
  0
VERTEX
  8
PLAN_1
 62
     2
  6
CONTINUOUS
 10
-0.638874
 20
-0.191575
  0
VERTEX
  8
PLAN_1
 62
     2
  6
CONTINUOUS
 10
-0.635917
 20
-0.191083
  0
VERTEX
  8
PLAN_1
 62
     2
  6
CONTINUOUS
 10
-0.632965
 20
-0.190591
  0
VERTEX
  8
PLAN_1
 62
     2
  6
CONTINUOUS
 10
-0.629520
 20
-0.190098
  0
VERTEX
  8
PLAN_1
 62
     2
  6
CONTINUOUS
 10
-0.624106
 20
-0.190591
  0
VERTEX
  8
PLAN_1
 62
     2
  6
CONTINUOUS
 10
-0.619677
 20
-0.191575
  0
VERTEX
  8
PLAN_1
 62
     2
  6
CONTINUOUS
 10
-0.615740
 20
-0.193547
  0
VERTEX
  8
PLAN_1
 62
     2
  6
CONTINUOUS
 10
-0.612783
 20
-0.195516
  0
VERTEX
  8
PLAN_1
 62
     2
  6
CONTINUOUS
 10
-0.610323
 20
-0.198469
  0
VERTEX
  8
PLAN_1
 62
     2
  6
CONTINUOUS
 10
-0.608354
 20
-0.201913
  0
VERTEX
  8
PLAN_1
 62
     2
  6
CONTINUOUS
 10
-0.607370
 20
-0.205358
  0
VERTEX
  8
PLAN_1
 62
     2
  6
CONTINUOUS
 10
-0.606878
 20
-0.209295
  0
VERTEX
  8
PLAN_1
 62
     2
  6
CONTINUOUS
 10
-0.606878
 20
-0.212740
  0
VERTEX
  8
PLAN_1
 62
     2
  6
CONTINUOUS
 10
-0.607862
 20
-0.215693
  0
VERTEX
  8
PLAN_1
 62
     2
  6
CONTINUOUS
 10
-0.608846
 20
-0.218157
  0
VERTEX
  8
PLAN_1
 62
     2
  6
CONTINUOUS
 10
-0.609831
 20
-0.220126
  0
VERTEX
  8
PLAN_1
 62
     2
  6
CONTINUOUS
 10
-0.611307
 20
-0.221602
  0
VERTEX
  8
PLAN_1
 62
     2
  6
CONTINUOUS
 10
-0.612783
 20
-0.223079
  0
VERTEX
  8
PLAN_1
 62
     2
  6
CONTINUOUS
 10
-0.614756
 20
-0.224063
  0
VERTEX
  8
PLAN_1
 62
     2
  6
CONTINUOUS
 10
-0.616232
 20
-0.224555
  0
VERTEX
  8
PLAN_1
 62
     2
  6
CONTINUOUS
 10
-0.616232
 20
-0.225047
  0
VERTEX
  8
PLAN_1
 62
     2
  6
CONTINUOUS
 10
-0.613772
 20
-0.226031
  0
VERTEX
  8
PLAN_1
 62
     2
  6
CONTINUOUS
 10
-0.611307
 20
-0.227016
  0
VERTEX
  8
PLAN_1
 62
     2
  6
CONTINUOUS
 10
-0.609339
 20
-0.228492
  0
VERTEX
  8
PLAN_1
 62
     2
  6
CONTINUOUS
 10
-0.607370
 20
-0.230461
  0
VERTEX
  8
PLAN_1
 62
     2
  6
CONTINUOUS
 10
-0.605894
 20
-0.232921
  0
VERTEX
  8
PLAN_1
 62
     2
  6
CONTINUOUS
 10
-0.604909
 20
-0.235382
  0
VERTEX
  8
PLAN_1
 62
     2
  6
CONTINUOUS
 10
-0.603925
 20
-0.238335
  0
VERTEX
  8
PLAN_1
 62
     2
  6
CONTINUOUS
 10
-0.603925
 20
-0.241783
  0
VERTEX
  8
PLAN_1
 62
     2
  6
CONTINUOUS
 10
-0.604417
 20
-0.246213
  0
VERTEX
  8
PLAN_1
 62
     2
  6
CONTINUOUS
 10
-0.605402
 20
-0.250642
  0
VERTEX
  8
PLAN_1
 62
     2
  6
CONTINUOUS
 10
-0.607370
 20
-0.254579
  0
VERTEX
  8
PLAN_1
 62
     2
  6
CONTINUOUS
 10
-0.610323
 20
-0.258024
  0
VERTEX
  8
PLAN_1
 62
     2
  6
CONTINUOUS
 10
-0.611799
 20
-0.259500
  0
VERTEX
  8
PLAN_1
 62
     2
  6
CONTINUOUS
 10
-0.613772
 20
-0.260976
  0
VERTEX
  8
PLAN_1
 62
     2
  6
CONTINUOUS
 10
-0.615740
 20
-0.262453
  0
VERTEX
  8
PLAN_1
 62
     2
  6
CONTINUOUS
 10
-0.618201
 20
-0.263441
  0
VERTEX
  8
PLAN_1
 62
     2
  6
CONTINUOUS
 10
-0.621154
 20
-0.264425
  0
VERTEX
  8
PLAN_1
 62
     2
  6
CONTINUOUS
 10
-0.623614
 20
-0.264917
  0
VERTEX
  8
PLAN_1
 62
     2
  6
CONTINUOUS
 10
-0.627059
 20
-0.265409
  0
VERTEX
  8
PLAN_1
 62
     2
  6
CONTINUOUS
 10
-0.630012
 20
-0.265409
  0
VERTEX
  8
PLAN_1
 62
     2
  6
CONTINUOUS
 10
-0.632472
 20
-0.265409
  0
VERTEX
  8
PLAN_1
 62
     2
  6
CONTINUOUS
 10
-0.633949
 20
-0.264917
  0
VERTEX
  8
PLAN_1
 62
     2
  6
CONTINUOUS
 10
-0.635917
 20
-0.264917
  0
VERTEX
  8
PLAN_1
 62
     2
  6
CONTINUOUS
 10
-0.637890
 20
-0.264425
  0
VERTEX
  8
PLAN_1
 62
     2
  6
CONTINUOUS
 10
-0.639366
 20
-0.263933
  0
VERTEX
  8
PLAN_1
 62
     2
  6
CONTINUOUS
 10
-0.640843
 20
-0.263441
  0
VERTEX
  8
PLAN_1
 62
     2
  6
CONTINUOUS
 10
-0.642319
 20
-0.262949
  0
VERTEX
  8
PLAN_1
 62
     2
  6
CONTINUOUS
 10
-0.643795
 20
-0.261961
  0
VERTEX
  8
PLAN_1
 62
     2
  6
CONTINUOUS
 10
-0.646748
 20
-0.260484
  0
VERTEX
  8
PLAN_1
 62
     2
  6
CONTINUOUS
 10
-0.648717
 20
-0.258024
  0
VERTEX
  8
PLAN_1
 62
     2
  6
CONTINUOUS
 10
-0.650685
 20
-0.256055
  0
VERTEX
  8
PLAN_1
 62
     2
  6
CONTINUOUS
 10
-0.652161
 20
-0.253102
  0
VERTEX
  8
PLAN_1
 62
     2
  6
CONTINUOUS
 10
-0.653146
 20
-0.250150
  0
VERTEX
  8
PLAN_1
 62
     2
  6
CONTINUOUS
 10
-0.653638
 20
-0.247197
  0
VERTEX
  8
PLAN_1
 62
     2
  6
CONTINUOUS
 10
-0.654130
 20
-0.244244
  0
VERTEX
  8
PLAN_1
 62
     2
  6
CONTINUOUS
 10
-0.654622
 20
-0.240799
  0
VERTEX
  8
PLAN_1
 62
     2
  6
CONTINUOUS
 10
-0.645272
 20
-0.240799
  0
VERTEX
  8
PLAN_1
 62
     2
  6
CONTINUOUS
 10
-0.645272
 20
-0.243752
  0
VERTEX
  8
PLAN_1
 62
     2
  6
CONTINUOUS
 10
-0.644780
 20
-0.246705
  0
VERTEX
  8
PLAN_1
 62
     2
  6
CONTINUOUS
 10
-0.643795
 20
-0.249165
  0
VERTEX
  8
PLAN_1
 62
     2
  6
CONTINUOUS
 10
-0.642319
 20
-0.251626
  0
VERTEX
  8
PLAN_1
 62
     2
  6
CONTINUOUS
 10
-0.640350
 20
-0.254087
  0
VERTEX
  8
PLAN_1
 62
     2
  6
CONTINUOUS
 10
-0.637890
 20
-0.255563
  0
VERTEX
  8
PLAN_1
 62
     2
  6
CONTINUOUS
 10
-0.633949
 20
-0.256547
  0
VERTEX
  8
PLAN_1
 62
     2
  6
CONTINUOUS
 10
-0.629520
 20
-0.257039
  0
VERTEX
  8
PLAN_1
 62
     2
  6
CONTINUOUS
 10
-0.626075
 20
-0.257039
  0
VERTEX
  8
PLAN_1
 62
     2
  6
CONTINUOUS
 10
-0.623122
 20
-0.256055
  0
VERTEX
  8
PLAN_1
 62
     2
  6
CONTINUOUS
 10
-0.620661
 20
-0.255071
  0
VERTEX
  8
PLAN_1
 62
     2
  6
CONTINUOUS
 10
-0.618201
 20
-0.253102
  0
VERTEX
  8
PLAN_1
 62
     2
  6
CONTINUOUS
 10
-0.616232
 20
-0.251134
  0
VERTEX
  8
PLAN_1
 62
     2
  6
CONTINUOUS
 10
-0.614756
 20
-0.248673
  0
VERTEX
  8
PLAN_1
 62
     2
  6
CONTINUOUS
 10
-0.613772
 20
-0.246213
  0
VERTEX
  8
PLAN_1
 62
     2
  6
CONTINUOUS
 10
-0.613772
 20
-0.243260
  0
VERTEX
  8
PLAN_1
 62
     2
  6
CONTINUOUS
 10
-0.613772
 20
-0.240799
  0
VERTEX
  8
PLAN_1
 62
     2
  6
CONTINUOUS
 10
-0.614264
 20
-0.238827
  0
VERTEX
  8
PLAN_1
 62
     2
  6
CONTINUOUS
 10
-0.614756
 20
-0.237350
  0
VERTEX
  8
PLAN_1
 62
     2
  6
CONTINUOUS
 10
-0.615740
 20
-0.235874
  0
VERTEX
  8
PLAN_1
 62
     2
  6
CONTINUOUS
 10
-0.617709
 20
-0.233413
  0
VERTEX
  8
PLAN_1
 62
     2
  6
CONTINUOUS
 10
-0.619677
 20
-0.231937
  0
VERTEX
  8
PLAN_1
 62
     2
  6
CONTINUOUS
 10
-0.622630
 20
-0.230461
  0
VERTEX
  8
PLAN_1
 62
     2
  6
CONTINUOUS
 10
-0.625583
 20
-0.229969
  0
VERTEX
  8
PLAN_1
 62
     2
  6
CONTINUOUS
 10
-0.628043
 20
-0.229476
  0
VERTEX
  8
PLAN_1
 62
     2
  6
CONTINUOUS
 10
-0.630996
 20
-0.229476
  0
VERTEX
  8
PLAN_1
 62
     2
  6
CONTINUOUS
 10
-0.631488
 20
-0.229476
  0
VERTEX
  8
PLAN_1
 62
     2
  6
CONTINUOUS
 10
-0.631980
 20
-0.229476
  0
VERTEX
  8
PLAN_1
 62
     2
  6
CONTINUOUS
 10
-0.632472
 20
-0.229476
  0
VERTEX
  8
PLAN_1
 62
     2
  6
CONTINUOUS
 10
-0.632965
 20
-0.229476
  0
VERTEX
  8
PLAN_1
 62
     2
  6
CONTINUOUS
 10
-0.633457
 20
-0.229476
  0
VERTEX
  8
PLAN_1
 62
     2
  6
CONTINUOUS
 10
-0.633949
 20
-0.229476
  0
VERTEX
  8
PLAN_1
 62
     2
  6
CONTINUOUS
 10
-0.634441
 20
-0.229476
  0
VERTEX
  8
PLAN_1
 62
     2
  6
CONTINUOUS
 10
-0.634933
 20
-0.229476
  0
VERTEX
  8
PLAN_1
 62
     2
  6
CONTINUOUS
 10
-0.634933
 20
-0.221602
  0
SEQEND
  8
0
  0
POLYLINE
  8
PLAN_1
 62
     2
  6
CONTINUOUS
 66
     1
 40
0.003000
 41
0.003000
  0
VERTEX
  8
PLAN_1
 62
     2
  6
CONTINUOUS
 10
-0.571441
 20
-0.265409
  0
VERTEX
  8
PLAN_1
 62
     2
  6
CONTINUOUS
 10
-0.575378
 20
-0.264917
  0
VERTEX
  8
PLAN_1
 62
     2
  6
CONTINUOUS
 10
-0.578331
 20
-0.264425
  0
VERTEX
  8
PLAN_1
 62
     2
  6
CONTINUOUS
 10
-0.581776
 20
-0.263441
  0
VERTEX
  8
PLAN_1
 62
     2
  6
CONTINUOUS
 10
-0.584236
 20
-0.261469
  0
VERTEX
  8
PLAN_1
 62
     2
  6
CONTINUOUS
 10
-0.586697
 20
-0.259500
  0
VERTEX
  8
PLAN_1
 62
     2
  6
CONTINUOUS
 10
-0.588665
 20
-0.257531
  0
VERTEX
  8
PLAN_1
 62
     2
  6
CONTINUOUS
 10
-0.590146
 20
-0.255071
  0
VERTEX
  8
PLAN_1
 62
     2
  6
CONTINUOUS
 10
-0.591622
 20
-0.252118
  0
VERTEX
  8
PLAN_1
 62
     2
  6
CONTINUOUS
 10
-0.594083
 20
-0.246213
  0
VERTEX
  8
PLAN_1
 62
     2
  6
CONTINUOUS
 10
-0.595559
 20
-0.240307
  0
VERTEX
  8
PLAN_1
 62
     2
  6
CONTINUOUS
 10
-0.596051
 20
-0.233906
  0
VERTEX
  8
PLAN_1
 62
     2
  6
CONTINUOUS
 10
-0.596543
 20
-0.228000
  0
VERTEX
  8
PLAN_1
 62
     2
  6
CONTINUOUS
 10
-0.596051
 20
-0.222094
  0
VERTEX
  8
PLAN_1
 62
     2
  6
CONTINUOUS
 10
-0.595559
 20
-0.215693
  0
VERTEX
  8
PLAN_1
 62
     2
  6
CONTINUOUS
 10
-0.594083
 20
-0.209295
  0
VERTEX
  8
PLAN_1
 62
     2
  6
CONTINUOUS
 10
-0.591622
 20
-0.203390
  0
VERTEX
  8
PLAN_1
 62
     2
  6
CONTINUOUS
 10
-0.590146
 20
-0.200437
  0
VERTEX
  8
PLAN_1
 62
     2
  6
CONTINUOUS
 10
-0.588665
 20
-0.197976
  0
VERTEX
  8
PLAN_1
 62
     2
  6
CONTINUOUS
 10
-0.586697
 20
-0.196008
  0
VERTEX
  8
PLAN_1
 62
     2
  6
CONTINUOUS
 10
-0.584236
 20
-0.194039
  0
VERTEX
  8
PLAN_1
 62
     2
  6
CONTINUOUS
 10
-0.581776
 20
-0.192559
  0
VERTEX
  8
PLAN_1
 62
     2
  6
CONTINUOUS
 10
-0.578331
 20
-0.191083
  0
VERTEX
  8
PLAN_1
 62
     2
  6
CONTINUOUS
 10
-0.575378
 20
-0.190591
  0
VERTEX
  8
PLAN_1
 62
     2
  6
CONTINUOUS
 10
-0.571441
 20
-0.190098
  0
VERTEX
  8
PLAN_1
 62
     2
  6
CONTINUOUS
 10
-0.567504
 20
-0.190591
  0
VERTEX
  8
PLAN_1
 62
     2
  6
CONTINUOUS
 10
-0.564547
 20
-0.191083
  0
VERTEX
  8
PLAN_1
 62
     2
  6
CONTINUOUS
 10
-0.561102
 20
-0.192559
  0
VERTEX
  8
PLAN_1
 62
     2
  6
CONTINUOUS
 10
-0.558642
 20
-0.194039
  0
VERTEX
  8
PLAN_1
 62
     2
  6
CONTINUOUS
 10
-0.556181
 20
-0.196008
  0
VERTEX
  8
PLAN_1
 62
     2
  6
CONTINUOUS
 10
-0.554213
 20
-0.197976
  0
VERTEX
  8
PLAN_1
 62
     2
  6
CONTINUOUS
 10
-0.552736
 20
-0.200437
  0
VERTEX
  8
PLAN_1
 62
     2
  6
CONTINUOUS
 10
-0.551260
 20
-0.203390
  0
VERTEX
  8
PLAN_1
 62
     2
  6
CONTINUOUS
 10
-0.548799
 20
-0.209295
  0
VERTEX
  8
PLAN_1
 62
     2
  6
CONTINUOUS
 10
-0.547323
 20
-0.215693
  0
VERTEX
  8
PLAN_1
 62
     2
  6
CONTINUOUS
 10
-0.546339
 20
-0.222094
  0
VERTEX
  8
PLAN_1
 62
     2
  6
CONTINUOUS
 10
-0.546339
 20
-0.228000
  0
VERTEX
  8
PLAN_1
 62
     2
  6
CONTINUOUS
 10
-0.546339
 20
-0.233906
  0
VERTEX
  8
PLAN_1
 62
     2
  6
CONTINUOUS
 10
-0.547323
 20
-0.240307
  0
VERTEX
  8
PLAN_1
 62
     2
  6
CONTINUOUS
 10
-0.548799
 20
-0.246213
  0
VERTEX
  8
PLAN_1
 62
     2
  6
CONTINUOUS
 10
-0.551260
 20
-0.252118
  0
VERTEX
  8
PLAN_1
 62
     2
  6
CONTINUOUS
 10
-0.552736
 20
-0.255071
  0
VERTEX
  8
PLAN_1
 62
     2
  6
CONTINUOUS
 10
-0.554213
 20
-0.257531
  0
VERTEX
  8
PLAN_1
 62
     2
  6
CONTINUOUS
 10
-0.556181
 20
-0.259500
  0
VERTEX
  8
PLAN_1
 62
     2
  6
CONTINUOUS
 10
-0.558642
 20
-0.261469
  0
VERTEX
  8
PLAN_1
 62
     2
  6
CONTINUOUS
 10
-0.561102
 20
-0.263441
  0
VERTEX
  8
PLAN_1
 62
     2
  6
CONTINUOUS
 10
-0.564547
 20
-0.264425
  0
VERTEX
  8
PLAN_1
 62
     2
  6
CONTINUOUS
 10
-0.567504
 20
-0.264917
  0
VERTEX
  8
PLAN_1
 62
     2
  6
CONTINUOUS
 10
-0.571441
 20
-0.265409
  0
SEQEND
  8
0
  0
POLYLINE
  8
PLAN_1
 62
     2
  6
CONTINUOUS
 66
     1
 40
0.003000
 41
0.003000
  0
VERTEX
  8
PLAN_1
 62
     2
  6
CONTINUOUS
 10
-0.571441
 20
-0.198469
  0
VERTEX
  8
PLAN_1
 62
     2
  6
CONTINUOUS
 10
-0.573409
 20
-0.198469
  0
VERTEX
  8
PLAN_1
 62
     2
  6
CONTINUOUS
 10
-0.574886
 20
-0.198961
  0
VERTEX
  8
PLAN_1
 62
     2
  6
CONTINUOUS
 10
-0.576854
 20
-0.199453
  0
VERTEX
  8
PLAN_1
 62
     2
  6
CONTINUOUS
 10
-0.578331
 20
-0.200437
  0
VERTEX
  8
PLAN_1
 62
     2
  6
CONTINUOUS
 10
-0.580791
 20
-0.202898
  0
VERTEX
  8
PLAN_1
 62
     2
  6
CONTINUOUS
 10
-0.583252
 20
-0.206343
  0
VERTEX
  8
PLAN_1
 62
     2
  6
CONTINUOUS
 10
-0.584728
 20
-0.210280
  0
VERTEX
  8
PLAN_1
 62
     2
  6
CONTINUOUS
 10
-0.585713
 20
-0.215693
  0
VERTEX
  8
PLAN_1
 62
     2
  6
CONTINUOUS
 10
-0.586697
 20
-0.221110
  0
VERTEX
  8
PLAN_1
 62
     2
  6
CONTINUOUS
 10
-0.586697
 20
-0.228000
  0
VERTEX
  8
PLAN_1
 62
     2
  6
CONTINUOUS
 10
-0.586697
 20
-0.234398
  0
VERTEX
  8
PLAN_1
 62
     2
  6
CONTINUOUS
 10
-0.585713
 20
-0.240307
  0
VERTEX
  8
PLAN_1
 62
     2
  6
CONTINUOUS
 10
-0.584728
 20
-0.245228
  0
VERTEX
  8
PLAN_1
 62
     2
  6
CONTINUOUS
 10
-0.583252
 20
-0.249165
  0
VERTEX
  8
PLAN_1
 62
     2
  6
CONTINUOUS
 10
-0.580791
 20
-0.252610
  0
VERTEX
  8
PLAN_1
 62
     2
  6
CONTINUOUS
 10
-0.578331
 20
-0.255071
  0
VERTEX
  8
PLAN_1
 62
     2
  6
CONTINUOUS
 10
-0.576854
 20
-0.256055
  0
VERTEX
  8
PLAN_1
 62
     2
  6
CONTINUOUS
 10
-0.574886
 20
-0.256547
  0
VERTEX
  8
PLAN_1
 62
     2
  6
CONTINUOUS
 10
-0.573409
 20
-0.257039
  0
VERTEX
  8
PLAN_1
 62
     2
  6
CONTINUOUS
 10
-0.571441
 20
-0.257039
  0
VERTEX
  8
PLAN_1
 62
     2
  6
CONTINUOUS
 10
-0.569472
 20
-0.257039
  0
VERTEX
  8
PLAN_1
 62
     2
  6
CONTINUOUS
 10
-0.567996
 20
-0.256547
  0
VERTEX
  8
PLAN_1
 62
     2
  6
CONTINUOUS
 10
-0.566024
 20
-0.256055
  0
VERTEX
  8
PLAN_1
 62
     2
  6
CONTINUOUS
 10
-0.564547
 20
-0.255071
  0
VERTEX
  8
PLAN_1
 62
     2
  6
CONTINUOUS
 10
-0.562087
 20
-0.252610
  0
VERTEX
  8
PLAN_1
 62
     2
  6
CONTINUOUS
 10
-0.559626
 20
-0.249165
  0
VERTEX
  8
PLAN_1
 62
     2
  6
CONTINUOUS
 10
-0.558150
 20
-0.245228
  0
VERTEX
  8
PLAN_1
 62
     2
  6
CONTINUOUS
 10
-0.557165
 20
-0.240307
  0
VERTEX
  8
PLAN_1
 62
     2
  6
CONTINUOUS
 10
-0.556181
 20
-0.234398
  0
VERTEX
  8
PLAN_1
 62
     2
  6
CONTINUOUS
 10
-0.556181
 20
-0.228000
  0
VERTEX
  8
PLAN_1
 62
     2
  6
CONTINUOUS
 10
-0.556181
 20
-0.221110
  0
VERTEX
  8
PLAN_1
 62
     2
  6
CONTINUOUS
 10
-0.557165
 20
-0.215693
  0
VERTEX
  8
PLAN_1
 62
     2
  6
CONTINUOUS
 10
-0.558150
 20
-0.210280
  0
VERTEX
  8
PLAN_1
 62
     2
  6
CONTINUOUS
 10
-0.559626
 20
-0.206343
  0
VERTEX
  8
PLAN_1
 62
     2
  6
CONTINUOUS
 10
-0.562087
 20
-0.202898
  0
VERTEX
  8
PLAN_1
 62
     2
  6
CONTINUOUS
 10
-0.564547
 20
-0.200437
  0
VERTEX
  8
PLAN_1
 62
     2
  6
CONTINUOUS
 10
-0.566024
 20
-0.199453
  0
VERTEX
  8
PLAN_1
 62
     2
  6
CONTINUOUS
 10
-0.567996
 20
-0.198961
  0
VERTEX
  8
PLAN_1
 62
     2
  6
CONTINUOUS
 10
-0.569472
 20
-0.198469
  0
VERTEX
  8
PLAN_1
 62
     2
  6
CONTINUOUS
 10
-0.571441
 20
-0.198469
  0
SEQEND
  8
0
  0
SOLID
  8
PLAN_1
 62
     2
 10
0.355390
 20
-0.230461
 11
0.302724
 21
-0.230461
 12
0.355390
 22
-0.223079
 13
0.302724
 23
-0.223079
  0
POLYLINE
  8
PLAN_1
 62
     2
  6
CONTINUOUS
 66
     1
 40
0.003000
 41
0.003000
  0
VERTEX
  8
PLAN_1
 62
     2
  6
CONTINUOUS
 10
0.355390
 20
-0.230461
  0
VERTEX
  8
PLAN_1
 62
     2
  6
CONTINUOUS
 10
0.302724
 20
-0.230461
  0
VERTEX
  8
PLAN_1
 62
     2
  6
CONTINUOUS
 10
0.302724
 20
-0.223079
  0
VERTEX
  8
PLAN_1
 62
     2
  6
CONTINUOUS
 10
0.355390
 20
-0.223079
  0
VERTEX
  8
PLAN_1
 62
     2
  6
CONTINUOUS
 10
0.355390
 20
-0.230461
  0
SEQEND
  8
0
  0
SOLID
  8
PLAN_1
 62
     2
 10
0.355390
 20
-0.251626
 11
0.302724
 21
-0.251626
 12
0.355390
 22
-0.243752
 13
0.302724
 23
-0.243752
  0
POLYLINE
  8
PLAN_1
 62
     2
  6
CONTINUOUS
 66
     1
 40
0.003000
 41
0.003000
  0
VERTEX
  8
PLAN_1
 62
     2
  6
CONTINUOUS
 10
0.355390
 20
-0.251626
  0
VERTEX
  8
PLAN_1
 62
     2
  6
CONTINUOUS
 10
0.302724
 20
-0.251626
  0
VERTEX
  8
PLAN_1
 62
     2
  6
CONTINUOUS
 10
0.302724
 20
-0.243752
  0
VERTEX
  8
PLAN_1
 62
     2
  6
CONTINUOUS
 10
0.355390
 20
-0.243752
  0
VERTEX
  8
PLAN_1
 62
     2
  6
CONTINUOUS
 10
0.355390
 20
-0.251626
  0
SEQEND
  8
0
  0
SOLID
  8
PLAN_1
 62
     2
 10
-1.522390
 20
-0.230461
 11
-1.575055
 21
-0.230461
 12
-1.522390
 22
-0.223079
 13
-1.575055
 23
-0.223079
  0
POLYLINE
  8
PLAN_1
 62
     2
  6
CONTINUOUS
 66
     1
 40
0.003000
 41
0.003000
  0
VERTEX
  8
PLAN_1
 62
     2
  6
CONTINUOUS
 10
-1.522390
 20
-0.230461
  0
VERTEX
  8
PLAN_1
 62
     2
  6
CONTINUOUS
 10
-1.575055
 20
-0.230461
  0
VERTEX
  8
PLAN_1
 62
     2
  6
CONTINUOUS
 10
-1.575055
 20
-0.223079
  0
VERTEX
  8
PLAN_1
 62
     2
  6
CONTINUOUS
 10
-1.522390
 20
-0.223079
  0
VERTEX
  8
PLAN_1
 62
     2
  6
CONTINUOUS
 10
-1.522390
 20
-0.230461
  0
SEQEND
  8
0
  0
SOLID
  8
PLAN_1
 62
     2
 10
-1.522390
 20
-0.251626
 11
-1.575055
 21
-0.251626
 12
-1.522390
 22
-0.243752
 13
-1.575055
 23
-0.243752
  0
POLYLINE
  8
PLAN_1
 62
     2
  6
CONTINUOUS
 66
     1
 40
0.003000
 41
0.003000
  0
VERTEX
  8
PLAN_1
 62
     2
  6
CONTINUOUS
 10
-1.522390
 20
-0.251626
  0
VERTEX
  8
PLAN_1
 62
     2
  6
CONTINUOUS
 10
-1.575055
 20
-0.251626
  0
VERTEX
  8
PLAN_1
 62
     2
  6
CONTINUOUS
 10
-1.575055
 20
-0.243752
  0
VERTEX
  8
PLAN_1
 62
     2
  6
CONTINUOUS
 10
-1.522390
 20
-0.243752
  0
VERTEX
  8
PLAN_1
 62
     2
  6
CONTINUOUS
 10
-1.522390
 20
-0.251626
  0
SEQEND
  8
0
  0
POLYLINE
  8
PLAN_1
 62
     2
  6
CONTINUOUS
 66
     1
 40
0.003937
 41
0.003937
  0
VERTEX
  8
PLAN_1
 62
     2
  6
CONTINUOUS
 10
-1.417547
 20
-0.140386
  0
VERTEX
  8
PLAN_1
 62
     2
  6
CONTINUOUS
 10
-1.417547
 20
-0.467213
  0
SEQEND
  8
0
  0
POLYLINE
  8
PLAN_1
 62
     2
  6
CONTINUOUS
 66
     1
 40
0.003937
 41
0.003937
  0
VERTEX
  8
PLAN_1
 62
     2
  6
CONTINUOUS
 10
0.204283
 20
-0.139894
  0
VERTEX
  8
PLAN_1
 62
     2
  6
CONTINUOUS
 10
0.204283
 20
-0.467213
  0
SEQEND
  8
0
  0
POLYLINE
  8
PLAN_1
 62
     2
  6
CONTINUOUS
 66
     1
 40
0.003937
 41
0.003937
  0
VERTEX
  8
PLAN_1
 62
     2
  6
CONTINUOUS
 10
-1.188177
 20
-0.159091
  0
VERTEX
  8
PLAN_1
 62
     2
  6
CONTINUOUS
 10
-1.188177
 20
-0.315122
  0
SEQEND
  8
0
  0
POLYLINE
  8
PLAN_1
 62
     2
  6
CONTINUOUS
 66
     1
 40
0.003937
 41
0.003937
  0
VERTEX
  8
PLAN_1
 62
     2
  6
CONTINUOUS
 10
-0.005890
 20
-0.154661
  0
VERTEX
  8
PLAN_1
 62
     2
  6
CONTINUOUS
 10
-0.005890
 20
-0.311185
  0
SEQEND
  8
0
  0
POLYLINE
  8
PLAN_1
 62
     2
  6
CONTINUOUS
 66
     1
 40
0.003937
 41
0.003937
  0
VERTEX
  8
PLAN_1
 62
     2
  6
CONTINUOUS
 10
0.424791
 20
0.510807
  0
VERTEX
  8
PLAN_1
 62
     2
  6
CONTINUOUS
 10
0.227909
 20
0.510807
  0
SEQEND
  8
0
  0
POLYLINE
  8
PLAN_1
 62
     2
  6
CONTINUOUS
 66
     1
 40
0.003937
 41
0.003937
  0
VERTEX
  8
PLAN_1
 62
     2
  6
CONTINUOUS
 10
0.419870
 20
2.826654
  0
VERTEX
  8
PLAN_1
 62
     2
  6
CONTINUOUS
 10
0.229878
 20
2.826654
  0
SEQEND
  8
0
  0
POLYLINE
  8
PLAN_1
 62
     2
  6
CONTINUOUS
 66
     1
 40
0.003937
 41
0.003937
  0
VERTEX
  8
PLAN_1
 62
     2
  6
CONTINUOUS
 10
0.401165
 20
0.539846
  0
VERTEX
  8
PLAN_1
 62
     2
  6
CONTINUOUS
 10
0.401165
 20
2.797122
  0
SEQEND
  8
0
  0
SOLID
  8
PLAN_1
 62
     2
 10
0.401165
 20
2.826654
 11
0.385417
 21
2.767587
 12
0.401165
 22
2.826654
 13
0.416917
 23
2.767587
  0
POLYLINE
  8
PLAN_1
 62
     2
  6
CONTINUOUS
 66
     1
 40
0.003000
 41
0.003000
  0
VERTEX
  8
PLAN_1
 62
     2
  6
CONTINUOUS
 10
0.401165
 20
2.826654
  0
VERTEX
  8
PLAN_1
 62
     2
  6
CONTINUOUS
 10
0.385417
 20
2.767587
  0
VERTEX
  8
PLAN_1
 62
     2
  6
CONTINUOUS
 10
0.416917
 20
2.767587
  0
VERTEX
  8
PLAN_1
 62
     2
  6
CONTINUOUS
 10
0.401165
 20
2.826654
  0
SEQEND
  8
0
  0
SOLID
  8
PLAN_1
 62
     2
 10
0.401165
 20
0.510315
 11
0.385417
 21
0.569378
 12
0.401165
 22
0.510315
 13
0.416917
 23
0.569378
  0
POLYLINE
  8
PLAN_1
 62
     2
  6
CONTINUOUS
 66
     1
 40
0.003000
 41
0.003000
  0
VERTEX
  8
PLAN_1
 62
     2
  6
CONTINUOUS
 10
0.401165
 20
0.510315
  0
VERTEX
  8
PLAN_1
 62
     2
  6
CONTINUOUS
 10
0.385417
 20
0.569378
  0
VERTEX
  8
PLAN_1
 62
     2
  6
CONTINUOUS
 10
0.416917
 20
0.569378
  0
VERTEX
  8
PLAN_1
 62
     2
  6
CONTINUOUS
 10
0.401165
 20
0.510315
  0
SEQEND
  8
0
  0
POLYLINE
  8
PLAN_1
 62
     2
  6
CONTINUOUS
 66
     1
 40
0.003000
 41
0.003000
  0
VERTEX
  8
PLAN_1
 62
     2
  6
CONTINUOUS
 10
0.323890
 20
1.653717
  0
VERTEX
  8
PLAN_1
 62
     2
  6
CONTINUOUS
 10
0.321429
 20
1.653224
  0
VERTEX
  8
PLAN_1
 62
     2
  6
CONTINUOUS
 10
0.319461
 20
1.652240
  0
VERTEX
  8
PLAN_1
 62
     2
  6
CONTINUOUS
 10
0.317492
 20
1.651256
  0
VERTEX
  8
PLAN_1
 62
     2
  6
CONTINUOUS
 10
0.316016
 20
1.649780
  0
VERTEX
  8
PLAN_1
 62
     2
  6
CONTINUOUS
 10
0.314539
 20
1.648303
  0
VERTEX
  8
PLAN_1
 62
     2
  6
CONTINUOUS
 10
0.313551
 20
1.646335
  0
VERTEX
  8
PLAN_1
 62
     2
  6
CONTINUOUS
 10
0.313059
 20
1.643874
  0
VERTEX
  8
PLAN_1
 62
     2
  6
CONTINUOUS
 10
0.312567
 20
1.641413
  0
VERTEX
  8
PLAN_1
 62
     2
  6
CONTINUOUS
 10
0.313059
 20
1.638461
  0
VERTEX
  8
PLAN_1
 62
     2
  6
CONTINUOUS
 10
0.313551
 20
1.636488
  0
VERTEX
  8
PLAN_1
 62
     2
  6
CONTINUOUS
 10
0.314539
 20
1.634028
  0
VERTEX
  8
PLAN_1
 62
     2
  6
CONTINUOUS
 10
0.316016
 20
1.632551
  0
VERTEX
  8
PLAN_1
 62
     2
  6
CONTINUOUS
 10
0.317492
 20
1.630583
  0
VERTEX
  8
PLAN_1
 62
     2
  6
CONTINUOUS
 10
0.319461
 20
1.629598
  0
VERTEX
  8
PLAN_1
 62
     2
  6
CONTINUOUS
 10
0.321429
 20
1.628122
  0
VERTEX
  8
PLAN_1
 62
     2
  6
CONTINUOUS
 10
0.323398
 20
1.627138
  0
VERTEX
  8
PLAN_1
 62
     2
  6
CONTINUOUS
 10
0.327827
 20
1.625661
  0
VERTEX
  8
PLAN_1
 62
     2
  6
CONTINUOUS
 10
0.332256
 20
1.624677
  0
VERTEX
  8
PLAN_1
 62
     2
  6
CONTINUOUS
 10
0.336193
 20
1.624185
  0
VERTEX
  8
PLAN_1
 62
     2
  6
CONTINUOUS
 10
0.339642
 20
1.623693
  0
VERTEX
  8
PLAN_1
 62
     2
  6
CONTINUOUS
 10
0.340134
 20
1.624185
  0
VERTEX
  8
PLAN_1
 62
     2
  6
CONTINUOUS
 10
0.338657
 20
1.625169
  0
VERTEX
  8
PLAN_1
 62
     2
  6
CONTINUOUS
 10
0.336685
 20
1.626154
  0
VERTEX
  8
PLAN_1
 62
     2
  6
CONTINUOUS
 10
0.335209
 20
1.628122
  0
VERTEX
  8
PLAN_1
 62
     2
  6
CONTINUOUS
 10
0.334224
 20
1.629598
  0
VERTEX
  8
PLAN_1
 62
     2
  6
CONTINUOUS
 10
0.332748
 20
1.632059
  0
VERTEX
  8
PLAN_1
 62
     2
  6
CONTINUOUS
 10
0.331764
 20
1.635012
  0
VERTEX
  8
PLAN_1
 62
     2
  6
CONTINUOUS
 10
0.331272
 20
1.637969
  0
VERTEX
  8
PLAN_1
 62
     2
  6
CONTINUOUS
 10
0.331272
 20
1.641413
  0
VERTEX
  8
PLAN_1
 62
     2
  6
CONTINUOUS
 10
0.331272
 20
1.644858
  0
VERTEX
  8
PLAN_1
 62
     2
  6
CONTINUOUS
 10
0.332256
 20
1.648795
  0
VERTEX
  8
PLAN_1
 62
     2
  6
CONTINUOUS
 10
0.333732
 20
1.652732
  0
VERTEX
  8
PLAN_1
 62
     2
  6
CONTINUOUS
 10
0.336193
 20
1.656177
  0
VERTEX
  8
PLAN_1
 62
     2
  6
CONTINUOUS
 10
0.337673
 20
1.657654
  0
VERTEX
  8
PLAN_1
 62
     2
  6
CONTINUOUS
 10
0.339150
 20
1.659622
  0
VERTEX
  8
PLAN_1
 62
     2
  6
CONTINUOUS
 10
0.341118
 20
1.660610
  0
VERTEX
  8
PLAN_1
 62
     2
  6
CONTINUOUS
 10
0.343087
 20
1.662087
  0
VERTEX
  8
PLAN_1
 62
     2
  6
CONTINUOUS
 10
0.345547
 20
1.663071
  0
VERTEX
  8
PLAN_1
 62
     2
  6
CONTINUOUS
 10
0.348008
 20
1.663563
  0
VERTEX
  8
PLAN_1
 62
     2
  6
CONTINUOUS
 10
0.350961
 20
1.664055
  0
VERTEX
  8
PLAN_1
 62
     2
  6
CONTINUOUS
 10
0.354406
 20
1.664055
  0
VERTEX
  8
PLAN_1
 62
     2
  6
CONTINUOUS
 10
0.356866
 20
1.664055
  0
VERTEX
  8
PLAN_1
 62
     2
  6
CONTINUOUS
 10
0.359327
 20
1.664055
  0
VERTEX
  8
PLAN_1
 62
     2
  6
CONTINUOUS
 10
0.361791
 20
1.663563
  0
VERTEX
  8
PLAN_1
 62
     2
  6
CONTINUOUS
 10
0.364252
 20
1.662579
  0
VERTEX
  8
PLAN_1
 62
     2
  6
CONTINUOUS
 10
0.366220
 20
1.661594
  0
VERTEX
  8
PLAN_1
 62
     2
  6
CONTINUOUS
 10
0.368189
 20
1.660610
  0
VERTEX
  8
PLAN_1
 62
     2
  6
CONTINUOUS
 10
0.370650
 20
1.659130
  0
VERTEX
  8
PLAN_1
 62
     2
  6
CONTINUOUS
 10
0.372618
 20
1.657161
  0
VERTEX
  8
PLAN_1
 62
     2
  6
CONTINUOUS
 10
0.374094
 20
1.655685
  0
VERTEX
  8
PLAN_1
 62
     2
  6
CONTINUOUS
 10
0.375571
 20
1.654209
  0
VERTEX
  8
PLAN_1
 62
     2
  6
CONTINUOUS
 10
0.376555
 20
1.652240
  0
VERTEX
  8
PLAN_1
 62
     2
  6
CONTINUOUS
 10
0.377539
 20
1.650272
  0
VERTEX
  8
PLAN_1
 62
     2
  6
CONTINUOUS
 10
0.378524
 20
1.648303
  0
VERTEX
  8
PLAN_1
 62
     2
  6
CONTINUOUS
 10
0.379016
 20
1.645350
  0
VERTEX
  8
PLAN_1
 62
     2
  6
CONTINUOUS
 10
0.379508
 20
1.642398
  0
VERTEX
  8
PLAN_1
 62
     2
  6
CONTINUOUS
 10
0.379508
 20
1.638953
  0
VERTEX
  8
PLAN_1
 62
     2
  6
CONTINUOUS
 10
0.379508
 20
1.636488
  0
VERTEX
  8
PLAN_1
 62
     2
  6
CONTINUOUS
 10
0.379016
 20
1.634028
  0
VERTEX
  8
PLAN_1
 62
     2
  6
CONTINUOUS
 10
0.378524
 20
1.631567
  0
VERTEX
  8
PLAN_1
 62
     2
  6
CONTINUOUS
 10
0.377539
 20
1.629106
  0
VERTEX
  8
PLAN_1
 62
     2
  6
CONTINUOUS
 10
0.376063
 20
1.626646
  0
VERTEX
  8
PLAN_1
 62
     2
  6
CONTINUOUS
 10
0.374094
 20
1.624185
  0
VERTEX
  8
PLAN_1
 62
     2
  6
CONTINUOUS
 10
0.371634
 20
1.622217
  0
VERTEX
  8
PLAN_1
 62
     2
  6
CONTINUOUS
 10
0.369173
 20
1.619756
  0
VERTEX
  8
PLAN_1
 62
     2
  6
CONTINUOUS
 10
0.366220
 20
1.618280
  0
VERTEX
  8
PLAN_1
 62
     2
  6
CONTINUOUS
 10
0.363268
 20
1.617295
  0
VERTEX
  8
PLAN_1
 62
     2
  6
CONTINUOUS
 10
0.360315
 20
1.616311
  0
VERTEX
  8
PLAN_1
 62
     2
  6
CONTINUOUS
 10
0.357358
 20
1.615327
  0
VERTEX
  8
PLAN_1
 62
     2
  6
CONTINUOUS
 10
0.353913
 20
1.614835
  0
VERTEX
  8
PLAN_1
 62
     2
  6
CONTINUOUS
 10
0.350469
 20
1.614835
  0
VERTEX
  8
PLAN_1
 62
     2
  6
CONTINUOUS
 10
0.347024
 20
1.614343
  0
VERTEX
  8
PLAN_1
 62
     2
  6
CONTINUOUS
 10
0.343579
 20
1.614343
  0
VERTEX
  8
PLAN_1
 62
     2
  6
CONTINUOUS
 10
0.337181
 20
1.614835
  0
VERTEX
  8
PLAN_1
 62
     2
  6
CONTINUOUS
 10
0.330780
 20
1.615327
  0
VERTEX
  8
PLAN_1
 62
     2
  6
CONTINUOUS
 10
0.324382
 20
1.617295
  0
VERTEX
  8
PLAN_1
 62
     2
  6
CONTINUOUS
 10
0.317984
 20
1.619756
  0
VERTEX
  8
PLAN_1
 62
     2
  6
CONTINUOUS
 10
0.315031
 20
1.621232
  0
VERTEX
  8
PLAN_1
 62
     2
  6
CONTINUOUS
 10
0.312567
 20
1.623201
  0
VERTEX
  8
PLAN_1
 62
     2
  6
CONTINUOUS
 10
0.310106
 20
1.625661
  0
VERTEX
  8
PLAN_1
 62
     2
  6
CONTINUOUS
 10
0.308138
 20
1.628122
  0
VERTEX
  8
PLAN_1
 62
     2
  6
CONTINUOUS
 10
0.306661
 20
1.630583
  0
VERTEX
  8
PLAN_1
 62
     2
  6
CONTINUOUS
 10
0.305677
 20
1.634028
  0
VERTEX
  8
PLAN_1
 62
     2
  6
CONTINUOUS
 10
0.304693
 20
1.637476
  0
VERTEX
  8
PLAN_1
 62
     2
  6
CONTINUOUS
 10
0.304693
 20
1.641413
  0
VERTEX
  8
PLAN_1
 62
     2
  6
CONTINUOUS
 10
0.304693
 20
1.644858
  0
VERTEX
  8
PLAN_1
 62
     2
  6
CONTINUOUS
 10
0.305677
 20
1.648303
  0
VERTEX
  8
PLAN_1
 62
     2
  6
CONTINUOUS
 10
0.306661
 20
1.651748
  0
VERTEX
  8
PLAN_1
 62
     2
  6
CONTINUOUS
 10
0.308630
 20
1.654701
  0
VERTEX
  8
PLAN_1
 62
     2
  6
CONTINUOUS
 10
0.311091
 20
1.657654
  0
VERTEX
  8
PLAN_1
 62
     2
  6
CONTINUOUS
 10
0.314539
 20
1.660118
  0
VERTEX
  8
PLAN_1
 62
     2
  6
CONTINUOUS
 10
0.316508
 20
1.661102
  0
VERTEX
  8
PLAN_1
 62
     2
  6
CONTINUOUS
 10
0.318969
 20
1.662087
  0
VERTEX
  8
PLAN_1
 62
     2
  6
CONTINUOUS
 10
0.321429
 20
1.662579
  0
VERTEX
  8
PLAN_1
 62
     2
  6
CONTINUOUS
 10
0.323890
 20
1.662579
  0
VERTEX
  8
PLAN_1
 62
     2
  6
CONTINUOUS
 10
0.323890
 20
1.653717
  0
SEQEND
  8
0
  0
POLYLINE
  8
PLAN_1
 62
     2
  6
CONTINUOUS
 66
     1
 40
0.003000
 41
0.003000
  0
VERTEX
  8
PLAN_1
 62
     2
  6
CONTINUOUS
 10
0.371142
 20
1.640429
  0
VERTEX
  8
PLAN_1
 62
     2
  6
CONTINUOUS
 10
0.371142
 20
1.643382
  0
VERTEX
  8
PLAN_1
 62
     2
  6
CONTINUOUS
 10
0.370157
 20
1.646335
  0
VERTEX
  8
PLAN_1
 62
     2
  6
CONTINUOUS
 10
0.368681
 20
1.648795
  0
VERTEX
  8
PLAN_1
 62
     2
  6
CONTINUOUS
 10
0.366713
 20
1.650764
  0
VERTEX
  8
PLAN_1
 62
     2
  6
CONTINUOUS
 10
0.364252
 20
1.652732
  0
VERTEX
  8
PLAN_1
 62
     2
  6
CONTINUOUS
 10
0.361299
 20
1.653717
  0
VERTEX
  8
PLAN_1
 62
     2
  6
CONTINUOUS
 10
0.358343
 20
1.654701
  0
VERTEX
  8
PLAN_1
 62
     2
  6
CONTINUOUS
 10
0.354406
 20
1.654701
  0
VERTEX
  8
PLAN_1
 62
     2
  6
CONTINUOUS
 10
0.351945
 20
1.654701
  0
VERTEX
  8
PLAN_1
 62
     2
  6
CONTINUOUS
 10
0.349484
 20
1.654209
  0
VERTEX
  8
PLAN_1
 62
     2
  6
CONTINUOUS
 10
0.347024
 20
1.653224
  0
VERTEX
  8
PLAN_1
 62
     2
  6
CONTINUOUS
 10
0.344563
 20
1.651748
  0
VERTEX
  8
PLAN_1
 62
     2
  6
CONTINUOUS
 10
0.342594
 20
1.649780
  0
VERTEX
  8
PLAN_1
 62
     2
  6
CONTINUOUS
 10
0.340626
 20
1.647319
  0
VERTEX
  8
PLAN_1
 62
     2
  6
CONTINUOUS
 10
0.339642
 20
1.643874
  0
VERTEX
  8
PLAN_1
 62
     2
  6
CONTINUOUS
 10
0.339150
 20
1.639937
  0
VERTEX
  8
PLAN_1
 62
     2
  6
CONTINUOUS
 10
0.339642
 20
1.636488
  0
VERTEX
  8
PLAN_1
 62
     2
  6
CONTINUOUS
 10
0.340626
 20
1.633535
  0
VERTEX
  8
PLAN_1
 62
     2
  6
CONTINUOUS
 10
0.342102
 20
1.631075
  0
VERTEX
  8
PLAN_1
 62
     2
  6
CONTINUOUS
 10
0.344071
 20
1.628614
  0
VERTEX
  8
PLAN_1
 62
     2
  6
CONTINUOUS
 10
0.346531
 20
1.627138
  0
VERTEX
  8
PLAN_1
 62
     2
  6
CONTINUOUS
 10
0.348992
 20
1.626154
  0
VERTEX
  8
PLAN_1
 62
     2
  6
CONTINUOUS
 10
0.351945
 20
1.625169
  0
VERTEX
  8
PLAN_1
 62
     2
  6
CONTINUOUS
 10
0.355390
 20
1.625169
  0
VERTEX
  8
PLAN_1
 62
     2
  6
CONTINUOUS
 10
0.357850
 20
1.625169
  0
VERTEX
  8
PLAN_1
 62
     2
  6
CONTINUOUS
 10
0.360807
 20
1.626154
  0
VERTEX
  8
PLAN_1
 62
     2
  6
CONTINUOUS
 10
0.363760
 20
1.627138
  0
VERTEX
  8
PLAN_1
 62
     2
  6
CONTINUOUS
 10
0.366220
 20
1.628614
  0
VERTEX
  8
PLAN_1
 62
     2
  6
CONTINUOUS
 10
0.368189
 20
1.631075
  0
VERTEX
  8
PLAN_1
 62
     2
  6
CONTINUOUS
 10
0.370157
 20
1.633535
  0
VERTEX
  8
PLAN_1
 62
     2
  6
CONTINUOUS
 10
0.371142
 20
1.636488
  0
VERTEX
  8
PLAN_1
 62
     2
  6
CONTINUOUS
 10
0.371142
 20
1.640429
  0
SEQEND
  8
0
  0
POLYLINE
  8
PLAN_1
 62
     2
  6
CONTINUOUS
 66
     1
 40
0.003000
 41
0.003000
  0
VERTEX
  8
PLAN_1
 62
     2
  6
CONTINUOUS
 10
0.379508
 20
1.697031
  0
VERTEX
  8
PLAN_1
 62
     2
  6
CONTINUOUS
 10
0.379508
 20
1.693587
  0
VERTEX
  8
PLAN_1
 62
     2
  6
CONTINUOUS
 10
0.378524
 20
1.690142
  0
VERTEX
  8
PLAN_1
 62
     2
  6
CONTINUOUS
 10
0.377539
 20
1.687189
  0
VERTEX
  8
PLAN_1
 62
     2
  6
CONTINUOUS
 10
0.376063
 20
1.684236
  0
VERTEX
  8
PLAN_1
 62
     2
  6
CONTINUOUS
 10
0.374094
 20
1.682264
  0
VERTEX
  8
PLAN_1
 62
     2
  6
CONTINUOUS
 10
0.371634
 20
1.679803
  0
VERTEX
  8
PLAN_1
 62
     2
  6
CONTINUOUS
 10
0.369173
 20
1.678327
  0
VERTEX
  8
PLAN_1
 62
     2
  6
CONTINUOUS
 10
0.366713
 20
1.676850
  0
VERTEX
  8
PLAN_1
 62
     2
  6
CONTINUOUS
 10
0.360807
 20
1.674390
  0
VERTEX
  8
PLAN_1
 62
     2
  6
CONTINUOUS
 10
0.354406
 20
1.672913
  0
VERTEX
  8
PLAN_1
 62
     2
  6
CONTINUOUS
 10
0.348008
 20
1.672421
  0
VERTEX
  8
PLAN_1
 62
     2
  6
CONTINUOUS
 10
0.342102
 20
1.671929
  0
VERTEX
  8
PLAN_1
 62
     2
  6
CONTINUOUS
 10
0.336193
 20
1.672421
  0
VERTEX
  8
PLAN_1
 62
     2
  6
CONTINUOUS
 10
0.329795
 20
1.672913
  0
VERTEX
  8
PLAN_1
 62
     2
  6
CONTINUOUS
 10
0.323398
 20
1.674390
  0
VERTEX
  8
PLAN_1
 62
     2
  6
CONTINUOUS
 10
0.317492
 20
1.676850
  0
VERTEX
  8
PLAN_1
 62
     2
  6
CONTINUOUS
 10
0.315031
 20
1.678327
  0
VERTEX
  8
PLAN_1
 62
     2
  6
CONTINUOUS
 10
0.312567
 20
1.679803
  0
VERTEX
  8
PLAN_1
 62
     2
  6
CONTINUOUS
 10
0.310106
 20
1.682264
  0
VERTEX
  8
PLAN_1
 62
     2
  6
CONTINUOUS
 10
0.308138
 20
1.684236
  0
VERTEX
  8
PLAN_1
 62
     2
  6
CONTINUOUS
 10
0.306661
 20
1.687189
  0
VERTEX
  8
PLAN_1
 62
     2
  6
CONTINUOUS
 10
0.305677
 20
1.690142
  0
VERTEX
  8
PLAN_1
 62
     2
  6
CONTINUOUS
 10
0.304693
 20
1.693587
  0
VERTEX
  8
PLAN_1
 62
     2
  6
CONTINUOUS
 10
0.304693
 20
1.697031
  0
VERTEX
  8
PLAN_1
 62
     2
  6
CONTINUOUS
 10
0.304693
 20
1.700969
  0
VERTEX
  8
PLAN_1
 62
     2
  6
CONTINUOUS
 10
0.305677
 20
1.704413
  0
VERTEX
  8
PLAN_1
 62
     2
  6
CONTINUOUS
 10
0.306661
 20
1.707370
  0
VERTEX
  8
PLAN_1
 62
     2
  6
CONTINUOUS
 10
0.308138
 20
1.709831
  0
VERTEX
  8
PLAN_1
 62
     2
  6
CONTINUOUS
 10
0.310106
 20
1.712291
  0
VERTEX
  8
PLAN_1
 62
     2
  6
CONTINUOUS
 10
0.312567
 20
1.714260
  0
VERTEX
  8
PLAN_1
 62
     2
  6
CONTINUOUS
 10
0.315031
 20
1.716228
  0
VERTEX
  8
PLAN_1
 62
     2
  6
CONTINUOUS
 10
0.317492
 20
1.717705
  0
VERTEX
  8
PLAN_1
 62
     2
  6
CONTINUOUS
 10
0.323398
 20
1.719673
  0
VERTEX
  8
PLAN_1
 62
     2
  6
CONTINUOUS
 10
0.329795
 20
1.721150
  0
VERTEX
  8
PLAN_1
 62
     2
  6
CONTINUOUS
 10
0.336193
 20
1.722134
  0
VERTEX
  8
PLAN_1
 62
     2
  6
CONTINUOUS
 10
0.342102
 20
1.722134
  0
VERTEX
  8
PLAN_1
 62
     2
  6
CONTINUOUS
 10
0.348008
 20
1.722134
  0
VERTEX
  8
PLAN_1
 62
     2
  6
CONTINUOUS
 10
0.354406
 20
1.721150
  0
VERTEX
  8
PLAN_1
 62
     2
  6
CONTINUOUS
 10
0.360807
 20
1.719673
  0
VERTEX
  8
PLAN_1
 62
     2
  6
CONTINUOUS
 10
0.366713
 20
1.717705
  0
VERTEX
  8
PLAN_1
 62
     2
  6
CONTINUOUS
 10
0.369173
 20
1.716228
  0
VERTEX
  8
PLAN_1
 62
     2
  6
CONTINUOUS
 10
0.371634
 20
1.714260
  0
VERTEX
  8
PLAN_1
 62
     2
  6
CONTINUOUS
 10
0.374094
 20
1.712291
  0
VERTEX
  8
PLAN_1
 62
     2
  6
CONTINUOUS
 10
0.376063
 20
1.709831
  0
VERTEX
  8
PLAN_1
 62
     2
  6
CONTINUOUS
 10
0.377539
 20
1.707370
  0
VERTEX
  8
PLAN_1
 62
     2
  6
CONTINUOUS
 10
0.378524
 20
1.704413
  0
VERTEX
  8
PLAN_1
 62
     2
  6
CONTINUOUS
 10
0.379508
 20
1.700969
  0
VERTEX
  8
PLAN_1
 62
     2
  6
CONTINUOUS
 10
0.379508
 20
1.697031
  0
SEQEND
  8
0
  0
POLYLINE
  8
PLAN_1
 62
     2
  6
CONTINUOUS
 66
     1
 40
0.003000
 41
0.003000
  0
VERTEX
  8
PLAN_1
 62
     2
  6
CONTINUOUS
 10
0.312567
 20
1.697031
  0
VERTEX
  8
PLAN_1
 62
     2
  6
CONTINUOUS
 10
0.313059
 20
1.695063
  0
VERTEX
  8
PLAN_1
 62
     2
  6
CONTINUOUS
 10
0.313059
 20
1.693587
  0
VERTEX
  8
PLAN_1
 62
     2
  6
CONTINUOUS
 10
0.314047
 20
1.692110
  0
VERTEX
  8
PLAN_1
 62
     2
  6
CONTINUOUS
 10
0.314539
 20
1.690142
  0
VERTEX
  8
PLAN_1
 62
     2
  6
CONTINUOUS
 10
0.317000
 20
1.687681
  0
VERTEX
  8
PLAN_1
 62
     2
  6
CONTINUOUS
 10
0.320445
 20
1.685713
  0
VERTEX
  8
PLAN_1
 62
     2
  6
CONTINUOUS
 10
0.324874
 20
1.683744
  0
VERTEX
  8
PLAN_1
 62
     2
  6
CONTINUOUS
 10
0.329795
 20
1.682756
  0
VERTEX
  8
PLAN_1
 62
     2
  6
CONTINUOUS
 10
0.335701
 20
1.682264
  0
VERTEX
  8
PLAN_1
 62
     2
  6
CONTINUOUS
 10
0.342102
 20
1.681772
  0
VERTEX
  8
PLAN_1
 62
     2
  6
CONTINUOUS
 10
0.348500
 20
1.682264
  0
VERTEX
  8
PLAN_1
 62
     2
  6
CONTINUOUS
 10
0.354406
 20
1.682756
  0
VERTEX
  8
PLAN_1
 62
     2
  6
CONTINUOUS
 10
0.359327
 20
1.683744
  0
VERTEX
  8
PLAN_1
 62
     2
  6
CONTINUOUS
 10
0.363760
 20
1.685713
  0
VERTEX
  8
PLAN_1
 62
     2
  6
CONTINUOUS
 10
0.366713
 20
1.687681
  0
VERTEX
  8
PLAN_1
 62
     2
  6
CONTINUOUS
 10
0.369173
 20
1.690142
  0
VERTEX
  8
PLAN_1
 62
     2
  6
CONTINUOUS
 10
0.370157
 20
1.692110
  0
VERTEX
  8
PLAN_1
 62
     2
  6
CONTINUOUS
 10
0.370650
 20
1.693587
  0
VERTEX
  8
PLAN_1
 62
     2
  6
CONTINUOUS
 10
0.371142
 20
1.695063
  0
VERTEX
  8
PLAN_1
 62
     2
  6
CONTINUOUS
 10
0.371142
 20
1.697031
  0
VERTEX
  8
PLAN_1
 62
     2
  6
CONTINUOUS
 10
0.371142
 20
1.699000
  0
VERTEX
  8
PLAN_1
 62
     2
  6
CONTINUOUS
 10
0.370650
 20
1.700969
  0
VERTEX
  8
PLAN_1
 62
     2
  6
CONTINUOUS
 10
0.370157
 20
1.702445
  0
VERTEX
  8
PLAN_1
 62
     2
  6
CONTINUOUS
 10
0.369173
 20
1.703921
  0
VERTEX
  8
PLAN_1
 62
     2
  6
CONTINUOUS
 10
0.366713
 20
1.706878
  0
VERTEX
  8
PLAN_1
 62
     2
  6
CONTINUOUS
 10
0.363760
 20
1.708846
  0
VERTEX
  8
PLAN_1
 62
     2
  6
CONTINUOUS
 10
0.359327
 20
1.710323
  0
VERTEX
  8
PLAN_1
 62
     2
  6
CONTINUOUS
 10
0.354406
 20
1.711799
  0
VERTEX
  8
PLAN_1
 62
     2
  6
CONTINUOUS
 10
0.348500
 20
1.712291
  0
VERTEX
  8
PLAN_1
 62
     2
  6
CONTINUOUS
 10
0.342102
 20
1.712291
  0
VERTEX
  8
PLAN_1
 62
     2
  6
CONTINUOUS
 10
0.335701
 20
1.712291
  0
VERTEX
  8
PLAN_1
 62
     2
  6
CONTINUOUS
 10
0.329795
 20
1.711799
  0
VERTEX
  8
PLAN_1
 62
     2
  6
CONTINUOUS
 10
0.324874
 20
1.710323
  0
VERTEX
  8
PLAN_1
 62
     2
  6
CONTINUOUS
 10
0.320445
 20
1.708846
  0
VERTEX
  8
PLAN_1
 62
     2
  6
CONTINUOUS
 10
0.317000
 20
1.706878
  0
VERTEX
  8
PLAN_1
 62
     2
  6
CONTINUOUS
 10
0.314539
 20
1.703921
  0
VERTEX
  8
PLAN_1
 62
     2
  6
CONTINUOUS
 10
0.314047
 20
1.702445
  0
VERTEX
  8
PLAN_1
 62
     2
  6
CONTINUOUS
 10
0.313059
 20
1.700969
  0
VERTEX
  8
PLAN_1
 62
     2
  6
CONTINUOUS
 10
0.313059
 20
1.699000
  0
VERTEX
  8
PLAN_1
 62
     2
  6
CONTINUOUS
 10
0.312567
 20
1.697031
  0
SEQEND
  8
0
  0
POLYLINE
  8
PLAN_1
 62
     2
  6
CONTINUOUS
 66
     1
 40
0.003937
 41
0.003937
  0
VERTEX
  8
PLAN_1
 62
     2
  6
CONTINUOUS
 10
0.401165
 20
2.856185
  0
VERTEX
  8
PLAN_1
 62
     2
  6
CONTINUOUS
 10
0.401165
 20
3.503441
  0
SEQEND
  8
0
  0
SOLID
  8
PLAN_1
 62
     2
 10
0.401165
 20
3.532972
 11
0.385417
 21
3.473909
 12
0.401165
 22
3.532972
 13
0.416917
 23
3.473909
  0
POLYLINE
  8
PLAN_1
 62
     2
  6
CONTINUOUS
 66
     1
 40
0.003000
 41
0.003000
  0
VERTEX
  8
PLAN_1
 62
     2
  6
CONTINUOUS
 10
0.401165
 20
3.532972
  0
VERTEX
  8
PLAN_1
 62
     2
  6
CONTINUOUS
 10
0.385417
 20
3.473909
  0
VERTEX
  8
PLAN_1
 62
     2
  6
CONTINUOUS
 10
0.416917
 20
3.473909
  0
VERTEX
  8
PLAN_1
 62
     2
  6
CONTINUOUS
 10
0.401165
 20
3.532972
  0
SEQEND
  8
0
  0
SOLID
  8
PLAN_1
 62
     2
 10
0.401165
 20
2.826654
 11
0.385417
 21
2.885717
 12
0.401165
 22
2.826654
 13
0.416917
 23
2.885717
  0
POLYLINE
  8
PLAN_1
 62
     2
  6
CONTINUOUS
 66
     1
 40
0.003000
 41
0.003000
  0
VERTEX
  8
PLAN_1
 62
     2
  6
CONTINUOUS
 10
0.401165
 20
2.826654
  0
VERTEX
  8
PLAN_1
 62
     2
  6
CONTINUOUS
 10
0.385417
 20
2.885717
  0
VERTEX
  8
PLAN_1
 62
     2
  6
CONTINUOUS
 10
0.416917
 20
2.885717
  0
VERTEX
  8
PLAN_1
 62
     2
  6
CONTINUOUS
 10
0.401165
 20
2.826654
  0
SEQEND
  8
0
  0
POLYLINE
  8
PLAN_1
 62
     2
  6
CONTINUOUS
 66
     1
 40
0.003000
 41
0.003000
  0
VERTEX
  8
PLAN_1
 62
     2
  6
CONTINUOUS
 10
0.330780
 20
3.133791
  0
VERTEX
  8
PLAN_1
 62
     2
  6
CONTINUOUS
 10
0.326350
 20
3.133791
  0
VERTEX
  8
PLAN_1
 62
     2
  6
CONTINUOUS
 10
0.322906
 20
3.134776
  0
VERTEX
  8
PLAN_1
 62
     2
  6
CONTINUOUS
 10
0.319461
 20
3.135268
  0
VERTEX
  8
PLAN_1
 62
     2
  6
CONTINUOUS
 10
0.316508
 20
3.136744
  0
VERTEX
  8
PLAN_1
 62
     2
  6
CONTINUOUS
 10
0.314047
 20
3.138220
  0
VERTEX
  8
PLAN_1
 62
     2
  6
CONTINUOUS
 10
0.312075
 20
3.139697
  0
VERTEX
  8
PLAN_1
 62
     2
  6
CONTINUOUS
 10
0.310106
 20
3.141665
  0
VERTEX
  8
PLAN_1
 62
     2
  6
CONTINUOUS
 10
0.308630
 20
3.143638
  0
VERTEX
  8
PLAN_1
 62
     2
  6
CONTINUOUS
 10
0.306661
 20
3.147575
  0
VERTEX
  8
PLAN_1
 62
     2
  6
CONTINUOUS
 10
0.305185
 20
3.152004
  0
VERTEX
  8
PLAN_1
 62
     2
  6
CONTINUOUS
 10
0.304693
 20
3.155941
  0
VERTEX
  8
PLAN_1
 62
     2
  6
CONTINUOUS
 10
0.304693
 20
3.158894
  0
VERTEX
  8
PLAN_1
 62
     2
  6
CONTINUOUS
 10
0.304693
 20
3.163815
  0
VERTEX
  8
PLAN_1
 62
     2
  6
CONTINUOUS
 10
0.306169
 20
3.168248
  0
VERTEX
  8
PLAN_1
 62
     2
  6
CONTINUOUS
 10
0.307646
 20
3.171693
  0
VERTEX
  8
PLAN_1
 62
     2
  6
CONTINUOUS
 10
0.310106
 20
3.175138
  0
VERTEX
  8
PLAN_1
 62
     2
  6
CONTINUOUS
 10
0.313551
 20
3.178091
  0
VERTEX
  8
PLAN_1
 62
     2
  6
CONTINUOUS
 10
0.317000
 20
3.180059
  0
VERTEX
  8
PLAN_1
 62
     2
  6
CONTINUOUS
 10
0.321429
 20
3.181535
  0
VERTEX
  8
PLAN_1
 62
     2
  6
CONTINUOUS
 10
0.326350
 20
3.182028
  0
VERTEX
  8
PLAN_1
 62
     2
  6
CONTINUOUS
 10
0.330780
 20
3.181535
  0
VERTEX
  8
PLAN_1
 62
     2
  6
CONTINUOUS
 10
0.334717
 20
3.180551
  0
VERTEX
  8
PLAN_1
 62
     2
  6
CONTINUOUS
 10
0.338165
 20
3.178583
  0
VERTEX
  8
PLAN_1
 62
     2
  6
CONTINUOUS
 10
0.341118
 20
3.176122
  0
VERTEX
  8
PLAN_1
 62
     2
  6
CONTINUOUS
 10
0.344071
 20
3.173169
  0
VERTEX
  8
PLAN_1
 62
     2
  6
CONTINUOUS
 10
0.346531
 20
3.170217
  0
VERTEX
  8
PLAN_1
 62
     2
  6
CONTINUOUS
 10
0.348500
 20
3.166280
  0
VERTEX
  8
PLAN_1
 62
     2
  6
CONTINUOUS
 10
0.350961
 20
3.162339
  0
VERTEX
  8
PLAN_1
 62
     2
  6
CONTINUOUS
 10
0.354898
 20
3.154957
  0
VERTEX
  8
PLAN_1
 62
     2
  6
CONTINUOUS
 10
0.356866
 20
3.151512
  0
VERTEX
  8
PLAN_1
 62
     2
  6
CONTINUOUS
 10
0.358835
 20
3.148559
  0
VERTEX
  8
PLAN_1
 62
     2
  6
CONTINUOUS
 10
0.361299
 20
3.146591
  0
VERTEX
  8
PLAN_1
 62
     2
  6
CONTINUOUS
 10
0.362776
 20
3.145114
  0
VERTEX
  8
PLAN_1
 62
     2
  6
CONTINUOUS
 10
0.364744
 20
3.143638
  0
VERTEX
  8
PLAN_1
 62
     2
  6
CONTINUOUS
 10
0.366220
 20
3.143146
  0
VERTEX
  8
PLAN_1
 62
     2
  6
CONTINUOUS
 10
0.367697
 20
3.142650
  0
VERTEX
  8
PLAN_1
 62
     2
  6
CONTINUOUS
 10
0.369173
 20
3.142157
  0
VERTEX
  8
PLAN_1
 62
     2
  6
CONTINUOUS
 10
0.369173
 20
3.182028
  0
VERTEX
  8
PLAN_1
 62
     2
  6
CONTINUOUS
 10
0.377539
 20
3.182028
  0
VERTEX
  8
PLAN_1
 62
     2
  6
CONTINUOUS
 10
0.377539
 20
3.131823
  0
VERTEX
  8
PLAN_1
 62
     2
  6
CONTINUOUS
 10
0.372126
 20
3.132315
  0
VERTEX
  8
PLAN_1
 62
     2
  6
CONTINUOUS
 10
0.367697
 20
3.133299
  0
VERTEX
  8
PLAN_1
 62
     2
  6
CONTINUOUS
 10
0.363268
 20
3.134776
  0
VERTEX
  8
PLAN_1
 62
     2
  6
CONTINUOUS
 10
0.359327
 20
3.137236
  0
VERTEX
  8
PLAN_1
 62
     2
  6
CONTINUOUS
 10
0.356374
 20
3.139697
  0
VERTEX
  8
PLAN_1
 62
     2
  6
CONTINUOUS
 10
0.353421
 20
3.142157
  0
VERTEX
  8
PLAN_1
 62
     2
  6
CONTINUOUS
 10
0.350961
 20
3.145606
  0
VERTEX
  8
PLAN_1
 62
     2
  6
CONTINUOUS
 10
0.348500
 20
3.149051
  0
VERTEX
  8
PLAN_1
 62
     2
  6
CONTINUOUS
 10
0.343087
 20
3.158894
  0
VERTEX
  8
PLAN_1
 62
     2
  6
CONTINUOUS
 10
0.341118
 20
3.161354
  0
VERTEX
  8
PLAN_1
 62
     2
  6
CONTINUOUS
 10
0.339642
 20
3.164307
  0
VERTEX
  8
PLAN_1
 62
     2
  6
CONTINUOUS
 10
0.338165
 20
3.166280
  0
VERTEX
  8
PLAN_1
 62
     2
  6
CONTINUOUS
 10
0.336193
 20
3.168248
  0
VERTEX
  8
PLAN_1
 62
     2
  6
CONTINUOUS
 10
0.334224
 20
3.170217
  0
VERTEX
  8
PLAN_1
 62
     2
  6
CONTINUOUS
 10
0.331764
 20
3.171201
  0
VERTEX
  8
PLAN_1
 62
     2
  6
CONTINUOUS
 10
0.329303
 20
3.172185
  0
VERTEX
  8
PLAN_1
 62
     2
  6
CONTINUOUS
 10
0.325858
 20
3.172185
  0
VERTEX
  8
PLAN_1
 62
     2
  6
CONTINUOUS
 10
0.323890
 20
3.172185
  0
VERTEX
  8
PLAN_1
 62
     2
  6
CONTINUOUS
 10
0.321429
 20
3.171201
  0
VERTEX
  8
PLAN_1
 62
     2
  6
CONTINUOUS
 10
0.318969
 20
3.170217
  0
VERTEX
  8
PLAN_1
 62
     2
  6
CONTINUOUS
 10
0.317000
 20
3.168740
  0
VERTEX
  8
PLAN_1
 62
     2
  6
CONTINUOUS
 10
0.315524
 20
3.167264
  0
VERTEX
  8
PLAN_1
 62
     2
  6
CONTINUOUS
 10
0.314047
 20
3.164307
  0
VERTEX
  8
PLAN_1
 62
     2
  6
CONTINUOUS
 10
0.313059
 20
3.161354
  0
VERTEX
  8
PLAN_1
 62
     2
  6
CONTINUOUS
 10
0.312567
 20
3.157909
  0
VERTEX
  8
PLAN_1
 62
     2
  6
CONTINUOUS
 10
0.313059
 20
3.155449
  0
VERTEX
  8
PLAN_1
 62
     2
  6
CONTINUOUS
 10
0.313059
 20
3.152988
  0
VERTEX
  8
PLAN_1
 62
     2
  6
CONTINUOUS
 10
0.314047
 20
3.151020
  0
VERTEX
  8
PLAN_1
 62
     2
  6
CONTINUOUS
 10
0.315031
 20
3.149543
  0
VERTEX
  8
PLAN_1
 62
     2
  6
CONTINUOUS
 10
0.317000
 20
3.147083
  0
VERTEX
  8
PLAN_1
 62
     2
  6
CONTINUOUS
 10
0.319953
 20
3.145114
  0
VERTEX
  8
PLAN_1
 62
     2
  6
CONTINUOUS
 10
0.322906
 20
3.144130
  0
VERTEX
  8
PLAN_1
 62
     2
  6
CONTINUOUS
 10
0.325858
 20
3.143638
  0
VERTEX
  8
PLAN_1
 62
     2
  6
CONTINUOUS
 10
0.328319
 20
3.143146
  0
VERTEX
  8
PLAN_1
 62
     2
  6
CONTINUOUS
 10
0.330780
 20
3.143146
  0
VERTEX
  8
PLAN_1
 62
     2
  6
CONTINUOUS
 10
0.330780
 20
3.133791
  0
SEQEND
  8
0
  0
POLYLINE
  8
PLAN_1
 62
     2
  6
CONTINUOUS
 66
     1
 40
0.003000
 41
0.003000
  0
VERTEX
  8
PLAN_1
 62
     2
  6
CONTINUOUS
 10
0.330780
 20
3.191874
  0
VERTEX
  8
PLAN_1
 62
     2
  6
CONTINUOUS
 10
0.326350
 20
3.191874
  0
VERTEX
  8
PLAN_1
 62
     2
  6
CONTINUOUS
 10
0.322906
 20
3.192366
  0
VERTEX
  8
PLAN_1
 62
     2
  6
CONTINUOUS
 10
0.319461
 20
3.193350
  0
VERTEX
  8
PLAN_1
 62
     2
  6
CONTINUOUS
 10
0.316508
 20
3.194335
  0
VERTEX
  8
PLAN_1
 62
     2
  6
CONTINUOUS
 10
0.314047
 20
3.195811
  0
VERTEX
  8
PLAN_1
 62
     2
  6
CONTINUOUS
 10
0.312075
 20
3.197780
  0
VERTEX
  8
PLAN_1
 62
     2
  6
CONTINUOUS
 10
0.310106
 20
3.199256
  0
VERTEX
  8
PLAN_1
 62
     2
  6
CONTINUOUS
 10
0.308630
 20
3.201224
  0
VERTEX
  8
PLAN_1
 62
     2
  6
CONTINUOUS
 10
0.306661
 20
3.205654
  0
VERTEX
  8
PLAN_1
 62
     2
  6
CONTINUOUS
 10
0.305185
 20
3.209591
  0
VERTEX
  8
PLAN_1
 62
     2
  6
CONTINUOUS
 10
0.304693
 20
3.213531
  0
VERTEX
  8
PLAN_1
 62
     2
  6
CONTINUOUS
 10
0.304693
 20
3.216976
  0
VERTEX
  8
PLAN_1
 62
     2
  6
CONTINUOUS
 10
0.304693
 20
3.221406
  0
VERTEX
  8
PLAN_1
 62
     2
  6
CONTINUOUS
 10
0.306169
 20
3.225835
  0
VERTEX
  8
PLAN_1
 62
     2
  6
CONTINUOUS
 10
0.307646
 20
3.229772
  0
VERTEX
  8
PLAN_1
 62
     2
  6
CONTINUOUS
 10
0.310106
 20
3.233217
  0
VERTEX
  8
PLAN_1
 62
     2
  6
CONTINUOUS
 10
0.313551
 20
3.236173
  0
VERTEX
  8
PLAN_1
 62
     2
  6
CONTINUOUS
 10
0.317000
 20
3.238142
  0
VERTEX
  8
PLAN_1
 62
     2
  6
CONTINUOUS
 10
0.321429
 20
3.239618
  0
VERTEX
  8
PLAN_1
 62
     2
  6
CONTINUOUS
 10
0.326350
 20
3.240110
  0
VERTEX
  8
PLAN_1
 62
     2
  6
CONTINUOUS
 10
0.330780
 20
3.239618
  0
VERTEX
  8
PLAN_1
 62
     2
  6
CONTINUOUS
 10
0.334717
 20
3.238142
  0
VERTEX
  8
PLAN_1
 62
     2
  6
CONTINUOUS
 10
0.338165
 20
3.236665
  0
VERTEX
  8
PLAN_1
 62
     2
  6
CONTINUOUS
 10
0.341118
 20
3.234201
  0
VERTEX
  8
PLAN_1
 62
     2
  6
CONTINUOUS
 10
0.344071
 20
3.231248
  0
VERTEX
  8
PLAN_1
 62
     2
  6
CONTINUOUS
 10
0.346531
 20
3.227803
  0
VERTEX
  8
PLAN_1
 62
     2
  6
CONTINUOUS
 10
0.348500
 20
3.224358
  0
VERTEX
  8
PLAN_1
 62
     2
  6
CONTINUOUS
 10
0.350961
 20
3.220421
  0
VERTEX
  8
PLAN_1
 62
     2
  6
CONTINUOUS
 10
0.354898
 20
3.212547
  0
VERTEX
  8
PLAN_1
 62
     2
  6
CONTINUOUS
 10
0.356866
 20
3.209098
  0
VERTEX
  8
PLAN_1
 62
     2
  6
CONTINUOUS
 10
0.358835
 20
3.206638
  0
VERTEX
  8
PLAN_1
 62
     2
  6
CONTINUOUS
 10
0.361299
 20
3.204669
  0
VERTEX
  8
PLAN_1
 62
     2
  6
CONTINUOUS
 10
0.362776
 20
3.202701
  0
VERTEX
  8
PLAN_1
 62
     2
  6
CONTINUOUS
 10
0.364744
 20
3.201717
  0
VERTEX
  8
PLAN_1
 62
     2
  6
CONTINUOUS
 10
0.366220
 20
3.200732
  0
VERTEX
  8
PLAN_1
 62
     2
  6
CONTINUOUS
 10
0.367697
 20
3.200240
  0
VERTEX
  8
PLAN_1
 62
     2
  6
CONTINUOUS
 10
0.369173
 20
3.200240
  0
VERTEX
  8
PLAN_1
 62
     2
  6
CONTINUOUS
 10
0.369173
 20
3.240110
  0
VERTEX
  8
PLAN_1
 62
     2
  6
CONTINUOUS
 10
0.377539
 20
3.240110
  0
VERTEX
  8
PLAN_1
 62
     2
  6
CONTINUOUS
 10
0.377539
 20
3.189906
  0
VERTEX
  8
PLAN_1
 62
     2
  6
CONTINUOUS
 10
0.372126
 20
3.190398
  0
VERTEX
  8
PLAN_1
 62
     2
  6
CONTINUOUS
 10
0.367697
 20
3.191382
  0
VERTEX
  8
PLAN_1
 62
     2
  6
CONTINUOUS
 10
0.363268
 20
3.192858
  0
VERTEX
  8
PLAN_1
 62
     2
  6
CONTINUOUS
 10
0.359327
 20
3.194827
  0
VERTEX
  8
PLAN_1
 62
     2
  6
CONTINUOUS
 10
0.356374
 20
3.197287
  0
VERTEX
  8
PLAN_1
 62
     2
  6
CONTINUOUS
 10
0.353421
 20
3.200240
  0
VERTEX
  8
PLAN_1
 62
     2
  6
CONTINUOUS
 10
0.350961
 20
3.203685
  0
VERTEX
  8
PLAN_1
 62
     2
  6
CONTINUOUS
 10
0.348500
 20
3.207130
  0
VERTEX
  8
PLAN_1
 62
     2
  6
CONTINUOUS
 10
0.343087
 20
3.216484
  0
VERTEX
  8
PLAN_1
 62
     2
  6
CONTINUOUS
 10
0.341118
 20
3.219437
  0
VERTEX
  8
PLAN_1
 62
     2
  6
CONTINUOUS
 10
0.339642
 20
3.221898
  0
VERTEX
  8
PLAN_1
 62
     2
  6
CONTINUOUS
 10
0.338165
 20
3.224358
  0
VERTEX
  8
PLAN_1
 62
     2
  6
CONTINUOUS
 10
0.336193
 20
3.226327
  0
VERTEX
  8
PLAN_1
 62
     2
  6
CONTINUOUS
 10
0.334224
 20
3.227803
  0
VERTEX
  8
PLAN_1
 62
     2
  6
CONTINUOUS
 10
0.331764
 20
3.229280
  0
VERTEX
  8
PLAN_1
 62
     2
  6
CONTINUOUS
 10
0.329303
 20
3.229772
  0
VERTEX
  8
PLAN_1
 62
     2
  6
CONTINUOUS
 10
0.325858
 20
3.230264
  0
VERTEX
  8
PLAN_1
 62
     2
  6
CONTINUOUS
 10
0.323890
 20
3.229772
  0
VERTEX
  8
PLAN_1
 62
     2
  6
CONTINUOUS
 10
0.321429
 20
3.229280
  0
VERTEX
  8
PLAN_1
 62
     2
  6
CONTINUOUS
 10
0.318969
 20
3.228295
  0
VERTEX
  8
PLAN_1
 62
     2
  6
CONTINUOUS
 10
0.317000
 20
3.226819
  0
VERTEX
  8
PLAN_1
 62
     2
  6
CONTINUOUS
 10
0.315524
 20
3.224850
  0
VERTEX
  8
PLAN_1
 62
     2
  6
CONTINUOUS
 10
0.314047
 20
3.222390
  0
VERTEX
  8
PLAN_1
 62
     2
  6
CONTINUOUS
 10
0.313059
 20
3.219437
  0
VERTEX
  8
PLAN_1
 62
     2
  6
CONTINUOUS
 10
0.312567
 20
3.215500
  0
VERTEX
  8
PLAN_1
 62
     2
  6
CONTINUOUS
 10
0.313059
 20
3.213039
  0
VERTEX
  8
PLAN_1
 62
     2
  6
CONTINUOUS
 10
0.313059
 20
3.211067
  0
VERTEX
  8
PLAN_1
 62
     2
  6
CONTINUOUS
 10
0.314047
 20
3.209098
  0
VERTEX
  8
PLAN_1
 62
     2
  6
CONTINUOUS
 10
0.315031
 20
3.207622
  0
VERTEX
  8
PLAN_1
 62
     2
  6
CONTINUOUS
 10
0.317000
 20
3.205161
  0
VERTEX
  8
PLAN_1
 62
     2
  6
CONTINUOUS
 10
0.319953
 20
3.203193
  0
VERTEX
  8
PLAN_1
 62
     2
  6
CONTINUOUS
 10
0.322906
 20
3.202209
  0
VERTEX
  8
PLAN_1
 62
     2
  6
CONTINUOUS
 10
0.325858
 20
3.201224
  0
VERTEX
  8
PLAN_1
 62
     2
  6
CONTINUOUS
 10
0.328319
 20
3.201224
  0
VERTEX
  8
PLAN_1
 62
     2
  6
CONTINUOUS
 10
0.330780
 20
3.200732
  0
VERTEX
  8
PLAN_1
 62
     2
  6
CONTINUOUS
 10
0.330780
 20
3.191874
  0
SEQEND
  8
0
  0
POLYLINE
  8
PLAN_1
 62
     2
  6
CONTINUOUS
 66
     1
 40
0.003937
 41
0.003937
  0
VERTEX
  8
PLAN_1
 62
     2
  6
CONTINUOUS
 10
0.424791
 20
3.532972
  0
VERTEX
  8
PLAN_1
 62
     2
  6
CONTINUOUS
 10
-0.048713
 20
3.532972
  0
SEQEND
  8
0
  0
POLYLINE
  8
PLAN_1
 62
     2
  6
CONTINUOUS
 66
     1
 40
0.003937
 41
0.003937
  0
VERTEX
  8
PLAN_1
 62
     2
  6
CONTINUOUS
 10
0.401165
 20
3.562508
  0
VERTEX
  8
PLAN_1
 62
     2
  6
CONTINUOUS
 10
0.401165
 20
3.908531
  0
SEQEND
  8
0
  0
SOLID
  8
PLAN_1
 62
     2
 10
0.401165
 20
3.938063
 11
0.385417
 21
3.878996
 12
0.401165
 22
3.938063
 13
0.416917
 23
3.878996
  0
POLYLINE
  8
PLAN_1
 62
     2
  6
CONTINUOUS
 66
     1
 40
0.003000
 41
0.003000
  0
VERTEX
  8
PLAN_1
 62
     2
  6
CONTINUOUS
 10
0.401165
 20
3.938063
  0
VERTEX
  8
PLAN_1
 62
     2
  6
CONTINUOUS
 10
0.385417
 20
3.878996
  0
VERTEX
  8
PLAN_1
 62
     2
  6
CONTINUOUS
 10
0.416917
 20
3.878996
  0
VERTEX
  8
PLAN_1
 62
     2
  6
CONTINUOUS
 10
0.401165
 20
3.938063
  0
SEQEND
  8
0
  0
SOLID
  8
PLAN_1
 62
     2
 10
0.401165
 20
3.532972
 11
0.385417
 21
3.592039
 12
0.401165
 22
3.532972
 13
0.416917
 23
3.592039
  0
POLYLINE
  8
PLAN_1
 62
     2
  6
CONTINUOUS
 66
     1
 40
0.003000
 41
0.003000
  0
VERTEX
  8
PLAN_1
 62
     2
  6
CONTINUOUS
 10
0.401165
 20
3.532972
  0
VERTEX
  8
PLAN_1
 62
     2
  6
CONTINUOUS
 10
0.385417
 20
3.592039
  0
VERTEX
  8
PLAN_1
 62
     2
  6
CONTINUOUS
 10
0.416917
 20
3.592039
  0
VERTEX
  8
PLAN_1
 62
     2
  6
CONTINUOUS
 10
0.401165
 20
3.532972
  0
SEQEND
  8
0
  0
POLYLINE
  8
PLAN_1
 62
     2
  6
CONTINUOUS
 66
     1
 40
0.003000
 41
0.003000
  0
VERTEX
  8
PLAN_1
 62
     2
  6
CONTINUOUS
 10
0.377539
 20
3.716075
  0
VERTEX
  8
PLAN_1
 62
     2
  6
CONTINUOUS
 10
0.377539
 20
3.706232
  0
VERTEX
  8
PLAN_1
 62
     2
  6
CONTINUOUS
 10
0.325858
 20
3.706232
  0
VERTEX
  8
PLAN_1
 62
     2
  6
CONTINUOUS
 10
0.325858
 20
3.689496
  0
VERTEX
  8
PLAN_1
 62
     2
  6
CONTINUOUS
 10
0.318476
 20
3.689496
  0
VERTEX
  8
PLAN_1
 62
     2
  6
CONTINUOUS
 10
0.317984
 20
3.693433
  0
VERTEX
  8
PLAN_1
 62
     2
  6
CONTINUOUS
 10
0.317492
 20
3.696878
  0
VERTEX
  8
PLAN_1
 62
     2
  6
CONTINUOUS
 10
0.317000
 20
3.699835
  0
VERTEX
  8
PLAN_1
 62
     2
  6
CONTINUOUS
 10
0.315524
 20
3.702295
  0
VERTEX
  8
PLAN_1
 62
     2
  6
CONTINUOUS
 10
0.314047
 20
3.704756
  0
VERTEX
  8
PLAN_1
 62
     2
  6
CONTINUOUS
 10
0.311583
 20
3.706232
  0
VERTEX
  8
PLAN_1
 62
     2
  6
CONTINUOUS
 10
0.308630
 20
3.707709
  0
VERTEX
  8
PLAN_1
 62
     2
  6
CONTINUOUS
 10
0.304693
 20
3.709185
  0
VERTEX
  8
PLAN_1
 62
     2
  6
CONTINUOUS
 10
0.304693
 20
3.716075
  0
VERTEX
  8
PLAN_1
 62
     2
  6
CONTINUOUS
 10
0.377539
 20
3.716075
  0
SEQEND
  8
0
  0
POLYLINE
  8
PLAN_1
 62
     2
  6
CONTINUOUS
 66
     1
 40
0.003000
 41
0.003000
  0
VERTEX
  8
PLAN_1
 62
     2
  6
CONTINUOUS
 10
0.379508
 20
3.765787
  0
VERTEX
  8
PLAN_1
 62
     2
  6
CONTINUOUS
 10
0.379508
 20
3.761850
  0
VERTEX
  8
PLAN_1
 62
     2
  6
CONTINUOUS
 10
0.378524
 20
3.758406
  0
VERTEX
  8
PLAN_1
 62
     2
  6
CONTINUOUS
 10
0.377539
 20
3.755453
  0
VERTEX
  8
PLAN_1
 62
     2
  6
CONTINUOUS
 10
0.376063
 20
3.752992
  0
VERTEX
  8
PLAN_1
 62
     2
  6
CONTINUOUS
 10
0.374094
 20
3.750531
  0
VERTEX
  8
PLAN_1
 62
     2
  6
CONTINUOUS
 10
0.371634
 20
3.748563
  0
VERTEX
  8
PLAN_1
 62
     2
  6
CONTINUOUS
 10
0.369173
 20
3.746594
  0
VERTEX
  8
PLAN_1
 62
     2
  6
CONTINUOUS
 10
0.366713
 20
3.745118
  0
VERTEX
  8
PLAN_1
 62
     2
  6
CONTINUOUS
 10
0.360807
 20
3.743146
  0
VERTEX
  8
PLAN_1
 62
     2
  6
CONTINUOUS
 10
0.354406
 20
3.741669
  0
VERTEX
  8
PLAN_1
 62
     2
  6
CONTINUOUS
 10
0.348008
 20
3.740685
  0
VERTEX
  8
PLAN_1
 62
     2
  6
CONTINUOUS
 10
0.342102
 20
3.740685
  0
VERTEX
  8
PLAN_1
 62
     2
  6
CONTINUOUS
 10
0.336193
 20
3.740685
  0
VERTEX
  8
PLAN_1
 62
     2
  6
CONTINUOUS
 10
0.329795
 20
3.741669
  0
VERTEX
  8
PLAN_1
 62
     2
  6
CONTINUOUS
 10
0.323398
 20
3.743146
  0
VERTEX
  8
PLAN_1
 62
     2
  6
CONTINUOUS
 10
0.317492
 20
3.745118
  0
VERTEX
  8
PLAN_1
 62
     2
  6
CONTINUOUS
 10
0.315031
 20
3.746594
  0
VERTEX
  8
PLAN_1
 62
     2
  6
CONTINUOUS
 10
0.312567
 20
3.748563
  0
VERTEX
  8
PLAN_1
 62
     2
  6
CONTINUOUS
 10
0.310106
 20
3.750531
  0
VERTEX
  8
PLAN_1
 62
     2
  6
CONTINUOUS
 10
0.308138
 20
3.752992
  0
VERTEX
  8
PLAN_1
 62
     2
  6
CONTINUOUS
 10
0.306661
 20
3.755453
  0
VERTEX
  8
PLAN_1
 62
     2
  6
CONTINUOUS
 10
0.305677
 20
3.758406
  0
VERTEX
  8
PLAN_1
 62
     2
  6
CONTINUOUS
 10
0.304693
 20
3.761850
  0
VERTEX
  8
PLAN_1
 62
     2
  6
CONTINUOUS
 10
0.304693
 20
3.765787
  0
VERTEX
  8
PLAN_1
 62
     2
  6
CONTINUOUS
 10
0.304693
 20
3.769236
  0
VERTEX
  8
PLAN_1
 62
     2
  6
CONTINUOUS
 10
0.305677
 20
3.772681
  0
VERTEX
  8
PLAN_1
 62
     2
  6
CONTINUOUS
 10
0.306661
 20
3.775634
  0
VERTEX
  8
PLAN_1
 62
     2
  6
CONTINUOUS
 10
0.308138
 20
3.778587
  0
VERTEX
  8
PLAN_1
 62
     2
  6
CONTINUOUS
 10
0.310106
 20
3.780555
  0
VERTEX
  8
PLAN_1
 62
     2
  6
CONTINUOUS
 10
0.312567
 20
3.783016
  0
VERTEX
  8
PLAN_1
 62
     2
  6
CONTINUOUS
 10
0.315031
 20
3.784492
  0
VERTEX
  8
PLAN_1
 62
     2
  6
CONTINUOUS
 10
0.317492
 20
3.785969
  0
VERTEX
  8
PLAN_1
 62
     2
  6
CONTINUOUS
 10
0.323398
 20
3.788429
  0
VERTEX
  8
PLAN_1
 62
     2
  6
CONTINUOUS
 10
0.329795
 20
3.789906
  0
VERTEX
  8
PLAN_1
 62
     2
  6
CONTINUOUS
 10
0.336193
 20
3.790398
  0
VERTEX
  8
PLAN_1
 62
     2
  6
CONTINUOUS
 10
0.342102
 20
3.790890
  0
VERTEX
  8
PLAN_1
 62
     2
  6
CONTINUOUS
 10
0.348008
 20
3.790398
  0
VERTEX
  8
PLAN_1
 62
     2
  6
CONTINUOUS
 10
0.354406
 20
3.789906
  0
VERTEX
  8
PLAN_1
 62
     2
  6
CONTINUOUS
 10
0.360807
 20
3.788429
  0
VERTEX
  8
PLAN_1
 62
     2
  6
CONTINUOUS
 10
0.366713
 20
3.785969
  0
VERTEX
  8
PLAN_1
 62
     2
  6
CONTINUOUS
 10
0.369173
 20
3.784492
  0
VERTEX
  8
PLAN_1
 62
     2
  6
CONTINUOUS
 10
0.371634
 20
3.783016
  0
VERTEX
  8
PLAN_1
 62
     2
  6
CONTINUOUS
 10
0.374094
 20
3.780555
  0
VERTEX
  8
PLAN_1
 62
     2
  6
CONTINUOUS
 10
0.376063
 20
3.778587
  0
VERTEX
  8
PLAN_1
 62
     2
  6
CONTINUOUS
 10
0.377539
 20
3.775634
  0
VERTEX
  8
PLAN_1
 62
     2
  6
CONTINUOUS
 10
0.378524
 20
3.772681
  0
VERTEX
  8
PLAN_1
 62
     2
  6
CONTINUOUS
 10
0.379508
 20
3.769236
  0
VERTEX
  8
PLAN_1
 62
     2
  6
CONTINUOUS
 10
0.379508
 20
3.765787
  0
SEQEND
  8
0
  0
POLYLINE
  8
PLAN_1
 62
     2
  6
CONTINUOUS
 66
     1
 40
0.003000
 41
0.003000
  0
VERTEX
  8
PLAN_1
 62
     2
  6
CONTINUOUS
 10
0.312567
 20
3.765787
  0
VERTEX
  8
PLAN_1
 62
     2
  6
CONTINUOUS
 10
0.313059
 20
3.763819
  0
VERTEX
  8
PLAN_1
 62
     2
  6
CONTINUOUS
 10
0.313059
 20
3.761850
  0
VERTEX
  8
PLAN_1
 62
     2
  6
CONTINUOUS
 10
0.314047
 20
3.760374
  0
VERTEX
  8
PLAN_1
 62
     2
  6
CONTINUOUS
 10
0.314539
 20
3.758898
  0
VERTEX
  8
PLAN_1
 62
     2
  6
CONTINUOUS
 10
0.317000
 20
3.755945
  0
VERTEX
  8
PLAN_1
 62
     2
  6
CONTINUOUS
 10
0.320445
 20
3.753976
  0
VERTEX
  8
PLAN_1
 62
     2
  6
CONTINUOUS
 10
0.324874
 20
3.752500
  0
VERTEX
  8
PLAN_1
 62
     2
  6
CONTINUOUS
 10
0.329795
 20
3.751024
  0
VERTEX
  8
PLAN_1
 62
     2
  6
CONTINUOUS
 10
0.335701
 20
3.750531
  0
VERTEX
  8
PLAN_1
 62
     2
  6
CONTINUOUS
 10
0.342102
 20
3.750531
  0
VERTEX
  8
PLAN_1
 62
     2
  6
CONTINUOUS
 10
0.348500
 20
3.750531
  0
VERTEX
  8
PLAN_1
 62
     2
  6
CONTINUOUS
 10
0.354406
 20
3.751024
  0
VERTEX
  8
PLAN_1
 62
     2
  6
CONTINUOUS
 10
0.359327
 20
3.752500
  0
VERTEX
  8
PLAN_1
 62
     2
  6
CONTINUOUS
 10
0.363760
 20
3.753976
  0
VERTEX
  8
PLAN_1
 62
     2
  6
CONTINUOUS
 10
0.366713
 20
3.755945
  0
VERTEX
  8
PLAN_1
 62
     2
  6
CONTINUOUS
 10
0.369173
 20
3.758898
  0
VERTEX
  8
PLAN_1
 62
     2
  6
CONTINUOUS
 10
0.370157
 20
3.760374
  0
VERTEX
  8
PLAN_1
 62
     2
  6
CONTINUOUS
 10
0.370650
 20
3.761850
  0
VERTEX
  8
PLAN_1
 62
     2
  6
CONTINUOUS
 10
0.371142
 20
3.763819
  0
VERTEX
  8
PLAN_1
 62
     2
  6
CONTINUOUS
 10
0.371142
 20
3.765787
  0
VERTEX
  8
PLAN_1
 62
     2
  6
CONTINUOUS
 10
0.371142
 20
3.767756
  0
VERTEX
  8
PLAN_1
 62
     2
  6
CONTINUOUS
 10
0.370650
 20
3.769236
  0
VERTEX
  8
PLAN_1
 62
     2
  6
CONTINUOUS
 10
0.370157
 20
3.770713
  0
VERTEX
  8
PLAN_1
 62
     2
  6
CONTINUOUS
 10
0.369173
 20
3.772681
  0
VERTEX
  8
PLAN_1
 62
     2
  6
CONTINUOUS
 10
0.366713
 20
3.775142
  0
VERTEX
  8
PLAN_1
 62
     2
  6
CONTINUOUS
 10
0.363760
 20
3.777110
  0
VERTEX
  8
PLAN_1
 62
     2
  6
CONTINUOUS
 10
0.359327
 20
3.779079
  0
VERTEX
  8
PLAN_1
 62
     2
  6
CONTINUOUS
 10
0.354406
 20
3.780063
  0
VERTEX
  8
PLAN_1
 62
     2
  6
CONTINUOUS
 10
0.348500
 20
3.780555
  0
VERTEX
  8
PLAN_1
 62
     2
  6
CONTINUOUS
 10
0.342102
 20
3.781047
  0
VERTEX
  8
PLAN_1
 62
     2
  6
CONTINUOUS
 10
0.335701
 20
3.780555
  0
VERTEX
  8
PLAN_1
 62
     2
  6
CONTINUOUS
 10
0.329795
 20
3.780063
  0
VERTEX
  8
PLAN_1
 62
     2
  6
CONTINUOUS
 10
0.324874
 20
3.779079
  0
VERTEX
  8
PLAN_1
 62
     2
  6
CONTINUOUS
 10
0.320445
 20
3.777110
  0
VERTEX
  8
PLAN_1
 62
     2
  6
CONTINUOUS
 10
0.317000
 20
3.775142
  0
VERTEX
  8
PLAN_1
 62
     2
  6
CONTINUOUS
 10
0.314539
 20
3.772681
  0
VERTEX
  8
PLAN_1
 62
     2
  6
CONTINUOUS
 10
0.314047
 20
3.770713
  0
VERTEX
  8
PLAN_1
 62
     2
  6
CONTINUOUS
 10
0.313059
 20
3.769236
  0
VERTEX
  8
PLAN_1
 62
     2
  6
CONTINUOUS
 10
0.313059
 20
3.767756
  0
VERTEX
  8
PLAN_1
 62
     2
  6
CONTINUOUS
 10
0.312567
 20
3.765787
  0
SEQEND
  8
0
  0
POLYLINE
  8
PLAN_1
 62
     2
  6
CONTINUOUS
 66
     1
 40
0.003937
 41
0.003937
  0
VERTEX
  8
PLAN_1
 62
     2
  6
CONTINUOUS
 10
0.424791
 20
3.938063
  0
VERTEX
  8
PLAN_1
 62
     2
  6
CONTINUOUS
 10
0.042839
 20
3.938063
  0
SEQEND
  8
0
  0
ENDSEC
  0
EOF
