  0
SECTION
  2
HEADER
  9
$ACADVER
  1
AC1006
  9
$EXTMIN
 10
-2.161000
 20
-3.686276
  9
$EXTMAX
 10
2.153000
 20
3.681000
  9
$LTSCALE
 40
0.000394
  9
$PDMODE
 70
    35
  9
$PDSIZE
 40
0.000315
  0
ENDSEC
  0
SECTION
  2
TABLES
  0
TABLE
  2
LTYPE
 70
     9
  0
LTYPE
  2
CONTINUOUS
 70
    64
  3
Solid line
 72
    65
 73
     0
 40
0.000000
  0
LTYPE
  2
DASHED
 70
    64
  3
__ __ __ __ __ __ __ __ __ __ __ __ __ __ __
 72
    65
 73
     2
 40
0.000003
 49
0.000002
 49
-0.000001
  0
LTYPE
  2
HIDDEN
 70
    64
  3
 _ _ _ _ _ _ _ _ _ _ _ _ _ _ _ _ _ _ _ _ _ _
 72
    65
 73
     2
 40
0.000001
 49
0.000001
 49
-0.000000
  0
LTYPE
  2
CENTER
 70
    64
  3
____ _ ____ _ ____ _ ____ _ ____ _ ____ _ ____
 72
    65
 73
     4
 40
0.000008
 49
0.000005
 49
-0.000001
 49
0.000001
 49
-0.000001
  0
LTYPE
  2
PHANTOM
 70
    64
  3
_____ _ _ _____ _ _ _____ _ _ _____ _ _ ____
 72
    65
 73
     6
 40
0.000010
 49
0.000005
 49
-0.000001
 49
0.000001
 49
-0.000001
 49
0.000001
 49
-0.000001
  0
LTYPE
  2
DOT
 70
    64
  3
...............................................
 72
    65
 73
     2
 40
0.000001
 49
0.000000
 49
-0.000001
  0
LTYPE
  2
DASHDOT
 70
    64
  3
__ . __ . __ . __ . __ . __ . __ . __ . __ . __
 72
    65
 73
     4
 40
0.000004
 49
0.000002
 49
-0.000001
 49
0.000000
 49
-0.000001
  0
LTYPE
  2
BORDER
 70
    64
  3
__ __ . __ __ . __ __ . __ __ . __ __ . __ __
 72
    65
 73
     6
 40
0.000007
 49
0.000002
 49
-0.000001
 49
0.000002
 49
-0.000001
 49
0.000000
 49
-0.000001
  0
LTYPE
  2
DIVIDE
 70
    64
  3
__ . . __ . . __ . . __ . . __ . . __ . . __
 72
    65
 73
     6
 40
0.000005
 49
0.000002
 49
-0.000001
 49
0.000000
 49
-0.000001
 49
0.000000
 49
-0.000001
  0
LTYPE
  2
DOTDOT
 70
    64
  3
 . .  . .  . .  . .  . .  . . 
 72
    65
 73
     5
 40
0.000002
 49
-0.000001
 49
0.000000
 49
-0.000001
 49
0.000000
 49
-0.000001
  0
ENDTAB
  0
TABLE
  2
STYLE
 70
     0
  0
ENDTAB
  0
TABLE
  2
LAYER
 70
     3
  0
LAYER
  2
FOREGROUND
 70
    64
 62
     7
  6
CONTINUOUS
  0
LAYER
  2
BACKGROUND
 70
    65
 62
    -7
  6
CONTINUOUS
  0
LAYER
  2
PLAN_1
 70
    64
 62
     7
  6
CONTINUOUS
  0
ENDTAB
  0
ENDSEC
  0
SECTION
  2
ENTITIES
  0
POLYLINE
  8
PLAN_1
  6
CONTINUOUS
 66
     1
 40
0.003000
 41
0.003000
  0
VERTEX
  8
PLAN_1
  6
CONTINUOUS
 10
0.268358
 20
-3.651740
  0
VERTEX
  8
PLAN_1
  6
CONTINUOUS
 10
0.111343
 20
-3.651740
  0
VERTEX
  8
PLAN_1
  6
CONTINUOUS
 10
0.111343
 20
-3.629177
  0
VERTEX
  8
PLAN_1
  6
CONTINUOUS
 10
0.233366
 20
-3.476307
  0
VERTEX
  8
PLAN_1
  6
CONTINUOUS
 10
0.120551
 20
-3.476307
  0
VERTEX
  8
PLAN_1
  6
CONTINUOUS
 10
0.120551
 20
-3.452362
  0
VERTEX
  8
PLAN_1
  6
CONTINUOUS
 10
0.268358
 20
-3.452362
  0
VERTEX
  8
PLAN_1
  6
CONTINUOUS
 10
0.268358
 20
-3.475846
  0
VERTEX
  8
PLAN_1
  6
CONTINUOUS
 10
0.145417
 20
-3.627799
  0
VERTEX
  8
PLAN_1
  6
CONTINUOUS
 10
0.268358
 20
-3.627799
  0
VERTEX
  8
PLAN_1
  6
CONTINUOUS
 10
0.268358
 20
-3.651740
  0
SEQEND
  8
0
  0
POLYLINE
  8
PLAN_1
  6
CONTINUOUS
 66
     1
 40
0.003000
 41
0.003000
  0
VERTEX
  8
PLAN_1
  6
CONTINUOUS
 10
0.435504
 20
-3.512224
  0
VERTEX
  8
PLAN_1
  6
CONTINUOUS
 10
0.434122
 20
-3.506236
  0
VERTEX
  8
PLAN_1
  6
CONTINUOUS
 10
0.431819
 20
-3.500252
  0
VERTEX
  8
PLAN_1
  6
CONTINUOUS
 10
0.429520
 20
-3.495646
  0
VERTEX
  8
PLAN_1
  6
CONTINUOUS
 10
0.426295
 20
-3.491043
  0
VERTEX
  8
PLAN_1
  6
CONTINUOUS
 10
0.423071
 20
-3.487358
  0
VERTEX
  8
PLAN_1
  6
CONTINUOUS
 10
0.419850
 20
-3.483673
  0
VERTEX
  8
PLAN_1
  6
CONTINUOUS
 10
0.416165
 20
-3.480913
  0
VERTEX
  8
PLAN_1
  6
CONTINUOUS
 10
0.412020
 20
-3.478610
  0
VERTEX
  8
PLAN_1
  6
CONTINUOUS
 10
0.407878
 20
-3.476307
  0
VERTEX
  8
PLAN_1
  6
CONTINUOUS
 10
0.403732
 20
-3.474925
  0
VERTEX
  8
PLAN_1
  6
CONTINUOUS
 10
0.399587
 20
-3.473543
  0
VERTEX
  8
PLAN_1
  6
CONTINUOUS
 10
0.395445
 20
-3.472626
  0
VERTEX
  8
PLAN_1
  6
CONTINUOUS
 10
0.387618
 20
-3.471244
  0
VERTEX
  8
PLAN_1
  6
CONTINUOUS
 10
0.379787
 20
-3.470783
  0
VERTEX
  8
PLAN_1
  6
CONTINUOUS
 10
0.373343
 20
-3.471244
  0
VERTEX
  8
PLAN_1
  6
CONTINUOUS
 10
0.366898
 20
-3.472165
  0
VERTEX
  8
PLAN_1
  6
CONTINUOUS
 10
0.360449
 20
-3.473543
  0
VERTEX
  8
PLAN_1
  6
CONTINUOUS
 10
0.354465
 20
-3.475846
  0
VERTEX
  8
PLAN_1
  6
CONTINUOUS
 10
0.348937
 20
-3.478610
  0
VERTEX
  8
PLAN_1
  6
CONTINUOUS
 10
0.343413
 20
-3.482295
  0
VERTEX
  8
PLAN_1
  6
CONTINUOUS
 10
0.338346
 20
-3.485976
  0
VERTEX
  8
PLAN_1
  6
CONTINUOUS
 10
0.333744
 20
-3.490583
  0
VERTEX
  8
PLAN_1
  6
CONTINUOUS
 10
0.329598
 20
-3.496106
  0
VERTEX
  8
PLAN_1
  6
CONTINUOUS
 10
0.325917
 20
-3.502094
  0
VERTEX
  8
PLAN_1
  6
CONTINUOUS
 10
0.322693
 20
-3.508539
  0
VERTEX
  8
PLAN_1
  6
CONTINUOUS
 10
0.319929
 20
-3.515445
  0
VERTEX
  8
PLAN_1
  6
CONTINUOUS
 10
0.317626
 20
-3.523276
  0
VERTEX
  8
PLAN_1
  6
CONTINUOUS
 10
0.315787
 20
-3.531563
  0
VERTEX
  8
PLAN_1
  6
CONTINUOUS
 10
0.314866
 20
-3.540311
  0
VERTEX
  8
PLAN_1
  6
CONTINUOUS
 10
0.314866
 20
-3.549980
  0
VERTEX
  8
PLAN_1
  6
CONTINUOUS
 10
0.314866
 20
-3.558728
  0
VERTEX
  8
PLAN_1
  6
CONTINUOUS
 10
0.315327
 20
-3.567016
  0
VERTEX
  8
PLAN_1
  6
CONTINUOUS
 10
0.316705
 20
-3.575307
  0
VERTEX
  8
PLAN_1
  6
CONTINUOUS
 10
0.318087
 20
-3.582673
  0
VERTEX
  8
PLAN_1
  6
CONTINUOUS
 10
0.319929
 20
-3.590039
  0
VERTEX
  8
PLAN_1
  6
CONTINUOUS
 10
0.322693
 20
-3.596945
  0
VERTEX
  8
PLAN_1
  6
CONTINUOUS
 10
0.325457
 20
-3.603394
  0
VERTEX
  8
PLAN_1
  6
CONTINUOUS
 10
0.329138
 20
-3.608917
  0
VERTEX
  8
PLAN_1
  6
CONTINUOUS
 10
0.333283
 20
-3.614445
  0
VERTEX
  8
PLAN_1
  6
CONTINUOUS
 10
0.337886
 20
-3.619047
  0
VERTEX
  8
PLAN_1
  6
CONTINUOUS
 10
0.343413
 20
-3.623193
  0
VERTEX
  8
PLAN_1
  6
CONTINUOUS
 10
0.349398
 20
-3.626417
  0
VERTEX
  8
PLAN_1
  6
CONTINUOUS
 10
0.352622
 20
-3.628256
  0
VERTEX
  8
PLAN_1
  6
CONTINUOUS
 10
0.356307
 20
-3.629177
  0
VERTEX
  8
PLAN_1
  6
CONTINUOUS
 10
0.359988
 20
-3.630559
  0
VERTEX
  8
PLAN_1
  6
CONTINUOUS
 10
0.363673
 20
-3.631480
  0
VERTEX
  8
PLAN_1
  6
CONTINUOUS
 10
0.371961
 20
-3.632402
  0
VERTEX
  8
PLAN_1
  6
CONTINUOUS
 10
0.380709
 20
-3.632862
  0
VERTEX
  8
PLAN_1
  6
CONTINUOUS
 10
0.383933
 20
-3.632862
  0
VERTEX
  8
PLAN_1
  6
CONTINUOUS
 10
0.387618
 20
-3.632402
  0
VERTEX
  8
PLAN_1
  6
CONTINUOUS
 10
0.391760
 20
-3.631941
  0
VERTEX
  8
PLAN_1
  6
CONTINUOUS
 10
0.395445
 20
-3.631020
  0
VERTEX
  8
PLAN_1
  6
CONTINUOUS
 10
0.399587
 20
-3.629638
  0
VERTEX
  8
PLAN_1
  6
CONTINUOUS
 10
0.404193
 20
-3.627799
  0
VERTEX
  8
PLAN_1
  6
CONTINUOUS
 10
0.408339
 20
-3.625957
  0
VERTEX
  8
PLAN_1
  6
CONTINUOUS
 10
0.412480
 20
-3.623193
  0
VERTEX
  8
PLAN_1
  6
CONTINUOUS
 10
0.416165
 20
-3.619969
  0
VERTEX
  8
PLAN_1
  6
CONTINUOUS
 10
0.420307
 20
-3.615827
  0
VERTEX
  8
PLAN_1
  6
CONTINUOUS
 10
0.423992
 20
-3.611681
  0
VERTEX
  8
PLAN_1
  6
CONTINUOUS
 10
0.427217
 20
-3.606618
  0
VERTEX
  8
PLAN_1
  6
CONTINUOUS
 10
0.430441
 20
-3.600630
  0
VERTEX
  8
PLAN_1
  6
CONTINUOUS
 10
0.433201
 20
-3.594185
  0
VERTEX
  8
PLAN_1
  6
CONTINUOUS
 10
0.435504
 20
-3.586358
  0
VERTEX
  8
PLAN_1
  6
CONTINUOUS
 10
0.437807
 20
-3.578528
  0
VERTEX
  8
PLAN_1
  6
CONTINUOUS
 10
0.463591
 20
-3.578528
  0
VERTEX
  8
PLAN_1
  6
CONTINUOUS
 10
0.462669
 20
-3.584976
  0
VERTEX
  8
PLAN_1
  6
CONTINUOUS
 10
0.460831
 20
-3.591421
  0
VERTEX
  8
PLAN_1
  6
CONTINUOUS
 10
0.459449
 20
-3.597406
  0
VERTEX
  8
PLAN_1
  6
CONTINUOUS
 10
0.457146
 20
-3.603394
  0
VERTEX
  8
PLAN_1
  6
CONTINUOUS
 10
0.455303
 20
-3.608457
  0
VERTEX
  8
PLAN_1
  6
CONTINUOUS
 10
0.453000
 20
-3.613524
  0
VERTEX
  8
PLAN_1
  6
CONTINUOUS
 10
0.450240
 20
-3.618126
  0
VERTEX
  8
PLAN_1
  6
CONTINUOUS
 10
0.447476
 20
-3.622272
  0
VERTEX
  8
PLAN_1
  6
CONTINUOUS
 10
0.444713
 20
-3.626417
  0
VERTEX
  8
PLAN_1
  6
CONTINUOUS
 10
0.441488
 20
-3.630098
  0
VERTEX
  8
PLAN_1
  6
CONTINUOUS
 10
0.438268
 20
-3.633323
  0
VERTEX
  8
PLAN_1
  6
CONTINUOUS
 10
0.435043
 20
-3.636087
  0
VERTEX
  8
PLAN_1
  6
CONTINUOUS
 10
0.428598
 20
-3.641610
  0
VERTEX
  8
PLAN_1
  6
CONTINUOUS
 10
0.421689
 20
-3.645756
  0
VERTEX
  8
PLAN_1
  6
CONTINUOUS
 10
0.414783
 20
-3.649437
  0
VERTEX
  8
PLAN_1
  6
CONTINUOUS
 10
0.407878
 20
-3.651740
  0
VERTEX
  8
PLAN_1
  6
CONTINUOUS
 10
0.400969
 20
-3.653583
  0
VERTEX
  8
PLAN_1
  6
CONTINUOUS
 10
0.394984
 20
-3.654965
  0
VERTEX
  8
PLAN_1
  6
CONTINUOUS
 10
0.383933
 20
-3.656346
  0
VERTEX
  8
PLAN_1
  6
CONTINUOUS
 10
0.376567
 20
-3.656807
  0
VERTEX
  8
PLAN_1
  6
CONTINUOUS
 10
0.368280
 20
-3.656346
  0
VERTEX
  8
PLAN_1
  6
CONTINUOUS
 10
0.359528
 20
-3.655425
  0
VERTEX
  8
PLAN_1
  6
CONTINUOUS
 10
0.351240
 20
-3.653583
  0
VERTEX
  8
PLAN_1
  6
CONTINUOUS
 10
0.343413
 20
-3.651280
  0
VERTEX
  8
PLAN_1
  6
CONTINUOUS
 10
0.335587
 20
-3.647598
  0
VERTEX
  8
PLAN_1
  6
CONTINUOUS
 10
0.328217
 20
-3.643453
  0
VERTEX
  8
PLAN_1
  6
CONTINUOUS
 10
0.324535
 20
-3.641150
  0
VERTEX
  8
PLAN_1
  6
CONTINUOUS
 10
0.321311
 20
-3.638386
  0
VERTEX
  8
PLAN_1
  6
CONTINUOUS
 10
0.318087
 20
-3.635626
  0
VERTEX
  8
PLAN_1
  6
CONTINUOUS
 10
0.314866
 20
-3.632402
  0
VERTEX
  8
PLAN_1
  6
CONTINUOUS
 10
0.311642
 20
-3.629177
  0
VERTEX
  8
PLAN_1
  6
CONTINUOUS
 10
0.308878
 20
-3.625957
  0
VERTEX
  8
PLAN_1
  6
CONTINUOUS
 10
0.306118
 20
-3.621811
  0
VERTEX
  8
PLAN_1
  6
CONTINUOUS
 10
0.303354
 20
-3.618126
  0
VERTEX
  8
PLAN_1
  6
CONTINUOUS
 10
0.301051
 20
-3.613984
  0
VERTEX
  8
PLAN_1
  6
CONTINUOUS
 10
0.298748
 20
-3.609378
  0
VERTEX
  8
PLAN_1
  6
CONTINUOUS
 10
0.296445
 20
-3.604776
  0
VERTEX
  8
PLAN_1
  6
CONTINUOUS
 10
0.294606
 20
-3.599709
  0
VERTEX
  8
PLAN_1
  6
CONTINUOUS
 10
0.292764
 20
-3.594646
  0
VERTEX
  8
PLAN_1
  6
CONTINUOUS
 10
0.291382
 20
-3.589118
  0
VERTEX
  8
PLAN_1
  6
CONTINUOUS
 10
0.290000
 20
-3.583594
  0
VERTEX
  8
PLAN_1
  6
CONTINUOUS
 10
0.289079
 20
-3.577606
  0
VERTEX
  8
PLAN_1
  6
CONTINUOUS
 10
0.288157
 20
-3.571161
  0
VERTEX
  8
PLAN_1
  6
CONTINUOUS
 10
0.287236
 20
-3.564717
  0
VERTEX
  8
PLAN_1
  6
CONTINUOUS
 10
0.287236
 20
-3.557807
  0
VERTEX
  8
PLAN_1
  6
CONTINUOUS
 10
0.286776
 20
-3.550902
  0
VERTEX
  8
PLAN_1
  6
CONTINUOUS
 10
0.287236
 20
-3.539390
  0
VERTEX
  8
PLAN_1
  6
CONTINUOUS
 10
0.288618
 20
-3.528799
  0
VERTEX
  8
PLAN_1
  6
CONTINUOUS
 10
0.290461
 20
-3.518669
  0
VERTEX
  8
PLAN_1
  6
CONTINUOUS
 10
0.293224
 20
-3.508539
  0
VERTEX
  8
PLAN_1
  6
CONTINUOUS
 10
0.295067
 20
-3.503933
  0
VERTEX
  8
PLAN_1
  6
CONTINUOUS
 10
0.296906
 20
-3.499791
  0
VERTEX
  8
PLAN_1
  6
CONTINUOUS
 10
0.298748
 20
-3.495185
  0
VERTEX
  8
PLAN_1
  6
CONTINUOUS
 10
0.301051
 20
-3.491043
  0
VERTEX
  8
PLAN_1
  6
CONTINUOUS
 10
0.303354
 20
-3.486898
  0
VERTEX
  8
PLAN_1
  6
CONTINUOUS
 10
0.306118
 20
-3.483213
  0
VERTEX
  8
PLAN_1
  6
CONTINUOUS
 10
0.308878
 20
-3.479531
  0
VERTEX
  8
PLAN_1
  6
CONTINUOUS
 10
0.311642
 20
-3.475846
  0
VERTEX
  8
PLAN_1
  6
CONTINUOUS
 10
0.314866
 20
-3.472626
  0
VERTEX
  8
PLAN_1
  6
CONTINUOUS
 10
0.318087
 20
-3.469402
  0
VERTEX
  8
PLAN_1
  6
CONTINUOUS
 10
0.321311
 20
-3.466638
  0
VERTEX
  8
PLAN_1
  6
CONTINUOUS
 10
0.324996
 20
-3.463874
  0
VERTEX
  8
PLAN_1
  6
CONTINUOUS
 10
0.328677
 20
-3.461114
  0
VERTEX
  8
PLAN_1
  6
CONTINUOUS
 10
0.332362
 20
-3.458811
  0
VERTEX
  8
PLAN_1
  6
CONTINUOUS
 10
0.336508
 20
-3.456508
  0
VERTEX
  8
PLAN_1
  6
CONTINUOUS
 10
0.340650
 20
-3.454665
  0
VERTEX
  8
PLAN_1
  6
CONTINUOUS
 10
0.345256
 20
-3.452823
  0
VERTEX
  8
PLAN_1
  6
CONTINUOUS
 10
0.349858
 20
-3.451445
  0
VERTEX
  8
PLAN_1
  6
CONTINUOUS
 10
0.354465
 20
-3.450063
  0
VERTEX
  8
PLAN_1
  6
CONTINUOUS
 10
0.359067
 20
-3.449142
  0
VERTEX
  8
PLAN_1
  6
CONTINUOUS
 10
0.364134
 20
-3.448220
  0
VERTEX
  8
PLAN_1
  6
CONTINUOUS
 10
0.369197
 20
-3.447760
  0
VERTEX
  8
PLAN_1
  6
CONTINUOUS
 10
0.374264
 20
-3.447299
  0
VERTEX
  8
PLAN_1
  6
CONTINUOUS
 10
0.379787
 20
-3.446839
  0
VERTEX
  8
PLAN_1
  6
CONTINUOUS
 10
0.389000
 20
-3.447299
  0
VERTEX
  8
PLAN_1
  6
CONTINUOUS
 10
0.397748
 20
-3.448681
  0
VERTEX
  8
PLAN_1
  6
CONTINUOUS
 10
0.406035
 20
-3.450063
  0
VERTEX
  8
PLAN_1
  6
CONTINUOUS
 10
0.413862
 20
-3.452362
  0
VERTEX
  8
PLAN_1
  6
CONTINUOUS
 10
0.420768
 20
-3.455587
  0
VERTEX
  8
PLAN_1
  6
CONTINUOUS
 10
0.427217
 20
-3.458811
  0
VERTEX
  8
PLAN_1
  6
CONTINUOUS
 10
0.433201
 20
-3.462953
  0
VERTEX
  8
PLAN_1
  6
CONTINUOUS
 10
0.438728
 20
-3.467098
  0
VERTEX
  8
PLAN_1
  6
CONTINUOUS
 10
0.443331
 20
-3.471705
  0
VERTEX
  8
PLAN_1
  6
CONTINUOUS
 10
0.447476
 20
-3.476768
  0
VERTEX
  8
PLAN_1
  6
CONTINUOUS
 10
0.451161
 20
-3.482295
  0
VERTEX
  8
PLAN_1
  6
CONTINUOUS
 10
0.454382
 20
-3.487819
  0
VERTEX
  8
PLAN_1
  6
CONTINUOUS
 10
0.457146
 20
-3.493803
  0
VERTEX
  8
PLAN_1
  6
CONTINUOUS
 10
0.458988
 20
-3.499791
  0
VERTEX
  8
PLAN_1
  6
CONTINUOUS
 10
0.460831
 20
-3.506236
  0
VERTEX
  8
PLAN_1
  6
CONTINUOUS
 10
0.461748
 20
-3.512224
  0
VERTEX
  8
PLAN_1
  6
CONTINUOUS
 10
0.435504
 20
-3.512224
  0
SEQEND
  8
0
  0
POLYLINE
  8
PLAN_1
  6
CONTINUOUS
 66
     1
 40
0.003000
 41
0.003000
  0
VERTEX
  8
PLAN_1
  6
CONTINUOUS
 10
0.522992
 20
-3.651740
  0
VERTEX
  8
PLAN_1
  6
CONTINUOUS
 10
0.496283
 20
-3.651740
  0
VERTEX
  8
PLAN_1
  6
CONTINUOUS
 10
0.496283
 20
-3.452362
  0
VERTEX
  8
PLAN_1
  6
CONTINUOUS
 10
0.522992
 20
-3.452362
  0
VERTEX
  8
PLAN_1
  6
CONTINUOUS
 10
0.522992
 20
-3.549059
  0
VERTEX
  8
PLAN_1
  6
CONTINUOUS
 10
0.619685
 20
-3.452362
  0
VERTEX
  8
PLAN_1
  6
CONTINUOUS
 10
0.656984
 20
-3.452362
  0
VERTEX
  8
PLAN_1
  6
CONTINUOUS
 10
0.574102
 20
-3.532945
  0
VERTEX
  8
PLAN_1
  6
CONTINUOUS
 10
0.659283
 20
-3.651740
  0
VERTEX
  8
PLAN_1
  6
CONTINUOUS
 10
0.624291
 20
-3.651740
  0
VERTEX
  8
PLAN_1
  6
CONTINUOUS
 10
0.554303
 20
-3.551823
  0
VERTEX
  8
PLAN_1
  6
CONTINUOUS
 10
0.522992
 20
-3.581752
  0
VERTEX
  8
PLAN_1
  6
CONTINUOUS
 10
0.522992
 20
-3.651740
  0
SEQEND
  8
0
  0
POLYLINE
  8
PLAN_1
  6
CONTINUOUS
 66
     1
 40
0.003000
 41
0.003000
  0
VERTEX
  8
PLAN_1
  6
CONTINUOUS
 10
0.708555
 20
-3.627799
  0
VERTEX
  8
PLAN_1
  6
CONTINUOUS
 10
0.809394
 20
-3.627799
  0
VERTEX
  8
PLAN_1
  6
CONTINUOUS
 10
0.809394
 20
-3.651740
  0
VERTEX
  8
PLAN_1
  6
CONTINUOUS
 10
0.681386
 20
-3.651740
  0
VERTEX
  8
PLAN_1
  6
CONTINUOUS
 10
0.681386
 20
-3.452362
  0
VERTEX
  8
PLAN_1
  6
CONTINUOUS
 10
0.708555
 20
-3.452362
  0
VERTEX
  8
PLAN_1
  6
CONTINUOUS
 10
0.708555
 20
-3.627799
  0
SEQEND
  8
0
  0
POLYLINE
  8
PLAN_1
  6
CONTINUOUS
 66
     1
 40
0.003000
 41
0.003000
  0
VERTEX
  8
PLAN_1
  6
CONTINUOUS
 10
0.998642
 20
-3.497488
  0
VERTEX
  8
PLAN_1
  6
CONTINUOUS
 10
1.017520
 20
-3.497488
  0
VERTEX
  8
PLAN_1
  6
CONTINUOUS
 10
1.013374
 20
-3.512224
  0
VERTEX
  8
PLAN_1
  6
CONTINUOUS
 10
1.008772
 20
-3.526957
  0
VERTEX
  8
PLAN_1
  6
CONTINUOUS
 10
1.004626
 20
-3.541232
  0
VERTEX
  8
PLAN_1
  6
CONTINUOUS
 10
1.000941
 20
-3.554126
  0
VERTEX
  8
PLAN_1
  6
CONTINUOUS
 10
0.997720
 20
-3.566094
  0
VERTEX
  8
PLAN_1
  6
CONTINUOUS
 10
0.994957
 20
-3.575768
  0
VERTEX
  8
PLAN_1
  6
CONTINUOUS
 10
0.993114
 20
-3.583134
  0
VERTEX
  8
PLAN_1
  6
CONTINUOUS
 10
0.992193
 20
-3.587736
  0
VERTEX
  8
PLAN_1
  6
CONTINUOUS
 10
0.992654
 20
-3.589579
  0
VERTEX
  8
PLAN_1
  6
CONTINUOUS
 10
0.992654
 20
-3.591421
  0
VERTEX
  8
PLAN_1
  6
CONTINUOUS
 10
0.993114
 20
-3.592803
  0
VERTEX
  8
PLAN_1
  6
CONTINUOUS
 10
0.993575
 20
-3.593724
  0
VERTEX
  8
PLAN_1
  6
CONTINUOUS
 10
0.994496
 20
-3.594646
  0
VERTEX
  8
PLAN_1
  6
CONTINUOUS
 10
0.995417
 20
-3.595106
  0
VERTEX
  8
PLAN_1
  6
CONTINUOUS
 10
0.996799
 20
-3.595567
  0
VERTEX
  8
PLAN_1
  6
CONTINUOUS
 10
0.998181
 20
-3.596028
  0
VERTEX
  8
PLAN_1
  6
CONTINUOUS
 10
1.001862
 20
-3.595567
  0
VERTEX
  8
PLAN_1
  6
CONTINUOUS
 10
1.005087
 20
-3.594646
  0
VERTEX
  8
PLAN_1
  6
CONTINUOUS
 10
1.008772
 20
-3.592803
  0
VERTEX
  8
PLAN_1
  6
CONTINUOUS
 10
1.012453
 20
-3.590500
  0
VERTEX
  8
PLAN_1
  6
CONTINUOUS
 10
1.015677
 20
-3.587736
  0
VERTEX
  8
PLAN_1
  6
CONTINUOUS
 10
1.018902
 20
-3.584516
  0
VERTEX
  8
PLAN_1
  6
CONTINUOUS
 10
1.022122
 20
-3.580831
  0
VERTEX
  8
PLAN_1
  6
CONTINUOUS
 10
1.024886
 20
-3.577146
  0
VERTEX
  8
PLAN_1
  6
CONTINUOUS
 10
1.027650
 20
-3.572543
  0
VERTEX
  8
PLAN_1
  6
CONTINUOUS
 10
1.029953
 20
-3.567937
  0
VERTEX
  8
PLAN_1
  6
CONTINUOUS
 10
1.032252
 20
-3.562874
  0
VERTEX
  8
PLAN_1
  6
CONTINUOUS
 10
1.034094
 20
-3.557807
  0
VERTEX
  8
PLAN_1
  6
CONTINUOUS
 10
1.035476
 20
-3.552283
  0
VERTEX
  8
PLAN_1
  6
CONTINUOUS
 10
1.036858
 20
-3.546756
  0
VERTEX
  8
PLAN_1
  6
CONTINUOUS
 10
1.037319
 20
-3.541232
  0
VERTEX
  8
PLAN_1
  6
CONTINUOUS
 10
1.037780
 20
-3.535705
  0
VERTEX
  8
PLAN_1
  6
CONTINUOUS
 10
1.037319
 20
-3.527878
  0
VERTEX
  8
PLAN_1
  6
CONTINUOUS
 10
1.035937
 20
-3.520051
  0
VERTEX
  8
PLAN_1
  6
CONTINUOUS
 10
1.034094
 20
-3.512685
  0
VERTEX
  8
PLAN_1
  6
CONTINUOUS
 10
1.031331
 20
-3.505776
  0
VERTEX
  8
PLAN_1
  6
CONTINUOUS
 10
1.028110
 20
-3.499791
  0
VERTEX
  8
PLAN_1
  6
CONTINUOUS
 10
1.023965
 20
-3.493803
  0
VERTEX
  8
PLAN_1
  6
CONTINUOUS
 10
1.019823
 20
-3.488280
  0
VERTEX
  8
PLAN_1
  6
CONTINUOUS
 10
1.014756
 20
-3.483213
  0
VERTEX
  8
PLAN_1
  6
CONTINUOUS
 10
1.009232
 20
-3.479071
  0
VERTEX
  8
PLAN_1
  6
CONTINUOUS
 10
1.003244
 20
-3.475386
  0
VERTEX
  8
PLAN_1
  6
CONTINUOUS
 10
0.996799
 20
-3.471705
  0
VERTEX
  8
PLAN_1
  6
CONTINUOUS
 10
0.989890
 20
-3.469402
  0
VERTEX
  8
PLAN_1
  6
CONTINUOUS
 10
0.982984
 20
-3.467098
  0
VERTEX
  8
PLAN_1
  6
CONTINUOUS
 10
0.975618
 20
-3.465717
  0
VERTEX
  8
PLAN_1
  6
CONTINUOUS
 10
0.967791
 20
-3.464335
  0
VERTEX
  8
PLAN_1
  6
CONTINUOUS
 10
0.959961
 20
-3.464335
  0
VERTEX
  8
PLAN_1
  6
CONTINUOUS
 10
0.951213
 20
-3.464795
  0
VERTEX
  8
PLAN_1
  6
CONTINUOUS
 10
0.942465
 20
-3.466177
  0
VERTEX
  8
PLAN_1
  6
CONTINUOUS
 10
0.934177
 20
-3.468020
  0
VERTEX
  8
PLAN_1
  6
CONTINUOUS
 10
0.926350
 20
-3.471244
  0
VERTEX
  8
PLAN_1
  6
CONTINUOUS
 10
0.918520
 20
-3.474925
  0
VERTEX
  8
PLAN_1
  6
CONTINUOUS
 10
0.911614
 20
-3.479531
  0
VERTEX
  8
PLAN_1
  6
CONTINUOUS
 10
0.905169
 20
-3.484594
  0
VERTEX
  8
PLAN_1
  6
CONTINUOUS
 10
0.899642
 20
-3.490122
  0
VERTEX
  8
PLAN_1
  6
CONTINUOUS
 10
0.894118
 20
-3.496567
  0
VERTEX
  8
PLAN_1
  6
CONTINUOUS
 10
0.889512
 20
-3.503476
  0
VERTEX
  8
PLAN_1
  6
CONTINUOUS
 10
0.885370
 20
-3.510843
  0
VERTEX
  8
PLAN_1
  6
CONTINUOUS
 10
0.882146
 20
-3.518669
  0
VERTEX
  8
PLAN_1
  6
CONTINUOUS
 10
0.879382
 20
-3.526496
  0
VERTEX
  8
PLAN_1
  6
CONTINUOUS
 10
0.877539
 20
-3.535244
  0
VERTEX
  8
PLAN_1
  6
CONTINUOUS
 10
0.876157
 20
-3.543996
  0
VERTEX
  8
PLAN_1
  6
CONTINUOUS
 10
0.875697
 20
-3.553205
  0
VERTEX
  8
PLAN_1
  6
CONTINUOUS
 10
0.876157
 20
-3.561953
  0
VERTEX
  8
PLAN_1
  6
CONTINUOUS
 10
0.877539
 20
-3.570701
  0
VERTEX
  8
PLAN_1
  6
CONTINUOUS
 10
0.879382
 20
-3.579449
  0
VERTEX
  8
PLAN_1
  6
CONTINUOUS
 10
0.882606
 20
-3.587276
  0
VERTEX
  8
PLAN_1
  6
CONTINUOUS
 10
0.885827
 20
-3.595106
  0
VERTEX
  8
PLAN_1
  6
CONTINUOUS
 10
0.890433
 20
-3.602012
  0
VERTEX
  8
PLAN_1
  6
CONTINUOUS
 10
0.895039
 20
-3.608457
  0
VERTEX
  8
PLAN_1
  6
CONTINUOUS
 10
0.900563
 20
-3.614906
  0
VERTEX
  8
PLAN_1
  6
CONTINUOUS
 10
0.907008
 20
-3.620429
  0
VERTEX
  8
PLAN_1
  6
CONTINUOUS
 10
0.913457
 20
-3.625035
  0
VERTEX
  8
PLAN_1
  6
CONTINUOUS
 10
0.920362
 20
-3.629638
  0
VERTEX
  8
PLAN_1
  6
CONTINUOUS
 10
0.928189
 20
-3.632862
  0
VERTEX
  8
PLAN_1
  6
CONTINUOUS
 10
0.936020
 20
-3.636087
  0
VERTEX
  8
PLAN_1
  6
CONTINUOUS
 10
0.944307
 20
-3.637929
  0
VERTEX
  8
PLAN_1
  6
CONTINUOUS
 10
0.953055
 20
-3.639307
  0
VERTEX
  8
PLAN_1
  6
CONTINUOUS
 10
0.962264
 20
-3.639768
  0
VERTEX
  8
PLAN_1
  6
CONTINUOUS
 10
0.966870
 20
-3.639307
  0
VERTEX
  8
PLAN_1
  6
CONTINUOUS
 10
0.971933
 20
-3.639307
  0
VERTEX
  8
PLAN_1
  6
CONTINUOUS
 10
0.976539
 20
-3.638386
  0
VERTEX
  8
PLAN_1
  6
CONTINUOUS
 10
0.981142
 20
-3.637469
  0
VERTEX
  8
PLAN_1
  6
CONTINUOUS
 10
0.986209
 20
-3.636087
  0
VERTEX
  8
PLAN_1
  6
CONTINUOUS
 10
0.990811
 20
-3.634705
  0
VERTEX
  8
PLAN_1
  6
CONTINUOUS
 10
0.994957
 20
-3.632862
  0
VERTEX
  8
PLAN_1
  6
CONTINUOUS
 10
0.999559
 20
-3.631020
  0
VERTEX
  8
PLAN_1
  6
CONTINUOUS
 10
1.003705
 20
-3.629177
  0
VERTEX
  8
PLAN_1
  6
CONTINUOUS
 10
1.007850
 20
-3.626417
  0
VERTEX
  8
PLAN_1
  6
CONTINUOUS
 10
1.011992
 20
-3.624114
  0
VERTEX
  8
PLAN_1
  6
CONTINUOUS
 10
1.016138
 20
-3.621350
  0
VERTEX
  8
PLAN_1
  6
CONTINUOUS
 10
1.019823
 20
-3.618126
  0
VERTEX
  8
PLAN_1
  6
CONTINUOUS
 10
1.023043
 20
-3.614906
  0
VERTEX
  8
PLAN_1
  6
CONTINUOUS
 10
1.026268
 20
-3.611681
  0
VERTEX
  8
PLAN_1
  6
CONTINUOUS
 10
1.029492
 20
-3.607996
  0
VERTEX
  8
PLAN_1
  6
CONTINUOUS
 10
1.048370
 20
-3.607996
  0
VERTEX
  8
PLAN_1
  6
CONTINUOUS
 10
1.044685
 20
-3.613524
  0
VERTEX
  8
PLAN_1
  6
CONTINUOUS
 10
1.040543
 20
-3.618587
  0
VERTEX
  8
PLAN_1
  6
CONTINUOUS
 10
1.036398
 20
-3.623654
  0
VERTEX
  8
PLAN_1
  6
CONTINUOUS
 10
1.031791
 20
-3.628256
  0
VERTEX
  8
PLAN_1
  6
CONTINUOUS
 10
1.027189
 20
-3.632862
  0
VERTEX
  8
PLAN_1
  6
CONTINUOUS
 10
1.022122
 20
-3.636547
  0
VERTEX
  8
PLAN_1
  6
CONTINUOUS
 10
1.017059
 20
-3.640228
  0
VERTEX
  8
PLAN_1
  6
CONTINUOUS
 10
1.011531
 20
-3.643913
  0
VERTEX
  8
PLAN_1
  6
CONTINUOUS
 10
1.005547
 20
-3.646677
  0
VERTEX
  8
PLAN_1
  6
CONTINUOUS
 10
1.000020
 20
-3.649437
  0
VERTEX
  8
PLAN_1
  6
CONTINUOUS
 10
0.993575
 20
-3.651740
  0
VERTEX
  8
PLAN_1
  6
CONTINUOUS
 10
0.987591
 20
-3.653583
  0
VERTEX
  8
PLAN_1
  6
CONTINUOUS
 10
0.981142
 20
-3.654965
  0
VERTEX
  8
PLAN_1
  6
CONTINUOUS
 10
0.974697
 20
-3.655886
  0
VERTEX
  8
PLAN_1
  6
CONTINUOUS
 10
0.968252
 20
-3.656807
  0
VERTEX
  8
PLAN_1
  6
CONTINUOUS
 10
0.961343
 20
-3.656807
  0
VERTEX
  8
PLAN_1
  6
CONTINUOUS
 10
0.955819
 20
-3.656807
  0
VERTEX
  8
PLAN_1
  6
CONTINUOUS
 10
0.950752
 20
-3.656346
  0
VERTEX
  8
PLAN_1
  6
CONTINUOUS
 10
0.945228
 20
-3.655886
  0
VERTEX
  8
PLAN_1
  6
CONTINUOUS
 10
0.940161
 20
-3.654965
  0
VERTEX
  8
PLAN_1
  6
CONTINUOUS
 10
0.934638
 20
-3.653583
  0
VERTEX
  8
PLAN_1
  6
CONTINUOUS
 10
0.929571
 20
-3.652201
  0
VERTEX
  8
PLAN_1
  6
CONTINUOUS
 10
0.924969
 20
-3.650358
  0
VERTEX
  8
PLAN_1
  6
CONTINUOUS
 10
0.919902
 20
-3.648520
  0
VERTEX
  8
PLAN_1
  6
CONTINUOUS
 10
0.915299
 20
-3.646677
  0
VERTEX
  8
PLAN_1
  6
CONTINUOUS
 10
0.910693
 20
-3.644374
  0
VERTEX
  8
PLAN_1
  6
CONTINUOUS
 10
0.906091
 20
-3.641610
  0
VERTEX
  8
PLAN_1
  6
CONTINUOUS
 10
0.901945
 20
-3.639307
  0
VERTEX
  8
PLAN_1
  6
CONTINUOUS
 10
0.897799
 20
-3.636087
  0
VERTEX
  8
PLAN_1
  6
CONTINUOUS
 10
0.893657
 20
-3.632862
  0
VERTEX
  8
PLAN_1
  6
CONTINUOUS
 10
0.889972
 20
-3.629638
  0
VERTEX
  8
PLAN_1
  6
CONTINUOUS
 10
0.886287
 20
-3.626417
  0
VERTEX
  8
PLAN_1
  6
CONTINUOUS
 10
0.882606
 20
-3.622732
  0
VERTEX
  8
PLAN_1
  6
CONTINUOUS
 10
0.879382
 20
-3.619047
  0
VERTEX
  8
PLAN_1
  6
CONTINUOUS
 10
0.876157
 20
-3.614906
  0
VERTEX
  8
PLAN_1
  6
CONTINUOUS
 10
0.873398
 20
-3.610760
  0
VERTEX
  8
PLAN_1
  6
CONTINUOUS
 10
0.870634
 20
-3.606618
  0
VERTEX
  8
PLAN_1
  6
CONTINUOUS
 10
0.868331
 20
-3.602012
  0
VERTEX
  8
PLAN_1
  6
CONTINUOUS
 10
0.866028
 20
-3.597406
  0
VERTEX
  8
PLAN_1
  6
CONTINUOUS
 10
0.863728
 20
-3.592803
  0
VERTEX
  8
PLAN_1
  6
CONTINUOUS
 10
0.861886
 20
-3.588197
  0
VERTEX
  8
PLAN_1
  6
CONTINUOUS
 10
0.860043
 20
-3.583134
  0
VERTEX
  8
PLAN_1
  6
CONTINUOUS
 10
0.858661
 20
-3.578067
  0
VERTEX
  8
PLAN_1
  6
CONTINUOUS
 10
0.857740
 20
-3.573004
  0
VERTEX
  8
PLAN_1
  6
CONTINUOUS
 10
0.856819
 20
-3.567476
  0
VERTEX
  8
PLAN_1
  6
CONTINUOUS
 10
0.855898
 20
-3.562413
  0
VERTEX
  8
PLAN_1
  6
CONTINUOUS
 10
0.855898
 20
-3.556886
  0
VERTEX
  8
PLAN_1
  6
CONTINUOUS
 10
0.855437
 20
-3.551362
  0
VERTEX
  8
PLAN_1
  6
CONTINUOUS
 10
0.855898
 20
-3.545835
  0
VERTEX
  8
PLAN_1
  6
CONTINUOUS
 10
0.855898
 20
-3.540772
  0
VERTEX
  8
PLAN_1
  6
CONTINUOUS
 10
0.856819
 20
-3.535244
  0
VERTEX
  8
PLAN_1
  6
CONTINUOUS
 10
0.857740
 20
-3.530181
  0
VERTEX
  8
PLAN_1
  6
CONTINUOUS
 10
0.858661
 20
-3.525114
  0
VERTEX
  8
PLAN_1
  6
CONTINUOUS
 10
0.860504
 20
-3.520051
  0
VERTEX
  8
PLAN_1
  6
CONTINUOUS
 10
0.861886
 20
-3.515445
  0
VERTEX
  8
PLAN_1
  6
CONTINUOUS
 10
0.863728
 20
-3.510843
  0
VERTEX
  8
PLAN_1
  6
CONTINUOUS
 10
0.866028
 20
-3.505776
  0
VERTEX
  8
PLAN_1
  6
CONTINUOUS
 10
0.868331
 20
-3.501634
  0
VERTEX
  8
PLAN_1
  6
CONTINUOUS
 10
0.870634
 20
-3.497028
  0
VERTEX
  8
PLAN_1
  6
CONTINUOUS
 10
0.873398
 20
-3.492886
  0
VERTEX
  8
PLAN_1
  6
CONTINUOUS
 10
0.876618
 20
-3.488740
  0
VERTEX
  8
PLAN_1
  6
CONTINUOUS
 10
0.879843
 20
-3.485055
  0
VERTEX
  8
PLAN_1
  6
CONTINUOUS
 10
0.883067
 20
-3.480913
  0
VERTEX
  8
PLAN_1
  6
CONTINUOUS
 10
0.886287
 20
-3.477689
  0
VERTEX
  8
PLAN_1
  6
CONTINUOUS
 10
0.889972
 20
-3.474004
  0
VERTEX
  8
PLAN_1
  6
CONTINUOUS
 10
0.893657
 20
-3.470783
  0
VERTEX
  8
PLAN_1
  6
CONTINUOUS
 10
0.897799
 20
-3.467559
  0
VERTEX
  8
PLAN_1
  6
CONTINUOUS
 10
0.901945
 20
-3.464795
  0
VERTEX
  8
PLAN_1
  6
CONTINUOUS
 10
0.906091
 20
-3.462035
  0
VERTEX
  8
PLAN_1
  6
CONTINUOUS
 10
0.910693
 20
-3.459732
  0
VERTEX
  8
PLAN_1
  6
CONTINUOUS
 10
0.915299
 20
-3.457429
  0
VERTEX
  8
PLAN_1
  6
CONTINUOUS
 10
0.919902
 20
-3.455126
  0
VERTEX
  8
PLAN_1
  6
CONTINUOUS
 10
0.924508
 20
-3.453283
  0
VERTEX
  8
PLAN_1
  6
CONTINUOUS
 10
0.929110
 20
-3.451906
  0
VERTEX
  8
PLAN_1
  6
CONTINUOUS
 10
0.934177
 20
-3.450524
  0
VERTEX
  8
PLAN_1
  6
CONTINUOUS
 10
0.939240
 20
-3.449142
  0
VERTEX
  8
PLAN_1
  6
CONTINUOUS
 10
0.944307
 20
-3.448220
  0
VERTEX
  8
PLAN_1
  6
CONTINUOUS
 10
0.949370
 20
-3.447760
  0
VERTEX
  8
PLAN_1
  6
CONTINUOUS
 10
0.954898
 20
-3.447299
  0
VERTEX
  8
PLAN_1
  6
CONTINUOUS
 10
0.959961
 20
-3.446839
  0
VERTEX
  8
PLAN_1
  6
CONTINUOUS
 10
0.969630
 20
-3.447299
  0
VERTEX
  8
PLAN_1
  6
CONTINUOUS
 10
0.978839
 20
-3.448681
  0
VERTEX
  8
PLAN_1
  6
CONTINUOUS
 10
0.988051
 20
-3.450524
  0
VERTEX
  8
PLAN_1
  6
CONTINUOUS
 10
0.996799
 20
-3.453283
  0
VERTEX
  8
PLAN_1
  6
CONTINUOUS
 10
1.005087
 20
-3.456969
  0
VERTEX
  8
PLAN_1
  6
CONTINUOUS
 10
1.012913
 20
-3.461114
  0
VERTEX
  8
PLAN_1
  6
CONTINUOUS
 10
1.020280
 20
-3.466177
  0
VERTEX
  8
PLAN_1
  6
CONTINUOUS
 10
1.027189
 20
-3.471244
  0
VERTEX
  8
PLAN_1
  6
CONTINUOUS
 10
1.033173
 20
-3.477228
  0
VERTEX
  8
PLAN_1
  6
CONTINUOUS
 10
1.039161
 20
-3.484134
  0
VERTEX
  8
PLAN_1
  6
CONTINUOUS
 10
1.043764
 20
-3.491043
  0
VERTEX
  8
PLAN_1
  6
CONTINUOUS
 10
1.047909
 20
-3.498870
  0
VERTEX
  8
PLAN_1
  6
CONTINUOUS
 10
1.049752
 20
-3.503016
  0
VERTEX
  8
PLAN_1
  6
CONTINUOUS
 10
1.051134
 20
-3.506697
  0
VERTEX
  8
PLAN_1
  6
CONTINUOUS
 10
1.052512
 20
-3.511303
  0
VERTEX
  8
PLAN_1
  6
CONTINUOUS
 10
1.053433
 20
-3.515445
  0
VERTEX
  8
PLAN_1
  6
CONTINUOUS
 10
1.054354
 20
-3.520051
  0
VERTEX
  8
PLAN_1
  6
CONTINUOUS
 10
1.055276
 20
-3.524197
  0
VERTEX
  8
PLAN_1
  6
CONTINUOUS
 10
1.055736
 20
-3.528799
  0
VERTEX
  8
PLAN_1
  6
CONTINUOUS
 10
1.055736
 20
-3.533406
  0
VERTEX
  8
PLAN_1
  6
CONTINUOUS
 10
1.055736
 20
-3.538469
  0
VERTEX
  8
PLAN_1
  6
CONTINUOUS
 10
1.055276
 20
-3.542614
  0
VERTEX
  8
PLAN_1
  6
CONTINUOUS
 10
1.054815
 20
-3.547217
  0
VERTEX
  8
PLAN_1
  6
CONTINUOUS
 10
1.053894
 20
-3.551362
  0
VERTEX
  8
PLAN_1
  6
CONTINUOUS
 10
1.051591
 20
-3.559650
  0
VERTEX
  8
PLAN_1
  6
CONTINUOUS
 10
1.048831
 20
-3.567476
  0
VERTEX
  8
PLAN_1
  6
CONTINUOUS
 10
1.045146
 20
-3.574386
  0
VERTEX
  8
PLAN_1
  6
CONTINUOUS
 10
1.041000
 20
-3.581291
  0
VERTEX
  8
PLAN_1
  6
CONTINUOUS
 10
1.036858
 20
-3.587276
  0
VERTEX
  8
PLAN_1
  6
CONTINUOUS
 10
1.031791
 20
-3.592803
  0
VERTEX
  8
PLAN_1
  6
CONTINUOUS
 10
1.026728
 20
-3.597406
  0
VERTEX
  8
PLAN_1
  6
CONTINUOUS
 10
1.021201
 20
-3.601551
  0
VERTEX
  8
PLAN_1
  6
CONTINUOUS
 10
1.015677
 20
-3.605236
  0
VERTEX
  8
PLAN_1
  6
CONTINUOUS
 10
1.010150
 20
-3.608457
  0
VERTEX
  8
PLAN_1
  6
CONTINUOUS
 10
1.004626
 20
-3.610760
  0
VERTEX
  8
PLAN_1
  6
CONTINUOUS
 10
0.999102
 20
-3.612602
  0
VERTEX
  8
PLAN_1
  6
CONTINUOUS
 10
0.994035
 20
-3.613524
  0
VERTEX
  8
PLAN_1
  6
CONTINUOUS
 10
0.989429
 20
-3.613984
  0
VERTEX
  8
PLAN_1
  6
CONTINUOUS
 10
0.985748
 20
-3.613524
  0
VERTEX
  8
PLAN_1
  6
CONTINUOUS
 10
0.982524
 20
-3.612602
  0
VERTEX
  8
PLAN_1
  6
CONTINUOUS
 10
0.979760
 20
-3.611681
  0
VERTEX
  8
PLAN_1
  6
CONTINUOUS
 10
0.977000
 20
-3.609378
  0
VERTEX
  8
PLAN_1
  6
CONTINUOUS
 10
0.975157
 20
-3.607079
  0
VERTEX
  8
PLAN_1
  6
CONTINUOUS
 10
0.973315
 20
-3.604315
  0
VERTEX
  8
PLAN_1
  6
CONTINUOUS
 10
0.971933
 20
-3.600630
  0
VERTEX
  8
PLAN_1
  6
CONTINUOUS
 10
0.971472
 20
-3.596488
  0
VERTEX
  8
PLAN_1
  6
CONTINUOUS
 10
0.971012
 20
-3.596488
  0
VERTEX
  8
PLAN_1
  6
CONTINUOUS
 10
0.967791
 20
-3.599709
  0
VERTEX
  8
PLAN_1
  6
CONTINUOUS
 10
0.964106
 20
-3.602933
  0
VERTEX
  8
PLAN_1
  6
CONTINUOUS
 10
0.960421
 20
-3.605697
  0
VERTEX
  8
PLAN_1
  6
CONTINUOUS
 10
0.956280
 20
-3.608457
  0
VERTEX
  8
PLAN_1
  6
CONTINUOUS
 10
0.951673
 20
-3.610760
  0
VERTEX
  8
PLAN_1
  6
CONTINUOUS
 10
0.947071
 20
-3.612142
  0
VERTEX
  8
PLAN_1
  6
CONTINUOUS
 10
0.942465
 20
-3.613524
  0
VERTEX
  8
PLAN_1
  6
CONTINUOUS
 10
0.937858
 20
-3.613984
  0
VERTEX
  8
PLAN_1
  6
CONTINUOUS
 10
0.933256
 20
-3.613524
  0
VERTEX
  8
PLAN_1
  6
CONTINUOUS
 10
0.929110
 20
-3.613063
  0
VERTEX
  8
PLAN_1
  6
CONTINUOUS
 10
0.924969
 20
-3.611681
  0
VERTEX
  8
PLAN_1
  6
CONTINUOUS
 10
0.921283
 20
-3.610299
  0
VERTEX
  8
PLAN_1
  6
CONTINUOUS
 10
0.917598
 20
-3.608457
  0
VERTEX
  8
PLAN_1
  6
CONTINUOUS
 10
0.914378
 20
-3.606157
  0
VERTEX
  8
PLAN_1
  6
CONTINUOUS
 10
0.911154
 20
-3.603394
  0
VERTEX
  8
PLAN_1
  6
CONTINUOUS
 10
0.908390
 20
-3.600630
  0
VERTEX
  8
PLAN_1
  6
CONTINUOUS
 10
0.905630
 20
-3.597406
  0
VERTEX
  8
PLAN_1
  6
CONTINUOUS
 10
0.903327
 20
-3.594185
  0
VERTEX
  8
PLAN_1
  6
CONTINUOUS
 10
0.901484
 20
-3.590500
  0
VERTEX
  8
PLAN_1
  6
CONTINUOUS
 10
0.900102
 20
-3.586358
  0
VERTEX
  8
PLAN_1
  6
CONTINUOUS
 10
0.898720
 20
-3.582673
  0
VERTEX
  8
PLAN_1
  6
CONTINUOUS
 10
0.897799
 20
-3.578067
  0
VERTEX
  8
PLAN_1
  6
CONTINUOUS
 10
0.896878
 20
-3.573925
  0
VERTEX
  8
PLAN_1
  6
CONTINUOUS
 10
0.896878
 20
-3.569319
  0
VERTEX
  8
PLAN_1
  6
CONTINUOUS
 10
0.897339
 20
-3.562413
  0
VERTEX
  8
PLAN_1
  6
CONTINUOUS
 10
0.898260
 20
-3.555508
  0
VERTEX
  8
PLAN_1
  6
CONTINUOUS
 10
0.899642
 20
-3.548598
  0
VERTEX
  8
PLAN_1
  6
CONTINUOUS
 10
0.901484
 20
-3.541693
  0
VERTEX
  8
PLAN_1
  6
CONTINUOUS
 10
0.903787
 20
-3.535244
  0
VERTEX
  8
PLAN_1
  6
CONTINUOUS
 10
0.907008
 20
-3.528799
  0
VERTEX
  8
PLAN_1
  6
CONTINUOUS
 10
0.910693
 20
-3.522815
  0
VERTEX
  8
PLAN_1
  6
CONTINUOUS
 10
0.914378
 20
-3.517287
  0
VERTEX
  8
PLAN_1
  6
CONTINUOUS
 10
0.918980
 20
-3.511764
  0
VERTEX
  8
PLAN_1
  6
CONTINUOUS
 10
0.923587
 20
-3.507157
  0
VERTEX
  8
PLAN_1
  6
CONTINUOUS
 10
0.929110
 20
-3.503016
  0
VERTEX
  8
PLAN_1
  6
CONTINUOUS
 10
0.934638
 20
-3.499331
  0
VERTEX
  8
PLAN_1
  6
CONTINUOUS
 10
0.940622
 20
-3.496567
  0
VERTEX
  8
PLAN_1
  6
CONTINUOUS
 10
0.947071
 20
-3.494724
  0
VERTEX
  8
PLAN_1
  6
CONTINUOUS
 10
0.953976
 20
-3.493346
  0
VERTEX
  8
PLAN_1
  6
CONTINUOUS
 10
0.960882
 20
-3.492886
  0
VERTEX
  8
PLAN_1
  6
CONTINUOUS
 10
0.965949
 20
-3.493346
  0
VERTEX
  8
PLAN_1
  6
CONTINUOUS
 10
0.970551
 20
-3.493803
  0
VERTEX
  8
PLAN_1
  6
CONTINUOUS
 10
0.975157
 20
-3.495646
  0
VERTEX
  8
PLAN_1
  6
CONTINUOUS
 10
0.979299
 20
-3.497949
  0
VERTEX
  8
PLAN_1
  6
CONTINUOUS
 10
0.982984
 20
-3.500713
  0
VERTEX
  8
PLAN_1
  6
CONTINUOUS
 10
0.986669
 20
-3.504394
  0
VERTEX
  8
PLAN_1
  6
CONTINUOUS
 10
0.989890
 20
-3.509000
  0
VERTEX
  8
PLAN_1
  6
CONTINUOUS
 10
0.993114
 20
-3.514524
  0
VERTEX
  8
PLAN_1
  6
CONTINUOUS
 10
0.998642
 20
-3.497488
  0
SEQEND
  8
0
  0
POLYLINE
  8
PLAN_1
  6
CONTINUOUS
 66
     1
 40
0.003000
 41
0.003000
  0
VERTEX
  8
PLAN_1
  6
CONTINUOUS
 10
0.961343
 20
-3.512685
  0
VERTEX
  8
PLAN_1
  6
CONTINUOUS
 10
0.957201
 20
-3.513146
  0
VERTEX
  8
PLAN_1
  6
CONTINUOUS
 10
0.952594
 20
-3.514067
  0
VERTEX
  8
PLAN_1
  6
CONTINUOUS
 10
0.948449
 20
-3.515906
  0
VERTEX
  8
PLAN_1
  6
CONTINUOUS
 10
0.944768
 20
-3.518209
  0
VERTEX
  8
PLAN_1
  6
CONTINUOUS
 10
0.941083
 20
-3.520512
  0
VERTEX
  8
PLAN_1
  6
CONTINUOUS
 10
0.937402
 20
-3.523736
  0
VERTEX
  8
PLAN_1
  6
CONTINUOUS
 10
0.934177
 20
-3.527417
  0
VERTEX
  8
PLAN_1
  6
CONTINUOUS
 10
0.931413
 20
-3.531102
  0
VERTEX
  8
PLAN_1
  6
CONTINUOUS
 10
0.928650
 20
-3.535244
  0
VERTEX
  8
PLAN_1
  6
CONTINUOUS
 10
0.926350
 20
-3.539850
  0
VERTEX
  8
PLAN_1
  6
CONTINUOUS
 10
0.924508
 20
-3.543996
  0
VERTEX
  8
PLAN_1
  6
CONTINUOUS
 10
0.922665
 20
-3.548598
  0
VERTEX
  8
PLAN_1
  6
CONTINUOUS
 10
0.921283
 20
-3.553205
  0
VERTEX
  8
PLAN_1
  6
CONTINUOUS
 10
0.920362
 20
-3.557807
  0
VERTEX
  8
PLAN_1
  6
CONTINUOUS
 10
0.919902
 20
-3.562413
  0
VERTEX
  8
PLAN_1
  6
CONTINUOUS
 10
0.919441
 20
-3.567016
  0
VERTEX
  8
PLAN_1
  6
CONTINUOUS
 10
0.919902
 20
-3.572543
  0
VERTEX
  8
PLAN_1
  6
CONTINUOUS
 10
0.921283
 20
-3.577606
  0
VERTEX
  8
PLAN_1
  6
CONTINUOUS
 10
0.922205
 20
-3.580370
  0
VERTEX
  8
PLAN_1
  6
CONTINUOUS
 10
0.923587
 20
-3.582213
  0
VERTEX
  8
PLAN_1
  6
CONTINUOUS
 10
0.924508
 20
-3.584516
  0
VERTEX
  8
PLAN_1
  6
CONTINUOUS
 10
0.925890
 20
-3.586358
  0
VERTEX
  8
PLAN_1
  6
CONTINUOUS
 10
0.927728
 20
-3.588197
  0
VERTEX
  8
PLAN_1
  6
CONTINUOUS
 10
0.929571
 20
-3.589579
  0
VERTEX
  8
PLAN_1
  6
CONTINUOUS
 10
0.931413
 20
-3.590961
  0
VERTEX
  8
PLAN_1
  6
CONTINUOUS
 10
0.933256
 20
-3.591882
  0
VERTEX
  8
PLAN_1
  6
CONTINUOUS
 10
0.935559
 20
-3.592803
  0
VERTEX
  8
PLAN_1
  6
CONTINUOUS
 10
0.937858
 20
-3.593264
  0
VERTEX
  8
PLAN_1
  6
CONTINUOUS
 10
0.940622
 20
-3.593724
  0
VERTEX
  8
PLAN_1
  6
CONTINUOUS
 10
0.942925
 20
-3.593724
  0
VERTEX
  8
PLAN_1
  6
CONTINUOUS
 10
0.947531
 20
-3.593264
  0
VERTEX
  8
PLAN_1
  6
CONTINUOUS
 10
0.951673
 20
-3.592343
  0
VERTEX
  8
PLAN_1
  6
CONTINUOUS
 10
0.955358
 20
-3.590500
  0
VERTEX
  8
PLAN_1
  6
CONTINUOUS
 10
0.959500
 20
-3.588197
  0
VERTEX
  8
PLAN_1
  6
CONTINUOUS
 10
0.963185
 20
-3.585437
  0
VERTEX
  8
PLAN_1
  6
CONTINUOUS
 10
0.966409
 20
-3.582213
  0
VERTEX
  8
PLAN_1
  6
CONTINUOUS
 10
0.969630
 20
-3.578528
  0
VERTEX
  8
PLAN_1
  6
CONTINUOUS
 10
0.972394
 20
-3.574386
  0
VERTEX
  8
PLAN_1
  6
CONTINUOUS
 10
0.975157
 20
-3.570240
  0
VERTEX
  8
PLAN_1
  6
CONTINUOUS
 10
0.977461
 20
-3.565638
  0
VERTEX
  8
PLAN_1
  6
CONTINUOUS
 10
0.979299
 20
-3.561031
  0
VERTEX
  8
PLAN_1
  6
CONTINUOUS
 10
0.981142
 20
-3.556425
  0
VERTEX
  8
PLAN_1
  6
CONTINUOUS
 10
0.982524
 20
-3.551823
  0
VERTEX
  8
PLAN_1
  6
CONTINUOUS
 10
0.983445
 20
-3.547217
  0
VERTEX
  8
PLAN_1
  6
CONTINUOUS
 10
0.983906
 20
-3.542614
  0
VERTEX
  8
PLAN_1
  6
CONTINUOUS
 10
0.984366
 20
-3.538469
  0
VERTEX
  8
PLAN_1
  6
CONTINUOUS
 10
0.983906
 20
-3.533406
  0
VERTEX
  8
PLAN_1
  6
CONTINUOUS
 10
0.982524
 20
-3.528799
  0
VERTEX
  8
PLAN_1
  6
CONTINUOUS
 10
0.980220
 20
-3.524197
  0
VERTEX
  8
PLAN_1
  6
CONTINUOUS
 10
0.977461
 20
-3.520512
  0
VERTEX
  8
PLAN_1
  6
CONTINUOUS
 10
0.974236
 20
-3.517287
  0
VERTEX
  8
PLAN_1
  6
CONTINUOUS
 10
0.970091
 20
-3.514984
  0
VERTEX
  8
PLAN_1
  6
CONTINUOUS
 10
0.968252
 20
-3.514067
  0
VERTEX
  8
PLAN_1
  6
CONTINUOUS
 10
0.965949
 20
-3.513146
  0
VERTEX
  8
PLAN_1
  6
CONTINUOUS
 10
0.963646
 20
-3.513146
  0
VERTEX
  8
PLAN_1
  6
CONTINUOUS
 10
0.961343
 20
-3.512685
  0
SEQEND
  8
0
  0
SOLID
  8
PLAN_1
 10
1.096717
 20
-3.686276
 11
1.096717
 21
-3.672461
 12
1.250969
 22
-3.686276
 13
1.250969
 23
-3.672461
  0
POLYLINE
  8
PLAN_1
  6
CONTINUOUS
 66
     1
 40
0.003000
 41
0.003000
  0
VERTEX
  8
PLAN_1
  6
CONTINUOUS
 10
1.096717
 20
-3.686276
  0
VERTEX
  8
PLAN_1
  6
CONTINUOUS
 10
1.096717
 20
-3.672461
  0
VERTEX
  8
PLAN_1
  6
CONTINUOUS
 10
1.250969
 20
-3.672461
  0
VERTEX
  8
PLAN_1
  6
CONTINUOUS
 10
1.250969
 20
-3.686276
  0
VERTEX
  8
PLAN_1
  6
CONTINUOUS
 10
1.096717
 20
-3.686276
  0
SEQEND
  8
0
  0
SOLID
  8
PLAN_1
 10
1.250969
 20
-3.686276
 11
1.250969
 21
-3.672461
 12
1.405220
 22
-3.686276
 13
1.405220
 23
-3.672461
  0
POLYLINE
  8
PLAN_1
  6
CONTINUOUS
 66
     1
 40
0.003000
 41
0.003000
  0
VERTEX
  8
PLAN_1
  6
CONTINUOUS
 10
1.250969
 20
-3.686276
  0
VERTEX
  8
PLAN_1
  6
CONTINUOUS
 10
1.250969
 20
-3.672461
  0
VERTEX
  8
PLAN_1
  6
CONTINUOUS
 10
1.405220
 20
-3.672461
  0
VERTEX
  8
PLAN_1
  6
CONTINUOUS
 10
1.405220
 20
-3.686276
  0
VERTEX
  8
PLAN_1
  6
CONTINUOUS
 10
1.250969
 20
-3.686276
  0
SEQEND
  8
0
  0
POLYLINE
  8
PLAN_1
  6
CONTINUOUS
 66
     1
 40
0.003000
 41
0.003000
  0
VERTEX
  8
PLAN_1
  6
CONTINUOUS
 10
1.456331
 20
-3.651740
  0
VERTEX
  8
PLAN_1
  6
CONTINUOUS
 10
1.429165
 20
-3.651740
  0
VERTEX
  8
PLAN_1
  6
CONTINUOUS
 10
1.429165
 20
-3.452362
  0
VERTEX
  8
PLAN_1
  6
CONTINUOUS
 10
1.567303
 20
-3.452362
  0
VERTEX
  8
PLAN_1
  6
CONTINUOUS
 10
1.567303
 20
-3.476307
  0
VERTEX
  8
PLAN_1
  6
CONTINUOUS
 10
1.456331
 20
-3.476307
  0
VERTEX
  8
PLAN_1
  6
CONTINUOUS
 10
1.456331
 20
-3.537087
  0
VERTEX
  8
PLAN_1
  6
CONTINUOUS
 10
1.553949
 20
-3.537087
  0
VERTEX
  8
PLAN_1
  6
CONTINUOUS
 10
1.553949
 20
-3.561031
  0
VERTEX
  8
PLAN_1
  6
CONTINUOUS
 10
1.456331
 20
-3.561031
  0
VERTEX
  8
PLAN_1
  6
CONTINUOUS
 10
1.456331
 20
-3.651740
  0
SEQEND
  8
0
  0
SOLID
  8
PLAN_1
 10
1.586181
 20
-3.651740
 11
1.557634
 21
-3.651740
 12
1.586181
 22
-3.622272
 13
1.557634
 23
-3.622272
  0
POLYLINE
  8
PLAN_1
  6
CONTINUOUS
 66
     1
 40
0.003000
 41
0.003000
  0
VERTEX
  8
PLAN_1
  6
CONTINUOUS
 10
1.586181
 20
-3.651740
  0
VERTEX
  8
PLAN_1
  6
CONTINUOUS
 10
1.557634
 20
-3.651740
  0
VERTEX
  8
PLAN_1
  6
CONTINUOUS
 10
1.557634
 20
-3.622272
  0
VERTEX
  8
PLAN_1
  6
CONTINUOUS
 10
1.586181
 20
-3.622272
  0
VERTEX
  8
PLAN_1
  6
CONTINUOUS
 10
1.586181
 20
-3.651740
  0
SEQEND
  8
0
  0
POLYLINE
  8
PLAN_1
  6
CONTINUOUS
 66
     1
 40
0.003000
 41
0.003000
  0
VERTEX
  8
PLAN_1
  6
CONTINUOUS
 10
1.781413
 20
-3.651740
  0
VERTEX
  8
PLAN_1
  6
CONTINUOUS
 10
1.634528
 20
-3.651740
  0
VERTEX
  8
PLAN_1
  6
CONTINUOUS
 10
1.634528
 20
-3.452362
  0
VERTEX
  8
PLAN_1
  6
CONTINUOUS
 10
1.779571
 20
-3.452362
  0
VERTEX
  8
PLAN_1
  6
CONTINUOUS
 10
1.779571
 20
-3.476307
  0
VERTEX
  8
PLAN_1
  6
CONTINUOUS
 10
1.661236
 20
-3.476307
  0
VERTEX
  8
PLAN_1
  6
CONTINUOUS
 10
1.661236
 20
-3.537087
  0
VERTEX
  8
PLAN_1
  6
CONTINUOUS
 10
1.770362
 20
-3.537087
  0
VERTEX
  8
PLAN_1
  6
CONTINUOUS
 10
1.770362
 20
-3.561031
  0
VERTEX
  8
PLAN_1
  6
CONTINUOUS
 10
1.661236
 20
-3.561031
  0
VERTEX
  8
PLAN_1
  6
CONTINUOUS
 10
1.661236
 20
-3.627799
  0
VERTEX
  8
PLAN_1
  6
CONTINUOUS
 10
1.781413
 20
-3.627799
  0
VERTEX
  8
PLAN_1
  6
CONTINUOUS
 10
1.781413
 20
-3.651740
  0
SEQEND
  8
0
  0
POLYLINE
  8
PLAN_1
  6
CONTINUOUS
 66
     1
 40
0.003000
 41
0.003000
  0
VERTEX
  8
PLAN_1
  6
CONTINUOUS
 10
1.846339
 20
-3.651740
  0
VERTEX
  8
PLAN_1
  6
CONTINUOUS
 10
1.819630
 20
-3.651740
  0
VERTEX
  8
PLAN_1
  6
CONTINUOUS
 10
1.819630
 20
-3.452362
  0
VERTEX
  8
PLAN_1
  6
CONTINUOUS
 10
1.909421
 20
-3.452362
  0
VERTEX
  8
PLAN_1
  6
CONTINUOUS
 10
1.915866
 20
-3.452362
  0
VERTEX
  8
PLAN_1
  6
CONTINUOUS
 10
1.922311
 20
-3.453283
  0
VERTEX
  8
PLAN_1
  6
CONTINUOUS
 10
1.928299
 20
-3.454665
  0
VERTEX
  8
PLAN_1
  6
CONTINUOUS
 10
1.933823
 20
-3.456508
  0
VERTEX
  8
PLAN_1
  6
CONTINUOUS
 10
1.939350
 20
-3.458811
  0
VERTEX
  8
PLAN_1
  6
CONTINUOUS
 10
1.943953
 20
-3.461575
  0
VERTEX
  8
PLAN_1
  6
CONTINUOUS
 10
1.948559
 20
-3.464795
  0
VERTEX
  8
PLAN_1
  6
CONTINUOUS
 10
1.952701
 20
-3.468480
  0
VERTEX
  8
PLAN_1
  6
CONTINUOUS
 10
1.956386
 20
-3.472165
  0
VERTEX
  8
PLAN_1
  6
CONTINUOUS
 10
1.959150
 20
-3.476307
  0
VERTEX
  8
PLAN_1
  6
CONTINUOUS
 10
1.961909
 20
-3.480913
  0
VERTEX
  8
PLAN_1
  6
CONTINUOUS
 10
1.964213
 20
-3.485976
  0
VERTEX
  8
PLAN_1
  6
CONTINUOUS
 10
1.966055
 20
-3.491043
  0
VERTEX
  8
PLAN_1
  6
CONTINUOUS
 10
1.967437
 20
-3.496567
  0
VERTEX
  8
PLAN_1
  6
CONTINUOUS
 10
1.967898
 20
-3.502555
  0
VERTEX
  8
PLAN_1
  6
CONTINUOUS
 10
1.968358
 20
-3.508539
  0
VERTEX
  8
PLAN_1
  6
CONTINUOUS
 10
1.968358
 20
-3.513606
  0
VERTEX
  8
PLAN_1
  6
CONTINUOUS
 10
1.967437
 20
-3.518669
  0
VERTEX
  8
PLAN_1
  6
CONTINUOUS
 10
1.966516
 20
-3.524197
  0
VERTEX
  8
PLAN_1
  6
CONTINUOUS
 10
1.965134
 20
-3.529260
  0
VERTEX
  8
PLAN_1
  6
CONTINUOUS
 10
1.963291
 20
-3.534327
  0
VERTEX
  8
PLAN_1
  6
CONTINUOUS
 10
1.960992
 20
-3.539390
  0
VERTEX
  8
PLAN_1
  6
CONTINUOUS
 10
1.958228
 20
-3.543996
  0
VERTEX
  8
PLAN_1
  6
CONTINUOUS
 10
1.955004
 20
-3.548138
  0
VERTEX
  8
PLAN_1
  6
CONTINUOUS
 10
1.951319
 20
-3.552283
  0
VERTEX
  8
PLAN_1
  6
CONTINUOUS
 10
1.946717
 20
-3.555965
  0
VERTEX
  8
PLAN_1
  6
CONTINUOUS
 10
1.942110
 20
-3.559189
  0
VERTEX
  8
PLAN_1
  6
CONTINUOUS
 10
1.936587
 20
-3.561953
  0
VERTEX
  8
PLAN_1
  6
CONTINUOUS
 10
1.930598
 20
-3.564256
  0
VERTEX
  8
PLAN_1
  6
CONTINUOUS
 10
1.924154
 20
-3.566094
  0
VERTEX
  8
PLAN_1
  6
CONTINUOUS
 10
1.916787
 20
-3.567016
  0
VERTEX
  8
PLAN_1
  6
CONTINUOUS
 10
1.909421
 20
-3.567476
  0
VERTEX
  8
PLAN_1
  6
CONTINUOUS
 10
1.846339
 20
-3.567476
  0
VERTEX
  8
PLAN_1
  6
CONTINUOUS
 10
1.846339
 20
-3.651740
  0
SEQEND
  8
0
  0
POLYLINE
  8
PLAN_1
  6
CONTINUOUS
 66
     1
 40
0.003000
 41
0.003000
  0
VERTEX
  8
PLAN_1
  6
CONTINUOUS
 10
1.846339
 20
-3.544457
  0
VERTEX
  8
PLAN_1
  6
CONTINUOUS
 10
1.900209
 20
-3.544457
  0
VERTEX
  8
PLAN_1
  6
CONTINUOUS
 10
1.904354
 20
-3.544457
  0
VERTEX
  8
PLAN_1
  6
CONTINUOUS
 10
1.908961
 20
-3.543996
  0
VERTEX
  8
PLAN_1
  6
CONTINUOUS
 10
1.912642
 20
-3.543535
  0
VERTEX
  8
PLAN_1
  6
CONTINUOUS
 10
1.916787
 20
-3.542614
  0
VERTEX
  8
PLAN_1
  6
CONTINUOUS
 10
1.920012
 20
-3.541693
  0
VERTEX
  8
PLAN_1
  6
CONTINUOUS
 10
1.923693
 20
-3.540311
  0
VERTEX
  8
PLAN_1
  6
CONTINUOUS
 10
1.926457
 20
-3.538469
  0
VERTEX
  8
PLAN_1
  6
CONTINUOUS
 10
1.929220
 20
-3.536626
  0
VERTEX
  8
PLAN_1
  6
CONTINUOUS
 10
1.931980
 20
-3.534327
  0
VERTEX
  8
PLAN_1
  6
CONTINUOUS
 10
1.934283
 20
-3.532024
  0
VERTEX
  8
PLAN_1
  6
CONTINUOUS
 10
1.936126
 20
-3.528799
  0
VERTEX
  8
PLAN_1
  6
CONTINUOUS
 10
1.937508
 20
-3.525575
  0
VERTEX
  8
PLAN_1
  6
CONTINUOUS
 10
1.938890
 20
-3.521894
  0
VERTEX
  8
PLAN_1
  6
CONTINUOUS
 10
1.939811
 20
-3.517748
  0
VERTEX
  8
PLAN_1
  6
CONTINUOUS
 10
1.940272
 20
-3.513606
  0
VERTEX
  8
PLAN_1
  6
CONTINUOUS
 10
1.940732
 20
-3.508539
  0
VERTEX
  8
PLAN_1
  6
CONTINUOUS
 10
1.940272
 20
-3.503933
  0
VERTEX
  8
PLAN_1
  6
CONTINUOUS
 10
1.939811
 20
-3.499791
  0
VERTEX
  8
PLAN_1
  6
CONTINUOUS
 10
1.938890
 20
-3.496106
  0
VERTEX
  8
PLAN_1
  6
CONTINUOUS
 10
1.937508
 20
-3.492886
  0
VERTEX
  8
PLAN_1
  6
CONTINUOUS
 10
1.936126
 20
-3.489661
  0
VERTEX
  8
PLAN_1
  6
CONTINUOUS
 10
1.933823
 20
-3.486898
  0
VERTEX
  8
PLAN_1
  6
CONTINUOUS
 10
1.931520
 20
-3.484594
  0
VERTEX
  8
PLAN_1
  6
CONTINUOUS
 10
1.929220
 20
-3.482756
  0
VERTEX
  8
PLAN_1
  6
CONTINUOUS
 10
1.926457
 20
-3.480913
  0
VERTEX
  8
PLAN_1
  6
CONTINUOUS
 10
1.923232
 20
-3.479071
  0
VERTEX
  8
PLAN_1
  6
CONTINUOUS
 10
1.920012
 20
-3.478150
  0
VERTEX
  8
PLAN_1
  6
CONTINUOUS
 10
1.916787
 20
-3.477228
  0
VERTEX
  8
PLAN_1
  6
CONTINUOUS
 10
1.913102
 20
-3.476307
  0
VERTEX
  8
PLAN_1
  6
CONTINUOUS
 10
1.909421
 20
-3.475846
  0
VERTEX
  8
PLAN_1
  6
CONTINUOUS
 10
1.905276
 20
-3.475386
  0
VERTEX
  8
PLAN_1
  6
CONTINUOUS
 10
1.901130
 20
-3.475386
  0
VERTEX
  8
PLAN_1
  6
CONTINUOUS
 10
1.846339
 20
-3.475386
  0
VERTEX
  8
PLAN_1
  6
CONTINUOUS
 10
1.846339
 20
-3.544457
  0
SEQEND
  8
0
  0
POLYLINE
  8
PLAN_1
  6
CONTINUOUS
 66
     1
 40
0.003000
 41
0.003000
  0
VERTEX
  8
PLAN_1
  6
CONTINUOUS
 10
2.122150
 20
-3.510382
  0
VERTEX
  8
PLAN_1
  6
CONTINUOUS
 10
2.121689
 20
-3.504854
  0
VERTEX
  8
PLAN_1
  6
CONTINUOUS
 10
2.120768
 20
-3.499791
  0
VERTEX
  8
PLAN_1
  6
CONTINUOUS
 10
2.118925
 20
-3.495646
  0
VERTEX
  8
PLAN_1
  6
CONTINUOUS
 10
2.117083
 20
-3.491043
  0
VERTEX
  8
PLAN_1
  6
CONTINUOUS
 10
2.114783
 20
-3.487358
  0
VERTEX
  8
PLAN_1
  6
CONTINUOUS
 10
2.112020
 20
-3.484134
  0
VERTEX
  8
PLAN_1
  6
CONTINUOUS
 10
2.108795
 20
-3.481374
  0
VERTEX
  8
PLAN_1
  6
CONTINUOUS
 10
2.105575
 20
-3.478610
  0
VERTEX
  8
PLAN_1
  6
CONTINUOUS
 10
2.101890
 20
-3.476768
  0
VERTEX
  8
PLAN_1
  6
CONTINUOUS
 10
2.097744
 20
-3.474925
  0
VERTEX
  8
PLAN_1
  6
CONTINUOUS
 10
2.094063
 20
-3.473083
  0
VERTEX
  8
PLAN_1
  6
CONTINUOUS
 10
2.089917
 20
-3.472165
  0
VERTEX
  8
PLAN_1
  6
CONTINUOUS
 10
2.085772
 20
-3.471244
  0
VERTEX
  8
PLAN_1
  6
CONTINUOUS
 10
2.081169
 20
-3.470323
  0
VERTEX
  8
PLAN_1
  6
CONTINUOUS
 10
2.077024
 20
-3.470323
  0
VERTEX
  8
PLAN_1
  6
CONTINUOUS
 10
2.072882
 20
-3.469862
  0
VERTEX
  8
PLAN_1
  6
CONTINUOUS
 10
2.065972
 20
-3.470323
  0
VERTEX
  8
PLAN_1
  6
CONTINUOUS
 10
2.058606
 20
-3.471244
  0
VERTEX
  8
PLAN_1
  6
CONTINUOUS
 10
2.054921
 20
-3.472165
  0
VERTEX
  8
PLAN_1
  6
CONTINUOUS
 10
2.050780
 20
-3.473083
  0
VERTEX
  8
PLAN_1
  6
CONTINUOUS
 10
2.047094
 20
-3.474465
  0
VERTEX
  8
PLAN_1
  6
CONTINUOUS
 10
2.043874
 20
-3.476307
  0
VERTEX
  8
PLAN_1
  6
CONTINUOUS
 10
2.040189
 20
-3.478150
  0
VERTEX
  8
PLAN_1
  6
CONTINUOUS
 10
2.037425
 20
-3.480913
  0
VERTEX
  8
PLAN_1
  6
CONTINUOUS
 10
2.034201
 20
-3.483673
  0
VERTEX
  8
PLAN_1
  6
CONTINUOUS
 10
2.031902
 20
-3.486898
  0
VERTEX
  8
PLAN_1
  6
CONTINUOUS
 10
2.030059
 20
-3.490583
  0
VERTEX
  8
PLAN_1
  6
CONTINUOUS
 10
2.028677
 20
-3.494724
  0
VERTEX
  8
PLAN_1
  6
CONTINUOUS
 10
2.027756
 20
-3.499791
  0
VERTEX
  8
PLAN_1
  6
CONTINUOUS
 10
2.027295
 20
-3.504854
  0
VERTEX
  8
PLAN_1
  6
CONTINUOUS
 10
2.027295
 20
-3.508079
  0
VERTEX
  8
PLAN_1
  6
CONTINUOUS
 10
2.027756
 20
-3.510843
  0
VERTEX
  8
PLAN_1
  6
CONTINUOUS
 10
2.028217
 20
-3.513606
  0
VERTEX
  8
PLAN_1
  6
CONTINUOUS
 10
2.029138
 20
-3.515906
  0
VERTEX
  8
PLAN_1
  6
CONTINUOUS
 10
2.030520
 20
-3.517748
  0
VERTEX
  8
PLAN_1
  6
CONTINUOUS
 10
2.031441
 20
-3.519591
  0
VERTEX
  8
PLAN_1
  6
CONTINUOUS
 10
2.033283
 20
-3.521433
  0
VERTEX
  8
PLAN_1
  6
CONTINUOUS
 10
2.034661
 20
-3.522815
  0
VERTEX
  8
PLAN_1
  6
CONTINUOUS
 10
2.038346
 20
-3.525575
  0
VERTEX
  8
PLAN_1
  6
CONTINUOUS
 10
2.042031
 20
-3.527417
  0
VERTEX
  8
PLAN_1
  6
CONTINUOUS
 10
2.046634
 20
-3.529260
  0
VERTEX
  8
PLAN_1
  6
CONTINUOUS
 10
2.050780
 20
-3.530181
  0
VERTEX
  8
PLAN_1
  6
CONTINUOUS
 10
2.107874
 20
-3.543535
  0
VERTEX
  8
PLAN_1
  6
CONTINUOUS
 10
2.112480
 20
-3.544457
  0
VERTEX
  8
PLAN_1
  6
CONTINUOUS
 10
2.117083
 20
-3.546295
  0
VERTEX
  8
PLAN_1
  6
CONTINUOUS
 10
2.121689
 20
-3.547677
  0
VERTEX
  8
PLAN_1
  6
CONTINUOUS
 10
2.125835
 20
-3.549980
  0
VERTEX
  8
PLAN_1
  6
CONTINUOUS
 10
2.129516
 20
-3.551823
  0
VERTEX
  8
PLAN_1
  6
CONTINUOUS
 10
2.133201
 20
-3.554587
  0
VERTEX
  8
PLAN_1
  6
CONTINUOUS
 10
2.136886
 20
-3.557346
  0
VERTEX
  8
PLAN_1
  6
CONTINUOUS
 10
2.140106
 20
-3.560571
  0
VERTEX
  8
PLAN_1
  6
CONTINUOUS
 10
2.142870
 20
-3.563795
  0
VERTEX
  8
PLAN_1
  6
CONTINUOUS
 10
2.145634
 20
-3.567476
  0
VERTEX
  8
PLAN_1
  6
CONTINUOUS
 10
2.147476
 20
-3.571622
  0
VERTEX
  8
PLAN_1
  6
CONTINUOUS
 10
2.149776
 20
-3.575768
  0
VERTEX
  8
PLAN_1
  6
CONTINUOUS
 10
2.151157
 20
-3.580370
  0
VERTEX
  8
PLAN_1
  6
CONTINUOUS
 10
2.152079
 20
-3.585437
  0
VERTEX
  8
PLAN_1
  6
CONTINUOUS
 10
2.153000
 20
-3.590961
  0
VERTEX
  8
PLAN_1
  6
CONTINUOUS
 10
2.153000
 20
-3.596488
  0
VERTEX
  8
PLAN_1
  6
CONTINUOUS
 10
2.153000
 20
-3.601091
  0
VERTEX
  8
PLAN_1
  6
CONTINUOUS
 10
2.152539
 20
-3.605236
  0
VERTEX
  8
PLAN_1
  6
CONTINUOUS
 10
2.152079
 20
-3.608917
  0
VERTEX
  8
PLAN_1
  6
CONTINUOUS
 10
2.151157
 20
-3.612602
  0
VERTEX
  8
PLAN_1
  6
CONTINUOUS
 10
2.149776
 20
-3.616287
  0
VERTEX
  8
PLAN_1
  6
CONTINUOUS
 10
2.148854
 20
-3.619508
  0
VERTEX
  8
PLAN_1
  6
CONTINUOUS
 10
2.147476
 20
-3.622732
  0
VERTEX
  8
PLAN_1
  6
CONTINUOUS
 10
2.145634
 20
-3.625957
  0
VERTEX
  8
PLAN_1
  6
CONTINUOUS
 10
2.141949
 20
-3.631480
  0
VERTEX
  8
PLAN_1
  6
CONTINUOUS
 10
2.137346
 20
-3.636547
  0
VERTEX
  8
PLAN_1
  6
CONTINUOUS
 10
2.132280
 20
-3.640689
  0
VERTEX
  8
PLAN_1
  6
CONTINUOUS
 10
2.126756
 20
-3.644374
  0
VERTEX
  8
PLAN_1
  6
CONTINUOUS
 10
2.120768
 20
-3.647598
  0
VERTEX
  8
PLAN_1
  6
CONTINUOUS
 10
2.114783
 20
-3.650358
  0
VERTEX
  8
PLAN_1
  6
CONTINUOUS
 10
2.108335
 20
-3.652201
  0
VERTEX
  8
PLAN_1
  6
CONTINUOUS
 10
2.101429
 20
-3.654043
  0
VERTEX
  8
PLAN_1
  6
CONTINUOUS
 10
2.094984
 20
-3.655425
  0
VERTEX
  8
PLAN_1
  6
CONTINUOUS
 10
2.088075
 20
-3.656346
  0
VERTEX
  8
PLAN_1
  6
CONTINUOUS
 10
2.081630
 20
-3.656807
  0
VERTEX
  8
PLAN_1
  6
CONTINUOUS
 10
2.075185
 20
-3.656807
  0
VERTEX
  8
PLAN_1
  6
CONTINUOUS
 10
2.068276
 20
-3.656807
  0
VERTEX
  8
PLAN_1
  6
CONTINUOUS
 10
2.062291
 20
-3.656346
  0
VERTEX
  8
PLAN_1
  6
CONTINUOUS
 10
2.056303
 20
-3.655886
  0
VERTEX
  8
PLAN_1
  6
CONTINUOUS
 10
2.051240
 20
-3.654965
  0
VERTEX
  8
PLAN_1
  6
CONTINUOUS
 10
2.046634
 20
-3.654043
  0
VERTEX
  8
PLAN_1
  6
CONTINUOUS
 10
2.042031
 20
-3.653122
  0
VERTEX
  8
PLAN_1
  6
CONTINUOUS
 10
2.037886
 20
-3.651740
  0
VERTEX
  8
PLAN_1
  6
CONTINUOUS
 10
2.034201
 20
-3.650358
  0
VERTEX
  8
PLAN_1
  6
CONTINUOUS
 10
2.028217
 20
-3.647138
  0
VERTEX
  8
PLAN_1
  6
CONTINUOUS
 10
2.022693
 20
-3.643913
  0
VERTEX
  8
PLAN_1
  6
CONTINUOUS
 10
2.018547
 20
-3.640689
  0
VERTEX
  8
PLAN_1
  6
CONTINUOUS
 10
2.014862
 20
-3.637929
  0
VERTEX
  8
PLAN_1
  6
CONTINUOUS
 10
2.011642
 20
-3.634705
  0
VERTEX
  8
PLAN_1
  6
CONTINUOUS
 10
2.008878
 20
-3.631941
  0
VERTEX
  8
PLAN_1
  6
CONTINUOUS
 10
2.006575
 20
-3.629177
  0
VERTEX
  8
PLAN_1
  6
CONTINUOUS
 10
2.004272
 20
-3.625957
  0
VERTEX
  8
PLAN_1
  6
CONTINUOUS
 10
2.001051
 20
-3.619969
  0
VERTEX
  8
PLAN_1
  6
CONTINUOUS
 10
1.998287
 20
-3.613524
  0
VERTEX
  8
PLAN_1
  6
CONTINUOUS
 10
1.996445
 20
-3.607535
  0
VERTEX
  8
PLAN_1
  6
CONTINUOUS
 10
1.995524
 20
-3.600630
  0
VERTEX
  8
PLAN_1
  6
CONTINUOUS
 10
1.994602
 20
-3.594185
  0
VERTEX
  8
PLAN_1
  6
CONTINUOUS
 10
1.994602
 20
-3.587276
  0
VERTEX
  8
PLAN_1
  6
CONTINUOUS
 10
2.019929
 20
-3.587276
  0
VERTEX
  8
PLAN_1
  6
CONTINUOUS
 10
2.019929
 20
-3.593724
  0
VERTEX
  8
PLAN_1
  6
CONTINUOUS
 10
2.021311
 20
-3.599709
  0
VERTEX
  8
PLAN_1
  6
CONTINUOUS
 10
2.022693
 20
-3.604776
  0
VERTEX
  8
PLAN_1
  6
CONTINUOUS
 10
2.024992
 20
-3.609839
  0
VERTEX
  8
PLAN_1
  6
CONTINUOUS
 10
2.027295
 20
-3.613984
  0
VERTEX
  8
PLAN_1
  6
CONTINUOUS
 10
2.030520
 20
-3.617665
  0
VERTEX
  8
PLAN_1
  6
CONTINUOUS
 10
2.033744
 20
-3.621350
  0
VERTEX
  8
PLAN_1
  6
CONTINUOUS
 10
2.037886
 20
-3.624114
  0
VERTEX
  8
PLAN_1
  6
CONTINUOUS
 10
2.041571
 20
-3.626417
  0
VERTEX
  8
PLAN_1
  6
CONTINUOUS
 10
2.046173
 20
-3.628717
  0
VERTEX
  8
PLAN_1
  6
CONTINUOUS
 10
2.050780
 20
-3.630098
  0
VERTEX
  8
PLAN_1
  6
CONTINUOUS
 10
2.055382
 20
-3.631480
  0
VERTEX
  8
PLAN_1
  6
CONTINUOUS
 10
2.059988
 20
-3.632402
  0
VERTEX
  8
PLAN_1
  6
CONTINUOUS
 10
2.065055
 20
-3.633323
  0
VERTEX
  8
PLAN_1
  6
CONTINUOUS
 10
2.070118
 20
-3.633783
  0
VERTEX
  8
PLAN_1
  6
CONTINUOUS
 10
2.074724
 20
-3.633783
  0
VERTEX
  8
PLAN_1
  6
CONTINUOUS
 10
2.082551
 20
-3.633783
  0
VERTEX
  8
PLAN_1
  6
CONTINUOUS
 10
2.091299
 20
-3.632402
  0
VERTEX
  8
PLAN_1
  6
CONTINUOUS
 10
2.095445
 20
-3.631941
  0
VERTEX
  8
PLAN_1
  6
CONTINUOUS
 10
2.099587
 20
-3.630559
  0
VERTEX
  8
PLAN_1
  6
CONTINUOUS
 10
2.104193
 20
-3.629177
  0
VERTEX
  8
PLAN_1
  6
CONTINUOUS
 10
2.108335
 20
-3.627799
  0
VERTEX
  8
PLAN_1
  6
CONTINUOUS
 10
2.112020
 20
-3.625957
  0
VERTEX
  8
PLAN_1
  6
CONTINUOUS
 10
2.115705
 20
-3.623654
  0
VERTEX
  8
PLAN_1
  6
CONTINUOUS
 10
2.118925
 20
-3.620890
  0
VERTEX
  8
PLAN_1
  6
CONTINUOUS
 10
2.121689
 20
-3.617665
  0
VERTEX
  8
PLAN_1
  6
CONTINUOUS
 10
2.123531
 20
-3.613984
  0
VERTEX
  8
PLAN_1
  6
CONTINUOUS
 10
2.125374
 20
-3.609839
  0
VERTEX
  8
PLAN_1
  6
CONTINUOUS
 10
2.126756
 20
-3.605236
  0
VERTEX
  8
PLAN_1
  6
CONTINUOUS
 10
2.126756
 20
-3.600169
  0
VERTEX
  8
PLAN_1
  6
CONTINUOUS
 10
2.126756
 20
-3.596488
  0
VERTEX
  8
PLAN_1
  6
CONTINUOUS
 10
2.126295
 20
-3.593264
  0
VERTEX
  8
PLAN_1
  6
CONTINUOUS
 10
2.125835
 20
-3.590039
  0
VERTEX
  8
PLAN_1
  6
CONTINUOUS
 10
2.124913
 20
-3.586815
  0
VERTEX
  8
PLAN_1
  6
CONTINUOUS
 10
2.123531
 20
-3.584516
  0
VERTEX
  8
PLAN_1
  6
CONTINUOUS
 10
2.122150
 20
-3.582213
  0
VERTEX
  8
PLAN_1
  6
CONTINUOUS
 10
2.120307
 20
-3.579909
  0
VERTEX
  8
PLAN_1
  6
CONTINUOUS
 10
2.118004
 20
-3.577606
  0
VERTEX
  8
PLAN_1
  6
CONTINUOUS
 10
2.115244
 20
-3.575768
  0
VERTEX
  8
PLAN_1
  6
CONTINUOUS
 10
2.112480
 20
-3.573925
  0
VERTEX
  8
PLAN_1
  6
CONTINUOUS
 10
2.108795
 20
-3.572543
  0
VERTEX
  8
PLAN_1
  6
CONTINUOUS
 10
2.105114
 20
-3.570701
  0
VERTEX
  8
PLAN_1
  6
CONTINUOUS
 10
2.095445
 20
-3.567937
  0
VERTEX
  8
PLAN_1
  6
CONTINUOUS
 10
2.084394
 20
-3.565177
  0
VERTEX
  8
PLAN_1
  6
CONTINUOUS
 10
2.043874
 20
-3.555508
  0
VERTEX
  8
PLAN_1
  6
CONTINUOUS
 10
2.037886
 20
-3.554126
  0
VERTEX
  8
PLAN_1
  6
CONTINUOUS
 10
2.031441
 20
-3.551823
  0
VERTEX
  8
PLAN_1
  6
CONTINUOUS
 10
2.028217
 20
-3.550441
  0
VERTEX
  8
PLAN_1
  6
CONTINUOUS
 10
2.024531
 20
-3.548598
  0
VERTEX
  8
PLAN_1
  6
CONTINUOUS
 10
2.020850
 20
-3.546295
  0
VERTEX
  8
PLAN_1
  6
CONTINUOUS
 10
2.017626
 20
-3.543996
  0
VERTEX
  8
PLAN_1
  6
CONTINUOUS
 10
2.014402
 20
-3.541232
  0
VERTEX
  8
PLAN_1
  6
CONTINUOUS
 10
2.011181
 20
-3.538008
  0
VERTEX
  8
PLAN_1
  6
CONTINUOUS
 10
2.008417
 20
-3.534327
  0
VERTEX
  8
PLAN_1
  6
CONTINUOUS
 10
2.006114
 20
-3.530181
  0
VERTEX
  8
PLAN_1
  6
CONTINUOUS
 10
2.003811
 20
-3.525575
  0
VERTEX
  8
PLAN_1
  6
CONTINUOUS
 10
2.002433
 20
-3.520512
  0
VERTEX
  8
PLAN_1
  6
CONTINUOUS
 10
2.001512
 20
-3.514984
  0
VERTEX
  8
PLAN_1
  6
CONTINUOUS
 10
2.001051
 20
-3.508539
  0
VERTEX
  8
PLAN_1
  6
CONTINUOUS
 10
2.001512
 20
-3.503016
  0
VERTEX
  8
PLAN_1
  6
CONTINUOUS
 10
2.001972
 20
-3.497028
  0
VERTEX
  8
PLAN_1
  6
CONTINUOUS
 10
2.003350
 20
-3.491504
  0
VERTEX
  8
PLAN_1
  6
CONTINUOUS
 10
2.005193
 20
-3.485976
  0
VERTEX
  8
PLAN_1
  6
CONTINUOUS
 10
2.007496
 20
-3.480453
  0
VERTEX
  8
PLAN_1
  6
CONTINUOUS
 10
2.010260
 20
-3.475386
  0
VERTEX
  8
PLAN_1
  6
CONTINUOUS
 10
2.013480
 20
-3.470783
  0
VERTEX
  8
PLAN_1
  6
CONTINUOUS
 10
2.017165
 20
-3.466177
  0
VERTEX
  8
PLAN_1
  6
CONTINUOUS
 10
2.021772
 20
-3.462035
  0
VERTEX
  8
PLAN_1
  6
CONTINUOUS
 10
2.026835
 20
-3.458350
  0
VERTEX
  8
PLAN_1
  6
CONTINUOUS
 10
2.032362
 20
-3.455126
  0
VERTEX
  8
PLAN_1
  6
CONTINUOUS
 10
2.038807
 20
-3.452362
  0
VERTEX
  8
PLAN_1
  6
CONTINUOUS
 10
2.045252
 20
-3.450063
  0
VERTEX
  8
PLAN_1
  6
CONTINUOUS
 10
2.053083
 20
-3.448220
  0
VERTEX
  8
PLAN_1
  6
CONTINUOUS
 10
2.060909
 20
-3.447299
  0
VERTEX
  8
PLAN_1
  6
CONTINUOUS
 10
2.069657
 20
-3.446839
  0
VERTEX
  8
PLAN_1
  6
CONTINUOUS
 10
2.076102
 20
-3.447299
  0
VERTEX
  8
PLAN_1
  6
CONTINUOUS
 10
2.082091
 20
-3.447299
  0
VERTEX
  8
PLAN_1
  6
CONTINUOUS
 10
2.087614
 20
-3.448220
  0
VERTEX
  8
PLAN_1
  6
CONTINUOUS
 10
2.093142
 20
-3.448681
  0
VERTEX
  8
PLAN_1
  6
CONTINUOUS
 10
2.098205
 20
-3.450063
  0
VERTEX
  8
PLAN_1
  6
CONTINUOUS
 10
2.102811
 20
-3.450984
  0
VERTEX
  8
PLAN_1
  6
CONTINUOUS
 10
2.106953
 20
-3.452362
  0
VERTEX
  8
PLAN_1
  6
CONTINUOUS
 10
2.111098
 20
-3.453744
  0
VERTEX
  8
PLAN_1
  6
CONTINUOUS
 10
2.114783
 20
-3.455587
  0
VERTEX
  8
PLAN_1
  6
CONTINUOUS
 10
2.118465
 20
-3.457429
  0
VERTEX
  8
PLAN_1
  6
CONTINUOUS
 10
2.121689
 20
-3.459272
  0
VERTEX
  8
PLAN_1
  6
CONTINUOUS
 10
2.124453
 20
-3.461575
  0
VERTEX
  8
PLAN_1
  6
CONTINUOUS
 10
2.129976
 20
-3.465717
  0
VERTEX
  8
PLAN_1
  6
CONTINUOUS
 10
2.134122
 20
-3.470783
  0
VERTEX
  8
PLAN_1
  6
CONTINUOUS
 10
2.137803
 20
-3.475846
  0
VERTEX
  8
PLAN_1
  6
CONTINUOUS
 10
2.140567
 20
-3.480913
  0
VERTEX
  8
PLAN_1
  6
CONTINUOUS
 10
2.142870
 20
-3.485976
  0
VERTEX
  8
PLAN_1
  6
CONTINUOUS
 10
2.144713
 20
-3.491504
  0
VERTEX
  8
PLAN_1
  6
CONTINUOUS
 10
2.145634
 20
-3.496567
  0
VERTEX
  8
PLAN_1
  6
CONTINUOUS
 10
2.146555
 20
-3.501634
  0
VERTEX
  8
PLAN_1
  6
CONTINUOUS
 10
2.147016
 20
-3.506236
  0
VERTEX
  8
PLAN_1
  6
CONTINUOUS
 10
2.147476
 20
-3.510382
  0
VERTEX
  8
PLAN_1
  6
CONTINUOUS
 10
2.122150
 20
-3.510382
  0
SEQEND
  8
0
  0
POLYLINE
  8
PLAN_1
  6
CONTINUOUS
 66
     1
 40
0.008287
 41
0.008287
  0
VERTEX
  8
PLAN_1
  6
CONTINUOUS
 10
-2.036677
 20
1.070681
  0
VERTEX
  8
PLAN_1
  6
CONTINUOUS
 10
-2.043122
 20
1.071142
  0
VERTEX
  8
PLAN_1
  6
CONTINUOUS
 10
-2.049571
 20
1.072063
  0
VERTEX
  8
PLAN_1
  6
CONTINUOUS
 10
-2.055555
 20
1.073445
  0
VERTEX
  8
PLAN_1
  6
CONTINUOUS
 10
-2.061543
 20
1.075748
  0
VERTEX
  8
PLAN_1
  6
CONTINUOUS
 10
-2.067067
 20
1.078512
  0
VERTEX
  8
PLAN_1
  6
CONTINUOUS
 10
-2.072134
 20
1.081732
  0
VERTEX
  8
PLAN_1
  6
CONTINUOUS
 10
-2.077197
 20
1.085417
  0
VERTEX
  8
PLAN_1
  6
CONTINUOUS
 10
-2.081803
 20
1.089559
  0
VERTEX
  8
PLAN_1
  6
CONTINUOUS
 10
-2.085945
 20
1.094165
  0
VERTEX
  8
PLAN_1
  6
CONTINUOUS
 10
-2.089630
 20
1.099232
  0
VERTEX
  8
PLAN_1
  6
CONTINUOUS
 10
-2.092854
 20
1.104295
  0
VERTEX
  8
PLAN_1
  6
CONTINUOUS
 10
-2.095614
 20
1.109823
  0
VERTEX
  8
PLAN_1
  6
CONTINUOUS
 10
-2.097917
 20
1.115807
  0
VERTEX
  8
PLAN_1
  6
CONTINUOUS
 10
-2.099299
 20
1.121791
  0
VERTEX
  8
PLAN_1
  6
CONTINUOUS
 10
-2.100220
 20
1.128240
  0
VERTEX
  8
PLAN_1
  6
CONTINUOUS
 10
-2.100681
 20
1.134685
  0
SEQEND
  8
0
  0
POLYLINE
  8
PLAN_1
  6
CONTINUOUS
 66
     1
 40
0.008287
 41
0.008287
  0
VERTEX
  8
PLAN_1
  6
CONTINUOUS
 10
-2.100681
 20
1.134685
  0
VERTEX
  8
PLAN_1
  6
CONTINUOUS
 10
-2.100681
 20
3.370654
  0
SEQEND
  8
0
  0
POLYLINE
  8
PLAN_1
  6
CONTINUOUS
 66
     1
 40
0.008287
 41
0.008287
  0
VERTEX
  8
PLAN_1
  6
CONTINUOUS
 10
-2.100681
 20
3.370654
  0
VERTEX
  8
PLAN_1
  6
CONTINUOUS
 10
-2.100220
 20
3.377098
  0
VERTEX
  8
PLAN_1
  6
CONTINUOUS
 10
-2.099299
 20
3.383547
  0
VERTEX
  8
PLAN_1
  6
CONTINUOUS
 10
-2.097917
 20
3.389531
  0
VERTEX
  8
PLAN_1
  6
CONTINUOUS
 10
-2.095614
 20
3.395520
  0
VERTEX
  8
PLAN_1
  6
CONTINUOUS
 10
-2.092854
 20
3.401043
  0
VERTEX
  8
PLAN_1
  6
CONTINUOUS
 10
-2.089630
 20
3.406571
  0
VERTEX
  8
PLAN_1
  6
CONTINUOUS
 10
-2.085945
 20
3.411173
  0
VERTEX
  8
PLAN_1
  6
CONTINUOUS
 10
-2.081803
 20
3.415780
  0
VERTEX
  8
PLAN_1
  6
CONTINUOUS
 10
-2.077197
 20
3.419921
  0
VERTEX
  8
PLAN_1
  6
CONTINUOUS
 10
-2.072134
 20
3.423606
  0
VERTEX
  8
PLAN_1
  6
CONTINUOUS
 10
-2.067067
 20
3.426831
  0
VERTEX
  8
PLAN_1
  6
CONTINUOUS
 10
-2.061543
 20
3.429591
  0
VERTEX
  8
PLAN_1
  6
CONTINUOUS
 10
-2.055555
 20
3.431894
  0
VERTEX
  8
PLAN_1
  6
CONTINUOUS
 10
-2.049571
 20
3.433276
  0
VERTEX
  8
PLAN_1
  6
CONTINUOUS
 10
-2.043122
 20
3.434197
  0
VERTEX
  8
PLAN_1
  6
CONTINUOUS
 10
-2.036677
 20
3.434657
  0
SEQEND
  8
0
  0
POLYLINE
  8
PLAN_1
  6
CONTINUOUS
 66
     1
 40
0.008287
 41
0.008287
  0
VERTEX
  8
PLAN_1
  6
CONTINUOUS
 10
-2.036677
 20
3.434657
  0
VERTEX
  8
PLAN_1
  6
CONTINUOUS
 10
-0.117961
 20
3.434657
  0
SEQEND
  8
0
  0
POLYLINE
  8
PLAN_1
  6
CONTINUOUS
 66
     1
 40
0.008287
 41
0.008287
  0
VERTEX
  8
PLAN_1
  6
CONTINUOUS
 10
-0.117961
 20
3.434657
  0
VERTEX
  8
PLAN_1
  6
CONTINUOUS
 10
-0.111055
 20
3.434197
  0
VERTEX
  8
PLAN_1
  6
CONTINUOUS
 10
-0.105071
 20
3.433276
  0
VERTEX
  8
PLAN_1
  6
CONTINUOUS
 10
-0.098622
 20
3.431894
  0
VERTEX
  8
PLAN_1
  6
CONTINUOUS
 10
-0.092638
 20
3.429591
  0
VERTEX
  8
PLAN_1
  6
CONTINUOUS
 10
-0.087110
 20
3.426831
  0
VERTEX
  8
PLAN_1
  6
CONTINUOUS
 10
-0.082047
 20
3.423606
  0
VERTEX
  8
PLAN_1
  6
CONTINUOUS
 10
-0.076980
 20
3.419921
  0
VERTEX
  8
PLAN_1
  6
CONTINUOUS
 10
-0.072378
 20
3.415780
  0
VERTEX
  8
PLAN_1
  6
CONTINUOUS
 10
-0.068232
 20
3.411173
  0
VERTEX
  8
PLAN_1
  6
CONTINUOUS
 10
-0.064551
 20
3.406571
  0
VERTEX
  8
PLAN_1
  6
CONTINUOUS
 10
-0.061327
 20
3.401043
  0
VERTEX
  8
PLAN_1
  6
CONTINUOUS
 10
-0.058563
 20
3.395520
  0
VERTEX
  8
PLAN_1
  6
CONTINUOUS
 10
-0.056720
 20
3.389531
  0
VERTEX
  8
PLAN_1
  6
CONTINUOUS
 10
-0.054882
 20
3.383547
  0
VERTEX
  8
PLAN_1
  6
CONTINUOUS
 10
-0.053961
 20
3.377098
  0
VERTEX
  8
PLAN_1
  6
CONTINUOUS
 10
-0.053500
 20
3.370654
  0
SEQEND
  8
0
  0
POLYLINE
  8
PLAN_1
  6
CONTINUOUS
 66
     1
 40
0.008287
 41
0.008287
  0
VERTEX
  8
PLAN_1
  6
CONTINUOUS
 10
-0.053500
 20
3.370654
  0
VERTEX
  8
PLAN_1
  6
CONTINUOUS
 10
-0.053500
 20
1.134685
  0
SEQEND
  8
0
  0
POLYLINE
  8
PLAN_1
  6
CONTINUOUS
 66
     1
 40
0.008287
 41
0.008287
  0
VERTEX
  8
PLAN_1
  6
CONTINUOUS
 10
-0.053500
 20
1.134685
  0
VERTEX
  8
PLAN_1
  6
CONTINUOUS
 10
-0.053961
 20
1.128240
  0
VERTEX
  8
PLAN_1
  6
CONTINUOUS
 10
-0.054882
 20
1.121791
  0
VERTEX
  8
PLAN_1
  6
CONTINUOUS
 10
-0.056720
 20
1.115807
  0
VERTEX
  8
PLAN_1
  6
CONTINUOUS
 10
-0.058563
 20
1.109823
  0
VERTEX
  8
PLAN_1
  6
CONTINUOUS
 10
-0.061327
 20
1.104295
  0
VERTEX
  8
PLAN_1
  6
CONTINUOUS
 10
-0.064551
 20
1.099232
  0
VERTEX
  8
PLAN_1
  6
CONTINUOUS
 10
-0.068232
 20
1.094165
  0
VERTEX
  8
PLAN_1
  6
CONTINUOUS
 10
-0.072378
 20
1.089559
  0
VERTEX
  8
PLAN_1
  6
CONTINUOUS
 10
-0.076980
 20
1.085417
  0
VERTEX
  8
PLAN_1
  6
CONTINUOUS
 10
-0.082047
 20
1.081732
  0
VERTEX
  8
PLAN_1
  6
CONTINUOUS
 10
-0.087110
 20
1.078512
  0
VERTEX
  8
PLAN_1
  6
CONTINUOUS
 10
-0.092638
 20
1.075748
  0
VERTEX
  8
PLAN_1
  6
CONTINUOUS
 10
-0.098622
 20
1.073445
  0
VERTEX
  8
PLAN_1
  6
CONTINUOUS
 10
-0.105071
 20
1.072063
  0
VERTEX
  8
PLAN_1
  6
CONTINUOUS
 10
-0.111055
 20
1.071142
  0
VERTEX
  8
PLAN_1
  6
CONTINUOUS
 10
-0.117961
 20
1.070681
  0
SEQEND
  8
0
  0
POLYLINE
  8
PLAN_1
  6
CONTINUOUS
 66
     1
 40
0.008287
 41
0.008287
  0
VERTEX
  8
PLAN_1
  6
CONTINUOUS
 10
-0.117961
 20
1.070681
  0
VERTEX
  8
PLAN_1
  6
CONTINUOUS
 10
-2.036677
 20
1.070681
  0
SEQEND
  8
0
  0
POLYLINE
  8
PLAN_1
  6
CONTINUOUS
 66
     1
 40
0.008287
 41
0.008287
  0
VERTEX
  8
PLAN_1
  6
CONTINUOUS
 10
-1.916961
 20
3.339343
  0
VERTEX
  8
PLAN_1
  6
CONTINUOUS
 10
-1.922484
 20
3.335657
  0
VERTEX
  8
PLAN_1
  6
CONTINUOUS
 10
-1.927551
 20
3.331976
  0
VERTEX
  8
PLAN_1
  6
CONTINUOUS
 10
-1.932614
 20
3.327831
  0
VERTEX
  8
PLAN_1
  6
CONTINUOUS
 10
-1.937220
 20
3.323228
  0
VERTEX
  8
PLAN_1
  6
CONTINUOUS
 10
-1.941362
 20
3.318622
  0
VERTEX
  8
PLAN_1
  6
CONTINUOUS
 10
-1.945508
 20
3.313559
  0
VERTEX
  8
PLAN_1
  6
CONTINUOUS
 10
-1.949650
 20
3.308031
  0
VERTEX
  8
PLAN_1
  6
CONTINUOUS
 10
-1.952874
 20
3.302508
  0
VERTEX
  8
PLAN_1
  6
CONTINUOUS
 10
-1.956098
 20
3.296980
  0
VERTEX
  8
PLAN_1
  6
CONTINUOUS
 10
-1.958862
 20
3.290996
  0
VERTEX
  8
PLAN_1
  6
CONTINUOUS
 10
-1.961161
 20
3.284547
  0
VERTEX
  8
PLAN_1
  6
CONTINUOUS
 10
-1.963004
 20
3.278102
  0
VERTEX
  8
PLAN_1
  6
CONTINUOUS
 10
-1.964386
 20
3.271657
  0
VERTEX
  8
PLAN_1
  6
CONTINUOUS
 10
-1.965768
 20
3.265209
  0
VERTEX
  8
PLAN_1
  6
CONTINUOUS
 10
-1.966228
 20
3.258303
  0
VERTEX
  8
PLAN_1
  6
CONTINUOUS
 10
-1.966689
 20
3.251398
  0
VERTEX
  8
PLAN_1
  6
CONTINUOUS
 10
-1.966228
 20
3.244488
  0
VERTEX
  8
PLAN_1
  6
CONTINUOUS
 10
-1.965768
 20
3.237583
  0
VERTEX
  8
PLAN_1
  6
CONTINUOUS
 10
-1.964386
 20
3.231134
  0
VERTEX
  8
PLAN_1
  6
CONTINUOUS
 10
-1.963004
 20
3.224228
  0
VERTEX
  8
PLAN_1
  6
CONTINUOUS
 10
-1.961161
 20
3.218244
  0
VERTEX
  8
PLAN_1
  6
CONTINUOUS
 10
-1.958862
 20
3.211795
  0
VERTEX
  8
PLAN_1
  6
CONTINUOUS
 10
-1.956098
 20
3.205811
  0
VERTEX
  8
PLAN_1
  6
CONTINUOUS
 10
-1.952874
 20
3.200283
  0
VERTEX
  8
PLAN_1
  6
CONTINUOUS
 10
-1.949650
 20
3.194760
  0
VERTEX
  8
PLAN_1
  6
CONTINUOUS
 10
-1.945508
 20
3.189236
  0
VERTEX
  8
PLAN_1
  6
CONTINUOUS
 10
-1.941362
 20
3.184169
  0
VERTEX
  8
PLAN_1
  6
CONTINUOUS
 10
-1.937220
 20
3.179563
  0
VERTEX
  8
PLAN_1
  6
CONTINUOUS
 10
-1.932614
 20
3.174961
  0
VERTEX
  8
PLAN_1
  6
CONTINUOUS
 10
-1.927551
 20
3.170815
  0
VERTEX
  8
PLAN_1
  6
CONTINUOUS
 10
-1.922484
 20
3.167134
  0
VERTEX
  8
PLAN_1
  6
CONTINUOUS
 10
-1.916961
 20
3.163449
  0
SEQEND
  8
0
  0
POLYLINE
  8
PLAN_1
  6
CONTINUOUS
 66
     1
 40
0.008287
 41
0.008287
  0
VERTEX
  8
PLAN_1
  6
CONTINUOUS
 10
-1.916961
 20
3.163449
  0
VERTEX
  8
PLAN_1
  6
CONTINUOUS
 10
-1.811055
 20
3.162988
  0
SEQEND
  8
0
  0
POLYLINE
  8
PLAN_1
  6
CONTINUOUS
 66
     1
 40
0.008287
 41
0.008287
  0
VERTEX
  8
PLAN_1
  6
CONTINUOUS
 10
-1.811055
 20
3.162988
  0
VERTEX
  8
PLAN_1
  6
CONTINUOUS
 10
-1.808752
 20
3.165291
  0
VERTEX
  8
PLAN_1
  6
CONTINUOUS
 10
-1.803228
 20
3.171736
  0
VERTEX
  8
PLAN_1
  6
CONTINUOUS
 10
-1.795398
 20
3.180945
  0
VERTEX
  8
PLAN_1
  6
CONTINUOUS
 10
-1.786189
 20
3.193378
  0
VERTEX
  8
PLAN_1
  6
CONTINUOUS
 10
-1.781587
 20
3.199827
  0
VERTEX
  8
PLAN_1
  6
CONTINUOUS
 10
-1.776980
 20
3.207193
  0
VERTEX
  8
PLAN_1
  6
CONTINUOUS
 10
-1.772839
 20
3.214559
  0
VERTEX
  8
PLAN_1
  6
CONTINUOUS
 10
-1.769154
 20
3.221925
  0
VERTEX
  8
PLAN_1
  6
CONTINUOUS
 10
-1.765929
 20
3.229295
  0
VERTEX
  8
PLAN_1
  6
CONTINUOUS
 10
-1.763626
 20
3.236661
  0
VERTEX
  8
PLAN_1
  6
CONTINUOUS
 10
-1.762705
 20
3.240346
  0
VERTEX
  8
PLAN_1
  6
CONTINUOUS
 10
-1.761787
 20
3.244028
  0
VERTEX
  8
PLAN_1
  6
CONTINUOUS
 10
-1.761327
 20
3.247713
  0
VERTEX
  8
PLAN_1
  6
CONTINUOUS
 10
-1.761327
 20
3.251398
  0
VERTEX
  8
PLAN_1
  6
CONTINUOUS
 10
-1.761787
 20
3.258303
  0
VERTEX
  8
PLAN_1
  6
CONTINUOUS
 10
-1.762248
 20
3.265209
  0
VERTEX
  8
PLAN_1
  6
CONTINUOUS
 10
-1.763626
 20
3.271657
  0
VERTEX
  8
PLAN_1
  6
CONTINUOUS
 10
-1.765008
 20
3.278102
  0
VERTEX
  8
PLAN_1
  6
CONTINUOUS
 10
-1.766850
 20
3.284547
  0
VERTEX
  8
PLAN_1
  6
CONTINUOUS
 10
-1.769154
 20
3.290996
  0
VERTEX
  8
PLAN_1
  6
CONTINUOUS
 10
-1.771917
 20
3.296980
  0
VERTEX
  8
PLAN_1
  6
CONTINUOUS
 10
-1.775138
 20
3.302508
  0
VERTEX
  8
PLAN_1
  6
CONTINUOUS
 10
-1.778362
 20
3.308031
  0
VERTEX
  8
PLAN_1
  6
CONTINUOUS
 10
-1.782047
 20
3.313559
  0
VERTEX
  8
PLAN_1
  6
CONTINUOUS
 10
-1.786189
 20
3.318622
  0
VERTEX
  8
PLAN_1
  6
CONTINUOUS
 10
-1.790795
 20
3.323228
  0
VERTEX
  8
PLAN_1
  6
CONTINUOUS
 10
-1.795398
 20
3.327831
  0
VERTEX
  8
PLAN_1
  6
CONTINUOUS
 10
-1.800465
 20
3.331976
  0
VERTEX
  8
PLAN_1
  6
CONTINUOUS
 10
-1.805528
 20
3.335657
  0
VERTEX
  8
PLAN_1
  6
CONTINUOUS
 10
-1.811055
 20
3.339343
  0
SEQEND
  8
0
  0
POLYLINE
  8
PLAN_1
  6
CONTINUOUS
 66
     1
 40
0.008287
 41
0.008287
  0
VERTEX
  8
PLAN_1
  6
CONTINUOUS
 10
-1.811055
 20
3.339343
  0
VERTEX
  8
PLAN_1
  6
CONTINUOUS
 10
-1.916961
 20
3.339343
  0
SEQEND
  8
0
  0
POLYLINE
  8
PLAN_1
  6
CONTINUOUS
 66
     1
 40
0.008287
 41
0.008287
  0
VERTEX
  8
PLAN_1
  6
CONTINUOUS
 10
-0.346346
 20
3.339343
  0
VERTEX
  8
PLAN_1
  6
CONTINUOUS
 10
-0.351874
 20
3.335657
  0
VERTEX
  8
PLAN_1
  6
CONTINUOUS
 10
-0.356937
 20
3.331976
  0
VERTEX
  8
PLAN_1
  6
CONTINUOUS
 10
-0.362004
 20
3.327831
  0
VERTEX
  8
PLAN_1
  6
CONTINUOUS
 10
-0.366606
 20
3.323228
  0
VERTEX
  8
PLAN_1
  6
CONTINUOUS
 10
-0.371213
 20
3.318622
  0
VERTEX
  8
PLAN_1
  6
CONTINUOUS
 10
-0.375358
 20
3.313559
  0
VERTEX
  8
PLAN_1
  6
CONTINUOUS
 10
-0.379039
 20
3.308031
  0
VERTEX
  8
PLAN_1
  6
CONTINUOUS
 10
-0.382264
 20
3.302508
  0
VERTEX
  8
PLAN_1
  6
CONTINUOUS
 10
-0.385488
 20
3.296980
  0
VERTEX
  8
PLAN_1
  6
CONTINUOUS
 10
-0.388248
 20
3.290996
  0
VERTEX
  8
PLAN_1
  6
CONTINUOUS
 10
-0.390551
 20
3.284547
  0
VERTEX
  8
PLAN_1
  6
CONTINUOUS
 10
-0.392394
 20
3.278102
  0
VERTEX
  8
PLAN_1
  6
CONTINUOUS
 10
-0.394236
 20
3.271657
  0
VERTEX
  8
PLAN_1
  6
CONTINUOUS
 10
-0.395157
 20
3.265209
  0
VERTEX
  8
PLAN_1
  6
CONTINUOUS
 10
-0.396079
 20
3.258303
  0
VERTEX
  8
PLAN_1
  6
CONTINUOUS
 10
-0.396079
 20
3.251398
  0
VERTEX
  8
PLAN_1
  6
CONTINUOUS
 10
-0.396079
 20
3.244488
  0
VERTEX
  8
PLAN_1
  6
CONTINUOUS
 10
-0.395157
 20
3.237583
  0
VERTEX
  8
PLAN_1
  6
CONTINUOUS
 10
-0.394236
 20
3.231134
  0
VERTEX
  8
PLAN_1
  6
CONTINUOUS
 10
-0.392394
 20
3.224228
  0
VERTEX
  8
PLAN_1
  6
CONTINUOUS
 10
-0.390551
 20
3.218244
  0
VERTEX
  8
PLAN_1
  6
CONTINUOUS
 10
-0.388248
 20
3.211795
  0
VERTEX
  8
PLAN_1
  6
CONTINUOUS
 10
-0.385488
 20
3.205811
  0
VERTEX
  8
PLAN_1
  6
CONTINUOUS
 10
-0.382264
 20
3.200283
  0
VERTEX
  8
PLAN_1
  6
CONTINUOUS
 10
-0.379039
 20
3.194760
  0
VERTEX
  8
PLAN_1
  6
CONTINUOUS
 10
-0.375358
 20
3.189236
  0
VERTEX
  8
PLAN_1
  6
CONTINUOUS
 10
-0.371213
 20
3.184169
  0
VERTEX
  8
PLAN_1
  6
CONTINUOUS
 10
-0.366606
 20
3.179563
  0
VERTEX
  8
PLAN_1
  6
CONTINUOUS
 10
-0.362004
 20
3.174961
  0
VERTEX
  8
PLAN_1
  6
CONTINUOUS
 10
-0.356937
 20
3.170815
  0
VERTEX
  8
PLAN_1
  6
CONTINUOUS
 10
-0.351874
 20
3.167134
  0
VERTEX
  8
PLAN_1
  6
CONTINUOUS
 10
-0.346346
 20
3.163449
  0
SEQEND
  8
0
  0
POLYLINE
  8
PLAN_1
  6
CONTINUOUS
 66
     1
 40
0.008287
 41
0.008287
  0
VERTEX
  8
PLAN_1
  6
CONTINUOUS
 10
-0.346346
 20
3.163449
  0
VERTEX
  8
PLAN_1
  6
CONTINUOUS
 10
-0.240445
 20
3.162988
  0
SEQEND
  8
0
  0
POLYLINE
  8
PLAN_1
  6
CONTINUOUS
 66
     1
 40
0.008287
 41
0.008287
  0
VERTEX
  8
PLAN_1
  6
CONTINUOUS
 10
-0.240445
 20
3.162988
  0
VERTEX
  8
PLAN_1
  6
CONTINUOUS
 10
-0.238142
 20
3.165291
  0
VERTEX
  8
PLAN_1
  6
CONTINUOUS
 10
-0.232614
 20
3.171736
  0
VERTEX
  8
PLAN_1
  6
CONTINUOUS
 10
-0.224787
 20
3.180945
  0
VERTEX
  8
PLAN_1
  6
CONTINUOUS
 10
-0.215579
 20
3.193378
  0
VERTEX
  8
PLAN_1
  6
CONTINUOUS
 10
-0.210972
 20
3.199827
  0
VERTEX
  8
PLAN_1
  6
CONTINUOUS
 10
-0.206831
 20
3.207193
  0
VERTEX
  8
PLAN_1
  6
CONTINUOUS
 10
-0.202224
 20
3.214559
  0
VERTEX
  8
PLAN_1
  6
CONTINUOUS
 10
-0.198543
 20
3.221925
  0
VERTEX
  8
PLAN_1
  6
CONTINUOUS
 10
-0.195319
 20
3.229295
  0
VERTEX
  8
PLAN_1
  6
CONTINUOUS
 10
-0.193016
 20
3.236661
  0
VERTEX
  8
PLAN_1
  6
CONTINUOUS
 10
-0.192094
 20
3.240346
  0
VERTEX
  8
PLAN_1
  6
CONTINUOUS
 10
-0.191634
 20
3.244028
  0
VERTEX
  8
PLAN_1
  6
CONTINUOUS
 10
-0.191173
 20
3.247713
  0
VERTEX
  8
PLAN_1
  6
CONTINUOUS
 10
-0.190713
 20
3.251398
  0
VERTEX
  8
PLAN_1
  6
CONTINUOUS
 10
-0.191173
 20
3.258303
  0
VERTEX
  8
PLAN_1
  6
CONTINUOUS
 10
-0.191634
 20
3.265209
  0
VERTEX
  8
PLAN_1
  6
CONTINUOUS
 10
-0.193016
 20
3.271657
  0
VERTEX
  8
PLAN_1
  6
CONTINUOUS
 10
-0.194398
 20
3.278102
  0
VERTEX
  8
PLAN_1
  6
CONTINUOUS
 10
-0.196701
 20
3.284547
  0
VERTEX
  8
PLAN_1
  6
CONTINUOUS
 10
-0.199004
 20
3.290996
  0
VERTEX
  8
PLAN_1
  6
CONTINUOUS
 10
-0.201764
 20
3.296980
  0
VERTEX
  8
PLAN_1
  6
CONTINUOUS
 10
-0.204528
 20
3.302508
  0
VERTEX
  8
PLAN_1
  6
CONTINUOUS
 10
-0.208213
 20
3.308031
  0
VERTEX
  8
PLAN_1
  6
CONTINUOUS
 10
-0.211894
 20
3.313559
  0
VERTEX
  8
PLAN_1
  6
CONTINUOUS
 10
-0.216039
 20
3.318622
  0
VERTEX
  8
PLAN_1
  6
CONTINUOUS
 10
-0.220185
 20
3.323228
  0
VERTEX
  8
PLAN_1
  6
CONTINUOUS
 10
-0.224787
 20
3.327831
  0
VERTEX
  8
PLAN_1
  6
CONTINUOUS
 10
-0.229854
 20
3.331976
  0
VERTEX
  8
PLAN_1
  6
CONTINUOUS
 10
-0.235378
 20
3.335657
  0
VERTEX
  8
PLAN_1
  6
CONTINUOUS
 10
-0.240445
 20
3.339343
  0
SEQEND
  8
0
  0
POLYLINE
  8
PLAN_1
  6
CONTINUOUS
 66
     1
 40
0.008287
 41
0.008287
  0
VERTEX
  8
PLAN_1
  6
CONTINUOUS
 10
-0.240445
 20
3.339343
  0
VERTEX
  8
PLAN_1
  6
CONTINUOUS
 10
-0.346346
 20
3.339343
  0
SEQEND
  8
0
  0
POLYLINE
  8
PLAN_1
  6
CONTINUOUS
 66
     1
 40
0.004142
 41
0.004142
  0
VERTEX
  8
PLAN_1
  6
CONTINUOUS
 10
-0.054421
 20
3.250016
  0
VERTEX
  8
PLAN_1
  6
CONTINUOUS
 10
-0.456858
 20
3.250016
  0
SEQEND
  8
0
  0
POLYLINE
  8
PLAN_1
  6
CONTINUOUS
 66
     1
 40
0.004142
 41
0.004142
  0
VERTEX
  8
PLAN_1
  6
CONTINUOUS
 10
-1.676602
 20
3.251854
  0
VERTEX
  8
PLAN_1
  6
CONTINUOUS
 10
-2.038059
 20
3.251854
  0
SEQEND
  8
0
  0
POLYLINE
  8
PLAN_1
  6
CONTINUOUS
 66
     1
 40
0.004142
 41
0.004142
  0
VERTEX
  8
PLAN_1
  6
CONTINUOUS
 10
-1.858480
 20
1.071602
  0
VERTEX
  8
PLAN_1
  6
CONTINUOUS
 10
-1.858480
 20
3.370654
  0
SEQEND
  8
0
  0
POLYLINE
  8
PLAN_1
 62
     5
  6
CONTINUOUS
 66
     1
 40
0.003000
 41
0.003000
  0
VERTEX
  8
PLAN_1
 62
     5
  6
CONTINUOUS
 10
-0.292476
 20
1.068839
  0
VERTEX
  8
PLAN_1
 62
     5
  6
CONTINUOUS
 10
-0.292476
 20
1.077130
  0
SEQEND
  8
0
  0
POLYLINE
  8
PLAN_1
 62
     5
  6
CONTINUOUS
 66
     1
 40
0.003000
 41
0.003000
  0
VERTEX
  8
PLAN_1
 62
     5
  6
CONTINUOUS
 10
-0.292476
 20
1.085417
  0
VERTEX
  8
PLAN_1
 62
     5
  6
CONTINUOUS
 10
-0.292476
 20
1.093705
  0
SEQEND
  8
0
  0
POLYLINE
  8
PLAN_1
 62
     5
  6
CONTINUOUS
 66
     1
 40
0.003000
 41
0.003000
  0
VERTEX
  8
PLAN_1
 62
     5
  6
CONTINUOUS
 10
-0.292476
 20
1.101992
  0
VERTEX
  8
PLAN_1
 62
     5
  6
CONTINUOUS
 10
-0.292476
 20
1.110280
  0
SEQEND
  8
0
  0
POLYLINE
  8
PLAN_1
 62
     5
  6
CONTINUOUS
 66
     1
 40
0.003000
 41
0.003000
  0
VERTEX
  8
PLAN_1
 62
     5
  6
CONTINUOUS
 10
-0.292476
 20
1.118571
  0
VERTEX
  8
PLAN_1
 62
     5
  6
CONTINUOUS
 10
-0.292476
 20
1.126858
  0
SEQEND
  8
0
  0
POLYLINE
  8
PLAN_1
 62
     5
  6
CONTINUOUS
 66
     1
 40
0.003000
 41
0.003000
  0
VERTEX
  8
PLAN_1
 62
     5
  6
CONTINUOUS
 10
-0.292476
 20
1.135146
  0
VERTEX
  8
PLAN_1
 62
     5
  6
CONTINUOUS
 10
-0.292476
 20
1.143433
  0
SEQEND
  8
0
  0
POLYLINE
  8
PLAN_1
 62
     5
  6
CONTINUOUS
 66
     1
 40
0.003000
 41
0.003000
  0
VERTEX
  8
PLAN_1
 62
     5
  6
CONTINUOUS
 10
-0.292476
 20
1.151720
  0
VERTEX
  8
PLAN_1
 62
     5
  6
CONTINUOUS
 10
-0.292476
 20
1.160472
  0
SEQEND
  8
0
  0
POLYLINE
  8
PLAN_1
 62
     5
  6
CONTINUOUS
 66
     1
 40
0.003000
 41
0.003000
  0
VERTEX
  8
PLAN_1
 62
     5
  6
CONTINUOUS
 10
-0.292476
 20
1.168760
  0
VERTEX
  8
PLAN_1
 62
     5
  6
CONTINUOUS
 10
-0.292476
 20
1.177047
  0
SEQEND
  8
0
  0
POLYLINE
  8
PLAN_1
 62
     5
  6
CONTINUOUS
 66
     1
 40
0.003000
 41
0.003000
  0
VERTEX
  8
PLAN_1
 62
     5
  6
CONTINUOUS
 10
-0.292476
 20
1.185335
  0
VERTEX
  8
PLAN_1
 62
     5
  6
CONTINUOUS
 10
-0.292476
 20
1.193622
  0
SEQEND
  8
0
  0
POLYLINE
  8
PLAN_1
 62
     5
  6
CONTINUOUS
 66
     1
 40
0.003000
 41
0.003000
  0
VERTEX
  8
PLAN_1
 62
     5
  6
CONTINUOUS
 10
-0.292476
 20
1.201913
  0
VERTEX
  8
PLAN_1
 62
     5
  6
CONTINUOUS
 10
-0.292476
 20
1.210201
  0
SEQEND
  8
0
  0
POLYLINE
  8
PLAN_1
 62
     5
  6
CONTINUOUS
 66
     1
 40
0.003000
 41
0.003000
  0
VERTEX
  8
PLAN_1
 62
     5
  6
CONTINUOUS
 10
-0.292476
 20
1.218488
  0
VERTEX
  8
PLAN_1
 62
     5
  6
CONTINUOUS
 10
-0.292476
 20
1.226776
  0
SEQEND
  8
0
  0
POLYLINE
  8
PLAN_1
 62
     5
  6
CONTINUOUS
 66
     1
 40
0.003000
 41
0.003000
  0
VERTEX
  8
PLAN_1
 62
     5
  6
CONTINUOUS
 10
-0.292476
 20
1.235063
  0
VERTEX
  8
PLAN_1
 62
     5
  6
CONTINUOUS
 10
-0.292476
 20
1.243354
  0
SEQEND
  8
0
  0
POLYLINE
  8
PLAN_1
 62
     5
  6
CONTINUOUS
 66
     1
 40
0.003000
 41
0.003000
  0
VERTEX
  8
PLAN_1
 62
     5
  6
CONTINUOUS
 10
-0.292476
 20
1.252102
  0
VERTEX
  8
PLAN_1
 62
     5
  6
CONTINUOUS
 10
-0.292476
 20
1.260390
  0
SEQEND
  8
0
  0
POLYLINE
  8
PLAN_1
 62
     5
  6
CONTINUOUS
 66
     1
 40
0.003000
 41
0.003000
  0
VERTEX
  8
PLAN_1
 62
     5
  6
CONTINUOUS
 10
-0.292476
 20
1.268677
  0
VERTEX
  8
PLAN_1
 62
     5
  6
CONTINUOUS
 10
-0.292476
 20
1.276965
  0
SEQEND
  8
0
  0
POLYLINE
  8
PLAN_1
 62
     5
  6
CONTINUOUS
 66
     1
 40
0.003000
 41
0.003000
  0
VERTEX
  8
PLAN_1
 62
     5
  6
CONTINUOUS
 10
-0.292476
 20
1.285256
  0
VERTEX
  8
PLAN_1
 62
     5
  6
CONTINUOUS
 10
-0.292476
 20
1.293543
  0
SEQEND
  8
0
  0
POLYLINE
  8
PLAN_1
 62
     5
  6
CONTINUOUS
 66
     1
 40
0.003000
 41
0.003000
  0
VERTEX
  8
PLAN_1
 62
     5
  6
CONTINUOUS
 10
-0.292476
 20
1.301831
  0
VERTEX
  8
PLAN_1
 62
     5
  6
CONTINUOUS
 10
-0.292476
 20
1.310118
  0
SEQEND
  8
0
  0
POLYLINE
  8
PLAN_1
 62
     5
  6
CONTINUOUS
 66
     1
 40
0.003000
 41
0.003000
  0
VERTEX
  8
PLAN_1
 62
     5
  6
CONTINUOUS
 10
-0.292476
 20
1.318406
  0
VERTEX
  8
PLAN_1
 62
     5
  6
CONTINUOUS
 10
-0.292476
 20
1.326697
  0
SEQEND
  8
0
  0
POLYLINE
  8
PLAN_1
 62
     5
  6
CONTINUOUS
 66
     1
 40
0.003000
 41
0.003000
  0
VERTEX
  8
PLAN_1
 62
     5
  6
CONTINUOUS
 10
-0.292476
 20
1.334984
  0
VERTEX
  8
PLAN_1
 62
     5
  6
CONTINUOUS
 10
-0.292476
 20
1.343272
  0
SEQEND
  8
0
  0
POLYLINE
  8
PLAN_1
 62
     5
  6
CONTINUOUS
 66
     1
 40
0.003000
 41
0.003000
  0
VERTEX
  8
PLAN_1
 62
     5
  6
CONTINUOUS
 10
-0.292476
 20
1.352020
  0
VERTEX
  8
PLAN_1
 62
     5
  6
CONTINUOUS
 10
-0.292476
 20
1.360307
  0
SEQEND
  8
0
  0
POLYLINE
  8
PLAN_1
 62
     5
  6
CONTINUOUS
 66
     1
 40
0.003000
 41
0.003000
  0
VERTEX
  8
PLAN_1
 62
     5
  6
CONTINUOUS
 10
-0.292476
 20
1.368598
  0
VERTEX
  8
PLAN_1
 62
     5
  6
CONTINUOUS
 10
-0.292476
 20
1.376886
  0
SEQEND
  8
0
  0
POLYLINE
  8
PLAN_1
 62
     5
  6
CONTINUOUS
 66
     1
 40
0.003000
 41
0.003000
  0
VERTEX
  8
PLAN_1
 62
     5
  6
CONTINUOUS
 10
-0.292476
 20
1.385173
  0
VERTEX
  8
PLAN_1
 62
     5
  6
CONTINUOUS
 10
-0.292476
 20
1.393461
  0
SEQEND
  8
0
  0
POLYLINE
  8
PLAN_1
 62
     5
  6
CONTINUOUS
 66
     1
 40
0.003000
 41
0.003000
  0
VERTEX
  8
PLAN_1
 62
     5
  6
CONTINUOUS
 10
-0.292476
 20
1.401748
  0
VERTEX
  8
PLAN_1
 62
     5
  6
CONTINUOUS
 10
-0.292476
 20
1.410039
  0
SEQEND
  8
0
  0
POLYLINE
  8
PLAN_1
 62
     5
  6
CONTINUOUS
 66
     1
 40
0.003000
 41
0.003000
  0
VERTEX
  8
PLAN_1
 62
     5
  6
CONTINUOUS
 10
-0.292476
 20
1.418327
  0
VERTEX
  8
PLAN_1
 62
     5
  6
CONTINUOUS
 10
-0.292476
 20
1.426614
  0
SEQEND
  8
0
  0
POLYLINE
  8
PLAN_1
 62
     5
  6
CONTINUOUS
 66
     1
 40
0.003000
 41
0.003000
  0
VERTEX
  8
PLAN_1
 62
     5
  6
CONTINUOUS
 10
-0.292476
 20
1.434902
  0
VERTEX
  8
PLAN_1
 62
     5
  6
CONTINUOUS
 10
-0.292476
 20
1.443650
  0
SEQEND
  8
0
  0
POLYLINE
  8
PLAN_1
 62
     5
  6
CONTINUOUS
 66
     1
 40
0.003000
 41
0.003000
  0
VERTEX
  8
PLAN_1
 62
     5
  6
CONTINUOUS
 10
-0.292476
 20
1.451937
  0
VERTEX
  8
PLAN_1
 62
     5
  6
CONTINUOUS
 10
-0.292476
 20
1.460228
  0
SEQEND
  8
0
  0
POLYLINE
  8
PLAN_1
 62
     5
  6
CONTINUOUS
 66
     1
 40
0.003000
 41
0.003000
  0
VERTEX
  8
PLAN_1
 62
     5
  6
CONTINUOUS
 10
-0.292476
 20
1.468516
  0
VERTEX
  8
PLAN_1
 62
     5
  6
CONTINUOUS
 10
-0.292476
 20
1.476803
  0
SEQEND
  8
0
  0
POLYLINE
  8
PLAN_1
 62
     5
  6
CONTINUOUS
 66
     1
 40
0.003000
 41
0.003000
  0
VERTEX
  8
PLAN_1
 62
     5
  6
CONTINUOUS
 10
-0.292476
 20
1.485091
  0
VERTEX
  8
PLAN_1
 62
     5
  6
CONTINUOUS
 10
-0.292476
 20
1.493378
  0
SEQEND
  8
0
  0
POLYLINE
  8
PLAN_1
 62
     5
  6
CONTINUOUS
 66
     1
 40
0.003000
 41
0.003000
  0
VERTEX
  8
PLAN_1
 62
     5
  6
CONTINUOUS
 10
-0.292476
 20
1.501669
  0
VERTEX
  8
PLAN_1
 62
     5
  6
CONTINUOUS
 10
-0.292476
 20
1.509957
  0
SEQEND
  8
0
  0
POLYLINE
  8
PLAN_1
 62
     5
  6
CONTINUOUS
 66
     1
 40
0.003000
 41
0.003000
  0
VERTEX
  8
PLAN_1
 62
     5
  6
CONTINUOUS
 10
-0.292476
 20
1.518244
  0
VERTEX
  8
PLAN_1
 62
     5
  6
CONTINUOUS
 10
-0.292476
 20
1.526531
  0
SEQEND
  8
0
  0
POLYLINE
  8
PLAN_1
 62
     5
  6
CONTINUOUS
 66
     1
 40
0.003000
 41
0.003000
  0
VERTEX
  8
PLAN_1
 62
     5
  6
CONTINUOUS
 10
-0.292476
 20
1.534819
  0
VERTEX
  8
PLAN_1
 62
     5
  6
CONTINUOUS
 10
-0.292476
 20
1.543571
  0
SEQEND
  8
0
  0
POLYLINE
  8
PLAN_1
 62
     5
  6
CONTINUOUS
 66
     1
 40
0.003000
 41
0.003000
  0
VERTEX
  8
PLAN_1
 62
     5
  6
CONTINUOUS
 10
-0.292476
 20
1.551858
  0
VERTEX
  8
PLAN_1
 62
     5
  6
CONTINUOUS
 10
-0.292476
 20
1.560146
  0
SEQEND
  8
0
  0
POLYLINE
  8
PLAN_1
 62
     5
  6
CONTINUOUS
 66
     1
 40
0.003000
 41
0.003000
  0
VERTEX
  8
PLAN_1
 62
     5
  6
CONTINUOUS
 10
-0.292476
 20
1.568433
  0
VERTEX
  8
PLAN_1
 62
     5
  6
CONTINUOUS
 10
-0.292476
 20
1.576720
  0
SEQEND
  8
0
  0
POLYLINE
  8
PLAN_1
 62
     5
  6
CONTINUOUS
 66
     1
 40
0.003000
 41
0.003000
  0
VERTEX
  8
PLAN_1
 62
     5
  6
CONTINUOUS
 10
-0.292476
 20
1.585012
  0
VERTEX
  8
PLAN_1
 62
     5
  6
CONTINUOUS
 10
-0.292476
 20
1.593299
  0
SEQEND
  8
0
  0
POLYLINE
  8
PLAN_1
 62
     5
  6
CONTINUOUS
 66
     1
 40
0.003000
 41
0.003000
  0
VERTEX
  8
PLAN_1
 62
     5
  6
CONTINUOUS
 10
-0.292476
 20
1.601587
  0
VERTEX
  8
PLAN_1
 62
     5
  6
CONTINUOUS
 10
-0.292476
 20
1.609874
  0
SEQEND
  8
0
  0
POLYLINE
  8
PLAN_1
 62
     5
  6
CONTINUOUS
 66
     1
 40
0.003000
 41
0.003000
  0
VERTEX
  8
PLAN_1
 62
     5
  6
CONTINUOUS
 10
-0.292476
 20
1.618161
  0
VERTEX
  8
PLAN_1
 62
     5
  6
CONTINUOUS
 10
-0.292476
 20
1.626453
  0
SEQEND
  8
0
  0
POLYLINE
  8
PLAN_1
 62
     5
  6
CONTINUOUS
 66
     1
 40
0.003000
 41
0.003000
  0
VERTEX
  8
PLAN_1
 62
     5
  6
CONTINUOUS
 10
-0.292476
 20
1.635201
  0
VERTEX
  8
PLAN_1
 62
     5
  6
CONTINUOUS
 10
-0.292476
 20
1.643488
  0
SEQEND
  8
0
  0
POLYLINE
  8
PLAN_1
 62
     5
  6
CONTINUOUS
 66
     1
 40
0.003000
 41
0.003000
  0
VERTEX
  8
PLAN_1
 62
     5
  6
CONTINUOUS
 10
-0.292476
 20
1.651776
  0
VERTEX
  8
PLAN_1
 62
     5
  6
CONTINUOUS
 10
-0.292476
 20
1.660063
  0
SEQEND
  8
0
  0
POLYLINE
  8
PLAN_1
 62
     5
  6
CONTINUOUS
 66
     1
 40
0.003000
 41
0.003000
  0
VERTEX
  8
PLAN_1
 62
     5
  6
CONTINUOUS
 10
-0.292476
 20
1.668354
  0
VERTEX
  8
PLAN_1
 62
     5
  6
CONTINUOUS
 10
-0.292476
 20
1.676642
  0
SEQEND
  8
0
  0
POLYLINE
  8
PLAN_1
 62
     5
  6
CONTINUOUS
 66
     1
 40
0.003000
 41
0.003000
  0
VERTEX
  8
PLAN_1
 62
     5
  6
CONTINUOUS
 10
-0.292476
 20
1.684929
  0
VERTEX
  8
PLAN_1
 62
     5
  6
CONTINUOUS
 10
-0.292476
 20
1.693217
  0
SEQEND
  8
0
  0
POLYLINE
  8
PLAN_1
 62
     5
  6
CONTINUOUS
 66
     1
 40
0.003000
 41
0.003000
  0
VERTEX
  8
PLAN_1
 62
     5
  6
CONTINUOUS
 10
-0.292476
 20
1.701504
  0
VERTEX
  8
PLAN_1
 62
     5
  6
CONTINUOUS
 10
-0.292476
 20
1.709795
  0
SEQEND
  8
0
  0
POLYLINE
  8
PLAN_1
 62
     5
  6
CONTINUOUS
 66
     1
 40
0.003000
 41
0.003000
  0
VERTEX
  8
PLAN_1
 62
     5
  6
CONTINUOUS
 10
-0.292476
 20
1.718083
  0
VERTEX
  8
PLAN_1
 62
     5
  6
CONTINUOUS
 10
-0.292476
 20
1.726370
  0
SEQEND
  8
0
  0
POLYLINE
  8
PLAN_1
 62
     5
  6
CONTINUOUS
 66
     1
 40
0.003000
 41
0.003000
  0
VERTEX
  8
PLAN_1
 62
     5
  6
CONTINUOUS
 10
-0.292476
 20
1.735118
  0
VERTEX
  8
PLAN_1
 62
     5
  6
CONTINUOUS
 10
-0.292476
 20
1.743406
  0
SEQEND
  8
0
  0
POLYLINE
  8
PLAN_1
 62
     5
  6
CONTINUOUS
 66
     1
 40
0.003000
 41
0.003000
  0
VERTEX
  8
PLAN_1
 62
     5
  6
CONTINUOUS
 10
-0.292476
 20
1.751693
  0
VERTEX
  8
PLAN_1
 62
     5
  6
CONTINUOUS
 10
-0.292476
 20
1.759984
  0
SEQEND
  8
0
  0
POLYLINE
  8
PLAN_1
 62
     5
  6
CONTINUOUS
 66
     1
 40
0.003000
 41
0.003000
  0
VERTEX
  8
PLAN_1
 62
     5
  6
CONTINUOUS
 10
-0.292476
 20
1.768272
  0
VERTEX
  8
PLAN_1
 62
     5
  6
CONTINUOUS
 10
-0.292476
 20
1.776559
  0
SEQEND
  8
0
  0
POLYLINE
  8
PLAN_1
 62
     5
  6
CONTINUOUS
 66
     1
 40
0.003000
 41
0.003000
  0
VERTEX
  8
PLAN_1
 62
     5
  6
CONTINUOUS
 10
-0.292476
 20
1.784846
  0
VERTEX
  8
PLAN_1
 62
     5
  6
CONTINUOUS
 10
-0.292476
 20
1.793134
  0
SEQEND
  8
0
  0
POLYLINE
  8
PLAN_1
 62
     5
  6
CONTINUOUS
 66
     1
 40
0.003000
 41
0.003000
  0
VERTEX
  8
PLAN_1
 62
     5
  6
CONTINUOUS
 10
-0.292476
 20
1.801425
  0
VERTEX
  8
PLAN_1
 62
     5
  6
CONTINUOUS
 10
-0.292476
 20
1.809713
  0
SEQEND
  8
0
  0
POLYLINE
  8
PLAN_1
 62
     5
  6
CONTINUOUS
 66
     1
 40
0.003000
 41
0.003000
  0
VERTEX
  8
PLAN_1
 62
     5
  6
CONTINUOUS
 10
-0.292476
 20
1.818000
  0
VERTEX
  8
PLAN_1
 62
     5
  6
CONTINUOUS
 10
-0.292476
 20
1.826748
  0
SEQEND
  8
0
  0
POLYLINE
  8
PLAN_1
 62
     5
  6
CONTINUOUS
 66
     1
 40
0.003000
 41
0.003000
  0
VERTEX
  8
PLAN_1
 62
     5
  6
CONTINUOUS
 10
-0.292476
 20
1.835035
  0
VERTEX
  8
PLAN_1
 62
     5
  6
CONTINUOUS
 10
-0.292476
 20
1.843327
  0
SEQEND
  8
0
  0
POLYLINE
  8
PLAN_1
 62
     5
  6
CONTINUOUS
 66
     1
 40
0.003000
 41
0.003000
  0
VERTEX
  8
PLAN_1
 62
     5
  6
CONTINUOUS
 10
-0.292476
 20
1.851614
  0
VERTEX
  8
PLAN_1
 62
     5
  6
CONTINUOUS
 10
-0.292476
 20
1.859902
  0
SEQEND
  8
0
  0
POLYLINE
  8
PLAN_1
 62
     5
  6
CONTINUOUS
 66
     1
 40
0.003000
 41
0.003000
  0
VERTEX
  8
PLAN_1
 62
     5
  6
CONTINUOUS
 10
-0.292476
 20
1.868189
  0
VERTEX
  8
PLAN_1
 62
     5
  6
CONTINUOUS
 10
-0.292476
 20
1.876476
  0
SEQEND
  8
0
  0
POLYLINE
  8
PLAN_1
 62
     5
  6
CONTINUOUS
 66
     1
 40
0.003000
 41
0.003000
  0
VERTEX
  8
PLAN_1
 62
     5
  6
CONTINUOUS
 10
-0.292476
 20
1.884768
  0
VERTEX
  8
PLAN_1
 62
     5
  6
CONTINUOUS
 10
-0.292476
 20
1.893055
  0
SEQEND
  8
0
  0
POLYLINE
  8
PLAN_1
 62
     5
  6
CONTINUOUS
 66
     1
 40
0.003000
 41
0.003000
  0
VERTEX
  8
PLAN_1
 62
     5
  6
CONTINUOUS
 10
-0.292476
 20
1.901343
  0
VERTEX
  8
PLAN_1
 62
     5
  6
CONTINUOUS
 10
-0.292476
 20
1.909630
  0
SEQEND
  8
0
  0
POLYLINE
  8
PLAN_1
 62
     5
  6
CONTINUOUS
 66
     1
 40
0.003000
 41
0.003000
  0
VERTEX
  8
PLAN_1
 62
     5
  6
CONTINUOUS
 10
-0.292476
 20
1.917917
  0
VERTEX
  8
PLAN_1
 62
     5
  6
CONTINUOUS
 10
-0.292476
 20
1.926669
  0
SEQEND
  8
0
  0
POLYLINE
  8
PLAN_1
 62
     5
  6
CONTINUOUS
 66
     1
 40
0.003000
 41
0.003000
  0
VERTEX
  8
PLAN_1
 62
     5
  6
CONTINUOUS
 10
-0.292476
 20
1.934957
  0
VERTEX
  8
PLAN_1
 62
     5
  6
CONTINUOUS
 10
-0.292476
 20
1.943244
  0
SEQEND
  8
0
  0
POLYLINE
  8
PLAN_1
 62
     5
  6
CONTINUOUS
 66
     1
 40
0.003000
 41
0.003000
  0
VERTEX
  8
PLAN_1
 62
     5
  6
CONTINUOUS
 10
-0.292476
 20
1.951531
  0
VERTEX
  8
PLAN_1
 62
     5
  6
CONTINUOUS
 10
-0.292476
 20
1.959819
  0
SEQEND
  8
0
  0
POLYLINE
  8
PLAN_1
 62
     5
  6
CONTINUOUS
 66
     1
 40
0.003000
 41
0.003000
  0
VERTEX
  8
PLAN_1
 62
     5
  6
CONTINUOUS
 10
-0.292476
 20
1.968110
  0
VERTEX
  8
PLAN_1
 62
     5
  6
CONTINUOUS
 10
-0.292476
 20
1.976398
  0
SEQEND
  8
0
  0
POLYLINE
  8
PLAN_1
 62
     5
  6
CONTINUOUS
 66
     1
 40
0.003000
 41
0.003000
  0
VERTEX
  8
PLAN_1
 62
     5
  6
CONTINUOUS
 10
-0.292476
 20
1.984685
  0
VERTEX
  8
PLAN_1
 62
     5
  6
CONTINUOUS
 10
-0.292476
 20
1.992972
  0
SEQEND
  8
0
  0
POLYLINE
  8
PLAN_1
 62
     5
  6
CONTINUOUS
 66
     1
 40
0.003000
 41
0.003000
  0
VERTEX
  8
PLAN_1
 62
     5
  6
CONTINUOUS
 10
-0.292476
 20
2.001260
  0
VERTEX
  8
PLAN_1
 62
     5
  6
CONTINUOUS
 10
-0.292476
 20
2.009551
  0
SEQEND
  8
0
  0
POLYLINE
  8
PLAN_1
 62
     5
  6
CONTINUOUS
 66
     1
 40
0.003000
 41
0.003000
  0
VERTEX
  8
PLAN_1
 62
     5
  6
CONTINUOUS
 10
-0.292476
 20
2.018299
  0
VERTEX
  8
PLAN_1
 62
     5
  6
CONTINUOUS
 10
-0.292476
 20
2.026587
  0
SEQEND
  8
0
  0
POLYLINE
  8
PLAN_1
 62
     5
  6
CONTINUOUS
 66
     1
 40
0.003000
 41
0.003000
  0
VERTEX
  8
PLAN_1
 62
     5
  6
CONTINUOUS
 10
-0.292476
 20
2.034874
  0
VERTEX
  8
PLAN_1
 62
     5
  6
CONTINUOUS
 10
-0.292476
 20
2.043161
  0
SEQEND
  8
0
  0
POLYLINE
  8
PLAN_1
 62
     5
  6
CONTINUOUS
 66
     1
 40
0.003000
 41
0.003000
  0
VERTEX
  8
PLAN_1
 62
     5
  6
CONTINUOUS
 10
-0.292476
 20
2.051453
  0
VERTEX
  8
PLAN_1
 62
     5
  6
CONTINUOUS
 10
-0.292476
 20
2.059740
  0
SEQEND
  8
0
  0
POLYLINE
  8
PLAN_1
 62
     5
  6
CONTINUOUS
 66
     1
 40
0.003000
 41
0.003000
  0
VERTEX
  8
PLAN_1
 62
     5
  6
CONTINUOUS
 10
-0.292476
 20
2.068028
  0
VERTEX
  8
PLAN_1
 62
     5
  6
CONTINUOUS
 10
-0.292476
 20
2.076315
  0
SEQEND
  8
0
  0
POLYLINE
  8
PLAN_1
 62
     5
  6
CONTINUOUS
 66
     1
 40
0.003000
 41
0.003000
  0
VERTEX
  8
PLAN_1
 62
     5
  6
CONTINUOUS
 10
-0.292476
 20
2.084602
  0
VERTEX
  8
PLAN_1
 62
     5
  6
CONTINUOUS
 10
-0.292476
 20
2.092894
  0
SEQEND
  8
0
  0
POLYLINE
  8
PLAN_1
 62
     5
  6
CONTINUOUS
 66
     1
 40
0.003000
 41
0.003000
  0
VERTEX
  8
PLAN_1
 62
     5
  6
CONTINUOUS
 10
-0.292476
 20
2.101181
  0
VERTEX
  8
PLAN_1
 62
     5
  6
CONTINUOUS
 10
-0.292476
 20
2.109469
  0
SEQEND
  8
0
  0
POLYLINE
  8
PLAN_1
 62
     5
  6
CONTINUOUS
 66
     1
 40
0.003000
 41
0.003000
  0
VERTEX
  8
PLAN_1
 62
     5
  6
CONTINUOUS
 10
-0.292476
 20
2.118217
  0
VERTEX
  8
PLAN_1
 62
     5
  6
CONTINUOUS
 10
-0.292476
 20
2.126504
  0
SEQEND
  8
0
  0
POLYLINE
  8
PLAN_1
 62
     5
  6
CONTINUOUS
 66
     1
 40
0.003000
 41
0.003000
  0
VERTEX
  8
PLAN_1
 62
     5
  6
CONTINUOUS
 10
-0.292476
 20
2.134791
  0
VERTEX
  8
PLAN_1
 62
     5
  6
CONTINUOUS
 10
-0.292476
 20
2.143083
  0
SEQEND
  8
0
  0
POLYLINE
  8
PLAN_1
 62
     5
  6
CONTINUOUS
 66
     1
 40
0.003000
 41
0.003000
  0
VERTEX
  8
PLAN_1
 62
     5
  6
CONTINUOUS
 10
-0.292476
 20
2.151370
  0
VERTEX
  8
PLAN_1
 62
     5
  6
CONTINUOUS
 10
-0.292476
 20
2.159657
  0
SEQEND
  8
0
  0
POLYLINE
  8
PLAN_1
 62
     5
  6
CONTINUOUS
 66
     1
 40
0.003000
 41
0.003000
  0
VERTEX
  8
PLAN_1
 62
     5
  6
CONTINUOUS
 10
-0.292476
 20
2.167945
  0
VERTEX
  8
PLAN_1
 62
     5
  6
CONTINUOUS
 10
-0.292476
 20
2.176232
  0
SEQEND
  8
0
  0
POLYLINE
  8
PLAN_1
 62
     5
  6
CONTINUOUS
 66
     1
 40
0.003000
 41
0.003000
  0
VERTEX
  8
PLAN_1
 62
     5
  6
CONTINUOUS
 10
-0.292476
 20
2.184524
  0
VERTEX
  8
PLAN_1
 62
     5
  6
CONTINUOUS
 10
-0.292476
 20
2.192811
  0
SEQEND
  8
0
  0
POLYLINE
  8
PLAN_1
 62
     5
  6
CONTINUOUS
 66
     1
 40
0.003000
 41
0.003000
  0
VERTEX
  8
PLAN_1
 62
     5
  6
CONTINUOUS
 10
-0.292476
 20
2.201098
  0
VERTEX
  8
PLAN_1
 62
     5
  6
CONTINUOUS
 10
-0.292476
 20
2.209846
  0
SEQEND
  8
0
  0
POLYLINE
  8
PLAN_1
 62
     5
  6
CONTINUOUS
 66
     1
 40
0.003000
 41
0.003000
  0
VERTEX
  8
PLAN_1
 62
     5
  6
CONTINUOUS
 10
-0.292476
 20
2.218134
  0
VERTEX
  8
PLAN_1
 62
     5
  6
CONTINUOUS
 10
-0.292476
 20
2.226425
  0
SEQEND
  8
0
  0
POLYLINE
  8
PLAN_1
 62
     5
  6
CONTINUOUS
 66
     1
 40
0.003000
 41
0.003000
  0
VERTEX
  8
PLAN_1
 62
     5
  6
CONTINUOUS
 10
-0.292476
 20
2.234713
  0
VERTEX
  8
PLAN_1
 62
     5
  6
CONTINUOUS
 10
-0.292476
 20
2.243000
  0
SEQEND
  8
0
  0
POLYLINE
  8
PLAN_1
 62
     5
  6
CONTINUOUS
 66
     1
 40
0.003000
 41
0.003000
  0
VERTEX
  8
PLAN_1
 62
     5
  6
CONTINUOUS
 10
-0.292476
 20
2.251287
  0
VERTEX
  8
PLAN_1
 62
     5
  6
CONTINUOUS
 10
-0.292476
 20
2.259575
  0
SEQEND
  8
0
  0
POLYLINE
  8
PLAN_1
 62
     5
  6
CONTINUOUS
 66
     1
 40
0.003000
 41
0.003000
  0
VERTEX
  8
PLAN_1
 62
     5
  6
CONTINUOUS
 10
-0.292476
 20
2.267866
  0
VERTEX
  8
PLAN_1
 62
     5
  6
CONTINUOUS
 10
-0.292476
 20
2.276154
  0
SEQEND
  8
0
  0
POLYLINE
  8
PLAN_1
 62
     5
  6
CONTINUOUS
 66
     1
 40
0.003000
 41
0.003000
  0
VERTEX
  8
PLAN_1
 62
     5
  6
CONTINUOUS
 10
-0.292476
 20
2.284441
  0
VERTEX
  8
PLAN_1
 62
     5
  6
CONTINUOUS
 10
-0.292476
 20
2.292728
  0
SEQEND
  8
0
  0
POLYLINE
  8
PLAN_1
 62
     5
  6
CONTINUOUS
 66
     1
 40
0.003000
 41
0.003000
  0
VERTEX
  8
PLAN_1
 62
     5
  6
CONTINUOUS
 10
-0.292476
 20
2.301016
  0
VERTEX
  8
PLAN_1
 62
     5
  6
CONTINUOUS
 10
-0.292476
 20
2.309768
  0
SEQEND
  8
0
  0
POLYLINE
  8
PLAN_1
 62
     5
  6
CONTINUOUS
 66
     1
 40
0.003000
 41
0.003000
  0
VERTEX
  8
PLAN_1
 62
     5
  6
CONTINUOUS
 10
-0.292476
 20
2.318055
  0
VERTEX
  8
PLAN_1
 62
     5
  6
CONTINUOUS
 10
-0.292476
 20
2.326343
  0
SEQEND
  8
0
  0
POLYLINE
  8
PLAN_1
 62
     5
  6
CONTINUOUS
 66
     1
 40
0.003000
 41
0.003000
  0
VERTEX
  8
PLAN_1
 62
     5
  6
CONTINUOUS
 10
-0.292476
 20
2.334630
  0
VERTEX
  8
PLAN_1
 62
     5
  6
CONTINUOUS
 10
-0.292476
 20
2.342917
  0
SEQEND
  8
0
  0
POLYLINE
  8
PLAN_1
 62
     5
  6
CONTINUOUS
 66
     1
 40
0.003000
 41
0.003000
  0
VERTEX
  8
PLAN_1
 62
     5
  6
CONTINUOUS
 10
-0.292476
 20
2.351209
  0
VERTEX
  8
PLAN_1
 62
     5
  6
CONTINUOUS
 10
-0.292476
 20
2.359496
  0
SEQEND
  8
0
  0
POLYLINE
  8
PLAN_1
 62
     5
  6
CONTINUOUS
 66
     1
 40
0.003000
 41
0.003000
  0
VERTEX
  8
PLAN_1
 62
     5
  6
CONTINUOUS
 10
-0.292476
 20
2.367783
  0
VERTEX
  8
PLAN_1
 62
     5
  6
CONTINUOUS
 10
-0.292476
 20
2.376071
  0
SEQEND
  8
0
  0
POLYLINE
  8
PLAN_1
 62
     5
  6
CONTINUOUS
 66
     1
 40
0.003000
 41
0.003000
  0
VERTEX
  8
PLAN_1
 62
     5
  6
CONTINUOUS
 10
-0.292476
 20
2.384358
  0
VERTEX
  8
PLAN_1
 62
     5
  6
CONTINUOUS
 10
-0.292476
 20
2.392650
  0
SEQEND
  8
0
  0
POLYLINE
  8
PLAN_1
 62
     5
  6
CONTINUOUS
 66
     1
 40
0.003000
 41
0.003000
  0
VERTEX
  8
PLAN_1
 62
     5
  6
CONTINUOUS
 10
-0.292476
 20
2.401398
  0
VERTEX
  8
PLAN_1
 62
     5
  6
CONTINUOUS
 10
-0.292476
 20
2.409685
  0
SEQEND
  8
0
  0
POLYLINE
  8
PLAN_1
 62
     5
  6
CONTINUOUS
 66
     1
 40
0.003000
 41
0.003000
  0
VERTEX
  8
PLAN_1
 62
     5
  6
CONTINUOUS
 10
-0.292476
 20
2.417972
  0
VERTEX
  8
PLAN_1
 62
     5
  6
CONTINUOUS
 10
-0.292476
 20
2.426260
  0
SEQEND
  8
0
  0
POLYLINE
  8
PLAN_1
 62
     5
  6
CONTINUOUS
 66
     1
 40
0.003000
 41
0.003000
  0
VERTEX
  8
PLAN_1
 62
     5
  6
CONTINUOUS
 10
-0.292476
 20
2.434547
  0
VERTEX
  8
PLAN_1
 62
     5
  6
CONTINUOUS
 10
-0.292476
 20
2.442839
  0
SEQEND
  8
0
  0
POLYLINE
  8
PLAN_1
 62
     5
  6
CONTINUOUS
 66
     1
 40
0.003000
 41
0.003000
  0
VERTEX
  8
PLAN_1
 62
     5
  6
CONTINUOUS
 10
-0.292476
 20
2.451126
  0
VERTEX
  8
PLAN_1
 62
     5
  6
CONTINUOUS
 10
-0.292476
 20
2.459413
  0
SEQEND
  8
0
  0
POLYLINE
  8
PLAN_1
 62
     5
  6
CONTINUOUS
 66
     1
 40
0.003000
 41
0.003000
  0
VERTEX
  8
PLAN_1
 62
     5
  6
CONTINUOUS
 10
-0.292476
 20
2.467701
  0
VERTEX
  8
PLAN_1
 62
     5
  6
CONTINUOUS
 10
-0.292476
 20
2.475988
  0
SEQEND
  8
0
  0
POLYLINE
  8
PLAN_1
 62
     5
  6
CONTINUOUS
 66
     1
 40
0.003000
 41
0.003000
  0
VERTEX
  8
PLAN_1
 62
     5
  6
CONTINUOUS
 10
-0.292476
 20
2.484280
  0
VERTEX
  8
PLAN_1
 62
     5
  6
CONTINUOUS
 10
-0.292476
 20
2.492567
  0
SEQEND
  8
0
  0
POLYLINE
  8
PLAN_1
 62
     5
  6
CONTINUOUS
 66
     1
 40
0.003000
 41
0.003000
  0
VERTEX
  8
PLAN_1
 62
     5
  6
CONTINUOUS
 10
-0.292476
 20
2.501315
  0
VERTEX
  8
PLAN_1
 62
     5
  6
CONTINUOUS
 10
-0.292476
 20
2.509602
  0
SEQEND
  8
0
  0
POLYLINE
  8
PLAN_1
 62
     5
  6
CONTINUOUS
 66
     1
 40
0.003000
 41
0.003000
  0
VERTEX
  8
PLAN_1
 62
     5
  6
CONTINUOUS
 10
-0.292476
 20
2.517890
  0
VERTEX
  8
PLAN_1
 62
     5
  6
CONTINUOUS
 10
-0.292476
 20
2.526181
  0
SEQEND
  8
0
  0
POLYLINE
  8
PLAN_1
 62
     5
  6
CONTINUOUS
 66
     1
 40
0.003000
 41
0.003000
  0
VERTEX
  8
PLAN_1
 62
     5
  6
CONTINUOUS
 10
-0.292476
 20
2.534469
  0
VERTEX
  8
PLAN_1
 62
     5
  6
CONTINUOUS
 10
-0.292476
 20
2.542756
  0
SEQEND
  8
0
  0
POLYLINE
  8
PLAN_1
 62
     5
  6
CONTINUOUS
 66
     1
 40
0.003000
 41
0.003000
  0
VERTEX
  8
PLAN_1
 62
     5
  6
CONTINUOUS
 10
-0.292476
 20
2.551043
  0
VERTEX
  8
PLAN_1
 62
     5
  6
CONTINUOUS
 10
-0.292476
 20
2.559331
  0
SEQEND
  8
0
  0
POLYLINE
  8
PLAN_1
 62
     5
  6
CONTINUOUS
 66
     1
 40
0.003000
 41
0.003000
  0
VERTEX
  8
PLAN_1
 62
     5
  6
CONTINUOUS
 10
-0.292476
 20
2.567622
  0
VERTEX
  8
PLAN_1
 62
     5
  6
CONTINUOUS
 10
-0.292476
 20
2.575909
  0
SEQEND
  8
0
  0
POLYLINE
  8
PLAN_1
 62
     5
  6
CONTINUOUS
 66
     1
 40
0.003000
 41
0.003000
  0
VERTEX
  8
PLAN_1
 62
     5
  6
CONTINUOUS
 10
-0.292476
 20
2.584197
  0
VERTEX
  8
PLAN_1
 62
     5
  6
CONTINUOUS
 10
-0.292476
 20
2.592945
  0
SEQEND
  8
0
  0
POLYLINE
  8
PLAN_1
 62
     5
  6
CONTINUOUS
 66
     1
 40
0.003000
 41
0.003000
  0
VERTEX
  8
PLAN_1
 62
     5
  6
CONTINUOUS
 10
-0.292476
 20
2.601232
  0
VERTEX
  8
PLAN_1
 62
     5
  6
CONTINUOUS
 10
-0.292476
 20
2.609524
  0
SEQEND
  8
0
  0
POLYLINE
  8
PLAN_1
 62
     5
  6
CONTINUOUS
 66
     1
 40
0.003000
 41
0.003000
  0
VERTEX
  8
PLAN_1
 62
     5
  6
CONTINUOUS
 10
-0.292476
 20
2.617811
  0
VERTEX
  8
PLAN_1
 62
     5
  6
CONTINUOUS
 10
-0.292476
 20
2.626098
  0
SEQEND
  8
0
  0
POLYLINE
  8
PLAN_1
 62
     5
  6
CONTINUOUS
 66
     1
 40
0.003000
 41
0.003000
  0
VERTEX
  8
PLAN_1
 62
     5
  6
CONTINUOUS
 10
-0.292476
 20
2.634386
  0
VERTEX
  8
PLAN_1
 62
     5
  6
CONTINUOUS
 10
-0.292476
 20
2.642673
  0
SEQEND
  8
0
  0
POLYLINE
  8
PLAN_1
 62
     5
  6
CONTINUOUS
 66
     1
 40
0.003000
 41
0.003000
  0
VERTEX
  8
PLAN_1
 62
     5
  6
CONTINUOUS
 10
-0.292476
 20
2.650965
  0
VERTEX
  8
PLAN_1
 62
     5
  6
CONTINUOUS
 10
-0.292476
 20
2.659252
  0
SEQEND
  8
0
  0
POLYLINE
  8
PLAN_1
 62
     5
  6
CONTINUOUS
 66
     1
 40
0.003000
 41
0.003000
  0
VERTEX
  8
PLAN_1
 62
     5
  6
CONTINUOUS
 10
-0.292476
 20
2.667539
  0
VERTEX
  8
PLAN_1
 62
     5
  6
CONTINUOUS
 10
-0.292476
 20
2.675827
  0
SEQEND
  8
0
  0
POLYLINE
  8
PLAN_1
 62
     5
  6
CONTINUOUS
 66
     1
 40
0.003000
 41
0.003000
  0
VERTEX
  8
PLAN_1
 62
     5
  6
CONTINUOUS
 10
-0.292476
 20
2.684114
  0
VERTEX
  8
PLAN_1
 62
     5
  6
CONTINUOUS
 10
-0.292476
 20
2.692866
  0
SEQEND
  8
0
  0
POLYLINE
  8
PLAN_1
 62
     5
  6
CONTINUOUS
 66
     1
 40
0.003000
 41
0.003000
  0
VERTEX
  8
PLAN_1
 62
     5
  6
CONTINUOUS
 10
-0.292476
 20
2.701154
  0
VERTEX
  8
PLAN_1
 62
     5
  6
CONTINUOUS
 10
-0.292476
 20
2.709441
  0
SEQEND
  8
0
  0
POLYLINE
  8
PLAN_1
 62
     5
  6
CONTINUOUS
 66
     1
 40
0.003000
 41
0.003000
  0
VERTEX
  8
PLAN_1
 62
     5
  6
CONTINUOUS
 10
-0.292476
 20
2.717728
  0
VERTEX
  8
PLAN_1
 62
     5
  6
CONTINUOUS
 10
-0.292476
 20
2.726016
  0
SEQEND
  8
0
  0
POLYLINE
  8
PLAN_1
 62
     5
  6
CONTINUOUS
 66
     1
 40
0.003000
 41
0.003000
  0
VERTEX
  8
PLAN_1
 62
     5
  6
CONTINUOUS
 10
-0.292476
 20
2.734307
  0
VERTEX
  8
PLAN_1
 62
     5
  6
CONTINUOUS
 10
-0.292476
 20
2.742594
  0
SEQEND
  8
0
  0
POLYLINE
  8
PLAN_1
 62
     5
  6
CONTINUOUS
 66
     1
 40
0.003000
 41
0.003000
  0
VERTEX
  8
PLAN_1
 62
     5
  6
CONTINUOUS
 10
-0.292476
 20
2.750882
  0
VERTEX
  8
PLAN_1
 62
     5
  6
CONTINUOUS
 10
-0.292476
 20
2.759169
  0
SEQEND
  8
0
  0
POLYLINE
  8
PLAN_1
 62
     5
  6
CONTINUOUS
 66
     1
 40
0.003000
 41
0.003000
  0
VERTEX
  8
PLAN_1
 62
     5
  6
CONTINUOUS
 10
-0.292476
 20
2.767457
  0
VERTEX
  8
PLAN_1
 62
     5
  6
CONTINUOUS
 10
-0.292476
 20
2.775748
  0
SEQEND
  8
0
  0
POLYLINE
  8
PLAN_1
 62
     5
  6
CONTINUOUS
 66
     1
 40
0.003000
 41
0.003000
  0
VERTEX
  8
PLAN_1
 62
     5
  6
CONTINUOUS
 10
-0.292476
 20
2.784496
  0
VERTEX
  8
PLAN_1
 62
     5
  6
CONTINUOUS
 10
-0.292476
 20
2.792783
  0
SEQEND
  8
0
  0
POLYLINE
  8
PLAN_1
 62
     5
  6
CONTINUOUS
 66
     1
 40
0.003000
 41
0.003000
  0
VERTEX
  8
PLAN_1
 62
     5
  6
CONTINUOUS
 10
-0.292476
 20
2.801071
  0
VERTEX
  8
PLAN_1
 62
     5
  6
CONTINUOUS
 10
-0.292476
 20
2.809358
  0
SEQEND
  8
0
  0
POLYLINE
  8
PLAN_1
 62
     5
  6
CONTINUOUS
 66
     1
 40
0.003000
 41
0.003000
  0
VERTEX
  8
PLAN_1
 62
     5
  6
CONTINUOUS
 10
-0.292476
 20
2.817646
  0
VERTEX
  8
PLAN_1
 62
     5
  6
CONTINUOUS
 10
-0.292476
 20
2.825937
  0
SEQEND
  8
0
  0
POLYLINE
  8
PLAN_1
 62
     5
  6
CONTINUOUS
 66
     1
 40
0.003000
 41
0.003000
  0
VERTEX
  8
PLAN_1
 62
     5
  6
CONTINUOUS
 10
-0.292476
 20
2.834224
  0
VERTEX
  8
PLAN_1
 62
     5
  6
CONTINUOUS
 10
-0.292476
 20
2.842512
  0
SEQEND
  8
0
  0
POLYLINE
  8
PLAN_1
 62
     5
  6
CONTINUOUS
 66
     1
 40
0.003000
 41
0.003000
  0
VERTEX
  8
PLAN_1
 62
     5
  6
CONTINUOUS
 10
-0.292476
 20
2.850799
  0
VERTEX
  8
PLAN_1
 62
     5
  6
CONTINUOUS
 10
-0.292476
 20
2.859087
  0
SEQEND
  8
0
  0
POLYLINE
  8
PLAN_1
 62
     5
  6
CONTINUOUS
 66
     1
 40
0.003000
 41
0.003000
  0
VERTEX
  8
PLAN_1
 62
     5
  6
CONTINUOUS
 10
-0.292476
 20
2.867378
  0
VERTEX
  8
PLAN_1
 62
     5
  6
CONTINUOUS
 10
-0.292476
 20
2.875665
  0
SEQEND
  8
0
  0
POLYLINE
  8
PLAN_1
 62
     5
  6
CONTINUOUS
 66
     1
 40
0.003000
 41
0.003000
  0
VERTEX
  8
PLAN_1
 62
     5
  6
CONTINUOUS
 10
-0.292476
 20
2.884413
  0
VERTEX
  8
PLAN_1
 62
     5
  6
CONTINUOUS
 10
-0.292476
 20
2.892701
  0
SEQEND
  8
0
  0
POLYLINE
  8
PLAN_1
 62
     5
  6
CONTINUOUS
 66
     1
 40
0.003000
 41
0.003000
  0
VERTEX
  8
PLAN_1
 62
     5
  6
CONTINUOUS
 10
-0.292476
 20
2.900988
  0
VERTEX
  8
PLAN_1
 62
     5
  6
CONTINUOUS
 10
-0.292476
 20
2.909280
  0
SEQEND
  8
0
  0
POLYLINE
  8
PLAN_1
 62
     5
  6
CONTINUOUS
 66
     1
 40
0.003000
 41
0.003000
  0
VERTEX
  8
PLAN_1
 62
     5
  6
CONTINUOUS
 10
-0.292476
 20
2.917567
  0
VERTEX
  8
PLAN_1
 62
     5
  6
CONTINUOUS
 10
-0.292476
 20
2.925854
  0
SEQEND
  8
0
  0
POLYLINE
  8
PLAN_1
 62
     5
  6
CONTINUOUS
 66
     1
 40
0.003000
 41
0.003000
  0
VERTEX
  8
PLAN_1
 62
     5
  6
CONTINUOUS
 10
-0.292476
 20
2.934142
  0
VERTEX
  8
PLAN_1
 62
     5
  6
CONTINUOUS
 10
-0.292476
 20
2.942429
  0
SEQEND
  8
0
  0
POLYLINE
  8
PLAN_1
 62
     5
  6
CONTINUOUS
 66
     1
 40
0.003000
 41
0.003000
  0
VERTEX
  8
PLAN_1
 62
     5
  6
CONTINUOUS
 10
-0.292476
 20
2.950720
  0
VERTEX
  8
PLAN_1
 62
     5
  6
CONTINUOUS
 10
-0.292476
 20
2.959008
  0
SEQEND
  8
0
  0
POLYLINE
  8
PLAN_1
 62
     5
  6
CONTINUOUS
 66
     1
 40
0.003000
 41
0.003000
  0
VERTEX
  8
PLAN_1
 62
     5
  6
CONTINUOUS
 10
-0.292476
 20
2.967295
  0
VERTEX
  8
PLAN_1
 62
     5
  6
CONTINUOUS
 10
-0.292476
 20
2.976043
  0
SEQEND
  8
0
  0
POLYLINE
  8
PLAN_1
 62
     5
  6
CONTINUOUS
 66
     1
 40
0.003000
 41
0.003000
  0
VERTEX
  8
PLAN_1
 62
     5
  6
CONTINUOUS
 10
-0.292476
 20
2.984331
  0
VERTEX
  8
PLAN_1
 62
     5
  6
CONTINUOUS
 10
-0.292476
 20
2.992622
  0
SEQEND
  8
0
  0
POLYLINE
  8
PLAN_1
 62
     5
  6
CONTINUOUS
 66
     1
 40
0.003000
 41
0.003000
  0
VERTEX
  8
PLAN_1
 62
     5
  6
CONTINUOUS
 10
-0.292476
 20
3.000909
  0
VERTEX
  8
PLAN_1
 62
     5
  6
CONTINUOUS
 10
-0.292476
 20
3.009197
  0
SEQEND
  8
0
  0
POLYLINE
  8
PLAN_1
 62
     5
  6
CONTINUOUS
 66
     1
 40
0.003000
 41
0.003000
  0
VERTEX
  8
PLAN_1
 62
     5
  6
CONTINUOUS
 10
-0.292476
 20
3.017484
  0
VERTEX
  8
PLAN_1
 62
     5
  6
CONTINUOUS
 10
-0.292476
 20
3.025772
  0
SEQEND
  8
0
  0
POLYLINE
  8
PLAN_1
 62
     5
  6
CONTINUOUS
 66
     1
 40
0.003000
 41
0.003000
  0
VERTEX
  8
PLAN_1
 62
     5
  6
CONTINUOUS
 10
-0.292476
 20
3.034063
  0
VERTEX
  8
PLAN_1
 62
     5
  6
CONTINUOUS
 10
-0.292476
 20
3.042350
  0
SEQEND
  8
0
  0
POLYLINE
  8
PLAN_1
 62
     5
  6
CONTINUOUS
 66
     1
 40
0.003000
 41
0.003000
  0
VERTEX
  8
PLAN_1
 62
     5
  6
CONTINUOUS
 10
-0.292476
 20
3.050638
  0
VERTEX
  8
PLAN_1
 62
     5
  6
CONTINUOUS
 10
-0.292476
 20
3.058925
  0
SEQEND
  8
0
  0
POLYLINE
  8
PLAN_1
 62
     5
  6
CONTINUOUS
 66
     1
 40
0.003000
 41
0.003000
  0
VERTEX
  8
PLAN_1
 62
     5
  6
CONTINUOUS
 10
-0.292476
 20
3.067213
  0
VERTEX
  8
PLAN_1
 62
     5
  6
CONTINUOUS
 10
-0.292476
 20
3.075961
  0
SEQEND
  8
0
  0
POLYLINE
  8
PLAN_1
 62
     5
  6
CONTINUOUS
 66
     1
 40
0.003000
 41
0.003000
  0
VERTEX
  8
PLAN_1
 62
     5
  6
CONTINUOUS
 10
-0.292476
 20
3.084252
  0
VERTEX
  8
PLAN_1
 62
     5
  6
CONTINUOUS
 10
-0.292476
 20
3.092539
  0
SEQEND
  8
0
  0
POLYLINE
  8
PLAN_1
 62
     5
  6
CONTINUOUS
 66
     1
 40
0.003000
 41
0.003000
  0
VERTEX
  8
PLAN_1
 62
     5
  6
CONTINUOUS
 10
-0.292476
 20
3.100827
  0
VERTEX
  8
PLAN_1
 62
     5
  6
CONTINUOUS
 10
-0.292476
 20
3.109114
  0
SEQEND
  8
0
  0
POLYLINE
  8
PLAN_1
 62
     5
  6
CONTINUOUS
 66
     1
 40
0.003000
 41
0.003000
  0
VERTEX
  8
PLAN_1
 62
     5
  6
CONTINUOUS
 10
-0.292476
 20
3.117402
  0
VERTEX
  8
PLAN_1
 62
     5
  6
CONTINUOUS
 10
-0.292476
 20
3.125693
  0
SEQEND
  8
0
  0
POLYLINE
  8
PLAN_1
 62
     5
  6
CONTINUOUS
 66
     1
 40
0.003000
 41
0.003000
  0
VERTEX
  8
PLAN_1
 62
     5
  6
CONTINUOUS
 10
-0.292476
 20
3.133980
  0
VERTEX
  8
PLAN_1
 62
     5
  6
CONTINUOUS
 10
-0.292476
 20
3.142268
  0
SEQEND
  8
0
  0
POLYLINE
  8
PLAN_1
 62
     5
  6
CONTINUOUS
 66
     1
 40
0.003000
 41
0.003000
  0
VERTEX
  8
PLAN_1
 62
     5
  6
CONTINUOUS
 10
-0.292476
 20
3.150555
  0
VERTEX
  8
PLAN_1
 62
     5
  6
CONTINUOUS
 10
-0.292476
 20
3.158843
  0
SEQEND
  8
0
  0
POLYLINE
  8
PLAN_1
 62
     5
  6
CONTINUOUS
 66
     1
 40
0.003000
 41
0.003000
  0
VERTEX
  8
PLAN_1
 62
     5
  6
CONTINUOUS
 10
-0.292476
 20
3.167594
  0
VERTEX
  8
PLAN_1
 62
     5
  6
CONTINUOUS
 10
-0.292476
 20
3.175882
  0
SEQEND
  8
0
  0
POLYLINE
  8
PLAN_1
 62
     5
  6
CONTINUOUS
 66
     1
 40
0.003000
 41
0.003000
  0
VERTEX
  8
PLAN_1
 62
     5
  6
CONTINUOUS
 10
-0.292476
 20
3.184169
  0
VERTEX
  8
PLAN_1
 62
     5
  6
CONTINUOUS
 10
-0.292476
 20
3.192457
  0
SEQEND
  8
0
  0
POLYLINE
  8
PLAN_1
 62
     5
  6
CONTINUOUS
 66
     1
 40
0.003000
 41
0.003000
  0
VERTEX
  8
PLAN_1
 62
     5
  6
CONTINUOUS
 10
-0.292476
 20
3.200744
  0
VERTEX
  8
PLAN_1
 62
     5
  6
CONTINUOUS
 10
-0.292476
 20
3.209035
  0
SEQEND
  8
0
  0
POLYLINE
  8
PLAN_1
 62
     5
  6
CONTINUOUS
 66
     1
 40
0.003000
 41
0.003000
  0
VERTEX
  8
PLAN_1
 62
     5
  6
CONTINUOUS
 10
-0.292476
 20
3.217323
  0
VERTEX
  8
PLAN_1
 62
     5
  6
CONTINUOUS
 10
-0.292476
 20
3.225610
  0
SEQEND
  8
0
  0
POLYLINE
  8
PLAN_1
 62
     5
  6
CONTINUOUS
 66
     1
 40
0.003000
 41
0.003000
  0
VERTEX
  8
PLAN_1
 62
     5
  6
CONTINUOUS
 10
-0.292476
 20
3.233898
  0
VERTEX
  8
PLAN_1
 62
     5
  6
CONTINUOUS
 10
-0.292476
 20
3.242185
  0
SEQEND
  8
0
  0
POLYLINE
  8
PLAN_1
 62
     5
  6
CONTINUOUS
 66
     1
 40
0.003000
 41
0.003000
  0
VERTEX
  8
PLAN_1
 62
     5
  6
CONTINUOUS
 10
-0.292476
 20
3.250476
  0
VERTEX
  8
PLAN_1
 62
     5
  6
CONTINUOUS
 10
-0.292476
 20
3.259224
  0
SEQEND
  8
0
  0
POLYLINE
  8
PLAN_1
 62
     5
  6
CONTINUOUS
 66
     1
 40
0.003000
 41
0.003000
  0
VERTEX
  8
PLAN_1
 62
     5
  6
CONTINUOUS
 10
-0.292476
 20
3.267512
  0
VERTEX
  8
PLAN_1
 62
     5
  6
CONTINUOUS
 10
-0.292476
 20
3.275799
  0
SEQEND
  8
0
  0
POLYLINE
  8
PLAN_1
 62
     5
  6
CONTINUOUS
 66
     1
 40
0.003000
 41
0.003000
  0
VERTEX
  8
PLAN_1
 62
     5
  6
CONTINUOUS
 10
-0.292476
 20
3.284087
  0
VERTEX
  8
PLAN_1
 62
     5
  6
CONTINUOUS
 10
-0.292476
 20
3.292378
  0
SEQEND
  8
0
  0
POLYLINE
  8
PLAN_1
 62
     5
  6
CONTINUOUS
 66
     1
 40
0.003000
 41
0.003000
  0
VERTEX
  8
PLAN_1
 62
     5
  6
CONTINUOUS
 10
-0.292476
 20
3.300665
  0
VERTEX
  8
PLAN_1
 62
     5
  6
CONTINUOUS
 10
-0.292476
 20
3.308953
  0
SEQEND
  8
0
  0
POLYLINE
  8
PLAN_1
 62
     5
  6
CONTINUOUS
 66
     1
 40
0.003000
 41
0.003000
  0
VERTEX
  8
PLAN_1
 62
     5
  6
CONTINUOUS
 10
-0.292476
 20
3.317240
  0
VERTEX
  8
PLAN_1
 62
     5
  6
CONTINUOUS
 10
-0.292476
 20
3.325528
  0
SEQEND
  8
0
  0
POLYLINE
  8
PLAN_1
 62
     5
  6
CONTINUOUS
 66
     1
 40
0.003000
 41
0.003000
  0
VERTEX
  8
PLAN_1
 62
     5
  6
CONTINUOUS
 10
-0.292476
 20
3.333819
  0
VERTEX
  8
PLAN_1
 62
     5
  6
CONTINUOUS
 10
-0.292476
 20
3.342106
  0
SEQEND
  8
0
  0
POLYLINE
  8
PLAN_1
 62
     5
  6
CONTINUOUS
 66
     1
 40
0.003000
 41
0.003000
  0
VERTEX
  8
PLAN_1
 62
     5
  6
CONTINUOUS
 10
-0.292476
 20
3.350394
  0
VERTEX
  8
PLAN_1
 62
     5
  6
CONTINUOUS
 10
-0.292476
 20
3.359142
  0
SEQEND
  8
0
  0
POLYLINE
  8
PLAN_1
 62
     5
  6
CONTINUOUS
 66
     1
 40
0.003000
 41
0.003000
  0
VERTEX
  8
PLAN_1
 62
     5
  6
CONTINUOUS
 10
-0.292476
 20
3.367429
  0
VERTEX
  8
PLAN_1
 62
     5
  6
CONTINUOUS
 10
-0.292476
 20
3.370654
  0
SEQEND
  8
0
  0
POLYLINE
  8
PLAN_1
 62
     5
  6
CONTINUOUS
 66
     1
 40
0.003000
 41
0.003000
  0
VERTEX
  8
PLAN_1
 62
     5
  6
CONTINUOUS
 10
-0.292476
 20
3.367429
  0
VERTEX
  8
PLAN_1
 62
     5
  6
CONTINUOUS
 10
-0.292476
 20
3.370654
  0
SEQEND
  8
0
  0
POLYLINE
  8
PLAN_1
  6
CONTINUOUS
 66
     1
 40
0.008287
 41
0.008287
  0
VERTEX
  8
PLAN_1
  6
CONTINUOUS
 10
-0.700898
 20
0.592732
  0
VERTEX
  8
PLAN_1
  6
CONTINUOUS
 10
-0.700898
 20
0.673311
  0
VERTEX
  8
PLAN_1
  6
CONTINUOUS
 10
-1.460189
 20
0.673311
  0
VERTEX
  8
PLAN_1
  6
CONTINUOUS
 10
-1.460189
 20
0.592732
  0
VERTEX
  8
PLAN_1
  6
CONTINUOUS
 10
-0.700898
 20
0.592732
  0
SEQEND
  8
0
  0
POLYLINE
  8
PLAN_1
  6
CONTINUOUS
 66
     1
 40
0.008287
 41
0.008287
  0
VERTEX
  8
PLAN_1
  6
CONTINUOUS
 10
-0.624921
 20
0.673311
  0
VERTEX
  8
PLAN_1
  6
CONTINUOUS
 10
-0.624921
 20
1.070220
  0
VERTEX
  8
PLAN_1
  6
CONTINUOUS
 10
-1.529256
 20
1.070220
  0
VERTEX
  8
PLAN_1
  6
CONTINUOUS
 10
-1.529256
 20
0.673311
  0
VERTEX
  8
PLAN_1
  6
CONTINUOUS
 10
-0.624921
 20
0.673311
  0
SEQEND
  8
0
  0
POLYLINE
  8
PLAN_1
  6
CONTINUOUS
 66
     1
 40
0.008287
 41
0.008287
  0
VERTEX
  8
PLAN_1
  6
CONTINUOUS
 10
-1.340469
 20
1.070220
  0
VERTEX
  8
PLAN_1
  6
CONTINUOUS
 10
-1.340469
 20
0.673311
  0
SEQEND
  8
0
  0
POLYLINE
  8
PLAN_1
  6
CONTINUOUS
 66
     1
 40
0.008287
 41
0.008287
  0
VERTEX
  8
PLAN_1
  6
CONTINUOUS
 10
-0.823378
 20
1.070220
  0
VERTEX
  8
PLAN_1
  6
CONTINUOUS
 10
-0.823378
 20
0.673311
  0
SEQEND
  8
0
  0
POLYLINE
  8
PLAN_1
  6
CONTINUOUS
 66
     1
 40
0.008287
 41
0.008287
  0
VERTEX
  8
PLAN_1
  6
CONTINUOUS
 10
-1.467094
 20
0.427886
  0
VERTEX
  8
PLAN_1
  6
CONTINUOUS
 10
-0.684783
 20
0.427886
  0
VERTEX
  8
PLAN_1
  6
CONTINUOUS
 10
-0.624921
 20
0.464724
  0
VERTEX
  8
PLAN_1
  6
CONTINUOUS
 10
-0.624921
 20
0.592732
  0
VERTEX
  8
PLAN_1
  6
CONTINUOUS
 10
-1.529256
 20
0.592732
  0
VERTEX
  8
PLAN_1
  6
CONTINUOUS
 10
-1.529256
 20
0.464724
  0
VERTEX
  8
PLAN_1
  6
CONTINUOUS
 10
-1.467094
 20
0.427886
  0
SEQEND
  8
0
  0
POLYLINE
  8
PLAN_1
  6
CONTINUOUS
 66
     1
 40
0.008287
 41
0.008287
  0
VERTEX
  8
PLAN_1
  6
CONTINUOUS
 10
-1.335866
 20
0.592732
  0
VERTEX
  8
PLAN_1
  6
CONTINUOUS
 10
-1.335866
 20
0.509390
  0
SEQEND
  8
0
  0
POLYLINE
  8
PLAN_1
  6
CONTINUOUS
 66
     1
 40
0.008287
 41
0.008287
  0
VERTEX
  8
PLAN_1
  6
CONTINUOUS
 10
-0.817394
 20
0.592732
  0
VERTEX
  8
PLAN_1
  6
CONTINUOUS
 10
-0.817394
 20
0.509390
  0
SEQEND
  8
0
  0
POLYLINE
  8
PLAN_1
  6
CONTINUOUS
 66
     1
 40
0.008287
 41
0.008287
  0
VERTEX
  8
PLAN_1
  6
CONTINUOUS
 10
-1.524654
 20
0.473012
  0
VERTEX
  8
PLAN_1
  6
CONTINUOUS
 10
-1.520969
 20
0.467949
  0
VERTEX
  8
PLAN_1
  6
CONTINUOUS
 10
-1.516823
 20
0.463343
  0
VERTEX
  8
PLAN_1
  6
CONTINUOUS
 10
-1.512681
 20
0.459197
  0
VERTEX
  8
PLAN_1
  6
CONTINUOUS
 10
-1.508075
 20
0.455055
  0
VERTEX
  8
PLAN_1
  6
CONTINUOUS
 10
-1.503472
 20
0.450909
  0
VERTEX
  8
PLAN_1
  6
CONTINUOUS
 10
-1.498406
 20
0.447228
  0
VERTEX
  8
PLAN_1
  6
CONTINUOUS
 10
-1.493343
 20
0.444004
  0
VERTEX
  8
PLAN_1
  6
CONTINUOUS
 10
-1.488276
 20
0.441240
  0
VERTEX
  8
PLAN_1
  6
CONTINUOUS
 10
-1.482291
 20
0.438476
  0
VERTEX
  8
PLAN_1
  6
CONTINUOUS
 10
-1.476764
 20
0.435717
  0
VERTEX
  8
PLAN_1
  6
CONTINUOUS
 10
-1.470780
 20
0.433874
  0
VERTEX
  8
PLAN_1
  6
CONTINUOUS
 10
-1.464791
 20
0.432031
  0
VERTEX
  8
PLAN_1
  6
CONTINUOUS
 10
-1.458807
 20
0.430650
  0
VERTEX
  8
PLAN_1
  6
CONTINUOUS
 10
-1.452358
 20
0.429728
  0
VERTEX
  8
PLAN_1
  6
CONTINUOUS
 10
-1.445913
 20
0.429268
  0
VERTEX
  8
PLAN_1
  6
CONTINUOUS
 10
-1.439469
 20
0.429268
  0
VERTEX
  8
PLAN_1
  6
CONTINUOUS
 10
-1.434402
 20
0.429268
  0
VERTEX
  8
PLAN_1
  6
CONTINUOUS
 10
-1.429799
 20
0.429728
  0
VERTEX
  8
PLAN_1
  6
CONTINUOUS
 10
-1.425193
 20
0.430189
  0
VERTEX
  8
PLAN_1
  6
CONTINUOUS
 10
-1.420591
 20
0.431110
  0
VERTEX
  8
PLAN_1
  6
CONTINUOUS
 10
-1.411378
 20
0.433413
  0
VERTEX
  8
PLAN_1
  6
CONTINUOUS
 10
-1.402169
 20
0.436177
  0
VERTEX
  8
PLAN_1
  6
CONTINUOUS
 10
-1.393882
 20
0.439858
  0
VERTEX
  8
PLAN_1
  6
CONTINUOUS
 10
-1.385594
 20
0.444465
  0
VERTEX
  8
PLAN_1
  6
CONTINUOUS
 10
-1.377768
 20
0.449528
  0
VERTEX
  8
PLAN_1
  6
CONTINUOUS
 10
-1.370858
 20
0.455516
  0
VERTEX
  8
PLAN_1
  6
CONTINUOUS
 10
-1.363953
 20
0.461500
  0
VERTEX
  8
PLAN_1
  6
CONTINUOUS
 10
-1.357969
 20
0.467949
  0
VERTEX
  8
PLAN_1
  6
CONTINUOUS
 10
-1.352441
 20
0.474854
  0
VERTEX
  8
PLAN_1
  6
CONTINUOUS
 10
-1.347839
 20
0.482220
  0
VERTEX
  8
PLAN_1
  6
CONTINUOUS
 10
-1.343693
 20
0.489587
  0
VERTEX
  8
PLAN_1
  6
CONTINUOUS
 10
-1.340469
 20
0.497417
  0
VERTEX
  8
PLAN_1
  6
CONTINUOUS
 10
-1.338169
 20
0.504783
  0
VERTEX
  8
PLAN_1
  6
CONTINUOUS
 10
-1.337248
 20
0.512610
  0
VERTEX
  8
PLAN_1
  6
CONTINUOUS
 10
-1.322512
 20
0.503402
  0
VERTEX
  8
PLAN_1
  6
CONTINUOUS
 10
-1.307776
 20
0.494654
  0
VERTEX
  8
PLAN_1
  6
CONTINUOUS
 10
-1.293043
 20
0.486366
  0
VERTEX
  8
PLAN_1
  6
CONTINUOUS
 10
-1.277846
 20
0.478079
  0
VERTEX
  8
PLAN_1
  6
CONTINUOUS
 10
-1.262193
 20
0.470709
  0
VERTEX
  8
PLAN_1
  6
CONTINUOUS
 10
-1.246535
 20
0.463803
  0
VERTEX
  8
PLAN_1
  6
CONTINUOUS
 10
-1.230882
 20
0.457819
  0
VERTEX
  8
PLAN_1
  6
CONTINUOUS
 10
-1.214307
 20
0.451831
  0
VERTEX
  8
PLAN_1
  6
CONTINUOUS
 10
-1.198189
 20
0.446768
  0
VERTEX
  8
PLAN_1
  6
CONTINUOUS
 10
-1.181154
 20
0.442161
  0
VERTEX
  8
PLAN_1
  6
CONTINUOUS
 10
-1.164575
 20
0.438476
  0
VERTEX
  8
PLAN_1
  6
CONTINUOUS
 10
-1.147079
 20
0.435256
  0
VERTEX
  8
PLAN_1
  6
CONTINUOUS
 10
-1.130043
 20
0.432492
  0
VERTEX
  8
PLAN_1
  6
CONTINUOUS
 10
-1.112083
 20
0.430650
  0
VERTEX
  8
PLAN_1
  6
CONTINUOUS
 10
-1.094126
 20
0.429728
  0
VERTEX
  8
PLAN_1
  6
CONTINUOUS
 10
-1.076169
 20
0.429268
  0
VERTEX
  8
PLAN_1
  6
CONTINUOUS
 10
-1.058213
 20
0.429728
  0
VERTEX
  8
PLAN_1
  6
CONTINUOUS
 10
-1.039791
 20
0.430650
  0
VERTEX
  8
PLAN_1
  6
CONTINUOUS
 10
-1.021835
 20
0.432492
  0
VERTEX
  8
PLAN_1
  6
CONTINUOUS
 10
-1.003878
 20
0.435256
  0
VERTEX
  8
PLAN_1
  6
CONTINUOUS
 10
-0.986382
 20
0.438476
  0
VERTEX
  8
PLAN_1
  6
CONTINUOUS
 10
-0.968882
 20
0.442161
  0
VERTEX
  8
PLAN_1
  6
CONTINUOUS
 10
-0.951386
 20
0.446768
  0
VERTEX
  8
PLAN_1
  6
CONTINUOUS
 10
-0.934811
 20
0.451831
  0
VERTEX
  8
PLAN_1
  6
CONTINUOUS
 10
-0.918232
 20
0.457358
  0
VERTEX
  8
PLAN_1
  6
CONTINUOUS
 10
-0.902118
 20
0.463803
  0
VERTEX
  8
PLAN_1
  6
CONTINUOUS
 10
-0.886461
 20
0.470709
  0
VERTEX
  8
PLAN_1
  6
CONTINUOUS
 10
-0.871268
 20
0.478539
  0
VERTEX
  8
PLAN_1
  6
CONTINUOUS
 10
-0.856531
 20
0.486366
  0
VERTEX
  8
PLAN_1
  6
CONTINUOUS
 10
-0.842717
 20
0.495114
  0
VERTEX
  8
PLAN_1
  6
CONTINUOUS
 10
-0.829827
 20
0.504323
  0
VERTEX
  8
PLAN_1
  6
CONTINUOUS
 10
-0.816933
 20
0.513992
  0
VERTEX
  8
PLAN_1
  6
CONTINUOUS
 10
-0.815091
 20
0.505244
  0
VERTEX
  8
PLAN_1
  6
CONTINUOUS
 10
-0.812327
 20
0.496496
  0
VERTEX
  8
PLAN_1
  6
CONTINUOUS
 10
-0.808646
 20
0.488209
  0
VERTEX
  8
PLAN_1
  6
CONTINUOUS
 10
-0.804500
 20
0.480378
  0
VERTEX
  8
PLAN_1
  6
CONTINUOUS
 10
-0.799437
 20
0.473012
  0
VERTEX
  8
PLAN_1
  6
CONTINUOUS
 10
-0.793909
 20
0.466106
  0
VERTEX
  8
PLAN_1
  6
CONTINUOUS
 10
-0.787925
 20
0.459197
  0
VERTEX
  8
PLAN_1
  6
CONTINUOUS
 10
-0.781016
 20
0.453213
  0
VERTEX
  8
PLAN_1
  6
CONTINUOUS
 10
-0.774110
 20
0.448146
  0
VERTEX
  8
PLAN_1
  6
CONTINUOUS
 10
-0.766744
 20
0.443083
  0
VERTEX
  8
PLAN_1
  6
CONTINUOUS
 10
-0.758457
 20
0.438937
  0
VERTEX
  8
PLAN_1
  6
CONTINUOUS
 10
-0.750165
 20
0.435717
  0
VERTEX
  8
PLAN_1
  6
CONTINUOUS
 10
-0.741417
 20
0.432953
  0
VERTEX
  8
PLAN_1
  6
CONTINUOUS
 10
-0.732669
 20
0.430650
  0
VERTEX
  8
PLAN_1
  6
CONTINUOUS
 10
-0.723461
 20
0.429268
  0
VERTEX
  8
PLAN_1
  6
CONTINUOUS
 10
-0.713791
 20
0.429268
  0
VERTEX
  8
PLAN_1
  6
CONTINUOUS
 10
-0.707346
 20
0.429268
  0
VERTEX
  8
PLAN_1
  6
CONTINUOUS
 10
-0.700898
 20
0.429728
  0
VERTEX
  8
PLAN_1
  6
CONTINUOUS
 10
-0.694453
 20
0.430650
  0
VERTEX
  8
PLAN_1
  6
CONTINUOUS
 10
-0.688465
 20
0.432031
  0
VERTEX
  8
PLAN_1
  6
CONTINUOUS
 10
-0.682020
 20
0.433874
  0
VERTEX
  8
PLAN_1
  6
CONTINUOUS
 10
-0.676492
 20
0.435717
  0
VERTEX
  8
PLAN_1
  6
CONTINUOUS
 10
-0.670508
 20
0.438476
  0
VERTEX
  8
PLAN_1
  6
CONTINUOUS
 10
-0.664984
 20
0.441240
  0
VERTEX
  8
PLAN_1
  6
CONTINUOUS
 10
-0.659457
 20
0.444004
  0
VERTEX
  8
PLAN_1
  6
CONTINUOUS
 10
-0.654394
 20
0.447228
  0
VERTEX
  8
PLAN_1
  6
CONTINUOUS
 10
-0.649327
 20
0.450909
  0
VERTEX
  8
PLAN_1
  6
CONTINUOUS
 10
-0.644724
 20
0.455055
  0
VERTEX
  8
PLAN_1
  6
CONTINUOUS
 10
-0.640118
 20
0.459197
  0
VERTEX
  8
PLAN_1
  6
CONTINUOUS
 10
-0.635972
 20
0.463343
  0
VERTEX
  8
PLAN_1
  6
CONTINUOUS
 10
-0.631831
 20
0.467949
  0
VERTEX
  8
PLAN_1
  6
CONTINUOUS
 10
-0.628146
 20
0.473012
  0
SEQEND
  8
0
  0
POLYLINE
  8
PLAN_1
  6
CONTINUOUS
 66
     1
 40
0.008287
 41
0.008287
  0
VERTEX
  8
PLAN_1
  6
CONTINUOUS
 10
-1.582209
 20
3.434657
  0
VERTEX
  8
PLAN_1
  6
CONTINUOUS
 10
-1.582209
 20
3.148252
  0
VERTEX
  8
PLAN_1
  6
CONTINUOUS
 10
-0.581181
 20
3.148252
  0
VERTEX
  8
PLAN_1
  6
CONTINUOUS
 10
-0.581181
 20
3.434657
  0
SEQEND
  8
0
  0
POLYLINE
  8
PLAN_1
  6
CONTINUOUS
 66
     1
 40
0.008287
 41
0.008287
  0
VERTEX
  8
PLAN_1
  6
CONTINUOUS
 10
-1.577142
 20
3.149173
  0
VERTEX
  8
PLAN_1
  6
CONTINUOUS
 10
-1.581287
 20
3.138583
  0
VERTEX
  8
PLAN_1
  6
CONTINUOUS
 10
-1.585894
 20
3.127992
  0
VERTEX
  8
PLAN_1
  6
CONTINUOUS
 10
-1.590957
 20
3.117862
  0
VERTEX
  8
PLAN_1
  6
CONTINUOUS
 10
-1.596484
 20
3.107732
  0
VERTEX
  8
PLAN_1
  6
CONTINUOUS
 10
-1.602008
 20
3.097602
  0
VERTEX
  8
PLAN_1
  6
CONTINUOUS
 10
-1.608453
 20
3.087933
  0
VERTEX
  8
PLAN_1
  6
CONTINUOUS
 10
-1.614902
 20
3.078724
  0
VERTEX
  8
PLAN_1
  6
CONTINUOUS
 10
-1.621346
 20
3.069516
  0
VERTEX
  8
PLAN_1
  6
CONTINUOUS
 10
-1.628713
 20
3.060768
  0
VERTEX
  8
PLAN_1
  6
CONTINUOUS
 10
-1.636083
 20
3.052020
  0
VERTEX
  8
PLAN_1
  6
CONTINUOUS
 10
-1.643909
 20
3.043732
  0
VERTEX
  8
PLAN_1
  6
CONTINUOUS
 10
-1.651736
 20
3.035441
  0
VERTEX
  8
PLAN_1
  6
CONTINUOUS
 10
-1.660024
 20
3.027614
  0
VERTEX
  8
PLAN_1
  6
CONTINUOUS
 10
-1.668776
 20
3.020248
  0
VERTEX
  8
PLAN_1
  6
CONTINUOUS
 10
-1.677524
 20
3.013343
  0
VERTEX
  8
PLAN_1
  6
CONTINUOUS
 10
-1.686732
 20
3.006433
  0
VERTEX
  8
PLAN_1
  6
CONTINUOUS
 10
-1.695941
 20
2.999988
  0
VERTEX
  8
PLAN_1
  6
CONTINUOUS
 10
-1.705610
 20
2.994000
  0
VERTEX
  8
PLAN_1
  6
CONTINUOUS
 10
-1.715740
 20
2.988016
  0
VERTEX
  8
PLAN_1
  6
CONTINUOUS
 10
-1.725870
 20
2.982492
  0
VERTEX
  8
PLAN_1
  6
CONTINUOUS
 10
-1.736000
 20
2.977425
  0
VERTEX
  8
PLAN_1
  6
CONTINUOUS
 10
-1.746591
 20
2.972819
  0
VERTEX
  8
PLAN_1
  6
CONTINUOUS
 10
-1.757181
 20
2.968677
  0
VERTEX
  8
PLAN_1
  6
CONTINUOUS
 10
-1.768232
 20
2.964992
  0
VERTEX
  8
PLAN_1
  6
CONTINUOUS
 10
-1.779283
 20
2.961311
  0
VERTEX
  8
PLAN_1
  6
CONTINUOUS
 10
-1.790795
 20
2.958547
  0
VERTEX
  8
PLAN_1
  6
CONTINUOUS
 10
-1.802307
 20
2.955783
  0
VERTEX
  8
PLAN_1
  6
CONTINUOUS
 10
-1.813819
 20
2.953941
  0
VERTEX
  8
PLAN_1
  6
CONTINUOUS
 10
-1.825787
 20
2.952098
  0
VERTEX
  8
PLAN_1
  6
CONTINUOUS
 10
-1.837299
 20
2.951181
  0
VERTEX
  8
PLAN_1
  6
CONTINUOUS
 10
-1.849732
 20
2.950260
  0
VERTEX
  8
PLAN_1
  6
CONTINUOUS
 10
-1.861705
 20
2.949799
  0
SEQEND
  8
0
  0
POLYLINE
  8
PLAN_1
  6
CONTINUOUS
 66
     1
 40
0.008287
 41
0.008287
  0
VERTEX
  8
PLAN_1
  6
CONTINUOUS
 10
-1.861705
 20
2.949799
  0
VERTEX
  8
PLAN_1
  6
CONTINUOUS
 10
-1.907748
 20
2.949799
  0
SEQEND
  8
0
  0
POLYLINE
  8
PLAN_1
  6
CONTINUOUS
 66
     1
 40
0.008287
 41
0.008287
  0
VERTEX
  8
PLAN_1
  6
CONTINUOUS
 10
-1.907748
 20
2.949799
  0
VERTEX
  8
PLAN_1
  6
CONTINUOUS
 10
-1.917882
 20
2.949799
  0
VERTEX
  8
PLAN_1
  6
CONTINUOUS
 10
-1.927551
 20
2.948878
  0
VERTEX
  8
PLAN_1
  6
CONTINUOUS
 10
-1.937220
 20
2.947496
  0
VERTEX
  8
PLAN_1
  6
CONTINUOUS
 10
-1.946890
 20
2.946114
  0
VERTEX
  8
PLAN_1
  6
CONTINUOUS
 10
-1.956559
 20
2.943811
  0
VERTEX
  8
PLAN_1
  6
CONTINUOUS
 10
-1.965768
 20
2.941051
  0
VERTEX
  8
PLAN_1
  6
CONTINUOUS
 10
-1.974516
 20
2.937827
  0
VERTEX
  8
PLAN_1
  6
CONTINUOUS
 10
-1.983264
 20
2.934602
  0
VERTEX
  8
PLAN_1
  6
CONTINUOUS
 10
-1.992012
 20
2.930461
  0
VERTEX
  8
PLAN_1
  6
CONTINUOUS
 10
-2.000303
 20
2.926315
  0
VERTEX
  8
PLAN_1
  6
CONTINUOUS
 10
-2.008591
 20
2.921248
  0
VERTEX
  8
PLAN_1
  6
CONTINUOUS
 10
-2.016417
 20
2.916185
  0
VERTEX
  8
PLAN_1
  6
CONTINUOUS
 10
-2.023783
 20
2.910657
  0
VERTEX
  8
PLAN_1
  6
CONTINUOUS
 10
-2.031154
 20
2.905134
  0
VERTEX
  8
PLAN_1
  6
CONTINUOUS
 10
-2.038520
 20
2.898689
  0
VERTEX
  8
PLAN_1
  6
CONTINUOUS
 10
-2.044965
 20
2.892240
  0
VERTEX
  8
PLAN_1
  6
CONTINUOUS
 10
-2.051413
 20
2.885335
  0
VERTEX
  8
PLAN_1
  6
CONTINUOUS
 10
-2.057858
 20
2.878429
  0
VERTEX
  8
PLAN_1
  6
CONTINUOUS
 10
-2.063382
 20
2.870598
  0
VERTEX
  8
PLAN_1
  6
CONTINUOUS
 10
-2.068909
 20
2.863232
  0
VERTEX
  8
PLAN_1
  6
CONTINUOUS
 10
-2.073972
 20
2.854945
  0
VERTEX
  8
PLAN_1
  6
CONTINUOUS
 10
-2.078579
 20
2.847118
  0
VERTEX
  8
PLAN_1
  6
CONTINUOUS
 10
-2.082724
 20
2.838366
  0
VERTEX
  8
PLAN_1
  6
CONTINUOUS
 10
-2.086866
 20
2.830079
  0
VERTEX
  8
PLAN_1
  6
CONTINUOUS
 10
-2.090091
 20
2.820870
  0
VERTEX
  8
PLAN_1
  6
CONTINUOUS
 10
-2.093315
 20
2.812122
  0
VERTEX
  8
PLAN_1
  6
CONTINUOUS
 10
-2.096075
 20
2.802453
  0
VERTEX
  8
PLAN_1
  6
CONTINUOUS
 10
-2.097917
 20
2.793244
  0
VERTEX
  8
PLAN_1
  6
CONTINUOUS
 10
-2.099760
 20
2.783575
  0
VERTEX
  8
PLAN_1
  6
CONTINUOUS
 10
-2.101142
 20
2.773906
  0
VERTEX
  8
PLAN_1
  6
CONTINUOUS
 10
-2.101602
 20
2.763776
  0
VERTEX
  8
PLAN_1
  6
CONTINUOUS
 10
-2.102063
 20
2.754106
  0
SEQEND
  8
0
  0
POLYLINE
  8
PLAN_1
  6
CONTINUOUS
 66
     1
 40
0.008287
 41
0.008287
  0
VERTEX
  8
PLAN_1
  6
CONTINUOUS
 10
-0.579339
 20
3.149173
  0
VERTEX
  8
PLAN_1
  6
CONTINUOUS
 10
-0.575193
 20
3.138583
  0
VERTEX
  8
PLAN_1
  6
CONTINUOUS
 10
-0.570591
 20
3.127992
  0
VERTEX
  8
PLAN_1
  6
CONTINUOUS
 10
-0.565524
 20
3.117862
  0
VERTEX
  8
PLAN_1
  6
CONTINUOUS
 10
-0.560000
 20
3.107732
  0
VERTEX
  8
PLAN_1
  6
CONTINUOUS
 10
-0.554472
 20
3.097602
  0
VERTEX
  8
PLAN_1
  6
CONTINUOUS
 10
-0.548488
 20
3.087933
  0
VERTEX
  8
PLAN_1
  6
CONTINUOUS
 10
-0.542039
 20
3.078724
  0
VERTEX
  8
PLAN_1
  6
CONTINUOUS
 10
-0.535134
 20
3.069516
  0
VERTEX
  8
PLAN_1
  6
CONTINUOUS
 10
-0.528228
 20
3.060768
  0
VERTEX
  8
PLAN_1
  6
CONTINUOUS
 10
-0.520862
 20
3.052020
  0
VERTEX
  8
PLAN_1
  6
CONTINUOUS
 10
-0.513031
 20
3.043732
  0
VERTEX
  8
PLAN_1
  6
CONTINUOUS
 10
-0.504744
 20
3.035441
  0
VERTEX
  8
PLAN_1
  6
CONTINUOUS
 10
-0.496457
 20
3.027614
  0
VERTEX
  8
PLAN_1
  6
CONTINUOUS
 10
-0.488169
 20
3.020248
  0
VERTEX
  8
PLAN_1
  6
CONTINUOUS
 10
-0.478961
 20
3.013343
  0
VERTEX
  8
PLAN_1
  6
CONTINUOUS
 10
-0.469748
 20
3.006433
  0
VERTEX
  8
PLAN_1
  6
CONTINUOUS
 10
-0.460539
 20
2.999988
  0
VERTEX
  8
PLAN_1
  6
CONTINUOUS
 10
-0.450870
 20
2.994000
  0
VERTEX
  8
PLAN_1
  6
CONTINUOUS
 10
-0.441201
 20
2.988016
  0
VERTEX
  8
PLAN_1
  6
CONTINUOUS
 10
-0.431071
 20
2.982492
  0
VERTEX
  8
PLAN_1
  6
CONTINUOUS
 10
-0.420480
 20
2.977425
  0
VERTEX
  8
PLAN_1
  6
CONTINUOUS
 10
-0.409890
 20
2.972819
  0
VERTEX
  8
PLAN_1
  6
CONTINUOUS
 10
-0.399299
 20
2.968677
  0
VERTEX
  8
PLAN_1
  6
CONTINUOUS
 10
-0.388248
 20
2.964992
  0
VERTEX
  8
PLAN_1
  6
CONTINUOUS
 10
-0.377197
 20
2.961311
  0
VERTEX
  8
PLAN_1
  6
CONTINUOUS
 10
-0.365689
 20
2.958547
  0
VERTEX
  8
PLAN_1
  6
CONTINUOUS
 10
-0.354638
 20
2.955783
  0
VERTEX
  8
PLAN_1
  6
CONTINUOUS
 10
-0.342665
 20
2.953941
  0
VERTEX
  8
PLAN_1
  6
CONTINUOUS
 10
-0.331154
 20
2.952098
  0
VERTEX
  8
PLAN_1
  6
CONTINUOUS
 10
-0.319181
 20
2.951181
  0
VERTEX
  8
PLAN_1
  6
CONTINUOUS
 10
-0.307209
 20
2.950260
  0
VERTEX
  8
PLAN_1
  6
CONTINUOUS
 10
-0.294776
 20
2.949799
  0
SEQEND
  8
0
  0
POLYLINE
  8
PLAN_1
  6
CONTINUOUS
 66
     1
 40
0.008287
 41
0.008287
  0
VERTEX
  8
PLAN_1
  6
CONTINUOUS
 10
-0.294776
 20
2.949799
  0
VERTEX
  8
PLAN_1
  6
CONTINUOUS
 10
-0.248732
 20
2.949799
  0
SEQEND
  8
0
  0
POLYLINE
  8
PLAN_1
  6
CONTINUOUS
 66
     1
 40
0.008287
 41
0.008287
  0
VERTEX
  8
PLAN_1
  6
CONTINUOUS
 10
-0.248732
 20
2.949799
  0
VERTEX
  8
PLAN_1
  6
CONTINUOUS
 10
-0.238602
 20
2.949799
  0
VERTEX
  8
PLAN_1
  6
CONTINUOUS
 10
-0.228933
 20
2.948878
  0
VERTEX
  8
PLAN_1
  6
CONTINUOUS
 10
-0.219264
 20
2.947496
  0
VERTEX
  8
PLAN_1
  6
CONTINUOUS
 10
-0.209594
 20
2.946114
  0
VERTEX
  8
PLAN_1
  6
CONTINUOUS
 10
-0.200386
 20
2.943811
  0
VERTEX
  8
PLAN_1
  6
CONTINUOUS
 10
-0.191173
 20
2.941051
  0
VERTEX
  8
PLAN_1
  6
CONTINUOUS
 10
-0.181965
 20
2.937827
  0
VERTEX
  8
PLAN_1
  6
CONTINUOUS
 10
-0.173217
 20
2.934602
  0
VERTEX
  8
PLAN_1
  6
CONTINUOUS
 10
-0.164469
 20
2.930461
  0
VERTEX
  8
PLAN_1
  6
CONTINUOUS
 10
-0.156181
 20
2.926315
  0
VERTEX
  8
PLAN_1
  6
CONTINUOUS
 10
-0.147894
 20
2.921248
  0
VERTEX
  8
PLAN_1
  6
CONTINUOUS
 10
-0.140063
 20
2.916185
  0
VERTEX
  8
PLAN_1
  6
CONTINUOUS
 10
-0.132697
 20
2.910657
  0
VERTEX
  8
PLAN_1
  6
CONTINUOUS
 10
-0.125331
 20
2.905134
  0
VERTEX
  8
PLAN_1
  6
CONTINUOUS
 10
-0.118421
 20
2.898689
  0
VERTEX
  8
PLAN_1
  6
CONTINUOUS
 10
-0.111516
 20
2.892240
  0
VERTEX
  8
PLAN_1
  6
CONTINUOUS
 10
-0.105071
 20
2.885335
  0
VERTEX
  8
PLAN_1
  6
CONTINUOUS
 10
-0.099083
 20
2.878429
  0
VERTEX
  8
PLAN_1
  6
CONTINUOUS
 10
-0.093098
 20
2.870598
  0
VERTEX
  8
PLAN_1
  6
CONTINUOUS
 10
-0.087571
 20
2.863232
  0
VERTEX
  8
PLAN_1
  6
CONTINUOUS
 10
-0.082969
 20
2.854945
  0
VERTEX
  8
PLAN_1
  6
CONTINUOUS
 10
-0.077902
 20
2.847118
  0
VERTEX
  8
PLAN_1
  6
CONTINUOUS
 10
-0.073760
 20
2.838366
  0
VERTEX
  8
PLAN_1
  6
CONTINUOUS
 10
-0.070075
 20
2.830079
  0
VERTEX
  8
PLAN_1
  6
CONTINUOUS
 10
-0.066390
 20
2.820870
  0
VERTEX
  8
PLAN_1
  6
CONTINUOUS
 10
-0.063169
 20
2.812122
  0
VERTEX
  8
PLAN_1
  6
CONTINUOUS
 10
-0.060866
 20
2.802453
  0
VERTEX
  8
PLAN_1
  6
CONTINUOUS
 10
-0.058563
 20
2.793244
  0
VERTEX
  8
PLAN_1
  6
CONTINUOUS
 10
-0.056720
 20
2.783575
  0
VERTEX
  8
PLAN_1
  6
CONTINUOUS
 10
-0.055799
 20
2.773906
  0
VERTEX
  8
PLAN_1
  6
CONTINUOUS
 10
-0.054882
 20
2.763776
  0
VERTEX
  8
PLAN_1
  6
CONTINUOUS
 10
-0.054421
 20
2.754106
  0
SEQEND
  8
0
  0
POLYLINE
  8
PLAN_1
  6
CONTINUOUS
 66
     1
 40
0.008287
 41
0.008287
  0
VERTEX
  8
PLAN_1
  6
CONTINUOUS
 10
-1.909130
 20
2.846197
  0
VERTEX
  8
PLAN_1
  6
CONTINUOUS
 10
-1.917882
 20
2.845736
  0
VERTEX
  8
PLAN_1
  6
CONTINUOUS
 10
-1.926169
 20
2.844354
  0
VERTEX
  8
PLAN_1
  6
CONTINUOUS
 10
-1.934457
 20
2.842051
  0
VERTEX
  8
PLAN_1
  6
CONTINUOUS
 10
-1.942283
 20
2.839287
  0
VERTEX
  8
PLAN_1
  6
CONTINUOUS
 10
-1.949650
 20
2.835606
  0
VERTEX
  8
PLAN_1
  6
CONTINUOUS
 10
-1.956559
 20
2.831461
  0
VERTEX
  8
PLAN_1
  6
CONTINUOUS
 10
-1.963004
 20
2.826398
  0
VERTEX
  8
PLAN_1
  6
CONTINUOUS
 10
-1.968992
 20
2.821331
  0
VERTEX
  8
PLAN_1
  6
CONTINUOUS
 10
-1.974516
 20
2.814886
  0
VERTEX
  8
PLAN_1
  6
CONTINUOUS
 10
-1.979583
 20
2.808437
  0
VERTEX
  8
PLAN_1
  6
CONTINUOUS
 10
-1.983724
 20
2.801531
  0
VERTEX
  8
PLAN_1
  6
CONTINUOUS
 10
-1.987409
 20
2.794165
  0
VERTEX
  8
PLAN_1
  6
CONTINUOUS
 10
-1.990173
 20
2.786335
  0
VERTEX
  8
PLAN_1
  6
CONTINUOUS
 10
-1.992012
 20
2.778047
  0
VERTEX
  8
PLAN_1
  6
CONTINUOUS
 10
-1.993394
 20
2.769760
  0
VERTEX
  8
PLAN_1
  6
CONTINUOUS
 10
-1.993854
 20
2.761012
  0
VERTEX
  8
PLAN_1
  6
CONTINUOUS
 10
-1.993394
 20
2.752264
  0
VERTEX
  8
PLAN_1
  6
CONTINUOUS
 10
-1.992012
 20
2.743976
  0
VERTEX
  8
PLAN_1
  6
CONTINUOUS
 10
-1.990173
 20
2.735685
  0
VERTEX
  8
PLAN_1
  6
CONTINUOUS
 10
-1.987409
 20
2.728319
  0
VERTEX
  8
PLAN_1
  6
CONTINUOUS
 10
-1.983724
 20
2.720492
  0
VERTEX
  8
PLAN_1
  6
CONTINUOUS
 10
-1.979583
 20
2.713587
  0
VERTEX
  8
PLAN_1
  6
CONTINUOUS
 10
-1.974516
 20
2.707138
  0
VERTEX
  8
PLAN_1
  6
CONTINUOUS
 10
-1.968992
 20
2.701154
  0
VERTEX
  8
PLAN_1
  6
CONTINUOUS
 10
-1.963004
 20
2.695626
  0
VERTEX
  8
PLAN_1
  6
CONTINUOUS
 10
-1.956559
 20
2.690563
  0
VERTEX
  8
PLAN_1
  6
CONTINUOUS
 10
-1.949650
 20
2.686417
  0
VERTEX
  8
PLAN_1
  6
CONTINUOUS
 10
-1.942283
 20
2.683193
  0
VERTEX
  8
PLAN_1
  6
CONTINUOUS
 10
-1.934457
 20
2.679972
  0
VERTEX
  8
PLAN_1
  6
CONTINUOUS
 10
-1.926169
 20
2.678130
  0
VERTEX
  8
PLAN_1
  6
CONTINUOUS
 10
-1.917882
 20
2.676748
  0
VERTEX
  8
PLAN_1
  6
CONTINUOUS
 10
-1.909130
 20
2.676287
  0
VERTEX
  8
PLAN_1
  6
CONTINUOUS
 10
-1.900382
 20
2.676748
  0
VERTEX
  8
PLAN_1
  6
CONTINUOUS
 10
-1.892094
 20
2.678130
  0
VERTEX
  8
PLAN_1
  6
CONTINUOUS
 10
-1.883807
 20
2.679972
  0
VERTEX
  8
PLAN_1
  6
CONTINUOUS
 10
-1.875980
 20
2.683193
  0
VERTEX
  8
PLAN_1
  6
CONTINUOUS
 10
-1.868610
 20
2.686417
  0
VERTEX
  8
PLAN_1
  6
CONTINUOUS
 10
-1.861705
 20
2.690563
  0
VERTEX
  8
PLAN_1
  6
CONTINUOUS
 10
-1.855260
 20
2.695626
  0
VERTEX
  8
PLAN_1
  6
CONTINUOUS
 10
-1.849272
 20
2.701154
  0
VERTEX
  8
PLAN_1
  6
CONTINUOUS
 10
-1.843748
 20
2.707138
  0
VERTEX
  8
PLAN_1
  6
CONTINUOUS
 10
-1.838681
 20
2.713587
  0
VERTEX
  8
PLAN_1
  6
CONTINUOUS
 10
-1.834539
 20
2.720492
  0
VERTEX
  8
PLAN_1
  6
CONTINUOUS
 10
-1.830854
 20
2.728319
  0
VERTEX
  8
PLAN_1
  6
CONTINUOUS
 10
-1.828091
 20
2.735685
  0
VERTEX
  8
PLAN_1
  6
CONTINUOUS
 10
-1.825787
 20
2.743976
  0
VERTEX
  8
PLAN_1
  6
CONTINUOUS
 10
-1.824866
 20
2.752264
  0
VERTEX
  8
PLAN_1
  6
CONTINUOUS
 10
-1.824409
 20
2.761012
  0
VERTEX
  8
PLAN_1
  6
CONTINUOUS
 10
-1.824866
 20
2.769760
  0
VERTEX
  8
PLAN_1
  6
CONTINUOUS
 10
-1.825787
 20
2.778047
  0
VERTEX
  8
PLAN_1
  6
CONTINUOUS
 10
-1.828091
 20
2.786335
  0
VERTEX
  8
PLAN_1
  6
CONTINUOUS
 10
-1.830854
 20
2.794165
  0
VERTEX
  8
PLAN_1
  6
CONTINUOUS
 10
-1.834539
 20
2.801531
  0
VERTEX
  8
PLAN_1
  6
CONTINUOUS
 10
-1.838681
 20
2.808437
  0
VERTEX
  8
PLAN_1
  6
CONTINUOUS
 10
-1.843748
 20
2.814886
  0
VERTEX
  8
PLAN_1
  6
CONTINUOUS
 10
-1.849272
 20
2.821331
  0
VERTEX
  8
PLAN_1
  6
CONTINUOUS
 10
-1.855260
 20
2.826398
  0
VERTEX
  8
PLAN_1
  6
CONTINUOUS
 10
-1.861705
 20
2.831461
  0
VERTEX
  8
PLAN_1
  6
CONTINUOUS
 10
-1.868610
 20
2.835606
  0
VERTEX
  8
PLAN_1
  6
CONTINUOUS
 10
-1.875980
 20
2.839287
  0
VERTEX
  8
PLAN_1
  6
CONTINUOUS
 10
-1.883807
 20
2.842051
  0
VERTEX
  8
PLAN_1
  6
CONTINUOUS
 10
-1.892094
 20
2.844354
  0
VERTEX
  8
PLAN_1
  6
CONTINUOUS
 10
-1.900382
 20
2.845736
  0
VERTEX
  8
PLAN_1
  6
CONTINUOUS
 10
-1.909130
 20
2.846197
  0
SEQEND
  8
0
  0
POLYLINE
  8
PLAN_1
  6
CONTINUOUS
 66
     1
 40
0.013811
 41
0.013811
  0
VERTEX
  8
PLAN_1
  6
CONTINUOUS
 10
-1.967610
 20
2.703913
  0
VERTEX
  8
PLAN_1
  6
CONTINUOUS
 10
-1.852496
 20
2.819028
  0
SEQEND
  8
0
  0
POLYLINE
  8
PLAN_1
  6
CONTINUOUS
 66
     1
 40
0.008287
 41
0.008287
  0
VERTEX
  8
PLAN_1
  6
CONTINUOUS
 10
-0.257020
 20
2.846197
  0
VERTEX
  8
PLAN_1
  6
CONTINUOUS
 10
-0.265768
 20
2.845736
  0
VERTEX
  8
PLAN_1
  6
CONTINUOUS
 10
-0.274055
 20
2.844354
  0
VERTEX
  8
PLAN_1
  6
CONTINUOUS
 10
-0.282346
 20
2.842051
  0
VERTEX
  8
PLAN_1
  6
CONTINUOUS
 10
-0.290173
 20
2.839287
  0
VERTEX
  8
PLAN_1
  6
CONTINUOUS
 10
-0.297539
 20
2.835606
  0
VERTEX
  8
PLAN_1
  6
CONTINUOUS
 10
-0.304445
 20
2.831461
  0
VERTEX
  8
PLAN_1
  6
CONTINUOUS
 10
-0.310894
 20
2.826398
  0
VERTEX
  8
PLAN_1
  6
CONTINUOUS
 10
-0.316878
 20
2.821331
  0
VERTEX
  8
PLAN_1
  6
CONTINUOUS
 10
-0.322406
 20
2.814886
  0
VERTEX
  8
PLAN_1
  6
CONTINUOUS
 10
-0.327469
 20
2.808437
  0
VERTEX
  8
PLAN_1
  6
CONTINUOUS
 10
-0.331614
 20
2.801531
  0
VERTEX
  8
PLAN_1
  6
CONTINUOUS
 10
-0.335295
 20
2.794165
  0
VERTEX
  8
PLAN_1
  6
CONTINUOUS
 10
-0.338059
 20
2.786335
  0
VERTEX
  8
PLAN_1
  6
CONTINUOUS
 10
-0.340362
 20
2.778047
  0
VERTEX
  8
PLAN_1
  6
CONTINUOUS
 10
-0.341283
 20
2.769760
  0
VERTEX
  8
PLAN_1
  6
CONTINUOUS
 10
-0.341744
 20
2.761012
  0
VERTEX
  8
PLAN_1
  6
CONTINUOUS
 10
-0.341283
 20
2.752264
  0
VERTEX
  8
PLAN_1
  6
CONTINUOUS
 10
-0.340362
 20
2.743976
  0
VERTEX
  8
PLAN_1
  6
CONTINUOUS
 10
-0.338059
 20
2.735685
  0
VERTEX
  8
PLAN_1
  6
CONTINUOUS
 10
-0.335295
 20
2.728319
  0
VERTEX
  8
PLAN_1
  6
CONTINUOUS
 10
-0.331614
 20
2.720492
  0
VERTEX
  8
PLAN_1
  6
CONTINUOUS
 10
-0.327469
 20
2.713587
  0
VERTEX
  8
PLAN_1
  6
CONTINUOUS
 10
-0.322406
 20
2.707138
  0
VERTEX
  8
PLAN_1
  6
CONTINUOUS
 10
-0.316878
 20
2.701154
  0
VERTEX
  8
PLAN_1
  6
CONTINUOUS
 10
-0.310894
 20
2.695626
  0
VERTEX
  8
PLAN_1
  6
CONTINUOUS
 10
-0.304445
 20
2.690563
  0
VERTEX
  8
PLAN_1
  6
CONTINUOUS
 10
-0.297539
 20
2.686417
  0
VERTEX
  8
PLAN_1
  6
CONTINUOUS
 10
-0.290173
 20
2.683193
  0
VERTEX
  8
PLAN_1
  6
CONTINUOUS
 10
-0.282346
 20
2.679972
  0
VERTEX
  8
PLAN_1
  6
CONTINUOUS
 10
-0.274055
 20
2.678130
  0
VERTEX
  8
PLAN_1
  6
CONTINUOUS
 10
-0.265768
 20
2.676748
  0
VERTEX
  8
PLAN_1
  6
CONTINUOUS
 10
-0.257020
 20
2.676287
  0
VERTEX
  8
PLAN_1
  6
CONTINUOUS
 10
-0.248272
 20
2.676748
  0
VERTEX
  8
PLAN_1
  6
CONTINUOUS
 10
-0.239984
 20
2.678130
  0
VERTEX
  8
PLAN_1
  6
CONTINUOUS
 10
-0.231693
 20
2.679972
  0
VERTEX
  8
PLAN_1
  6
CONTINUOUS
 10
-0.223866
 20
2.683193
  0
VERTEX
  8
PLAN_1
  6
CONTINUOUS
 10
-0.216500
 20
2.686417
  0
VERTEX
  8
PLAN_1
  6
CONTINUOUS
 10
-0.209594
 20
2.690563
  0
VERTEX
  8
PLAN_1
  6
CONTINUOUS
 10
-0.203146
 20
2.695626
  0
VERTEX
  8
PLAN_1
  6
CONTINUOUS
 10
-0.197161
 20
2.701154
  0
VERTEX
  8
PLAN_1
  6
CONTINUOUS
 10
-0.191634
 20
2.707138
  0
VERTEX
  8
PLAN_1
  6
CONTINUOUS
 10
-0.186571
 20
2.713587
  0
VERTEX
  8
PLAN_1
  6
CONTINUOUS
 10
-0.182425
 20
2.720492
  0
VERTEX
  8
PLAN_1
  6
CONTINUOUS
 10
-0.178744
 20
2.728319
  0
VERTEX
  8
PLAN_1
  6
CONTINUOUS
 10
-0.175980
 20
2.735685
  0
VERTEX
  8
PLAN_1
  6
CONTINUOUS
 10
-0.173677
 20
2.743976
  0
VERTEX
  8
PLAN_1
  6
CONTINUOUS
 10
-0.172756
 20
2.752264
  0
VERTEX
  8
PLAN_1
  6
CONTINUOUS
 10
-0.172295
 20
2.761012
  0
VERTEX
  8
PLAN_1
  6
CONTINUOUS
 10
-0.172756
 20
2.769760
  0
VERTEX
  8
PLAN_1
  6
CONTINUOUS
 10
-0.173677
 20
2.778047
  0
VERTEX
  8
PLAN_1
  6
CONTINUOUS
 10
-0.175980
 20
2.786335
  0
VERTEX
  8
PLAN_1
  6
CONTINUOUS
 10
-0.178744
 20
2.794165
  0
VERTEX
  8
PLAN_1
  6
CONTINUOUS
 10
-0.182425
 20
2.801531
  0
VERTEX
  8
PLAN_1
  6
CONTINUOUS
 10
-0.186571
 20
2.808437
  0
VERTEX
  8
PLAN_1
  6
CONTINUOUS
 10
-0.191634
 20
2.814886
  0
VERTEX
  8
PLAN_1
  6
CONTINUOUS
 10
-0.197161
 20
2.821331
  0
VERTEX
  8
PLAN_1
  6
CONTINUOUS
 10
-0.203146
 20
2.826398
  0
VERTEX
  8
PLAN_1
  6
CONTINUOUS
 10
-0.209594
 20
2.831461
  0
VERTEX
  8
PLAN_1
  6
CONTINUOUS
 10
-0.216500
 20
2.835606
  0
VERTEX
  8
PLAN_1
  6
CONTINUOUS
 10
-0.223866
 20
2.839287
  0
VERTEX
  8
PLAN_1
  6
CONTINUOUS
 10
-0.231693
 20
2.842051
  0
VERTEX
  8
PLAN_1
  6
CONTINUOUS
 10
-0.239984
 20
2.844354
  0
VERTEX
  8
PLAN_1
  6
CONTINUOUS
 10
-0.248272
 20
2.845736
  0
VERTEX
  8
PLAN_1
  6
CONTINUOUS
 10
-0.257020
 20
2.846197
  0
SEQEND
  8
0
  0
POLYLINE
  8
PLAN_1
  6
CONTINUOUS
 66
     1
 40
0.013811
 41
0.013811
  0
VERTEX
  8
PLAN_1
  6
CONTINUOUS
 10
-0.315496
 20
2.703913
  0
VERTEX
  8
PLAN_1
  6
CONTINUOUS
 10
-0.200386
 20
2.819028
  0
SEQEND
  8
0
  0
POLYLINE
  8
PLAN_1
  6
CONTINUOUS
 66
     1
 40
0.008287
 41
0.008287
  0
VERTEX
  8
PLAN_1
  6
CONTINUOUS
 10
-1.526031
 20
1.276965
  0
VERTEX
  8
PLAN_1
  6
CONTINUOUS
 10
-1.534783
 20
1.276504
  0
VERTEX
  8
PLAN_1
  6
CONTINUOUS
 10
-1.543071
 20
1.275126
  0
VERTEX
  8
PLAN_1
  6
CONTINUOUS
 10
-1.551358
 20
1.273283
  0
VERTEX
  8
PLAN_1
  6
CONTINUOUS
 10
-1.559185
 20
1.270059
  0
VERTEX
  8
PLAN_1
  6
CONTINUOUS
 10
-1.566551
 20
1.266835
  0
VERTEX
  8
PLAN_1
  6
CONTINUOUS
 10
-1.573461
 20
1.262232
  0
VERTEX
  8
PLAN_1
  6
CONTINUOUS
 10
-1.579906
 20
1.257626
  0
VERTEX
  8
PLAN_1
  6
CONTINUOUS
 10
-1.585894
 20
1.252102
  0
VERTEX
  8
PLAN_1
  6
CONTINUOUS
 10
-1.591417
 20
1.246114
  0
VERTEX
  8
PLAN_1
  6
CONTINUOUS
 10
-1.596484
 20
1.239669
  0
VERTEX
  8
PLAN_1
  6
CONTINUOUS
 10
-1.600626
 20
1.232764
  0
VERTEX
  8
PLAN_1
  6
CONTINUOUS
 10
-1.604311
 20
1.224933
  0
VERTEX
  8
PLAN_1
  6
CONTINUOUS
 10
-1.607075
 20
1.217106
  0
VERTEX
  8
PLAN_1
  6
CONTINUOUS
 10
-1.609374
 20
1.209280
  0
VERTEX
  8
PLAN_1
  6
CONTINUOUS
 10
-1.610295
 20
1.200992
  0
VERTEX
  8
PLAN_1
  6
CONTINUOUS
 10
-1.610756
 20
1.192244
  0
VERTEX
  8
PLAN_1
  6
CONTINUOUS
 10
-1.610295
 20
1.183492
  0
VERTEX
  8
PLAN_1
  6
CONTINUOUS
 10
-1.609374
 20
1.175205
  0
VERTEX
  8
PLAN_1
  6
CONTINUOUS
 10
-1.607075
 20
1.166917
  0
VERTEX
  8
PLAN_1
  6
CONTINUOUS
 10
-1.604311
 20
1.159091
  0
VERTEX
  8
PLAN_1
  6
CONTINUOUS
 10
-1.600626
 20
1.151720
  0
VERTEX
  8
PLAN_1
  6
CONTINUOUS
 10
-1.596484
 20
1.144815
  0
VERTEX
  8
PLAN_1
  6
CONTINUOUS
 10
-1.591417
 20
1.138370
  0
VERTEX
  8
PLAN_1
  6
CONTINUOUS
 10
-1.585894
 20
1.131921
  0
VERTEX
  8
PLAN_1
  6
CONTINUOUS
 10
-1.579906
 20
1.126858
  0
VERTEX
  8
PLAN_1
  6
CONTINUOUS
 10
-1.573461
 20
1.121791
  0
VERTEX
  8
PLAN_1
  6
CONTINUOUS
 10
-1.566551
 20
1.117650
  0
VERTEX
  8
PLAN_1
  6
CONTINUOUS
 10
-1.559185
 20
1.113965
  0
VERTEX
  8
PLAN_1
  6
CONTINUOUS
 10
-1.551358
 20
1.111201
  0
VERTEX
  8
PLAN_1
  6
CONTINUOUS
 10
-1.543071
 20
1.108902
  0
VERTEX
  8
PLAN_1
  6
CONTINUOUS
 10
-1.534783
 20
1.107520
  0
VERTEX
  8
PLAN_1
  6
CONTINUOUS
 10
-1.526031
 20
1.107059
  0
VERTEX
  8
PLAN_1
  6
CONTINUOUS
 10
-1.517283
 20
1.107520
  0
VERTEX
  8
PLAN_1
  6
CONTINUOUS
 10
-1.508996
 20
1.108902
  0
VERTEX
  8
PLAN_1
  6
CONTINUOUS
 10
-1.500709
 20
1.111201
  0
VERTEX
  8
PLAN_1
  6
CONTINUOUS
 10
-1.492882
 20
1.113965
  0
VERTEX
  8
PLAN_1
  6
CONTINUOUS
 10
-1.485512
 20
1.117650
  0
VERTEX
  8
PLAN_1
  6
CONTINUOUS
 10
-1.478606
 20
1.121791
  0
VERTEX
  8
PLAN_1
  6
CONTINUOUS
 10
-1.472161
 20
1.126858
  0
VERTEX
  8
PLAN_1
  6
CONTINUOUS
 10
-1.466173
 20
1.131921
  0
VERTEX
  8
PLAN_1
  6
CONTINUOUS
 10
-1.460650
 20
1.138370
  0
VERTEX
  8
PLAN_1
  6
CONTINUOUS
 10
-1.455583
 20
1.144815
  0
VERTEX
  8
PLAN_1
  6
CONTINUOUS
 10
-1.451441
 20
1.151720
  0
VERTEX
  8
PLAN_1
  6
CONTINUOUS
 10
-1.447756
 20
1.159091
  0
VERTEX
  8
PLAN_1
  6
CONTINUOUS
 10
-1.444992
 20
1.166917
  0
VERTEX
  8
PLAN_1
  6
CONTINUOUS
 10
-1.443150
 20
1.175205
  0
VERTEX
  8
PLAN_1
  6
CONTINUOUS
 10
-1.441772
 20
1.183492
  0
VERTEX
  8
PLAN_1
  6
CONTINUOUS
 10
-1.441311
 20
1.192244
  0
VERTEX
  8
PLAN_1
  6
CONTINUOUS
 10
-1.441772
 20
1.200992
  0
VERTEX
  8
PLAN_1
  6
CONTINUOUS
 10
-1.443150
 20
1.209280
  0
VERTEX
  8
PLAN_1
  6
CONTINUOUS
 10
-1.444992
 20
1.217106
  0
VERTEX
  8
PLAN_1
  6
CONTINUOUS
 10
-1.447756
 20
1.224933
  0
VERTEX
  8
PLAN_1
  6
CONTINUOUS
 10
-1.451441
 20
1.232764
  0
VERTEX
  8
PLAN_1
  6
CONTINUOUS
 10
-1.455583
 20
1.239669
  0
VERTEX
  8
PLAN_1
  6
CONTINUOUS
 10
-1.460650
 20
1.246114
  0
VERTEX
  8
PLAN_1
  6
CONTINUOUS
 10
-1.466173
 20
1.252102
  0
VERTEX
  8
PLAN_1
  6
CONTINUOUS
 10
-1.472161
 20
1.257626
  0
VERTEX
  8
PLAN_1
  6
CONTINUOUS
 10
-1.478606
 20
1.262232
  0
VERTEX
  8
PLAN_1
  6
CONTINUOUS
 10
-1.485512
 20
1.266835
  0
VERTEX
  8
PLAN_1
  6
CONTINUOUS
 10
-1.492882
 20
1.270059
  0
VERTEX
  8
PLAN_1
  6
CONTINUOUS
 10
-1.500709
 20
1.273283
  0
VERTEX
  8
PLAN_1
  6
CONTINUOUS
 10
-1.508996
 20
1.275126
  0
VERTEX
  8
PLAN_1
  6
CONTINUOUS
 10
-1.517283
 20
1.276504
  0
VERTEX
  8
PLAN_1
  6
CONTINUOUS
 10
-1.526031
 20
1.276965
  0
SEQEND
  8
0
  0
POLYLINE
  8
PLAN_1
  6
CONTINUOUS
 66
     1
 40
0.013811
 41
0.013811
  0
VERTEX
  8
PLAN_1
  6
CONTINUOUS
 10
-1.584972
 20
1.134685
  0
VERTEX
  8
PLAN_1
  6
CONTINUOUS
 10
-1.469398
 20
1.250260
  0
SEQEND
  8
0
  0
POLYLINE
  8
PLAN_1
  6
CONTINUOUS
 66
     1
 40
0.008287
 41
0.008287
  0
VERTEX
  8
PLAN_1
  6
CONTINUOUS
 10
-0.635512
 20
1.276965
  0
VERTEX
  8
PLAN_1
  6
CONTINUOUS
 10
-0.644264
 20
1.276504
  0
VERTEX
  8
PLAN_1
  6
CONTINUOUS
 10
-0.652551
 20
1.275126
  0
VERTEX
  8
PLAN_1
  6
CONTINUOUS
 10
-0.660839
 20
1.273283
  0
VERTEX
  8
PLAN_1
  6
CONTINUOUS
 10
-0.668665
 20
1.270059
  0
VERTEX
  8
PLAN_1
  6
CONTINUOUS
 10
-0.676035
 20
1.266835
  0
VERTEX
  8
PLAN_1
  6
CONTINUOUS
 10
-0.682941
 20
1.262232
  0
VERTEX
  8
PLAN_1
  6
CONTINUOUS
 10
-0.689386
 20
1.257626
  0
VERTEX
  8
PLAN_1
  6
CONTINUOUS
 10
-0.695374
 20
1.252102
  0
VERTEX
  8
PLAN_1
  6
CONTINUOUS
 10
-0.700898
 20
1.246114
  0
VERTEX
  8
PLAN_1
  6
CONTINUOUS
 10
-0.705965
 20
1.239669
  0
VERTEX
  8
PLAN_1
  6
CONTINUOUS
 10
-0.710106
 20
1.232764
  0
VERTEX
  8
PLAN_1
  6
CONTINUOUS
 10
-0.713791
 20
1.224933
  0
VERTEX
  8
PLAN_1
  6
CONTINUOUS
 10
-0.716555
 20
1.217106
  0
VERTEX
  8
PLAN_1
  6
CONTINUOUS
 10
-0.718394
 20
1.209280
  0
VERTEX
  8
PLAN_1
  6
CONTINUOUS
 10
-0.719776
 20
1.200992
  0
VERTEX
  8
PLAN_1
  6
CONTINUOUS
 10
-0.720236
 20
1.192244
  0
VERTEX
  8
PLAN_1
  6
CONTINUOUS
 10
-0.719776
 20
1.183492
  0
VERTEX
  8
PLAN_1
  6
CONTINUOUS
 10
-0.718394
 20
1.175205
  0
VERTEX
  8
PLAN_1
  6
CONTINUOUS
 10
-0.716555
 20
1.166917
  0
VERTEX
  8
PLAN_1
  6
CONTINUOUS
 10
-0.713791
 20
1.159091
  0
VERTEX
  8
PLAN_1
  6
CONTINUOUS
 10
-0.710106
 20
1.151720
  0
VERTEX
  8
PLAN_1
  6
CONTINUOUS
 10
-0.705965
 20
1.144815
  0
VERTEX
  8
PLAN_1
  6
CONTINUOUS
 10
-0.700898
 20
1.138370
  0
VERTEX
  8
PLAN_1
  6
CONTINUOUS
 10
-0.695374
 20
1.131921
  0
VERTEX
  8
PLAN_1
  6
CONTINUOUS
 10
-0.689386
 20
1.126858
  0
VERTEX
  8
PLAN_1
  6
CONTINUOUS
 10
-0.682941
 20
1.121791
  0
VERTEX
  8
PLAN_1
  6
CONTINUOUS
 10
-0.676035
 20
1.117650
  0
VERTEX
  8
PLAN_1
  6
CONTINUOUS
 10
-0.668665
 20
1.113965
  0
VERTEX
  8
PLAN_1
  6
CONTINUOUS
 10
-0.660839
 20
1.111201
  0
VERTEX
  8
PLAN_1
  6
CONTINUOUS
 10
-0.652551
 20
1.108902
  0
VERTEX
  8
PLAN_1
  6
CONTINUOUS
 10
-0.644264
 20
1.107520
  0
VERTEX
  8
PLAN_1
  6
CONTINUOUS
 10
-0.635512
 20
1.107059
  0
VERTEX
  8
PLAN_1
  6
CONTINUOUS
 10
-0.626764
 20
1.107520
  0
VERTEX
  8
PLAN_1
  6
CONTINUOUS
 10
-0.618476
 20
1.108902
  0
VERTEX
  8
PLAN_1
  6
CONTINUOUS
 10
-0.610189
 20
1.111201
  0
VERTEX
  8
PLAN_1
  6
CONTINUOUS
 10
-0.602362
 20
1.113965
  0
VERTEX
  8
PLAN_1
  6
CONTINUOUS
 10
-0.594992
 20
1.117650
  0
VERTEX
  8
PLAN_1
  6
CONTINUOUS
 10
-0.588087
 20
1.121791
  0
VERTEX
  8
PLAN_1
  6
CONTINUOUS
 10
-0.581642
 20
1.126858
  0
VERTEX
  8
PLAN_1
  6
CONTINUOUS
 10
-0.575654
 20
1.131921
  0
VERTEX
  8
PLAN_1
  6
CONTINUOUS
 10
-0.570130
 20
1.138370
  0
VERTEX
  8
PLAN_1
  6
CONTINUOUS
 10
-0.565063
 20
1.144815
  0
VERTEX
  8
PLAN_1
  6
CONTINUOUS
 10
-0.560921
 20
1.151720
  0
VERTEX
  8
PLAN_1
  6
CONTINUOUS
 10
-0.557236
 20
1.159091
  0
VERTEX
  8
PLAN_1
  6
CONTINUOUS
 10
-0.554472
 20
1.166917
  0
VERTEX
  8
PLAN_1
  6
CONTINUOUS
 10
-0.552173
 20
1.175205
  0
VERTEX
  8
PLAN_1
  6
CONTINUOUS
 10
-0.550791
 20
1.183492
  0
VERTEX
  8
PLAN_1
  6
CONTINUOUS
 10
-0.550791
 20
1.192244
  0
VERTEX
  8
PLAN_1
  6
CONTINUOUS
 10
-0.550791
 20
1.200992
  0
VERTEX
  8
PLAN_1
  6
CONTINUOUS
 10
-0.552173
 20
1.209280
  0
VERTEX
  8
PLAN_1
  6
CONTINUOUS
 10
-0.554472
 20
1.217106
  0
VERTEX
  8
PLAN_1
  6
CONTINUOUS
 10
-0.557236
 20
1.224933
  0
VERTEX
  8
PLAN_1
  6
CONTINUOUS
 10
-0.560921
 20
1.232764
  0
VERTEX
  8
PLAN_1
  6
CONTINUOUS
 10
-0.565063
 20
1.239669
  0
VERTEX
  8
PLAN_1
  6
CONTINUOUS
 10
-0.570130
 20
1.246114
  0
VERTEX
  8
PLAN_1
  6
CONTINUOUS
 10
-0.575654
 20
1.252102
  0
VERTEX
  8
PLAN_1
  6
CONTINUOUS
 10
-0.581642
 20
1.257626
  0
VERTEX
  8
PLAN_1
  6
CONTINUOUS
 10
-0.588087
 20
1.262232
  0
VERTEX
  8
PLAN_1
  6
CONTINUOUS
 10
-0.594992
 20
1.266835
  0
VERTEX
  8
PLAN_1
  6
CONTINUOUS
 10
-0.602362
 20
1.270059
  0
VERTEX
  8
PLAN_1
  6
CONTINUOUS
 10
-0.610189
 20
1.273283
  0
VERTEX
  8
PLAN_1
  6
CONTINUOUS
 10
-0.618476
 20
1.275126
  0
VERTEX
  8
PLAN_1
  6
CONTINUOUS
 10
-0.626764
 20
1.276504
  0
VERTEX
  8
PLAN_1
  6
CONTINUOUS
 10
-0.635512
 20
1.276965
  0
SEQEND
  8
0
  0
POLYLINE
  8
PLAN_1
  6
CONTINUOUS
 66
     1
 40
0.013811
 41
0.013811
  0
VERTEX
  8
PLAN_1
  6
CONTINUOUS
 10
-0.693992
 20
1.134685
  0
VERTEX
  8
PLAN_1
  6
CONTINUOUS
 10
-0.578878
 20
1.250260
  0
SEQEND
  8
0
  0
POLYLINE
  8
PLAN_1
 62
     2
  6
CONTINUOUS
 66
     1
 40
0.004142
 41
0.004142
  0
VERTEX
  8
PLAN_1
 62
     2
  6
CONTINUOUS
 10
-2.072594
 20
0.115240
  0
VERTEX
  8
PLAN_1
 62
     2
  6
CONTINUOUS
 10
-0.087110
 20
0.115240
  0
SEQEND
  8
0
  0
SOLID
  8
PLAN_1
 62
     2
 10
-0.057642
 20
0.115240
 11
-0.116583
 21
0.130894
 12
-0.057642
 22
0.115240
 13
-0.116583
 23
0.099583
  0
POLYLINE
  8
PLAN_1
 62
     2
  6
CONTINUOUS
 66
     1
 40
0.003000
 41
0.003000
  0
VERTEX
  8
PLAN_1
 62
     2
  6
CONTINUOUS
 10
-0.057642
 20
0.115240
  0
VERTEX
  8
PLAN_1
 62
     2
  6
CONTINUOUS
 10
-0.116583
 20
0.130894
  0
VERTEX
  8
PLAN_1
 62
     2
  6
CONTINUOUS
 10
-0.116583
 20
0.099583
  0
VERTEX
  8
PLAN_1
 62
     2
  6
CONTINUOUS
 10
-0.057642
 20
0.115240
  0
SEQEND
  8
0
  0
SOLID
  8
PLAN_1
 62
     2
 10
-2.102063
 20
0.115240
 11
-2.043122
 21
0.130894
 12
-2.102063
 22
0.115240
 13
-2.043122
 23
0.099583
  0
POLYLINE
  8
PLAN_1
 62
     2
  6
CONTINUOUS
 66
     1
 40
0.003000
 41
0.003000
  0
VERTEX
  8
PLAN_1
 62
     2
  6
CONTINUOUS
 10
-2.102063
 20
0.115240
  0
VERTEX
  8
PLAN_1
 62
     2
  6
CONTINUOUS
 10
-2.043122
 20
0.130894
  0
VERTEX
  8
PLAN_1
 62
     2
  6
CONTINUOUS
 10
-2.043122
 20
0.099583
  0
VERTEX
  8
PLAN_1
 62
     2
  6
CONTINUOUS
 10
-2.102063
 20
0.115240
  0
SEQEND
  8
0
  0
POLYLINE
  8
PLAN_1
 62
     2
  6
CONTINUOUS
 66
     1
 40
0.003000
 41
0.003000
  0
VERTEX
  8
PLAN_1
 62
     2
  6
CONTINUOUS
 10
-1.122213
 20
0.181083
  0
VERTEX
  8
PLAN_1
 62
     2
  6
CONTINUOUS
 10
-1.121295
 20
0.182004
  0
VERTEX
  8
PLAN_1
 62
     2
  6
CONTINUOUS
 10
-1.119913
 20
0.182925
  0
VERTEX
  8
PLAN_1
 62
     2
  6
CONTINUOUS
 10
-1.118071
 20
0.183846
  0
VERTEX
  8
PLAN_1
 62
     2
  6
CONTINUOUS
 10
-1.116689
 20
0.184307
  0
VERTEX
  8
PLAN_1
 62
     2
  6
CONTINUOUS
 10
-1.114846
 20
0.185228
  0
VERTEX
  8
PLAN_1
 62
     2
  6
CONTINUOUS
 10
-1.112543
 20
0.185689
  0
VERTEX
  8
PLAN_1
 62
     2
  6
CONTINUOUS
 10
-1.110705
 20
0.185689
  0
VERTEX
  8
PLAN_1
 62
     2
  6
CONTINUOUS
 10
-1.108402
 20
0.185689
  0
VERTEX
  8
PLAN_1
 62
     2
  6
CONTINUOUS
 10
-1.103795
 20
0.185689
  0
VERTEX
  8
PLAN_1
 62
     2
  6
CONTINUOUS
 10
-1.099654
 20
0.184307
  0
VERTEX
  8
PLAN_1
 62
     2
  6
CONTINUOUS
 10
-1.095508
 20
0.182465
  0
VERTEX
  8
PLAN_1
 62
     2
  6
CONTINUOUS
 10
-1.091823
 20
0.179701
  0
VERTEX
  8
PLAN_1
 62
     2
  6
CONTINUOUS
 10
-1.089984
 20
0.178323
  0
VERTEX
  8
PLAN_1
 62
     2
  6
CONTINUOUS
 10
-1.088602
 20
0.176480
  0
VERTEX
  8
PLAN_1
 62
     2
  6
CONTINUOUS
 10
-1.087220
 20
0.174638
  0
VERTEX
  8
PLAN_1
 62
     2
  6
CONTINUOUS
 10
-1.086299
 20
0.172335
  0
VERTEX
  8
PLAN_1
 62
     2
  6
CONTINUOUS
 10
-1.085378
 20
0.170031
  0
VERTEX
  8
PLAN_1
 62
     2
  6
CONTINUOUS
 10
-1.084917
 20
0.167732
  0
VERTEX
  8
PLAN_1
 62
     2
  6
CONTINUOUS
 10
-1.084457
 20
0.165429
  0
VERTEX
  8
PLAN_1
 62
     2
  6
CONTINUOUS
 10
-1.083996
 20
0.162665
  0
VERTEX
  8
PLAN_1
 62
     2
  6
CONTINUOUS
 10
-1.084457
 20
0.158980
  0
VERTEX
  8
PLAN_1
 62
     2
  6
CONTINUOUS
 10
-1.084917
 20
0.154839
  0
VERTEX
  8
PLAN_1
 62
     2
  6
CONTINUOUS
 10
-1.086760
 20
0.150693
  0
VERTEX
  8
PLAN_1
 62
     2
  6
CONTINUOUS
 10
-1.089063
 20
0.146551
  0
VERTEX
  8
PLAN_1
 62
     2
  6
CONTINUOUS
 10
-1.090441
 20
0.144709
  0
VERTEX
  8
PLAN_1
 62
     2
  6
CONTINUOUS
 10
-1.092283
 20
0.142866
  0
VERTEX
  8
PLAN_1
 62
     2
  6
CONTINUOUS
 10
-1.094587
 20
0.141024
  0
VERTEX
  8
PLAN_1
 62
     2
  6
CONTINUOUS
 10
-1.096890
 20
0.139642
  0
VERTEX
  8
PLAN_1
 62
     2
  6
CONTINUOUS
 10
-1.099654
 20
0.138260
  0
VERTEX
  8
PLAN_1
 62
     2
  6
CONTINUOUS
 10
-1.102874
 20
0.137343
  0
VERTEX
  8
PLAN_1
 62
     2
  6
CONTINUOUS
 10
-1.106559
 20
0.136882
  0
VERTEX
  8
PLAN_1
 62
     2
  6
CONTINUOUS
 10
-1.110705
 20
0.136882
  0
VERTEX
  8
PLAN_1
 62
     2
  6
CONTINUOUS
 10
-1.114386
 20
0.136882
  0
VERTEX
  8
PLAN_1
 62
     2
  6
CONTINUOUS
 10
-1.118071
 20
0.137799
  0
VERTEX
  8
PLAN_1
 62
     2
  6
CONTINUOUS
 10
-1.121752
 20
0.138720
  0
VERTEX
  8
PLAN_1
 62
     2
  6
CONTINUOUS
 10
-1.125437
 20
0.140563
  0
VERTEX
  8
PLAN_1
 62
     2
  6
CONTINUOUS
 10
-1.127280
 20
0.141945
  0
VERTEX
  8
PLAN_1
 62
     2
  6
CONTINUOUS
 10
-1.128661
 20
0.143327
  0
VERTEX
  8
PLAN_1
 62
     2
  6
CONTINUOUS
 10
-1.130043
 20
0.145169
  0
VERTEX
  8
PLAN_1
 62
     2
  6
CONTINUOUS
 10
-1.131425
 20
0.147012
  0
VERTEX
  8
PLAN_1
 62
     2
  6
CONTINUOUS
 10
-1.132343
 20
0.148850
  0
VERTEX
  8
PLAN_1
 62
     2
  6
CONTINUOUS
 10
-1.133264
 20
0.151154
  0
VERTEX
  8
PLAN_1
 62
     2
  6
CONTINUOUS
 10
-1.133724
 20
0.153917
  0
VERTEX
  8
PLAN_1
 62
     2
  6
CONTINUOUS
 10
-1.134185
 20
0.157142
  0
VERTEX
  8
PLAN_1
 62
     2
  6
CONTINUOUS
 10
-1.124976
 20
0.157142
  0
VERTEX
  8
PLAN_1
 62
     2
  6
CONTINUOUS
 10
-1.124055
 20
0.153917
  0
VERTEX
  8
PLAN_1
 62
     2
  6
CONTINUOUS
 10
-1.123134
 20
0.151614
  0
VERTEX
  8
PLAN_1
 62
     2
  6
CONTINUOUS
 10
-1.121752
 20
0.149311
  0
VERTEX
  8
PLAN_1
 62
     2
  6
CONTINUOUS
 10
-1.119913
 20
0.147472
  0
VERTEX
  8
PLAN_1
 62
     2
  6
CONTINUOUS
 10
-1.117610
 20
0.146091
  0
VERTEX
  8
PLAN_1
 62
     2
  6
CONTINUOUS
 10
-1.115307
 20
0.145169
  0
VERTEX
  8
PLAN_1
 62
     2
  6
CONTINUOUS
 10
-1.112543
 20
0.144709
  0
VERTEX
  8
PLAN_1
 62
     2
  6
CONTINUOUS
 10
-1.109323
 20
0.144709
  0
VERTEX
  8
PLAN_1
 62
     2
  6
CONTINUOUS
 10
-1.106098
 20
0.145169
  0
VERTEX
  8
PLAN_1
 62
     2
  6
CONTINUOUS
 10
-1.102874
 20
0.146091
  0
VERTEX
  8
PLAN_1
 62
     2
  6
CONTINUOUS
 10
-1.100114
 20
0.147472
  0
VERTEX
  8
PLAN_1
 62
     2
  6
CONTINUOUS
 10
-1.098272
 20
0.149772
  0
VERTEX
  8
PLAN_1
 62
     2
  6
CONTINUOUS
 10
-1.096429
 20
0.152075
  0
VERTEX
  8
PLAN_1
 62
     2
  6
CONTINUOUS
 10
-1.095047
 20
0.154839
  0
VERTEX
  8
PLAN_1
 62
     2
  6
CONTINUOUS
 10
-1.094126
 20
0.158063
  0
VERTEX
  8
PLAN_1
 62
     2
  6
CONTINUOUS
 10
-1.094126
 20
0.161283
  0
VERTEX
  8
PLAN_1
 62
     2
  6
CONTINUOUS
 10
-1.094126
 20
0.164969
  0
VERTEX
  8
PLAN_1
 62
     2
  6
CONTINUOUS
 10
-1.095047
 20
0.168193
  0
VERTEX
  8
PLAN_1
 62
     2
  6
CONTINUOUS
 10
-1.096890
 20
0.170953
  0
VERTEX
  8
PLAN_1
 62
     2
  6
CONTINUOUS
 10
-1.098732
 20
0.173256
  0
VERTEX
  8
PLAN_1
 62
     2
  6
CONTINUOUS
 10
-1.101031
 20
0.175098
  0
VERTEX
  8
PLAN_1
 62
     2
  6
CONTINUOUS
 10
-1.103795
 20
0.176480
  0
VERTEX
  8
PLAN_1
 62
     2
  6
CONTINUOUS
 10
-1.107020
 20
0.177402
  0
VERTEX
  8
PLAN_1
 62
     2
  6
CONTINUOUS
 10
-1.110244
 20
0.177862
  0
VERTEX
  8
PLAN_1
 62
     2
  6
CONTINUOUS
 10
-1.112083
 20
0.177402
  0
VERTEX
  8
PLAN_1
 62
     2
  6
CONTINUOUS
 10
-1.113925
 20
0.177402
  0
VERTEX
  8
PLAN_1
 62
     2
  6
CONTINUOUS
 10
-1.115768
 20
0.176480
  0
VERTEX
  8
PLAN_1
 62
     2
  6
CONTINUOUS
 10
-1.117610
 20
0.176020
  0
VERTEX
  8
PLAN_1
 62
     2
  6
CONTINUOUS
 10
-1.119453
 20
0.174638
  0
VERTEX
  8
PLAN_1
 62
     2
  6
CONTINUOUS
 10
-1.120835
 20
0.173717
  0
VERTEX
  8
PLAN_1
 62
     2
  6
CONTINUOUS
 10
-1.122213
 20
0.172335
  0
VERTEX
  8
PLAN_1
 62
     2
  6
CONTINUOUS
 10
-1.123594
 20
0.170492
  0
VERTEX
  8
PLAN_1
 62
     2
  6
CONTINUOUS
 10
-1.131425
 20
0.170953
  0
VERTEX
  8
PLAN_1
 62
     2
  6
CONTINUOUS
 10
-1.125898
 20
0.210094
  0
VERTEX
  8
PLAN_1
 62
     2
  6
CONTINUOUS
 10
-1.088142
 20
0.210094
  0
VERTEX
  8
PLAN_1
 62
     2
  6
CONTINUOUS
 10
-1.088142
 20
0.201343
  0
VERTEX
  8
PLAN_1
 62
     2
  6
CONTINUOUS
 10
-1.119453
 20
0.201343
  0
VERTEX
  8
PLAN_1
 62
     2
  6
CONTINUOUS
 10
-1.122213
 20
0.181083
  0
SEQEND
  8
0
  0
POLYLINE
  8
PLAN_1
 62
     2
  6
CONTINUOUS
 66
     1
 40
0.003000
 41
0.003000
  0
VERTEX
  8
PLAN_1
 62
     2
  6
CONTINUOUS
 10
-1.075248
 20
0.185689
  0
VERTEX
  8
PLAN_1
 62
     2
  6
CONTINUOUS
 10
-1.074787
 20
0.189831
  0
VERTEX
  8
PLAN_1
 62
     2
  6
CONTINUOUS
 10
-1.074327
 20
0.193516
  0
VERTEX
  8
PLAN_1
 62
     2
  6
CONTINUOUS
 10
-1.073406
 20
0.196740
  0
VERTEX
  8
PLAN_1
 62
     2
  6
CONTINUOUS
 10
-1.072484
 20
0.199961
  0
VERTEX
  8
PLAN_1
 62
     2
  6
CONTINUOUS
 10
-1.071102
 20
0.202264
  0
VERTEX
  8
PLAN_1
 62
     2
  6
CONTINUOUS
 10
-1.069264
 20
0.204567
  0
VERTEX
  8
PLAN_1
 62
     2
  6
CONTINUOUS
 10
-1.067421
 20
0.206409
  0
VERTEX
  8
PLAN_1
 62
     2
  6
CONTINUOUS
 10
-1.065579
 20
0.207791
  0
VERTEX
  8
PLAN_1
 62
     2
  6
CONTINUOUS
 10
-1.061433
 20
0.209634
  0
VERTEX
  8
PLAN_1
 62
     2
  6
CONTINUOUS
 10
-1.057291
 20
0.211012
  0
VERTEX
  8
PLAN_1
 62
     2
  6
CONTINUOUS
 10
-1.053146
 20
0.211933
  0
VERTEX
  8
PLAN_1
 62
     2
  6
CONTINUOUS
 10
-1.049921
 20
0.211933
  0
VERTEX
  8
PLAN_1
 62
     2
  6
CONTINUOUS
 10
-1.045319
 20
0.211472
  0
VERTEX
  8
PLAN_1
 62
     2
  6
CONTINUOUS
 10
-1.041173
 20
0.210551
  0
VERTEX
  8
PLAN_1
 62
     2
  6
CONTINUOUS
 10
-1.037031
 20
0.208713
  0
VERTEX
  8
PLAN_1
 62
     2
  6
CONTINUOUS
 10
-1.033807
 20
0.205949
  0
VERTEX
  8
PLAN_1
 62
     2
  6
CONTINUOUS
 10
-1.031043
 20
0.202724
  0
VERTEX
  8
PLAN_1
 62
     2
  6
CONTINUOUS
 10
-1.028740
 20
0.199043
  0
VERTEX
  8
PLAN_1
 62
     2
  6
CONTINUOUS
 10
-1.027823
 20
0.197201
  0
VERTEX
  8
PLAN_1
 62
     2
  6
CONTINUOUS
 10
-1.027362
 20
0.194898
  0
VERTEX
  8
PLAN_1
 62
     2
  6
CONTINUOUS
 10
-1.026902
 20
0.192594
  0
VERTEX
  8
PLAN_1
 62
     2
  6
CONTINUOUS
 10
-1.026902
 20
0.189831
  0
VERTEX
  8
PLAN_1
 62
     2
  6
CONTINUOUS
 10
-1.027362
 20
0.185228
  0
VERTEX
  8
PLAN_1
 62
     2
  6
CONTINUOUS
 10
-1.028740
 20
0.181543
  0
VERTEX
  8
PLAN_1
 62
     2
  6
CONTINUOUS
 10
-1.030122
 20
0.177862
  0
VERTEX
  8
PLAN_1
 62
     2
  6
CONTINUOUS
 10
-1.032886
 20
0.175098
  0
VERTEX
  8
PLAN_1
 62
     2
  6
CONTINUOUS
 10
-1.035650
 20
0.172335
  0
VERTEX
  8
PLAN_1
 62
     2
  6
CONTINUOUS
 10
-1.038870
 20
0.170031
  0
VERTEX
  8
PLAN_1
 62
     2
  6
CONTINUOUS
 10
-1.042555
 20
0.167732
  0
VERTEX
  8
PLAN_1
 62
     2
  6
CONTINUOUS
 10
-1.046701
 20
0.165429
  0
VERTEX
  8
PLAN_1
 62
     2
  6
CONTINUOUS
 10
-1.054067
 20
0.161283
  0
VERTEX
  8
PLAN_1
 62
     2
  6
CONTINUOUS
 10
-1.057752
 20
0.159441
  0
VERTEX
  8
PLAN_1
 62
     2
  6
CONTINUOUS
 10
-1.060051
 20
0.157142
  0
VERTEX
  8
PLAN_1
 62
     2
  6
CONTINUOUS
 10
-1.062354
 20
0.155299
  0
VERTEX
  8
PLAN_1
 62
     2
  6
CONTINUOUS
 10
-1.064197
 20
0.153457
  0
VERTEX
  8
PLAN_1
 62
     2
  6
CONTINUOUS
 10
-1.065118
 20
0.151614
  0
VERTEX
  8
PLAN_1
 62
     2
  6
CONTINUOUS
 10
-1.066039
 20
0.149772
  0
VERTEX
  8
PLAN_1
 62
     2
  6
CONTINUOUS
 10
-1.066500
 20
0.148390
  0
VERTEX
  8
PLAN_1
 62
     2
  6
CONTINUOUS
 10
-1.066961
 20
0.147472
  0
VERTEX
  8
PLAN_1
 62
     2
  6
CONTINUOUS
 10
-1.026902
 20
0.147472
  0
VERTEX
  8
PLAN_1
 62
     2
  6
CONTINUOUS
 10
-1.026902
 20
0.138720
  0
VERTEX
  8
PLAN_1
 62
     2
  6
CONTINUOUS
 10
-1.077091
 20
0.138720
  0
VERTEX
  8
PLAN_1
 62
     2
  6
CONTINUOUS
 10
-1.076630
 20
0.144248
  0
VERTEX
  8
PLAN_1
 62
     2
  6
CONTINUOUS
 10
-1.075709
 20
0.148850
  0
VERTEX
  8
PLAN_1
 62
     2
  6
CONTINUOUS
 10
-1.073866
 20
0.152996
  0
VERTEX
  8
PLAN_1
 62
     2
  6
CONTINUOUS
 10
-1.072024
 20
0.156681
  0
VERTEX
  8
PLAN_1
 62
     2
  6
CONTINUOUS
 10
-1.069264
 20
0.159902
  0
VERTEX
  8
PLAN_1
 62
     2
  6
CONTINUOUS
 10
-1.066500
 20
0.163126
  0
VERTEX
  8
PLAN_1
 62
     2
  6
CONTINUOUS
 10
-1.063276
 20
0.165429
  0
VERTEX
  8
PLAN_1
 62
     2
  6
CONTINUOUS
 10
-1.060051
 20
0.167732
  0
VERTEX
  8
PLAN_1
 62
     2
  6
CONTINUOUS
 10
-1.050382
 20
0.173256
  0
VERTEX
  8
PLAN_1
 62
     2
  6
CONTINUOUS
 10
-1.047161
 20
0.175098
  0
VERTEX
  8
PLAN_1
 62
     2
  6
CONTINUOUS
 10
-1.044858
 20
0.176480
  0
VERTEX
  8
PLAN_1
 62
     2
  6
CONTINUOUS
 10
-1.042555
 20
0.178323
  0
VERTEX
  8
PLAN_1
 62
     2
  6
CONTINUOUS
 10
-1.040713
 20
0.180161
  0
VERTEX
  8
PLAN_1
 62
     2
  6
CONTINUOUS
 10
-1.038870
 20
0.182004
  0
VERTEX
  8
PLAN_1
 62
     2
  6
CONTINUOUS
 10
-1.037953
 20
0.184307
  0
VERTEX
  8
PLAN_1
 62
     2
  6
CONTINUOUS
 10
-1.037031
 20
0.187071
  0
VERTEX
  8
PLAN_1
 62
     2
  6
CONTINUOUS
 10
-1.036571
 20
0.190291
  0
VERTEX
  8
PLAN_1
 62
     2
  6
CONTINUOUS
 10
-1.037031
 20
0.192594
  0
VERTEX
  8
PLAN_1
 62
     2
  6
CONTINUOUS
 10
-1.037492
 20
0.194898
  0
VERTEX
  8
PLAN_1
 62
     2
  6
CONTINUOUS
 10
-1.038413
 20
0.197201
  0
VERTEX
  8
PLAN_1
 62
     2
  6
CONTINUOUS
 10
-1.039791
 20
0.199043
  0
VERTEX
  8
PLAN_1
 62
     2
  6
CONTINUOUS
 10
-1.042094
 20
0.200882
  0
VERTEX
  8
PLAN_1
 62
     2
  6
CONTINUOUS
 10
-1.044398
 20
0.202264
  0
VERTEX
  8
PLAN_1
 62
     2
  6
CONTINUOUS
 10
-1.047622
 20
0.203185
  0
VERTEX
  8
PLAN_1
 62
     2
  6
CONTINUOUS
 10
-1.051303
 20
0.203646
  0
VERTEX
  8
PLAN_1
 62
     2
  6
CONTINUOUS
 10
-1.053606
 20
0.203646
  0
VERTEX
  8
PLAN_1
 62
     2
  6
CONTINUOUS
 10
-1.055909
 20
0.203185
  0
VERTEX
  8
PLAN_1
 62
     2
  6
CONTINUOUS
 10
-1.057752
 20
0.202264
  0
VERTEX
  8
PLAN_1
 62
     2
  6
CONTINUOUS
 10
-1.059134
 20
0.201343
  0
VERTEX
  8
PLAN_1
 62
     2
  6
CONTINUOUS
 10
-1.061894
 20
0.199504
  0
VERTEX
  8
PLAN_1
 62
     2
  6
CONTINUOUS
 10
-1.063736
 20
0.196740
  0
VERTEX
  8
PLAN_1
 62
     2
  6
CONTINUOUS
 10
-1.064657
 20
0.193516
  0
VERTEX
  8
PLAN_1
 62
     2
  6
CONTINUOUS
 10
-1.065579
 20
0.190752
  0
VERTEX
  8
PLAN_1
 62
     2
  6
CONTINUOUS
 10
-1.066039
 20
0.187992
  0
VERTEX
  8
PLAN_1
 62
     2
  6
CONTINUOUS
 10
-1.066039
 20
0.185689
  0
VERTEX
  8
PLAN_1
 62
     2
  6
CONTINUOUS
 10
-1.075248
 20
0.185689
  0
SEQEND
  8
0
  0
POLYLINE
  8
PLAN_1
 62
     2
  6
CONTINUOUS
 66
     1
 40
0.004142
 41
0.004142
  0
VERTEX
  8
PLAN_1
 62
     2
  6
CONTINUOUS
 10
-2.131531
 20
0.271795
  0
VERTEX
  8
PLAN_1
 62
     2
  6
CONTINUOUS
 10
-0.025870
 20
0.271795
  0
SEQEND
  8
0
  0
SOLID
  8
PLAN_1
 62
     2
 10
-0.291555
 20
0.271795
 11
-0.350492
 21
0.287449
 12
-0.291555
 22
0.271795
 13
-0.350492
 23
0.256138
  0
POLYLINE
  8
PLAN_1
 62
     2
  6
CONTINUOUS
 66
     1
 40
0.003000
 41
0.003000
  0
VERTEX
  8
PLAN_1
 62
     2
  6
CONTINUOUS
 10
-0.291555
 20
0.271795
  0
VERTEX
  8
PLAN_1
 62
     2
  6
CONTINUOUS
 10
-0.350492
 20
0.287449
  0
VERTEX
  8
PLAN_1
 62
     2
  6
CONTINUOUS
 10
-0.350492
 20
0.256138
  0
VERTEX
  8
PLAN_1
 62
     2
  6
CONTINUOUS
 10
-0.291555
 20
0.271795
  0
SEQEND
  8
0
  0
SOLID
  8
PLAN_1
 62
     2
 10
-2.102063
 20
0.271795
 11
-2.161000
 21
0.287449
 12
-2.102063
 22
0.271795
 13
-2.161000
 23
0.256138
  0
POLYLINE
  8
PLAN_1
 62
     2
  6
CONTINUOUS
 66
     1
 40
0.003000
 41
0.003000
  0
VERTEX
  8
PLAN_1
 62
     2
  6
CONTINUOUS
 10
-2.102063
 20
0.271795
  0
VERTEX
  8
PLAN_1
 62
     2
  6
CONTINUOUS
 10
-2.161000
 20
0.287449
  0
VERTEX
  8
PLAN_1
 62
     2
  6
CONTINUOUS
 10
-2.161000
 20
0.256138
  0
VERTEX
  8
PLAN_1
 62
     2
  6
CONTINUOUS
 10
-2.102063
 20
0.271795
  0
SEQEND
  8
0
  0
SOLID
  8
PLAN_1
 62
     2
 10
-1.860323
 20
0.271795
 11
-1.801386
 21
0.287449
 12
-1.860323
 22
0.271795
 13
-1.801386
 23
0.256138
  0
POLYLINE
  8
PLAN_1
 62
     2
  6
CONTINUOUS
 66
     1
 40
0.003000
 41
0.003000
  0
VERTEX
  8
PLAN_1
 62
     2
  6
CONTINUOUS
 10
-1.860323
 20
0.271795
  0
VERTEX
  8
PLAN_1
 62
     2
  6
CONTINUOUS
 10
-1.801386
 20
0.287449
  0
VERTEX
  8
PLAN_1
 62
     2
  6
CONTINUOUS
 10
-1.801386
 20
0.256138
  0
VERTEX
  8
PLAN_1
 62
     2
  6
CONTINUOUS
 10
-1.860323
 20
0.271795
  0
SEQEND
  8
0
  0
SOLID
  8
PLAN_1
 62
     2
 10
-0.055343
 20
0.271795
 11
0.004059
 21
0.287449
 12
-0.055343
 22
0.271795
 13
0.004059
 23
0.256138
  0
POLYLINE
  8
PLAN_1
 62
     2
  6
CONTINUOUS
 66
     1
 40
0.003000
 41
0.003000
  0
VERTEX
  8
PLAN_1
 62
     2
  6
CONTINUOUS
 10
-0.055343
 20
0.271795
  0
VERTEX
  8
PLAN_1
 62
     2
  6
CONTINUOUS
 10
0.004059
 20
0.287449
  0
VERTEX
  8
PLAN_1
 62
     2
  6
CONTINUOUS
 10
0.004059
 20
0.256138
  0
VERTEX
  8
PLAN_1
 62
     2
  6
CONTINUOUS
 10
-0.055343
 20
0.271795
  0
SEQEND
  8
0
  0
POLYLINE
  8
PLAN_1
 62
     2
  6
CONTINUOUS
 66
     1
 40
0.003000
 41
0.003000
  0
VERTEX
  8
PLAN_1
 62
     2
  6
CONTINUOUS
 10
-1.094126
 20
0.313236
  0
VERTEX
  8
PLAN_1
 62
     2
  6
CONTINUOUS
 10
-1.094126
 20
0.295276
  0
VERTEX
  8
PLAN_1
 62
     2
  6
CONTINUOUS
 10
-1.102874
 20
0.295276
  0
VERTEX
  8
PLAN_1
 62
     2
  6
CONTINUOUS
 10
-1.102874
 20
0.313236
  0
VERTEX
  8
PLAN_1
 62
     2
  6
CONTINUOUS
 10
-1.135106
 20
0.313236
  0
VERTEX
  8
PLAN_1
 62
     2
  6
CONTINUOUS
 10
-1.135106
 20
0.321984
  0
VERTEX
  8
PLAN_1
 62
     2
  6
CONTINUOUS
 10
-1.101492
 20
0.368488
  0
VERTEX
  8
PLAN_1
 62
     2
  6
CONTINUOUS
 10
-1.094126
 20
0.368488
  0
VERTEX
  8
PLAN_1
 62
     2
  6
CONTINUOUS
 10
-1.094126
 20
0.321063
  0
VERTEX
  8
PLAN_1
 62
     2
  6
CONTINUOUS
 10
-1.083075
 20
0.321063
  0
VERTEX
  8
PLAN_1
 62
     2
  6
CONTINUOUS
 10
-1.083075
 20
0.313236
  0
VERTEX
  8
PLAN_1
 62
     2
  6
CONTINUOUS
 10
-1.094126
 20
0.313236
  0
SEQEND
  8
0
  0
SOLID
  8
PLAN_1
 62
     2
 10
-1.126819
 20
0.321063
 11
-1.102874
 21
0.321063
 12
-1.103335
 22
0.354217
 13
-1.102874
 23
0.354217
  0
POLYLINE
  8
PLAN_1
 62
     2
  6
CONTINUOUS
 66
     1
 40
0.003000
 41
0.003000
  0
VERTEX
  8
PLAN_1
 62
     2
  6
CONTINUOUS
 10
-1.126819
 20
0.321063
  0
VERTEX
  8
PLAN_1
 62
     2
  6
CONTINUOUS
 10
-1.102874
 20
0.321063
  0
VERTEX
  8
PLAN_1
 62
     2
  6
CONTINUOUS
 10
-1.102874
 20
0.354217
  0
VERTEX
  8
PLAN_1
 62
     2
  6
CONTINUOUS
 10
-1.103335
 20
0.354217
  0
VERTEX
  8
PLAN_1
 62
     2
  6
CONTINUOUS
 10
-1.126819
 20
0.321063
  0
SEQEND
  8
0
  0
POLYLINE
  8
PLAN_1
 62
     2
  6
CONTINUOUS
 66
     1
 40
0.003000
 41
0.003000
  0
VERTEX
  8
PLAN_1
 62
     2
  6
CONTINUOUS
 10
-1.042555
 20
0.295276
  0
VERTEX
  8
PLAN_1
 62
     2
  6
CONTINUOUS
 10
-1.052224
 20
0.295276
  0
VERTEX
  8
PLAN_1
 62
     2
  6
CONTINUOUS
 10
-1.052224
 20
0.347307
  0
VERTEX
  8
PLAN_1
 62
     2
  6
CONTINUOUS
 10
-1.069264
 20
0.347307
  0
VERTEX
  8
PLAN_1
 62
     2
  6
CONTINUOUS
 10
-1.069264
 20
0.354677
  0
VERTEX
  8
PLAN_1
 62
     2
  6
CONTINUOUS
 10
-1.065118
 20
0.354677
  0
VERTEX
  8
PLAN_1
 62
     2
  6
CONTINUOUS
 10
-1.061433
 20
0.355134
  0
VERTEX
  8
PLAN_1
 62
     2
  6
CONTINUOUS
 10
-1.058673
 20
0.356055
  0
VERTEX
  8
PLAN_1
 62
     2
  6
CONTINUOUS
 10
-1.055909
 20
0.357437
  0
VERTEX
  8
PLAN_1
 62
     2
  6
CONTINUOUS
 10
-1.054067
 20
0.358819
  0
VERTEX
  8
PLAN_1
 62
     2
  6
CONTINUOUS
 10
-1.052224
 20
0.361122
  0
VERTEX
  8
PLAN_1
 62
     2
  6
CONTINUOUS
 10
-1.050843
 20
0.364346
  0
VERTEX
  8
PLAN_1
 62
     2
  6
CONTINUOUS
 10
-1.049461
 20
0.368488
  0
VERTEX
  8
PLAN_1
 62
     2
  6
CONTINUOUS
 10
-1.042555
 20
0.368488
  0
VERTEX
  8
PLAN_1
 62
     2
  6
CONTINUOUS
 10
-1.042555
 20
0.295276
  0
SEQEND
  8
0
  0
SOLID
  8
PLAN_1
 62
     2
 10
-0.139602
 20
0.328429
 11
-0.192094
 21
0.328429
 12
-0.139602
 22
0.335795
 13
-0.192094
 23
0.335795
  0
POLYLINE
  8
PLAN_1
 62
     2
  6
CONTINUOUS
 66
     1
 40
0.003000
 41
0.003000
  0
VERTEX
  8
PLAN_1
 62
     2
  6
CONTINUOUS
 10
-0.139602
 20
0.328429
  0
VERTEX
  8
PLAN_1
 62
     2
  6
CONTINUOUS
 10
-0.192094
 20
0.328429
  0
VERTEX
  8
PLAN_1
 62
     2
  6
CONTINUOUS
 10
-0.192094
 20
0.335795
  0
VERTEX
  8
PLAN_1
 62
     2
  6
CONTINUOUS
 10
-0.139602
 20
0.335795
  0
VERTEX
  8
PLAN_1
 62
     2
  6
CONTINUOUS
 10
-0.139602
 20
0.328429
  0
SEQEND
  8
0
  0
SOLID
  8
PLAN_1
 62
     2
 10
-0.139602
 20
0.307248
 11
-0.192094
 21
0.307248
 12
-0.139602
 22
0.314614
 13
-0.192094
 23
0.314614
  0
POLYLINE
  8
PLAN_1
 62
     2
  6
CONTINUOUS
 66
     1
 40
0.003000
 41
0.003000
  0
VERTEX
  8
PLAN_1
 62
     2
  6
CONTINUOUS
 10
-0.139602
 20
0.307248
  0
VERTEX
  8
PLAN_1
 62
     2
  6
CONTINUOUS
 10
-0.192094
 20
0.307248
  0
VERTEX
  8
PLAN_1
 62
     2
  6
CONTINUOUS
 10
-0.192094
 20
0.314614
  0
VERTEX
  8
PLAN_1
 62
     2
  6
CONTINUOUS
 10
-0.139602
 20
0.314614
  0
VERTEX
  8
PLAN_1
 62
     2
  6
CONTINUOUS
 10
-0.139602
 20
0.307248
  0
SEQEND
  8
0
  0
SOLID
  8
PLAN_1
 62
     2
 10
-1.948272
 20
0.328429
 11
-2.000760
 21
0.328429
 12
-1.948272
 22
0.335795
 13
-2.000760
 23
0.335795
  0
POLYLINE
  8
PLAN_1
 62
     2
  6
CONTINUOUS
 66
     1
 40
0.003000
 41
0.003000
  0
VERTEX
  8
PLAN_1
 62
     2
  6
CONTINUOUS
 10
-1.948272
 20
0.328429
  0
VERTEX
  8
PLAN_1
 62
     2
  6
CONTINUOUS
 10
-2.000760
 20
0.328429
  0
VERTEX
  8
PLAN_1
 62
     2
  6
CONTINUOUS
 10
-2.000760
 20
0.335795
  0
VERTEX
  8
PLAN_1
 62
     2
  6
CONTINUOUS
 10
-1.948272
 20
0.335795
  0
VERTEX
  8
PLAN_1
 62
     2
  6
CONTINUOUS
 10
-1.948272
 20
0.328429
  0
SEQEND
  8
0
  0
SOLID
  8
PLAN_1
 62
     2
 10
-1.948272
 20
0.307248
 11
-2.000760
 21
0.307248
 12
-1.948272
 22
0.314614
 13
-2.000760
 23
0.314614
  0
POLYLINE
  8
PLAN_1
 62
     2
  6
CONTINUOUS
 66
     1
 40
0.003000
 41
0.003000
  0
VERTEX
  8
PLAN_1
 62
     2
  6
CONTINUOUS
 10
-1.948272
 20
0.307248
  0
VERTEX
  8
PLAN_1
 62
     2
  6
CONTINUOUS
 10
-2.000760
 20
0.307248
  0
VERTEX
  8
PLAN_1
 62
     2
  6
CONTINUOUS
 10
-2.000760
 20
0.314614
  0
VERTEX
  8
PLAN_1
 62
     2
  6
CONTINUOUS
 10
-1.948272
 20
0.314614
  0
VERTEX
  8
PLAN_1
 62
     2
  6
CONTINUOUS
 10
-1.948272
 20
0.307248
  0
SEQEND
  8
0
  0
POLYLINE
  8
PLAN_1
 62
     2
  6
CONTINUOUS
 66
     1
 40
0.004142
 41
0.004142
  0
VERTEX
  8
PLAN_1
 62
     2
  6
CONTINUOUS
 10
-2.102063
 20
0.091295
  0
VERTEX
  8
PLAN_1
 62
     2
  6
CONTINUOUS
 10
-2.102063
 20
1.105677
  0
SEQEND
  8
0
  0
POLYLINE
  8
PLAN_1
 62
     2
  6
CONTINUOUS
 66
     1
 40
0.004142
 41
0.004142
  0
VERTEX
  8
PLAN_1
 62
     2
  6
CONTINUOUS
 10
-0.055343
 20
0.091295
  0
VERTEX
  8
PLAN_1
 62
     2
  6
CONTINUOUS
 10
-0.055343
 20
0.647524
  0
SEQEND
  8
0
  0
POLYLINE
  8
PLAN_1
 62
     2
  6
CONTINUOUS
 66
     1
 40
0.004142
 41
0.004142
  0
VERTEX
  8
PLAN_1
 62
     2
  6
CONTINUOUS
 10
-1.860323
 20
1.048118
  0
VERTEX
  8
PLAN_1
 62
     2
  6
CONTINUOUS
 10
-1.860323
 20
0.247850
  0
SEQEND
  8
0
  0
POLYLINE
  8
PLAN_1
 62
     2
  6
CONTINUOUS
 66
     1
 40
0.004142
 41
0.004142
  0
VERTEX
  8
PLAN_1
 62
     2
  6
CONTINUOUS
 10
-0.291555
 20
0.647524
  0
VERTEX
  8
PLAN_1
 62
     2
  6
CONTINUOUS
 10
-0.291555
 20
0.247850
  0
SEQEND
  8
0
  0
POLYLINE
  8
PLAN_1
 62
     2
  6
CONTINUOUS
 66
     1
 40
0.004142
 41
0.004142
  0
VERTEX
  8
PLAN_1
 62
     2
  6
CONTINUOUS
 10
-0.291555
 20
1.025559
  0
VERTEX
  8
PLAN_1
 62
     2
  6
CONTINUOUS
 10
-0.291555
 20
0.694953
  0
SEQEND
  8
0
  0
POLYLINE
  8
PLAN_1
 62
     2
  6
CONTINUOUS
 66
     1
 40
0.004142
 41
0.004142
  0
VERTEX
  8
PLAN_1
 62
     2
  6
CONTINUOUS
 10
-0.055343
 20
0.694953
  0
VERTEX
  8
PLAN_1
 62
     2
  6
CONTINUOUS
 10
-0.055343
 20
1.091862
  0
SEQEND
  8
0
  0
POLYLINE
  8
PLAN_1
 62
     2
  6
CONTINUOUS
 66
     1
 40
0.004142
 41
0.004142
  0
VERTEX
  8
PLAN_1
 62
     2
  6
CONTINUOUS
 10
0.103055
 20
0.700476
  0
VERTEX
  8
PLAN_1
 62
     2
  6
CONTINUOUS
 10
0.103055
 20
3.218244
  0
SEQEND
  8
0
  0
SOLID
  8
PLAN_1
 62
     2
 10
0.103055
 20
3.247713
 11
0.086941
 21
3.188776
 12
0.103055
 22
3.247713
 13
0.118713
 23
3.188776
  0
POLYLINE
  8
PLAN_1
 62
     2
  6
CONTINUOUS
 66
     1
 40
0.003000
 41
0.003000
  0
VERTEX
  8
PLAN_1
 62
     2
  6
CONTINUOUS
 10
0.103055
 20
3.247713
  0
VERTEX
  8
PLAN_1
 62
     2
  6
CONTINUOUS
 10
0.086941
 20
3.188776
  0
VERTEX
  8
PLAN_1
 62
     2
  6
CONTINUOUS
 10
0.118713
 20
3.188776
  0
VERTEX
  8
PLAN_1
 62
     2
  6
CONTINUOUS
 10
0.103055
 20
3.247713
  0
SEQEND
  8
0
  0
SOLID
  8
PLAN_1
 62
     2
 10
0.103055
 20
0.671008
 11
0.086941
 21
0.729945
 12
0.103055
 22
0.671008
 13
0.118713
 23
0.729945
  0
POLYLINE
  8
PLAN_1
 62
     2
  6
CONTINUOUS
 66
     1
 40
0.003000
 41
0.003000
  0
VERTEX
  8
PLAN_1
 62
     2
  6
CONTINUOUS
 10
0.103055
 20
0.671008
  0
VERTEX
  8
PLAN_1
 62
     2
  6
CONTINUOUS
 10
0.086941
 20
0.729945
  0
VERTEX
  8
PLAN_1
 62
     2
  6
CONTINUOUS
 10
0.118713
 20
0.729945
  0
VERTEX
  8
PLAN_1
 62
     2
  6
CONTINUOUS
 10
0.103055
 20
0.671008
  0
SEQEND
  8
0
  0
POLYLINE
  8
PLAN_1
 62
     2
  6
CONTINUOUS
 66
     1
 40
0.003000
 41
0.003000
  0
VERTEX
  8
PLAN_1
 62
     2
  6
CONTINUOUS
 10
0.025701
 20
1.944626
  0
VERTEX
  8
PLAN_1
 62
     2
  6
CONTINUOUS
 10
0.023398
 20
1.944165
  0
VERTEX
  8
PLAN_1
 62
     2
  6
CONTINUOUS
 10
0.021094
 20
1.943705
  0
VERTEX
  8
PLAN_1
 62
     2
  6
CONTINUOUS
 10
0.019252
 20
1.942323
  0
VERTEX
  8
PLAN_1
 62
     2
  6
CONTINUOUS
 10
0.017409
 20
1.940941
  0
VERTEX
  8
PLAN_1
 62
     2
  6
CONTINUOUS
 10
0.016031
 20
1.939559
  0
VERTEX
  8
PLAN_1
 62
     2
  6
CONTINUOUS
 10
0.015110
 20
1.937260
  0
VERTEX
  8
PLAN_1
 62
     2
  6
CONTINUOUS
 10
0.014650
 20
1.934957
  0
VERTEX
  8
PLAN_1
 62
     2
  6
CONTINUOUS
 10
0.014189
 20
1.932193
  0
VERTEX
  8
PLAN_1
 62
     2
  6
CONTINUOUS
 10
0.014650
 20
1.929890
  0
VERTEX
  8
PLAN_1
 62
     2
  6
CONTINUOUS
 10
0.015110
 20
1.927587
  0
VERTEX
  8
PLAN_1
 62
     2
  6
CONTINUOUS
 10
0.016031
 20
1.925287
  0
VERTEX
  8
PLAN_1
 62
     2
  6
CONTINUOUS
 10
0.017409
 20
1.923445
  0
VERTEX
  8
PLAN_1
 62
     2
  6
CONTINUOUS
 10
0.019252
 20
1.922063
  0
VERTEX
  8
PLAN_1
 62
     2
  6
CONTINUOUS
 10
0.021094
 20
1.920220
  0
VERTEX
  8
PLAN_1
 62
     2
  6
CONTINUOUS
 10
0.022937
 20
1.919299
  0
VERTEX
  8
PLAN_1
 62
     2
  6
CONTINUOUS
 10
0.024780
 20
1.918378
  0
VERTEX
  8
PLAN_1
 62
     2
  6
CONTINUOUS
 10
0.029382
 20
1.916539
  0
VERTEX
  8
PLAN_1
 62
     2
  6
CONTINUOUS
 10
0.033988
 20
1.915618
  0
VERTEX
  8
PLAN_1
 62
     2
  6
CONTINUOUS
 10
0.038130
 20
1.915157
  0
VERTEX
  8
PLAN_1
 62
     2
  6
CONTINUOUS
 10
0.041354
 20
1.914697
  0
VERTEX
  8
PLAN_1
 62
     2
  6
CONTINUOUS
 10
0.041815
 20
1.915157
  0
VERTEX
  8
PLAN_1
 62
     2
  6
CONTINUOUS
 10
0.039972
 20
1.916079
  0
VERTEX
  8
PLAN_1
 62
     2
  6
CONTINUOUS
 10
0.038591
 20
1.917457
  0
VERTEX
  8
PLAN_1
 62
     2
  6
CONTINUOUS
 10
0.037213
 20
1.918839
  0
VERTEX
  8
PLAN_1
 62
     2
  6
CONTINUOUS
 10
0.035831
 20
1.920681
  0
VERTEX
  8
PLAN_1
 62
     2
  6
CONTINUOUS
 10
0.034449
 20
1.922984
  0
VERTEX
  8
PLAN_1
 62
     2
  6
CONTINUOUS
 10
0.033528
 20
1.925748
  0
VERTEX
  8
PLAN_1
 62
     2
  6
CONTINUOUS
 10
0.033067
 20
1.928969
  0
VERTEX
  8
PLAN_1
 62
     2
  6
CONTINUOUS
 10
0.032606
 20
1.932654
  0
VERTEX
  8
PLAN_1
 62
     2
  6
CONTINUOUS
 10
0.033067
 20
1.935878
  0
VERTEX
  8
PLAN_1
 62
     2
  6
CONTINUOUS
 10
0.033988
 20
1.940020
  0
VERTEX
  8
PLAN_1
 62
     2
  6
CONTINUOUS
 10
0.035370
 20
1.943705
  0
VERTEX
  8
PLAN_1
 62
     2
  6
CONTINUOUS
 10
0.037669
 20
1.947390
  0
VERTEX
  8
PLAN_1
 62
     2
  6
CONTINUOUS
 10
0.039051
 20
1.948768
  0
VERTEX
  8
PLAN_1
 62
     2
  6
CONTINUOUS
 10
0.040894
 20
1.950610
  0
VERTEX
  8
PLAN_1
 62
     2
  6
CONTINUOUS
 10
0.042736
 20
1.951992
  0
VERTEX
  8
PLAN_1
 62
     2
  6
CONTINUOUS
 10
0.045039
 20
1.952913
  0
VERTEX
  8
PLAN_1
 62
     2
  6
CONTINUOUS
 10
0.047343
 20
1.953835
  0
VERTEX
  8
PLAN_1
 62
     2
  6
CONTINUOUS
 10
0.049642
 20
1.954756
  0
VERTEX
  8
PLAN_1
 62
     2
  6
CONTINUOUS
 10
0.052866
 20
1.955217
  0
VERTEX
  8
PLAN_1
 62
     2
  6
CONTINUOUS
 10
0.055630
 20
1.955217
  0
VERTEX
  8
PLAN_1
 62
     2
  6
CONTINUOUS
 10
0.058390
 20
1.955217
  0
VERTEX
  8
PLAN_1
 62
     2
  6
CONTINUOUS
 10
0.061154
 20
1.954756
  0
VERTEX
  8
PLAN_1
 62
     2
  6
CONTINUOUS
 10
0.063457
 20
1.954295
  0
VERTEX
  8
PLAN_1
 62
     2
  6
CONTINUOUS
 10
0.065760
 20
1.953835
  0
VERTEX
  8
PLAN_1
 62
     2
  6
CONTINUOUS
 10
0.068063
 20
1.952913
  0
VERTEX
  8
PLAN_1
 62
     2
  6
CONTINUOUS
 10
0.069902
 20
1.951531
  0
VERTEX
  8
PLAN_1
 62
     2
  6
CONTINUOUS
 10
0.072205
 20
1.950150
  0
VERTEX
  8
PLAN_1
 62
     2
  6
CONTINUOUS
 10
0.074047
 20
1.948307
  0
VERTEX
  8
PLAN_1
 62
     2
  6
CONTINUOUS
 10
0.075890
 20
1.946929
  0
VERTEX
  8
PLAN_1
 62
     2
  6
CONTINUOUS
 10
0.077272
 20
1.945087
  0
VERTEX
  8
PLAN_1
 62
     2
  6
CONTINUOUS
 10
0.078193
 20
1.943705
  0
VERTEX
  8
PLAN_1
 62
     2
  6
CONTINUOUS
 10
0.079110
 20
1.941402
  0
VERTEX
  8
PLAN_1
 62
     2
  6
CONTINUOUS
 10
0.080031
 20
1.939098
  0
VERTEX
  8
PLAN_1
 62
     2
  6
CONTINUOUS
 10
0.080953
 20
1.936339
  0
VERTEX
  8
PLAN_1
 62
     2
  6
CONTINUOUS
 10
0.080953
 20
1.933575
  0
VERTEX
  8
PLAN_1
 62
     2
  6
CONTINUOUS
 10
0.081413
 20
1.929890
  0
VERTEX
  8
PLAN_1
 62
     2
  6
CONTINUOUS
 10
0.080953
 20
1.927587
  0
VERTEX
  8
PLAN_1
 62
     2
  6
CONTINUOUS
 10
0.080492
 20
1.925287
  0
VERTEX
  8
PLAN_1
 62
     2
  6
CONTINUOUS
 10
0.080031
 20
1.922984
  0
VERTEX
  8
PLAN_1
 62
     2
  6
CONTINUOUS
 10
0.079110
 20
1.920220
  0
VERTEX
  8
PLAN_1
 62
     2
  6
CONTINUOUS
 10
0.077732
 20
1.917917
  0
VERTEX
  8
PLAN_1
 62
     2
  6
CONTINUOUS
 10
0.075890
 20
1.915157
  0
VERTEX
  8
PLAN_1
 62
     2
  6
CONTINUOUS
 10
0.073587
 20
1.913315
  0
VERTEX
  8
PLAN_1
 62
     2
  6
CONTINUOUS
 10
0.070823
 20
1.911012
  0
VERTEX
  8
PLAN_1
 62
     2
  6
CONTINUOUS
 10
0.068063
 20
1.909630
  0
VERTEX
  8
PLAN_1
 62
     2
  6
CONTINUOUS
 10
0.065299
 20
1.908248
  0
VERTEX
  8
PLAN_1
 62
     2
  6
CONTINUOUS
 10
0.062075
 20
1.907327
  0
VERTEX
  8
PLAN_1
 62
     2
  6
CONTINUOUS
 10
0.058850
 20
1.906409
  0
VERTEX
  8
PLAN_1
 62
     2
  6
CONTINUOUS
 10
0.055630
 20
1.905949
  0
VERTEX
  8
PLAN_1
 62
     2
  6
CONTINUOUS
 10
0.052406
 20
1.905488
  0
VERTEX
  8
PLAN_1
 62
     2
  6
CONTINUOUS
 10
0.048720
 20
1.905488
  0
VERTEX
  8
PLAN_1
 62
     2
  6
CONTINUOUS
 10
0.045039
 20
1.905488
  0
VERTEX
  8
PLAN_1
 62
     2
  6
CONTINUOUS
 10
0.039051
 20
1.905488
  0
VERTEX
  8
PLAN_1
 62
     2
  6
CONTINUOUS
 10
0.032146
 20
1.906409
  0
VERTEX
  8
PLAN_1
 62
     2
  6
CONTINUOUS
 10
0.028921
 20
1.907327
  0
VERTEX
  8
PLAN_1
 62
     2
  6
CONTINUOUS
 10
0.025701
 20
1.908248
  0
VERTEX
  8
PLAN_1
 62
     2
  6
CONTINUOUS
 10
0.022476
 20
1.909169
  0
VERTEX
  8
PLAN_1
 62
     2
  6
CONTINUOUS
 10
0.019713
 20
1.910551
  0
VERTEX
  8
PLAN_1
 62
     2
  6
CONTINUOUS
 10
0.016949
 20
1.912394
  0
VERTEX
  8
PLAN_1
 62
     2
  6
CONTINUOUS
 10
0.014189
 20
1.914236
  0
VERTEX
  8
PLAN_1
 62
     2
  6
CONTINUOUS
 10
0.011886
 20
1.916539
  0
VERTEX
  8
PLAN_1
 62
     2
  6
CONTINUOUS
 10
0.010043
 20
1.918839
  0
VERTEX
  8
PLAN_1
 62
     2
  6
CONTINUOUS
 10
0.008201
 20
1.922063
  0
VERTEX
  8
PLAN_1
 62
     2
  6
CONTINUOUS
 10
0.007280
 20
1.924827
  0
VERTEX
  8
PLAN_1
 62
     2
  6
CONTINUOUS
 10
0.006358
 20
1.928508
  0
VERTEX
  8
PLAN_1
 62
     2
  6
CONTINUOUS
 10
0.005902
 20
1.932654
  0
VERTEX
  8
PLAN_1
 62
     2
  6
CONTINUOUS
 10
0.006358
 20
1.935878
  0
VERTEX
  8
PLAN_1
 62
     2
  6
CONTINUOUS
 10
0.007280
 20
1.939098
  0
VERTEX
  8
PLAN_1
 62
     2
  6
CONTINUOUS
 10
0.008201
 20
1.942783
  0
VERTEX
  8
PLAN_1
 62
     2
  6
CONTINUOUS
 10
0.010043
 20
1.946008
  0
VERTEX
  8
PLAN_1
 62
     2
  6
CONTINUOUS
 10
0.012807
 20
1.948768
  0
VERTEX
  8
PLAN_1
 62
     2
  6
CONTINUOUS
 10
0.016031
 20
1.951071
  0
VERTEX
  8
PLAN_1
 62
     2
  6
CONTINUOUS
 10
0.018331
 20
1.951992
  0
VERTEX
  8
PLAN_1
 62
     2
  6
CONTINUOUS
 10
0.020634
 20
1.952913
  0
VERTEX
  8
PLAN_1
 62
     2
  6
CONTINUOUS
 10
0.022937
 20
1.953374
  0
VERTEX
  8
PLAN_1
 62
     2
  6
CONTINUOUS
 10
0.025701
 20
1.953835
  0
VERTEX
  8
PLAN_1
 62
     2
  6
CONTINUOUS
 10
0.025701
 20
1.944626
  0
SEQEND
  8
0
  0
POLYLINE
  8
PLAN_1
 62
     2
  6
CONTINUOUS
 66
     1
 40
0.003000
 41
0.003000
  0
VERTEX
  8
PLAN_1
 62
     2
  6
CONTINUOUS
 10
0.073126
 20
1.931732
  0
VERTEX
  8
PLAN_1
 62
     2
  6
CONTINUOUS
 10
0.072665
 20
1.934496
  0
VERTEX
  8
PLAN_1
 62
     2
  6
CONTINUOUS
 10
0.071744
 20
1.937260
  0
VERTEX
  8
PLAN_1
 62
     2
  6
CONTINUOUS
 10
0.070362
 20
1.940020
  0
VERTEX
  8
PLAN_1
 62
     2
  6
CONTINUOUS
 10
0.068520
 20
1.941862
  0
VERTEX
  8
PLAN_1
 62
     2
  6
CONTINUOUS
 10
0.065760
 20
1.943705
  0
VERTEX
  8
PLAN_1
 62
     2
  6
CONTINUOUS
 10
0.062996
 20
1.944626
  0
VERTEX
  8
PLAN_1
 62
     2
  6
CONTINUOUS
 10
0.059772
 20
1.945547
  0
VERTEX
  8
PLAN_1
 62
     2
  6
CONTINUOUS
 10
0.056091
 20
1.946008
  0
VERTEX
  8
PLAN_1
 62
     2
  6
CONTINUOUS
 10
0.053787
 20
1.945547
  0
VERTEX
  8
PLAN_1
 62
     2
  6
CONTINUOUS
 10
0.051024
 20
1.945087
  0
VERTEX
  8
PLAN_1
 62
     2
  6
CONTINUOUS
 10
0.048720
 20
1.944165
  0
VERTEX
  8
PLAN_1
 62
     2
  6
CONTINUOUS
 10
0.045961
 20
1.942783
  0
VERTEX
  8
PLAN_1
 62
     2
  6
CONTINUOUS
 10
0.044118
 20
1.940941
  0
VERTEX
  8
PLAN_1
 62
     2
  6
CONTINUOUS
 10
0.042276
 20
1.938177
  0
VERTEX
  8
PLAN_1
 62
     2
  6
CONTINUOUS
 10
0.041354
 20
1.934957
  0
VERTEX
  8
PLAN_1
 62
     2
  6
CONTINUOUS
 10
0.040894
 20
1.931272
  0
VERTEX
  8
PLAN_1
 62
     2
  6
CONTINUOUS
 10
0.041354
 20
1.927587
  0
VERTEX
  8
PLAN_1
 62
     2
  6
CONTINUOUS
 10
0.042276
 20
1.924366
  0
VERTEX
  8
PLAN_1
 62
     2
  6
CONTINUOUS
 10
0.043657
 20
1.922063
  0
VERTEX
  8
PLAN_1
 62
     2
  6
CONTINUOUS
 10
0.045500
 20
1.919760
  0
VERTEX
  8
PLAN_1
 62
     2
  6
CONTINUOUS
 10
0.047799
 20
1.918378
  0
VERTEX
  8
PLAN_1
 62
     2
  6
CONTINUOUS
 10
0.050563
 20
1.917000
  0
VERTEX
  8
PLAN_1
 62
     2
  6
CONTINUOUS
 10
0.053787
 20
1.916539
  0
VERTEX
  8
PLAN_1
 62
     2
  6
CONTINUOUS
 10
0.057012
 20
1.916079
  0
VERTEX
  8
PLAN_1
 62
     2
  6
CONTINUOUS
 10
0.059772
 20
1.916539
  0
VERTEX
  8
PLAN_1
 62
     2
  6
CONTINUOUS
 10
0.062535
 20
1.917000
  0
VERTEX
  8
PLAN_1
 62
     2
  6
CONTINUOUS
 10
0.065299
 20
1.918378
  0
VERTEX
  8
PLAN_1
 62
     2
  6
CONTINUOUS
 10
0.067602
 20
1.919760
  0
VERTEX
  8
PLAN_1
 62
     2
  6
CONTINUOUS
 10
0.069902
 20
1.922063
  0
VERTEX
  8
PLAN_1
 62
     2
  6
CONTINUOUS
 10
0.071744
 20
1.924366
  0
VERTEX
  8
PLAN_1
 62
     2
  6
CONTINUOUS
 10
0.072665
 20
1.927587
  0
VERTEX
  8
PLAN_1
 62
     2
  6
CONTINUOUS
 10
0.073126
 20
1.931732
  0
SEQEND
  8
0
  0
POLYLINE
  8
PLAN_1
 62
     2
  6
CONTINUOUS
 66
     1
 40
0.003000
 41
0.003000
  0
VERTEX
  8
PLAN_1
 62
     2
  6
CONTINUOUS
 10
0.007740
 20
1.963043
  0
VERTEX
  8
PLAN_1
 62
     2
  6
CONTINUOUS
 10
0.007740
 20
2.013693
  0
VERTEX
  8
PLAN_1
 62
     2
  6
CONTINUOUS
 10
0.015571
 20
2.013693
  0
VERTEX
  8
PLAN_1
 62
     2
  6
CONTINUOUS
 10
0.019252
 20
2.010469
  0
VERTEX
  8
PLAN_1
 62
     2
  6
CONTINUOUS
 10
0.024319
 20
2.006787
  0
VERTEX
  8
PLAN_1
 62
     2
  6
CONTINUOUS
 10
0.030303
 20
2.002642
  0
VERTEX
  8
PLAN_1
 62
     2
  6
CONTINUOUS
 10
0.038130
 20
1.998039
  0
VERTEX
  8
PLAN_1
 62
     2
  6
CONTINUOUS
 10
0.046882
 20
1.993433
  0
VERTEX
  8
PLAN_1
 62
     2
  6
CONTINUOUS
 10
0.056551
 20
1.989748
  0
VERTEX
  8
PLAN_1
 62
     2
  6
CONTINUOUS
 10
0.062075
 20
1.987909
  0
VERTEX
  8
PLAN_1
 62
     2
  6
CONTINUOUS
 10
0.067602
 20
1.986067
  0
VERTEX
  8
PLAN_1
 62
     2
  6
CONTINUOUS
 10
0.073126
 20
1.984685
  0
VERTEX
  8
PLAN_1
 62
     2
  6
CONTINUOUS
 10
0.079110
 20
1.983764
  0
VERTEX
  8
PLAN_1
 62
     2
  6
CONTINUOUS
 10
0.079110
 20
1.973634
  0
VERTEX
  8
PLAN_1
 62
     2
  6
CONTINUOUS
 10
0.071283
 20
1.975016
  0
VERTEX
  8
PLAN_1
 62
     2
  6
CONTINUOUS
 10
0.063457
 20
1.977319
  0
VERTEX
  8
PLAN_1
 62
     2
  6
CONTINUOUS
 10
0.054709
 20
1.980539
  0
VERTEX
  8
PLAN_1
 62
     2
  6
CONTINUOUS
 10
0.046421
 20
1.984224
  0
VERTEX
  8
PLAN_1
 62
     2
  6
CONTINUOUS
 10
0.038130
 20
1.988370
  0
VERTEX
  8
PLAN_1
 62
     2
  6
CONTINUOUS
 10
0.030303
 20
1.992972
  0
VERTEX
  8
PLAN_1
 62
     2
  6
CONTINUOUS
 10
0.023398
 20
1.998039
  0
VERTEX
  8
PLAN_1
 62
     2
  6
CONTINUOUS
 10
0.016492
 20
2.003563
  0
VERTEX
  8
PLAN_1
 62
     2
  6
CONTINUOUS
 10
0.016492
 20
1.963043
  0
VERTEX
  8
PLAN_1
 62
     2
  6
CONTINUOUS
 10
0.007740
 20
1.963043
  0
SEQEND
  8
0
  0
POLYLINE
  8
PLAN_1
 62
     2
  6
CONTINUOUS
 66
     1
 40
0.003000
 41
0.003000
  0
VERTEX
  8
PLAN_1
 62
     2
  6
CONTINUOUS
 10
-1.321130
 20
3.653374
  0
VERTEX
  8
PLAN_1
 62
     2
  6
CONTINUOUS
 10
-1.321130
 20
3.657516
  0
VERTEX
  8
PLAN_1
 62
     2
  6
CONTINUOUS
 10
-1.320209
 20
3.661201
  0
VERTEX
  8
PLAN_1
 62
     2
  6
CONTINUOUS
 10
-1.319287
 20
3.664425
  0
VERTEX
  8
PLAN_1
 62
     2
  6
CONTINUOUS
 10
-1.318366
 20
3.667185
  0
VERTEX
  8
PLAN_1
 62
     2
  6
CONTINUOUS
 10
-1.316988
 20
3.669949
  0
VERTEX
  8
PLAN_1
 62
     2
  6
CONTINUOUS
 10
-1.315146
 20
3.671791
  0
VERTEX
  8
PLAN_1
 62
     2
  6
CONTINUOUS
 10
-1.313303
 20
3.673634
  0
VERTEX
  8
PLAN_1
 62
     2
  6
CONTINUOUS
 10
-1.311461
 20
3.675476
  0
VERTEX
  8
PLAN_1
 62
     2
  6
CONTINUOUS
 10
-1.307319
 20
3.677315
  0
VERTEX
  8
PLAN_1
 62
     2
  6
CONTINUOUS
 10
-1.303173
 20
3.678697
  0
VERTEX
  8
PLAN_1
 62
     2
  6
CONTINUOUS
 10
-1.299028
 20
3.679157
  0
VERTEX
  8
PLAN_1
 62
     2
  6
CONTINUOUS
 10
-1.295807
 20
3.679618
  0
VERTEX
  8
PLAN_1
 62
     2
  6
CONTINUOUS
 10
-1.291201
 20
3.679157
  0
VERTEX
  8
PLAN_1
 62
     2
  6
CONTINUOUS
 10
-1.287055
 20
3.677776
  0
VERTEX
  8
PLAN_1
 62
     2
  6
CONTINUOUS
 10
-1.282913
 20
3.675933
  0
VERTEX
  8
PLAN_1
 62
     2
  6
CONTINUOUS
 10
-1.279689
 20
3.673634
  0
VERTEX
  8
PLAN_1
 62
     2
  6
CONTINUOUS
 10
-1.276925
 20
3.670409
  0
VERTEX
  8
PLAN_1
 62
     2
  6
CONTINUOUS
 10
-1.274626
 20
3.666724
  0
VERTEX
  8
PLAN_1
 62
     2
  6
CONTINUOUS
 10
-1.274165
 20
3.664886
  0
VERTEX
  8
PLAN_1
 62
     2
  6
CONTINUOUS
 10
-1.273244
 20
3.662583
  0
VERTEX
  8
PLAN_1
 62
     2
  6
CONTINUOUS
 10
-1.273244
 20
3.660280
  0
VERTEX
  8
PLAN_1
 62
     2
  6
CONTINUOUS
 10
-1.272783
 20
3.657516
  0
VERTEX
  8
PLAN_1
 62
     2
  6
CONTINUOUS
 10
-1.273244
 20
3.652913
  0
VERTEX
  8
PLAN_1
 62
     2
  6
CONTINUOUS
 10
-1.274626
 20
3.649228
  0
VERTEX
  8
PLAN_1
 62
     2
  6
CONTINUOUS
 10
-1.276469
 20
3.645543
  0
VERTEX
  8
PLAN_1
 62
     2
  6
CONTINUOUS
 10
-1.278768
 20
3.642783
  0
VERTEX
  8
PLAN_1
 62
     2
  6
CONTINUOUS
 10
-1.281531
 20
3.640020
  0
VERTEX
  8
PLAN_1
 62
     2
  6
CONTINUOUS
 10
-1.284756
 20
3.637717
  0
VERTEX
  8
PLAN_1
 62
     2
  6
CONTINUOUS
 10
-1.288437
 20
3.635413
  0
VERTEX
  8
PLAN_1
 62
     2
  6
CONTINUOUS
 10
-1.292583
 20
3.633114
  0
VERTEX
  8
PLAN_1
 62
     2
  6
CONTINUOUS
 10
-1.299949
 20
3.628969
  0
VERTEX
  8
PLAN_1
 62
     2
  6
CONTINUOUS
 10
-1.303634
 20
3.627126
  0
VERTEX
  8
PLAN_1
 62
     2
  6
CONTINUOUS
 10
-1.306398
 20
3.624823
  0
VERTEX
  8
PLAN_1
 62
     2
  6
CONTINUOUS
 10
-1.308236
 20
3.622984
  0
VERTEX
  8
PLAN_1
 62
     2
  6
CONTINUOUS
 10
-1.310079
 20
3.621142
  0
VERTEX
  8
PLAN_1
 62
     2
  6
CONTINUOUS
 10
-1.311000
 20
3.619299
  0
VERTEX
  8
PLAN_1
 62
     2
  6
CONTINUOUS
 10
-1.311921
 20
3.617457
  0
VERTEX
  8
PLAN_1
 62
     2
  6
CONTINUOUS
 10
-1.312382
 20
3.616075
  0
VERTEX
  8
PLAN_1
 62
     2
  6
CONTINUOUS
 10
-1.312843
 20
3.615154
  0
VERTEX
  8
PLAN_1
 62
     2
  6
CONTINUOUS
 10
-1.272783
 20
3.615154
  0
VERTEX
  8
PLAN_1
 62
     2
  6
CONTINUOUS
 10
-1.272783
 20
3.606406
  0
VERTEX
  8
PLAN_1
 62
     2
  6
CONTINUOUS
 10
-1.322972
 20
3.606406
  0
VERTEX
  8
PLAN_1
 62
     2
  6
CONTINUOUS
 10
-1.322512
 20
3.611472
  0
VERTEX
  8
PLAN_1
 62
     2
  6
CONTINUOUS
 10
-1.321591
 20
3.616535
  0
VERTEX
  8
PLAN_1
 62
     2
  6
CONTINUOUS
 10
-1.319748
 20
3.620681
  0
VERTEX
  8
PLAN_1
 62
     2
  6
CONTINUOUS
 10
-1.317906
 20
3.624362
  0
VERTEX
  8
PLAN_1
 62
     2
  6
CONTINUOUS
 10
-1.315606
 20
3.627587
  0
VERTEX
  8
PLAN_1
 62
     2
  6
CONTINUOUS
 10
-1.312382
 20
3.630350
  0
VERTEX
  8
PLAN_1
 62
     2
  6
CONTINUOUS
 10
-1.309157
 20
3.633114
  0
VERTEX
  8
PLAN_1
 62
     2
  6
CONTINUOUS
 10
-1.305937
 20
3.635413
  0
VERTEX
  8
PLAN_1
 62
     2
  6
CONTINUOUS
 10
-1.296268
 20
3.640941
  0
VERTEX
  8
PLAN_1
 62
     2
  6
CONTINUOUS
 10
-1.293504
 20
3.642783
  0
VERTEX
  8
PLAN_1
 62
     2
  6
CONTINUOUS
 10
-1.290740
 20
3.644165
  0
VERTEX
  8
PLAN_1
 62
     2
  6
CONTINUOUS
 10
-1.288437
 20
3.646004
  0
VERTEX
  8
PLAN_1
 62
     2
  6
CONTINUOUS
 10
-1.286598
 20
3.647386
  0
VERTEX
  8
PLAN_1
 62
     2
  6
CONTINUOUS
 10
-1.284756
 20
3.649689
  0
VERTEX
  8
PLAN_1
 62
     2
  6
CONTINUOUS
 10
-1.283835
 20
3.651992
  0
VERTEX
  8
PLAN_1
 62
     2
  6
CONTINUOUS
 10
-1.282913
 20
3.654756
  0
VERTEX
  8
PLAN_1
 62
     2
  6
CONTINUOUS
 10
-1.282913
 20
3.657976
  0
VERTEX
  8
PLAN_1
 62
     2
  6
CONTINUOUS
 10
-1.282913
 20
3.660280
  0
VERTEX
  8
PLAN_1
 62
     2
  6
CONTINUOUS
 10
-1.283374
 20
3.662583
  0
VERTEX
  8
PLAN_1
 62
     2
  6
CONTINUOUS
 10
-1.284295
 20
3.664886
  0
VERTEX
  8
PLAN_1
 62
     2
  6
CONTINUOUS
 10
-1.286138
 20
3.666724
  0
VERTEX
  8
PLAN_1
 62
     2
  6
CONTINUOUS
 10
-1.287976
 20
3.668567
  0
VERTEX
  8
PLAN_1
 62
     2
  6
CONTINUOUS
 10
-1.290280
 20
3.669949
  0
VERTEX
  8
PLAN_1
 62
     2
  6
CONTINUOUS
 10
-1.293504
 20
3.670870
  0
VERTEX
  8
PLAN_1
 62
     2
  6
CONTINUOUS
 10
-1.297185
 20
3.671331
  0
VERTEX
  8
PLAN_1
 62
     2
  6
CONTINUOUS
 10
-1.299488
 20
3.670870
  0
VERTEX
  8
PLAN_1
 62
     2
  6
CONTINUOUS
 10
-1.301791
 20
3.670870
  0
VERTEX
  8
PLAN_1
 62
     2
  6
CONTINUOUS
 10
-1.303634
 20
3.669949
  0
VERTEX
  8
PLAN_1
 62
     2
  6
CONTINUOUS
 10
-1.305476
 20
3.669028
  0
VERTEX
  8
PLAN_1
 62
     2
  6
CONTINUOUS
 10
-1.307776
 20
3.666724
  0
VERTEX
  8
PLAN_1
 62
     2
  6
CONTINUOUS
 10
-1.309618
 20
3.663965
  0
VERTEX
  8
PLAN_1
 62
     2
  6
CONTINUOUS
 10
-1.311000
 20
3.661201
  0
VERTEX
  8
PLAN_1
 62
     2
  6
CONTINUOUS
 10
-1.311461
 20
3.657976
  0
VERTEX
  8
PLAN_1
 62
     2
  6
CONTINUOUS
 10
-1.311921
 20
3.655673
  0
VERTEX
  8
PLAN_1
 62
     2
  6
CONTINUOUS
 10
-1.311921
 20
3.653374
  0
VERTEX
  8
PLAN_1
 62
     2
  6
CONTINUOUS
 10
-1.321130
 20
3.653374
  0
SEQEND
  8
0
  0
POLYLINE
  8
PLAN_1
 62
     2
  6
CONTINUOUS
 66
     1
 40
0.003000
 41
0.003000
  0
VERTEX
  8
PLAN_1
 62
     2
  6
CONTINUOUS
 10
-1.220752
 20
3.652913
  0
VERTEX
  8
PLAN_1
 62
     2
  6
CONTINUOUS
 10
-1.220752
 20
3.617917
  0
VERTEX
  8
PLAN_1
 62
     2
  6
CONTINUOUS
 10
-1.220752
 20
3.616535
  0
VERTEX
  8
PLAN_1
 62
     2
  6
CONTINUOUS
 10
-1.220291
 20
3.615154
  0
VERTEX
  8
PLAN_1
 62
     2
  6
CONTINUOUS
 10
-1.219831
 20
3.614693
  0
VERTEX
  8
PLAN_1
 62
     2
  6
CONTINUOUS
 10
-1.218909
 20
3.614232
  0
VERTEX
  8
PLAN_1
 62
     2
  6
CONTINUOUS
 10
-1.217988
 20
3.613772
  0
VERTEX
  8
PLAN_1
 62
     2
  6
CONTINUOUS
 10
-1.217067
 20
3.613772
  0
VERTEX
  8
PLAN_1
 62
     2
  6
CONTINUOUS
 10
-1.216146
 20
3.613315
  0
VERTEX
  8
PLAN_1
 62
     2
  6
CONTINUOUS
 10
-1.215224
 20
3.613315
  0
VERTEX
  8
PLAN_1
 62
     2
  6
CONTINUOUS
 10
-1.212004
 20
3.613315
  0
VERTEX
  8
PLAN_1
 62
     2
  6
CONTINUOUS
 10
-1.212004
 20
3.606406
  0
VERTEX
  8
PLAN_1
 62
     2
  6
CONTINUOUS
 10
-1.213386
 20
3.606406
  0
VERTEX
  8
PLAN_1
 62
     2
  6
CONTINUOUS
 10
-1.214307
 20
3.605945
  0
VERTEX
  8
PLAN_1
 62
     2
  6
CONTINUOUS
 10
-1.215685
 20
3.605945
  0
VERTEX
  8
PLAN_1
 62
     2
  6
CONTINUOUS
 10
-1.216606
 20
3.605945
  0
VERTEX
  8
PLAN_1
 62
     2
  6
CONTINUOUS
 10
-1.217067
 20
3.605945
  0
VERTEX
  8
PLAN_1
 62
     2
  6
CONTINUOUS
 10
-1.217988
 20
3.605484
  0
VERTEX
  8
PLAN_1
 62
     2
  6
CONTINUOUS
 10
-1.218449
 20
3.605484
  0
VERTEX
  8
PLAN_1
 62
     2
  6
CONTINUOUS
 10
-1.218909
 20
3.605484
  0
VERTEX
  8
PLAN_1
 62
     2
  6
CONTINUOUS
 10
-1.222134
 20
3.605945
  0
VERTEX
  8
PLAN_1
 62
     2
  6
CONTINUOUS
 10
-1.224437
 20
3.606406
  0
VERTEX
  8
PLAN_1
 62
     2
  6
CONTINUOUS
 10
-1.226276
 20
3.607327
  0
VERTEX
  8
PLAN_1
 62
     2
  6
CONTINUOUS
 10
-1.228118
 20
3.609169
  0
VERTEX
  8
PLAN_1
 62
     2
  6
CONTINUOUS
 10
-1.229039
 20
3.610551
  0
VERTEX
  8
PLAN_1
 62
     2
  6
CONTINUOUS
 10
-1.229500
 20
3.612854
  0
VERTEX
  8
PLAN_1
 62
     2
  6
CONTINUOUS
 10
-1.229961
 20
3.614693
  0
VERTEX
  8
PLAN_1
 62
     2
  6
CONTINUOUS
 10
-1.229961
 20
3.617457
  0
VERTEX
  8
PLAN_1
 62
     2
  6
CONTINUOUS
 10
-1.229961
 20
3.652913
  0
VERTEX
  8
PLAN_1
 62
     2
  6
CONTINUOUS
 10
-1.237327
 20
3.652913
  0
VERTEX
  8
PLAN_1
 62
     2
  6
CONTINUOUS
 10
-1.237327
 20
3.660740
  0
VERTEX
  8
PLAN_1
 62
     2
  6
CONTINUOUS
 10
-1.229961
 20
3.660740
  0
VERTEX
  8
PLAN_1
 62
     2
  6
CONTINUOUS
 10
-1.229961
 20
3.675933
  0
VERTEX
  8
PLAN_1
 62
     2
  6
CONTINUOUS
 10
-1.220752
 20
3.675933
  0
VERTEX
  8
PLAN_1
 62
     2
  6
CONTINUOUS
 10
-1.220752
 20
3.660740
  0
VERTEX
  8
PLAN_1
 62
     2
  6
CONTINUOUS
 10
-1.212004
 20
3.660740
  0
VERTEX
  8
PLAN_1
 62
     2
  6
CONTINUOUS
 10
-1.212004
 20
3.652913
  0
VERTEX
  8
PLAN_1
 62
     2
  6
CONTINUOUS
 10
-1.220752
 20
3.652913
  0
SEQEND
  8
0
  0
POLYLINE
  8
PLAN_1
 62
     2
  6
CONTINUOUS
 66
     1
 40
0.003000
 41
0.003000
  0
VERTEX
  8
PLAN_1
 62
     2
  6
CONTINUOUS
 10
-1.192665
 20
3.606406
  0
VERTEX
  8
PLAN_1
 62
     2
  6
CONTINUOUS
 10
-1.201874
 20
3.606406
  0
VERTEX
  8
PLAN_1
 62
     2
  6
CONTINUOUS
 10
-1.201874
 20
3.660740
  0
VERTEX
  8
PLAN_1
 62
     2
  6
CONTINUOUS
 10
-1.193126
 20
3.660740
  0
VERTEX
  8
PLAN_1
 62
     2
  6
CONTINUOUS
 10
-1.193126
 20
3.651531
  0
VERTEX
  8
PLAN_1
 62
     2
  6
CONTINUOUS
 10
-1.191744
 20
3.653835
  0
VERTEX
  8
PLAN_1
 62
     2
  6
CONTINUOUS
 10
-1.189902
 20
3.656134
  0
VERTEX
  8
PLAN_1
 62
     2
  6
CONTINUOUS
 10
-1.188520
 20
3.657976
  0
VERTEX
  8
PLAN_1
 62
     2
  6
CONTINUOUS
 10
-1.186677
 20
3.659358
  0
VERTEX
  8
PLAN_1
 62
     2
  6
CONTINUOUS
 10
-1.184835
 20
3.660740
  0
VERTEX
  8
PLAN_1
 62
     2
  6
CONTINUOUS
 10
-1.182535
 20
3.661661
  0
VERTEX
  8
PLAN_1
 62
     2
  6
CONTINUOUS
 10
-1.180232
 20
3.662122
  0
VERTEX
  8
PLAN_1
 62
     2
  6
CONTINUOUS
 10
-1.177929
 20
3.662122
  0
VERTEX
  8
PLAN_1
 62
     2
  6
CONTINUOUS
 10
-1.177469
 20
3.662122
  0
VERTEX
  8
PLAN_1
 62
     2
  6
CONTINUOUS
 10
-1.177008
 20
3.662122
  0
VERTEX
  8
PLAN_1
 62
     2
  6
CONTINUOUS
 10
-1.176547
 20
3.662122
  0
VERTEX
  8
PLAN_1
 62
     2
  6
CONTINUOUS
 10
-1.176087
 20
3.662122
  0
VERTEX
  8
PLAN_1
 62
     2
  6
CONTINUOUS
 10
-1.175626
 20
3.662122
  0
VERTEX
  8
PLAN_1
 62
     2
  6
CONTINUOUS
 10
-1.175165
 20
3.662122
  0
VERTEX
  8
PLAN_1
 62
     2
  6
CONTINUOUS
 10
-1.175165
 20
3.652453
  0
VERTEX
  8
PLAN_1
 62
     2
  6
CONTINUOUS
 10
-1.178850
 20
3.652453
  0
VERTEX
  8
PLAN_1
 62
     2
  6
CONTINUOUS
 10
-1.182075
 20
3.651992
  0
VERTEX
  8
PLAN_1
 62
     2
  6
CONTINUOUS
 10
-1.184374
 20
3.651531
  0
VERTEX
  8
PLAN_1
 62
     2
  6
CONTINUOUS
 10
-1.187138
 20
3.650150
  0
VERTEX
  8
PLAN_1
 62
     2
  6
CONTINUOUS
 10
-1.188980
 20
3.648307
  0
VERTEX
  8
PLAN_1
 62
     2
  6
CONTINUOUS
 10
-1.190823
 20
3.646004
  0
VERTEX
  8
PLAN_1
 62
     2
  6
CONTINUOUS
 10
-1.191744
 20
3.643705
  0
VERTEX
  8
PLAN_1
 62
     2
  6
CONTINUOUS
 10
-1.192665
 20
3.640941
  0
VERTEX
  8
PLAN_1
 62
     2
  6
CONTINUOUS
 10
-1.192665
 20
3.637717
  0
VERTEX
  8
PLAN_1
 62
     2
  6
CONTINUOUS
 10
-1.192665
 20
3.606406
  0
SEQEND
  8
0
  0
POLYLINE
  8
PLAN_1
 62
     2
  6
CONTINUOUS
 66
     1
 40
0.003000
 41
0.003000
  0
VERTEX
  8
PLAN_1
 62
     2
  6
CONTINUOUS
 10
-1.146157
 20
3.662122
  0
VERTEX
  8
PLAN_1
 62
     2
  6
CONTINUOUS
 10
-1.143394
 20
3.662122
  0
VERTEX
  8
PLAN_1
 62
     2
  6
CONTINUOUS
 10
-1.140173
 20
3.661661
  0
VERTEX
  8
PLAN_1
 62
     2
  6
CONTINUOUS
 10
-1.137409
 20
3.660740
  0
VERTEX
  8
PLAN_1
 62
     2
  6
CONTINUOUS
 10
-1.135106
 20
3.659819
  0
VERTEX
  8
PLAN_1
 62
     2
  6
CONTINUOUS
 10
-1.132803
 20
3.658437
  0
VERTEX
  8
PLAN_1
 62
     2
  6
CONTINUOUS
 10
-1.130504
 20
3.657055
  0
VERTEX
  8
PLAN_1
 62
     2
  6
CONTINUOUS
 10
-1.128661
 20
3.655213
  0
VERTEX
  8
PLAN_1
 62
     2
  6
CONTINUOUS
 10
-1.127280
 20
3.653374
  0
VERTEX
  8
PLAN_1
 62
     2
  6
CONTINUOUS
 10
-1.124516
 20
3.648768
  0
VERTEX
  8
PLAN_1
 62
     2
  6
CONTINUOUS
 10
-1.122673
 20
3.644165
  0
VERTEX
  8
PLAN_1
 62
     2
  6
CONTINUOUS
 10
-1.121295
 20
3.638638
  0
VERTEX
  8
PLAN_1
 62
     2
  6
CONTINUOUS
 10
-1.121295
 20
3.633575
  0
VERTEX
  8
PLAN_1
 62
     2
  6
CONTINUOUS
 10
-1.121295
 20
3.628508
  0
VERTEX
  8
PLAN_1
 62
     2
  6
CONTINUOUS
 10
-1.122673
 20
3.622984
  0
VERTEX
  8
PLAN_1
 62
     2
  6
CONTINUOUS
 10
-1.123594
 20
3.620681
  0
VERTEX
  8
PLAN_1
 62
     2
  6
CONTINUOUS
 10
-1.124516
 20
3.618378
  0
VERTEX
  8
PLAN_1
 62
     2
  6
CONTINUOUS
 10
-1.125898
 20
3.616075
  0
VERTEX
  8
PLAN_1
 62
     2
  6
CONTINUOUS
 10
-1.127280
 20
3.613772
  0
VERTEX
  8
PLAN_1
 62
     2
  6
CONTINUOUS
 10
-1.128661
 20
3.611933
  0
VERTEX
  8
PLAN_1
 62
     2
  6
CONTINUOUS
 10
-1.130504
 20
3.610091
  0
VERTEX
  8
PLAN_1
 62
     2
  6
CONTINUOUS
 10
-1.132803
 20
3.608709
  0
VERTEX
  8
PLAN_1
 62
     2
  6
CONTINUOUS
 10
-1.135106
 20
3.607327
  0
VERTEX
  8
PLAN_1
 62
     2
  6
CONTINUOUS
 10
-1.137409
 20
3.606406
  0
VERTEX
  8
PLAN_1
 62
     2
  6
CONTINUOUS
 10
-1.140173
 20
3.605484
  0
VERTEX
  8
PLAN_1
 62
     2
  6
CONTINUOUS
 10
-1.143394
 20
3.605024
  0
VERTEX
  8
PLAN_1
 62
     2
  6
CONTINUOUS
 10
-1.146157
 20
3.605024
  0
VERTEX
  8
PLAN_1
 62
     2
  6
CONTINUOUS
 10
-1.149382
 20
3.605024
  0
VERTEX
  8
PLAN_1
 62
     2
  6
CONTINUOUS
 10
-1.152602
 20
3.605484
  0
VERTEX
  8
PLAN_1
 62
     2
  6
CONTINUOUS
 10
-1.155366
 20
3.606406
  0
VERTEX
  8
PLAN_1
 62
     2
  6
CONTINUOUS
 10
-1.157669
 20
3.607327
  0
VERTEX
  8
PLAN_1
 62
     2
  6
CONTINUOUS
 10
-1.159972
 20
3.608709
  0
VERTEX
  8
PLAN_1
 62
     2
  6
CONTINUOUS
 10
-1.161815
 20
3.610091
  0
VERTEX
  8
PLAN_1
 62
     2
  6
CONTINUOUS
 10
-1.163654
 20
3.611933
  0
VERTEX
  8
PLAN_1
 62
     2
  6
CONTINUOUS
 10
-1.165496
 20
3.613772
  0
VERTEX
  8
PLAN_1
 62
     2
  6
CONTINUOUS
 10
-1.166878
 20
3.616075
  0
VERTEX
  8
PLAN_1
 62
     2
  6
CONTINUOUS
 10
-1.168260
 20
3.618378
  0
VERTEX
  8
PLAN_1
 62
     2
  6
CONTINUOUS
 10
-1.169181
 20
3.620681
  0
VERTEX
  8
PLAN_1
 62
     2
  6
CONTINUOUS
 10
-1.170102
 20
3.622984
  0
VERTEX
  8
PLAN_1
 62
     2
  6
CONTINUOUS
 10
-1.171484
 20
3.628508
  0
VERTEX
  8
PLAN_1
 62
     2
  6
CONTINUOUS
 10
-1.171484
 20
3.633575
  0
VERTEX
  8
PLAN_1
 62
     2
  6
CONTINUOUS
 10
-1.171484
 20
3.638638
  0
VERTEX
  8
PLAN_1
 62
     2
  6
CONTINUOUS
 10
-1.170102
 20
3.644165
  0
VERTEX
  8
PLAN_1
 62
     2
  6
CONTINUOUS
 10
-1.169181
 20
3.646465
  0
VERTEX
  8
PLAN_1
 62
     2
  6
CONTINUOUS
 10
-1.168260
 20
3.648768
  0
VERTEX
  8
PLAN_1
 62
     2
  6
CONTINUOUS
 10
-1.166878
 20
3.651071
  0
VERTEX
  8
PLAN_1
 62
     2
  6
CONTINUOUS
 10
-1.165496
 20
3.653374
  0
VERTEX
  8
PLAN_1
 62
     2
  6
CONTINUOUS
 10
-1.163654
 20
3.655213
  0
VERTEX
  8
PLAN_1
 62
     2
  6
CONTINUOUS
 10
-1.161815
 20
3.657055
  0
VERTEX
  8
PLAN_1
 62
     2
  6
CONTINUOUS
 10
-1.159972
 20
3.658437
  0
VERTEX
  8
PLAN_1
 62
     2
  6
CONTINUOUS
 10
-1.157669
 20
3.659819
  0
VERTEX
  8
PLAN_1
 62
     2
  6
CONTINUOUS
 10
-1.155366
 20
3.660740
  0
VERTEX
  8
PLAN_1
 62
     2
  6
CONTINUOUS
 10
-1.152602
 20
3.661661
  0
VERTEX
  8
PLAN_1
 62
     2
  6
CONTINUOUS
 10
-1.149382
 20
3.662122
  0
VERTEX
  8
PLAN_1
 62
     2
  6
CONTINUOUS
 10
-1.146157
 20
3.662122
  0
SEQEND
  8
0
  0
POLYLINE
  8
PLAN_1
 62
     2
  6
CONTINUOUS
 66
     1
 40
0.003000
 41
0.003000
  0
VERTEX
  8
PLAN_1
 62
     2
  6
CONTINUOUS
 10
-1.146157
 20
3.612854
  0
VERTEX
  8
PLAN_1
 62
     2
  6
CONTINUOUS
 10
-1.143854
 20
3.612854
  0
VERTEX
  8
PLAN_1
 62
     2
  6
CONTINUOUS
 10
-1.142012
 20
3.613315
  0
VERTEX
  8
PLAN_1
 62
     2
  6
CONTINUOUS
 10
-1.140173
 20
3.614232
  0
VERTEX
  8
PLAN_1
 62
     2
  6
CONTINUOUS
 10
-1.138331
 20
3.615154
  0
VERTEX
  8
PLAN_1
 62
     2
  6
CONTINUOUS
 10
-1.135567
 20
3.617457
  0
VERTEX
  8
PLAN_1
 62
     2
  6
CONTINUOUS
 10
-1.133724
 20
3.620220
  0
VERTEX
  8
PLAN_1
 62
     2
  6
CONTINUOUS
 10
-1.131882
 20
3.623906
  0
VERTEX
  8
PLAN_1
 62
     2
  6
CONTINUOUS
 10
-1.130965
 20
3.627126
  0
VERTEX
  8
PLAN_1
 62
     2
  6
CONTINUOUS
 10
-1.130504
 20
3.630350
  0
VERTEX
  8
PLAN_1
 62
     2
  6
CONTINUOUS
 10
-1.130504
 20
3.633575
  0
VERTEX
  8
PLAN_1
 62
     2
  6
CONTINUOUS
 10
-1.130504
 20
3.636335
  0
VERTEX
  8
PLAN_1
 62
     2
  6
CONTINUOUS
 10
-1.130965
 20
3.640020
  0
VERTEX
  8
PLAN_1
 62
     2
  6
CONTINUOUS
 10
-1.131882
 20
3.643244
  0
VERTEX
  8
PLAN_1
 62
     2
  6
CONTINUOUS
 10
-1.133724
 20
3.646465
  0
VERTEX
  8
PLAN_1
 62
     2
  6
CONTINUOUS
 10
-1.135567
 20
3.649689
  0
VERTEX
  8
PLAN_1
 62
     2
  6
CONTINUOUS
 10
-1.138331
 20
3.651992
  0
VERTEX
  8
PLAN_1
 62
     2
  6
CONTINUOUS
 10
-1.140173
 20
3.652913
  0
VERTEX
  8
PLAN_1
 62
     2
  6
CONTINUOUS
 10
-1.142012
 20
3.653835
  0
VERTEX
  8
PLAN_1
 62
     2
  6
CONTINUOUS
 10
-1.143854
 20
3.654295
  0
VERTEX
  8
PLAN_1
 62
     2
  6
CONTINUOUS
 10
-1.146157
 20
3.654295
  0
VERTEX
  8
PLAN_1
 62
     2
  6
CONTINUOUS
 10
-1.148461
 20
3.654295
  0
VERTEX
  8
PLAN_1
 62
     2
  6
CONTINUOUS
 10
-1.150764
 20
3.653835
  0
VERTEX
  8
PLAN_1
 62
     2
  6
CONTINUOUS
 10
-1.152602
 20
3.652913
  0
VERTEX
  8
PLAN_1
 62
     2
  6
CONTINUOUS
 10
-1.154445
 20
3.651992
  0
VERTEX
  8
PLAN_1
 62
     2
  6
CONTINUOUS
 10
-1.157209
 20
3.649689
  0
VERTEX
  8
PLAN_1
 62
     2
  6
CONTINUOUS
 10
-1.159051
 20
3.646465
  0
VERTEX
  8
PLAN_1
 62
     2
  6
CONTINUOUS
 10
-1.160433
 20
3.643244
  0
VERTEX
  8
PLAN_1
 62
     2
  6
CONTINUOUS
 10
-1.161354
 20
3.640020
  0
VERTEX
  8
PLAN_1
 62
     2
  6
CONTINUOUS
 10
-1.161815
 20
3.636335
  0
VERTEX
  8
PLAN_1
 62
     2
  6
CONTINUOUS
 10
-1.162276
 20
3.633575
  0
VERTEX
  8
PLAN_1
 62
     2
  6
CONTINUOUS
 10
-1.161815
 20
3.630350
  0
VERTEX
  8
PLAN_1
 62
     2
  6
CONTINUOUS
 10
-1.161354
 20
3.627126
  0
VERTEX
  8
PLAN_1
 62
     2
  6
CONTINUOUS
 10
-1.160433
 20
3.623906
  0
VERTEX
  8
PLAN_1
 62
     2
  6
CONTINUOUS
 10
-1.159051
 20
3.620220
  0
VERTEX
  8
PLAN_1
 62
     2
  6
CONTINUOUS
 10
-1.157209
 20
3.617457
  0
VERTEX
  8
PLAN_1
 62
     2
  6
CONTINUOUS
 10
-1.154445
 20
3.615154
  0
VERTEX
  8
PLAN_1
 62
     2
  6
CONTINUOUS
 10
-1.152602
 20
3.614232
  0
VERTEX
  8
PLAN_1
 62
     2
  6
CONTINUOUS
 10
-1.150764
 20
3.613315
  0
VERTEX
  8
PLAN_1
 62
     2
  6
CONTINUOUS
 10
-1.148461
 20
3.612854
  0
VERTEX
  8
PLAN_1
 62
     2
  6
CONTINUOUS
 10
-1.146157
 20
3.612854
  0
SEQEND
  8
0
  0
POLYLINE
  8
PLAN_1
 62
     2
  6
CONTINUOUS
 66
     1
 40
0.003000
 41
0.003000
  0
VERTEX
  8
PLAN_1
 62
     2
  6
CONTINUOUS
 10
-1.075248
 20
3.606406
  0
VERTEX
  8
PLAN_1
 62
     2
  6
CONTINUOUS
 10
-1.075248
 20
3.614232
  0
VERTEX
  8
PLAN_1
 62
     2
  6
CONTINUOUS
 10
-1.076630
 20
3.612394
  0
VERTEX
  8
PLAN_1
 62
     2
  6
CONTINUOUS
 10
-1.078472
 20
3.610091
  0
VERTEX
  8
PLAN_1
 62
     2
  6
CONTINUOUS
 10
-1.080311
 20
3.608709
  0
VERTEX
  8
PLAN_1
 62
     2
  6
CONTINUOUS
 10
-1.082154
 20
3.607327
  0
VERTEX
  8
PLAN_1
 62
     2
  6
CONTINUOUS
 10
-1.084457
 20
3.605945
  0
VERTEX
  8
PLAN_1
 62
     2
  6
CONTINUOUS
 10
-1.086760
 20
3.605484
  0
VERTEX
  8
PLAN_1
 62
     2
  6
CONTINUOUS
 10
-1.089524
 20
3.605024
  0
VERTEX
  8
PLAN_1
 62
     2
  6
CONTINUOUS
 10
-1.092744
 20
3.604563
  0
VERTEX
  8
PLAN_1
 62
     2
  6
CONTINUOUS
 10
-1.095508
 20
3.605024
  0
VERTEX
  8
PLAN_1
 62
     2
  6
CONTINUOUS
 10
-1.098732
 20
3.605484
  0
VERTEX
  8
PLAN_1
 62
     2
  6
CONTINUOUS
 10
-1.101953
 20
3.606866
  0
VERTEX
  8
PLAN_1
 62
     2
  6
CONTINUOUS
 10
-1.104256
 20
3.608248
  0
VERTEX
  8
PLAN_1
 62
     2
  6
CONTINUOUS
 10
-1.107020
 20
3.610551
  0
VERTEX
  8
PLAN_1
 62
     2
  6
CONTINUOUS
 10
-1.108862
 20
3.613315
  0
VERTEX
  8
PLAN_1
 62
     2
  6
CONTINUOUS
 10
-1.109783
 20
3.616996
  0
VERTEX
  8
PLAN_1
 62
     2
  6
CONTINUOUS
 10
-1.110244
 20
3.621602
  0
VERTEX
  8
PLAN_1
 62
     2
  6
CONTINUOUS
 10
-1.110244
 20
3.660740
  0
VERTEX
  8
PLAN_1
 62
     2
  6
CONTINUOUS
 10
-1.101031
 20
3.660740
  0
VERTEX
  8
PLAN_1
 62
     2
  6
CONTINUOUS
 10
-1.101031
 20
3.624823
  0
VERTEX
  8
PLAN_1
 62
     2
  6
CONTINUOUS
 10
-1.101031
 20
3.621602
  0
VERTEX
  8
PLAN_1
 62
     2
  6
CONTINUOUS
 10
-1.100575
 20
3.618839
  0
VERTEX
  8
PLAN_1
 62
     2
  6
CONTINUOUS
 10
-1.099193
 20
3.616996
  0
VERTEX
  8
PLAN_1
 62
     2
  6
CONTINUOUS
 10
-1.098272
 20
3.615154
  0
VERTEX
  8
PLAN_1
 62
     2
  6
CONTINUOUS
 10
-1.096429
 20
3.614232
  0
VERTEX
  8
PLAN_1
 62
     2
  6
CONTINUOUS
 10
-1.094587
 20
3.613315
  0
VERTEX
  8
PLAN_1
 62
     2
  6
CONTINUOUS
 10
-1.092744
 20
3.612854
  0
VERTEX
  8
PLAN_1
 62
     2
  6
CONTINUOUS
 10
-1.090441
 20
3.612854
  0
VERTEX
  8
PLAN_1
 62
     2
  6
CONTINUOUS
 10
-1.088602
 20
3.612854
  0
VERTEX
  8
PLAN_1
 62
     2
  6
CONTINUOUS
 10
-1.086760
 20
3.613315
  0
VERTEX
  8
PLAN_1
 62
     2
  6
CONTINUOUS
 10
-1.084917
 20
3.613772
  0
VERTEX
  8
PLAN_1
 62
     2
  6
CONTINUOUS
 10
-1.083535
 20
3.614232
  0
VERTEX
  8
PLAN_1
 62
     2
  6
CONTINUOUS
 10
-1.080772
 20
3.616075
  0
VERTEX
  8
PLAN_1
 62
     2
  6
CONTINUOUS
 10
-1.078933
 20
3.618839
  0
VERTEX
  8
PLAN_1
 62
     2
  6
CONTINUOUS
 10
-1.077551
 20
3.621602
  0
VERTEX
  8
PLAN_1
 62
     2
  6
CONTINUOUS
 10
-1.076169
 20
3.624362
  0
VERTEX
  8
PLAN_1
 62
     2
  6
CONTINUOUS
 10
-1.075709
 20
3.627587
  0
VERTEX
  8
PLAN_1
 62
     2
  6
CONTINUOUS
 10
-1.075709
 20
3.630811
  0
VERTEX
  8
PLAN_1
 62
     2
  6
CONTINUOUS
 10
-1.075709
 20
3.660740
  0
VERTEX
  8
PLAN_1
 62
     2
  6
CONTINUOUS
 10
-1.066500
 20
3.660740
  0
VERTEX
  8
PLAN_1
 62
     2
  6
CONTINUOUS
 10
-1.066500
 20
3.606406
  0
VERTEX
  8
PLAN_1
 62
     2
  6
CONTINUOUS
 10
-1.075248
 20
3.606406
  0
SEQEND
  8
0
  0
POLYLINE
  8
PLAN_1
 62
     2
  6
CONTINUOUS
 66
     1
 40
0.003000
 41
0.003000
  0
VERTEX
  8
PLAN_1
 62
     2
  6
CONTINUOUS
 10
-1.021835
 20
3.645083
  0
VERTEX
  8
PLAN_1
 62
     2
  6
CONTINUOUS
 10
-1.021835
 20
3.646465
  0
VERTEX
  8
PLAN_1
 62
     2
  6
CONTINUOUS
 10
-1.022295
 20
3.648307
  0
VERTEX
  8
PLAN_1
 62
     2
  6
CONTINUOUS
 10
-1.022756
 20
3.649689
  0
VERTEX
  8
PLAN_1
 62
     2
  6
CONTINUOUS
 10
-1.024138
 20
3.651071
  0
VERTEX
  8
PLAN_1
 62
     2
  6
CONTINUOUS
 10
-1.025520
 20
3.652453
  0
VERTEX
  8
PLAN_1
 62
     2
  6
CONTINUOUS
 10
-1.027823
 20
3.653374
  0
VERTEX
  8
PLAN_1
 62
     2
  6
CONTINUOUS
 10
-1.031043
 20
3.654295
  0
VERTEX
  8
PLAN_1
 62
     2
  6
CONTINUOUS
 10
-1.034728
 20
3.654295
  0
VERTEX
  8
PLAN_1
 62
     2
  6
CONTINUOUS
 10
-1.036110
 20
3.654295
  0
VERTEX
  8
PLAN_1
 62
     2
  6
CONTINUOUS
 10
-1.037492
 20
3.654295
  0
VERTEX
  8
PLAN_1
 62
     2
  6
CONTINUOUS
 10
-1.039331
 20
3.653835
  0
VERTEX
  8
PLAN_1
 62
     2
  6
CONTINUOUS
 10
-1.041173
 20
3.652913
  0
VERTEX
  8
PLAN_1
 62
     2
  6
CONTINUOUS
 10
-1.043016
 20
3.651992
  0
VERTEX
  8
PLAN_1
 62
     2
  6
CONTINUOUS
 10
-1.044398
 20
3.650610
  0
VERTEX
  8
PLAN_1
 62
     2
  6
CONTINUOUS
 10
-1.045319
 20
3.648768
  0
VERTEX
  8
PLAN_1
 62
     2
  6
CONTINUOUS
 10
-1.045780
 20
3.646465
  0
VERTEX
  8
PLAN_1
 62
     2
  6
CONTINUOUS
 10
-1.045319
 20
3.645083
  0
VERTEX
  8
PLAN_1
 62
     2
  6
CONTINUOUS
 10
-1.044858
 20
3.643705
  0
VERTEX
  8
PLAN_1
 62
     2
  6
CONTINUOUS
 10
-1.044398
 20
3.642783
  0
VERTEX
  8
PLAN_1
 62
     2
  6
CONTINUOUS
 10
-1.043476
 20
3.641862
  0
VERTEX
  8
PLAN_1
 62
     2
  6
CONTINUOUS
 10
-1.042094
 20
3.641402
  0
VERTEX
  8
PLAN_1
 62
     2
  6
CONTINUOUS
 10
-1.040252
 20
3.640480
  0
VERTEX
  8
PLAN_1
 62
     2
  6
CONTINUOUS
 10
-1.037953
 20
3.640020
  0
VERTEX
  8
PLAN_1
 62
     2
  6
CONTINUOUS
 10
-1.035650
 20
3.639559
  0
VERTEX
  8
PLAN_1
 62
     2
  6
CONTINUOUS
 10
-1.026441
 20
3.637256
  0
VERTEX
  8
PLAN_1
 62
     2
  6
CONTINUOUS
 10
-1.022756
 20
3.635874
  0
VERTEX
  8
PLAN_1
 62
     2
  6
CONTINUOUS
 10
-1.019531
 20
3.634492
  0
VERTEX
  8
PLAN_1
 62
     2
  6
CONTINUOUS
 10
-1.016772
 20
3.633114
  0
VERTEX
  8
PLAN_1
 62
     2
  6
CONTINUOUS
 10
-1.014469
 20
3.631732
  0
VERTEX
  8
PLAN_1
 62
     2
  6
CONTINUOUS
 10
-1.013087
 20
3.629890
  0
VERTEX
  8
PLAN_1
 62
     2
  6
CONTINUOUS
 10
-1.012165
 20
3.627587
  0
VERTEX
  8
PLAN_1
 62
     2
  6
CONTINUOUS
 10
-1.011244
 20
3.625283
  0
VERTEX
  8
PLAN_1
 62
     2
  6
CONTINUOUS
 10
-1.011244
 20
3.622524
  0
VERTEX
  8
PLAN_1
 62
     2
  6
CONTINUOUS
 10
-1.011705
 20
3.618839
  0
VERTEX
  8
PLAN_1
 62
     2
  6
CONTINUOUS
 10
-1.013087
 20
3.615154
  0
VERTEX
  8
PLAN_1
 62
     2
  6
CONTINUOUS
 10
-1.014929
 20
3.611933
  0
VERTEX
  8
PLAN_1
 62
     2
  6
CONTINUOUS
 10
-1.017232
 20
3.609630
  0
VERTEX
  8
PLAN_1
 62
     2
  6
CONTINUOUS
 10
-1.020453
 20
3.607327
  0
VERTEX
  8
PLAN_1
 62
     2
  6
CONTINUOUS
 10
-1.024138
 20
3.605945
  0
VERTEX
  8
PLAN_1
 62
     2
  6
CONTINUOUS
 10
-1.028280
 20
3.605024
  0
VERTEX
  8
PLAN_1
 62
     2
  6
CONTINUOUS
 10
-1.032886
 20
3.604563
  0
VERTEX
  8
PLAN_1
 62
     2
  6
CONTINUOUS
 10
-1.036571
 20
3.605024
  0
VERTEX
  8
PLAN_1
 62
     2
  6
CONTINUOUS
 10
-1.039791
 20
3.605484
  0
VERTEX
  8
PLAN_1
 62
     2
  6
CONTINUOUS
 10
-1.043016
 20
3.605945
  0
VERTEX
  8
PLAN_1
 62
     2
  6
CONTINUOUS
 10
-1.045319
 20
3.606866
  0
VERTEX
  8
PLAN_1
 62
     2
  6
CONTINUOUS
 10
-1.047622
 20
3.607787
  0
VERTEX
  8
PLAN_1
 62
     2
  6
CONTINUOUS
 10
-1.049461
 20
3.609169
  0
VERTEX
  8
PLAN_1
 62
     2
  6
CONTINUOUS
 10
-1.051303
 20
3.610551
  0
VERTEX
  8
PLAN_1
 62
     2
  6
CONTINUOUS
 10
-1.052224
 20
3.611933
  0
VERTEX
  8
PLAN_1
 62
     2
  6
CONTINUOUS
 10
-1.054528
 20
3.614693
  0
VERTEX
  8
PLAN_1
 62
     2
  6
CONTINUOUS
 10
-1.055449
 20
3.617917
  0
VERTEX
  8
PLAN_1
 62
     2
  6
CONTINUOUS
 10
-1.055909
 20
3.621142
  0
VERTEX
  8
PLAN_1
 62
     2
  6
CONTINUOUS
 10
-1.056370
 20
3.623906
  0
VERTEX
  8
PLAN_1
 62
     2
  6
CONTINUOUS
 10
-1.047161
 20
3.623906
  0
VERTEX
  8
PLAN_1
 62
     2
  6
CONTINUOUS
 10
-1.047161
 20
3.622063
  0
VERTEX
  8
PLAN_1
 62
     2
  6
CONTINUOUS
 10
-1.046701
 20
3.620220
  0
VERTEX
  8
PLAN_1
 62
     2
  6
CONTINUOUS
 10
-1.046240
 20
3.618378
  0
VERTEX
  8
PLAN_1
 62
     2
  6
CONTINUOUS
 10
-1.044858
 20
3.616535
  0
VERTEX
  8
PLAN_1
 62
     2
  6
CONTINUOUS
 10
-1.043016
 20
3.615154
  0
VERTEX
  8
PLAN_1
 62
     2
  6
CONTINUOUS
 10
-1.040713
 20
3.613772
  0
VERTEX
  8
PLAN_1
 62
     2
  6
CONTINUOUS
 10
-1.037031
 20
3.612854
  0
VERTEX
  8
PLAN_1
 62
     2
  6
CONTINUOUS
 10
-1.032886
 20
3.612854
  0
VERTEX
  8
PLAN_1
 62
     2
  6
CONTINUOUS
 10
-1.030583
 20
3.612854
  0
VERTEX
  8
PLAN_1
 62
     2
  6
CONTINUOUS
 10
-1.028280
 20
3.613315
  0
VERTEX
  8
PLAN_1
 62
     2
  6
CONTINUOUS
 10
-1.025980
 20
3.613772
  0
VERTEX
  8
PLAN_1
 62
     2
  6
CONTINUOUS
 10
-1.024138
 20
3.614693
  0
VERTEX
  8
PLAN_1
 62
     2
  6
CONTINUOUS
 10
-1.022756
 20
3.616075
  0
VERTEX
  8
PLAN_1
 62
     2
  6
CONTINUOUS
 10
-1.021374
 20
3.617457
  0
VERTEX
  8
PLAN_1
 62
     2
  6
CONTINUOUS
 10
-1.020453
 20
3.619299
  0
VERTEX
  8
PLAN_1
 62
     2
  6
CONTINUOUS
 10
-1.020453
 20
3.621142
  0
VERTEX
  8
PLAN_1
 62
     2
  6
CONTINUOUS
 10
-1.020453
 20
3.622984
  0
VERTEX
  8
PLAN_1
 62
     2
  6
CONTINUOUS
 10
-1.020913
 20
3.623906
  0
VERTEX
  8
PLAN_1
 62
     2
  6
CONTINUOUS
 10
-1.021835
 20
3.625283
  0
VERTEX
  8
PLAN_1
 62
     2
  6
CONTINUOUS
 10
-1.022756
 20
3.626205
  0
VERTEX
  8
PLAN_1
 62
     2
  6
CONTINUOUS
 10
-1.024138
 20
3.627126
  0
VERTEX
  8
PLAN_1
 62
     2
  6
CONTINUOUS
 10
-1.026441
 20
3.627587
  0
VERTEX
  8
PLAN_1
 62
     2
  6
CONTINUOUS
 10
-1.028280
 20
3.628508
  0
VERTEX
  8
PLAN_1
 62
     2
  6
CONTINUOUS
 10
-1.031043
 20
3.628969
  0
VERTEX
  8
PLAN_1
 62
     2
  6
CONTINUOUS
 10
-1.041634
 20
3.631732
  0
VERTEX
  8
PLAN_1
 62
     2
  6
CONTINUOUS
 10
-1.044398
 20
3.632654
  0
VERTEX
  8
PLAN_1
 62
     2
  6
CONTINUOUS
 10
-1.047161
 20
3.633575
  0
VERTEX
  8
PLAN_1
 62
     2
  6
CONTINUOUS
 10
-1.049000
 20
3.634492
  0
VERTEX
  8
PLAN_1
 62
     2
  6
CONTINUOUS
 10
-1.050843
 20
3.636335
  0
VERTEX
  8
PLAN_1
 62
     2
  6
CONTINUOUS
 10
-1.052224
 20
3.637717
  0
VERTEX
  8
PLAN_1
 62
     2
  6
CONTINUOUS
 10
-1.053606
 20
3.640020
  0
VERTEX
  8
PLAN_1
 62
     2
  6
CONTINUOUS
 10
-1.054067
 20
3.642323
  0
VERTEX
  8
PLAN_1
 62
     2
  6
CONTINUOUS
 10
-1.054528
 20
3.645083
  0
VERTEX
  8
PLAN_1
 62
     2
  6
CONTINUOUS
 10
-1.054067
 20
3.646925
  0
VERTEX
  8
PLAN_1
 62
     2
  6
CONTINUOUS
 10
-1.054067
 20
3.649228
  0
VERTEX
  8
PLAN_1
 62
     2
  6
CONTINUOUS
 10
-1.053606
 20
3.651071
  0
VERTEX
  8
PLAN_1
 62
     2
  6
CONTINUOUS
 10
-1.052685
 20
3.652453
  0
VERTEX
  8
PLAN_1
 62
     2
  6
CONTINUOUS
 10
-1.050843
 20
3.655673
  0
VERTEX
  8
PLAN_1
 62
     2
  6
CONTINUOUS
 10
-1.048083
 20
3.657976
  0
VERTEX
  8
PLAN_1
 62
     2
  6
CONTINUOUS
 10
-1.044858
 20
3.659819
  0
VERTEX
  8
PLAN_1
 62
     2
  6
CONTINUOUS
 10
-1.041634
 20
3.661201
  0
VERTEX
  8
PLAN_1
 62
     2
  6
CONTINUOUS
 10
-1.037953
 20
3.662122
  0
VERTEX
  8
PLAN_1
 62
     2
  6
CONTINUOUS
 10
-1.033807
 20
3.662122
  0
VERTEX
  8
PLAN_1
 62
     2
  6
CONTINUOUS
 10
-1.030583
 20
3.662122
  0
VERTEX
  8
PLAN_1
 62
     2
  6
CONTINUOUS
 10
-1.027362
 20
3.661661
  0
VERTEX
  8
PLAN_1
 62
     2
  6
CONTINUOUS
 10
-1.024598
 20
3.660740
  0
VERTEX
  8
PLAN_1
 62
     2
  6
CONTINUOUS
 10
-1.022295
 20
3.659819
  0
VERTEX
  8
PLAN_1
 62
     2
  6
CONTINUOUS
 10
-1.020453
 20
3.658898
  0
VERTEX
  8
PLAN_1
 62
     2
  6
CONTINUOUS
 10
-1.018610
 20
3.657516
  0
VERTEX
  8
PLAN_1
 62
     2
  6
CONTINUOUS
 10
-1.017232
 20
3.656134
  0
VERTEX
  8
PLAN_1
 62
     2
  6
CONTINUOUS
 10
-1.016311
 20
3.654756
  0
VERTEX
  8
PLAN_1
 62
     2
  6
CONTINUOUS
 10
-1.014469
 20
3.651992
  0
VERTEX
  8
PLAN_1
 62
     2
  6
CONTINUOUS
 10
-1.013547
 20
3.649228
  0
VERTEX
  8
PLAN_1
 62
     2
  6
CONTINUOUS
 10
-1.013087
 20
3.646925
  0
VERTEX
  8
PLAN_1
 62
     2
  6
CONTINUOUS
 10
-1.013087
 20
3.645083
  0
VERTEX
  8
PLAN_1
 62
     2
  6
CONTINUOUS
 10
-1.021835
 20
3.645083
  0
SEQEND
  8
0
  0
POLYLINE
  8
PLAN_1
 62
     2
  6
CONTINUOUS
 66
     1
 40
0.003000
 41
0.003000
  0
VERTEX
  8
PLAN_1
 62
     2
  6
CONTINUOUS
 10
-0.949543
 20
3.662122
  0
VERTEX
  8
PLAN_1
 62
     2
  6
CONTINUOUS
 10
-0.946319
 20
3.662122
  0
VERTEX
  8
PLAN_1
 62
     2
  6
CONTINUOUS
 10
-0.943559
 20
3.661661
  0
VERTEX
  8
PLAN_1
 62
     2
  6
CONTINUOUS
 10
-0.940795
 20
3.660740
  0
VERTEX
  8
PLAN_1
 62
     2
  6
CONTINUOUS
 10
-0.938492
 20
3.659819
  0
VERTEX
  8
PLAN_1
 62
     2
  6
CONTINUOUS
 10
-0.936189
 20
3.658437
  0
VERTEX
  8
PLAN_1
 62
     2
  6
CONTINUOUS
 10
-0.933890
 20
3.657055
  0
VERTEX
  8
PLAN_1
 62
     2
  6
CONTINUOUS
 10
-0.932047
 20
3.655213
  0
VERTEX
  8
PLAN_1
 62
     2
  6
CONTINUOUS
 10
-0.930205
 20
3.653374
  0
VERTEX
  8
PLAN_1
 62
     2
  6
CONTINUOUS
 10
-0.927902
 20
3.648768
  0
VERTEX
  8
PLAN_1
 62
     2
  6
CONTINUOUS
 10
-0.925598
 20
3.644165
  0
VERTEX
  8
PLAN_1
 62
     2
  6
CONTINUOUS
 10
-0.924681
 20
3.638638
  0
VERTEX
  8
PLAN_1
 62
     2
  6
CONTINUOUS
 10
-0.924220
 20
3.633575
  0
VERTEX
  8
PLAN_1
 62
     2
  6
CONTINUOUS
 10
-0.924681
 20
3.628508
  0
VERTEX
  8
PLAN_1
 62
     2
  6
CONTINUOUS
 10
-0.925598
 20
3.622984
  0
VERTEX
  8
PLAN_1
 62
     2
  6
CONTINUOUS
 10
-0.926520
 20
3.620681
  0
VERTEX
  8
PLAN_1
 62
     2
  6
CONTINUOUS
 10
-0.927902
 20
3.618378
  0
VERTEX
  8
PLAN_1
 62
     2
  6
CONTINUOUS
 10
-0.928823
 20
3.616075
  0
VERTEX
  8
PLAN_1
 62
     2
  6
CONTINUOUS
 10
-0.930205
 20
3.613772
  0
VERTEX
  8
PLAN_1
 62
     2
  6
CONTINUOUS
 10
-0.932047
 20
3.611933
  0
VERTEX
  8
PLAN_1
 62
     2
  6
CONTINUOUS
 10
-0.933890
 20
3.610091
  0
VERTEX
  8
PLAN_1
 62
     2
  6
CONTINUOUS
 10
-0.936189
 20
3.608709
  0
VERTEX
  8
PLAN_1
 62
     2
  6
CONTINUOUS
 10
-0.938492
 20
3.607327
  0
VERTEX
  8
PLAN_1
 62
     2
  6
CONTINUOUS
 10
-0.940795
 20
3.606406
  0
VERTEX
  8
PLAN_1
 62
     2
  6
CONTINUOUS
 10
-0.943559
 20
3.605484
  0
VERTEX
  8
PLAN_1
 62
     2
  6
CONTINUOUS
 10
-0.946319
 20
3.605024
  0
VERTEX
  8
PLAN_1
 62
     2
  6
CONTINUOUS
 10
-0.949543
 20
3.605024
  0
VERTEX
  8
PLAN_1
 62
     2
  6
CONTINUOUS
 10
-0.952768
 20
3.605024
  0
VERTEX
  8
PLAN_1
 62
     2
  6
CONTINUOUS
 10
-0.955531
 20
3.605484
  0
VERTEX
  8
PLAN_1
 62
     2
  6
CONTINUOUS
 10
-0.958291
 20
3.606406
  0
VERTEX
  8
PLAN_1
 62
     2
  6
CONTINUOUS
 10
-0.961055
 20
3.607327
  0
VERTEX
  8
PLAN_1
 62
     2
  6
CONTINUOUS
 10
-0.963358
 20
3.608709
  0
VERTEX
  8
PLAN_1
 62
     2
  6
CONTINUOUS
 10
-0.965201
 20
3.610091
  0
VERTEX
  8
PLAN_1
 62
     2
  6
CONTINUOUS
 10
-0.967039
 20
3.611933
  0
VERTEX
  8
PLAN_1
 62
     2
  6
CONTINUOUS
 10
-0.968882
 20
3.613772
  0
VERTEX
  8
PLAN_1
 62
     2
  6
CONTINUOUS
 10
-0.970264
 20
3.616075
  0
VERTEX
  8
PLAN_1
 62
     2
  6
CONTINUOUS
 10
-0.971646
 20
3.618378
  0
VERTEX
  8
PLAN_1
 62
     2
  6
CONTINUOUS
 10
-0.972567
 20
3.620681
  0
VERTEX
  8
PLAN_1
 62
     2
  6
CONTINUOUS
 10
-0.973488
 20
3.622984
  0
VERTEX
  8
PLAN_1
 62
     2
  6
CONTINUOUS
 10
-0.974409
 20
3.628508
  0
VERTEX
  8
PLAN_1
 62
     2
  6
CONTINUOUS
 10
-0.974870
 20
3.633575
  0
VERTEX
  8
PLAN_1
 62
     2
  6
CONTINUOUS
 10
-0.974409
 20
3.638638
  0
VERTEX
  8
PLAN_1
 62
     2
  6
CONTINUOUS
 10
-0.973488
 20
3.644165
  0
VERTEX
  8
PLAN_1
 62
     2
  6
CONTINUOUS
 10
-0.972567
 20
3.646465
  0
VERTEX
  8
PLAN_1
 62
     2
  6
CONTINUOUS
 10
-0.971646
 20
3.648768
  0
VERTEX
  8
PLAN_1
 62
     2
  6
CONTINUOUS
 10
-0.970264
 20
3.651071
  0
VERTEX
  8
PLAN_1
 62
     2
  6
CONTINUOUS
 10
-0.968882
 20
3.653374
  0
VERTEX
  8
PLAN_1
 62
     2
  6
CONTINUOUS
 10
-0.967039
 20
3.655213
  0
VERTEX
  8
PLAN_1
 62
     2
  6
CONTINUOUS
 10
-0.965201
 20
3.657055
  0
VERTEX
  8
PLAN_1
 62
     2
  6
CONTINUOUS
 10
-0.963358
 20
3.658437
  0
VERTEX
  8
PLAN_1
 62
     2
  6
CONTINUOUS
 10
-0.961055
 20
3.659819
  0
VERTEX
  8
PLAN_1
 62
     2
  6
CONTINUOUS
 10
-0.958291
 20
3.660740
  0
VERTEX
  8
PLAN_1
 62
     2
  6
CONTINUOUS
 10
-0.955531
 20
3.661661
  0
VERTEX
  8
PLAN_1
 62
     2
  6
CONTINUOUS
 10
-0.952768
 20
3.662122
  0
VERTEX
  8
PLAN_1
 62
     2
  6
CONTINUOUS
 10
-0.949543
 20
3.662122
  0
SEQEND
  8
0
  0
POLYLINE
  8
PLAN_1
 62
     2
  6
CONTINUOUS
 66
     1
 40
0.003000
 41
0.003000
  0
VERTEX
  8
PLAN_1
 62
     2
  6
CONTINUOUS
 10
-0.949543
 20
3.612854
  0
VERTEX
  8
PLAN_1
 62
     2
  6
CONTINUOUS
 10
-0.947240
 20
3.612854
  0
VERTEX
  8
PLAN_1
 62
     2
  6
CONTINUOUS
 10
-0.944941
 20
3.613315
  0
VERTEX
  8
PLAN_1
 62
     2
  6
CONTINUOUS
 10
-0.943098
 20
3.614232
  0
VERTEX
  8
PLAN_1
 62
     2
  6
CONTINUOUS
 10
-0.941717
 20
3.615154
  0
VERTEX
  8
PLAN_1
 62
     2
  6
CONTINUOUS
 10
-0.938953
 20
3.617457
  0
VERTEX
  8
PLAN_1
 62
     2
  6
CONTINUOUS
 10
-0.936650
 20
3.620220
  0
VERTEX
  8
PLAN_1
 62
     2
  6
CONTINUOUS
 10
-0.935268
 20
3.623906
  0
VERTEX
  8
PLAN_1
 62
     2
  6
CONTINUOUS
 10
-0.934350
 20
3.627126
  0
VERTEX
  8
PLAN_1
 62
     2
  6
CONTINUOUS
 10
-0.933890
 20
3.630350
  0
VERTEX
  8
PLAN_1
 62
     2
  6
CONTINUOUS
 10
-0.933890
 20
3.633575
  0
VERTEX
  8
PLAN_1
 62
     2
  6
CONTINUOUS
 10
-0.933890
 20
3.636335
  0
VERTEX
  8
PLAN_1
 62
     2
  6
CONTINUOUS
 10
-0.934350
 20
3.640020
  0
VERTEX
  8
PLAN_1
 62
     2
  6
CONTINUOUS
 10
-0.935268
 20
3.643244
  0
VERTEX
  8
PLAN_1
 62
     2
  6
CONTINUOUS
 10
-0.936650
 20
3.646465
  0
VERTEX
  8
PLAN_1
 62
     2
  6
CONTINUOUS
 10
-0.938953
 20
3.649689
  0
VERTEX
  8
PLAN_1
 62
     2
  6
CONTINUOUS
 10
-0.941717
 20
3.651992
  0
VERTEX
  8
PLAN_1
 62
     2
  6
CONTINUOUS
 10
-0.943098
 20
3.652913
  0
VERTEX
  8
PLAN_1
 62
     2
  6
CONTINUOUS
 10
-0.944941
 20
3.653835
  0
VERTEX
  8
PLAN_1
 62
     2
  6
CONTINUOUS
 10
-0.947240
 20
3.654295
  0
VERTEX
  8
PLAN_1
 62
     2
  6
CONTINUOUS
 10
-0.949543
 20
3.654295
  0
VERTEX
  8
PLAN_1
 62
     2
  6
CONTINUOUS
 10
-0.951846
 20
3.654295
  0
VERTEX
  8
PLAN_1
 62
     2
  6
CONTINUOUS
 10
-0.954150
 20
3.653835
  0
VERTEX
  8
PLAN_1
 62
     2
  6
CONTINUOUS
 10
-0.955988
 20
3.652913
  0
VERTEX
  8
PLAN_1
 62
     2
  6
CONTINUOUS
 10
-0.957370
 20
3.651992
  0
VERTEX
  8
PLAN_1
 62
     2
  6
CONTINUOUS
 10
-0.960134
 20
3.649689
  0
VERTEX
  8
PLAN_1
 62
     2
  6
CONTINUOUS
 10
-0.962437
 20
3.646465
  0
VERTEX
  8
PLAN_1
 62
     2
  6
CONTINUOUS
 10
-0.963819
 20
3.643244
  0
VERTEX
  8
PLAN_1
 62
     2
  6
CONTINUOUS
 10
-0.964740
 20
3.640020
  0
VERTEX
  8
PLAN_1
 62
     2
  6
CONTINUOUS
 10
-0.965201
 20
3.636335
  0
VERTEX
  8
PLAN_1
 62
     2
  6
CONTINUOUS
 10
-0.965201
 20
3.633575
  0
VERTEX
  8
PLAN_1
 62
     2
  6
CONTINUOUS
 10
-0.965201
 20
3.630350
  0
VERTEX
  8
PLAN_1
 62
     2
  6
CONTINUOUS
 10
-0.964740
 20
3.627126
  0
VERTEX
  8
PLAN_1
 62
     2
  6
CONTINUOUS
 10
-0.963819
 20
3.623906
  0
VERTEX
  8
PLAN_1
 62
     2
  6
CONTINUOUS
 10
-0.962437
 20
3.620220
  0
VERTEX
  8
PLAN_1
 62
     2
  6
CONTINUOUS
 10
-0.960134
 20
3.617457
  0
VERTEX
  8
PLAN_1
 62
     2
  6
CONTINUOUS
 10
-0.957370
 20
3.615154
  0
VERTEX
  8
PLAN_1
 62
     2
  6
CONTINUOUS
 10
-0.955988
 20
3.614232
  0
VERTEX
  8
PLAN_1
 62
     2
  6
CONTINUOUS
 10
-0.954150
 20
3.613315
  0
VERTEX
  8
PLAN_1
 62
     2
  6
CONTINUOUS
 10
-0.951846
 20
3.612854
  0
VERTEX
  8
PLAN_1
 62
     2
  6
CONTINUOUS
 10
-0.949543
 20
3.612854
  0
SEQEND
  8
0
  0
POLYLINE
  8
PLAN_1
 62
     2
  6
CONTINUOUS
 66
     1
 40
0.003000
 41
0.003000
  0
VERTEX
  8
PLAN_1
 62
     2
  6
CONTINUOUS
 10
-0.914547
 20
3.606406
  0
VERTEX
  8
PLAN_1
 62
     2
  6
CONTINUOUS
 10
-0.914547
 20
3.681000
  0
VERTEX
  8
PLAN_1
 62
     2
  6
CONTINUOUS
 10
-0.905339
 20
3.681000
  0
VERTEX
  8
PLAN_1
 62
     2
  6
CONTINUOUS
 10
-0.905339
 20
3.653835
  0
VERTEX
  8
PLAN_1
 62
     2
  6
CONTINUOUS
 10
-0.903500
 20
3.655673
  0
VERTEX
  8
PLAN_1
 62
     2
  6
CONTINUOUS
 10
-0.902118
 20
3.657516
  0
VERTEX
  8
PLAN_1
 62
     2
  6
CONTINUOUS
 10
-0.900276
 20
3.658898
  0
VERTEX
  8
PLAN_1
 62
     2
  6
CONTINUOUS
 10
-0.898433
 20
3.660280
  0
VERTEX
  8
PLAN_1
 62
     2
  6
CONTINUOUS
 10
-0.896130
 20
3.661201
  0
VERTEX
  8
PLAN_1
 62
     2
  6
CONTINUOUS
 10
-0.894287
 20
3.661661
  0
VERTEX
  8
PLAN_1
 62
     2
  6
CONTINUOUS
 10
-0.891988
 20
3.662122
  0
VERTEX
  8
PLAN_1
 62
     2
  6
CONTINUOUS
 10
-0.889685
 20
3.662122
  0
VERTEX
  8
PLAN_1
 62
     2
  6
CONTINUOUS
 10
-0.886921
 20
3.662122
  0
VERTEX
  8
PLAN_1
 62
     2
  6
CONTINUOUS
 10
-0.884157
 20
3.661661
  0
VERTEX
  8
PLAN_1
 62
     2
  6
CONTINUOUS
 10
-0.881858
 20
3.661201
  0
VERTEX
  8
PLAN_1
 62
     2
  6
CONTINUOUS
 10
-0.880016
 20
3.660280
  0
VERTEX
  8
PLAN_1
 62
     2
  6
CONTINUOUS
 10
-0.877713
 20
3.658898
  0
VERTEX
  8
PLAN_1
 62
     2
  6
CONTINUOUS
 10
-0.875870
 20
3.657516
  0
VERTEX
  8
PLAN_1
 62
     2
  6
CONTINUOUS
 10
-0.874488
 20
3.656134
  0
VERTEX
  8
PLAN_1
 62
     2
  6
CONTINUOUS
 10
-0.872650
 20
3.654295
  0
VERTEX
  8
PLAN_1
 62
     2
  6
CONTINUOUS
 10
-0.870346
 20
3.650610
  0
VERTEX
  8
PLAN_1
 62
     2
  6
CONTINUOUS
 10
-0.868504
 20
3.646004
  0
VERTEX
  8
PLAN_1
 62
     2
  6
CONTINUOUS
 10
-0.867122
 20
3.640480
  0
VERTEX
  8
PLAN_1
 62
     2
  6
CONTINUOUS
 10
-0.866661
 20
3.634953
  0
VERTEX
  8
PLAN_1
 62
     2
  6
CONTINUOUS
 10
-0.867122
 20
3.629890
  0
VERTEX
  8
PLAN_1
 62
     2
  6
CONTINUOUS
 10
-0.868043
 20
3.624823
  0
VERTEX
  8
PLAN_1
 62
     2
  6
CONTINUOUS
 10
-0.869425
 20
3.619760
  0
VERTEX
  8
PLAN_1
 62
     2
  6
CONTINUOUS
 10
-0.871728
 20
3.615154
  0
VERTEX
  8
PLAN_1
 62
     2
  6
CONTINUOUS
 10
-0.873106
 20
3.612854
  0
VERTEX
  8
PLAN_1
 62
     2
  6
CONTINUOUS
 10
-0.874949
 20
3.611012
  0
VERTEX
  8
PLAN_1
 62
     2
  6
CONTINUOUS
 10
-0.876791
 20
3.609169
  0
VERTEX
  8
PLAN_1
 62
     2
  6
CONTINUOUS
 10
-0.879094
 20
3.607787
  0
VERTEX
  8
PLAN_1
 62
     2
  6
CONTINUOUS
 10
-0.881858
 20
3.606406
  0
VERTEX
  8
PLAN_1
 62
     2
  6
CONTINUOUS
 10
-0.884618
 20
3.605484
  0
VERTEX
  8
PLAN_1
 62
     2
  6
CONTINUOUS
 10
-0.887382
 20
3.605024
  0
VERTEX
  8
PLAN_1
 62
     2
  6
CONTINUOUS
 10
-0.890606
 20
3.604563
  0
VERTEX
  8
PLAN_1
 62
     2
  6
CONTINUOUS
 10
-0.893827
 20
3.605024
  0
VERTEX
  8
PLAN_1
 62
     2
  6
CONTINUOUS
 10
-0.896591
 20
3.605484
  0
VERTEX
  8
PLAN_1
 62
     2
  6
CONTINUOUS
 10
-0.898894
 20
3.606406
  0
VERTEX
  8
PLAN_1
 62
     2
  6
CONTINUOUS
 10
-0.901197
 20
3.607787
  0
VERTEX
  8
PLAN_1
 62
     2
  6
CONTINUOUS
 10
-0.902579
 20
3.609169
  0
VERTEX
  8
PLAN_1
 62
     2
  6
CONTINUOUS
 10
-0.903961
 20
3.610551
  0
VERTEX
  8
PLAN_1
 62
     2
  6
CONTINUOUS
 10
-0.904878
 20
3.611933
  0
VERTEX
  8
PLAN_1
 62
     2
  6
CONTINUOUS
 10
-0.905799
 20
3.612854
  0
VERTEX
  8
PLAN_1
 62
     2
  6
CONTINUOUS
 10
-0.905799
 20
3.606406
  0
VERTEX
  8
PLAN_1
 62
     2
  6
CONTINUOUS
 10
-0.914547
 20
3.606406
  0
SEQEND
  8
0
  0
POLYLINE
  8
PLAN_1
 62
     2
  6
CONTINUOUS
 66
     1
 40
0.003000
 41
0.003000
  0
VERTEX
  8
PLAN_1
 62
     2
  6
CONTINUOUS
 10
-0.891067
 20
3.653835
  0
VERTEX
  8
PLAN_1
 62
     2
  6
CONTINUOUS
 10
-0.893370
 20
3.653835
  0
VERTEX
  8
PLAN_1
 62
     2
  6
CONTINUOUS
 10
-0.895669
 20
3.653374
  0
VERTEX
  8
PLAN_1
 62
     2
  6
CONTINUOUS
 10
-0.897512
 20
3.652453
  0
VERTEX
  8
PLAN_1
 62
     2
  6
CONTINUOUS
 10
-0.898894
 20
3.651531
  0
VERTEX
  8
PLAN_1
 62
     2
  6
CONTINUOUS
 10
-0.900276
 20
3.650610
  0
VERTEX
  8
PLAN_1
 62
     2
  6
CONTINUOUS
 10
-0.901657
 20
3.649228
  0
VERTEX
  8
PLAN_1
 62
     2
  6
CONTINUOUS
 10
-0.902579
 20
3.647386
  0
VERTEX
  8
PLAN_1
 62
     2
  6
CONTINUOUS
 10
-0.903500
 20
3.646004
  0
VERTEX
  8
PLAN_1
 62
     2
  6
CONTINUOUS
 10
-0.904878
 20
3.642323
  0
VERTEX
  8
PLAN_1
 62
     2
  6
CONTINUOUS
 10
-0.905339
 20
3.638177
  0
VERTEX
  8
PLAN_1
 62
     2
  6
CONTINUOUS
 10
-0.905799
 20
3.634492
  0
VERTEX
  8
PLAN_1
 62
     2
  6
CONTINUOUS
 10
-0.905799
 20
3.630811
  0
VERTEX
  8
PLAN_1
 62
     2
  6
CONTINUOUS
 10
-0.905339
 20
3.626205
  0
VERTEX
  8
PLAN_1
 62
     2
  6
CONTINUOUS
 10
-0.904417
 20
3.622063
  0
VERTEX
  8
PLAN_1
 62
     2
  6
CONTINUOUS
 10
-0.902579
 20
3.618839
  0
VERTEX
  8
PLAN_1
 62
     2
  6
CONTINUOUS
 10
-0.900736
 20
3.616535
  0
VERTEX
  8
PLAN_1
 62
     2
  6
CONTINUOUS
 10
-0.898433
 20
3.614693
  0
VERTEX
  8
PLAN_1
 62
     2
  6
CONTINUOUS
 10
-0.895669
 20
3.613315
  0
VERTEX
  8
PLAN_1
 62
     2
  6
CONTINUOUS
 10
-0.893370
 20
3.612854
  0
VERTEX
  8
PLAN_1
 62
     2
  6
CONTINUOUS
 10
-0.891067
 20
3.612854
  0
VERTEX
  8
PLAN_1
 62
     2
  6
CONTINUOUS
 10
-0.887382
 20
3.612854
  0
VERTEX
  8
PLAN_1
 62
     2
  6
CONTINUOUS
 10
-0.884618
 20
3.614232
  0
VERTEX
  8
PLAN_1
 62
     2
  6
CONTINUOUS
 10
-0.881858
 20
3.616075
  0
VERTEX
  8
PLAN_1
 62
     2
  6
CONTINUOUS
 10
-0.880016
 20
3.618839
  0
VERTEX
  8
PLAN_1
 62
     2
  6
CONTINUOUS
 10
-0.878173
 20
3.621602
  0
VERTEX
  8
PLAN_1
 62
     2
  6
CONTINUOUS
 10
-0.877252
 20
3.625283
  0
VERTEX
  8
PLAN_1
 62
     2
  6
CONTINUOUS
 10
-0.876331
 20
3.629429
  0
VERTEX
  8
PLAN_1
 62
     2
  6
CONTINUOUS
 10
-0.876331
 20
3.633575
  0
VERTEX
  8
PLAN_1
 62
     2
  6
CONTINUOUS
 10
-0.876331
 20
3.636335
  0
VERTEX
  8
PLAN_1
 62
     2
  6
CONTINUOUS
 10
-0.876791
 20
3.639559
  0
VERTEX
  8
PLAN_1
 62
     2
  6
CONTINUOUS
 10
-0.877252
 20
3.643244
  0
VERTEX
  8
PLAN_1
 62
     2
  6
CONTINUOUS
 10
-0.878634
 20
3.646465
  0
VERTEX
  8
PLAN_1
 62
     2
  6
CONTINUOUS
 10
-0.879094
 20
3.647846
  0
VERTEX
  8
PLAN_1
 62
     2
  6
CONTINUOUS
 10
-0.880016
 20
3.649228
  0
VERTEX
  8
PLAN_1
 62
     2
  6
CONTINUOUS
 10
-0.881398
 20
3.650610
  0
VERTEX
  8
PLAN_1
 62
     2
  6
CONTINUOUS
 10
-0.882780
 20
3.651992
  0
VERTEX
  8
PLAN_1
 62
     2
  6
CONTINUOUS
 10
-0.884618
 20
3.652913
  0
VERTEX
  8
PLAN_1
 62
     2
  6
CONTINUOUS
 10
-0.886461
 20
3.653374
  0
VERTEX
  8
PLAN_1
 62
     2
  6
CONTINUOUS
 10
-0.888764
 20
3.653835
  0
VERTEX
  8
PLAN_1
 62
     2
  6
CONTINUOUS
 10
-0.891067
 20
3.653835
  0
SEQEND
  8
0
  0
SOLID
  8
PLAN_1
 62
     2
 10
-0.848705
 20
3.606406
 11
-0.857913
 21
3.606406
 12
-0.848705
 22
3.681000
 13
-0.857913
 23
3.681000
  0
POLYLINE
  8
PLAN_1
 62
     2
  6
CONTINUOUS
 66
     1
 40
0.003000
 41
0.003000
  0
VERTEX
  8
PLAN_1
 62
     2
  6
CONTINUOUS
 10
-0.848705
 20
3.606406
  0
VERTEX
  8
PLAN_1
 62
     2
  6
CONTINUOUS
 10
-0.857913
 20
3.606406
  0
VERTEX
  8
PLAN_1
 62
     2
  6
CONTINUOUS
 10
-0.857913
 20
3.681000
  0
VERTEX
  8
PLAN_1
 62
     2
  6
CONTINUOUS
 10
-0.848705
 20
3.681000
  0
VERTEX
  8
PLAN_1
 62
     2
  6
CONTINUOUS
 10
-0.848705
 20
3.606406
  0
SEQEND
  8
0
  0
POLYLINE
  8
PLAN_1
 62
     2
  6
CONTINUOUS
 66
     1
 40
0.003000
 41
0.003000
  0
VERTEX
  8
PLAN_1
 62
     2
  6
CONTINUOUS
 10
-0.812787
 20
3.662122
  0
VERTEX
  8
PLAN_1
 62
     2
  6
CONTINUOUS
 10
-0.809567
 20
3.662122
  0
VERTEX
  8
PLAN_1
 62
     2
  6
CONTINUOUS
 10
-0.806803
 20
3.661661
  0
VERTEX
  8
PLAN_1
 62
     2
  6
CONTINUOUS
 10
-0.804039
 20
3.660740
  0
VERTEX
  8
PLAN_1
 62
     2
  6
CONTINUOUS
 10
-0.801276
 20
3.659819
  0
VERTEX
  8
PLAN_1
 62
     2
  6
CONTINUOUS
 10
-0.798976
 20
3.658437
  0
VERTEX
  8
PLAN_1
 62
     2
  6
CONTINUOUS
 10
-0.797134
 20
3.657055
  0
VERTEX
  8
PLAN_1
 62
     2
  6
CONTINUOUS
 10
-0.795291
 20
3.655213
  0
VERTEX
  8
PLAN_1
 62
     2
  6
CONTINUOUS
 10
-0.793449
 20
3.653374
  0
VERTEX
  8
PLAN_1
 62
     2
  6
CONTINUOUS
 10
-0.790685
 20
3.648768
  0
VERTEX
  8
PLAN_1
 62
     2
  6
CONTINUOUS
 10
-0.788846
 20
3.644165
  0
VERTEX
  8
PLAN_1
 62
     2
  6
CONTINUOUS
 10
-0.787925
 20
3.638638
  0
VERTEX
  8
PLAN_1
 62
     2
  6
CONTINUOUS
 10
-0.787465
 20
3.633575
  0
VERTEX
  8
PLAN_1
 62
     2
  6
CONTINUOUS
 10
-0.787925
 20
3.628508
  0
VERTEX
  8
PLAN_1
 62
     2
  6
CONTINUOUS
 10
-0.788846
 20
3.622984
  0
VERTEX
  8
PLAN_1
 62
     2
  6
CONTINUOUS
 10
-0.789768
 20
3.620681
  0
VERTEX
  8
PLAN_1
 62
     2
  6
CONTINUOUS
 10
-0.790685
 20
3.618378
  0
VERTEX
  8
PLAN_1
 62
     2
  6
CONTINUOUS
 10
-0.792067
 20
3.616075
  0
VERTEX
  8
PLAN_1
 62
     2
  6
CONTINUOUS
 10
-0.793449
 20
3.613772
  0
VERTEX
  8
PLAN_1
 62
     2
  6
CONTINUOUS
 10
-0.795291
 20
3.611933
  0
VERTEX
  8
PLAN_1
 62
     2
  6
CONTINUOUS
 10
-0.797134
 20
3.610091
  0
VERTEX
  8
PLAN_1
 62
     2
  6
CONTINUOUS
 10
-0.798976
 20
3.608709
  0
VERTEX
  8
PLAN_1
 62
     2
  6
CONTINUOUS
 10
-0.801276
 20
3.607327
  0
VERTEX
  8
PLAN_1
 62
     2
  6
CONTINUOUS
 10
-0.804039
 20
3.606406
  0
VERTEX
  8
PLAN_1
 62
     2
  6
CONTINUOUS
 10
-0.806803
 20
3.605484
  0
VERTEX
  8
PLAN_1
 62
     2
  6
CONTINUOUS
 10
-0.809567
 20
3.605024
  0
VERTEX
  8
PLAN_1
 62
     2
  6
CONTINUOUS
 10
-0.812787
 20
3.605024
  0
VERTEX
  8
PLAN_1
 62
     2
  6
CONTINUOUS
 10
-0.816012
 20
3.605024
  0
VERTEX
  8
PLAN_1
 62
     2
  6
CONTINUOUS
 10
-0.818776
 20
3.605484
  0
VERTEX
  8
PLAN_1
 62
     2
  6
CONTINUOUS
 10
-0.821535
 20
3.606406
  0
VERTEX
  8
PLAN_1
 62
     2
  6
CONTINUOUS
 10
-0.823839
 20
3.607327
  0
VERTEX
  8
PLAN_1
 62
     2
  6
CONTINUOUS
 10
-0.826142
 20
3.608709
  0
VERTEX
  8
PLAN_1
 62
     2
  6
CONTINUOUS
 10
-0.828445
 20
3.610091
  0
VERTEX
  8
PLAN_1
 62
     2
  6
CONTINUOUS
 10
-0.830287
 20
3.611933
  0
VERTEX
  8
PLAN_1
 62
     2
  6
CONTINUOUS
 10
-0.831665
 20
3.613772
  0
VERTEX
  8
PLAN_1
 62
     2
  6
CONTINUOUS
 10
-0.833508
 20
3.616075
  0
VERTEX
  8
PLAN_1
 62
     2
  6
CONTINUOUS
 10
-0.834429
 20
3.618378
  0
VERTEX
  8
PLAN_1
 62
     2
  6
CONTINUOUS
 10
-0.835811
 20
3.620681
  0
VERTEX
  8
PLAN_1
 62
     2
  6
CONTINUOUS
 10
-0.836732
 20
3.622984
  0
VERTEX
  8
PLAN_1
 62
     2
  6
CONTINUOUS
 10
-0.837654
 20
3.628508
  0
VERTEX
  8
PLAN_1
 62
     2
  6
CONTINUOUS
 10
-0.838114
 20
3.633575
  0
VERTEX
  8
PLAN_1
 62
     2
  6
CONTINUOUS
 10
-0.837654
 20
3.638638
  0
VERTEX
  8
PLAN_1
 62
     2
  6
CONTINUOUS
 10
-0.836732
 20
3.644165
  0
VERTEX
  8
PLAN_1
 62
     2
  6
CONTINUOUS
 10
-0.835811
 20
3.646465
  0
VERTEX
  8
PLAN_1
 62
     2
  6
CONTINUOUS
 10
-0.834429
 20
3.648768
  0
VERTEX
  8
PLAN_1
 62
     2
  6
CONTINUOUS
 10
-0.833508
 20
3.651071
  0
VERTEX
  8
PLAN_1
 62
     2
  6
CONTINUOUS
 10
-0.831665
 20
3.653374
  0
VERTEX
  8
PLAN_1
 62
     2
  6
CONTINUOUS
 10
-0.830287
 20
3.655213
  0
VERTEX
  8
PLAN_1
 62
     2
  6
CONTINUOUS
 10
-0.828445
 20
3.657055
  0
VERTEX
  8
PLAN_1
 62
     2
  6
CONTINUOUS
 10
-0.826142
 20
3.658437
  0
VERTEX
  8
PLAN_1
 62
     2
  6
CONTINUOUS
 10
-0.823839
 20
3.659819
  0
VERTEX
  8
PLAN_1
 62
     2
  6
CONTINUOUS
 10
-0.821535
 20
3.660740
  0
VERTEX
  8
PLAN_1
 62
     2
  6
CONTINUOUS
 10
-0.818776
 20
3.661661
  0
VERTEX
  8
PLAN_1
 62
     2
  6
CONTINUOUS
 10
-0.816012
 20
3.662122
  0
VERTEX
  8
PLAN_1
 62
     2
  6
CONTINUOUS
 10
-0.812787
 20
3.662122
  0
SEQEND
  8
0
  0
POLYLINE
  8
PLAN_1
 62
     2
  6
CONTINUOUS
 66
     1
 40
0.003000
 41
0.003000
  0
VERTEX
  8
PLAN_1
 62
     2
  6
CONTINUOUS
 10
-0.812787
 20
3.612854
  0
VERTEX
  8
PLAN_1
 62
     2
  6
CONTINUOUS
 10
-0.810488
 20
3.612854
  0
VERTEX
  8
PLAN_1
 62
     2
  6
CONTINUOUS
 10
-0.808185
 20
3.613315
  0
VERTEX
  8
PLAN_1
 62
     2
  6
CONTINUOUS
 10
-0.806343
 20
3.614232
  0
VERTEX
  8
PLAN_1
 62
     2
  6
CONTINUOUS
 10
-0.804961
 20
3.615154
  0
VERTEX
  8
PLAN_1
 62
     2
  6
CONTINUOUS
 10
-0.802197
 20
3.617457
  0
VERTEX
  8
PLAN_1
 62
     2
  6
CONTINUOUS
 10
-0.799898
 20
3.620220
  0
VERTEX
  8
PLAN_1
 62
     2
  6
CONTINUOUS
 10
-0.798516
 20
3.623906
  0
VERTEX
  8
PLAN_1
 62
     2
  6
CONTINUOUS
 10
-0.797594
 20
3.627126
  0
VERTEX
  8
PLAN_1
 62
     2
  6
CONTINUOUS
 10
-0.797134
 20
3.630350
  0
VERTEX
  8
PLAN_1
 62
     2
  6
CONTINUOUS
 10
-0.797134
 20
3.633575
  0
VERTEX
  8
PLAN_1
 62
     2
  6
CONTINUOUS
 10
-0.797134
 20
3.636335
  0
VERTEX
  8
PLAN_1
 62
     2
  6
CONTINUOUS
 10
-0.797594
 20
3.640020
  0
VERTEX
  8
PLAN_1
 62
     2
  6
CONTINUOUS
 10
-0.798516
 20
3.643244
  0
VERTEX
  8
PLAN_1
 62
     2
  6
CONTINUOUS
 10
-0.799898
 20
3.646465
  0
VERTEX
  8
PLAN_1
 62
     2
  6
CONTINUOUS
 10
-0.802197
 20
3.649689
  0
VERTEX
  8
PLAN_1
 62
     2
  6
CONTINUOUS
 10
-0.804961
 20
3.651992
  0
VERTEX
  8
PLAN_1
 62
     2
  6
CONTINUOUS
 10
-0.806343
 20
3.652913
  0
VERTEX
  8
PLAN_1
 62
     2
  6
CONTINUOUS
 10
-0.808185
 20
3.653835
  0
VERTEX
  8
PLAN_1
 62
     2
  6
CONTINUOUS
 10
-0.810488
 20
3.654295
  0
VERTEX
  8
PLAN_1
 62
     2
  6
CONTINUOUS
 10
-0.812787
 20
3.654295
  0
VERTEX
  8
PLAN_1
 62
     2
  6
CONTINUOUS
 10
-0.815091
 20
3.654295
  0
VERTEX
  8
PLAN_1
 62
     2
  6
CONTINUOUS
 10
-0.817394
 20
3.653835
  0
VERTEX
  8
PLAN_1
 62
     2
  6
CONTINUOUS
 10
-0.819236
 20
3.652913
  0
VERTEX
  8
PLAN_1
 62
     2
  6
CONTINUOUS
 10
-0.820618
 20
3.651992
  0
VERTEX
  8
PLAN_1
 62
     2
  6
CONTINUOUS
 10
-0.823378
 20
3.649689
  0
VERTEX
  8
PLAN_1
 62
     2
  6
CONTINUOUS
 10
-0.825681
 20
3.646465
  0
VERTEX
  8
PLAN_1
 62
     2
  6
CONTINUOUS
 10
-0.827063
 20
3.643244
  0
VERTEX
  8
PLAN_1
 62
     2
  6
CONTINUOUS
 10
-0.827984
 20
3.640020
  0
VERTEX
  8
PLAN_1
 62
     2
  6
CONTINUOUS
 10
-0.828445
 20
3.636335
  0
VERTEX
  8
PLAN_1
 62
     2
  6
CONTINUOUS
 10
-0.828445
 20
3.633575
  0
VERTEX
  8
PLAN_1
 62
     2
  6
CONTINUOUS
 10
-0.828445
 20
3.630350
  0
VERTEX
  8
PLAN_1
 62
     2
  6
CONTINUOUS
 10
-0.827984
 20
3.627126
  0
VERTEX
  8
PLAN_1
 62
     2
  6
CONTINUOUS
 10
-0.827063
 20
3.623906
  0
VERTEX
  8
PLAN_1
 62
     2
  6
CONTINUOUS
 10
-0.825681
 20
3.620220
  0
VERTEX
  8
PLAN_1
 62
     2
  6
CONTINUOUS
 10
-0.823378
 20
3.617457
  0
VERTEX
  8
PLAN_1
 62
     2
  6
CONTINUOUS
 10
-0.820618
 20
3.615154
  0
VERTEX
  8
PLAN_1
 62
     2
  6
CONTINUOUS
 10
-0.819236
 20
3.614232
  0
VERTEX
  8
PLAN_1
 62
     2
  6
CONTINUOUS
 10
-0.817394
 20
3.613315
  0
VERTEX
  8
PLAN_1
 62
     2
  6
CONTINUOUS
 10
-0.815091
 20
3.612854
  0
VERTEX
  8
PLAN_1
 62
     2
  6
CONTINUOUS
 10
-0.812787
 20
3.612854
  0
SEQEND
  8
0
  0
POLYLINE
  8
PLAN_1
 62
     2
  6
CONTINUOUS
 66
     1
 40
0.003000
 41
0.003000
  0
VERTEX
  8
PLAN_1
 62
     2
  6
CONTINUOUS
 10
-0.732669
 20
3.606406
  0
VERTEX
  8
PLAN_1
 62
     2
  6
CONTINUOUS
 10
-0.741878
 20
3.606406
  0
VERTEX
  8
PLAN_1
 62
     2
  6
CONTINUOUS
 10
-0.741878
 20
3.640020
  0
VERTEX
  8
PLAN_1
 62
     2
  6
CONTINUOUS
 10
-0.741878
 20
3.643244
  0
VERTEX
  8
PLAN_1
 62
     2
  6
CONTINUOUS
 10
-0.742339
 20
3.646004
  0
VERTEX
  8
PLAN_1
 62
     2
  6
CONTINUOUS
 10
-0.743260
 20
3.648307
  0
VERTEX
  8
PLAN_1
 62
     2
  6
CONTINUOUS
 10
-0.744181
 20
3.650610
  0
VERTEX
  8
PLAN_1
 62
     2
  6
CONTINUOUS
 10
-0.746024
 20
3.651992
  0
VERTEX
  8
PLAN_1
 62
     2
  6
CONTINUOUS
 10
-0.747866
 20
3.653374
  0
VERTEX
  8
PLAN_1
 62
     2
  6
CONTINUOUS
 10
-0.750626
 20
3.653835
  0
VERTEX
  8
PLAN_1
 62
     2
  6
CONTINUOUS
 10
-0.753390
 20
3.653835
  0
VERTEX
  8
PLAN_1
 62
     2
  6
CONTINUOUS
 10
-0.755693
 20
3.653835
  0
VERTEX
  8
PLAN_1
 62
     2
  6
CONTINUOUS
 10
-0.757996
 20
3.653374
  0
VERTEX
  8
PLAN_1
 62
     2
  6
CONTINUOUS
 10
-0.760295
 20
3.651992
  0
VERTEX
  8
PLAN_1
 62
     2
  6
CONTINUOUS
 10
-0.762598
 20
3.650610
  0
VERTEX
  8
PLAN_1
 62
     2
  6
CONTINUOUS
 10
-0.764902
 20
3.648307
  0
VERTEX
  8
PLAN_1
 62
     2
  6
CONTINUOUS
 10
-0.766283
 20
3.645083
  0
VERTEX
  8
PLAN_1
 62
     2
  6
CONTINUOUS
 10
-0.767665
 20
3.640941
  0
VERTEX
  8
PLAN_1
 62
     2
  6
CONTINUOUS
 10
-0.767665
 20
3.635874
  0
VERTEX
  8
PLAN_1
 62
     2
  6
CONTINUOUS
 10
-0.767665
 20
3.606406
  0
VERTEX
  8
PLAN_1
 62
     2
  6
CONTINUOUS
 10
-0.776874
 20
3.606406
  0
VERTEX
  8
PLAN_1
 62
     2
  6
CONTINUOUS
 10
-0.776874
 20
3.660740
  0
VERTEX
  8
PLAN_1
 62
     2
  6
CONTINUOUS
 10
-0.768587
 20
3.660740
  0
VERTEX
  8
PLAN_1
 62
     2
  6
CONTINUOUS
 10
-0.768587
 20
3.652913
  0
VERTEX
  8
PLAN_1
 62
     2
  6
CONTINUOUS
 10
-0.768126
 20
3.652913
  0
VERTEX
  8
PLAN_1
 62
     2
  6
CONTINUOUS
 10
-0.767205
 20
3.654295
  0
VERTEX
  8
PLAN_1
 62
     2
  6
CONTINUOUS
 10
-0.766283
 20
3.655673
  0
VERTEX
  8
PLAN_1
 62
     2
  6
CONTINUOUS
 10
-0.764441
 20
3.657055
  0
VERTEX
  8
PLAN_1
 62
     2
  6
CONTINUOUS
 10
-0.762598
 20
3.658898
  0
VERTEX
  8
PLAN_1
 62
     2
  6
CONTINUOUS
 10
-0.760295
 20
3.660280
  0
VERTEX
  8
PLAN_1
 62
     2
  6
CONTINUOUS
 10
-0.757996
 20
3.661201
  0
VERTEX
  8
PLAN_1
 62
     2
  6
CONTINUOUS
 10
-0.755232
 20
3.662122
  0
VERTEX
  8
PLAN_1
 62
     2
  6
CONTINUOUS
 10
-0.751547
 20
3.662122
  0
VERTEX
  8
PLAN_1
 62
     2
  6
CONTINUOUS
 10
-0.748327
 20
3.662122
  0
VERTEX
  8
PLAN_1
 62
     2
  6
CONTINUOUS
 10
-0.745102
 20
3.661661
  0
VERTEX
  8
PLAN_1
 62
     2
  6
CONTINUOUS
 10
-0.741878
 20
3.660280
  0
VERTEX
  8
PLAN_1
 62
     2
  6
CONTINUOUS
 10
-0.739114
 20
3.658437
  0
VERTEX
  8
PLAN_1
 62
     2
  6
CONTINUOUS
 10
-0.737736
 20
3.657516
  0
VERTEX
  8
PLAN_1
 62
     2
  6
CONTINUOUS
 10
-0.736354
 20
3.656134
  0
VERTEX
  8
PLAN_1
 62
     2
  6
CONTINUOUS
 10
-0.735433
 20
3.654756
  0
VERTEX
  8
PLAN_1
 62
     2
  6
CONTINUOUS
 10
-0.734512
 20
3.652913
  0
VERTEX
  8
PLAN_1
 62
     2
  6
CONTINUOUS
 10
-0.733591
 20
3.650610
  0
VERTEX
  8
PLAN_1
 62
     2
  6
CONTINUOUS
 10
-0.733130
 20
3.648768
  0
VERTEX
  8
PLAN_1
 62
     2
  6
CONTINUOUS
 10
-0.732669
 20
3.646004
  0
VERTEX
  8
PLAN_1
 62
     2
  6
CONTINUOUS
 10
-0.732669
 20
3.643244
  0
VERTEX
  8
PLAN_1
 62
     2
  6
CONTINUOUS
 10
-0.732669
 20
3.606406
  0
SEQEND
  8
0
  0
POLYLINE
  8
PLAN_1
 62
     2
  6
CONTINUOUS
 66
     1
 40
0.003000
 41
0.003000
  0
VERTEX
  8
PLAN_1
 62
     2
  6
CONTINUOUS
 10
-0.674193
 20
3.610551
  0
VERTEX
  8
PLAN_1
 62
     2
  6
CONTINUOUS
 10
-0.674193
 20
3.607327
  0
VERTEX
  8
PLAN_1
 62
     2
  6
CONTINUOUS
 10
-0.674193
 20
3.603185
  0
VERTEX
  8
PLAN_1
 62
     2
  6
CONTINUOUS
 10
-0.675114
 20
3.598579
  0
VERTEX
  8
PLAN_1
 62
     2
  6
CONTINUOUS
 10
-0.676953
 20
3.593972
  0
VERTEX
  8
PLAN_1
 62
     2
  6
CONTINUOUS
 10
-0.678335
 20
3.592134
  0
VERTEX
  8
PLAN_1
 62
     2
  6
CONTINUOUS
 10
-0.680177
 20
3.589831
  0
VERTEX
  8
PLAN_1
 62
     2
  6
CONTINUOUS
 10
-0.682020
 20
3.587988
  0
VERTEX
  8
PLAN_1
 62
     2
  6
CONTINUOUS
 10
-0.684783
 20
3.586606
  0
VERTEX
  8
PLAN_1
 62
     2
  6
CONTINUOUS
 10
-0.687543
 20
3.585224
  0
VERTEX
  8
PLAN_1
 62
     2
  6
CONTINUOUS
 10
-0.690768
 20
3.584303
  0
VERTEX
  8
PLAN_1
 62
     2
  6
CONTINUOUS
 10
-0.694913
 20
3.583843
  0
VERTEX
  8
PLAN_1
 62
     2
  6
CONTINUOUS
 10
-0.699055
 20
3.583382
  0
VERTEX
  8
PLAN_1
 62
     2
  6
CONTINUOUS
 10
-0.701819
 20
3.583382
  0
VERTEX
  8
PLAN_1
 62
     2
  6
CONTINUOUS
 10
-0.705043
 20
3.583843
  0
VERTEX
  8
PLAN_1
 62
     2
  6
CONTINUOUS
 10
-0.708264
 20
3.584764
  0
VERTEX
  8
PLAN_1
 62
     2
  6
CONTINUOUS
 10
-0.711488
 20
3.586146
  0
VERTEX
  8
PLAN_1
 62
     2
  6
CONTINUOUS
 10
-0.714252
 20
3.587988
  0
VERTEX
  8
PLAN_1
 62
     2
  6
CONTINUOUS
 10
-0.717016
 20
3.591213
  0
VERTEX
  8
PLAN_1
 62
     2
  6
CONTINUOUS
 10
-0.717933
 20
3.592594
  0
VERTEX
  8
PLAN_1
 62
     2
  6
CONTINUOUS
 10
-0.718854
 20
3.594894
  0
VERTEX
  8
PLAN_1
 62
     2
  6
CONTINUOUS
 10
-0.719776
 20
3.597197
  0
VERTEX
  8
PLAN_1
 62
     2
  6
CONTINUOUS
 10
-0.720236
 20
3.599500
  0
VERTEX
  8
PLAN_1
 62
     2
  6
CONTINUOUS
 10
-0.711028
 20
3.599500
  0
VERTEX
  8
PLAN_1
 62
     2
  6
CONTINUOUS
 10
-0.710106
 20
3.596736
  0
VERTEX
  8
PLAN_1
 62
     2
  6
CONTINUOUS
 10
-0.708724
 20
3.594433
  0
VERTEX
  8
PLAN_1
 62
     2
  6
CONTINUOUS
 10
-0.706886
 20
3.593055
  0
VERTEX
  8
PLAN_1
 62
     2
  6
CONTINUOUS
 10
-0.705043
 20
3.592134
  0
VERTEX
  8
PLAN_1
 62
     2
  6
CONTINUOUS
 10
-0.703201
 20
3.591673
  0
VERTEX
  8
PLAN_1
 62
     2
  6
CONTINUOUS
 10
-0.701358
 20
3.591213
  0
VERTEX
  8
PLAN_1
 62
     2
  6
CONTINUOUS
 10
-0.699516
 20
3.591213
  0
VERTEX
  8
PLAN_1
 62
     2
  6
CONTINUOUS
 10
-0.698594
 20
3.591213
  0
VERTEX
  8
PLAN_1
 62
     2
  6
CONTINUOUS
 10
-0.695835
 20
3.591213
  0
VERTEX
  8
PLAN_1
 62
     2
  6
CONTINUOUS
 10
-0.693531
 20
3.591673
  0
VERTEX
  8
PLAN_1
 62
     2
  6
CONTINUOUS
 10
-0.691228
 20
3.592134
  0
VERTEX
  8
PLAN_1
 62
     2
  6
CONTINUOUS
 10
-0.689386
 20
3.593055
  0
VERTEX
  8
PLAN_1
 62
     2
  6
CONTINUOUS
 10
-0.688004
 20
3.593972
  0
VERTEX
  8
PLAN_1
 62
     2
  6
CONTINUOUS
 10
-0.686626
 20
3.595354
  0
VERTEX
  8
PLAN_1
 62
     2
  6
CONTINUOUS
 10
-0.685705
 20
3.596736
  0
VERTEX
  8
PLAN_1
 62
     2
  6
CONTINUOUS
 10
-0.684783
 20
3.598118
  0
VERTEX
  8
PLAN_1
 62
     2
  6
CONTINUOUS
 10
-0.683862
 20
3.601343
  0
VERTEX
  8
PLAN_1
 62
     2
  6
CONTINUOUS
 10
-0.683402
 20
3.604563
  0
VERTEX
  8
PLAN_1
 62
     2
  6
CONTINUOUS
 10
-0.682941
 20
3.607327
  0
VERTEX
  8
PLAN_1
 62
     2
  6
CONTINUOUS
 10
-0.682941
 20
3.610091
  0
VERTEX
  8
PLAN_1
 62
     2
  6
CONTINUOUS
 10
-0.682941
 20
3.612394
  0
VERTEX
  8
PLAN_1
 62
     2
  6
CONTINUOUS
 10
-0.683402
 20
3.612394
  0
VERTEX
  8
PLAN_1
 62
     2
  6
CONTINUOUS
 10
-0.683402
 20
3.611933
  0
VERTEX
  8
PLAN_1
 62
     2
  6
CONTINUOUS
 10
-0.684323
 20
3.610551
  0
VERTEX
  8
PLAN_1
 62
     2
  6
CONTINUOUS
 10
-0.685705
 20
3.609169
  0
VERTEX
  8
PLAN_1
 62
     2
  6
CONTINUOUS
 10
-0.687083
 20
3.608248
  0
VERTEX
  8
PLAN_1
 62
     2
  6
CONTINUOUS
 10
-0.688925
 20
3.606866
  0
VERTEX
  8
PLAN_1
 62
     2
  6
CONTINUOUS
 10
-0.690768
 20
3.605945
  0
VERTEX
  8
PLAN_1
 62
     2
  6
CONTINUOUS
 10
-0.692610
 20
3.605484
  0
VERTEX
  8
PLAN_1
 62
     2
  6
CONTINUOUS
 10
-0.695374
 20
3.605024
  0
VERTEX
  8
PLAN_1
 62
     2
  6
CONTINUOUS
 10
-0.697673
 20
3.604563
  0
VERTEX
  8
PLAN_1
 62
     2
  6
CONTINUOUS
 10
-0.700898
 20
3.605024
  0
VERTEX
  8
PLAN_1
 62
     2
  6
CONTINUOUS
 10
-0.704122
 20
3.605484
  0
VERTEX
  8
PLAN_1
 62
     2
  6
CONTINUOUS
 10
-0.706886
 20
3.606406
  0
VERTEX
  8
PLAN_1
 62
     2
  6
CONTINUOUS
 10
-0.709185
 20
3.607787
  0
VERTEX
  8
PLAN_1
 62
     2
  6
CONTINUOUS
 10
-0.711488
 20
3.609169
  0
VERTEX
  8
PLAN_1
 62
     2
  6
CONTINUOUS
 10
-0.713331
 20
3.611012
  0
VERTEX
  8
PLAN_1
 62
     2
  6
CONTINUOUS
 10
-0.715173
 20
3.612854
  0
VERTEX
  8
PLAN_1
 62
     2
  6
CONTINUOUS
 10
-0.716555
 20
3.615154
  0
VERTEX
  8
PLAN_1
 62
     2
  6
CONTINUOUS
 10
-0.718854
 20
3.619760
  0
VERTEX
  8
PLAN_1
 62
     2
  6
CONTINUOUS
 10
-0.720697
 20
3.624823
  0
VERTEX
  8
PLAN_1
 62
     2
  6
CONTINUOUS
 10
-0.721618
 20
3.629890
  0
VERTEX
  8
PLAN_1
 62
     2
  6
CONTINUOUS
 10
-0.721618
 20
3.634953
  0
VERTEX
  8
PLAN_1
 62
     2
  6
CONTINUOUS
 10
-0.721157
 20
3.640480
  0
VERTEX
  8
PLAN_1
 62
     2
  6
CONTINUOUS
 10
-0.720236
 20
3.646004
  0
VERTEX
  8
PLAN_1
 62
     2
  6
CONTINUOUS
 10
-0.718394
 20
3.650610
  0
VERTEX
  8
PLAN_1
 62
     2
  6
CONTINUOUS
 10
-0.715634
 20
3.654295
  0
VERTEX
  8
PLAN_1
 62
     2
  6
CONTINUOUS
 10
-0.714252
 20
3.656134
  0
VERTEX
  8
PLAN_1
 62
     2
  6
CONTINUOUS
 10
-0.712409
 20
3.657516
  0
VERTEX
  8
PLAN_1
 62
     2
  6
CONTINUOUS
 10
-0.710567
 20
3.658898
  0
VERTEX
  8
PLAN_1
 62
     2
  6
CONTINUOUS
 10
-0.708724
 20
3.660280
  0
VERTEX
  8
PLAN_1
 62
     2
  6
CONTINUOUS
 10
-0.706425
 20
3.661201
  0
VERTEX
  8
PLAN_1
 62
     2
  6
CONTINUOUS
 10
-0.704122
 20
3.661661
  0
VERTEX
  8
PLAN_1
 62
     2
  6
CONTINUOUS
 10
-0.701819
 20
3.662122
  0
VERTEX
  8
PLAN_1
 62
     2
  6
CONTINUOUS
 10
-0.699055
 20
3.662122
  0
VERTEX
  8
PLAN_1
 62
     2
  6
CONTINUOUS
 10
-0.695374
 20
3.662122
  0
VERTEX
  8
PLAN_1
 62
     2
  6
CONTINUOUS
 10
-0.692610
 20
3.661201
  0
VERTEX
  8
PLAN_1
 62
     2
  6
CONTINUOUS
 10
-0.690307
 20
3.660280
  0
VERTEX
  8
PLAN_1
 62
     2
  6
CONTINUOUS
 10
-0.688004
 20
3.658898
  0
VERTEX
  8
PLAN_1
 62
     2
  6
CONTINUOUS
 10
-0.686165
 20
3.657516
  0
VERTEX
  8
PLAN_1
 62
     2
  6
CONTINUOUS
 10
-0.684783
 20
3.655673
  0
VERTEX
  8
PLAN_1
 62
     2
  6
CONTINUOUS
 10
-0.683862
 20
3.654295
  0
VERTEX
  8
PLAN_1
 62
     2
  6
CONTINUOUS
 10
-0.682941
 20
3.652913
  0
VERTEX
  8
PLAN_1
 62
     2
  6
CONTINUOUS
 10
-0.682480
 20
3.652913
  0
VERTEX
  8
PLAN_1
 62
     2
  6
CONTINUOUS
 10
-0.682480
 20
3.660740
  0
VERTEX
  8
PLAN_1
 62
     2
  6
CONTINUOUS
 10
-0.674193
 20
3.660740
  0
VERTEX
  8
PLAN_1
 62
     2
  6
CONTINUOUS
 10
-0.674193
 20
3.610551
  0
SEQEND
  8
0
  0
POLYLINE
  8
PLAN_1
 62
     2
  6
CONTINUOUS
 66
     1
 40
0.003000
 41
0.003000
  0
VERTEX
  8
PLAN_1
 62
     2
  6
CONTINUOUS
 10
-0.697673
 20
3.612854
  0
VERTEX
  8
PLAN_1
 62
     2
  6
CONTINUOUS
 10
-0.695374
 20
3.612854
  0
VERTEX
  8
PLAN_1
 62
     2
  6
CONTINUOUS
 10
-0.692610
 20
3.613315
  0
VERTEX
  8
PLAN_1
 62
     2
  6
CONTINUOUS
 10
-0.690307
 20
3.614693
  0
VERTEX
  8
PLAN_1
 62
     2
  6
CONTINUOUS
 10
-0.688004
 20
3.616535
  0
VERTEX
  8
PLAN_1
 62
     2
  6
CONTINUOUS
 10
-0.685705
 20
3.618839
  0
VERTEX
  8
PLAN_1
 62
     2
  6
CONTINUOUS
 10
-0.684323
 20
3.622063
  0
VERTEX
  8
PLAN_1
 62
     2
  6
CONTINUOUS
 10
-0.682941
 20
3.626205
  0
VERTEX
  8
PLAN_1
 62
     2
  6
CONTINUOUS
 10
-0.682480
 20
3.630811
  0
VERTEX
  8
PLAN_1
 62
     2
  6
CONTINUOUS
 10
-0.682941
 20
3.634492
  0
VERTEX
  8
PLAN_1
 62
     2
  6
CONTINUOUS
 10
-0.682941
 20
3.638177
  0
VERTEX
  8
PLAN_1
 62
     2
  6
CONTINUOUS
 10
-0.683862
 20
3.642323
  0
VERTEX
  8
PLAN_1
 62
     2
  6
CONTINUOUS
 10
-0.685244
 20
3.646004
  0
VERTEX
  8
PLAN_1
 62
     2
  6
CONTINUOUS
 10
-0.685705
 20
3.647386
  0
VERTEX
  8
PLAN_1
 62
     2
  6
CONTINUOUS
 10
-0.687083
 20
3.649228
  0
VERTEX
  8
PLAN_1
 62
     2
  6
CONTINUOUS
 10
-0.688004
 20
3.650610
  0
VERTEX
  8
PLAN_1
 62
     2
  6
CONTINUOUS
 10
-0.689386
 20
3.651531
  0
VERTEX
  8
PLAN_1
 62
     2
  6
CONTINUOUS
 10
-0.691228
 20
3.652453
  0
VERTEX
  8
PLAN_1
 62
     2
  6
CONTINUOUS
 10
-0.693071
 20
3.653374
  0
VERTEX
  8
PLAN_1
 62
     2
  6
CONTINUOUS
 10
-0.694913
 20
3.653835
  0
VERTEX
  8
PLAN_1
 62
     2
  6
CONTINUOUS
 10
-0.697213
 20
3.653835
  0
VERTEX
  8
PLAN_1
 62
     2
  6
CONTINUOUS
 10
-0.699976
 20
3.653835
  0
VERTEX
  8
PLAN_1
 62
     2
  6
CONTINUOUS
 10
-0.702280
 20
3.653374
  0
VERTEX
  8
PLAN_1
 62
     2
  6
CONTINUOUS
 10
-0.704122
 20
3.652913
  0
VERTEX
  8
PLAN_1
 62
     2
  6
CONTINUOUS
 10
-0.705504
 20
3.651992
  0
VERTEX
  8
PLAN_1
 62
     2
  6
CONTINUOUS
 10
-0.706886
 20
3.650610
  0
VERTEX
  8
PLAN_1
 62
     2
  6
CONTINUOUS
 10
-0.708264
 20
3.649228
  0
VERTEX
  8
PLAN_1
 62
     2
  6
CONTINUOUS
 10
-0.709185
 20
3.647846
  0
VERTEX
  8
PLAN_1
 62
     2
  6
CONTINUOUS
 10
-0.710106
 20
3.646465
  0
VERTEX
  8
PLAN_1
 62
     2
  6
CONTINUOUS
 10
-0.711488
 20
3.643244
  0
VERTEX
  8
PLAN_1
 62
     2
  6
CONTINUOUS
 10
-0.711949
 20
3.639559
  0
VERTEX
  8
PLAN_1
 62
     2
  6
CONTINUOUS
 10
-0.712409
 20
3.636335
  0
VERTEX
  8
PLAN_1
 62
     2
  6
CONTINUOUS
 10
-0.712409
 20
3.633575
  0
VERTEX
  8
PLAN_1
 62
     2
  6
CONTINUOUS
 10
-0.711949
 20
3.629429
  0
VERTEX
  8
PLAN_1
 62
     2
  6
CONTINUOUS
 10
-0.711488
 20
3.625283
  0
VERTEX
  8
PLAN_1
 62
     2
  6
CONTINUOUS
 10
-0.710106
 20
3.621602
  0
VERTEX
  8
PLAN_1
 62
     2
  6
CONTINUOUS
 10
-0.708724
 20
3.618839
  0
VERTEX
  8
PLAN_1
 62
     2
  6
CONTINUOUS
 10
-0.706425
 20
3.616075
  0
VERTEX
  8
PLAN_1
 62
     2
  6
CONTINUOUS
 10
-0.704122
 20
3.614232
  0
VERTEX
  8
PLAN_1
 62
     2
  6
CONTINUOUS
 10
-0.700898
 20
3.612854
  0
VERTEX
  8
PLAN_1
 62
     2
  6
CONTINUOUS
 10
-0.697673
 20
3.612854
  0
SEQEND
  8
0
  0
POLYLINE
  8
PLAN_1
 62
     2
  6
CONTINUOUS
 66
     1
 40
0.003000
 41
0.003000
  0
VERTEX
  8
PLAN_1
 62
     2
  6
CONTINUOUS
 10
-0.630449
 20
3.645083
  0
VERTEX
  8
PLAN_1
 62
     2
  6
CONTINUOUS
 10
-0.630449
 20
3.646465
  0
VERTEX
  8
PLAN_1
 62
     2
  6
CONTINUOUS
 10
-0.630909
 20
3.648307
  0
VERTEX
  8
PLAN_1
 62
     2
  6
CONTINUOUS
 10
-0.631370
 20
3.649689
  0
VERTEX
  8
PLAN_1
 62
     2
  6
CONTINUOUS
 10
-0.632291
 20
3.651071
  0
VERTEX
  8
PLAN_1
 62
     2
  6
CONTINUOUS
 10
-0.634134
 20
3.652453
  0
VERTEX
  8
PLAN_1
 62
     2
  6
CONTINUOUS
 10
-0.636433
 20
3.653374
  0
VERTEX
  8
PLAN_1
 62
     2
  6
CONTINUOUS
 10
-0.639197
 20
3.654295
  0
VERTEX
  8
PLAN_1
 62
     2
  6
CONTINUOUS
 10
-0.643343
 20
3.654295
  0
VERTEX
  8
PLAN_1
 62
     2
  6
CONTINUOUS
 10
-0.644724
 20
3.654295
  0
VERTEX
  8
PLAN_1
 62
     2
  6
CONTINUOUS
 10
-0.646102
 20
3.654295
  0
VERTEX
  8
PLAN_1
 62
     2
  6
CONTINUOUS
 10
-0.647945
 20
3.653835
  0
VERTEX
  8
PLAN_1
 62
     2
  6
CONTINUOUS
 10
-0.649787
 20
3.652913
  0
VERTEX
  8
PLAN_1
 62
     2
  6
CONTINUOUS
 10
-0.651169
 20
3.651992
  0
VERTEX
  8
PLAN_1
 62
     2
  6
CONTINUOUS
 10
-0.652551
 20
3.650610
  0
VERTEX
  8
PLAN_1
 62
     2
  6
CONTINUOUS
 10
-0.653472
 20
3.648768
  0
VERTEX
  8
PLAN_1
 62
     2
  6
CONTINUOUS
 10
-0.653933
 20
3.646465
  0
VERTEX
  8
PLAN_1
 62
     2
  6
CONTINUOUS
 10
-0.653933
 20
3.645083
  0
VERTEX
  8
PLAN_1
 62
     2
  6
CONTINUOUS
 10
-0.653472
 20
3.643705
  0
VERTEX
  8
PLAN_1
 62
     2
  6
CONTINUOUS
 10
-0.653012
 20
3.642783
  0
VERTEX
  8
PLAN_1
 62
     2
  6
CONTINUOUS
 10
-0.651630
 20
3.641862
  0
VERTEX
  8
PLAN_1
 62
     2
  6
CONTINUOUS
 10
-0.650248
 20
3.641402
  0
VERTEX
  8
PLAN_1
 62
     2
  6
CONTINUOUS
 10
-0.648866
 20
3.640480
  0
VERTEX
  8
PLAN_1
 62
     2
  6
CONTINUOUS
 10
-0.646563
 20
3.640020
  0
VERTEX
  8
PLAN_1
 62
     2
  6
CONTINUOUS
 10
-0.644264
 20
3.639559
  0
VERTEX
  8
PLAN_1
 62
     2
  6
CONTINUOUS
 10
-0.635055
 20
3.637256
  0
VERTEX
  8
PLAN_1
 62
     2
  6
CONTINUOUS
 10
-0.630909
 20
3.635874
  0
VERTEX
  8
PLAN_1
 62
     2
  6
CONTINUOUS
 10
-0.627685
 20
3.634492
  0
VERTEX
  8
PLAN_1
 62
     2
  6
CONTINUOUS
 10
-0.625382
 20
3.633114
  0
VERTEX
  8
PLAN_1
 62
     2
  6
CONTINUOUS
 10
-0.623083
 20
3.631732
  0
VERTEX
  8
PLAN_1
 62
     2
  6
CONTINUOUS
 10
-0.621701
 20
3.629890
  0
VERTEX
  8
PLAN_1
 62
     2
  6
CONTINUOUS
 10
-0.620319
 20
3.627587
  0
VERTEX
  8
PLAN_1
 62
     2
  6
CONTINUOUS
 10
-0.619858
 20
3.625283
  0
VERTEX
  8
PLAN_1
 62
     2
  6
CONTINUOUS
 10
-0.619858
 20
3.622524
  0
VERTEX
  8
PLAN_1
 62
     2
  6
CONTINUOUS
 10
-0.620319
 20
3.618839
  0
VERTEX
  8
PLAN_1
 62
     2
  6
CONTINUOUS
 10
-0.621240
 20
3.615154
  0
VERTEX
  8
PLAN_1
 62
     2
  6
CONTINUOUS
 10
-0.623083
 20
3.611933
  0
VERTEX
  8
PLAN_1
 62
     2
  6
CONTINUOUS
 10
-0.625843
 20
3.609630
  0
VERTEX
  8
PLAN_1
 62
     2
  6
CONTINUOUS
 10
-0.629067
 20
3.607327
  0
VERTEX
  8
PLAN_1
 62
     2
  6
CONTINUOUS
 10
-0.632752
 20
3.605945
  0
VERTEX
  8
PLAN_1
 62
     2
  6
CONTINUOUS
 10
-0.636894
 20
3.605024
  0
VERTEX
  8
PLAN_1
 62
     2
  6
CONTINUOUS
 10
-0.641039
 20
3.604563
  0
VERTEX
  8
PLAN_1
 62
     2
  6
CONTINUOUS
 10
-0.645185
 20
3.605024
  0
VERTEX
  8
PLAN_1
 62
     2
  6
CONTINUOUS
 10
-0.648406
 20
3.605484
  0
VERTEX
  8
PLAN_1
 62
     2
  6
CONTINUOUS
 10
-0.651169
 20
3.605945
  0
VERTEX
  8
PLAN_1
 62
     2
  6
CONTINUOUS
 10
-0.653933
 20
3.606866
  0
VERTEX
  8
PLAN_1
 62
     2
  6
CONTINUOUS
 10
-0.656232
 20
3.607787
  0
VERTEX
  8
PLAN_1
 62
     2
  6
CONTINUOUS
 10
-0.658075
 20
3.609169
  0
VERTEX
  8
PLAN_1
 62
     2
  6
CONTINUOUS
 10
-0.659457
 20
3.610551
  0
VERTEX
  8
PLAN_1
 62
     2
  6
CONTINUOUS
 10
-0.660839
 20
3.611933
  0
VERTEX
  8
PLAN_1
 62
     2
  6
CONTINUOUS
 10
-0.662681
 20
3.614693
  0
VERTEX
  8
PLAN_1
 62
     2
  6
CONTINUOUS
 10
-0.664063
 20
3.617917
  0
VERTEX
  8
PLAN_1
 62
     2
  6
CONTINUOUS
 10
-0.664524
 20
3.621142
  0
VERTEX
  8
PLAN_1
 62
     2
  6
CONTINUOUS
 10
-0.664524
 20
3.623906
  0
VERTEX
  8
PLAN_1
 62
     2
  6
CONTINUOUS
 10
-0.655772
 20
3.623906
  0
VERTEX
  8
PLAN_1
 62
     2
  6
CONTINUOUS
 10
-0.655772
 20
3.622063
  0
VERTEX
  8
PLAN_1
 62
     2
  6
CONTINUOUS
 10
-0.655315
 20
3.620220
  0
VERTEX
  8
PLAN_1
 62
     2
  6
CONTINUOUS
 10
-0.654394
 20
3.618378
  0
VERTEX
  8
PLAN_1
 62
     2
  6
CONTINUOUS
 10
-0.653472
 20
3.616535
  0
VERTEX
  8
PLAN_1
 62
     2
  6
CONTINUOUS
 10
-0.651630
 20
3.615154
  0
VERTEX
  8
PLAN_1
 62
     2
  6
CONTINUOUS
 10
-0.648866
 20
3.613772
  0
VERTEX
  8
PLAN_1
 62
     2
  6
CONTINUOUS
 10
-0.645642
 20
3.612854
  0
VERTEX
  8
PLAN_1
 62
     2
  6
CONTINUOUS
 10
-0.641500
 20
3.612854
  0
VERTEX
  8
PLAN_1
 62
     2
  6
CONTINUOUS
 10
-0.638736
 20
3.612854
  0
VERTEX
  8
PLAN_1
 62
     2
  6
CONTINUOUS
 10
-0.636433
 20
3.613315
  0
VERTEX
  8
PLAN_1
 62
     2
  6
CONTINUOUS
 10
-0.634594
 20
3.613772
  0
VERTEX
  8
PLAN_1
 62
     2
  6
CONTINUOUS
 10
-0.632752
 20
3.614693
  0
VERTEX
  8
PLAN_1
 62
     2
  6
CONTINUOUS
 10
-0.630909
 20
3.616075
  0
VERTEX
  8
PLAN_1
 62
     2
  6
CONTINUOUS
 10
-0.629988
 20
3.617457
  0
VERTEX
  8
PLAN_1
 62
     2
  6
CONTINUOUS
 10
-0.629067
 20
3.619299
  0
VERTEX
  8
PLAN_1
 62
     2
  6
CONTINUOUS
 10
-0.629067
 20
3.621142
  0
VERTEX
  8
PLAN_1
 62
     2
  6
CONTINUOUS
 10
-0.629067
 20
3.622984
  0
VERTEX
  8
PLAN_1
 62
     2
  6
CONTINUOUS
 10
-0.629528
 20
3.623906
  0
VERTEX
  8
PLAN_1
 62
     2
  6
CONTINUOUS
 10
-0.630449
 20
3.625283
  0
VERTEX
  8
PLAN_1
 62
     2
  6
CONTINUOUS
 10
-0.631370
 20
3.626205
  0
VERTEX
  8
PLAN_1
 62
     2
  6
CONTINUOUS
 10
-0.632752
 20
3.627126
  0
VERTEX
  8
PLAN_1
 62
     2
  6
CONTINUOUS
 10
-0.634594
 20
3.627587
  0
VERTEX
  8
PLAN_1
 62
     2
  6
CONTINUOUS
 10
-0.636894
 20
3.628508
  0
VERTEX
  8
PLAN_1
 62
     2
  6
CONTINUOUS
 10
-0.639657
 20
3.628969
  0
VERTEX
  8
PLAN_1
 62
     2
  6
CONTINUOUS
 10
-0.650248
 20
3.631732
  0
VERTEX
  8
PLAN_1
 62
     2
  6
CONTINUOUS
 10
-0.653012
 20
3.632654
  0
VERTEX
  8
PLAN_1
 62
     2
  6
CONTINUOUS
 10
-0.655315
 20
3.633575
  0
VERTEX
  8
PLAN_1
 62
     2
  6
CONTINUOUS
 10
-0.657614
 20
3.634492
  0
VERTEX
  8
PLAN_1
 62
     2
  6
CONTINUOUS
 10
-0.659457
 20
3.636335
  0
VERTEX
  8
PLAN_1
 62
     2
  6
CONTINUOUS
 10
-0.660839
 20
3.637717
  0
VERTEX
  8
PLAN_1
 62
     2
  6
CONTINUOUS
 10
-0.662220
 20
3.640020
  0
VERTEX
  8
PLAN_1
 62
     2
  6
CONTINUOUS
 10
-0.662681
 20
3.642323
  0
VERTEX
  8
PLAN_1
 62
     2
  6
CONTINUOUS
 10
-0.662681
 20
3.645083
  0
VERTEX
  8
PLAN_1
 62
     2
  6
CONTINUOUS
 10
-0.662681
 20
3.646925
  0
VERTEX
  8
PLAN_1
 62
     2
  6
CONTINUOUS
 10
-0.662220
 20
3.649228
  0
VERTEX
  8
PLAN_1
 62
     2
  6
CONTINUOUS
 10
-0.661760
 20
3.651071
  0
VERTEX
  8
PLAN_1
 62
     2
  6
CONTINUOUS
 10
-0.661299
 20
3.652453
  0
VERTEX
  8
PLAN_1
 62
     2
  6
CONTINUOUS
 10
-0.658996
 20
3.655673
  0
VERTEX
  8
PLAN_1
 62
     2
  6
CONTINUOUS
 10
-0.656693
 20
3.657976
  0
VERTEX
  8
PLAN_1
 62
     2
  6
CONTINUOUS
 10
-0.653472
 20
3.659819
  0
VERTEX
  8
PLAN_1
 62
     2
  6
CONTINUOUS
 10
-0.650248
 20
3.661201
  0
VERTEX
  8
PLAN_1
 62
     2
  6
CONTINUOUS
 10
-0.646102
 20
3.662122
  0
VERTEX
  8
PLAN_1
 62
     2
  6
CONTINUOUS
 10
-0.642421
 20
3.662122
  0
VERTEX
  8
PLAN_1
 62
     2
  6
CONTINUOUS
 10
-0.638736
 20
3.662122
  0
VERTEX
  8
PLAN_1
 62
     2
  6
CONTINUOUS
 10
-0.635972
 20
3.661661
  0
VERTEX
  8
PLAN_1
 62
     2
  6
CONTINUOUS
 10
-0.633213
 20
3.660740
  0
VERTEX
  8
PLAN_1
 62
     2
  6
CONTINUOUS
 10
-0.630909
 20
3.659819
  0
VERTEX
  8
PLAN_1
 62
     2
  6
CONTINUOUS
 10
-0.629067
 20
3.658898
  0
VERTEX
  8
PLAN_1
 62
     2
  6
CONTINUOUS
 10
-0.627224
 20
3.657516
  0
VERTEX
  8
PLAN_1
 62
     2
  6
CONTINUOUS
 10
-0.625843
 20
3.656134
  0
VERTEX
  8
PLAN_1
 62
     2
  6
CONTINUOUS
 10
-0.624465
 20
3.654756
  0
VERTEX
  8
PLAN_1
 62
     2
  6
CONTINUOUS
 10
-0.623083
 20
3.651992
  0
VERTEX
  8
PLAN_1
 62
     2
  6
CONTINUOUS
 10
-0.622161
 20
3.649228
  0
VERTEX
  8
PLAN_1
 62
     2
  6
CONTINUOUS
 10
-0.621701
 20
3.646925
  0
VERTEX
  8
PLAN_1
 62
     2
  6
CONTINUOUS
 10
-0.621701
 20
3.645083
  0
VERTEX
  8
PLAN_1
 62
     2
  6
CONTINUOUS
 10
-0.630449
 20
3.645083
  0
SEQEND
  8
0
  0
POLYLINE
  8
PLAN_1
 62
     2
  6
CONTINUOUS
 66
     1
 40
0.003000
 41
0.003000
  0
VERTEX
  8
PLAN_1
 62
     2
  6
CONTINUOUS
 10
-1.257126
 20
3.545626
  0
VERTEX
  8
PLAN_1
 62
     2
  6
CONTINUOUS
 10
-1.255287
 20
3.542402
  0
VERTEX
  8
PLAN_1
 62
     2
  6
CONTINUOUS
 10
-1.253445
 20
3.539181
  0
VERTEX
  8
PLAN_1
 62
     2
  6
CONTINUOUS
 10
-1.252063
 20
3.535496
  0
VERTEX
  8
PLAN_1
 62
     2
  6
CONTINUOUS
 10
-1.250681
 20
3.532272
  0
VERTEX
  8
PLAN_1
 62
     2
  6
CONTINUOUS
 10
-1.249760
 20
3.528591
  0
VERTEX
  8
PLAN_1
 62
     2
  6
CONTINUOUS
 10
-1.249299
 20
3.525366
  0
VERTEX
  8
PLAN_1
 62
     2
  6
CONTINUOUS
 10
-1.248839
 20
3.522142
  0
VERTEX
  8
PLAN_1
 62
     2
  6
CONTINUOUS
 10
-1.248839
 20
3.518921
  0
VERTEX
  8
PLAN_1
 62
     2
  6
CONTINUOUS
 10
-1.249299
 20
3.512472
  0
VERTEX
  8
PLAN_1
 62
     2
  6
CONTINUOUS
 10
-1.250681
 20
3.505567
  0
VERTEX
  8
PLAN_1
 62
     2
  6
CONTINUOUS
 10
-1.251602
 20
3.502343
  0
VERTEX
  8
PLAN_1
 62
     2
  6
CONTINUOUS
 10
-1.252984
 20
3.499122
  0
VERTEX
  8
PLAN_1
 62
     2
  6
CONTINUOUS
 10
-1.254827
 20
3.495898
  0
VERTEX
  8
PLAN_1
 62
     2
  6
CONTINUOUS
 10
-1.256665
 20
3.493134
  0
VERTEX
  8
PLAN_1
 62
     2
  6
CONTINUOUS
 10
-1.258969
 20
3.490370
  0
VERTEX
  8
PLAN_1
 62
     2
  6
CONTINUOUS
 10
-1.261272
 20
3.487610
  0
VERTEX
  8
PLAN_1
 62
     2
  6
CONTINUOUS
 10
-1.264496
 20
3.485307
  0
VERTEX
  8
PLAN_1
 62
     2
  6
CONTINUOUS
 10
-1.267717
 20
3.483465
  0
VERTEX
  8
PLAN_1
 62
     2
  6
CONTINUOUS
 10
-1.271402
 20
3.481622
  0
VERTEX
  8
PLAN_1
 62
     2
  6
CONTINUOUS
 10
-1.275547
 20
3.480240
  0
VERTEX
  8
PLAN_1
 62
     2
  6
CONTINUOUS
 10
-1.280150
 20
3.479780
  0
VERTEX
  8
PLAN_1
 62
     2
  6
CONTINUOUS
 10
-1.285217
 20
3.479319
  0
VERTEX
  8
PLAN_1
 62
     2
  6
CONTINUOUS
 10
-1.289358
 20
3.479319
  0
VERTEX
  8
PLAN_1
 62
     2
  6
CONTINUOUS
 10
-1.293043
 20
3.480240
  0
VERTEX
  8
PLAN_1
 62
     2
  6
CONTINUOUS
 10
-1.296268
 20
3.480701
  0
VERTEX
  8
PLAN_1
 62
     2
  6
CONTINUOUS
 10
-1.299488
 20
3.482083
  0
VERTEX
  8
PLAN_1
 62
     2
  6
CONTINUOUS
 10
-1.302252
 20
3.483004
  0
VERTEX
  8
PLAN_1
 62
     2
  6
CONTINUOUS
 10
-1.305016
 20
3.484846
  0
VERTEX
  8
PLAN_1
 62
     2
  6
CONTINUOUS
 10
-1.307319
 20
3.486689
  0
VERTEX
  8
PLAN_1
 62
     2
  6
CONTINUOUS
 10
-1.309618
 20
3.488531
  0
VERTEX
  8
PLAN_1
 62
     2
  6
CONTINUOUS
 10
-1.317906
 20
3.479319
  0
VERTEX
  8
PLAN_1
 62
     2
  6
CONTINUOUS
 10
-1.321591
 20
3.482083
  0
VERTEX
  8
PLAN_1
 62
     2
  6
CONTINUOUS
 10
-1.312843
 20
3.491752
  0
VERTEX
  8
PLAN_1
 62
     2
  6
CONTINUOUS
 10
-1.315146
 20
3.494976
  0
VERTEX
  8
PLAN_1
 62
     2
  6
CONTINUOUS
 10
-1.316988
 20
3.498201
  0
VERTEX
  8
PLAN_1
 62
     2
  6
CONTINUOUS
 10
-1.318366
 20
3.501421
  0
VERTEX
  8
PLAN_1
 62
     2
  6
CONTINUOUS
 10
-1.319748
 20
3.505106
  0
VERTEX
  8
PLAN_1
 62
     2
  6
CONTINUOUS
 10
-1.320669
 20
3.508331
  0
VERTEX
  8
PLAN_1
 62
     2
  6
CONTINUOUS
 10
-1.321130
 20
3.512012
  0
VERTEX
  8
PLAN_1
 62
     2
  6
CONTINUOUS
 10
-1.321591
 20
3.515236
  0
VERTEX
  8
PLAN_1
 62
     2
  6
CONTINUOUS
 10
-1.321591
 20
3.518921
  0
VERTEX
  8
PLAN_1
 62
     2
  6
CONTINUOUS
 10
-1.321130
 20
3.524906
  0
VERTEX
  8
PLAN_1
 62
     2
  6
CONTINUOUS
 10
-1.319748
 20
3.531811
  0
VERTEX
  8
PLAN_1
 62
     2
  6
CONTINUOUS
 10
-1.318827
 20
3.535035
  0
VERTEX
  8
PLAN_1
 62
     2
  6
CONTINUOUS
 10
-1.317449
 20
3.538260
  0
VERTEX
  8
PLAN_1
 62
     2
  6
CONTINUOUS
 10
-1.315606
 20
3.541480
  0
VERTEX
  8
PLAN_1
 62
     2
  6
CONTINUOUS
 10
-1.313764
 20
3.544244
  0
VERTEX
  8
PLAN_1
 62
     2
  6
CONTINUOUS
 10
-1.311461
 20
3.547008
  0
VERTEX
  8
PLAN_1
 62
     2
  6
CONTINUOUS
 10
-1.309157
 20
3.549772
  0
VERTEX
  8
PLAN_1
 62
     2
  6
CONTINUOUS
 10
-1.305937
 20
3.552071
  0
VERTEX
  8
PLAN_1
 62
     2
  6
CONTINUOUS
 10
-1.302713
 20
3.553913
  0
VERTEX
  8
PLAN_1
 62
     2
  6
CONTINUOUS
 10
-1.299028
 20
3.555756
  0
VERTEX
  8
PLAN_1
 62
     2
  6
CONTINUOUS
 10
-1.294886
 20
3.557138
  0
VERTEX
  8
PLAN_1
 62
     2
  6
CONTINUOUS
 10
-1.290280
 20
3.557598
  0
VERTEX
  8
PLAN_1
 62
     2
  6
CONTINUOUS
 10
-1.285217
 20
3.558059
  0
VERTEX
  8
PLAN_1
 62
     2
  6
CONTINUOUS
 10
-1.281071
 20
3.558059
  0
VERTEX
  8
PLAN_1
 62
     2
  6
CONTINUOUS
 10
-1.277386
 20
3.557138
  0
VERTEX
  8
PLAN_1
 62
     2
  6
CONTINUOUS
 10
-1.273705
 20
3.556677
  0
VERTEX
  8
PLAN_1
 62
     2
  6
CONTINUOUS
 10
-1.270480
 20
3.555295
  0
VERTEX
  8
PLAN_1
 62
     2
  6
CONTINUOUS
 10
-1.267717
 20
3.553913
  0
VERTEX
  8
PLAN_1
 62
     2
  6
CONTINUOUS
 10
-1.264957
 20
3.552531
  0
VERTEX
  8
PLAN_1
 62
     2
  6
CONTINUOUS
 10
-1.262654
 20
3.550693
  0
VERTEX
  8
PLAN_1
 62
     2
  6
CONTINUOUS
 10
-1.260350
 20
3.548850
  0
VERTEX
  8
PLAN_1
 62
     2
  6
CONTINUOUS
 10
-1.252063
 20
3.558059
  0
VERTEX
  8
PLAN_1
 62
     2
  6
CONTINUOUS
 10
-1.248839
 20
3.554835
  0
VERTEX
  8
PLAN_1
 62
     2
  6
CONTINUOUS
 10
-1.257126
 20
3.545626
  0
SEQEND
  8
0
  0
POLYLINE
  8
PLAN_1
 62
     2
  6
CONTINUOUS
 66
     1
 40
0.003000
 41
0.003000
  0
VERTEX
  8
PLAN_1
 62
     2
  6
CONTINUOUS
 10
-1.303173
 20
3.495898
  0
VERTEX
  8
PLAN_1
 62
     2
  6
CONTINUOUS
 10
-1.301331
 20
3.494055
  0
VERTEX
  8
PLAN_1
 62
     2
  6
CONTINUOUS
 10
-1.299488
 20
3.492673
  0
VERTEX
  8
PLAN_1
 62
     2
  6
CONTINUOUS
 10
-1.297646
 20
3.491291
  0
VERTEX
  8
PLAN_1
 62
     2
  6
CONTINUOUS
 10
-1.295346
 20
3.490370
  0
VERTEX
  8
PLAN_1
 62
     2
  6
CONTINUOUS
 10
-1.293043
 20
3.489453
  0
VERTEX
  8
PLAN_1
 62
     2
  6
CONTINUOUS
 10
-1.290740
 20
3.488992
  0
VERTEX
  8
PLAN_1
 62
     2
  6
CONTINUOUS
 10
-1.287976
 20
3.488531
  0
VERTEX
  8
PLAN_1
 62
     2
  6
CONTINUOUS
 10
-1.285217
 20
3.488531
  0
VERTEX
  8
PLAN_1
 62
     2
  6
CONTINUOUS
 10
-1.282453
 20
3.488531
  0
VERTEX
  8
PLAN_1
 62
     2
  6
CONTINUOUS
 10
-1.279228
 20
3.488992
  0
VERTEX
  8
PLAN_1
 62
     2
  6
CONTINUOUS
 10
-1.276925
 20
3.489453
  0
VERTEX
  8
PLAN_1
 62
     2
  6
CONTINUOUS
 10
-1.274165
 20
3.490370
  0
VERTEX
  8
PLAN_1
 62
     2
  6
CONTINUOUS
 10
-1.271862
 20
3.491752
  0
VERTEX
  8
PLAN_1
 62
     2
  6
CONTINUOUS
 10
-1.270020
 20
3.493134
  0
VERTEX
  8
PLAN_1
 62
     2
  6
CONTINUOUS
 10
-1.267717
 20
3.494976
  0
VERTEX
  8
PLAN_1
 62
     2
  6
CONTINUOUS
 10
-1.266335
 20
3.496819
  0
VERTEX
  8
PLAN_1
 62
     2
  6
CONTINUOUS
 10
-1.264496
 20
3.499122
  0
VERTEX
  8
PLAN_1
 62
     2
  6
CONTINUOUS
 10
-1.263114
 20
3.501421
  0
VERTEX
  8
PLAN_1
 62
     2
  6
CONTINUOUS
 10
-1.262193
 20
3.503724
  0
VERTEX
  8
PLAN_1
 62
     2
  6
CONTINUOUS
 10
-1.260811
 20
3.506488
  0
VERTEX
  8
PLAN_1
 62
     2
  6
CONTINUOUS
 10
-1.260350
 20
3.509252
  0
VERTEX
  8
PLAN_1
 62
     2
  6
CONTINUOUS
 10
-1.259890
 20
3.512472
  0
VERTEX
  8
PLAN_1
 62
     2
  6
CONTINUOUS
 10
-1.259429
 20
3.515236
  0
VERTEX
  8
PLAN_1
 62
     2
  6
CONTINUOUS
 10
-1.259429
 20
3.518921
  0
VERTEX
  8
PLAN_1
 62
     2
  6
CONTINUOUS
 10
-1.259429
 20
3.521220
  0
VERTEX
  8
PLAN_1
 62
     2
  6
CONTINUOUS
 10
-1.259429
 20
3.523984
  0
VERTEX
  8
PLAN_1
 62
     2
  6
CONTINUOUS
 10
-1.259890
 20
3.526748
  0
VERTEX
  8
PLAN_1
 62
     2
  6
CONTINUOUS
 10
-1.260350
 20
3.529051
  0
VERTEX
  8
PLAN_1
 62
     2
  6
CONTINUOUS
 10
-1.261272
 20
3.531350
  0
VERTEX
  8
PLAN_1
 62
     2
  6
CONTINUOUS
 10
-1.262193
 20
3.533654
  0
VERTEX
  8
PLAN_1
 62
     2
  6
CONTINUOUS
 10
-1.263114
 20
3.535957
  0
VERTEX
  8
PLAN_1
 62
     2
  6
CONTINUOUS
 10
-1.264496
 20
3.537799
  0
VERTEX
  8
PLAN_1
 62
     2
  6
CONTINUOUS
 10
-1.303173
 20
3.495898
  0
SEQEND
  8
0
  0
POLYLINE
  8
PLAN_1
 62
     2
  6
CONTINUOUS
 66
     1
 40
0.003000
 41
0.003000
  0
VERTEX
  8
PLAN_1
 62
     2
  6
CONTINUOUS
 10
-1.266795
 20
3.541480
  0
VERTEX
  8
PLAN_1
 62
     2
  6
CONTINUOUS
 10
-1.268638
 20
3.543323
  0
VERTEX
  8
PLAN_1
 62
     2
  6
CONTINUOUS
 10
-1.270480
 20
3.544705
  0
VERTEX
  8
PLAN_1
 62
     2
  6
CONTINUOUS
 10
-1.272783
 20
3.546087
  0
VERTEX
  8
PLAN_1
 62
     2
  6
CONTINUOUS
 10
-1.275087
 20
3.547008
  0
VERTEX
  8
PLAN_1
 62
     2
  6
CONTINUOUS
 10
-1.277386
 20
3.547929
  0
VERTEX
  8
PLAN_1
 62
     2
  6
CONTINUOUS
 10
-1.279689
 20
3.548390
  0
VERTEX
  8
PLAN_1
 62
     2
  6
CONTINUOUS
 10
-1.282453
 20
3.548850
  0
VERTEX
  8
PLAN_1
 62
     2
  6
CONTINUOUS
 10
-1.285217
 20
3.548850
  0
VERTEX
  8
PLAN_1
 62
     2
  6
CONTINUOUS
 10
-1.287976
 20
3.548850
  0
VERTEX
  8
PLAN_1
 62
     2
  6
CONTINUOUS
 10
-1.291201
 20
3.548390
  0
VERTEX
  8
PLAN_1
 62
     2
  6
CONTINUOUS
 10
-1.293504
 20
3.547929
  0
VERTEX
  8
PLAN_1
 62
     2
  6
CONTINUOUS
 10
-1.296268
 20
3.547008
  0
VERTEX
  8
PLAN_1
 62
     2
  6
CONTINUOUS
 10
-1.298567
 20
3.545626
  0
VERTEX
  8
PLAN_1
 62
     2
  6
CONTINUOUS
 10
-1.300409
 20
3.544244
  0
VERTEX
  8
PLAN_1
 62
     2
  6
CONTINUOUS
 10
-1.302713
 20
3.542402
  0
VERTEX
  8
PLAN_1
 62
     2
  6
CONTINUOUS
 10
-1.304094
 20
3.540563
  0
VERTEX
  8
PLAN_1
 62
     2
  6
CONTINUOUS
 10
-1.305937
 20
3.538260
  0
VERTEX
  8
PLAN_1
 62
     2
  6
CONTINUOUS
 10
-1.307319
 20
3.535957
  0
VERTEX
  8
PLAN_1
 62
     2
  6
CONTINUOUS
 10
-1.308236
 20
3.533654
  0
VERTEX
  8
PLAN_1
 62
     2
  6
CONTINUOUS
 10
-1.309618
 20
3.530894
  0
VERTEX
  8
PLAN_1
 62
     2
  6
CONTINUOUS
 10
-1.310079
 20
3.528130
  0
VERTEX
  8
PLAN_1
 62
     2
  6
CONTINUOUS
 10
-1.310539
 20
3.524906
  0
VERTEX
  8
PLAN_1
 62
     2
  6
CONTINUOUS
 10
-1.311000
 20
3.522142
  0
VERTEX
  8
PLAN_1
 62
     2
  6
CONTINUOUS
 10
-1.311000
 20
3.518921
  0
VERTEX
  8
PLAN_1
 62
     2
  6
CONTINUOUS
 10
-1.311000
 20
3.515697
  0
VERTEX
  8
PLAN_1
 62
     2
  6
CONTINUOUS
 10
-1.311000
 20
3.513394
  0
VERTEX
  8
PLAN_1
 62
     2
  6
CONTINUOUS
 10
-1.310539
 20
3.510630
  0
VERTEX
  8
PLAN_1
 62
     2
  6
CONTINUOUS
 10
-1.309618
 20
3.507870
  0
VERTEX
  8
PLAN_1
 62
     2
  6
CONTINUOUS
 10
-1.309157
 20
3.505567
  0
VERTEX
  8
PLAN_1
 62
     2
  6
CONTINUOUS
 10
-1.308236
 20
3.503264
  0
VERTEX
  8
PLAN_1
 62
     2
  6
CONTINUOUS
 10
-1.307319
 20
3.500961
  0
VERTEX
  8
PLAN_1
 62
     2
  6
CONTINUOUS
 10
-1.305937
 20
3.499122
  0
VERTEX
  8
PLAN_1
 62
     2
  6
CONTINUOUS
 10
-1.266795
 20
3.541480
  0
SEQEND
  8
0
  0
POLYLINE
  8
PLAN_1
 62
     2
  6
CONTINUOUS
 66
     1
 40
0.003000
 41
0.003000
  0
VERTEX
  8
PLAN_1
 62
     2
  6
CONTINUOUS
 10
-1.229500
 20
3.523984
  0
VERTEX
  8
PLAN_1
 62
     2
  6
CONTINUOUS
 10
-1.228118
 20
3.524906
  0
VERTEX
  8
PLAN_1
 62
     2
  6
CONTINUOUS
 10
-1.226736
 20
3.525827
  0
VERTEX
  8
PLAN_1
 62
     2
  6
CONTINUOUS
 10
-1.225354
 20
3.526287
  0
VERTEX
  8
PLAN_1
 62
     2
  6
CONTINUOUS
 10
-1.223516
 20
3.527209
  0
VERTEX
  8
PLAN_1
 62
     2
  6
CONTINUOUS
 10
-1.221673
 20
3.527669
  0
VERTEX
  8
PLAN_1
 62
     2
  6
CONTINUOUS
 10
-1.219831
 20
3.528130
  0
VERTEX
  8
PLAN_1
 62
     2
  6
CONTINUOUS
 10
-1.217528
 20
3.528591
  0
VERTEX
  8
PLAN_1
 62
     2
  6
CONTINUOUS
 10
-1.215224
 20
3.528591
  0
VERTEX
  8
PLAN_1
 62
     2
  6
CONTINUOUS
 10
-1.210622
 20
3.528130
  0
VERTEX
  8
PLAN_1
 62
     2
  6
CONTINUOUS
 10
-1.206476
 20
3.526748
  0
VERTEX
  8
PLAN_1
 62
     2
  6
CONTINUOUS
 10
-1.202335
 20
3.524906
  0
VERTEX
  8
PLAN_1
 62
     2
  6
CONTINUOUS
 10
-1.198650
 20
3.522602
  0
VERTEX
  8
PLAN_1
 62
     2
  6
CONTINUOUS
 10
-1.197268
 20
3.520760
  0
VERTEX
  8
PLAN_1
 62
     2
  6
CONTINUOUS
 10
-1.195886
 20
3.518921
  0
VERTEX
  8
PLAN_1
 62
     2
  6
CONTINUOUS
 10
-1.194504
 20
3.517079
  0
VERTEX
  8
PLAN_1
 62
     2
  6
CONTINUOUS
 10
-1.193126
 20
3.515236
  0
VERTEX
  8
PLAN_1
 62
     2
  6
CONTINUOUS
 10
-1.192205
 20
3.512933
  0
VERTEX
  8
PLAN_1
 62
     2
  6
CONTINUOUS
 10
-1.191744
 20
3.510173
  0
VERTEX
  8
PLAN_1
 62
     2
  6
CONTINUOUS
 10
-1.191283
 20
3.507870
  0
VERTEX
  8
PLAN_1
 62
     2
  6
CONTINUOUS
 10
-1.191283
 20
3.505106
  0
VERTEX
  8
PLAN_1
 62
     2
  6
CONTINUOUS
 10
-1.191283
 20
3.501421
  0
VERTEX
  8
PLAN_1
 62
     2
  6
CONTINUOUS
 10
-1.192205
 20
3.497740
  0
VERTEX
  8
PLAN_1
 62
     2
  6
CONTINUOUS
 10
-1.193587
 20
3.493134
  0
VERTEX
  8
PLAN_1
 62
     2
  6
CONTINUOUS
 10
-1.195886
 20
3.488992
  0
VERTEX
  8
PLAN_1
 62
     2
  6
CONTINUOUS
 10
-1.197268
 20
3.487150
  0
VERTEX
  8
PLAN_1
 62
     2
  6
CONTINUOUS
 10
-1.199110
 20
3.485307
  0
VERTEX
  8
PLAN_1
 62
     2
  6
CONTINUOUS
 10
-1.201413
 20
3.483465
  0
VERTEX
  8
PLAN_1
 62
     2
  6
CONTINUOUS
 10
-1.203717
 20
3.482083
  0
VERTEX
  8
PLAN_1
 62
     2
  6
CONTINUOUS
 10
-1.206937
 20
3.481161
  0
VERTEX
  8
PLAN_1
 62
     2
  6
CONTINUOUS
 10
-1.210161
 20
3.480240
  0
VERTEX
  8
PLAN_1
 62
     2
  6
CONTINUOUS
 10
-1.213846
 20
3.479780
  0
VERTEX
  8
PLAN_1
 62
     2
  6
CONTINUOUS
 10
-1.217528
 20
3.479319
  0
VERTEX
  8
PLAN_1
 62
     2
  6
CONTINUOUS
 10
-1.221213
 20
3.479780
  0
VERTEX
  8
PLAN_1
 62
     2
  6
CONTINUOUS
 10
-1.225354
 20
3.480240
  0
VERTEX
  8
PLAN_1
 62
     2
  6
CONTINUOUS
 10
-1.229039
 20
3.481622
  0
VERTEX
  8
PLAN_1
 62
     2
  6
CONTINUOUS
 10
-1.232264
 20
3.483465
  0
VERTEX
  8
PLAN_1
 62
     2
  6
CONTINUOUS
 10
-1.234106
 20
3.484386
  0
VERTEX
  8
PLAN_1
 62
     2
  6
CONTINUOUS
 10
-1.235484
 20
3.485768
  0
VERTEX
  8
PLAN_1
 62
     2
  6
CONTINUOUS
 10
-1.236866
 20
3.487610
  0
VERTEX
  8
PLAN_1
 62
     2
  6
CONTINUOUS
 10
-1.238248
 20
3.489453
  0
VERTEX
  8
PLAN_1
 62
     2
  6
CONTINUOUS
 10
-1.239169
 20
3.491752
  0
VERTEX
  8
PLAN_1
 62
     2
  6
CONTINUOUS
 10
-1.240091
 20
3.494055
  0
VERTEX
  8
PLAN_1
 62
     2
  6
CONTINUOUS
 10
-1.241012
 20
3.496819
  0
VERTEX
  8
PLAN_1
 62
     2
  6
CONTINUOUS
 10
-1.241472
 20
3.499583
  0
VERTEX
  8
PLAN_1
 62
     2
  6
CONTINUOUS
 10
-1.231803
 20
3.499583
  0
VERTEX
  8
PLAN_1
 62
     2
  6
CONTINUOUS
 10
-1.231343
 20
3.496358
  0
VERTEX
  8
PLAN_1
 62
     2
  6
CONTINUOUS
 10
-1.230421
 20
3.494055
  0
VERTEX
  8
PLAN_1
 62
     2
  6
CONTINUOUS
 10
-1.228579
 20
3.491752
  0
VERTEX
  8
PLAN_1
 62
     2
  6
CONTINUOUS
 10
-1.226736
 20
3.490370
  0
VERTEX
  8
PLAN_1
 62
     2
  6
CONTINUOUS
 10
-1.224437
 20
3.488992
  0
VERTEX
  8
PLAN_1
 62
     2
  6
CONTINUOUS
 10
-1.222134
 20
3.488071
  0
VERTEX
  8
PLAN_1
 62
     2
  6
CONTINUOUS
 10
-1.219370
 20
3.487610
  0
VERTEX
  8
PLAN_1
 62
     2
  6
CONTINUOUS
 10
-1.216146
 20
3.487150
  0
VERTEX
  8
PLAN_1
 62
     2
  6
CONTINUOUS
 10
-1.212925
 20
3.487610
  0
VERTEX
  8
PLAN_1
 62
     2
  6
CONTINUOUS
 10
-1.210161
 20
3.488531
  0
VERTEX
  8
PLAN_1
 62
     2
  6
CONTINUOUS
 10
-1.207398
 20
3.490370
  0
VERTEX
  8
PLAN_1
 62
     2
  6
CONTINUOUS
 10
-1.205094
 20
3.492213
  0
VERTEX
  8
PLAN_1
 62
     2
  6
CONTINUOUS
 10
-1.203256
 20
3.494516
  0
VERTEX
  8
PLAN_1
 62
     2
  6
CONTINUOUS
 10
-1.201874
 20
3.497740
  0
VERTEX
  8
PLAN_1
 62
     2
  6
CONTINUOUS
 10
-1.201413
 20
3.500500
  0
VERTEX
  8
PLAN_1
 62
     2
  6
CONTINUOUS
 10
-1.200953
 20
3.504185
  0
VERTEX
  8
PLAN_1
 62
     2
  6
CONTINUOUS
 10
-1.201413
 20
3.507870
  0
VERTEX
  8
PLAN_1
 62
     2
  6
CONTINUOUS
 10
-1.202335
 20
3.511091
  0
VERTEX
  8
PLAN_1
 62
     2
  6
CONTINUOUS
 10
-1.203717
 20
3.513854
  0
VERTEX
  8
PLAN_1
 62
     2
  6
CONTINUOUS
 10
-1.205555
 20
3.516157
  0
VERTEX
  8
PLAN_1
 62
     2
  6
CONTINUOUS
 10
-1.208319
 20
3.518000
  0
VERTEX
  8
PLAN_1
 62
     2
  6
CONTINUOUS
 10
-1.211083
 20
3.519382
  0
VERTEX
  8
PLAN_1
 62
     2
  6
CONTINUOUS
 10
-1.213846
 20
3.519843
  0
VERTEX
  8
PLAN_1
 62
     2
  6
CONTINUOUS
 10
-1.217067
 20
3.520303
  0
VERTEX
  8
PLAN_1
 62
     2
  6
CONTINUOUS
 10
-1.219370
 20
3.520303
  0
VERTEX
  8
PLAN_1
 62
     2
  6
CONTINUOUS
 10
-1.221213
 20
3.519843
  0
VERTEX
  8
PLAN_1
 62
     2
  6
CONTINUOUS
 10
-1.223055
 20
3.519382
  0
VERTEX
  8
PLAN_1
 62
     2
  6
CONTINUOUS
 10
-1.224894
 20
3.518461
  0
VERTEX
  8
PLAN_1
 62
     2
  6
CONTINUOUS
 10
-1.226276
 20
3.517539
  0
VERTEX
  8
PLAN_1
 62
     2
  6
CONTINUOUS
 10
-1.228118
 20
3.516157
  0
VERTEX
  8
PLAN_1
 62
     2
  6
CONTINUOUS
 10
-1.229500
 20
3.514776
  0
VERTEX
  8
PLAN_1
 62
     2
  6
CONTINUOUS
 10
-1.230882
 20
3.513394
  0
VERTEX
  8
PLAN_1
 62
     2
  6
CONTINUOUS
 10
-1.238709
 20
3.513854
  0
VERTEX
  8
PLAN_1
 62
     2
  6
CONTINUOUS
 10
-1.233185
 20
3.552992
  0
VERTEX
  8
PLAN_1
 62
     2
  6
CONTINUOUS
 10
-1.195425
 20
3.552992
  0
VERTEX
  8
PLAN_1
 62
     2
  6
CONTINUOUS
 10
-1.195425
 20
3.543783
  0
VERTEX
  8
PLAN_1
 62
     2
  6
CONTINUOUS
 10
-1.226276
 20
3.543783
  0
VERTEX
  8
PLAN_1
 62
     2
  6
CONTINUOUS
 10
-1.229500
 20
3.523984
  0
SEQEND
  8
0
  0
POLYLINE
  8
PLAN_1
 62
     2
  6
CONTINUOUS
 66
     1
 40
0.003000
 41
0.003000
  0
VERTEX
  8
PLAN_1
 62
     2
  6
CONTINUOUS
 10
-1.177929
 20
3.492213
  0
VERTEX
  8
PLAN_1
 62
     2
  6
CONTINUOUS
 10
-1.166878
 20
3.492213
  0
VERTEX
  8
PLAN_1
 62
     2
  6
CONTINUOUS
 10
-1.166878
 20
3.482083
  0
VERTEX
  8
PLAN_1
 62
     2
  6
CONTINUOUS
 10
-1.167339
 20
3.477480
  0
VERTEX
  8
PLAN_1
 62
     2
  6
CONTINUOUS
 10
-1.168260
 20
3.473795
  0
VERTEX
  8
PLAN_1
 62
     2
  6
CONTINUOUS
 10
-1.169642
 20
3.471031
  0
VERTEX
  8
PLAN_1
 62
     2
  6
CONTINUOUS
 10
-1.171484
 20
3.468732
  0
VERTEX
  8
PLAN_1
 62
     2
  6
CONTINUOUS
 10
-1.173323
 20
3.467350
  0
VERTEX
  8
PLAN_1
 62
     2
  6
CONTINUOUS
 10
-1.175165
 20
3.466890
  0
VERTEX
  8
PLAN_1
 62
     2
  6
CONTINUOUS
 10
-1.176547
 20
3.466429
  0
VERTEX
  8
PLAN_1
 62
     2
  6
CONTINUOUS
 10
-1.177929
 20
3.465969
  0
VERTEX
  8
PLAN_1
 62
     2
  6
CONTINUOUS
 10
-1.177929
 20
3.471031
  0
VERTEX
  8
PLAN_1
 62
     2
  6
CONTINUOUS
 10
-1.176087
 20
3.471031
  0
VERTEX
  8
PLAN_1
 62
     2
  6
CONTINUOUS
 10
-1.175165
 20
3.471953
  0
VERTEX
  8
PLAN_1
 62
     2
  6
CONTINUOUS
 10
-1.174244
 20
3.472874
  0
VERTEX
  8
PLAN_1
 62
     2
  6
CONTINUOUS
 10
-1.173323
 20
3.474256
  0
VERTEX
  8
PLAN_1
 62
     2
  6
CONTINUOUS
 10
-1.172866
 20
3.476098
  0
VERTEX
  8
PLAN_1
 62
     2
  6
CONTINUOUS
 10
-1.172406
 20
3.477480
  0
VERTEX
  8
PLAN_1
 62
     2
  6
CONTINUOUS
 10
-1.172406
 20
3.479319
  0
VERTEX
  8
PLAN_1
 62
     2
  6
CONTINUOUS
 10
-1.172406
 20
3.481161
  0
VERTEX
  8
PLAN_1
 62
     2
  6
CONTINUOUS
 10
-1.177929
 20
3.481161
  0
VERTEX
  8
PLAN_1
 62
     2
  6
CONTINUOUS
 10
-1.177929
 20
3.492213
  0
SEQEND
  8
0
  0
POLYLINE
  8
PLAN_1
 62
     2
  6
CONTINUOUS
 66
     1
 40
0.003000
 41
0.003000
  0
VERTEX
  8
PLAN_1
 62
     2
  6
CONTINUOUS
 10
-1.153063
 20
3.528130
  0
VERTEX
  8
PLAN_1
 62
     2
  6
CONTINUOUS
 10
-1.153063
 20
3.532272
  0
VERTEX
  8
PLAN_1
 62
     2
  6
CONTINUOUS
 10
-1.152602
 20
3.536417
  0
VERTEX
  8
PLAN_1
 62
     2
  6
CONTINUOUS
 10
-1.151685
 20
3.539642
  0
VERTEX
  8
PLAN_1
 62
     2
  6
CONTINUOUS
 10
-1.150303
 20
3.542402
  0
VERTEX
  8
PLAN_1
 62
     2
  6
CONTINUOUS
 10
-1.148921
 20
3.544705
  0
VERTEX
  8
PLAN_1
 62
     2
  6
CONTINUOUS
 10
-1.147539
 20
3.547008
  0
VERTEX
  8
PLAN_1
 62
     2
  6
CONTINUOUS
 10
-1.145697
 20
3.548850
  0
VERTEX
  8
PLAN_1
 62
     2
  6
CONTINUOUS
 10
-1.143394
 20
3.550232
  0
VERTEX
  8
PLAN_1
 62
     2
  6
CONTINUOUS
 10
-1.139252
 20
3.552531
  0
VERTEX
  8
PLAN_1
 62
     2
  6
CONTINUOUS
 10
-1.135106
 20
3.553913
  0
VERTEX
  8
PLAN_1
 62
     2
  6
CONTINUOUS
 10
-1.131425
 20
3.554374
  0
VERTEX
  8
PLAN_1
 62
     2
  6
CONTINUOUS
 10
-1.128201
 20
3.554374
  0
VERTEX
  8
PLAN_1
 62
     2
  6
CONTINUOUS
 10
-1.123594
 20
3.553913
  0
VERTEX
  8
PLAN_1
 62
     2
  6
CONTINUOUS
 10
-1.118992
 20
3.552992
  0
VERTEX
  8
PLAN_1
 62
     2
  6
CONTINUOUS
 10
-1.115307
 20
3.551154
  0
VERTEX
  8
PLAN_1
 62
     2
  6
CONTINUOUS
 10
-1.111622
 20
3.548850
  0
VERTEX
  8
PLAN_1
 62
     2
  6
CONTINUOUS
 10
-1.108862
 20
3.545626
  0
VERTEX
  8
PLAN_1
 62
     2
  6
CONTINUOUS
 10
-1.107020
 20
3.541941
  0
VERTEX
  8
PLAN_1
 62
     2
  6
CONTINUOUS
 10
-1.106098
 20
3.539642
  0
VERTEX
  8
PLAN_1
 62
     2
  6
CONTINUOUS
 10
-1.105638
 20
3.537339
  0
VERTEX
  8
PLAN_1
 62
     2
  6
CONTINUOUS
 10
-1.105177
 20
3.535035
  0
VERTEX
  8
PLAN_1
 62
     2
  6
CONTINUOUS
 10
-1.105177
 20
3.532732
  0
VERTEX
  8
PLAN_1
 62
     2
  6
CONTINUOUS
 10
-1.105638
 20
3.528130
  0
VERTEX
  8
PLAN_1
 62
     2
  6
CONTINUOUS
 10
-1.106559
 20
3.523984
  0
VERTEX
  8
PLAN_1
 62
     2
  6
CONTINUOUS
 10
-1.108402
 20
3.520760
  0
VERTEX
  8
PLAN_1
 62
     2
  6
CONTINUOUS
 10
-1.110705
 20
3.517539
  0
VERTEX
  8
PLAN_1
 62
     2
  6
CONTINUOUS
 10
-1.113465
 20
3.515236
  0
VERTEX
  8
PLAN_1
 62
     2
  6
CONTINUOUS
 10
-1.117150
 20
3.512472
  0
VERTEX
  8
PLAN_1
 62
     2
  6
CONTINUOUS
 10
-1.120835
 20
3.510173
  0
VERTEX
  8
PLAN_1
 62
     2
  6
CONTINUOUS
 10
-1.124516
 20
3.508331
  0
VERTEX
  8
PLAN_1
 62
     2
  6
CONTINUOUS
 10
-1.132343
 20
3.504185
  0
VERTEX
  8
PLAN_1
 62
     2
  6
CONTINUOUS
 10
-1.135567
 20
3.501882
  0
VERTEX
  8
PLAN_1
 62
     2
  6
CONTINUOUS
 10
-1.138331
 20
3.500039
  0
VERTEX
  8
PLAN_1
 62
     2
  6
CONTINUOUS
 10
-1.140634
 20
3.497740
  0
VERTEX
  8
PLAN_1
 62
     2
  6
CONTINUOUS
 10
-1.142012
 20
3.495898
  0
VERTEX
  8
PLAN_1
 62
     2
  6
CONTINUOUS
 10
-1.143394
 20
3.494055
  0
VERTEX
  8
PLAN_1
 62
     2
  6
CONTINUOUS
 10
-1.144315
 20
3.492673
  0
VERTEX
  8
PLAN_1
 62
     2
  6
CONTINUOUS
 10
-1.144776
 20
3.491291
  0
VERTEX
  8
PLAN_1
 62
     2
  6
CONTINUOUS
 10
-1.144776
 20
3.489909
  0
VERTEX
  8
PLAN_1
 62
     2
  6
CONTINUOUS
 10
-1.105177
 20
3.489909
  0
VERTEX
  8
PLAN_1
 62
     2
  6
CONTINUOUS
 10
-1.105177
 20
3.481161
  0
VERTEX
  8
PLAN_1
 62
     2
  6
CONTINUOUS
 10
-1.155366
 20
3.481161
  0
VERTEX
  8
PLAN_1
 62
     2
  6
CONTINUOUS
 10
-1.154445
 20
3.486689
  0
VERTEX
  8
PLAN_1
 62
     2
  6
CONTINUOUS
 10
-1.153524
 20
3.491291
  0
VERTEX
  8
PLAN_1
 62
     2
  6
CONTINUOUS
 10
-1.152146
 20
3.495898
  0
VERTEX
  8
PLAN_1
 62
     2
  6
CONTINUOUS
 10
-1.149843
 20
3.499583
  0
VERTEX
  8
PLAN_1
 62
     2
  6
CONTINUOUS
 10
-1.147539
 20
3.502803
  0
VERTEX
  8
PLAN_1
 62
     2
  6
CONTINUOUS
 10
-1.144776
 20
3.505567
  0
VERTEX
  8
PLAN_1
 62
     2
  6
CONTINUOUS
 10
-1.141555
 20
3.507870
  0
VERTEX
  8
PLAN_1
 62
     2
  6
CONTINUOUS
 10
-1.137870
 20
3.510173
  0
VERTEX
  8
PLAN_1
 62
     2
  6
CONTINUOUS
 10
-1.128201
 20
3.516157
  0
VERTEX
  8
PLAN_1
 62
     2
  6
CONTINUOUS
 10
-1.125437
 20
3.517539
  0
VERTEX
  8
PLAN_1
 62
     2
  6
CONTINUOUS
 10
-1.123134
 20
3.519382
  0
VERTEX
  8
PLAN_1
 62
     2
  6
CONTINUOUS
 10
-1.120835
 20
3.520760
  0
VERTEX
  8
PLAN_1
 62
     2
  6
CONTINUOUS
 10
-1.118531
 20
3.522602
  0
VERTEX
  8
PLAN_1
 62
     2
  6
CONTINUOUS
 10
-1.117150
 20
3.524445
  0
VERTEX
  8
PLAN_1
 62
     2
  6
CONTINUOUS
 10
-1.115768
 20
3.526748
  0
VERTEX
  8
PLAN_1
 62
     2
  6
CONTINUOUS
 10
-1.115307
 20
3.529972
  0
VERTEX
  8
PLAN_1
 62
     2
  6
CONTINUOUS
 10
-1.114846
 20
3.533193
  0
VERTEX
  8
PLAN_1
 62
     2
  6
CONTINUOUS
 10
-1.115307
 20
3.535496
  0
VERTEX
  8
PLAN_1
 62
     2
  6
CONTINUOUS
 10
-1.115768
 20
3.537339
  0
VERTEX
  8
PLAN_1
 62
     2
  6
CONTINUOUS
 10
-1.116689
 20
3.539642
  0
VERTEX
  8
PLAN_1
 62
     2
  6
CONTINUOUS
 10
-1.118071
 20
3.541941
  0
VERTEX
  8
PLAN_1
 62
     2
  6
CONTINUOUS
 10
-1.119913
 20
3.543783
  0
VERTEX
  8
PLAN_1
 62
     2
  6
CONTINUOUS
 10
-1.122673
 20
3.545165
  0
VERTEX
  8
PLAN_1
 62
     2
  6
CONTINUOUS
 10
-1.125437
 20
3.546087
  0
VERTEX
  8
PLAN_1
 62
     2
  6
CONTINUOUS
 10
-1.129122
 20
3.546087
  0
VERTEX
  8
PLAN_1
 62
     2
  6
CONTINUOUS
 10
-1.131882
 20
3.546087
  0
VERTEX
  8
PLAN_1
 62
     2
  6
CONTINUOUS
 10
-1.133724
 20
3.545626
  0
VERTEX
  8
PLAN_1
 62
     2
  6
CONTINUOUS
 10
-1.136028
 20
3.545165
  0
VERTEX
  8
PLAN_1
 62
     2
  6
CONTINUOUS
 10
-1.137409
 20
3.544244
  0
VERTEX
  8
PLAN_1
 62
     2
  6
CONTINUOUS
 10
-1.140173
 20
3.541941
  0
VERTEX
  8
PLAN_1
 62
     2
  6
CONTINUOUS
 10
-1.142012
 20
3.539181
  0
VERTEX
  8
PLAN_1
 62
     2
  6
CONTINUOUS
 10
-1.142933
 20
3.536417
  0
VERTEX
  8
PLAN_1
 62
     2
  6
CONTINUOUS
 10
-1.143854
 20
3.533193
  0
VERTEX
  8
PLAN_1
 62
     2
  6
CONTINUOUS
 10
-1.143854
 20
3.530433
  0
VERTEX
  8
PLAN_1
 62
     2
  6
CONTINUOUS
 10
-1.144315
 20
3.528130
  0
VERTEX
  8
PLAN_1
 62
     2
  6
CONTINUOUS
 10
-1.153063
 20
3.528130
  0
SEQEND
  8
0
  0
POLYLINE
  8
PLAN_1
 62
     2
  6
CONTINUOUS
 66
     1
 40
0.003000
 41
0.003000
  0
VERTEX
  8
PLAN_1
 62
     2
  6
CONTINUOUS
 10
-1.019992
 20
3.481161
  0
VERTEX
  8
PLAN_1
 62
     2
  6
CONTINUOUS
 10
-1.031504
 20
3.481161
  0
VERTEX
  8
PLAN_1
 62
     2
  6
CONTINUOUS
 10
-1.045319
 20
3.501882
  0
VERTEX
  8
PLAN_1
 62
     2
  6
CONTINUOUS
 10
-1.058213
 20
3.481161
  0
VERTEX
  8
PLAN_1
 62
     2
  6
CONTINUOUS
 10
-1.069720
 20
3.481161
  0
VERTEX
  8
PLAN_1
 62
     2
  6
CONTINUOUS
 10
-1.050843
 20
3.509252
  0
VERTEX
  8
PLAN_1
 62
     2
  6
CONTINUOUS
 10
-1.068803
 20
3.535957
  0
VERTEX
  8
PLAN_1
 62
     2
  6
CONTINUOUS
 10
-1.057291
 20
3.535957
  0
VERTEX
  8
PLAN_1
 62
     2
  6
CONTINUOUS
 10
-1.044398
 20
3.516618
  0
VERTEX
  8
PLAN_1
 62
     2
  6
CONTINUOUS
 10
-1.031965
 20
3.535957
  0
VERTEX
  8
PLAN_1
 62
     2
  6
CONTINUOUS
 10
-1.020913
 20
3.535957
  0
VERTEX
  8
PLAN_1
 62
     2
  6
CONTINUOUS
 10
-1.039331
 20
3.509252
  0
VERTEX
  8
PLAN_1
 62
     2
  6
CONTINUOUS
 10
-1.019992
 20
3.481161
  0
SEQEND
  8
0
  0
POLYLINE
  8
PLAN_1
 62
     2
  6
CONTINUOUS
 66
     1
 40
0.003000
 41
0.003000
  0
VERTEX
  8
PLAN_1
 62
     2
  6
CONTINUOUS
 10
-0.946780
 20
3.535035
  0
VERTEX
  8
PLAN_1
 62
     2
  6
CONTINUOUS
 10
-0.947240
 20
3.537339
  0
VERTEX
  8
PLAN_1
 62
     2
  6
CONTINUOUS
 10
-0.948161
 20
3.539642
  0
VERTEX
  8
PLAN_1
 62
     2
  6
CONTINUOUS
 10
-0.949083
 20
3.541480
  0
VERTEX
  8
PLAN_1
 62
     2
  6
CONTINUOUS
 10
-0.950465
 20
3.542862
  0
VERTEX
  8
PLAN_1
 62
     2
  6
CONTINUOUS
 10
-0.952307
 20
3.544244
  0
VERTEX
  8
PLAN_1
 62
     2
  6
CONTINUOUS
 10
-0.954150
 20
3.545626
  0
VERTEX
  8
PLAN_1
 62
     2
  6
CONTINUOUS
 10
-0.956449
 20
3.546087
  0
VERTEX
  8
PLAN_1
 62
     2
  6
CONTINUOUS
 10
-0.959213
 20
3.546087
  0
VERTEX
  8
PLAN_1
 62
     2
  6
CONTINUOUS
 10
-0.961976
 20
3.546087
  0
VERTEX
  8
PLAN_1
 62
     2
  6
CONTINUOUS
 10
-0.964280
 20
3.545626
  0
VERTEX
  8
PLAN_1
 62
     2
  6
CONTINUOUS
 10
-0.966118
 20
3.544244
  0
VERTEX
  8
PLAN_1
 62
     2
  6
CONTINUOUS
 10
-0.967961
 20
3.543323
  0
VERTEX
  8
PLAN_1
 62
     2
  6
CONTINUOUS
 10
-0.969803
 20
3.541480
  0
VERTEX
  8
PLAN_1
 62
     2
  6
CONTINUOUS
 10
-0.971185
 20
3.539642
  0
VERTEX
  8
PLAN_1
 62
     2
  6
CONTINUOUS
 10
-0.972106
 20
3.537799
  0
VERTEX
  8
PLAN_1
 62
     2
  6
CONTINUOUS
 10
-0.973488
 20
3.535496
  0
VERTEX
  8
PLAN_1
 62
     2
  6
CONTINUOUS
 10
-0.974870
 20
3.531350
  0
VERTEX
  8
PLAN_1
 62
     2
  6
CONTINUOUS
 10
-0.975791
 20
3.526748
  0
VERTEX
  8
PLAN_1
 62
     2
  6
CONTINUOUS
 10
-0.976252
 20
3.522602
  0
VERTEX
  8
PLAN_1
 62
     2
  6
CONTINUOUS
 10
-0.976709
 20
3.519382
  0
VERTEX
  8
PLAN_1
 62
     2
  6
CONTINUOUS
 10
-0.976252
 20
3.518921
  0
VERTEX
  8
PLAN_1
 62
     2
  6
CONTINUOUS
 10
-0.975331
 20
3.520303
  0
VERTEX
  8
PLAN_1
 62
     2
  6
CONTINUOUS
 10
-0.973949
 20
3.522142
  0
VERTEX
  8
PLAN_1
 62
     2
  6
CONTINUOUS
 10
-0.972567
 20
3.523524
  0
VERTEX
  8
PLAN_1
 62
     2
  6
CONTINUOUS
 10
-0.970724
 20
3.524906
  0
VERTEX
  8
PLAN_1
 62
     2
  6
CONTINUOUS
 10
-0.968421
 20
3.526287
  0
VERTEX
  8
PLAN_1
 62
     2
  6
CONTINUOUS
 10
-0.965661
 20
3.527209
  0
VERTEX
  8
PLAN_1
 62
     2
  6
CONTINUOUS
 10
-0.962437
 20
3.527669
  0
VERTEX
  8
PLAN_1
 62
     2
  6
CONTINUOUS
 10
-0.959213
 20
3.528130
  0
VERTEX
  8
PLAN_1
 62
     2
  6
CONTINUOUS
 10
-0.955531
 20
3.527669
  0
VERTEX
  8
PLAN_1
 62
     2
  6
CONTINUOUS
 10
-0.951846
 20
3.526748
  0
VERTEX
  8
PLAN_1
 62
     2
  6
CONTINUOUS
 10
-0.947701
 20
3.525366
  0
VERTEX
  8
PLAN_1
 62
     2
  6
CONTINUOUS
 10
-0.944020
 20
3.523063
  0
VERTEX
  8
PLAN_1
 62
     2
  6
CONTINUOUS
 10
-0.942638
 20
3.521220
  0
VERTEX
  8
PLAN_1
 62
     2
  6
CONTINUOUS
 10
-0.941256
 20
3.519843
  0
VERTEX
  8
PLAN_1
 62
     2
  6
CONTINUOUS
 10
-0.939874
 20
3.518000
  0
VERTEX
  8
PLAN_1
 62
     2
  6
CONTINUOUS
 10
-0.938492
 20
3.515697
  0
VERTEX
  8
PLAN_1
 62
     2
  6
CONTINUOUS
 10
-0.937571
 20
3.513394
  0
VERTEX
  8
PLAN_1
 62
     2
  6
CONTINUOUS
 10
-0.936650
 20
3.510630
  0
VERTEX
  8
PLAN_1
 62
     2
  6
CONTINUOUS
 10
-0.936189
 20
3.507870
  0
VERTEX
  8
PLAN_1
 62
     2
  6
CONTINUOUS
 10
-0.936189
 20
3.504646
  0
VERTEX
  8
PLAN_1
 62
     2
  6
CONTINUOUS
 10
-0.936189
 20
3.501882
  0
VERTEX
  8
PLAN_1
 62
     2
  6
CONTINUOUS
 10
-0.936650
 20
3.499583
  0
VERTEX
  8
PLAN_1
 62
     2
  6
CONTINUOUS
 10
-0.937110
 20
3.497280
  0
VERTEX
  8
PLAN_1
 62
     2
  6
CONTINUOUS
 10
-0.937571
 20
3.494976
  0
VERTEX
  8
PLAN_1
 62
     2
  6
CONTINUOUS
 10
-0.938492
 20
3.492673
  0
VERTEX
  8
PLAN_1
 62
     2
  6
CONTINUOUS
 10
-0.939874
 20
3.490370
  0
VERTEX
  8
PLAN_1
 62
     2
  6
CONTINUOUS
 10
-0.941256
 20
3.488531
  0
VERTEX
  8
PLAN_1
 62
     2
  6
CONTINUOUS
 10
-0.943098
 20
3.486228
  0
VERTEX
  8
PLAN_1
 62
     2
  6
CONTINUOUS
 10
-0.944480
 20
3.484846
  0
VERTEX
  8
PLAN_1
 62
     2
  6
CONTINUOUS
 10
-0.946319
 20
3.483465
  0
VERTEX
  8
PLAN_1
 62
     2
  6
CONTINUOUS
 10
-0.948161
 20
3.482543
  0
VERTEX
  8
PLAN_1
 62
     2
  6
CONTINUOUS
 10
-0.950004
 20
3.481161
  0
VERTEX
  8
PLAN_1
 62
     2
  6
CONTINUOUS
 10
-0.952307
 20
3.480701
  0
VERTEX
  8
PLAN_1
 62
     2
  6
CONTINUOUS
 10
-0.955071
 20
3.479780
  0
VERTEX
  8
PLAN_1
 62
     2
  6
CONTINUOUS
 10
-0.957831
 20
3.479319
  0
VERTEX
  8
PLAN_1
 62
     2
  6
CONTINUOUS
 10
-0.961516
 20
3.479319
  0
VERTEX
  8
PLAN_1
 62
     2
  6
CONTINUOUS
 10
-0.963819
 20
3.479319
  0
VERTEX
  8
PLAN_1
 62
     2
  6
CONTINUOUS
 10
-0.966118
 20
3.479780
  0
VERTEX
  8
PLAN_1
 62
     2
  6
CONTINUOUS
 10
-0.968882
 20
3.480701
  0
VERTEX
  8
PLAN_1
 62
     2
  6
CONTINUOUS
 10
-0.971185
 20
3.481622
  0
VERTEX
  8
PLAN_1
 62
     2
  6
CONTINUOUS
 10
-0.973488
 20
3.483004
  0
VERTEX
  8
PLAN_1
 62
     2
  6
CONTINUOUS
 10
-0.976252
 20
3.484846
  0
VERTEX
  8
PLAN_1
 62
     2
  6
CONTINUOUS
 10
-0.978551
 20
3.487150
  0
VERTEX
  8
PLAN_1
 62
     2
  6
CONTINUOUS
 10
-0.980394
 20
3.489909
  0
VERTEX
  8
PLAN_1
 62
     2
  6
CONTINUOUS
 10
-0.981776
 20
3.492673
  0
VERTEX
  8
PLAN_1
 62
     2
  6
CONTINUOUS
 10
-0.983157
 20
3.495437
  0
VERTEX
  8
PLAN_1
 62
     2
  6
CONTINUOUS
 10
-0.984079
 20
3.498661
  0
VERTEX
  8
PLAN_1
 62
     2
  6
CONTINUOUS
 10
-0.985000
 20
3.501421
  0
VERTEX
  8
PLAN_1
 62
     2
  6
CONTINUOUS
 10
-0.985461
 20
3.505106
  0
VERTEX
  8
PLAN_1
 62
     2
  6
CONTINUOUS
 10
-0.985921
 20
3.508331
  0
VERTEX
  8
PLAN_1
 62
     2
  6
CONTINUOUS
 10
-0.985921
 20
3.512012
  0
VERTEX
  8
PLAN_1
 62
     2
  6
CONTINUOUS
 10
-0.985921
 20
3.515236
  0
VERTEX
  8
PLAN_1
 62
     2
  6
CONTINUOUS
 10
-0.985921
 20
3.521681
  0
VERTEX
  8
PLAN_1
 62
     2
  6
CONTINUOUS
 10
-0.985000
 20
3.528130
  0
VERTEX
  8
PLAN_1
 62
     2
  6
CONTINUOUS
 10
-0.984079
 20
3.531350
  0
VERTEX
  8
PLAN_1
 62
     2
  6
CONTINUOUS
 10
-0.983157
 20
3.534575
  0
VERTEX
  8
PLAN_1
 62
     2
  6
CONTINUOUS
 10
-0.982236
 20
3.537799
  0
VERTEX
  8
PLAN_1
 62
     2
  6
CONTINUOUS
 10
-0.980854
 20
3.541024
  0
VERTEX
  8
PLAN_1
 62
     2
  6
CONTINUOUS
 10
-0.979012
 20
3.543783
  0
VERTEX
  8
PLAN_1
 62
     2
  6
CONTINUOUS
 10
-0.977169
 20
3.546547
  0
VERTEX
  8
PLAN_1
 62
     2
  6
CONTINUOUS
 10
-0.974870
 20
3.548850
  0
VERTEX
  8
PLAN_1
 62
     2
  6
CONTINUOUS
 10
-0.972567
 20
3.550693
  0
VERTEX
  8
PLAN_1
 62
     2
  6
CONTINUOUS
 10
-0.969803
 20
3.552071
  0
VERTEX
  8
PLAN_1
 62
     2
  6
CONTINUOUS
 10
-0.966579
 20
3.553453
  0
VERTEX
  8
PLAN_1
 62
     2
  6
CONTINUOUS
 10
-0.962898
 20
3.554374
  0
VERTEX
  8
PLAN_1
 62
     2
  6
CONTINUOUS
 10
-0.959213
 20
3.554374
  0
VERTEX
  8
PLAN_1
 62
     2
  6
CONTINUOUS
 10
-0.955531
 20
3.554374
  0
VERTEX
  8
PLAN_1
 62
     2
  6
CONTINUOUS
 10
-0.952307
 20
3.553453
  0
VERTEX
  8
PLAN_1
 62
     2
  6
CONTINUOUS
 10
-0.948622
 20
3.552071
  0
VERTEX
  8
PLAN_1
 62
     2
  6
CONTINUOUS
 10
-0.945402
 20
3.550232
  0
VERTEX
  8
PLAN_1
 62
     2
  6
CONTINUOUS
 10
-0.942638
 20
3.547929
  0
VERTEX
  8
PLAN_1
 62
     2
  6
CONTINUOUS
 10
-0.940335
 20
3.544244
  0
VERTEX
  8
PLAN_1
 62
     2
  6
CONTINUOUS
 10
-0.939413
 20
3.542402
  0
VERTEX
  8
PLAN_1
 62
     2
  6
CONTINUOUS
 10
-0.938492
 20
3.540102
  0
VERTEX
  8
PLAN_1
 62
     2
  6
CONTINUOUS
 10
-0.938031
 20
3.537799
  0
VERTEX
  8
PLAN_1
 62
     2
  6
CONTINUOUS
 10
-0.937571
 20
3.535035
  0
VERTEX
  8
PLAN_1
 62
     2
  6
CONTINUOUS
 10
-0.946780
 20
3.535035
  0
SEQEND
  8
0
  0
POLYLINE
  8
PLAN_1
 62
     2
  6
CONTINUOUS
 66
     1
 40
0.003000
 41
0.003000
  0
VERTEX
  8
PLAN_1
 62
     2
  6
CONTINUOUS
 10
-0.960134
 20
3.487610
  0
VERTEX
  8
PLAN_1
 62
     2
  6
CONTINUOUS
 10
-0.956909
 20
3.488071
  0
VERTEX
  8
PLAN_1
 62
     2
  6
CONTINUOUS
 10
-0.954150
 20
3.488992
  0
VERTEX
  8
PLAN_1
 62
     2
  6
CONTINUOUS
 10
-0.951386
 20
3.490370
  0
VERTEX
  8
PLAN_1
 62
     2
  6
CONTINUOUS
 10
-0.949543
 20
3.492213
  0
VERTEX
  8
PLAN_1
 62
     2
  6
CONTINUOUS
 10
-0.947701
 20
3.494516
  0
VERTEX
  8
PLAN_1
 62
     2
  6
CONTINUOUS
 10
-0.946780
 20
3.497740
  0
VERTEX
  8
PLAN_1
 62
     2
  6
CONTINUOUS
 10
-0.945858
 20
3.500961
  0
VERTEX
  8
PLAN_1
 62
     2
  6
CONTINUOUS
 10
-0.945402
 20
3.504185
  0
VERTEX
  8
PLAN_1
 62
     2
  6
CONTINUOUS
 10
-0.945858
 20
3.506949
  0
VERTEX
  8
PLAN_1
 62
     2
  6
CONTINUOUS
 10
-0.946319
 20
3.509252
  0
VERTEX
  8
PLAN_1
 62
     2
  6
CONTINUOUS
 10
-0.947240
 20
3.512012
  0
VERTEX
  8
PLAN_1
 62
     2
  6
CONTINUOUS
 10
-0.948622
 20
3.514315
  0
VERTEX
  8
PLAN_1
 62
     2
  6
CONTINUOUS
 10
-0.950925
 20
3.516618
  0
VERTEX
  8
PLAN_1
 62
     2
  6
CONTINUOUS
 10
-0.953228
 20
3.518000
  0
VERTEX
  8
PLAN_1
 62
     2
  6
CONTINUOUS
 10
-0.956449
 20
3.519382
  0
VERTEX
  8
PLAN_1
 62
     2
  6
CONTINUOUS
 10
-0.960594
 20
3.519843
  0
VERTEX
  8
PLAN_1
 62
     2
  6
CONTINUOUS
 10
-0.963819
 20
3.519382
  0
VERTEX
  8
PLAN_1
 62
     2
  6
CONTINUOUS
 10
-0.967039
 20
3.518461
  0
VERTEX
  8
PLAN_1
 62
     2
  6
CONTINUOUS
 10
-0.969343
 20
3.517079
  0
VERTEX
  8
PLAN_1
 62
     2
  6
CONTINUOUS
 10
-0.971646
 20
3.514776
  0
VERTEX
  8
PLAN_1
 62
     2
  6
CONTINUOUS
 10
-0.973488
 20
3.512472
  0
VERTEX
  8
PLAN_1
 62
     2
  6
CONTINUOUS
 10
-0.974409
 20
3.509713
  0
VERTEX
  8
PLAN_1
 62
     2
  6
CONTINUOUS
 10
-0.975331
 20
3.506949
  0
VERTEX
  8
PLAN_1
 62
     2
  6
CONTINUOUS
 10
-0.975331
 20
3.503724
  0
VERTEX
  8
PLAN_1
 62
     2
  6
CONTINUOUS
 10
-0.975331
 20
3.500961
  0
VERTEX
  8
PLAN_1
 62
     2
  6
CONTINUOUS
 10
-0.974409
 20
3.498201
  0
VERTEX
  8
PLAN_1
 62
     2
  6
CONTINUOUS
 10
-0.973488
 20
3.495437
  0
VERTEX
  8
PLAN_1
 62
     2
  6
CONTINUOUS
 10
-0.971646
 20
3.492673
  0
VERTEX
  8
PLAN_1
 62
     2
  6
CONTINUOUS
 10
-0.969343
 20
3.490831
  0
VERTEX
  8
PLAN_1
 62
     2
  6
CONTINUOUS
 10
-0.967039
 20
3.488992
  0
VERTEX
  8
PLAN_1
 62
     2
  6
CONTINUOUS
 10
-0.963819
 20
3.488071
  0
VERTEX
  8
PLAN_1
 62
     2
  6
CONTINUOUS
 10
-0.960134
 20
3.487610
  0
SEQEND
  8
0
  0
POLYLINE
  8
PLAN_1
 62
     2
  6
CONTINUOUS
 66
     1
 40
0.003000
 41
0.003000
  0
VERTEX
  8
PLAN_1
 62
     2
  6
CONTINUOUS
 10
-0.923299
 20
3.481161
  0
VERTEX
  8
PLAN_1
 62
     2
  6
CONTINUOUS
 10
-0.917772
 20
3.481161
  0
VERTEX
  8
PLAN_1
 62
     2
  6
CONTINUOUS
 10
-0.917772
 20
3.479319
  0
VERTEX
  8
PLAN_1
 62
     2
  6
CONTINUOUS
 10
-0.917772
 20
3.477480
  0
VERTEX
  8
PLAN_1
 62
     2
  6
CONTINUOUS
 10
-0.918232
 20
3.476098
  0
VERTEX
  8
PLAN_1
 62
     2
  6
CONTINUOUS
 10
-0.918693
 20
3.474256
  0
VERTEX
  8
PLAN_1
 62
     2
  6
CONTINUOUS
 10
-0.919614
 20
3.472874
  0
VERTEX
  8
PLAN_1
 62
     2
  6
CONTINUOUS
 10
-0.920535
 20
3.471953
  0
VERTEX
  8
PLAN_1
 62
     2
  6
CONTINUOUS
 10
-0.921457
 20
3.471031
  0
VERTEX
  8
PLAN_1
 62
     2
  6
CONTINUOUS
 10
-0.923299
 20
3.471031
  0
VERTEX
  8
PLAN_1
 62
     2
  6
CONTINUOUS
 10
-0.923299
 20
3.465969
  0
VERTEX
  8
PLAN_1
 62
     2
  6
CONTINUOUS
 10
-0.921917
 20
3.466429
  0
VERTEX
  8
PLAN_1
 62
     2
  6
CONTINUOUS
 10
-0.920535
 20
3.466890
  0
VERTEX
  8
PLAN_1
 62
     2
  6
CONTINUOUS
 10
-0.918693
 20
3.467350
  0
VERTEX
  8
PLAN_1
 62
     2
  6
CONTINUOUS
 10
-0.916850
 20
3.468732
  0
VERTEX
  8
PLAN_1
 62
     2
  6
CONTINUOUS
 10
-0.915008
 20
3.471031
  0
VERTEX
  8
PLAN_1
 62
     2
  6
CONTINUOUS
 10
-0.913630
 20
3.473795
  0
VERTEX
  8
PLAN_1
 62
     2
  6
CONTINUOUS
 10
-0.912709
 20
3.477480
  0
VERTEX
  8
PLAN_1
 62
     2
  6
CONTINUOUS
 10
-0.912248
 20
3.482083
  0
VERTEX
  8
PLAN_1
 62
     2
  6
CONTINUOUS
 10
-0.912248
 20
3.492213
  0
VERTEX
  8
PLAN_1
 62
     2
  6
CONTINUOUS
 10
-0.923299
 20
3.492213
  0
VERTEX
  8
PLAN_1
 62
     2
  6
CONTINUOUS
 10
-0.923299
 20
3.481161
  0
SEQEND
  8
0
  0
POLYLINE
  8
PLAN_1
 62
     2
  6
CONTINUOUS
 66
     1
 40
0.003000
 41
0.003000
  0
VERTEX
  8
PLAN_1
 62
     2
  6
CONTINUOUS
 10
-0.898433
 20
3.528130
  0
VERTEX
  8
PLAN_1
 62
     2
  6
CONTINUOUS
 10
-0.898433
 20
3.532272
  0
VERTEX
  8
PLAN_1
 62
     2
  6
CONTINUOUS
 10
-0.897972
 20
3.536417
  0
VERTEX
  8
PLAN_1
 62
     2
  6
CONTINUOUS
 10
-0.897051
 20
3.539642
  0
VERTEX
  8
PLAN_1
 62
     2
  6
CONTINUOUS
 10
-0.895669
 20
3.542402
  0
VERTEX
  8
PLAN_1
 62
     2
  6
CONTINUOUS
 10
-0.894287
 20
3.544705
  0
VERTEX
  8
PLAN_1
 62
     2
  6
CONTINUOUS
 10
-0.892909
 20
3.547008
  0
VERTEX
  8
PLAN_1
 62
     2
  6
CONTINUOUS
 10
-0.891067
 20
3.548850
  0
VERTEX
  8
PLAN_1
 62
     2
  6
CONTINUOUS
 10
-0.888764
 20
3.550232
  0
VERTEX
  8
PLAN_1
 62
     2
  6
CONTINUOUS
 10
-0.884618
 20
3.552531
  0
VERTEX
  8
PLAN_1
 62
     2
  6
CONTINUOUS
 10
-0.880476
 20
3.553913
  0
VERTEX
  8
PLAN_1
 62
     2
  6
CONTINUOUS
 10
-0.876791
 20
3.554374
  0
VERTEX
  8
PLAN_1
 62
     2
  6
CONTINUOUS
 10
-0.873567
 20
3.554374
  0
VERTEX
  8
PLAN_1
 62
     2
  6
CONTINUOUS
 10
-0.868504
 20
3.553913
  0
VERTEX
  8
PLAN_1
 62
     2
  6
CONTINUOUS
 10
-0.864358
 20
3.552992
  0
VERTEX
  8
PLAN_1
 62
     2
  6
CONTINUOUS
 10
-0.860677
 20
3.551154
  0
VERTEX
  8
PLAN_1
 62
     2
  6
CONTINUOUS
 10
-0.856992
 20
3.548850
  0
VERTEX
  8
PLAN_1
 62
     2
  6
CONTINUOUS
 10
-0.854228
 20
3.545626
  0
VERTEX
  8
PLAN_1
 62
     2
  6
CONTINUOUS
 10
-0.852386
 20
3.541941
  0
VERTEX
  8
PLAN_1
 62
     2
  6
CONTINUOUS
 10
-0.851469
 20
3.539642
  0
VERTEX
  8
PLAN_1
 62
     2
  6
CONTINUOUS
 10
-0.851008
 20
3.537339
  0
VERTEX
  8
PLAN_1
 62
     2
  6
CONTINUOUS
 10
-0.850547
 20
3.535035
  0
VERTEX
  8
PLAN_1
 62
     2
  6
CONTINUOUS
 10
-0.850547
 20
3.532732
  0
VERTEX
  8
PLAN_1
 62
     2
  6
CONTINUOUS
 10
-0.851008
 20
3.528130
  0
VERTEX
  8
PLAN_1
 62
     2
  6
CONTINUOUS
 10
-0.851929
 20
3.523984
  0
VERTEX
  8
PLAN_1
 62
     2
  6
CONTINUOUS
 10
-0.853768
 20
3.520760
  0
VERTEX
  8
PLAN_1
 62
     2
  6
CONTINUOUS
 10
-0.856071
 20
3.517539
  0
VERTEX
  8
PLAN_1
 62
     2
  6
CONTINUOUS
 10
-0.858835
 20
3.515236
  0
VERTEX
  8
PLAN_1
 62
     2
  6
CONTINUOUS
 10
-0.862520
 20
3.512472
  0
VERTEX
  8
PLAN_1
 62
     2
  6
CONTINUOUS
 10
-0.866201
 20
3.510173
  0
VERTEX
  8
PLAN_1
 62
     2
  6
CONTINUOUS
 10
-0.869886
 20
3.508331
  0
VERTEX
  8
PLAN_1
 62
     2
  6
CONTINUOUS
 10
-0.877713
 20
3.504185
  0
VERTEX
  8
PLAN_1
 62
     2
  6
CONTINUOUS
 10
-0.880937
 20
3.501882
  0
VERTEX
  8
PLAN_1
 62
     2
  6
CONTINUOUS
 10
-0.883697
 20
3.500039
  0
VERTEX
  8
PLAN_1
 62
     2
  6
CONTINUOUS
 10
-0.886000
 20
3.497740
  0
VERTEX
  8
PLAN_1
 62
     2
  6
CONTINUOUS
 10
-0.887382
 20
3.495898
  0
VERTEX
  8
PLAN_1
 62
     2
  6
CONTINUOUS
 10
-0.888764
 20
3.494055
  0
VERTEX
  8
PLAN_1
 62
     2
  6
CONTINUOUS
 10
-0.889685
 20
3.492673
  0
VERTEX
  8
PLAN_1
 62
     2
  6
CONTINUOUS
 10
-0.890146
 20
3.491291
  0
VERTEX
  8
PLAN_1
 62
     2
  6
CONTINUOUS
 10
-0.890146
 20
3.489909
  0
VERTEX
  8
PLAN_1
 62
     2
  6
CONTINUOUS
 10
-0.850547
 20
3.489909
  0
VERTEX
  8
PLAN_1
 62
     2
  6
CONTINUOUS
 10
-0.850547
 20
3.481161
  0
VERTEX
  8
PLAN_1
 62
     2
  6
CONTINUOUS
 10
-0.900276
 20
3.481161
  0
VERTEX
  8
PLAN_1
 62
     2
  6
CONTINUOUS
 10
-0.899815
 20
3.486689
  0
VERTEX
  8
PLAN_1
 62
     2
  6
CONTINUOUS
 10
-0.898894
 20
3.491291
  0
VERTEX
  8
PLAN_1
 62
     2
  6
CONTINUOUS
 10
-0.897512
 20
3.495898
  0
VERTEX
  8
PLAN_1
 62
     2
  6
CONTINUOUS
 10
-0.895209
 20
3.499583
  0
VERTEX
  8
PLAN_1
 62
     2
  6
CONTINUOUS
 10
-0.892909
 20
3.502803
  0
VERTEX
  8
PLAN_1
 62
     2
  6
CONTINUOUS
 10
-0.890146
 20
3.505567
  0
VERTEX
  8
PLAN_1
 62
     2
  6
CONTINUOUS
 10
-0.886921
 20
3.507870
  0
VERTEX
  8
PLAN_1
 62
     2
  6
CONTINUOUS
 10
-0.883240
 20
3.510173
  0
VERTEX
  8
PLAN_1
 62
     2
  6
CONTINUOUS
 10
-0.873567
 20
3.516157
  0
VERTEX
  8
PLAN_1
 62
     2
  6
CONTINUOUS
 10
-0.870807
 20
3.517539
  0
VERTEX
  8
PLAN_1
 62
     2
  6
CONTINUOUS
 10
-0.868504
 20
3.519382
  0
VERTEX
  8
PLAN_1
 62
     2
  6
CONTINUOUS
 10
-0.866201
 20
3.520760
  0
VERTEX
  8
PLAN_1
 62
     2
  6
CONTINUOUS
 10
-0.863898
 20
3.522602
  0
VERTEX
  8
PLAN_1
 62
     2
  6
CONTINUOUS
 10
-0.862520
 20
3.524445
  0
VERTEX
  8
PLAN_1
 62
     2
  6
CONTINUOUS
 10
-0.861138
 20
3.526748
  0
VERTEX
  8
PLAN_1
 62
     2
  6
CONTINUOUS
 10
-0.860677
 20
3.529972
  0
VERTEX
  8
PLAN_1
 62
     2
  6
CONTINUOUS
 10
-0.860217
 20
3.533193
  0
VERTEX
  8
PLAN_1
 62
     2
  6
CONTINUOUS
 10
-0.860217
 20
3.535496
  0
VERTEX
  8
PLAN_1
 62
     2
  6
CONTINUOUS
 10
-0.861138
 20
3.537339
  0
VERTEX
  8
PLAN_1
 62
     2
  6
CONTINUOUS
 10
-0.862059
 20
3.539642
  0
VERTEX
  8
PLAN_1
 62
     2
  6
CONTINUOUS
 10
-0.863437
 20
3.541941
  0
VERTEX
  8
PLAN_1
 62
     2
  6
CONTINUOUS
 10
-0.865280
 20
3.543783
  0
VERTEX
  8
PLAN_1
 62
     2
  6
CONTINUOUS
 10
-0.868043
 20
3.545165
  0
VERTEX
  8
PLAN_1
 62
     2
  6
CONTINUOUS
 10
-0.870807
 20
3.546087
  0
VERTEX
  8
PLAN_1
 62
     2
  6
CONTINUOUS
 10
-0.874488
 20
3.546087
  0
VERTEX
  8
PLAN_1
 62
     2
  6
CONTINUOUS
 10
-0.877252
 20
3.546087
  0
VERTEX
  8
PLAN_1
 62
     2
  6
CONTINUOUS
 10
-0.879094
 20
3.545626
  0
VERTEX
  8
PLAN_1
 62
     2
  6
CONTINUOUS
 10
-0.881398
 20
3.545165
  0
VERTEX
  8
PLAN_1
 62
     2
  6
CONTINUOUS
 10
-0.882780
 20
3.544244
  0
VERTEX
  8
PLAN_1
 62
     2
  6
CONTINUOUS
 10
-0.885539
 20
3.541941
  0
VERTEX
  8
PLAN_1
 62
     2
  6
CONTINUOUS
 10
-0.887382
 20
3.539181
  0
VERTEX
  8
PLAN_1
 62
     2
  6
CONTINUOUS
 10
-0.888303
 20
3.536417
  0
VERTEX
  8
PLAN_1
 62
     2
  6
CONTINUOUS
 10
-0.888764
 20
3.533193
  0
VERTEX
  8
PLAN_1
 62
     2
  6
CONTINUOUS
 10
-0.889224
 20
3.530433
  0
VERTEX
  8
PLAN_1
 62
     2
  6
CONTINUOUS
 10
-0.889685
 20
3.528130
  0
VERTEX
  8
PLAN_1
 62
     2
  6
CONTINUOUS
 10
-0.898433
 20
3.528130
  0
SEQEND
  8
0
  0
SOLID
  8
PLAN_1
 62
     2
 10
-0.346346
 20
3.339343
 11
-0.377197
 21
3.392295
 12
-0.346346
 22
3.339343
 13
-0.399299
 23
3.369732
  0
POLYLINE
  8
PLAN_1
 62
     2
  6
CONTINUOUS
 66
     1
 40
0.003000
 41
0.003000
  0
VERTEX
  8
PLAN_1
 62
     2
  6
CONTINUOUS
 10
-0.346346
 20
3.339343
  0
VERTEX
  8
PLAN_1
 62
     2
  6
CONTINUOUS
 10
-0.377197
 20
3.392295
  0
VERTEX
  8
PLAN_1
 62
     2
  6
CONTINUOUS
 10
-0.399299
 20
3.369732
  0
VERTEX
  8
PLAN_1
 62
     2
  6
CONTINUOUS
 10
-0.346346
 20
3.339343
  0
SEQEND
  8
0
  0
POLYLINE
  8
PLAN_1
 62
     2
  6
CONTINUOUS
 66
     1
 40
0.004142
 41
0.004142
  0
VERTEX
  8
PLAN_1
 62
     2
  6
CONTINUOUS
 10
-0.373055
 20
3.365587
  0
VERTEX
  8
PLAN_1
 62
     2
  6
CONTINUOUS
 10
-0.594992
 20
3.582465
  0
VERTEX
  8
PLAN_1
 62
     2
  6
CONTINUOUS
 10
-1.349217
 20
3.582465
  0
SEQEND
  8
0
  0
POLYLINE
  8
PLAN_1
 62
     2
  6
CONTINUOUS
 66
     1
 40
0.004142
 41
0.004142
  0
VERTEX
  8
PLAN_1
 62
     2
  6
CONTINUOUS
 10
0.126539
 20
0.671008
  0
VERTEX
  8
PLAN_1
 62
     2
  6
CONTINUOUS
 10
-0.601441
 20
0.671008
  0
SEQEND
  8
0
  0
POLYLINE
  8
PLAN_1
 62
     2
  6
CONTINUOUS
 66
     1
 40
0.004142
 41
0.004142
  0
VERTEX
  8
PLAN_1
 62
     2
  6
CONTINUOUS
 10
0.126539
 20
3.247713
  0
VERTEX
  8
PLAN_1
 62
     2
  6
CONTINUOUS
 10
-0.030937
 20
3.247713
  0
SEQEND
  8
0
  0
ENDSEC
  0
EOF
