  0
SECTION
  2
HEADER
  9
$ACADVER
  1
AC1006
  9
$EXTMIN
 10
-2.381220
 20
-3.511748
  9
$EXTMAX
 10
2.368000
 20
3.516000
  9
$LTSCALE
 40
0.000394
  9
$PDMODE
 70
    35
  9
$PDSIZE
 40
0.000315
  0
ENDSEC
  0
SECTION
  2
TABLES
  0
TABLE
  2
LTYPE
 70
     9
  0
LTYPE
  2
CONTINUOUS
 70
    64
  3
Solid line
 72
    65
 73
     0
 40
0.000000
  0
LTYPE
  2
DASHED
 70
    64
  3
__ __ __ __ __ __ __ __ __ __ __ __ __ __ __
 72
    65
 73
     2
 40
0.000003
 49
0.000002
 49
-0.000001
  0
LTYPE
  2
HIDDEN
 70
    64
  3
 _ _ _ _ _ _ _ _ _ _ _ _ _ _ _ _ _ _ _ _ _ _
 72
    65
 73
     2
 40
0.000001
 49
0.000001
 49
-0.000000
  0
LTYPE
  2
CENTER
 70
    64
  3
____ _ ____ _ ____ _ ____ _ ____ _ ____ _ ____
 72
    65
 73
     4
 40
0.000008
 49
0.000005
 49
-0.000001
 49
0.000001
 49
-0.000001
  0
LTYPE
  2
PHANTOM
 70
    64
  3
_____ _ _ _____ _ _ _____ _ _ _____ _ _ ____
 72
    65
 73
     6
 40
0.000010
 49
0.000005
 49
-0.000001
 49
0.000001
 49
-0.000001
 49
0.000001
 49
-0.000001
  0
LTYPE
  2
DOT
 70
    64
  3
...............................................
 72
    65
 73
     2
 40
0.000001
 49
0.000000
 49
-0.000001
  0
LTYPE
  2
DASHDOT
 70
    64
  3
__ . __ . __ . __ . __ . __ . __ . __ . __ . __
 72
    65
 73
     4
 40
0.000004
 49
0.000002
 49
-0.000001
 49
0.000000
 49
-0.000001
  0
LTYPE
  2
BORDER
 70
    64
  3
__ __ . __ __ . __ __ . __ __ . __ __ . __ __
 72
    65
 73
     6
 40
0.000007
 49
0.000002
 49
-0.000001
 49
0.000002
 49
-0.000001
 49
0.000000
 49
-0.000001
  0
LTYPE
  2
DIVIDE
 70
    64
  3
__ . . __ . . __ . . __ . . __ . . __ . . __
 72
    65
 73
     6
 40
0.000005
 49
0.000002
 49
-0.000001
 49
0.000000
 49
-0.000001
 49
0.000000
 49
-0.000001
  0
LTYPE
  2
DOTDOT
 70
    64
  3
 . .  . .  . .  . .  . .  . . 
 72
    65
 73
     5
 40
0.000002
 49
-0.000001
 49
0.000000
 49
-0.000001
 49
0.000000
 49
-0.000001
  0
ENDTAB
  0
TABLE
  2
STYLE
 70
     0
  0
ENDTAB
  0
TABLE
  2
LAYER
 70
     3
  0
LAYER
  2
FOREGROUND
 70
    64
 62
     7
  6
CONTINUOUS
  0
LAYER
  2
BACKGROUND
 70
    65
 62
    -7
  6
CONTINUOUS
  0
LAYER
  2
PLAN_1
 70
    64
 62
     7
  6
CONTINUOUS
  0
ENDTAB
  0
ENDSEC
  0
SECTION
  2
ENTITIES
  0
POLYLINE
  8
PLAN_1
  6
CONTINUOUS
 66
     1
 40
0.003000
 41
0.003000
  0
VERTEX
  8
PLAN_1
  6
CONTINUOUS
 10
0.222343
 20
-3.506476
  0
VERTEX
  8
PLAN_1
  6
CONTINUOUS
 10
0.188961
 20
-3.506476
  0
VERTEX
  8
PLAN_1
  6
CONTINUOUS
 10
0.135374
 20
-3.424780
  0
VERTEX
  8
PLAN_1
  6
CONTINUOUS
 10
0.080469
 20
-3.506476
  0
VERTEX
  8
PLAN_1
  6
CONTINUOUS
 10
0.047965
 20
-3.506476
  0
VERTEX
  8
PLAN_1
  6
CONTINUOUS
 10
0.119122
 20
-3.404134
  0
VERTEX
  8
PLAN_1
  6
CONTINUOUS
 10
0.052358
 20
-3.307063
  0
VERTEX
  8
PLAN_1
  6
CONTINUOUS
 10
0.086177
 20
-3.307063
  0
VERTEX
  8
PLAN_1
  6
CONTINUOUS
 10
0.136689
 20
-3.383492
  0
VERTEX
  8
PLAN_1
  6
CONTINUOUS
 10
0.187201
 20
-3.307063
  0
VERTEX
  8
PLAN_1
  6
CONTINUOUS
 10
0.219268
 20
-3.307063
  0
VERTEX
  8
PLAN_1
  6
CONTINUOUS
 10
0.152504
 20
-3.404134
  0
VERTEX
  8
PLAN_1
  6
CONTINUOUS
 10
0.222343
 20
-3.506476
  0
SEQEND
  8
0
  0
POLYLINE
  8
PLAN_1
  6
CONTINUOUS
 66
     1
 40
0.003000
 41
0.003000
  0
VERTEX
  8
PLAN_1
  6
CONTINUOUS
 10
0.388811
 20
-3.367240
  0
VERTEX
  8
PLAN_1
  6
CONTINUOUS
 10
0.387055
 20
-3.361091
  0
VERTEX
  8
PLAN_1
  6
CONTINUOUS
 10
0.384858
 20
-3.355378
  0
VERTEX
  8
PLAN_1
  6
CONTINUOUS
 10
0.382661
 20
-3.350110
  0
VERTEX
  8
PLAN_1
  6
CONTINUOUS
 10
0.379587
 20
-3.345717
  0
VERTEX
  8
PLAN_1
  6
CONTINUOUS
 10
0.376512
 20
-3.342201
  0
VERTEX
  8
PLAN_1
  6
CONTINUOUS
 10
0.373000
 20
-3.338689
  0
VERTEX
  8
PLAN_1
  6
CONTINUOUS
 10
0.369043
 20
-3.335614
  0
VERTEX
  8
PLAN_1
  6
CONTINUOUS
 10
0.365091
 20
-3.333417
  0
VERTEX
  8
PLAN_1
  6
CONTINUOUS
 10
0.361138
 20
-3.331220
  0
VERTEX
  8
PLAN_1
  6
CONTINUOUS
 10
0.357185
 20
-3.329465
  0
VERTEX
  8
PLAN_1
  6
CONTINUOUS
 10
0.352795
 20
-3.328146
  0
VERTEX
  8
PLAN_1
  6
CONTINUOUS
 10
0.348839
 20
-3.327268
  0
VERTEX
  8
PLAN_1
  6
CONTINUOUS
 10
0.340496
 20
-3.325953
  0
VERTEX
  8
PLAN_1
  6
CONTINUOUS
 10
0.333028
 20
-3.325953
  0
VERTEX
  8
PLAN_1
  6
CONTINUOUS
 10
0.326441
 20
-3.325953
  0
VERTEX
  8
PLAN_1
  6
CONTINUOUS
 10
0.319850
 20
-3.326831
  0
VERTEX
  8
PLAN_1
  6
CONTINUOUS
 10
0.313701
 20
-3.328587
  0
VERTEX
  8
PLAN_1
  6
CONTINUOUS
 10
0.307551
 20
-3.330783
  0
VERTEX
  8
PLAN_1
  6
CONTINUOUS
 10
0.301843
 20
-3.333417
  0
VERTEX
  8
PLAN_1
  6
CONTINUOUS
 10
0.296571
 20
-3.336933
  0
VERTEX
  8
PLAN_1
  6
CONTINUOUS
 10
0.291299
 20
-3.340886
  0
VERTEX
  8
PLAN_1
  6
CONTINUOUS
 10
0.286909
 20
-3.345717
  0
VERTEX
  8
PLAN_1
  6
CONTINUOUS
 10
0.282516
 20
-3.350988
  0
VERTEX
  8
PLAN_1
  6
CONTINUOUS
 10
0.279004
 20
-3.356697
  0
VERTEX
  8
PLAN_1
  6
CONTINUOUS
 10
0.275488
 20
-3.363287
  0
VERTEX
  8
PLAN_1
  6
CONTINUOUS
 10
0.272854
 20
-3.370315
  0
VERTEX
  8
PLAN_1
  6
CONTINUOUS
 10
0.270657
 20
-3.378220
  0
VERTEX
  8
PLAN_1
  6
CONTINUOUS
 10
0.268902
 20
-3.386567
  0
VERTEX
  8
PLAN_1
  6
CONTINUOUS
 10
0.268020
 20
-3.395350
  0
VERTEX
  8
PLAN_1
  6
CONTINUOUS
 10
0.267583
 20
-3.405012
  0
VERTEX
  8
PLAN_1
  6
CONTINUOUS
 10
0.268020
 20
-3.413358
  0
VERTEX
  8
PLAN_1
  6
CONTINUOUS
 10
0.268461
 20
-3.421705
  0
VERTEX
  8
PLAN_1
  6
CONTINUOUS
 10
0.269780
 20
-3.430051
  0
VERTEX
  8
PLAN_1
  6
CONTINUOUS
 10
0.271094
 20
-3.437516
  0
VERTEX
  8
PLAN_1
  6
CONTINUOUS
 10
0.273291
 20
-3.444984
  0
VERTEX
  8
PLAN_1
  6
CONTINUOUS
 10
0.275488
 20
-3.451571
  0
VERTEX
  8
PLAN_1
  6
CONTINUOUS
 10
0.278563
 20
-3.458161
  0
VERTEX
  8
PLAN_1
  6
CONTINUOUS
 10
0.282516
 20
-3.463870
  0
VERTEX
  8
PLAN_1
  6
CONTINUOUS
 10
0.286469
 20
-3.469142
  0
VERTEX
  8
PLAN_1
  6
CONTINUOUS
 10
0.291299
 20
-3.473972
  0
VERTEX
  8
PLAN_1
  6
CONTINUOUS
 10
0.293937
 20
-3.476169
  0
VERTEX
  8
PLAN_1
  6
CONTINUOUS
 10
0.296571
 20
-3.477925
  0
VERTEX
  8
PLAN_1
  6
CONTINUOUS
 10
0.299646
 20
-3.479681
  0
VERTEX
  8
PLAN_1
  6
CONTINUOUS
 10
0.302720
 20
-3.481441
  0
VERTEX
  8
PLAN_1
  6
CONTINUOUS
 10
0.305795
 20
-3.482756
  0
VERTEX
  8
PLAN_1
  6
CONTINUOUS
 10
0.309311
 20
-3.484075
  0
VERTEX
  8
PLAN_1
  6
CONTINUOUS
 10
0.312823
 20
-3.485394
  0
VERTEX
  8
PLAN_1
  6
CONTINUOUS
 10
0.316776
 20
-3.486272
  0
VERTEX
  8
PLAN_1
  6
CONTINUOUS
 10
0.325122
 20
-3.487591
  0
VERTEX
  8
PLAN_1
  6
CONTINUOUS
 10
0.333906
 20
-3.488028
  0
VERTEX
  8
PLAN_1
  6
CONTINUOUS
 10
0.337421
 20
-3.487591
  0
VERTEX
  8
PLAN_1
  6
CONTINUOUS
 10
0.340933
 20
-3.487591
  0
VERTEX
  8
PLAN_1
  6
CONTINUOUS
 10
0.344886
 20
-3.486709
  0
VERTEX
  8
PLAN_1
  6
CONTINUOUS
 10
0.348839
 20
-3.485831
  0
VERTEX
  8
PLAN_1
  6
CONTINUOUS
 10
0.352795
 20
-3.484516
  0
VERTEX
  8
PLAN_1
  6
CONTINUOUS
 10
0.357185
 20
-3.482756
  0
VERTEX
  8
PLAN_1
  6
CONTINUOUS
 10
0.361138
 20
-3.480563
  0
VERTEX
  8
PLAN_1
  6
CONTINUOUS
 10
0.365531
 20
-3.477925
  0
VERTEX
  8
PLAN_1
  6
CONTINUOUS
 10
0.369484
 20
-3.474850
  0
VERTEX
  8
PLAN_1
  6
CONTINUOUS
 10
0.373437
 20
-3.470898
  0
VERTEX
  8
PLAN_1
  6
CONTINUOUS
 10
0.376953
 20
-3.466504
  0
VERTEX
  8
PLAN_1
  6
CONTINUOUS
 10
0.380465
 20
-3.461236
  0
VERTEX
  8
PLAN_1
  6
CONTINUOUS
 10
0.383539
 20
-3.455524
  0
VERTEX
  8
PLAN_1
  6
CONTINUOUS
 10
0.386614
 20
-3.448937
  0
VERTEX
  8
PLAN_1
  6
CONTINUOUS
 10
0.388811
 20
-3.441469
  0
VERTEX
  8
PLAN_1
  6
CONTINUOUS
 10
0.390567
 20
-3.433126
  0
VERTEX
  8
PLAN_1
  6
CONTINUOUS
 10
0.416921
 20
-3.433126
  0
VERTEX
  8
PLAN_1
  6
CONTINUOUS
 10
0.415602
 20
-3.440154
  0
VERTEX
  8
PLAN_1
  6
CONTINUOUS
 10
0.414287
 20
-3.446299
  0
VERTEX
  8
PLAN_1
  6
CONTINUOUS
 10
0.412528
 20
-3.452449
  0
VERTEX
  8
PLAN_1
  6
CONTINUOUS
 10
0.410335
 20
-3.458161
  0
VERTEX
  8
PLAN_1
  6
CONTINUOUS
 10
0.408138
 20
-3.463433
  0
VERTEX
  8
PLAN_1
  6
CONTINUOUS
 10
0.405941
 20
-3.468264
  0
VERTEX
  8
PLAN_1
  6
CONTINUOUS
 10
0.403307
 20
-3.473094
  0
VERTEX
  8
PLAN_1
  6
CONTINUOUS
 10
0.400669
 20
-3.477047
  0
VERTEX
  8
PLAN_1
  6
CONTINUOUS
 10
0.397594
 20
-3.481000
  0
VERTEX
  8
PLAN_1
  6
CONTINUOUS
 10
0.394520
 20
-3.484953
  0
VERTEX
  8
PLAN_1
  6
CONTINUOUS
 10
0.391445
 20
-3.488028
  0
VERTEX
  8
PLAN_1
  6
CONTINUOUS
 10
0.388370
 20
-3.491102
  0
VERTEX
  8
PLAN_1
  6
CONTINUOUS
 10
0.384858
 20
-3.493740
  0
VERTEX
  8
PLAN_1
  6
CONTINUOUS
 10
0.381783
 20
-3.496374
  0
VERTEX
  8
PLAN_1
  6
CONTINUOUS
 10
0.378268
 20
-3.498571
  0
VERTEX
  8
PLAN_1
  6
CONTINUOUS
 10
0.374756
 20
-3.500768
  0
VERTEX
  8
PLAN_1
  6
CONTINUOUS
 10
0.367728
 20
-3.504280
  0
VERTEX
  8
PLAN_1
  6
CONTINUOUS
 10
0.361138
 20
-3.506917
  0
VERTEX
  8
PLAN_1
  6
CONTINUOUS
 10
0.354110
 20
-3.508673
  0
VERTEX
  8
PLAN_1
  6
CONTINUOUS
 10
0.347961
 20
-3.509988
  0
VERTEX
  8
PLAN_1
  6
CONTINUOUS
 10
0.337421
 20
-3.511307
  0
VERTEX
  8
PLAN_1
  6
CONTINUOUS
 10
0.329516
 20
-3.511748
  0
VERTEX
  8
PLAN_1
  6
CONTINUOUS
 10
0.321169
 20
-3.511307
  0
VERTEX
  8
PLAN_1
  6
CONTINUOUS
 10
0.312823
 20
-3.510429
  0
VERTEX
  8
PLAN_1
  6
CONTINUOUS
 10
0.304476
 20
-3.508673
  0
VERTEX
  8
PLAN_1
  6
CONTINUOUS
 10
0.296571
 20
-3.506035
  0
VERTEX
  8
PLAN_1
  6
CONTINUOUS
 10
0.292618
 20
-3.504280
  0
VERTEX
  8
PLAN_1
  6
CONTINUOUS
 10
0.288665
 20
-3.502524
  0
VERTEX
  8
PLAN_1
  6
CONTINUOUS
 10
0.285150
 20
-3.500768
  0
VERTEX
  8
PLAN_1
  6
CONTINUOUS
 10
0.281638
 20
-3.498571
  0
VERTEX
  8
PLAN_1
  6
CONTINUOUS
 10
0.277685
 20
-3.495933
  0
VERTEX
  8
PLAN_1
  6
CONTINUOUS
 10
0.274610
 20
-3.493299
  0
VERTEX
  8
PLAN_1
  6
CONTINUOUS
 10
0.271094
 20
-3.490665
  0
VERTEX
  8
PLAN_1
  6
CONTINUOUS
 10
0.268020
 20
-3.487591
  0
VERTEX
  8
PLAN_1
  6
CONTINUOUS
 10
0.264945
 20
-3.484075
  0
VERTEX
  8
PLAN_1
  6
CONTINUOUS
 10
0.261874
 20
-3.480563
  0
VERTEX
  8
PLAN_1
  6
CONTINUOUS
 10
0.259236
 20
-3.477047
  0
VERTEX
  8
PLAN_1
  6
CONTINUOUS
 10
0.256602
 20
-3.473094
  0
VERTEX
  8
PLAN_1
  6
CONTINUOUS
 10
0.253965
 20
-3.468701
  0
VERTEX
  8
PLAN_1
  6
CONTINUOUS
 10
0.251772
 20
-3.464311
  0
VERTEX
  8
PLAN_1
  6
CONTINUOUS
 10
0.249575
 20
-3.459476
  0
VERTEX
  8
PLAN_1
  6
CONTINUOUS
 10
0.247815
 20
-3.454646
  0
VERTEX
  8
PLAN_1
  6
CONTINUOUS
 10
0.246059
 20
-3.449374
  0
VERTEX
  8
PLAN_1
  6
CONTINUOUS
 10
0.244303
 20
-3.444106
  0
VERTEX
  8
PLAN_1
  6
CONTINUOUS
 10
0.242984
 20
-3.438394
  0
VERTEX
  8
PLAN_1
  6
CONTINUOUS
 10
0.242106
 20
-3.432244
  0
VERTEX
  8
PLAN_1
  6
CONTINUOUS
 10
0.241228
 20
-3.426094
  0
VERTEX
  8
PLAN_1
  6
CONTINUOUS
 10
0.240350
 20
-3.419508
  0
VERTEX
  8
PLAN_1
  6
CONTINUOUS
 10
0.240350
 20
-3.412917
  0
VERTEX
  8
PLAN_1
  6
CONTINUOUS
 10
0.239909
 20
-3.405890
  0
VERTEX
  8
PLAN_1
  6
CONTINUOUS
 10
0.240350
 20
-3.394472
  0
VERTEX
  8
PLAN_1
  6
CONTINUOUS
 10
0.241665
 20
-3.383492
  0
VERTEX
  8
PLAN_1
  6
CONTINUOUS
 10
0.243425
 20
-3.373390
  0
VERTEX
  8
PLAN_1
  6
CONTINUOUS
 10
0.246500
 20
-3.363724
  0
VERTEX
  8
PLAN_1
  6
CONTINUOUS
 10
0.248256
 20
-3.358894
  0
VERTEX
  8
PLAN_1
  6
CONTINUOUS
 10
0.250012
 20
-3.354500
  0
VERTEX
  8
PLAN_1
  6
CONTINUOUS
 10
0.251772
 20
-3.350110
  0
VERTEX
  8
PLAN_1
  6
CONTINUOUS
 10
0.253965
 20
-3.345717
  0
VERTEX
  8
PLAN_1
  6
CONTINUOUS
 10
0.256602
 20
-3.341764
  0
VERTEX
  8
PLAN_1
  6
CONTINUOUS
 10
0.259236
 20
-3.337811
  0
VERTEX
  8
PLAN_1
  6
CONTINUOUS
 10
0.261874
 20
-3.334295
  0
VERTEX
  8
PLAN_1
  6
CONTINUOUS
 10
0.264945
 20
-3.330783
  0
VERTEX
  8
PLAN_1
  6
CONTINUOUS
 10
0.268020
 20
-3.327268
  0
VERTEX
  8
PLAN_1
  6
CONTINUOUS
 10
0.271094
 20
-3.324193
  0
VERTEX
  8
PLAN_1
  6
CONTINUOUS
 10
0.274610
 20
-3.321559
  0
VERTEX
  8
PLAN_1
  6
CONTINUOUS
 10
0.278122
 20
-3.318484
  0
VERTEX
  8
PLAN_1
  6
CONTINUOUS
 10
0.281638
 20
-3.315850
  0
VERTEX
  8
PLAN_1
  6
CONTINUOUS
 10
0.285591
 20
-3.313654
  0
VERTEX
  8
PLAN_1
  6
CONTINUOUS
 10
0.289984
 20
-3.311457
  0
VERTEX
  8
PLAN_1
  6
CONTINUOUS
 10
0.293937
 20
-3.309701
  0
VERTEX
  8
PLAN_1
  6
CONTINUOUS
 10
0.298327
 20
-3.307941
  0
VERTEX
  8
PLAN_1
  6
CONTINUOUS
 10
0.302720
 20
-3.306185
  0
VERTEX
  8
PLAN_1
  6
CONTINUOUS
 10
0.307551
 20
-3.304866
  0
VERTEX
  8
PLAN_1
  6
CONTINUOUS
 10
0.312386
 20
-3.303988
  0
VERTEX
  8
PLAN_1
  6
CONTINUOUS
 10
0.317217
 20
-3.303110
  0
VERTEX
  8
PLAN_1
  6
CONTINUOUS
 10
0.322488
 20
-3.302232
  0
VERTEX
  8
PLAN_1
  6
CONTINUOUS
 10
0.327756
 20
-3.302232
  0
VERTEX
  8
PLAN_1
  6
CONTINUOUS
 10
0.333028
 20
-3.301791
  0
VERTEX
  8
PLAN_1
  6
CONTINUOUS
 10
0.342252
 20
-3.302232
  0
VERTEX
  8
PLAN_1
  6
CONTINUOUS
 10
0.351035
 20
-3.303551
  0
VERTEX
  8
PLAN_1
  6
CONTINUOUS
 10
0.359382
 20
-3.304866
  0
VERTEX
  8
PLAN_1
  6
CONTINUOUS
 10
0.366850
 20
-3.307504
  0
VERTEX
  8
PLAN_1
  6
CONTINUOUS
 10
0.373878
 20
-3.310138
  0
VERTEX
  8
PLAN_1
  6
CONTINUOUS
 10
0.380465
 20
-3.313654
  0
VERTEX
  8
PLAN_1
  6
CONTINUOUS
 10
0.386614
 20
-3.317606
  0
VERTEX
  8
PLAN_1
  6
CONTINUOUS
 10
0.391886
 20
-3.321996
  0
VERTEX
  8
PLAN_1
  6
CONTINUOUS
 10
0.396717
 20
-3.326831
  0
VERTEX
  8
PLAN_1
  6
CONTINUOUS
 10
0.400669
 20
-3.331661
  0
VERTEX
  8
PLAN_1
  6
CONTINUOUS
 10
0.404622
 20
-3.337370
  0
VERTEX
  8
PLAN_1
  6
CONTINUOUS
 10
0.407697
 20
-3.343083
  0
VERTEX
  8
PLAN_1
  6
CONTINUOUS
 10
0.410335
 20
-3.348791
  0
VERTEX
  8
PLAN_1
  6
CONTINUOUS
 10
0.412528
 20
-3.354941
  0
VERTEX
  8
PLAN_1
  6
CONTINUOUS
 10
0.413846
 20
-3.361091
  0
VERTEX
  8
PLAN_1
  6
CONTINUOUS
 10
0.414724
 20
-3.367240
  0
VERTEX
  8
PLAN_1
  6
CONTINUOUS
 10
0.388811
 20
-3.367240
  0
SEQEND
  8
0
  0
POLYLINE
  8
PLAN_1
  6
CONTINUOUS
 66
     1
 40
0.003000
 41
0.003000
  0
VERTEX
  8
PLAN_1
  6
CONTINUOUS
 10
0.476217
 20
-3.506476
  0
VERTEX
  8
PLAN_1
  6
CONTINUOUS
 10
0.449425
 20
-3.506476
  0
VERTEX
  8
PLAN_1
  6
CONTINUOUS
 10
0.449425
 20
-3.307063
  0
VERTEX
  8
PLAN_1
  6
CONTINUOUS
 10
0.476217
 20
-3.307063
  0
VERTEX
  8
PLAN_1
  6
CONTINUOUS
 10
0.476217
 20
-3.403697
  0
VERTEX
  8
PLAN_1
  6
CONTINUOUS
 10
0.572850
 20
-3.307063
  0
VERTEX
  8
PLAN_1
  6
CONTINUOUS
 10
0.610185
 20
-3.307063
  0
VERTEX
  8
PLAN_1
  6
CONTINUOUS
 10
0.527169
 20
-3.387882
  0
VERTEX
  8
PLAN_1
  6
CONTINUOUS
 10
0.612382
 20
-3.506476
  0
VERTEX
  8
PLAN_1
  6
CONTINUOUS
 10
0.577244
 20
-3.506476
  0
VERTEX
  8
PLAN_1
  6
CONTINUOUS
 10
0.507843
 20
-3.406331
  0
VERTEX
  8
PLAN_1
  6
CONTINUOUS
 10
0.476217
 20
-3.436638
  0
VERTEX
  8
PLAN_1
  6
CONTINUOUS
 10
0.476217
 20
-3.506476
  0
SEQEND
  8
0
  0
POLYLINE
  8
PLAN_1
  6
CONTINUOUS
 66
     1
 40
0.003000
 41
0.003000
  0
VERTEX
  8
PLAN_1
  6
CONTINUOUS
 10
0.798618
 20
-3.506476
  0
VERTEX
  8
PLAN_1
  6
CONTINUOUS
 10
0.798618
 20
-3.388760
  0
VERTEX
  8
PLAN_1
  6
CONTINUOUS
 10
0.798618
 20
-3.385685
  0
VERTEX
  8
PLAN_1
  6
CONTINUOUS
 10
0.798618
 20
-3.381295
  0
VERTEX
  8
PLAN_1
  6
CONTINUOUS
 10
0.799055
 20
-3.375583
  0
VERTEX
  8
PLAN_1
  6
CONTINUOUS
 10
0.799055
 20
-3.368555
  0
VERTEX
  8
PLAN_1
  6
CONTINUOUS
 10
0.799055
 20
-3.361528
  0
VERTEX
  8
PLAN_1
  6
CONTINUOUS
 10
0.799055
 20
-3.354063
  0
VERTEX
  8
PLAN_1
  6
CONTINUOUS
 10
0.799055
 20
-3.346157
  0
VERTEX
  8
PLAN_1
  6
CONTINUOUS
 10
0.799055
 20
-3.339126
  0
VERTEX
  8
PLAN_1
  6
CONTINUOUS
 10
0.798618
 20
-3.339126
  0
VERTEX
  8
PLAN_1
  6
CONTINUOUS
 10
0.742835
 20
-3.506476
  0
VERTEX
  8
PLAN_1
  6
CONTINUOUS
 10
0.716039
 20
-3.506476
  0
VERTEX
  8
PLAN_1
  6
CONTINUOUS
 10
0.659819
 20
-3.339567
  0
VERTEX
  8
PLAN_1
  6
CONTINUOUS
 10
0.659378
 20
-3.339567
  0
VERTEX
  8
PLAN_1
  6
CONTINUOUS
 10
0.659378
 20
-3.346594
  0
VERTEX
  8
PLAN_1
  6
CONTINUOUS
 10
0.659378
 20
-3.354063
  0
VERTEX
  8
PLAN_1
  6
CONTINUOUS
 10
0.659378
 20
-3.361528
  0
VERTEX
  8
PLAN_1
  6
CONTINUOUS
 10
0.659819
 20
-3.368555
  0
VERTEX
  8
PLAN_1
  6
CONTINUOUS
 10
0.659819
 20
-3.375583
  0
VERTEX
  8
PLAN_1
  6
CONTINUOUS
 10
0.659819
 20
-3.381295
  0
VERTEX
  8
PLAN_1
  6
CONTINUOUS
 10
0.659819
 20
-3.385685
  0
VERTEX
  8
PLAN_1
  6
CONTINUOUS
 10
0.659819
 20
-3.388760
  0
VERTEX
  8
PLAN_1
  6
CONTINUOUS
 10
0.659819
 20
-3.506476
  0
VERTEX
  8
PLAN_1
  6
CONTINUOUS
 10
0.633902
 20
-3.506476
  0
VERTEX
  8
PLAN_1
  6
CONTINUOUS
 10
0.633902
 20
-3.307063
  0
VERTEX
  8
PLAN_1
  6
CONTINUOUS
 10
0.672555
 20
-3.307063
  0
VERTEX
  8
PLAN_1
  6
CONTINUOUS
 10
0.729217
 20
-3.475728
  0
VERTEX
  8
PLAN_1
  6
CONTINUOUS
 10
0.730094
 20
-3.475728
  0
VERTEX
  8
PLAN_1
  6
CONTINUOUS
 10
0.786319
 20
-3.307063
  0
VERTEX
  8
PLAN_1
  6
CONTINUOUS
 10
0.824969
 20
-3.307063
  0
VERTEX
  8
PLAN_1
  6
CONTINUOUS
 10
0.824969
 20
-3.506476
  0
VERTEX
  8
PLAN_1
  6
CONTINUOUS
 10
0.798618
 20
-3.506476
  0
SEQEND
  8
0
  0
POLYLINE
  8
PLAN_1
  6
CONTINUOUS
 66
     1
 40
0.003000
 41
0.003000
  0
VERTEX
  8
PLAN_1
  6
CONTINUOUS
 10
1.028776
 20
-3.352303
  0
VERTEX
  8
PLAN_1
  6
CONTINUOUS
 10
1.047661
 20
-3.352303
  0
VERTEX
  8
PLAN_1
  6
CONTINUOUS
 10
1.043272
 20
-3.366799
  0
VERTEX
  8
PLAN_1
  6
CONTINUOUS
 10
1.039315
 20
-3.381732
  0
VERTEX
  8
PLAN_1
  6
CONTINUOUS
 10
1.034925
 20
-3.395787
  0
VERTEX
  8
PLAN_1
  6
CONTINUOUS
 10
1.030972
 20
-3.408965
  0
VERTEX
  8
PLAN_1
  6
CONTINUOUS
 10
1.027457
 20
-3.420827
  0
VERTEX
  8
PLAN_1
  6
CONTINUOUS
 10
1.024823
 20
-3.430929
  0
VERTEX
  8
PLAN_1
  6
CONTINUOUS
 10
1.023063
 20
-3.438394
  0
VERTEX
  8
PLAN_1
  6
CONTINUOUS
 10
1.022626
 20
-3.442787
  0
VERTEX
  8
PLAN_1
  6
CONTINUOUS
 10
1.022626
 20
-3.444543
  0
VERTEX
  8
PLAN_1
  6
CONTINUOUS
 10
1.022626
 20
-3.446299
  0
VERTEX
  8
PLAN_1
  6
CONTINUOUS
 10
1.023063
 20
-3.447618
  0
VERTEX
  8
PLAN_1
  6
CONTINUOUS
 10
1.023945
 20
-3.448496
  0
VERTEX
  8
PLAN_1
  6
CONTINUOUS
 10
1.024382
 20
-3.449374
  0
VERTEX
  8
PLAN_1
  6
CONTINUOUS
 10
1.025701
 20
-3.450256
  0
VERTEX
  8
PLAN_1
  6
CONTINUOUS
 10
1.027020
 20
-3.450693
  0
VERTEX
  8
PLAN_1
  6
CONTINUOUS
 10
1.028335
 20
-3.450693
  0
VERTEX
  8
PLAN_1
  6
CONTINUOUS
 10
1.031850
 20
-3.450256
  0
VERTEX
  8
PLAN_1
  6
CONTINUOUS
 10
1.035362
 20
-3.449374
  0
VERTEX
  8
PLAN_1
  6
CONTINUOUS
 10
1.038878
 20
-3.447618
  0
VERTEX
  8
PLAN_1
  6
CONTINUOUS
 10
1.042390
 20
-3.445421
  0
VERTEX
  8
PLAN_1
  6
CONTINUOUS
 10
1.045906
 20
-3.442787
  0
VERTEX
  8
PLAN_1
  6
CONTINUOUS
 10
1.048980
 20
-3.439713
  0
VERTEX
  8
PLAN_1
  6
CONTINUOUS
 10
1.052055
 20
-3.435760
  0
VERTEX
  8
PLAN_1
  6
CONTINUOUS
 10
1.055130
 20
-3.431807
  0
VERTEX
  8
PLAN_1
  6
CONTINUOUS
 10
1.057764
 20
-3.427413
  0
VERTEX
  8
PLAN_1
  6
CONTINUOUS
 10
1.060402
 20
-3.422583
  0
VERTEX
  8
PLAN_1
  6
CONTINUOUS
 10
1.062594
 20
-3.417752
  0
VERTEX
  8
PLAN_1
  6
CONTINUOUS
 10
1.064354
 20
-3.412480
  0
VERTEX
  8
PLAN_1
  6
CONTINUOUS
 10
1.065669
 20
-3.407209
  0
VERTEX
  8
PLAN_1
  6
CONTINUOUS
 10
1.066988
 20
-3.401937
  0
VERTEX
  8
PLAN_1
  6
CONTINUOUS
 10
1.067429
 20
-3.396228
  0
VERTEX
  8
PLAN_1
  6
CONTINUOUS
 10
1.067866
 20
-3.390520
  0
VERTEX
  8
PLAN_1
  6
CONTINUOUS
 10
1.067429
 20
-3.382610
  0
VERTEX
  8
PLAN_1
  6
CONTINUOUS
 10
1.066110
 20
-3.374705
  0
VERTEX
  8
PLAN_1
  6
CONTINUOUS
 10
1.064354
 20
-3.367677
  0
VERTEX
  8
PLAN_1
  6
CONTINUOUS
 10
1.061717
 20
-3.360650
  0
VERTEX
  8
PLAN_1
  6
CONTINUOUS
 10
1.058205
 20
-3.354500
  0
VERTEX
  8
PLAN_1
  6
CONTINUOUS
 10
1.054252
 20
-3.348350
  0
VERTEX
  8
PLAN_1
  6
CONTINUOUS
 10
1.049858
 20
-3.343083
  0
VERTEX
  8
PLAN_1
  6
CONTINUOUS
 10
1.044587
 20
-3.338248
  0
VERTEX
  8
PLAN_1
  6
CONTINUOUS
 10
1.039315
 20
-3.333858
  0
VERTEX
  8
PLAN_1
  6
CONTINUOUS
 10
1.033165
 20
-3.329906
  0
VERTEX
  8
PLAN_1
  6
CONTINUOUS
 10
1.027020
 20
-3.326831
  0
VERTEX
  8
PLAN_1
  6
CONTINUOUS
 10
1.019992
 20
-3.324193
  0
VERTEX
  8
PLAN_1
  6
CONTINUOUS
 10
1.012961
 20
-3.321996
  0
VERTEX
  8
PLAN_1
  6
CONTINUOUS
 10
1.005496
 20
-3.320240
  0
VERTEX
  8
PLAN_1
  6
CONTINUOUS
 10
0.998028
 20
-3.319362
  0
VERTEX
  8
PLAN_1
  6
CONTINUOUS
 10
0.990122
 20
-3.318921
  0
VERTEX
  8
PLAN_1
  6
CONTINUOUS
 10
0.985728
 20
-3.319362
  0
VERTEX
  8
PLAN_1
  6
CONTINUOUS
 10
0.981339
 20
-3.319362
  0
VERTEX
  8
PLAN_1
  6
CONTINUOUS
 10
0.976945
 20
-3.320240
  0
VERTEX
  8
PLAN_1
  6
CONTINUOUS
 10
0.972551
 20
-3.321118
  0
VERTEX
  8
PLAN_1
  6
CONTINUOUS
 10
0.968161
 20
-3.321996
  0
VERTEX
  8
PLAN_1
  6
CONTINUOUS
 10
0.964209
 20
-3.323315
  0
VERTEX
  8
PLAN_1
  6
CONTINUOUS
 10
0.960256
 20
-3.324634
  0
VERTEX
  8
PLAN_1
  6
CONTINUOUS
 10
0.956303
 20
-3.325953
  0
VERTEX
  8
PLAN_1
  6
CONTINUOUS
 10
0.948835
 20
-3.329906
  0
VERTEX
  8
PLAN_1
  6
CONTINUOUS
 10
0.941807
 20
-3.334295
  0
VERTEX
  8
PLAN_1
  6
CONTINUOUS
 10
0.935657
 20
-3.339567
  0
VERTEX
  8
PLAN_1
  6
CONTINUOUS
 10
0.929508
 20
-3.345276
  0
VERTEX
  8
PLAN_1
  6
CONTINUOUS
 10
0.924236
 20
-3.351425
  0
VERTEX
  8
PLAN_1
  6
CONTINUOUS
 10
0.919406
 20
-3.358453
  0
VERTEX
  8
PLAN_1
  6
CONTINUOUS
 10
0.915453
 20
-3.365480
  0
VERTEX
  8
PLAN_1
  6
CONTINUOUS
 10
0.912378
 20
-3.373390
  0
VERTEX
  8
PLAN_1
  6
CONTINUOUS
 10
0.909303
 20
-3.381295
  0
VERTEX
  8
PLAN_1
  6
CONTINUOUS
 10
0.907547
 20
-3.390079
  0
VERTEX
  8
PLAN_1
  6
CONTINUOUS
 10
0.906228
 20
-3.398862
  0
VERTEX
  8
PLAN_1
  6
CONTINUOUS
 10
0.905791
 20
-3.408087
  0
VERTEX
  8
PLAN_1
  6
CONTINUOUS
 10
0.906228
 20
-3.416874
  0
VERTEX
  8
PLAN_1
  6
CONTINUOUS
 10
0.907547
 20
-3.425657
  0
VERTEX
  8
PLAN_1
  6
CONTINUOUS
 10
0.909744
 20
-3.434004
  0
VERTEX
  8
PLAN_1
  6
CONTINUOUS
 10
0.912378
 20
-3.442346
  0
VERTEX
  8
PLAN_1
  6
CONTINUOUS
 10
0.916331
 20
-3.449815
  0
VERTEX
  8
PLAN_1
  6
CONTINUOUS
 10
0.920283
 20
-3.456843
  0
VERTEX
  8
PLAN_1
  6
CONTINUOUS
 10
0.925555
 20
-3.463433
  0
VERTEX
  8
PLAN_1
  6
CONTINUOUS
 10
0.930827
 20
-3.469579
  0
VERTEX
  8
PLAN_1
  6
CONTINUOUS
 10
0.936976
 20
-3.475291
  0
VERTEX
  8
PLAN_1
  6
CONTINUOUS
 10
0.943563
 20
-3.480122
  0
VERTEX
  8
PLAN_1
  6
CONTINUOUS
 10
0.950591
 20
-3.484516
  0
VERTEX
  8
PLAN_1
  6
CONTINUOUS
 10
0.958059
 20
-3.488028
  0
VERTEX
  8
PLAN_1
  6
CONTINUOUS
 10
0.966406
 20
-3.490665
  0
VERTEX
  8
PLAN_1
  6
CONTINUOUS
 10
0.974748
 20
-3.492858
  0
VERTEX
  8
PLAN_1
  6
CONTINUOUS
 10
0.983094
 20
-3.494177
  0
VERTEX
  8
PLAN_1
  6
CONTINUOUS
 10
0.992319
 20
-3.494618
  0
VERTEX
  8
PLAN_1
  6
CONTINUOUS
 10
0.997150
 20
-3.494618
  0
VERTEX
  8
PLAN_1
  6
CONTINUOUS
 10
1.001980
 20
-3.494177
  0
VERTEX
  8
PLAN_1
  6
CONTINUOUS
 10
1.006815
 20
-3.493299
  0
VERTEX
  8
PLAN_1
  6
CONTINUOUS
 10
1.011646
 20
-3.492421
  0
VERTEX
  8
PLAN_1
  6
CONTINUOUS
 10
1.016035
 20
-3.491102
  0
VERTEX
  8
PLAN_1
  6
CONTINUOUS
 10
1.020870
 20
-3.489783
  0
VERTEX
  8
PLAN_1
  6
CONTINUOUS
 10
1.025260
 20
-3.488028
  0
VERTEX
  8
PLAN_1
  6
CONTINUOUS
 10
1.029654
 20
-3.485831
  0
VERTEX
  8
PLAN_1
  6
CONTINUOUS
 10
1.034047
 20
-3.483638
  0
VERTEX
  8
PLAN_1
  6
CONTINUOUS
 10
1.038000
 20
-3.481441
  0
VERTEX
  8
PLAN_1
  6
CONTINUOUS
 10
1.042390
 20
-3.478803
  0
VERTEX
  8
PLAN_1
  6
CONTINUOUS
 10
1.046343
 20
-3.476169
  0
VERTEX
  8
PLAN_1
  6
CONTINUOUS
 10
1.049858
 20
-3.473094
  0
VERTEX
  8
PLAN_1
  6
CONTINUOUS
 10
1.053374
 20
-3.470020
  0
VERTEX
  8
PLAN_1
  6
CONTINUOUS
 10
1.056445
 20
-3.466504
  0
VERTEX
  8
PLAN_1
  6
CONTINUOUS
 10
1.059520
 20
-3.462992
  0
VERTEX
  8
PLAN_1
  6
CONTINUOUS
 10
1.078409
 20
-3.462992
  0
VERTEX
  8
PLAN_1
  6
CONTINUOUS
 10
1.074894
 20
-3.468264
  0
VERTEX
  8
PLAN_1
  6
CONTINUOUS
 10
1.070941
 20
-3.473535
  0
VERTEX
  8
PLAN_1
  6
CONTINUOUS
 10
1.066547
 20
-3.478803
  0
VERTEX
  8
PLAN_1
  6
CONTINUOUS
 10
1.062157
 20
-3.483197
  0
VERTEX
  8
PLAN_1
  6
CONTINUOUS
 10
1.057327
 20
-3.487591
  0
VERTEX
  8
PLAN_1
  6
CONTINUOUS
 10
1.052492
 20
-3.491543
  0
VERTEX
  8
PLAN_1
  6
CONTINUOUS
 10
1.047224
 20
-3.495496
  0
VERTEX
  8
PLAN_1
  6
CONTINUOUS
 10
1.041512
 20
-3.498571
  0
VERTEX
  8
PLAN_1
  6
CONTINUOUS
 10
1.035803
 20
-3.501646
  0
VERTEX
  8
PLAN_1
  6
CONTINUOUS
 10
1.030094
 20
-3.504280
  0
VERTEX
  8
PLAN_1
  6
CONTINUOUS
 10
1.023945
 20
-3.506476
  0
VERTEX
  8
PLAN_1
  6
CONTINUOUS
 10
1.017795
 20
-3.508232
  0
VERTEX
  8
PLAN_1
  6
CONTINUOUS
 10
1.011205
 20
-3.509988
  0
VERTEX
  8
PLAN_1
  6
CONTINUOUS
 10
1.005055
 20
-3.510870
  0
VERTEX
  8
PLAN_1
  6
CONTINUOUS
 10
0.998469
 20
-3.511748
  0
VERTEX
  8
PLAN_1
  6
CONTINUOUS
 10
0.991878
 20
-3.511748
  0
VERTEX
  8
PLAN_1
  6
CONTINUOUS
 10
0.986169
 20
-3.511748
  0
VERTEX
  8
PLAN_1
  6
CONTINUOUS
 10
0.980898
 20
-3.511307
  0
VERTEX
  8
PLAN_1
  6
CONTINUOUS
 10
0.975189
 20
-3.510429
  0
VERTEX
  8
PLAN_1
  6
CONTINUOUS
 10
0.969917
 20
-3.509551
  0
VERTEX
  8
PLAN_1
  6
CONTINUOUS
 10
0.965087
 20
-3.508673
  0
VERTEX
  8
PLAN_1
  6
CONTINUOUS
 10
0.959815
 20
-3.506917
  0
VERTEX
  8
PLAN_1
  6
CONTINUOUS
 10
0.954984
 20
-3.505598
  0
VERTEX
  8
PLAN_1
  6
CONTINUOUS
 10
0.950154
 20
-3.503402
  0
VERTEX
  8
PLAN_1
  6
CONTINUOUS
 10
0.945319
 20
-3.501646
  0
VERTEX
  8
PLAN_1
  6
CONTINUOUS
 10
0.940929
 20
-3.499008
  0
VERTEX
  8
PLAN_1
  6
CONTINUOUS
 10
0.936535
 20
-3.496811
  0
VERTEX
  8
PLAN_1
  6
CONTINUOUS
 10
0.932142
 20
-3.494177
  0
VERTEX
  8
PLAN_1
  6
CONTINUOUS
 10
0.927752
 20
-3.491102
  0
VERTEX
  8
PLAN_1
  6
CONTINUOUS
 10
0.923799
 20
-3.488028
  0
VERTEX
  8
PLAN_1
  6
CONTINUOUS
 10
0.920283
 20
-3.484516
  0
VERTEX
  8
PLAN_1
  6
CONTINUOUS
 10
0.916331
 20
-3.481000
  0
VERTEX
  8
PLAN_1
  6
CONTINUOUS
 10
0.912819
 20
-3.477488
  0
VERTEX
  8
PLAN_1
  6
CONTINUOUS
 10
0.909744
 20
-3.473535
  0
VERTEX
  8
PLAN_1
  6
CONTINUOUS
 10
0.906669
 20
-3.469579
  0
VERTEX
  8
PLAN_1
  6
CONTINUOUS
 10
0.903594
 20
-3.465626
  0
VERTEX
  8
PLAN_1
  6
CONTINUOUS
 10
0.900957
 20
-3.461236
  0
VERTEX
  8
PLAN_1
  6
CONTINUOUS
 10
0.898323
 20
-3.456843
  0
VERTEX
  8
PLAN_1
  6
CONTINUOUS
 10
0.896126
 20
-3.452449
  0
VERTEX
  8
PLAN_1
  6
CONTINUOUS
 10
0.893929
 20
-3.447618
  0
VERTEX
  8
PLAN_1
  6
CONTINUOUS
 10
0.892173
 20
-3.442787
  0
VERTEX
  8
PLAN_1
  6
CONTINUOUS
 10
0.890417
 20
-3.437957
  0
VERTEX
  8
PLAN_1
  6
CONTINUOUS
 10
0.889098
 20
-3.433126
  0
VERTEX
  8
PLAN_1
  6
CONTINUOUS
 10
0.887780
 20
-3.427854
  0
VERTEX
  8
PLAN_1
  6
CONTINUOUS
 10
0.886902
 20
-3.422583
  0
VERTEX
  8
PLAN_1
  6
CONTINUOUS
 10
0.886024
 20
-3.417311
  0
VERTEX
  8
PLAN_1
  6
CONTINUOUS
 10
0.885583
 20
-3.411602
  0
VERTEX
  8
PLAN_1
  6
CONTINUOUS
 10
0.885583
 20
-3.406331
  0
VERTEX
  8
PLAN_1
  6
CONTINUOUS
 10
0.885583
 20
-3.401059
  0
VERTEX
  8
PLAN_1
  6
CONTINUOUS
 10
0.886024
 20
-3.395350
  0
VERTEX
  8
PLAN_1
  6
CONTINUOUS
 10
0.886902
 20
-3.390079
  0
VERTEX
  8
PLAN_1
  6
CONTINUOUS
 10
0.887780
 20
-3.385248
  0
VERTEX
  8
PLAN_1
  6
CONTINUOUS
 10
0.889098
 20
-3.379976
  0
VERTEX
  8
PLAN_1
  6
CONTINUOUS
 10
0.890417
 20
-3.375146
  0
VERTEX
  8
PLAN_1
  6
CONTINUOUS
 10
0.892173
 20
-3.370315
  0
VERTEX
  8
PLAN_1
  6
CONTINUOUS
 10
0.893929
 20
-3.365480
  0
VERTEX
  8
PLAN_1
  6
CONTINUOUS
 10
0.896126
 20
-3.360650
  0
VERTEX
  8
PLAN_1
  6
CONTINUOUS
 10
0.898323
 20
-3.356260
  0
VERTEX
  8
PLAN_1
  6
CONTINUOUS
 10
0.900957
 20
-3.351866
  0
VERTEX
  8
PLAN_1
  6
CONTINUOUS
 10
0.903594
 20
-3.347913
  0
VERTEX
  8
PLAN_1
  6
CONTINUOUS
 10
0.906669
 20
-3.343520
  0
VERTEX
  8
PLAN_1
  6
CONTINUOUS
 10
0.909744
 20
-3.339567
  0
VERTEX
  8
PLAN_1
  6
CONTINUOUS
 10
0.913256
 20
-3.336055
  0
VERTEX
  8
PLAN_1
  6
CONTINUOUS
 10
0.916331
 20
-3.332539
  0
VERTEX
  8
PLAN_1
  6
CONTINUOUS
 10
0.920283
 20
-3.329024
  0
VERTEX
  8
PLAN_1
  6
CONTINUOUS
 10
0.923799
 20
-3.325512
  0
VERTEX
  8
PLAN_1
  6
CONTINUOUS
 10
0.927752
 20
-3.322437
  0
VERTEX
  8
PLAN_1
  6
CONTINUOUS
 10
0.932142
 20
-3.319803
  0
VERTEX
  8
PLAN_1
  6
CONTINUOUS
 10
0.936098
 20
-3.316728
  0
VERTEX
  8
PLAN_1
  6
CONTINUOUS
 10
0.940488
 20
-3.314531
  0
VERTEX
  8
PLAN_1
  6
CONTINUOUS
 10
0.945319
 20
-3.312335
  0
VERTEX
  8
PLAN_1
  6
CONTINUOUS
 10
0.949713
 20
-3.310138
  0
VERTEX
  8
PLAN_1
  6
CONTINUOUS
 10
0.954543
 20
-3.308382
  0
VERTEX
  8
PLAN_1
  6
CONTINUOUS
 10
0.959374
 20
-3.306626
  0
VERTEX
  8
PLAN_1
  6
CONTINUOUS
 10
0.964209
 20
-3.305307
  0
VERTEX
  8
PLAN_1
  6
CONTINUOUS
 10
0.969480
 20
-3.303988
  0
VERTEX
  8
PLAN_1
  6
CONTINUOUS
 10
0.974311
 20
-3.303110
  0
VERTEX
  8
PLAN_1
  6
CONTINUOUS
 10
0.979583
 20
-3.302232
  0
VERTEX
  8
PLAN_1
  6
CONTINUOUS
 10
0.984850
 20
-3.302232
  0
VERTEX
  8
PLAN_1
  6
CONTINUOUS
 10
0.990122
 20
-3.301791
  0
VERTEX
  8
PLAN_1
  6
CONTINUOUS
 10
0.999787
 20
-3.302232
  0
VERTEX
  8
PLAN_1
  6
CONTINUOUS
 10
1.009008
 20
-3.303551
  0
VERTEX
  8
PLAN_1
  6
CONTINUOUS
 10
1.018232
 20
-3.305748
  0
VERTEX
  8
PLAN_1
  6
CONTINUOUS
 10
1.027020
 20
-3.308382
  0
VERTEX
  8
PLAN_1
  6
CONTINUOUS
 10
1.035362
 20
-3.311894
  0
VERTEX
  8
PLAN_1
  6
CONTINUOUS
 10
1.043272
 20
-3.315850
  0
VERTEX
  8
PLAN_1
  6
CONTINUOUS
 10
1.050299
 20
-3.320681
  0
VERTEX
  8
PLAN_1
  6
CONTINUOUS
 10
1.057327
 20
-3.326390
  0
VERTEX
  8
PLAN_1
  6
CONTINUOUS
 10
1.063476
 20
-3.332098
  0
VERTEX
  8
PLAN_1
  6
CONTINUOUS
 10
1.069185
 20
-3.338689
  0
VERTEX
  8
PLAN_1
  6
CONTINUOUS
 10
1.071819
 20
-3.342201
  0
VERTEX
  8
PLAN_1
  6
CONTINUOUS
 10
1.074016
 20
-3.346157
  0
VERTEX
  8
PLAN_1
  6
CONTINUOUS
 10
1.076213
 20
-3.349669
  0
VERTEX
  8
PLAN_1
  6
CONTINUOUS
 10
1.077969
 20
-3.353622
  0
VERTEX
  8
PLAN_1
  6
CONTINUOUS
 10
1.079724
 20
-3.357575
  0
VERTEX
  8
PLAN_1
  6
CONTINUOUS
 10
1.081484
 20
-3.361969
  0
VERTEX
  8
PLAN_1
  6
CONTINUOUS
 10
1.082799
 20
-3.365921
  0
VERTEX
  8
PLAN_1
  6
CONTINUOUS
 10
1.083681
 20
-3.370315
  0
VERTEX
  8
PLAN_1
  6
CONTINUOUS
 10
1.084559
 20
-3.374705
  0
VERTEX
  8
PLAN_1
  6
CONTINUOUS
 10
1.085437
 20
-3.379098
  0
VERTEX
  8
PLAN_1
  6
CONTINUOUS
 10
1.085874
 20
-3.383929
  0
VERTEX
  8
PLAN_1
  6
CONTINUOUS
 10
1.085874
 20
-3.388323
  0
VERTEX
  8
PLAN_1
  6
CONTINUOUS
 10
1.085874
 20
-3.393154
  0
VERTEX
  8
PLAN_1
  6
CONTINUOUS
 10
1.085437
 20
-3.397547
  0
VERTEX
  8
PLAN_1
  6
CONTINUOUS
 10
1.084559
 20
-3.401937
  0
VERTEX
  8
PLAN_1
  6
CONTINUOUS
 10
1.084118
 20
-3.406331
  0
VERTEX
  8
PLAN_1
  6
CONTINUOUS
 10
1.081921
 20
-3.414677
  0
VERTEX
  8
PLAN_1
  6
CONTINUOUS
 10
1.078846
 20
-3.422142
  0
VERTEX
  8
PLAN_1
  6
CONTINUOUS
 10
1.075335
 20
-3.429169
  0
VERTEX
  8
PLAN_1
  6
CONTINUOUS
 10
1.071382
 20
-3.435760
  0
VERTEX
  8
PLAN_1
  6
CONTINUOUS
 10
1.066988
 20
-3.441909
  0
VERTEX
  8
PLAN_1
  6
CONTINUOUS
 10
1.061717
 20
-3.447618
  0
VERTEX
  8
PLAN_1
  6
CONTINUOUS
 10
1.056886
 20
-3.452449
  0
VERTEX
  8
PLAN_1
  6
CONTINUOUS
 10
1.051177
 20
-3.456402
  0
VERTEX
  8
PLAN_1
  6
CONTINUOUS
 10
1.045906
 20
-3.460358
  0
VERTEX
  8
PLAN_1
  6
CONTINUOUS
 10
1.040197
 20
-3.463433
  0
VERTEX
  8
PLAN_1
  6
CONTINUOUS
 10
1.034925
 20
-3.465626
  0
VERTEX
  8
PLAN_1
  6
CONTINUOUS
 10
1.029213
 20
-3.467386
  0
VERTEX
  8
PLAN_1
  6
CONTINUOUS
 10
1.024382
 20
-3.468264
  0
VERTEX
  8
PLAN_1
  6
CONTINUOUS
 10
1.019551
 20
-3.468701
  0
VERTEX
  8
PLAN_1
  6
CONTINUOUS
 10
1.016035
 20
-3.468264
  0
VERTEX
  8
PLAN_1
  6
CONTINUOUS
 10
1.012961
 20
-3.467823
  0
VERTEX
  8
PLAN_1
  6
CONTINUOUS
 10
1.009890
 20
-3.466504
  0
VERTEX
  8
PLAN_1
  6
CONTINUOUS
 10
1.007252
 20
-3.464311
  0
VERTEX
  8
PLAN_1
  6
CONTINUOUS
 10
1.005055
 20
-3.462114
  0
VERTEX
  8
PLAN_1
  6
CONTINUOUS
 10
1.003299
 20
-3.459039
  0
VERTEX
  8
PLAN_1
  6
CONTINUOUS
 10
1.002421
 20
-3.455524
  0
VERTEX
  8
PLAN_1
  6
CONTINUOUS
 10
1.001543
 20
-3.451134
  0
VERTEX
  8
PLAN_1
  6
CONTINUOUS
 10
1.001102
 20
-3.451571
  0
VERTEX
  8
PLAN_1
  6
CONTINUOUS
 10
0.998028
 20
-3.454646
  0
VERTEX
  8
PLAN_1
  6
CONTINUOUS
 10
0.994516
 20
-3.457720
  0
VERTEX
  8
PLAN_1
  6
CONTINUOUS
 10
0.990563
 20
-3.460795
  0
VERTEX
  8
PLAN_1
  6
CONTINUOUS
 10
0.986169
 20
-3.463433
  0
VERTEX
  8
PLAN_1
  6
CONTINUOUS
 10
0.981776
 20
-3.465626
  0
VERTEX
  8
PLAN_1
  6
CONTINUOUS
 10
0.977386
 20
-3.467386
  0
VERTEX
  8
PLAN_1
  6
CONTINUOUS
 10
0.972551
 20
-3.468264
  0
VERTEX
  8
PLAN_1
  6
CONTINUOUS
 10
0.967720
 20
-3.468701
  0
VERTEX
  8
PLAN_1
  6
CONTINUOUS
 10
0.963331
 20
-3.468701
  0
VERTEX
  8
PLAN_1
  6
CONTINUOUS
 10
0.959374
 20
-3.467823
  0
VERTEX
  8
PLAN_1
  6
CONTINUOUS
 10
0.954984
 20
-3.466504
  0
VERTEX
  8
PLAN_1
  6
CONTINUOUS
 10
0.951469
 20
-3.465189
  0
VERTEX
  8
PLAN_1
  6
CONTINUOUS
 10
0.947957
 20
-3.463433
  0
VERTEX
  8
PLAN_1
  6
CONTINUOUS
 10
0.944441
 20
-3.461236
  0
VERTEX
  8
PLAN_1
  6
CONTINUOUS
 10
0.941366
 20
-3.458598
  0
VERTEX
  8
PLAN_1
  6
CONTINUOUS
 10
0.938291
 20
-3.455524
  0
VERTEX
  8
PLAN_1
  6
CONTINUOUS
 10
0.936098
 20
-3.452449
  0
VERTEX
  8
PLAN_1
  6
CONTINUOUS
 10
0.933461
 20
-3.448937
  0
VERTEX
  8
PLAN_1
  6
CONTINUOUS
 10
0.931705
 20
-3.445421
  0
VERTEX
  8
PLAN_1
  6
CONTINUOUS
 10
0.929949
 20
-3.441469
  0
VERTEX
  8
PLAN_1
  6
CONTINUOUS
 10
0.928630
 20
-3.437516
  0
VERTEX
  8
PLAN_1
  6
CONTINUOUS
 10
0.927752
 20
-3.433126
  0
VERTEX
  8
PLAN_1
  6
CONTINUOUS
 10
0.927311
 20
-3.428732
  0
VERTEX
  8
PLAN_1
  6
CONTINUOUS
 10
0.926874
 20
-3.424339
  0
VERTEX
  8
PLAN_1
  6
CONTINUOUS
 10
0.927311
 20
-3.417311
  0
VERTEX
  8
PLAN_1
  6
CONTINUOUS
 10
0.928189
 20
-3.410283
  0
VERTEX
  8
PLAN_1
  6
CONTINUOUS
 10
0.929508
 20
-3.403256
  0
VERTEX
  8
PLAN_1
  6
CONTINUOUS
 10
0.931705
 20
-3.396669
  0
VERTEX
  8
PLAN_1
  6
CONTINUOUS
 10
0.933902
 20
-3.390079
  0
VERTEX
  8
PLAN_1
  6
CONTINUOUS
 10
0.936976
 20
-3.383492
  0
VERTEX
  8
PLAN_1
  6
CONTINUOUS
 10
0.940488
 20
-3.377780
  0
VERTEX
  8
PLAN_1
  6
CONTINUOUS
 10
0.944441
 20
-3.372071
  0
VERTEX
  8
PLAN_1
  6
CONTINUOUS
 10
0.948835
 20
-3.366799
  0
VERTEX
  8
PLAN_1
  6
CONTINUOUS
 10
0.954106
 20
-3.361969
  0
VERTEX
  8
PLAN_1
  6
CONTINUOUS
 10
0.959374
 20
-3.358016
  0
VERTEX
  8
PLAN_1
  6
CONTINUOUS
 10
0.964646
 20
-3.354500
  0
VERTEX
  8
PLAN_1
  6
CONTINUOUS
 10
0.970795
 20
-3.351425
  0
VERTEX
  8
PLAN_1
  6
CONTINUOUS
 10
0.977386
 20
-3.349669
  0
VERTEX
  8
PLAN_1
  6
CONTINUOUS
 10
0.980461
 20
-3.348791
  0
VERTEX
  8
PLAN_1
  6
CONTINUOUS
 10
0.983972
 20
-3.348350
  0
VERTEX
  8
PLAN_1
  6
CONTINUOUS
 10
0.987488
 20
-3.347913
  0
VERTEX
  8
PLAN_1
  6
CONTINUOUS
 10
0.991000
 20
-3.347913
  0
VERTEX
  8
PLAN_1
  6
CONTINUOUS
 10
0.995831
 20
-3.347913
  0
VERTEX
  8
PLAN_1
  6
CONTINUOUS
 10
1.000665
 20
-3.348791
  0
VERTEX
  8
PLAN_1
  6
CONTINUOUS
 10
1.005055
 20
-3.350547
  0
VERTEX
  8
PLAN_1
  6
CONTINUOUS
 10
1.009449
 20
-3.352744
  0
VERTEX
  8
PLAN_1
  6
CONTINUOUS
 10
1.013402
 20
-3.355819
  0
VERTEX
  8
PLAN_1
  6
CONTINUOUS
 10
1.016917
 20
-3.359335
  0
VERTEX
  8
PLAN_1
  6
CONTINUOUS
 10
1.019992
 20
-3.364165
  0
VERTEX
  8
PLAN_1
  6
CONTINUOUS
 10
1.023063
 20
-3.369437
  0
VERTEX
  8
PLAN_1
  6
CONTINUOUS
 10
1.028776
 20
-3.352303
  0
SEQEND
  8
0
  0
POLYLINE
  8
PLAN_1
  6
CONTINUOUS
 66
     1
 40
0.003000
 41
0.003000
  0
VERTEX
  8
PLAN_1
  6
CONTINUOUS
 10
0.991878
 20
-3.367677
  0
VERTEX
  8
PLAN_1
  6
CONTINUOUS
 10
0.987047
 20
-3.368118
  0
VERTEX
  8
PLAN_1
  6
CONTINUOUS
 10
0.982654
 20
-3.368996
  0
VERTEX
  8
PLAN_1
  6
CONTINUOUS
 10
0.978701
 20
-3.370752
  0
VERTEX
  8
PLAN_1
  6
CONTINUOUS
 10
0.974748
 20
-3.372949
  0
VERTEX
  8
PLAN_1
  6
CONTINUOUS
 10
0.971236
 20
-3.375583
  0
VERTEX
  8
PLAN_1
  6
CONTINUOUS
 10
0.967720
 20
-3.378657
  0
VERTEX
  8
PLAN_1
  6
CONTINUOUS
 10
0.964209
 20
-3.382173
  0
VERTEX
  8
PLAN_1
  6
CONTINUOUS
 10
0.961571
 20
-3.386126
  0
VERTEX
  8
PLAN_1
  6
CONTINUOUS
 10
0.958937
 20
-3.390079
  0
VERTEX
  8
PLAN_1
  6
CONTINUOUS
 10
0.956740
 20
-3.394472
  0
VERTEX
  8
PLAN_1
  6
CONTINUOUS
 10
0.954543
 20
-3.398862
  0
VERTEX
  8
PLAN_1
  6
CONTINUOUS
 10
0.952787
 20
-3.403697
  0
VERTEX
  8
PLAN_1
  6
CONTINUOUS
 10
0.951469
 20
-3.408087
  0
VERTEX
  8
PLAN_1
  6
CONTINUOUS
 10
0.950591
 20
-3.412917
  0
VERTEX
  8
PLAN_1
  6
CONTINUOUS
 10
0.950154
 20
-3.417311
  0
VERTEX
  8
PLAN_1
  6
CONTINUOUS
 10
0.949713
 20
-3.421705
  0
VERTEX
  8
PLAN_1
  6
CONTINUOUS
 10
0.949713
 20
-3.424780
  0
VERTEX
  8
PLAN_1
  6
CONTINUOUS
 10
0.950154
 20
-3.427413
  0
VERTEX
  8
PLAN_1
  6
CONTINUOUS
 10
0.950591
 20
-3.430051
  0
VERTEX
  8
PLAN_1
  6
CONTINUOUS
 10
0.951469
 20
-3.432685
  0
VERTEX
  8
PLAN_1
  6
CONTINUOUS
 10
0.952346
 20
-3.434882
  0
VERTEX
  8
PLAN_1
  6
CONTINUOUS
 10
0.953665
 20
-3.437079
  0
VERTEX
  8
PLAN_1
  6
CONTINUOUS
 10
0.954984
 20
-3.439272
  0
VERTEX
  8
PLAN_1
  6
CONTINUOUS
 10
0.956303
 20
-3.441031
  0
VERTEX
  8
PLAN_1
  6
CONTINUOUS
 10
0.958059
 20
-3.442787
  0
VERTEX
  8
PLAN_1
  6
CONTINUOUS
 10
0.959815
 20
-3.444543
  0
VERTEX
  8
PLAN_1
  6
CONTINUOUS
 10
0.961571
 20
-3.445862
  0
VERTEX
  8
PLAN_1
  6
CONTINUOUS
 10
0.963768
 20
-3.446740
  0
VERTEX
  8
PLAN_1
  6
CONTINUOUS
 10
0.965965
 20
-3.447618
  0
VERTEX
  8
PLAN_1
  6
CONTINUOUS
 10
0.968161
 20
-3.448059
  0
VERTEX
  8
PLAN_1
  6
CONTINUOUS
 10
0.970358
 20
-3.448496
  0
VERTEX
  8
PLAN_1
  6
CONTINUOUS
 10
0.972992
 20
-3.448937
  0
VERTEX
  8
PLAN_1
  6
CONTINUOUS
 10
0.977386
 20
-3.448496
  0
VERTEX
  8
PLAN_1
  6
CONTINUOUS
 10
0.981776
 20
-3.447181
  0
VERTEX
  8
PLAN_1
  6
CONTINUOUS
 10
0.985728
 20
-3.445421
  0
VERTEX
  8
PLAN_1
  6
CONTINUOUS
 10
0.989685
 20
-3.443228
  0
VERTEX
  8
PLAN_1
  6
CONTINUOUS
 10
0.993197
 20
-3.440154
  0
VERTEX
  8
PLAN_1
  6
CONTINUOUS
 10
0.996713
 20
-3.437079
  0
VERTEX
  8
PLAN_1
  6
CONTINUOUS
 10
0.999787
 20
-3.433126
  0
VERTEX
  8
PLAN_1
  6
CONTINUOUS
 10
1.002421
 20
-3.429169
  0
VERTEX
  8
PLAN_1
  6
CONTINUOUS
 10
1.005055
 20
-3.425217
  0
VERTEX
  8
PLAN_1
  6
CONTINUOUS
 10
1.007693
 20
-3.420386
  0
VERTEX
  8
PLAN_1
  6
CONTINUOUS
 10
1.009449
 20
-3.415992
  0
VERTEX
  8
PLAN_1
  6
CONTINUOUS
 10
1.011205
 20
-3.411161
  0
VERTEX
  8
PLAN_1
  6
CONTINUOUS
 10
1.012524
 20
-3.406772
  0
VERTEX
  8
PLAN_1
  6
CONTINUOUS
 10
1.013843
 20
-3.401937
  0
VERTEX
  8
PLAN_1
  6
CONTINUOUS
 10
1.014280
 20
-3.397547
  0
VERTEX
  8
PLAN_1
  6
CONTINUOUS
 10
1.014280
 20
-3.393154
  0
VERTEX
  8
PLAN_1
  6
CONTINUOUS
 10
1.014280
 20
-3.390520
  0
VERTEX
  8
PLAN_1
  6
CONTINUOUS
 10
1.013843
 20
-3.388323
  0
VERTEX
  8
PLAN_1
  6
CONTINUOUS
 10
1.013402
 20
-3.385685
  0
VERTEX
  8
PLAN_1
  6
CONTINUOUS
 10
1.012524
 20
-3.383492
  0
VERTEX
  8
PLAN_1
  6
CONTINUOUS
 10
1.010327
 20
-3.379098
  0
VERTEX
  8
PLAN_1
  6
CONTINUOUS
 10
1.007693
 20
-3.375146
  0
VERTEX
  8
PLAN_1
  6
CONTINUOUS
 10
1.004177
 20
-3.372071
  0
VERTEX
  8
PLAN_1
  6
CONTINUOUS
 10
1.000224
 20
-3.369874
  0
VERTEX
  8
PLAN_1
  6
CONTINUOUS
 10
0.998469
 20
-3.368996
  0
VERTEX
  8
PLAN_1
  6
CONTINUOUS
 10
0.996272
 20
-3.368118
  0
VERTEX
  8
PLAN_1
  6
CONTINUOUS
 10
0.994075
 20
-3.367677
  0
VERTEX
  8
PLAN_1
  6
CONTINUOUS
 10
0.991878
 20
-3.367677
  0
SEQEND
  8
0
  0
POLYLINE
  8
PLAN_1
  6
CONTINUOUS
 66
     1
 40
0.003000
 41
0.003000
  0
VERTEX
  8
PLAN_1
  6
CONTINUOUS
 10
1.310323
 20
-3.352303
  0
VERTEX
  8
PLAN_1
  6
CONTINUOUS
 10
1.329213
 20
-3.352303
  0
VERTEX
  8
PLAN_1
  6
CONTINUOUS
 10
1.325260
 20
-3.366799
  0
VERTEX
  8
PLAN_1
  6
CONTINUOUS
 10
1.320866
 20
-3.381732
  0
VERTEX
  8
PLAN_1
  6
CONTINUOUS
 10
1.316913
 20
-3.395787
  0
VERTEX
  8
PLAN_1
  6
CONTINUOUS
 10
1.312961
 20
-3.408965
  0
VERTEX
  8
PLAN_1
  6
CONTINUOUS
 10
1.309445
 20
-3.420827
  0
VERTEX
  8
PLAN_1
  6
CONTINUOUS
 10
1.306811
 20
-3.430929
  0
VERTEX
  8
PLAN_1
  6
CONTINUOUS
 10
1.305055
 20
-3.438394
  0
VERTEX
  8
PLAN_1
  6
CONTINUOUS
 10
1.304173
 20
-3.442787
  0
VERTEX
  8
PLAN_1
  6
CONTINUOUS
 10
1.304614
 20
-3.444543
  0
VERTEX
  8
PLAN_1
  6
CONTINUOUS
 10
1.304614
 20
-3.446299
  0
VERTEX
  8
PLAN_1
  6
CONTINUOUS
 10
1.305055
 20
-3.447618
  0
VERTEX
  8
PLAN_1
  6
CONTINUOUS
 10
1.305492
 20
-3.448496
  0
VERTEX
  8
PLAN_1
  6
CONTINUOUS
 10
1.306370
 20
-3.449374
  0
VERTEX
  8
PLAN_1
  6
CONTINUOUS
 10
1.307248
 20
-3.450256
  0
VERTEX
  8
PLAN_1
  6
CONTINUOUS
 10
1.308567
 20
-3.450693
  0
VERTEX
  8
PLAN_1
  6
CONTINUOUS
 10
1.310323
 20
-3.450693
  0
VERTEX
  8
PLAN_1
  6
CONTINUOUS
 10
1.313839
 20
-3.450256
  0
VERTEX
  8
PLAN_1
  6
CONTINUOUS
 10
1.317350
 20
-3.449374
  0
VERTEX
  8
PLAN_1
  6
CONTINUOUS
 10
1.320866
 20
-3.447618
  0
VERTEX
  8
PLAN_1
  6
CONTINUOUS
 10
1.324378
 20
-3.445421
  0
VERTEX
  8
PLAN_1
  6
CONTINUOUS
 10
1.327894
 20
-3.442787
  0
VERTEX
  8
PLAN_1
  6
CONTINUOUS
 10
1.330969
 20
-3.439713
  0
VERTEX
  8
PLAN_1
  6
CONTINUOUS
 10
1.334043
 20
-3.435760
  0
VERTEX
  8
PLAN_1
  6
CONTINUOUS
 10
1.337118
 20
-3.431807
  0
VERTEX
  8
PLAN_1
  6
CONTINUOUS
 10
1.339752
 20
-3.427413
  0
VERTEX
  8
PLAN_1
  6
CONTINUOUS
 10
1.341949
 20
-3.422583
  0
VERTEX
  8
PLAN_1
  6
CONTINUOUS
 10
1.344146
 20
-3.417752
  0
VERTEX
  8
PLAN_1
  6
CONTINUOUS
 10
1.346343
 20
-3.412480
  0
VERTEX
  8
PLAN_1
  6
CONTINUOUS
 10
1.347657
 20
-3.407209
  0
VERTEX
  8
PLAN_1
  6
CONTINUOUS
 10
1.348539
 20
-3.401937
  0
VERTEX
  8
PLAN_1
  6
CONTINUOUS
 10
1.349417
 20
-3.396228
  0
VERTEX
  8
PLAN_1
  6
CONTINUOUS
 10
1.349417
 20
-3.390520
  0
VERTEX
  8
PLAN_1
  6
CONTINUOUS
 10
1.349417
 20
-3.382610
  0
VERTEX
  8
PLAN_1
  6
CONTINUOUS
 10
1.348098
 20
-3.374705
  0
VERTEX
  8
PLAN_1
  6
CONTINUOUS
 10
1.345902
 20
-3.367677
  0
VERTEX
  8
PLAN_1
  6
CONTINUOUS
 10
1.343268
 20
-3.360650
  0
VERTEX
  8
PLAN_1
  6
CONTINUOUS
 10
1.340193
 20
-3.354500
  0
VERTEX
  8
PLAN_1
  6
CONTINUOUS
 10
1.336240
 20
-3.348350
  0
VERTEX
  8
PLAN_1
  6
CONTINUOUS
 10
1.331846
 20
-3.343083
  0
VERTEX
  8
PLAN_1
  6
CONTINUOUS
 10
1.326575
 20
-3.338248
  0
VERTEX
  8
PLAN_1
  6
CONTINUOUS
 10
1.320866
 20
-3.333858
  0
VERTEX
  8
PLAN_1
  6
CONTINUOUS
 10
1.315157
 20
-3.329906
  0
VERTEX
  8
PLAN_1
  6
CONTINUOUS
 10
1.308567
 20
-3.326831
  0
VERTEX
  8
PLAN_1
  6
CONTINUOUS
 10
1.301980
 20
-3.324193
  0
VERTEX
  8
PLAN_1
  6
CONTINUOUS
 10
1.294953
 20
-3.321996
  0
VERTEX
  8
PLAN_1
  6
CONTINUOUS
 10
1.287484
 20
-3.320240
  0
VERTEX
  8
PLAN_1
  6
CONTINUOUS
 10
1.280016
 20
-3.319362
  0
VERTEX
  8
PLAN_1
  6
CONTINUOUS
 10
1.272110
 20
-3.318921
  0
VERTEX
  8
PLAN_1
  6
CONTINUOUS
 10
1.267717
 20
-3.319362
  0
VERTEX
  8
PLAN_1
  6
CONTINUOUS
 10
1.262886
 20
-3.319362
  0
VERTEX
  8
PLAN_1
  6
CONTINUOUS
 10
1.258496
 20
-3.320240
  0
VERTEX
  8
PLAN_1
  6
CONTINUOUS
 10
1.254543
 20
-3.321118
  0
VERTEX
  8
PLAN_1
  6
CONTINUOUS
 10
1.250150
 20
-3.321996
  0
VERTEX
  8
PLAN_1
  6
CONTINUOUS
 10
1.246197
 20
-3.323315
  0
VERTEX
  8
PLAN_1
  6
CONTINUOUS
 10
1.242244
 20
-3.324634
  0
VERTEX
  8
PLAN_1
  6
CONTINUOUS
 10
1.238291
 20
-3.325953
  0
VERTEX
  8
PLAN_1
  6
CONTINUOUS
 10
1.230823
 20
-3.329906
  0
VERTEX
  8
PLAN_1
  6
CONTINUOUS
 10
1.223795
 20
-3.334295
  0
VERTEX
  8
PLAN_1
  6
CONTINUOUS
 10
1.217205
 20
-3.339567
  0
VERTEX
  8
PLAN_1
  6
CONTINUOUS
 10
1.211496
 20
-3.345276
  0
VERTEX
  8
PLAN_1
  6
CONTINUOUS
 10
1.206224
 20
-3.351425
  0
VERTEX
  8
PLAN_1
  6
CONTINUOUS
 10
1.201394
 20
-3.358453
  0
VERTEX
  8
PLAN_1
  6
CONTINUOUS
 10
1.197441
 20
-3.365480
  0
VERTEX
  8
PLAN_1
  6
CONTINUOUS
 10
1.193925
 20
-3.373390
  0
VERTEX
  8
PLAN_1
  6
CONTINUOUS
 10
1.191291
 20
-3.381295
  0
VERTEX
  8
PLAN_1
  6
CONTINUOUS
 10
1.189535
 20
-3.390079
  0
VERTEX
  8
PLAN_1
  6
CONTINUOUS
 10
1.188217
 20
-3.398862
  0
VERTEX
  8
PLAN_1
  6
CONTINUOUS
 10
1.187780
 20
-3.408087
  0
VERTEX
  8
PLAN_1
  6
CONTINUOUS
 10
1.188217
 20
-3.416874
  0
VERTEX
  8
PLAN_1
  6
CONTINUOUS
 10
1.189535
 20
-3.425657
  0
VERTEX
  8
PLAN_1
  6
CONTINUOUS
 10
1.191732
 20
-3.434004
  0
VERTEX
  8
PLAN_1
  6
CONTINUOUS
 10
1.194366
 20
-3.442346
  0
VERTEX
  8
PLAN_1
  6
CONTINUOUS
 10
1.197882
 20
-3.449815
  0
VERTEX
  8
PLAN_1
  6
CONTINUOUS
 10
1.202272
 20
-3.456843
  0
VERTEX
  8
PLAN_1
  6
CONTINUOUS
 10
1.207102
 20
-3.463433
  0
VERTEX
  8
PLAN_1
  6
CONTINUOUS
 10
1.212815
 20
-3.469579
  0
VERTEX
  8
PLAN_1
  6
CONTINUOUS
 10
1.218965
 20
-3.475291
  0
VERTEX
  8
PLAN_1
  6
CONTINUOUS
 10
1.225551
 20
-3.480122
  0
VERTEX
  8
PLAN_1
  6
CONTINUOUS
 10
1.232579
 20
-3.484516
  0
VERTEX
  8
PLAN_1
  6
CONTINUOUS
 10
1.240047
 20
-3.488028
  0
VERTEX
  8
PLAN_1
  6
CONTINUOUS
 10
1.247953
 20
-3.490665
  0
VERTEX
  8
PLAN_1
  6
CONTINUOUS
 10
1.256299
 20
-3.492858
  0
VERTEX
  8
PLAN_1
  6
CONTINUOUS
 10
1.265083
 20
-3.494177
  0
VERTEX
  8
PLAN_1
  6
CONTINUOUS
 10
1.274307
 20
-3.494618
  0
VERTEX
  8
PLAN_1
  6
CONTINUOUS
 10
1.279138
 20
-3.494618
  0
VERTEX
  8
PLAN_1
  6
CONTINUOUS
 10
1.283969
 20
-3.494177
  0
VERTEX
  8
PLAN_1
  6
CONTINUOUS
 10
1.288362
 20
-3.493299
  0
VERTEX
  8
PLAN_1
  6
CONTINUOUS
 10
1.293193
 20
-3.492421
  0
VERTEX
  8
PLAN_1
  6
CONTINUOUS
 10
1.298024
 20
-3.491102
  0
VERTEX
  8
PLAN_1
  6
CONTINUOUS
 10
1.302858
 20
-3.489783
  0
VERTEX
  8
PLAN_1
  6
CONTINUOUS
 10
1.307248
 20
-3.488028
  0
VERTEX
  8
PLAN_1
  6
CONTINUOUS
 10
1.311642
 20
-3.485831
  0
VERTEX
  8
PLAN_1
  6
CONTINUOUS
 10
1.316035
 20
-3.483638
  0
VERTEX
  8
PLAN_1
  6
CONTINUOUS
 10
1.319988
 20
-3.481441
  0
VERTEX
  8
PLAN_1
  6
CONTINUOUS
 10
1.323941
 20
-3.478803
  0
VERTEX
  8
PLAN_1
  6
CONTINUOUS
 10
1.327894
 20
-3.476169
  0
VERTEX
  8
PLAN_1
  6
CONTINUOUS
 10
1.331846
 20
-3.473094
  0
VERTEX
  8
PLAN_1
  6
CONTINUOUS
 10
1.335362
 20
-3.470020
  0
VERTEX
  8
PLAN_1
  6
CONTINUOUS
 10
1.338437
 20
-3.466504
  0
VERTEX
  8
PLAN_1
  6
CONTINUOUS
 10
1.341508
 20
-3.462992
  0
VERTEX
  8
PLAN_1
  6
CONTINUOUS
 10
1.359957
 20
-3.462992
  0
VERTEX
  8
PLAN_1
  6
CONTINUOUS
 10
1.356445
 20
-3.468264
  0
VERTEX
  8
PLAN_1
  6
CONTINUOUS
 10
1.352929
 20
-3.473535
  0
VERTEX
  8
PLAN_1
  6
CONTINUOUS
 10
1.348539
 20
-3.478803
  0
VERTEX
  8
PLAN_1
  6
CONTINUOUS
 10
1.344146
 20
-3.483197
  0
VERTEX
  8
PLAN_1
  6
CONTINUOUS
 10
1.339315
 20
-3.487591
  0
VERTEX
  8
PLAN_1
  6
CONTINUOUS
 10
1.334043
 20
-3.491543
  0
VERTEX
  8
PLAN_1
  6
CONTINUOUS
 10
1.328772
 20
-3.495496
  0
VERTEX
  8
PLAN_1
  6
CONTINUOUS
 10
1.323500
 20
-3.498571
  0
VERTEX
  8
PLAN_1
  6
CONTINUOUS
 10
1.317791
 20
-3.501646
  0
VERTEX
  8
PLAN_1
  6
CONTINUOUS
 10
1.311642
 20
-3.504280
  0
VERTEX
  8
PLAN_1
  6
CONTINUOUS
 10
1.305933
 20
-3.506476
  0
VERTEX
  8
PLAN_1
  6
CONTINUOUS
 10
1.299343
 20
-3.508232
  0
VERTEX
  8
PLAN_1
  6
CONTINUOUS
 10
1.293193
 20
-3.509988
  0
VERTEX
  8
PLAN_1
  6
CONTINUOUS
 10
1.286606
 20
-3.510870
  0
VERTEX
  8
PLAN_1
  6
CONTINUOUS
 10
1.280016
 20
-3.511748
  0
VERTEX
  8
PLAN_1
  6
CONTINUOUS
 10
1.273429
 20
-3.511748
  0
VERTEX
  8
PLAN_1
  6
CONTINUOUS
 10
1.268157
 20
-3.511748
  0
VERTEX
  8
PLAN_1
  6
CONTINUOUS
 10
1.262449
 20
-3.511307
  0
VERTEX
  8
PLAN_1
  6
CONTINUOUS
 10
1.257177
 20
-3.510429
  0
VERTEX
  8
PLAN_1
  6
CONTINUOUS
 10
1.251906
 20
-3.509551
  0
VERTEX
  8
PLAN_1
  6
CONTINUOUS
 10
1.246634
 20
-3.508673
  0
VERTEX
  8
PLAN_1
  6
CONTINUOUS
 10
1.241803
 20
-3.506917
  0
VERTEX
  8
PLAN_1
  6
CONTINUOUS
 10
1.236972
 20
-3.505598
  0
VERTEX
  8
PLAN_1
  6
CONTINUOUS
 10
1.232142
 20
-3.503402
  0
VERTEX
  8
PLAN_1
  6
CONTINUOUS
 10
1.227307
 20
-3.501646
  0
VERTEX
  8
PLAN_1
  6
CONTINUOUS
 10
1.222476
 20
-3.499008
  0
VERTEX
  8
PLAN_1
  6
CONTINUOUS
 10
1.218087
 20
-3.496811
  0
VERTEX
  8
PLAN_1
  6
CONTINUOUS
 10
1.214130
 20
-3.494177
  0
VERTEX
  8
PLAN_1
  6
CONTINUOUS
 10
1.209740
 20
-3.491102
  0
VERTEX
  8
PLAN_1
  6
CONTINUOUS
 10
1.205787
 20
-3.488028
  0
VERTEX
  8
PLAN_1
  6
CONTINUOUS
 10
1.201835
 20
-3.484516
  0
VERTEX
  8
PLAN_1
  6
CONTINUOUS
 10
1.198319
 20
-3.481000
  0
VERTEX
  8
PLAN_1
  6
CONTINUOUS
 10
1.194807
 20
-3.477488
  0
VERTEX
  8
PLAN_1
  6
CONTINUOUS
 10
1.191291
 20
-3.473535
  0
VERTEX
  8
PLAN_1
  6
CONTINUOUS
 10
1.188217
 20
-3.469579
  0
VERTEX
  8
PLAN_1
  6
CONTINUOUS
 10
1.185583
 20
-3.465626
  0
VERTEX
  8
PLAN_1
  6
CONTINUOUS
 10
1.182508
 20
-3.461236
  0
VERTEX
  8
PLAN_1
  6
CONTINUOUS
 10
1.180311
 20
-3.456843
  0
VERTEX
  8
PLAN_1
  6
CONTINUOUS
 10
1.177677
 20
-3.452449
  0
VERTEX
  8
PLAN_1
  6
CONTINUOUS
 10
1.175917
 20
-3.447618
  0
VERTEX
  8
PLAN_1
  6
CONTINUOUS
 10
1.173720
 20
-3.442787
  0
VERTEX
  8
PLAN_1
  6
CONTINUOUS
 10
1.172406
 20
-3.437957
  0
VERTEX
  8
PLAN_1
  6
CONTINUOUS
 10
1.170646
 20
-3.433126
  0
VERTEX
  8
PLAN_1
  6
CONTINUOUS
 10
1.169768
 20
-3.427854
  0
VERTEX
  8
PLAN_1
  6
CONTINUOUS
 10
1.168890
 20
-3.422583
  0
VERTEX
  8
PLAN_1
  6
CONTINUOUS
 10
1.168012
 20
-3.417311
  0
VERTEX
  8
PLAN_1
  6
CONTINUOUS
 10
1.167575
 20
-3.411602
  0
VERTEX
  8
PLAN_1
  6
CONTINUOUS
 10
1.167575
 20
-3.406331
  0
VERTEX
  8
PLAN_1
  6
CONTINUOUS
 10
1.167575
 20
-3.401059
  0
VERTEX
  8
PLAN_1
  6
CONTINUOUS
 10
1.168012
 20
-3.395350
  0
VERTEX
  8
PLAN_1
  6
CONTINUOUS
 10
1.168890
 20
-3.390079
  0
VERTEX
  8
PLAN_1
  6
CONTINUOUS
 10
1.169768
 20
-3.385248
  0
VERTEX
  8
PLAN_1
  6
CONTINUOUS
 10
1.170646
 20
-3.379976
  0
VERTEX
  8
PLAN_1
  6
CONTINUOUS
 10
1.172406
 20
-3.375146
  0
VERTEX
  8
PLAN_1
  6
CONTINUOUS
 10
1.174161
 20
-3.370315
  0
VERTEX
  8
PLAN_1
  6
CONTINUOUS
 10
1.175917
 20
-3.365480
  0
VERTEX
  8
PLAN_1
  6
CONTINUOUS
 10
1.178114
 20
-3.360650
  0
VERTEX
  8
PLAN_1
  6
CONTINUOUS
 10
1.180311
 20
-3.356260
  0
VERTEX
  8
PLAN_1
  6
CONTINUOUS
 10
1.182945
 20
-3.351866
  0
VERTEX
  8
PLAN_1
  6
CONTINUOUS
 10
1.185583
 20
-3.347913
  0
VERTEX
  8
PLAN_1
  6
CONTINUOUS
 10
1.188657
 20
-3.343520
  0
VERTEX
  8
PLAN_1
  6
CONTINUOUS
 10
1.191732
 20
-3.339567
  0
VERTEX
  8
PLAN_1
  6
CONTINUOUS
 10
1.194807
 20
-3.336055
  0
VERTEX
  8
PLAN_1
  6
CONTINUOUS
 10
1.198319
 20
-3.332539
  0
VERTEX
  8
PLAN_1
  6
CONTINUOUS
 10
1.202272
 20
-3.329024
  0
VERTEX
  8
PLAN_1
  6
CONTINUOUS
 10
1.205787
 20
-3.325512
  0
VERTEX
  8
PLAN_1
  6
CONTINUOUS
 10
1.209740
 20
-3.322437
  0
VERTEX
  8
PLAN_1
  6
CONTINUOUS
 10
1.214130
 20
-3.319803
  0
VERTEX
  8
PLAN_1
  6
CONTINUOUS
 10
1.218087
 20
-3.316728
  0
VERTEX
  8
PLAN_1
  6
CONTINUOUS
 10
1.222476
 20
-3.314531
  0
VERTEX
  8
PLAN_1
  6
CONTINUOUS
 10
1.226870
 20
-3.312335
  0
VERTEX
  8
PLAN_1
  6
CONTINUOUS
 10
1.231701
 20
-3.310138
  0
VERTEX
  8
PLAN_1
  6
CONTINUOUS
 10
1.236531
 20
-3.308382
  0
VERTEX
  8
PLAN_1
  6
CONTINUOUS
 10
1.241366
 20
-3.306626
  0
VERTEX
  8
PLAN_1
  6
CONTINUOUS
 10
1.246197
 20
-3.305307
  0
VERTEX
  8
PLAN_1
  6
CONTINUOUS
 10
1.251469
 20
-3.303988
  0
VERTEX
  8
PLAN_1
  6
CONTINUOUS
 10
1.256299
 20
-3.303110
  0
VERTEX
  8
PLAN_1
  6
CONTINUOUS
 10
1.261571
 20
-3.302232
  0
VERTEX
  8
PLAN_1
  6
CONTINUOUS
 10
1.266839
 20
-3.302232
  0
VERTEX
  8
PLAN_1
  6
CONTINUOUS
 10
1.272110
 20
-3.301791
  0
VERTEX
  8
PLAN_1
  6
CONTINUOUS
 10
1.281776
 20
-3.302232
  0
VERTEX
  8
PLAN_1
  6
CONTINUOUS
 10
1.290996
 20
-3.303551
  0
VERTEX
  8
PLAN_1
  6
CONTINUOUS
 10
1.300220
 20
-3.305748
  0
VERTEX
  8
PLAN_1
  6
CONTINUOUS
 10
1.308567
 20
-3.308382
  0
VERTEX
  8
PLAN_1
  6
CONTINUOUS
 10
1.316913
 20
-3.311894
  0
VERTEX
  8
PLAN_1
  6
CONTINUOUS
 10
1.324819
 20
-3.315850
  0
VERTEX
  8
PLAN_1
  6
CONTINUOUS
 10
1.332287
 20
-3.320681
  0
VERTEX
  8
PLAN_1
  6
CONTINUOUS
 10
1.339315
 20
-3.326390
  0
VERTEX
  8
PLAN_1
  6
CONTINUOUS
 10
1.345465
 20
-3.332098
  0
VERTEX
  8
PLAN_1
  6
CONTINUOUS
 10
1.351173
 20
-3.338689
  0
VERTEX
  8
PLAN_1
  6
CONTINUOUS
 10
1.353370
 20
-3.342201
  0
VERTEX
  8
PLAN_1
  6
CONTINUOUS
 10
1.356004
 20
-3.346157
  0
VERTEX
  8
PLAN_1
  6
CONTINUOUS
 10
1.358201
 20
-3.349669
  0
VERTEX
  8
PLAN_1
  6
CONTINUOUS
 10
1.359957
 20
-3.353622
  0
VERTEX
  8
PLAN_1
  6
CONTINUOUS
 10
1.361713
 20
-3.357575
  0
VERTEX
  8
PLAN_1
  6
CONTINUOUS
 10
1.363472
 20
-3.361969
  0
VERTEX
  8
PLAN_1
  6
CONTINUOUS
 10
1.364787
 20
-3.365921
  0
VERTEX
  8
PLAN_1
  6
CONTINUOUS
 10
1.365669
 20
-3.370315
  0
VERTEX
  8
PLAN_1
  6
CONTINUOUS
 10
1.366547
 20
-3.374705
  0
VERTEX
  8
PLAN_1
  6
CONTINUOUS
 10
1.366984
 20
-3.379098
  0
VERTEX
  8
PLAN_1
  6
CONTINUOUS
 10
1.367425
 20
-3.383929
  0
VERTEX
  8
PLAN_1
  6
CONTINUOUS
 10
1.367862
 20
-3.388323
  0
VERTEX
  8
PLAN_1
  6
CONTINUOUS
 10
1.367425
 20
-3.393154
  0
VERTEX
  8
PLAN_1
  6
CONTINUOUS
 10
1.366984
 20
-3.397547
  0
VERTEX
  8
PLAN_1
  6
CONTINUOUS
 10
1.366547
 20
-3.401937
  0
VERTEX
  8
PLAN_1
  6
CONTINUOUS
 10
1.365669
 20
-3.406331
  0
VERTEX
  8
PLAN_1
  6
CONTINUOUS
 10
1.363472
 20
-3.414677
  0
VERTEX
  8
PLAN_1
  6
CONTINUOUS
 10
1.360835
 20
-3.422142
  0
VERTEX
  8
PLAN_1
  6
CONTINUOUS
 10
1.357323
 20
-3.429169
  0
VERTEX
  8
PLAN_1
  6
CONTINUOUS
 10
1.353370
 20
-3.435760
  0
VERTEX
  8
PLAN_1
  6
CONTINUOUS
 10
1.348539
 20
-3.441909
  0
VERTEX
  8
PLAN_1
  6
CONTINUOUS
 10
1.343705
 20
-3.447618
  0
VERTEX
  8
PLAN_1
  6
CONTINUOUS
 10
1.338437
 20
-3.452449
  0
VERTEX
  8
PLAN_1
  6
CONTINUOUS
 10
1.333165
 20
-3.456402
  0
VERTEX
  8
PLAN_1
  6
CONTINUOUS
 10
1.327453
 20
-3.460358
  0
VERTEX
  8
PLAN_1
  6
CONTINUOUS
 10
1.322185
 20
-3.463433
  0
VERTEX
  8
PLAN_1
  6
CONTINUOUS
 10
1.316472
 20
-3.465626
  0
VERTEX
  8
PLAN_1
  6
CONTINUOUS
 10
1.311201
 20
-3.467386
  0
VERTEX
  8
PLAN_1
  6
CONTINUOUS
 10
1.305933
 20
-3.468264
  0
VERTEX
  8
PLAN_1
  6
CONTINUOUS
 10
1.301539
 20
-3.468701
  0
VERTEX
  8
PLAN_1
  6
CONTINUOUS
 10
1.298024
 20
-3.468264
  0
VERTEX
  8
PLAN_1
  6
CONTINUOUS
 10
1.294512
 20
-3.467823
  0
VERTEX
  8
PLAN_1
  6
CONTINUOUS
 10
1.291878
 20
-3.466504
  0
VERTEX
  8
PLAN_1
  6
CONTINUOUS
 10
1.289240
 20
-3.464311
  0
VERTEX
  8
PLAN_1
  6
CONTINUOUS
 10
1.287043
 20
-3.462114
  0
VERTEX
  8
PLAN_1
  6
CONTINUOUS
 10
1.285287
 20
-3.459039
  0
VERTEX
  8
PLAN_1
  6
CONTINUOUS
 10
1.283969
 20
-3.455524
  0
VERTEX
  8
PLAN_1
  6
CONTINUOUS
 10
1.283531
 20
-3.451134
  0
VERTEX
  8
PLAN_1
  6
CONTINUOUS
 10
1.283091
 20
-3.451571
  0
VERTEX
  8
PLAN_1
  6
CONTINUOUS
 10
1.280016
 20
-3.454646
  0
VERTEX
  8
PLAN_1
  6
CONTINUOUS
 10
1.276063
 20
-3.457720
  0
VERTEX
  8
PLAN_1
  6
CONTINUOUS
 10
1.272551
 20
-3.460795
  0
VERTEX
  8
PLAN_1
  6
CONTINUOUS
 10
1.268157
 20
-3.463433
  0
VERTEX
  8
PLAN_1
  6
CONTINUOUS
 10
1.263764
 20
-3.465626
  0
VERTEX
  8
PLAN_1
  6
CONTINUOUS
 10
1.259374
 20
-3.467386
  0
VERTEX
  8
PLAN_1
  6
CONTINUOUS
 10
1.254543
 20
-3.468264
  0
VERTEX
  8
PLAN_1
  6
CONTINUOUS
 10
1.249709
 20
-3.468701
  0
VERTEX
  8
PLAN_1
  6
CONTINUOUS
 10
1.245319
 20
-3.468701
  0
VERTEX
  8
PLAN_1
  6
CONTINUOUS
 10
1.240925
 20
-3.467823
  0
VERTEX
  8
PLAN_1
  6
CONTINUOUS
 10
1.236972
 20
-3.466504
  0
VERTEX
  8
PLAN_1
  6
CONTINUOUS
 10
1.233457
 20
-3.465189
  0
VERTEX
  8
PLAN_1
  6
CONTINUOUS
 10
1.229504
 20
-3.463433
  0
VERTEX
  8
PLAN_1
  6
CONTINUOUS
 10
1.226429
 20
-3.461236
  0
VERTEX
  8
PLAN_1
  6
CONTINUOUS
 10
1.223354
 20
-3.458598
  0
VERTEX
  8
PLAN_1
  6
CONTINUOUS
 10
1.220280
 20
-3.455524
  0
VERTEX
  8
PLAN_1
  6
CONTINUOUS
 10
1.217646
 20
-3.452449
  0
VERTEX
  8
PLAN_1
  6
CONTINUOUS
 10
1.215449
 20
-3.448937
  0
VERTEX
  8
PLAN_1
  6
CONTINUOUS
 10
1.213693
 20
-3.445421
  0
VERTEX
  8
PLAN_1
  6
CONTINUOUS
 10
1.211937
 20
-3.441469
  0
VERTEX
  8
PLAN_1
  6
CONTINUOUS
 10
1.210618
 20
-3.437516
  0
VERTEX
  8
PLAN_1
  6
CONTINUOUS
 10
1.209740
 20
-3.433126
  0
VERTEX
  8
PLAN_1
  6
CONTINUOUS
 10
1.209299
 20
-3.428732
  0
VERTEX
  8
PLAN_1
  6
CONTINUOUS
 10
1.208862
 20
-3.424339
  0
VERTEX
  8
PLAN_1
  6
CONTINUOUS
 10
1.209299
 20
-3.417311
  0
VERTEX
  8
PLAN_1
  6
CONTINUOUS
 10
1.210177
 20
-3.410283
  0
VERTEX
  8
PLAN_1
  6
CONTINUOUS
 10
1.211496
 20
-3.403256
  0
VERTEX
  8
PLAN_1
  6
CONTINUOUS
 10
1.213693
 20
-3.396669
  0
VERTEX
  8
PLAN_1
  6
CONTINUOUS
 10
1.215890
 20
-3.390079
  0
VERTEX
  8
PLAN_1
  6
CONTINUOUS
 10
1.218965
 20
-3.383492
  0
VERTEX
  8
PLAN_1
  6
CONTINUOUS
 10
1.222476
 20
-3.377780
  0
VERTEX
  8
PLAN_1
  6
CONTINUOUS
 10
1.226429
 20
-3.372071
  0
VERTEX
  8
PLAN_1
  6
CONTINUOUS
 10
1.230823
 20
-3.366799
  0
VERTEX
  8
PLAN_1
  6
CONTINUOUS
 10
1.235654
 20
-3.361969
  0
VERTEX
  8
PLAN_1
  6
CONTINUOUS
 10
1.240925
 20
-3.358016
  0
VERTEX
  8
PLAN_1
  6
CONTINUOUS
 10
1.246634
 20
-3.354500
  0
VERTEX
  8
PLAN_1
  6
CONTINUOUS
 10
1.252783
 20
-3.351425
  0
VERTEX
  8
PLAN_1
  6
CONTINUOUS
 10
1.259374
 20
-3.349669
  0
VERTEX
  8
PLAN_1
  6
CONTINUOUS
 10
1.262449
 20
-3.348791
  0
VERTEX
  8
PLAN_1
  6
CONTINUOUS
 10
1.265961
 20
-3.348350
  0
VERTEX
  8
PLAN_1
  6
CONTINUOUS
 10
1.269476
 20
-3.347913
  0
VERTEX
  8
PLAN_1
  6
CONTINUOUS
 10
1.272988
 20
-3.347913
  0
VERTEX
  8
PLAN_1
  6
CONTINUOUS
 10
1.277819
 20
-3.347913
  0
VERTEX
  8
PLAN_1
  6
CONTINUOUS
 10
1.282654
 20
-3.348791
  0
VERTEX
  8
PLAN_1
  6
CONTINUOUS
 10
1.287043
 20
-3.350547
  0
VERTEX
  8
PLAN_1
  6
CONTINUOUS
 10
1.291437
 20
-3.352744
  0
VERTEX
  8
PLAN_1
  6
CONTINUOUS
 10
1.294953
 20
-3.355819
  0
VERTEX
  8
PLAN_1
  6
CONTINUOUS
 10
1.298906
 20
-3.359335
  0
VERTEX
  8
PLAN_1
  6
CONTINUOUS
 10
1.301980
 20
-3.364165
  0
VERTEX
  8
PLAN_1
  6
CONTINUOUS
 10
1.305055
 20
-3.369437
  0
VERTEX
  8
PLAN_1
  6
CONTINUOUS
 10
1.310323
 20
-3.352303
  0
SEQEND
  8
0
  0
POLYLINE
  8
PLAN_1
  6
CONTINUOUS
 66
     1
 40
0.003000
 41
0.003000
  0
VERTEX
  8
PLAN_1
  6
CONTINUOUS
 10
1.273429
 20
-3.367677
  0
VERTEX
  8
PLAN_1
  6
CONTINUOUS
 10
1.269035
 20
-3.368118
  0
VERTEX
  8
PLAN_1
  6
CONTINUOUS
 10
1.264646
 20
-3.368996
  0
VERTEX
  8
PLAN_1
  6
CONTINUOUS
 10
1.260689
 20
-3.370752
  0
VERTEX
  8
PLAN_1
  6
CONTINUOUS
 10
1.256736
 20
-3.372949
  0
VERTEX
  8
PLAN_1
  6
CONTINUOUS
 10
1.252783
 20
-3.375583
  0
VERTEX
  8
PLAN_1
  6
CONTINUOUS
 10
1.249272
 20
-3.378657
  0
VERTEX
  8
PLAN_1
  6
CONTINUOUS
 10
1.246197
 20
-3.382173
  0
VERTEX
  8
PLAN_1
  6
CONTINUOUS
 10
1.243559
 20
-3.386126
  0
VERTEX
  8
PLAN_1
  6
CONTINUOUS
 10
1.240925
 20
-3.390079
  0
VERTEX
  8
PLAN_1
  6
CONTINUOUS
 10
1.238291
 20
-3.394472
  0
VERTEX
  8
PLAN_1
  6
CONTINUOUS
 10
1.236531
 20
-3.398862
  0
VERTEX
  8
PLAN_1
  6
CONTINUOUS
 10
1.234776
 20
-3.403697
  0
VERTEX
  8
PLAN_1
  6
CONTINUOUS
 10
1.233457
 20
-3.408087
  0
VERTEX
  8
PLAN_1
  6
CONTINUOUS
 10
1.232579
 20
-3.412917
  0
VERTEX
  8
PLAN_1
  6
CONTINUOUS
 10
1.231701
 20
-3.417311
  0
VERTEX
  8
PLAN_1
  6
CONTINUOUS
 10
1.231701
 20
-3.421705
  0
VERTEX
  8
PLAN_1
  6
CONTINUOUS
 10
1.231701
 20
-3.424780
  0
VERTEX
  8
PLAN_1
  6
CONTINUOUS
 10
1.232142
 20
-3.427413
  0
VERTEX
  8
PLAN_1
  6
CONTINUOUS
 10
1.232579
 20
-3.430051
  0
VERTEX
  8
PLAN_1
  6
CONTINUOUS
 10
1.233457
 20
-3.432685
  0
VERTEX
  8
PLAN_1
  6
CONTINUOUS
 10
1.234335
 20
-3.434882
  0
VERTEX
  8
PLAN_1
  6
CONTINUOUS
 10
1.235217
 20
-3.437079
  0
VERTEX
  8
PLAN_1
  6
CONTINUOUS
 10
1.236531
 20
-3.439272
  0
VERTEX
  8
PLAN_1
  6
CONTINUOUS
 10
1.238291
 20
-3.441031
  0
VERTEX
  8
PLAN_1
  6
CONTINUOUS
 10
1.239606
 20
-3.442787
  0
VERTEX
  8
PLAN_1
  6
CONTINUOUS
 10
1.241366
 20
-3.444543
  0
VERTEX
  8
PLAN_1
  6
CONTINUOUS
 10
1.243559
 20
-3.445862
  0
VERTEX
  8
PLAN_1
  6
CONTINUOUS
 10
1.245319
 20
-3.446740
  0
VERTEX
  8
PLAN_1
  6
CONTINUOUS
 10
1.247512
 20
-3.447618
  0
VERTEX
  8
PLAN_1
  6
CONTINUOUS
 10
1.250150
 20
-3.448059
  0
VERTEX
  8
PLAN_1
  6
CONTINUOUS
 10
1.252346
 20
-3.448496
  0
VERTEX
  8
PLAN_1
  6
CONTINUOUS
 10
1.254980
 20
-3.448937
  0
VERTEX
  8
PLAN_1
  6
CONTINUOUS
 10
1.259374
 20
-3.448496
  0
VERTEX
  8
PLAN_1
  6
CONTINUOUS
 10
1.263327
 20
-3.447181
  0
VERTEX
  8
PLAN_1
  6
CONTINUOUS
 10
1.267717
 20
-3.445421
  0
VERTEX
  8
PLAN_1
  6
CONTINUOUS
 10
1.271232
 20
-3.443228
  0
VERTEX
  8
PLAN_1
  6
CONTINUOUS
 10
1.275185
 20
-3.440154
  0
VERTEX
  8
PLAN_1
  6
CONTINUOUS
 10
1.278260
 20
-3.437079
  0
VERTEX
  8
PLAN_1
  6
CONTINUOUS
 10
1.281776
 20
-3.433126
  0
VERTEX
  8
PLAN_1
  6
CONTINUOUS
 10
1.284409
 20
-3.429169
  0
VERTEX
  8
PLAN_1
  6
CONTINUOUS
 10
1.287043
 20
-3.425217
  0
VERTEX
  8
PLAN_1
  6
CONTINUOUS
 10
1.289681
 20
-3.420386
  0
VERTEX
  8
PLAN_1
  6
CONTINUOUS
 10
1.291437
 20
-3.415992
  0
VERTEX
  8
PLAN_1
  6
CONTINUOUS
 10
1.293193
 20
-3.411161
  0
VERTEX
  8
PLAN_1
  6
CONTINUOUS
 10
1.294512
 20
-3.406772
  0
VERTEX
  8
PLAN_1
  6
CONTINUOUS
 10
1.295390
 20
-3.401937
  0
VERTEX
  8
PLAN_1
  6
CONTINUOUS
 10
1.296268
 20
-3.397547
  0
VERTEX
  8
PLAN_1
  6
CONTINUOUS
 10
1.296268
 20
-3.393154
  0
VERTEX
  8
PLAN_1
  6
CONTINUOUS
 10
1.296268
 20
-3.390520
  0
VERTEX
  8
PLAN_1
  6
CONTINUOUS
 10
1.295831
 20
-3.388323
  0
VERTEX
  8
PLAN_1
  6
CONTINUOUS
 10
1.295390
 20
-3.385685
  0
VERTEX
  8
PLAN_1
  6
CONTINUOUS
 10
1.294512
 20
-3.383492
  0
VERTEX
  8
PLAN_1
  6
CONTINUOUS
 10
1.292315
 20
-3.379098
  0
VERTEX
  8
PLAN_1
  6
CONTINUOUS
 10
1.289681
 20
-3.375146
  0
VERTEX
  8
PLAN_1
  6
CONTINUOUS
 10
1.286165
 20
-3.372071
  0
VERTEX
  8
PLAN_1
  6
CONTINUOUS
 10
1.282213
 20
-3.369874
  0
VERTEX
  8
PLAN_1
  6
CONTINUOUS
 10
1.280016
 20
-3.368996
  0
VERTEX
  8
PLAN_1
  6
CONTINUOUS
 10
1.278260
 20
-3.368118
  0
VERTEX
  8
PLAN_1
  6
CONTINUOUS
 10
1.275626
 20
-3.367677
  0
VERTEX
  8
PLAN_1
  6
CONTINUOUS
 10
1.273429
 20
-3.367677
  0
SEQEND
  8
0
  0
POLYLINE
  8
PLAN_1
  6
CONTINUOUS
 66
     1
 40
0.003000
 41
0.003000
  0
VERTEX
  8
PLAN_1
  6
CONTINUOUS
 10
1.420134
 20
-3.378220
  0
VERTEX
  8
PLAN_1
  6
CONTINUOUS
 10
1.420571
 20
-3.371630
  0
VERTEX
  8
PLAN_1
  6
CONTINUOUS
 10
1.421449
 20
-3.365043
  0
VERTEX
  8
PLAN_1
  6
CONTINUOUS
 10
1.422331
 20
-3.358894
  0
VERTEX
  8
PLAN_1
  6
CONTINUOUS
 10
1.424087
 20
-3.352744
  0
VERTEX
  8
PLAN_1
  6
CONTINUOUS
 10
1.426720
 20
-3.347035
  0
VERTEX
  8
PLAN_1
  6
CONTINUOUS
 10
1.429358
 20
-3.341323
  0
VERTEX
  8
PLAN_1
  6
CONTINUOUS
 10
1.432433
 20
-3.336055
  0
VERTEX
  8
PLAN_1
  6
CONTINUOUS
 10
1.436386
 20
-3.331661
  0
VERTEX
  8
PLAN_1
  6
CONTINUOUS
 10
1.440339
 20
-3.327268
  0
VERTEX
  8
PLAN_1
  6
CONTINUOUS
 10
1.445169
 20
-3.323315
  0
VERTEX
  8
PLAN_1
  6
CONTINUOUS
 10
1.450441
 20
-3.319803
  0
VERTEX
  8
PLAN_1
  6
CONTINUOUS
 10
1.455709
 20
-3.316728
  0
VERTEX
  8
PLAN_1
  6
CONTINUOUS
 10
1.461858
 20
-3.314531
  0
VERTEX
  8
PLAN_1
  6
CONTINUOUS
 10
1.468449
 20
-3.312776
  0
VERTEX
  8
PLAN_1
  6
CONTINUOUS
 10
1.475476
 20
-3.311894
  0
VERTEX
  8
PLAN_1
  6
CONTINUOUS
 10
1.482945
 20
-3.311457
  0
VERTEX
  8
PLAN_1
  6
CONTINUOUS
 10
1.488654
 20
-3.311457
  0
VERTEX
  8
PLAN_1
  6
CONTINUOUS
 10
1.493925
 20
-3.311894
  0
VERTEX
  8
PLAN_1
  6
CONTINUOUS
 10
1.499193
 20
-3.312776
  0
VERTEX
  8
PLAN_1
  6
CONTINUOUS
 10
1.503587
 20
-3.314091
  0
VERTEX
  8
PLAN_1
  6
CONTINUOUS
 10
1.508417
 20
-3.315409
  0
VERTEX
  8
PLAN_1
  6
CONTINUOUS
 10
1.512370
 20
-3.317165
  0
VERTEX
  8
PLAN_1
  6
CONTINUOUS
 10
1.516327
 20
-3.318921
  0
VERTEX
  8
PLAN_1
  6
CONTINUOUS
 10
1.519839
 20
-3.321118
  0
VERTEX
  8
PLAN_1
  6
CONTINUOUS
 10
1.523354
 20
-3.323315
  0
VERTEX
  8
PLAN_1
  6
CONTINUOUS
 10
1.526429
 20
-3.325953
  0
VERTEX
  8
PLAN_1
  6
CONTINUOUS
 10
1.529063
 20
-3.328587
  0
VERTEX
  8
PLAN_1
  6
CONTINUOUS
 10
1.532138
 20
-3.331661
  0
VERTEX
  8
PLAN_1
  6
CONTINUOUS
 10
1.534335
 20
-3.334736
  0
VERTEX
  8
PLAN_1
  6
CONTINUOUS
 10
1.536531
 20
-3.337811
  0
VERTEX
  8
PLAN_1
  6
CONTINUOUS
 10
1.538724
 20
-3.341323
  0
VERTEX
  8
PLAN_1
  6
CONTINUOUS
 10
1.540484
 20
-3.344839
  0
VERTEX
  8
PLAN_1
  6
CONTINUOUS
 10
1.543559
 20
-3.351866
  0
VERTEX
  8
PLAN_1
  6
CONTINUOUS
 10
1.546193
 20
-3.359335
  0
VERTEX
  8
PLAN_1
  6
CONTINUOUS
 10
1.547949
 20
-3.366799
  0
VERTEX
  8
PLAN_1
  6
CONTINUOUS
 10
1.549268
 20
-3.374268
  0
VERTEX
  8
PLAN_1
  6
CONTINUOUS
 10
1.550146
 20
-3.381732
  0
VERTEX
  8
PLAN_1
  6
CONTINUOUS
 10
1.551024
 20
-3.388760
  0
VERTEX
  8
PLAN_1
  6
CONTINUOUS
 10
1.551024
 20
-3.395787
  0
VERTEX
  8
PLAN_1
  6
CONTINUOUS
 10
1.551465
 20
-3.401937
  0
VERTEX
  8
PLAN_1
  6
CONTINUOUS
 10
1.551024
 20
-3.412480
  0
VERTEX
  8
PLAN_1
  6
CONTINUOUS
 10
1.549709
 20
-3.427854
  0
VERTEX
  8
PLAN_1
  6
CONTINUOUS
 10
1.548390
 20
-3.436638
  0
VERTEX
  8
PLAN_1
  6
CONTINUOUS
 10
1.546634
 20
-3.445862
  0
VERTEX
  8
PLAN_1
  6
CONTINUOUS
 10
1.543996
 20
-3.455087
  0
VERTEX
  8
PLAN_1
  6
CONTINUOUS
 10
1.540921
 20
-3.464748
  0
VERTEX
  8
PLAN_1
  6
CONTINUOUS
 10
1.539165
 20
-3.469142
  0
VERTEX
  8
PLAN_1
  6
CONTINUOUS
 10
1.536969
 20
-3.473972
  0
VERTEX
  8
PLAN_1
  6
CONTINUOUS
 10
1.534772
 20
-3.478366
  0
VERTEX
  8
PLAN_1
  6
CONTINUOUS
 10
1.532575
 20
-3.482319
  0
VERTEX
  8
PLAN_1
  6
CONTINUOUS
 10
1.529500
 20
-3.486709
  0
VERTEX
  8
PLAN_1
  6
CONTINUOUS
 10
1.526866
 20
-3.490665
  0
VERTEX
  8
PLAN_1
  6
CONTINUOUS
 10
1.523354
 20
-3.494177
  0
VERTEX
  8
PLAN_1
  6
CONTINUOUS
 10
1.519839
 20
-3.497693
  0
VERTEX
  8
PLAN_1
  6
CONTINUOUS
 10
1.515886
 20
-3.500768
  0
VERTEX
  8
PLAN_1
  6
CONTINUOUS
 10
1.511933
 20
-3.503402
  0
VERTEX
  8
PLAN_1
  6
CONTINUOUS
 10
1.507539
 20
-3.506035
  0
VERTEX
  8
PLAN_1
  6
CONTINUOUS
 10
1.502709
 20
-3.507795
  0
VERTEX
  8
PLAN_1
  6
CONTINUOUS
 10
1.497878
 20
-3.509551
  0
VERTEX
  8
PLAN_1
  6
CONTINUOUS
 10
1.492165
 20
-3.510870
  0
VERTEX
  8
PLAN_1
  6
CONTINUOUS
 10
1.486457
 20
-3.511307
  0
VERTEX
  8
PLAN_1
  6
CONTINUOUS
 10
1.480307
 20
-3.511748
  0
VERTEX
  8
PLAN_1
  6
CONTINUOUS
 10
1.472402
 20
-3.511307
  0
VERTEX
  8
PLAN_1
  6
CONTINUOUS
 10
1.464933
 20
-3.510429
  0
VERTEX
  8
PLAN_1
  6
CONTINUOUS
 10
1.458346
 20
-3.508673
  0
VERTEX
  8
PLAN_1
  6
CONTINUOUS
 10
1.452197
 20
-3.506035
  0
VERTEX
  8
PLAN_1
  6
CONTINUOUS
 10
1.446925
 20
-3.503402
  0
VERTEX
  8
PLAN_1
  6
CONTINUOUS
 10
1.442094
 20
-3.500327
  0
VERTEX
  8
PLAN_1
  6
CONTINUOUS
 10
1.437701
 20
-3.496811
  0
VERTEX
  8
PLAN_1
  6
CONTINUOUS
 10
1.434189
 20
-3.492858
  0
VERTEX
  8
PLAN_1
  6
CONTINUOUS
 10
1.431114
 20
-3.488469
  0
VERTEX
  8
PLAN_1
  6
CONTINUOUS
 10
1.428917
 20
-3.484516
  0
VERTEX
  8
PLAN_1
  6
CONTINUOUS
 10
1.426720
 20
-3.480122
  0
VERTEX
  8
PLAN_1
  6
CONTINUOUS
 10
1.424965
 20
-3.475728
  0
VERTEX
  8
PLAN_1
  6
CONTINUOUS
 10
1.424087
 20
-3.471339
  0
VERTEX
  8
PLAN_1
  6
CONTINUOUS
 10
1.423209
 20
-3.467386
  0
VERTEX
  8
PLAN_1
  6
CONTINUOUS
 10
1.422768
 20
-3.463433
  0
VERTEX
  8
PLAN_1
  6
CONTINUOUS
 10
1.422331
 20
-3.459476
  0
VERTEX
  8
PLAN_1
  6
CONTINUOUS
 10
1.446925
 20
-3.459476
  0
VERTEX
  8
PLAN_1
  6
CONTINUOUS
 10
1.447366
 20
-3.462992
  0
VERTEX
  8
PLAN_1
  6
CONTINUOUS
 10
1.447803
 20
-3.466504
  0
VERTEX
  8
PLAN_1
  6
CONTINUOUS
 10
1.448681
 20
-3.470020
  0
VERTEX
  8
PLAN_1
  6
CONTINUOUS
 10
1.450000
 20
-3.472654
  0
VERTEX
  8
PLAN_1
  6
CONTINUOUS
 10
1.451319
 20
-3.475728
  0
VERTEX
  8
PLAN_1
  6
CONTINUOUS
 10
1.452638
 20
-3.478366
  0
VERTEX
  8
PLAN_1
  6
CONTINUOUS
 10
1.454394
 20
-3.480563
  0
VERTEX
  8
PLAN_1
  6
CONTINUOUS
 10
1.456591
 20
-3.482756
  0
VERTEX
  8
PLAN_1
  6
CONTINUOUS
 10
1.458783
 20
-3.484953
  0
VERTEX
  8
PLAN_1
  6
CONTINUOUS
 10
1.460980
 20
-3.486709
  0
VERTEX
  8
PLAN_1
  6
CONTINUOUS
 10
1.463618
 20
-3.488028
  0
VERTEX
  8
PLAN_1
  6
CONTINUOUS
 10
1.466693
 20
-3.489346
  0
VERTEX
  8
PLAN_1
  6
CONTINUOUS
 10
1.469768
 20
-3.490224
  0
VERTEX
  8
PLAN_1
  6
CONTINUOUS
 10
1.472843
 20
-3.491102
  0
VERTEX
  8
PLAN_1
  6
CONTINUOUS
 10
1.476354
 20
-3.491543
  0
VERTEX
  8
PLAN_1
  6
CONTINUOUS
 10
1.479870
 20
-3.491543
  0
VERTEX
  8
PLAN_1
  6
CONTINUOUS
 10
1.484701
 20
-3.491102
  0
VERTEX
  8
PLAN_1
  6
CONTINUOUS
 10
1.489531
 20
-3.490224
  0
VERTEX
  8
PLAN_1
  6
CONTINUOUS
 10
1.493484
 20
-3.488906
  0
VERTEX
  8
PLAN_1
  6
CONTINUOUS
 10
1.497437
 20
-3.487150
  0
VERTEX
  8
PLAN_1
  6
CONTINUOUS
 10
1.501390
 20
-3.484516
  0
VERTEX
  8
PLAN_1
  6
CONTINUOUS
 10
1.504906
 20
-3.481878
  0
VERTEX
  8
PLAN_1
  6
CONTINUOUS
 10
1.507980
 20
-3.477925
  0
VERTEX
  8
PLAN_1
  6
CONTINUOUS
 10
1.511055
 20
-3.473972
  0
VERTEX
  8
PLAN_1
  6
CONTINUOUS
 10
1.513689
 20
-3.469142
  0
VERTEX
  8
PLAN_1
  6
CONTINUOUS
 10
1.516327
 20
-3.463870
  0
VERTEX
  8
PLAN_1
  6
CONTINUOUS
 10
1.518520
 20
-3.457720
  0
VERTEX
  8
PLAN_1
  6
CONTINUOUS
 10
1.520717
 20
-3.451134
  0
VERTEX
  8
PLAN_1
  6
CONTINUOUS
 10
1.522472
 20
-3.444106
  0
VERTEX
  8
PLAN_1
  6
CONTINUOUS
 10
1.524232
 20
-3.436197
  0
VERTEX
  8
PLAN_1
  6
CONTINUOUS
 10
1.525547
 20
-3.427413
  0
VERTEX
  8
PLAN_1
  6
CONTINUOUS
 10
1.526866
 20
-3.418630
  0
VERTEX
  8
PLAN_1
  6
CONTINUOUS
 10
1.526429
 20
-3.417752
  0
VERTEX
  8
PLAN_1
  6
CONTINUOUS
 10
1.524669
 20
-3.420827
  0
VERTEX
  8
PLAN_1
  6
CONTINUOUS
 10
1.522913
 20
-3.423020
  0
VERTEX
  8
PLAN_1
  6
CONTINUOUS
 10
1.521157
 20
-3.425657
  0
VERTEX
  8
PLAN_1
  6
CONTINUOUS
 10
1.518961
 20
-3.427854
  0
VERTEX
  8
PLAN_1
  6
CONTINUOUS
 10
1.516327
 20
-3.430051
  0
VERTEX
  8
PLAN_1
  6
CONTINUOUS
 10
1.513689
 20
-3.431807
  0
VERTEX
  8
PLAN_1
  6
CONTINUOUS
 10
1.511055
 20
-3.433563
  0
VERTEX
  8
PLAN_1
  6
CONTINUOUS
 10
1.507980
 20
-3.435319
  0
VERTEX
  8
PLAN_1
  6
CONTINUOUS
 10
1.501831
 20
-3.437957
  0
VERTEX
  8
PLAN_1
  6
CONTINUOUS
 10
1.495240
 20
-3.439713
  0
VERTEX
  8
PLAN_1
  6
CONTINUOUS
 10
1.488213
 20
-3.441031
  0
VERTEX
  8
PLAN_1
  6
CONTINUOUS
 10
1.481626
 20
-3.441031
  0
VERTEX
  8
PLAN_1
  6
CONTINUOUS
 10
1.475035
 20
-3.441031
  0
VERTEX
  8
PLAN_1
  6
CONTINUOUS
 10
1.468449
 20
-3.440154
  0
VERTEX
  8
PLAN_1
  6
CONTINUOUS
 10
1.462740
 20
-3.438835
  0
VERTEX
  8
PLAN_1
  6
CONTINUOUS
 10
1.456591
 20
-3.437079
  0
VERTEX
  8
PLAN_1
  6
CONTINUOUS
 10
1.451319
 20
-3.434441
  0
VERTEX
  8
PLAN_1
  6
CONTINUOUS
 10
1.446488
 20
-3.431366
  0
VERTEX
  8
PLAN_1
  6
CONTINUOUS
 10
1.441654
 20
-3.428291
  0
VERTEX
  8
PLAN_1
  6
CONTINUOUS
 10
1.437264
 20
-3.424339
  0
VERTEX
  8
PLAN_1
  6
CONTINUOUS
 10
1.433748
 20
-3.419949
  0
VERTEX
  8
PLAN_1
  6
CONTINUOUS
 10
1.430236
 20
-3.415114
  0
VERTEX
  8
PLAN_1
  6
CONTINUOUS
 10
1.427161
 20
-3.410283
  0
VERTEX
  8
PLAN_1
  6
CONTINUOUS
 10
1.424965
 20
-3.404575
  0
VERTEX
  8
PLAN_1
  6
CONTINUOUS
 10
1.422768
 20
-3.398425
  0
VERTEX
  8
PLAN_1
  6
CONTINUOUS
 10
1.421449
 20
-3.392276
  0
VERTEX
  8
PLAN_1
  6
CONTINUOUS
 10
1.420571
 20
-3.385248
  0
VERTEX
  8
PLAN_1
  6
CONTINUOUS
 10
1.420134
 20
-3.378220
  0
SEQEND
  8
0
  0
POLYLINE
  8
PLAN_1
  6
CONTINUOUS
 66
     1
 40
0.003000
 41
0.003000
  0
VERTEX
  8
PLAN_1
  6
CONTINUOUS
 10
1.522472
 20
-3.374705
  0
VERTEX
  8
PLAN_1
  6
CONTINUOUS
 10
1.522472
 20
-3.370752
  0
VERTEX
  8
PLAN_1
  6
CONTINUOUS
 10
1.522035
 20
-3.366799
  0
VERTEX
  8
PLAN_1
  6
CONTINUOUS
 10
1.521594
 20
-3.362846
  0
VERTEX
  8
PLAN_1
  6
CONTINUOUS
 10
1.520280
 20
-3.358894
  0
VERTEX
  8
PLAN_1
  6
CONTINUOUS
 10
1.519398
 20
-3.355378
  0
VERTEX
  8
PLAN_1
  6
CONTINUOUS
 10
1.517642
 20
-3.351866
  0
VERTEX
  8
PLAN_1
  6
CONTINUOUS
 10
1.515886
 20
-3.348791
  0
VERTEX
  8
PLAN_1
  6
CONTINUOUS
 10
1.513689
 20
-3.345717
  0
VERTEX
  8
PLAN_1
  6
CONTINUOUS
 10
1.511055
 20
-3.343083
  0
VERTEX
  8
PLAN_1
  6
CONTINUOUS
 10
1.507980
 20
-3.340445
  0
VERTEX
  8
PLAN_1
  6
CONTINUOUS
 10
1.504906
 20
-3.338248
  0
VERTEX
  8
PLAN_1
  6
CONTINUOUS
 10
1.501390
 20
-3.336492
  0
VERTEX
  8
PLAN_1
  6
CONTINUOUS
 10
1.497437
 20
-3.335173
  0
VERTEX
  8
PLAN_1
  6
CONTINUOUS
 10
1.493047
 20
-3.334295
  0
VERTEX
  8
PLAN_1
  6
CONTINUOUS
 10
1.488213
 20
-3.333417
  0
VERTEX
  8
PLAN_1
  6
CONTINUOUS
 10
1.483382
 20
-3.333417
  0
VERTEX
  8
PLAN_1
  6
CONTINUOUS
 10
1.478988
 20
-3.333417
  0
VERTEX
  8
PLAN_1
  6
CONTINUOUS
 10
1.475035
 20
-3.334295
  0
VERTEX
  8
PLAN_1
  6
CONTINUOUS
 10
1.471524
 20
-3.335173
  0
VERTEX
  8
PLAN_1
  6
CONTINUOUS
 10
1.467571
 20
-3.336492
  0
VERTEX
  8
PLAN_1
  6
CONTINUOUS
 10
1.464496
 20
-3.338248
  0
VERTEX
  8
PLAN_1
  6
CONTINUOUS
 10
1.461421
 20
-3.340445
  0
VERTEX
  8
PLAN_1
  6
CONTINUOUS
 10
1.458346
 20
-3.342642
  0
VERTEX
  8
PLAN_1
  6
CONTINUOUS
 10
1.455709
 20
-3.345276
  0
VERTEX
  8
PLAN_1
  6
CONTINUOUS
 10
1.453516
 20
-3.348350
  0
VERTEX
  8
PLAN_1
  6
CONTINUOUS
 10
1.451319
 20
-3.351866
  0
VERTEX
  8
PLAN_1
  6
CONTINUOUS
 10
1.449563
 20
-3.355378
  0
VERTEX
  8
PLAN_1
  6
CONTINUOUS
 10
1.448244
 20
-3.359335
  0
VERTEX
  8
PLAN_1
  6
CONTINUOUS
 10
1.446925
 20
-3.363287
  0
VERTEX
  8
PLAN_1
  6
CONTINUOUS
 10
1.446047
 20
-3.367677
  0
VERTEX
  8
PLAN_1
  6
CONTINUOUS
 10
1.445606
 20
-3.372508
  0
VERTEX
  8
PLAN_1
  6
CONTINUOUS
 10
1.445606
 20
-3.376902
  0
VERTEX
  8
PLAN_1
  6
CONTINUOUS
 10
1.445606
 20
-3.383929
  0
VERTEX
  8
PLAN_1
  6
CONTINUOUS
 10
1.446488
 20
-3.389642
  0
VERTEX
  8
PLAN_1
  6
CONTINUOUS
 10
1.447803
 20
-3.394909
  0
VERTEX
  8
PLAN_1
  6
CONTINUOUS
 10
1.449563
 20
-3.399744
  0
VERTEX
  8
PLAN_1
  6
CONTINUOUS
 10
1.451319
 20
-3.403697
  0
VERTEX
  8
PLAN_1
  6
CONTINUOUS
 10
1.453953
 20
-3.406772
  0
VERTEX
  8
PLAN_1
  6
CONTINUOUS
 10
1.456591
 20
-3.409846
  0
VERTEX
  8
PLAN_1
  6
CONTINUOUS
 10
1.459224
 20
-3.412480
  0
VERTEX
  8
PLAN_1
  6
CONTINUOUS
 10
1.462299
 20
-3.414236
  0
VERTEX
  8
PLAN_1
  6
CONTINUOUS
 10
1.465374
 20
-3.415992
  0
VERTEX
  8
PLAN_1
  6
CONTINUOUS
 10
1.468886
 20
-3.416874
  0
VERTEX
  8
PLAN_1
  6
CONTINUOUS
 10
1.471961
 20
-3.418189
  0
VERTEX
  8
PLAN_1
  6
CONTINUOUS
 10
1.478988
 20
-3.419067
  0
VERTEX
  8
PLAN_1
  6
CONTINUOUS
 10
1.485138
 20
-3.419508
  0
VERTEX
  8
PLAN_1
  6
CONTINUOUS
 10
1.490409
 20
-3.419067
  0
VERTEX
  8
PLAN_1
  6
CONTINUOUS
 10
1.496559
 20
-3.417752
  0
VERTEX
  8
PLAN_1
  6
CONTINUOUS
 10
1.499634
 20
-3.416874
  0
VERTEX
  8
PLAN_1
  6
CONTINUOUS
 10
1.502709
 20
-3.415555
  0
VERTEX
  8
PLAN_1
  6
CONTINUOUS
 10
1.505783
 20
-3.413799
  0
VERTEX
  8
PLAN_1
  6
CONTINUOUS
 10
1.508858
 20
-3.411602
  0
VERTEX
  8
PLAN_1
  6
CONTINUOUS
 10
1.511492
 20
-3.408965
  0
VERTEX
  8
PLAN_1
  6
CONTINUOUS
 10
1.514130
 20
-3.405890
  0
VERTEX
  8
PLAN_1
  6
CONTINUOUS
 10
1.516764
 20
-3.402378
  0
VERTEX
  8
PLAN_1
  6
CONTINUOUS
 10
1.518520
 20
-3.397984
  0
VERTEX
  8
PLAN_1
  6
CONTINUOUS
 10
1.520280
 20
-3.393154
  0
VERTEX
  8
PLAN_1
  6
CONTINUOUS
 10
1.521594
 20
-3.387882
  0
VERTEX
  8
PLAN_1
  6
CONTINUOUS
 10
1.522472
 20
-3.381732
  0
VERTEX
  8
PLAN_1
  6
CONTINUOUS
 10
1.522472
 20
-3.374705
  0
SEQEND
  8
0
  0
POLYLINE
  8
PLAN_1
  6
CONTINUOUS
 66
     1
 40
0.003000
 41
0.003000
  0
VERTEX
  8
PLAN_1
  6
CONTINUOUS
 10
1.742969
 20
-3.506476
  0
VERTEX
  8
PLAN_1
  6
CONTINUOUS
 10
1.709587
 20
-3.506476
  0
VERTEX
  8
PLAN_1
  6
CONTINUOUS
 10
1.656000
 20
-3.424780
  0
VERTEX
  8
PLAN_1
  6
CONTINUOUS
 10
1.600657
 20
-3.506476
  0
VERTEX
  8
PLAN_1
  6
CONTINUOUS
 10
1.568154
 20
-3.506476
  0
VERTEX
  8
PLAN_1
  6
CONTINUOUS
 10
1.639748
 20
-3.404134
  0
VERTEX
  8
PLAN_1
  6
CONTINUOUS
 10
1.572547
 20
-3.307063
  0
VERTEX
  8
PLAN_1
  6
CONTINUOUS
 10
1.606366
 20
-3.307063
  0
VERTEX
  8
PLAN_1
  6
CONTINUOUS
 10
1.657319
 20
-3.383492
  0
VERTEX
  8
PLAN_1
  6
CONTINUOUS
 10
1.707831
 20
-3.307063
  0
VERTEX
  8
PLAN_1
  6
CONTINUOUS
 10
1.739894
 20
-3.307063
  0
VERTEX
  8
PLAN_1
  6
CONTINUOUS
 10
1.673130
 20
-3.404134
  0
VERTEX
  8
PLAN_1
  6
CONTINUOUS
 10
1.742969
 20
-3.506476
  0
SEQEND
  8
0
  0
SOLID
  8
PLAN_1
 10
1.801390
 20
-3.506476
 11
1.772398
 21
-3.506476
 12
1.801390
 22
-3.477047
 13
1.772398
 23
-3.477047
  0
POLYLINE
  8
PLAN_1
  6
CONTINUOUS
 66
     1
 40
0.003000
 41
0.003000
  0
VERTEX
  8
PLAN_1
  6
CONTINUOUS
 10
1.801390
 20
-3.506476
  0
VERTEX
  8
PLAN_1
  6
CONTINUOUS
 10
1.772398
 20
-3.506476
  0
VERTEX
  8
PLAN_1
  6
CONTINUOUS
 10
1.772398
 20
-3.477047
  0
VERTEX
  8
PLAN_1
  6
CONTINUOUS
 10
1.801390
 20
-3.477047
  0
VERTEX
  8
PLAN_1
  6
CONTINUOUS
 10
1.801390
 20
-3.506476
  0
SEQEND
  8
0
  0
POLYLINE
  8
PLAN_1
  6
CONTINUOUS
 66
     1
 40
0.003000
 41
0.003000
  0
VERTEX
  8
PLAN_1
  6
CONTINUOUS
 10
1.996409
 20
-3.506476
  0
VERTEX
  8
PLAN_1
  6
CONTINUOUS
 10
1.849264
 20
-3.506476
  0
VERTEX
  8
PLAN_1
  6
CONTINUOUS
 10
1.849264
 20
-3.307063
  0
VERTEX
  8
PLAN_1
  6
CONTINUOUS
 10
1.994650
 20
-3.307063
  0
VERTEX
  8
PLAN_1
  6
CONTINUOUS
 10
1.994650
 20
-3.331220
  0
VERTEX
  8
PLAN_1
  6
CONTINUOUS
 10
1.876059
 20
-3.331220
  0
VERTEX
  8
PLAN_1
  6
CONTINUOUS
 10
1.876059
 20
-3.392276
  0
VERTEX
  8
PLAN_1
  6
CONTINUOUS
 10
1.985425
 20
-3.392276
  0
VERTEX
  8
PLAN_1
  6
CONTINUOUS
 10
1.985425
 20
-3.415992
  0
VERTEX
  8
PLAN_1
  6
CONTINUOUS
 10
1.876059
 20
-3.415992
  0
VERTEX
  8
PLAN_1
  6
CONTINUOUS
 10
1.876059
 20
-3.482756
  0
VERTEX
  8
PLAN_1
  6
CONTINUOUS
 10
1.996409
 20
-3.482756
  0
VERTEX
  8
PLAN_1
  6
CONTINUOUS
 10
1.996409
 20
-3.506476
  0
SEQEND
  8
0
  0
POLYLINE
  8
PLAN_1
  6
CONTINUOUS
 66
     1
 40
0.003000
 41
0.003000
  0
VERTEX
  8
PLAN_1
  6
CONTINUOUS
 10
2.061413
 20
-3.506476
  0
VERTEX
  8
PLAN_1
  6
CONTINUOUS
 10
2.034622
 20
-3.506476
  0
VERTEX
  8
PLAN_1
  6
CONTINUOUS
 10
2.034622
 20
-3.307063
  0
VERTEX
  8
PLAN_1
  6
CONTINUOUS
 10
2.124224
 20
-3.307063
  0
VERTEX
  8
PLAN_1
  6
CONTINUOUS
 10
2.130815
 20
-3.307504
  0
VERTEX
  8
PLAN_1
  6
CONTINUOUS
 10
2.137402
 20
-3.308382
  0
VERTEX
  8
PLAN_1
  6
CONTINUOUS
 10
2.143551
 20
-3.309701
  0
VERTEX
  8
PLAN_1
  6
CONTINUOUS
 10
2.148823
 20
-3.311457
  0
VERTEX
  8
PLAN_1
  6
CONTINUOUS
 10
2.154094
 20
-3.313654
  0
VERTEX
  8
PLAN_1
  6
CONTINUOUS
 10
2.158925
 20
-3.316287
  0
VERTEX
  8
PLAN_1
  6
CONTINUOUS
 10
2.163756
 20
-3.319362
  0
VERTEX
  8
PLAN_1
  6
CONTINUOUS
 10
2.167709
 20
-3.323315
  0
VERTEX
  8
PLAN_1
  6
CONTINUOUS
 10
2.171224
 20
-3.327268
  0
VERTEX
  8
PLAN_1
  6
CONTINUOUS
 10
2.174299
 20
-3.331220
  0
VERTEX
  8
PLAN_1
  6
CONTINUOUS
 10
2.176933
 20
-3.336055
  0
VERTEX
  8
PLAN_1
  6
CONTINUOUS
 10
2.179130
 20
-3.340886
  0
VERTEX
  8
PLAN_1
  6
CONTINUOUS
 10
2.180886
 20
-3.346157
  0
VERTEX
  8
PLAN_1
  6
CONTINUOUS
 10
2.182205
 20
-3.351425
  0
VERTEX
  8
PLAN_1
  6
CONTINUOUS
 10
2.183083
 20
-3.357138
  0
VERTEX
  8
PLAN_1
  6
CONTINUOUS
 10
2.183520
 20
-3.363287
  0
VERTEX
  8
PLAN_1
  6
CONTINUOUS
 10
2.183083
 20
-3.368555
  0
VERTEX
  8
PLAN_1
  6
CONTINUOUS
 10
2.182642
 20
-3.373827
  0
VERTEX
  8
PLAN_1
  6
CONTINUOUS
 10
2.181764
 20
-3.379098
  0
VERTEX
  8
PLAN_1
  6
CONTINUOUS
 10
2.180008
 20
-3.384370
  0
VERTEX
  8
PLAN_1
  6
CONTINUOUS
 10
2.178252
 20
-3.389201
  0
VERTEX
  8
PLAN_1
  6
CONTINUOUS
 10
2.176055
 20
-3.394031
  0
VERTEX
  8
PLAN_1
  6
CONTINUOUS
 10
2.173417
 20
-3.398862
  0
VERTEX
  8
PLAN_1
  6
CONTINUOUS
 10
2.169906
 20
-3.403256
  0
VERTEX
  8
PLAN_1
  6
CONTINUOUS
 10
2.166390
 20
-3.407209
  0
VERTEX
  8
PLAN_1
  6
CONTINUOUS
 10
2.162000
 20
-3.411161
  0
VERTEX
  8
PLAN_1
  6
CONTINUOUS
 10
2.157169
 20
-3.414236
  0
VERTEX
  8
PLAN_1
  6
CONTINUOUS
 10
2.151898
 20
-3.416874
  0
VERTEX
  8
PLAN_1
  6
CONTINUOUS
 10
2.145748
 20
-3.419508
  0
VERTEX
  8
PLAN_1
  6
CONTINUOUS
 10
2.139157
 20
-3.420827
  0
VERTEX
  8
PLAN_1
  6
CONTINUOUS
 10
2.132130
 20
-3.422142
  0
VERTEX
  8
PLAN_1
  6
CONTINUOUS
 10
2.124224
 20
-3.422583
  0
VERTEX
  8
PLAN_1
  6
CONTINUOUS
 10
2.061413
 20
-3.422583
  0
VERTEX
  8
PLAN_1
  6
CONTINUOUS
 10
2.061413
 20
-3.506476
  0
SEQEND
  8
0
  0
POLYLINE
  8
PLAN_1
  6
CONTINUOUS
 66
     1
 40
0.003000
 41
0.003000
  0
VERTEX
  8
PLAN_1
  6
CONTINUOUS
 10
2.061413
 20
-3.399303
  0
VERTEX
  8
PLAN_1
  6
CONTINUOUS
 10
2.115000
 20
-3.399303
  0
VERTEX
  8
PLAN_1
  6
CONTINUOUS
 10
2.119394
 20
-3.399303
  0
VERTEX
  8
PLAN_1
  6
CONTINUOUS
 10
2.123787
 20
-3.398862
  0
VERTEX
  8
PLAN_1
  6
CONTINUOUS
 10
2.127740
 20
-3.398425
  0
VERTEX
  8
PLAN_1
  6
CONTINUOUS
 10
2.131693
 20
-3.397547
  0
VERTEX
  8
PLAN_1
  6
CONTINUOUS
 10
2.135205
 20
-3.396669
  0
VERTEX
  8
PLAN_1
  6
CONTINUOUS
 10
2.138280
 20
-3.394909
  0
VERTEX
  8
PLAN_1
  6
CONTINUOUS
 10
2.141354
 20
-3.393594
  0
VERTEX
  8
PLAN_1
  6
CONTINUOUS
 10
2.144429
 20
-3.391398
  0
VERTEX
  8
PLAN_1
  6
CONTINUOUS
 10
2.147067
 20
-3.389201
  0
VERTEX
  8
PLAN_1
  6
CONTINUOUS
 10
2.149260
 20
-3.386567
  0
VERTEX
  8
PLAN_1
  6
CONTINUOUS
 10
2.151020
 20
-3.383929
  0
VERTEX
  8
PLAN_1
  6
CONTINUOUS
 10
2.152776
 20
-3.380417
  0
VERTEX
  8
PLAN_1
  6
CONTINUOUS
 10
2.154094
 20
-3.376902
  0
VERTEX
  8
PLAN_1
  6
CONTINUOUS
 10
2.154972
 20
-3.372949
  0
VERTEX
  8
PLAN_1
  6
CONTINUOUS
 10
2.155409
 20
-3.368555
  0
VERTEX
  8
PLAN_1
  6
CONTINUOUS
 10
2.155409
 20
-3.363724
  0
VERTEX
  8
PLAN_1
  6
CONTINUOUS
 10
2.155409
 20
-3.358894
  0
VERTEX
  8
PLAN_1
  6
CONTINUOUS
 10
2.154972
 20
-3.354941
  0
VERTEX
  8
PLAN_1
  6
CONTINUOUS
 10
2.153654
 20
-3.350988
  0
VERTEX
  8
PLAN_1
  6
CONTINUOUS
 10
2.152335
 20
-3.347472
  0
VERTEX
  8
PLAN_1
  6
CONTINUOUS
 10
2.151020
 20
-3.344398
  0
VERTEX
  8
PLAN_1
  6
CONTINUOUS
 10
2.148823
 20
-3.341764
  0
VERTEX
  8
PLAN_1
  6
CONTINUOUS
 10
2.146626
 20
-3.339567
  0
VERTEX
  8
PLAN_1
  6
CONTINUOUS
 10
2.143992
 20
-3.337370
  0
VERTEX
  8
PLAN_1
  6
CONTINUOUS
 10
2.141354
 20
-3.335614
  0
VERTEX
  8
PLAN_1
  6
CONTINUOUS
 10
2.138280
 20
-3.334295
  0
VERTEX
  8
PLAN_1
  6
CONTINUOUS
 10
2.135205
 20
-3.332980
  0
VERTEX
  8
PLAN_1
  6
CONTINUOUS
 10
2.131693
 20
-3.331661
  0
VERTEX
  8
PLAN_1
  6
CONTINUOUS
 10
2.128177
 20
-3.331220
  0
VERTEX
  8
PLAN_1
  6
CONTINUOUS
 10
2.124224
 20
-3.330783
  0
VERTEX
  8
PLAN_1
  6
CONTINUOUS
 10
2.120272
 20
-3.330343
  0
VERTEX
  8
PLAN_1
  6
CONTINUOUS
 10
2.116319
 20
-3.330343
  0
VERTEX
  8
PLAN_1
  6
CONTINUOUS
 10
2.061413
 20
-3.330343
  0
VERTEX
  8
PLAN_1
  6
CONTINUOUS
 10
2.061413
 20
-3.399303
  0
SEQEND
  8
0
  0
POLYLINE
  8
PLAN_1
  6
CONTINUOUS
 66
     1
 40
0.003000
 41
0.003000
  0
VERTEX
  8
PLAN_1
  6
CONTINUOUS
 10
2.337252
 20
-3.365480
  0
VERTEX
  8
PLAN_1
  6
CONTINUOUS
 10
2.336815
 20
-3.359772
  0
VERTEX
  8
PLAN_1
  6
CONTINUOUS
 10
2.335496
 20
-3.354941
  0
VERTEX
  8
PLAN_1
  6
CONTINUOUS
 10
2.334177
 20
-3.350110
  0
VERTEX
  8
PLAN_1
  6
CONTINUOUS
 10
2.331984
 20
-3.346157
  0
VERTEX
  8
PLAN_1
  6
CONTINUOUS
 10
2.329787
 20
-3.342201
  0
VERTEX
  8
PLAN_1
  6
CONTINUOUS
 10
2.326713
 20
-3.339126
  0
VERTEX
  8
PLAN_1
  6
CONTINUOUS
 10
2.323638
 20
-3.336055
  0
VERTEX
  8
PLAN_1
  6
CONTINUOUS
 10
2.320563
 20
-3.333858
  0
VERTEX
  8
PLAN_1
  6
CONTINUOUS
 10
2.316610
 20
-3.331661
  0
VERTEX
  8
PLAN_1
  6
CONTINUOUS
 10
2.313094
 20
-3.329465
  0
VERTEX
  8
PLAN_1
  6
CONTINUOUS
 10
2.308705
 20
-3.328146
  0
VERTEX
  8
PLAN_1
  6
CONTINUOUS
 10
2.304752
 20
-3.326831
  0
VERTEX
  8
PLAN_1
  6
CONTINUOUS
 10
2.300358
 20
-3.325953
  0
VERTEX
  8
PLAN_1
  6
CONTINUOUS
 10
2.296406
 20
-3.325512
  0
VERTEX
  8
PLAN_1
  6
CONTINUOUS
 10
2.292012
 20
-3.325071
  0
VERTEX
  8
PLAN_1
  6
CONTINUOUS
 10
2.287622
 20
-3.325071
  0
VERTEX
  8
PLAN_1
  6
CONTINUOUS
 10
2.281031
 20
-3.325071
  0
VERTEX
  8
PLAN_1
  6
CONTINUOUS
 10
2.273563
 20
-3.325953
  0
VERTEX
  8
PLAN_1
  6
CONTINUOUS
 10
2.269610
 20
-3.326831
  0
VERTEX
  8
PLAN_1
  6
CONTINUOUS
 10
2.266098
 20
-3.328146
  0
VERTEX
  8
PLAN_1
  6
CONTINUOUS
 10
2.262146
 20
-3.329465
  0
VERTEX
  8
PLAN_1
  6
CONTINUOUS
 10
2.258630
 20
-3.331220
  0
VERTEX
  8
PLAN_1
  6
CONTINUOUS
 10
2.255118
 20
-3.332980
  0
VERTEX
  8
PLAN_1
  6
CONTINUOUS
 10
2.252043
 20
-3.335614
  0
VERTEX
  8
PLAN_1
  6
CONTINUOUS
 10
2.249406
 20
-3.338248
  0
VERTEX
  8
PLAN_1
  6
CONTINUOUS
 10
2.246772
 20
-3.341764
  0
VERTEX
  8
PLAN_1
  6
CONTINUOUS
 10
2.245016
 20
-3.345276
  0
VERTEX
  8
PLAN_1
  6
CONTINUOUS
 10
2.243697
 20
-3.349669
  0
VERTEX
  8
PLAN_1
  6
CONTINUOUS
 10
2.242378
 20
-3.354500
  0
VERTEX
  8
PLAN_1
  6
CONTINUOUS
 10
2.242378
 20
-3.359772
  0
VERTEX
  8
PLAN_1
  6
CONTINUOUS
 10
2.242378
 20
-3.362846
  0
VERTEX
  8
PLAN_1
  6
CONTINUOUS
 10
2.242819
 20
-3.365921
  0
VERTEX
  8
PLAN_1
  6
CONTINUOUS
 10
2.243256
 20
-3.368118
  0
VERTEX
  8
PLAN_1
  6
CONTINUOUS
 10
2.244138
 20
-3.370752
  0
VERTEX
  8
PLAN_1
  6
CONTINUOUS
 10
2.245453
 20
-3.372508
  0
VERTEX
  8
PLAN_1
  6
CONTINUOUS
 10
2.246772
 20
-3.374705
  0
VERTEX
  8
PLAN_1
  6
CONTINUOUS
 10
2.248091
 20
-3.376465
  0
VERTEX
  8
PLAN_1
  6
CONTINUOUS
 10
2.249846
 20
-3.377780
  0
VERTEX
  8
PLAN_1
  6
CONTINUOUS
 10
2.253358
 20
-3.380417
  0
VERTEX
  8
PLAN_1
  6
CONTINUOUS
 10
2.257311
 20
-3.382610
  0
VERTEX
  8
PLAN_1
  6
CONTINUOUS
 10
2.261268
 20
-3.383929
  0
VERTEX
  8
PLAN_1
  6
CONTINUOUS
 10
2.265657
 20
-3.385248
  0
VERTEX
  8
PLAN_1
  6
CONTINUOUS
 10
2.322760
 20
-3.398425
  0
VERTEX
  8
PLAN_1
  6
CONTINUOUS
 10
2.327591
 20
-3.399303
  0
VERTEX
  8
PLAN_1
  6
CONTINUOUS
 10
2.331984
 20
-3.401059
  0
VERTEX
  8
PLAN_1
  6
CONTINUOUS
 10
2.336374
 20
-3.402815
  0
VERTEX
  8
PLAN_1
  6
CONTINUOUS
 10
2.340768
 20
-3.404575
  0
VERTEX
  8
PLAN_1
  6
CONTINUOUS
 10
2.344720
 20
-3.406772
  0
VERTEX
  8
PLAN_1
  6
CONTINUOUS
 10
2.348236
 20
-3.409406
  0
VERTEX
  8
PLAN_1
  6
CONTINUOUS
 10
2.351748
 20
-3.412039
  0
VERTEX
  8
PLAN_1
  6
CONTINUOUS
 10
2.355264
 20
-3.415114
  0
VERTEX
  8
PLAN_1
  6
CONTINUOUS
 10
2.357898
 20
-3.418630
  0
VERTEX
  8
PLAN_1
  6
CONTINUOUS
 10
2.360531
 20
-3.422142
  0
VERTEX
  8
PLAN_1
  6
CONTINUOUS
 10
2.362728
 20
-3.426535
  0
VERTEX
  8
PLAN_1
  6
CONTINUOUS
 10
2.364484
 20
-3.430488
  0
VERTEX
  8
PLAN_1
  6
CONTINUOUS
 10
2.366244
 20
-3.435319
  0
VERTEX
  8
PLAN_1
  6
CONTINUOUS
 10
2.367122
 20
-3.440591
  0
VERTEX
  8
PLAN_1
  6
CONTINUOUS
 10
2.367559
 20
-3.445862
  0
VERTEX
  8
PLAN_1
  6
CONTINUOUS
 10
2.368000
 20
-3.451571
  0
VERTEX
  8
PLAN_1
  6
CONTINUOUS
 10
2.368000
 20
-3.455965
  0
VERTEX
  8
PLAN_1
  6
CONTINUOUS
 10
2.367559
 20
-3.459917
  0
VERTEX
  8
PLAN_1
  6
CONTINUOUS
 10
2.366681
 20
-3.463870
  0
VERTEX
  8
PLAN_1
  6
CONTINUOUS
 10
2.366244
 20
-3.467823
  0
VERTEX
  8
PLAN_1
  6
CONTINUOUS
 10
2.364925
 20
-3.471339
  0
VERTEX
  8
PLAN_1
  6
CONTINUOUS
 10
2.363606
 20
-3.474413
  0
VERTEX
  8
PLAN_1
  6
CONTINUOUS
 10
2.362291
 20
-3.477925
  0
VERTEX
  8
PLAN_1
  6
CONTINUOUS
 10
2.360531
 20
-3.481000
  0
VERTEX
  8
PLAN_1
  6
CONTINUOUS
 10
2.358776
 20
-3.483638
  0
VERTEX
  8
PLAN_1
  6
CONTINUOUS
 10
2.356579
 20
-3.486272
  0
VERTEX
  8
PLAN_1
  6
CONTINUOUS
 10
2.354823
 20
-3.488906
  0
VERTEX
  8
PLAN_1
  6
CONTINUOUS
 10
2.352189
 20
-3.491102
  0
VERTEX
  8
PLAN_1
  6
CONTINUOUS
 10
2.347354
 20
-3.495496
  0
VERTEX
  8
PLAN_1
  6
CONTINUOUS
 10
2.341646
 20
-3.499449
  0
VERTEX
  8
PLAN_1
  6
CONTINUOUS
 10
2.335937
 20
-3.502524
  0
VERTEX
  8
PLAN_1
  6
CONTINUOUS
 10
2.329787
 20
-3.505157
  0
VERTEX
  8
PLAN_1
  6
CONTINUOUS
 10
2.323197
 20
-3.507354
  0
VERTEX
  8
PLAN_1
  6
CONTINUOUS
 10
2.316610
 20
-3.509110
  0
VERTEX
  8
PLAN_1
  6
CONTINUOUS
 10
2.310020
 20
-3.510429
  0
VERTEX
  8
PLAN_1
  6
CONTINUOUS
 10
2.302992
 20
-3.511307
  0
VERTEX
  8
PLAN_1
  6
CONTINUOUS
 10
2.296406
 20
-3.511748
  0
VERTEX
  8
PLAN_1
  6
CONTINUOUS
 10
2.289815
 20
-3.511748
  0
VERTEX
  8
PLAN_1
  6
CONTINUOUS
 10
2.283228
 20
-3.511748
  0
VERTEX
  8
PLAN_1
  6
CONTINUOUS
 10
2.277079
 20
-3.511307
  0
VERTEX
  8
PLAN_1
  6
CONTINUOUS
 10
2.271370
 20
-3.510870
  0
VERTEX
  8
PLAN_1
  6
CONTINUOUS
 10
2.266098
 20
-3.509988
  0
VERTEX
  8
PLAN_1
  6
CONTINUOUS
 10
2.261268
 20
-3.509110
  0
VERTEX
  8
PLAN_1
  6
CONTINUOUS
 10
2.256874
 20
-3.507795
  0
VERTEX
  8
PLAN_1
  6
CONTINUOUS
 10
2.252921
 20
-3.506476
  0
VERTEX
  8
PLAN_1
  6
CONTINUOUS
 10
2.249406
 20
-3.505157
  0
VERTEX
  8
PLAN_1
  6
CONTINUOUS
 10
2.242819
 20
-3.502083
  0
VERTEX
  8
PLAN_1
  6
CONTINUOUS
 10
2.237547
 20
-3.499008
  0
VERTEX
  8
PLAN_1
  6
CONTINUOUS
 10
2.233594
 20
-3.495933
  0
VERTEX
  8
PLAN_1
  6
CONTINUOUS
 10
2.229642
 20
-3.492421
  0
VERTEX
  8
PLAN_1
  6
CONTINUOUS
 10
2.226567
 20
-3.489783
  0
VERTEX
  8
PLAN_1
  6
CONTINUOUS
 10
2.223933
 20
-3.486709
  0
VERTEX
  8
PLAN_1
  6
CONTINUOUS
 10
2.221736
 20
-3.484075
  0
VERTEX
  8
PLAN_1
  6
CONTINUOUS
 10
2.219539
 20
-3.481000
  0
VERTEX
  8
PLAN_1
  6
CONTINUOUS
 10
2.217343
 20
-3.477925
  0
VERTEX
  8
PLAN_1
  6
CONTINUOUS
 10
2.216024
 20
-3.474850
  0
VERTEX
  8
PLAN_1
  6
CONTINUOUS
 10
2.214268
 20
-3.471776
  0
VERTEX
  8
PLAN_1
  6
CONTINUOUS
 10
2.213390
 20
-3.468701
  0
VERTEX
  8
PLAN_1
  6
CONTINUOUS
 10
2.211634
 20
-3.462114
  0
VERTEX
  8
PLAN_1
  6
CONTINUOUS
 10
2.210315
 20
-3.455524
  0
VERTEX
  8
PLAN_1
  6
CONTINUOUS
 10
2.209874
 20
-3.448937
  0
VERTEX
  8
PLAN_1
  6
CONTINUOUS
 10
2.209437
 20
-3.441909
  0
VERTEX
  8
PLAN_1
  6
CONTINUOUS
 10
2.234913
 20
-3.441909
  0
VERTEX
  8
PLAN_1
  6
CONTINUOUS
 10
2.234913
 20
-3.448496
  0
VERTEX
  8
PLAN_1
  6
CONTINUOUS
 10
2.236228
 20
-3.454646
  0
VERTEX
  8
PLAN_1
  6
CONTINUOUS
 10
2.237547
 20
-3.459917
  0
VERTEX
  8
PLAN_1
  6
CONTINUOUS
 10
2.239744
 20
-3.464748
  0
VERTEX
  8
PLAN_1
  6
CONTINUOUS
 10
2.242378
 20
-3.468701
  0
VERTEX
  8
PLAN_1
  6
CONTINUOUS
 10
2.245453
 20
-3.472654
  0
VERTEX
  8
PLAN_1
  6
CONTINUOUS
 10
2.248969
 20
-3.476169
  0
VERTEX
  8
PLAN_1
  6
CONTINUOUS
 10
2.252480
 20
-3.478803
  0
VERTEX
  8
PLAN_1
  6
CONTINUOUS
 10
2.256874
 20
-3.481441
  0
VERTEX
  8
PLAN_1
  6
CONTINUOUS
 10
2.261268
 20
-3.483638
  0
VERTEX
  8
PLAN_1
  6
CONTINUOUS
 10
2.265657
 20
-3.484953
  0
VERTEX
  8
PLAN_1
  6
CONTINUOUS
 10
2.270488
 20
-3.486709
  0
VERTEX
  8
PLAN_1
  6
CONTINUOUS
 10
2.275323
 20
-3.487591
  0
VERTEX
  8
PLAN_1
  6
CONTINUOUS
 10
2.280154
 20
-3.488028
  0
VERTEX
  8
PLAN_1
  6
CONTINUOUS
 10
2.284984
 20
-3.488469
  0
VERTEX
  8
PLAN_1
  6
CONTINUOUS
 10
2.289815
 20
-3.488906
  0
VERTEX
  8
PLAN_1
  6
CONTINUOUS
 10
2.297724
 20
-3.488469
  0
VERTEX
  8
PLAN_1
  6
CONTINUOUS
 10
2.306067
 20
-3.487591
  0
VERTEX
  8
PLAN_1
  6
CONTINUOUS
 10
2.310461
 20
-3.486709
  0
VERTEX
  8
PLAN_1
  6
CONTINUOUS
 10
2.314854
 20
-3.485831
  0
VERTEX
  8
PLAN_1
  6
CONTINUOUS
 10
2.318807
 20
-3.484075
  0
VERTEX
  8
PLAN_1
  6
CONTINUOUS
 10
2.323197
 20
-3.482756
  0
VERTEX
  8
PLAN_1
  6
CONTINUOUS
 10
2.327150
 20
-3.480563
  0
VERTEX
  8
PLAN_1
  6
CONTINUOUS
 10
2.330665
 20
-3.478366
  0
VERTEX
  8
PLAN_1
  6
CONTINUOUS
 10
2.333740
 20
-3.475728
  0
VERTEX
  8
PLAN_1
  6
CONTINUOUS
 10
2.336374
 20
-3.472217
  0
VERTEX
  8
PLAN_1
  6
CONTINUOUS
 10
2.338571
 20
-3.468701
  0
VERTEX
  8
PLAN_1
  6
CONTINUOUS
 10
2.340327
 20
-3.464748
  0
VERTEX
  8
PLAN_1
  6
CONTINUOUS
 10
2.341646
 20
-3.460358
  0
VERTEX
  8
PLAN_1
  6
CONTINUOUS
 10
2.342087
 20
-3.455087
  0
VERTEX
  8
PLAN_1
  6
CONTINUOUS
 10
2.341646
 20
-3.451571
  0
VERTEX
  8
PLAN_1
  6
CONTINUOUS
 10
2.341209
 20
-3.448059
  0
VERTEX
  8
PLAN_1
  6
CONTINUOUS
 10
2.340768
 20
-3.444984
  0
VERTEX
  8
PLAN_1
  6
CONTINUOUS
 10
2.339890
 20
-3.441909
  0
VERTEX
  8
PLAN_1
  6
CONTINUOUS
 10
2.338571
 20
-3.439272
  0
VERTEX
  8
PLAN_1
  6
CONTINUOUS
 10
2.337252
 20
-3.437079
  0
VERTEX
  8
PLAN_1
  6
CONTINUOUS
 10
2.335059
 20
-3.434441
  0
VERTEX
  8
PLAN_1
  6
CONTINUOUS
 10
2.332862
 20
-3.432685
  0
VERTEX
  8
PLAN_1
  6
CONTINUOUS
 10
2.330224
 20
-3.430929
  0
VERTEX
  8
PLAN_1
  6
CONTINUOUS
 10
2.327150
 20
-3.428732
  0
VERTEX
  8
PLAN_1
  6
CONTINUOUS
 10
2.323638
 20
-3.427413
  0
VERTEX
  8
PLAN_1
  6
CONTINUOUS
 10
2.319685
 20
-3.425657
  0
VERTEX
  8
PLAN_1
  6
CONTINUOUS
 10
2.310461
 20
-3.422583
  0
VERTEX
  8
PLAN_1
  6
CONTINUOUS
 10
2.299480
 20
-3.419949
  0
VERTEX
  8
PLAN_1
  6
CONTINUOUS
 10
2.258630
 20
-3.410283
  0
VERTEX
  8
PLAN_1
  6
CONTINUOUS
 10
2.252921
 20
-3.408965
  0
VERTEX
  8
PLAN_1
  6
CONTINUOUS
 10
2.246331
 20
-3.406772
  0
VERTEX
  8
PLAN_1
  6
CONTINUOUS
 10
2.242819
 20
-3.405012
  0
VERTEX
  8
PLAN_1
  6
CONTINUOUS
 10
2.239303
 20
-3.403256
  0
VERTEX
  8
PLAN_1
  6
CONTINUOUS
 10
2.235791
 20
-3.401500
  0
VERTEX
  8
PLAN_1
  6
CONTINUOUS
 10
2.232717
 20
-3.398862
  0
VERTEX
  8
PLAN_1
  6
CONTINUOUS
 10
2.229201
 20
-3.396228
  0
VERTEX
  8
PLAN_1
  6
CONTINUOUS
 10
2.226126
 20
-3.392713
  0
VERTEX
  8
PLAN_1
  6
CONTINUOUS
 10
2.223492
 20
-3.389201
  0
VERTEX
  8
PLAN_1
  6
CONTINUOUS
 10
2.220858
 20
-3.385248
  0
VERTEX
  8
PLAN_1
  6
CONTINUOUS
 10
2.219098
 20
-3.380417
  0
VERTEX
  8
PLAN_1
  6
CONTINUOUS
 10
2.217343
 20
-3.375583
  0
VERTEX
  8
PLAN_1
  6
CONTINUOUS
 10
2.216465
 20
-3.369874
  0
VERTEX
  8
PLAN_1
  6
CONTINUOUS
 10
2.216024
 20
-3.363724
  0
VERTEX
  8
PLAN_1
  6
CONTINUOUS
 10
2.216465
 20
-3.357575
  0
VERTEX
  8
PLAN_1
  6
CONTINUOUS
 10
2.216902
 20
-3.351866
  0
VERTEX
  8
PLAN_1
  6
CONTINUOUS
 10
2.218220
 20
-3.346157
  0
VERTEX
  8
PLAN_1
  6
CONTINUOUS
 10
2.219976
 20
-3.340886
  0
VERTEX
  8
PLAN_1
  6
CONTINUOUS
 10
2.222173
 20
-3.335614
  0
VERTEX
  8
PLAN_1
  6
CONTINUOUS
 10
2.225248
 20
-3.330343
  0
VERTEX
  8
PLAN_1
  6
CONTINUOUS
 10
2.228323
 20
-3.325512
  0
VERTEX
  8
PLAN_1
  6
CONTINUOUS
 10
2.232276
 20
-3.321118
  0
VERTEX
  8
PLAN_1
  6
CONTINUOUS
 10
2.236669
 20
-3.316728
  0
VERTEX
  8
PLAN_1
  6
CONTINUOUS
 10
2.241941
 20
-3.313213
  0
VERTEX
  8
PLAN_1
  6
CONTINUOUS
 10
2.247209
 20
-3.310138
  0
VERTEX
  8
PLAN_1
  6
CONTINUOUS
 10
2.253799
 20
-3.307063
  0
VERTEX
  8
PLAN_1
  6
CONTINUOUS
 10
2.260386
 20
-3.304866
  0
VERTEX
  8
PLAN_1
  6
CONTINUOUS
 10
2.267854
 20
-3.303110
  0
VERTEX
  8
PLAN_1
  6
CONTINUOUS
 10
2.276201
 20
-3.302232
  0
VERTEX
  8
PLAN_1
  6
CONTINUOUS
 10
2.284547
 20
-3.301791
  0
VERTEX
  8
PLAN_1
  6
CONTINUOUS
 10
2.291134
 20
-3.302232
  0
VERTEX
  8
PLAN_1
  6
CONTINUOUS
 10
2.296843
 20
-3.302232
  0
VERTEX
  8
PLAN_1
  6
CONTINUOUS
 10
2.302555
 20
-3.303110
  0
VERTEX
  8
PLAN_1
  6
CONTINUOUS
 10
2.307827
 20
-3.303551
  0
VERTEX
  8
PLAN_1
  6
CONTINUOUS
 10
2.313094
 20
-3.304866
  0
VERTEX
  8
PLAN_1
  6
CONTINUOUS
 10
2.317488
 20
-3.305748
  0
VERTEX
  8
PLAN_1
  6
CONTINUOUS
 10
2.321882
 20
-3.307063
  0
VERTEX
  8
PLAN_1
  6
CONTINUOUS
 10
2.326272
 20
-3.308819
  0
VERTEX
  8
PLAN_1
  6
CONTINUOUS
 10
2.329787
 20
-3.310579
  0
VERTEX
  8
PLAN_1
  6
CONTINUOUS
 10
2.333299
 20
-3.312335
  0
VERTEX
  8
PLAN_1
  6
CONTINUOUS
 10
2.336815
 20
-3.314091
  0
VERTEX
  8
PLAN_1
  6
CONTINUOUS
 10
2.339449
 20
-3.316287
  0
VERTEX
  8
PLAN_1
  6
CONTINUOUS
 10
2.344720
 20
-3.320681
  0
VERTEX
  8
PLAN_1
  6
CONTINUOUS
 10
2.349114
 20
-3.325512
  0
VERTEX
  8
PLAN_1
  6
CONTINUOUS
 10
2.353067
 20
-3.330343
  0
VERTEX
  8
PLAN_1
  6
CONTINUOUS
 10
2.355701
 20
-3.335614
  0
VERTEX
  8
PLAN_1
  6
CONTINUOUS
 10
2.357898
 20
-3.340886
  0
VERTEX
  8
PLAN_1
  6
CONTINUOUS
 10
2.359654
 20
-3.346157
  0
VERTEX
  8
PLAN_1
  6
CONTINUOUS
 10
2.360972
 20
-3.351425
  0
VERTEX
  8
PLAN_1
  6
CONTINUOUS
 10
2.361850
 20
-3.356260
  0
VERTEX
  8
PLAN_1
  6
CONTINUOUS
 10
2.362291
 20
-3.361091
  0
VERTEX
  8
PLAN_1
  6
CONTINUOUS
 10
2.362291
 20
-3.365480
  0
VERTEX
  8
PLAN_1
  6
CONTINUOUS
 10
2.337252
 20
-3.365480
  0
SEQEND
  8
0
  0
POLYLINE
  8
PLAN_1
  6
CONTINUOUS
 66
     1
 40
0.008343
 41
0.008343
  0
VERTEX
  8
PLAN_1
  6
CONTINUOUS
 10
-2.222437
 20
0.837110
  0
VERTEX
  8
PLAN_1
  6
CONTINUOUS
 10
-2.230343
 20
0.837551
  0
VERTEX
  8
PLAN_1
  6
CONTINUOUS
 10
-2.237811
 20
0.838866
  0
VERTEX
  8
PLAN_1
  6
CONTINUOUS
 10
-2.245276
 20
0.840626
  0
VERTEX
  8
PLAN_1
  6
CONTINUOUS
 10
-2.252303
 20
0.843260
  0
VERTEX
  8
PLAN_1
  6
CONTINUOUS
 10
-2.258894
 20
0.846335
  0
VERTEX
  8
PLAN_1
  6
CONTINUOUS
 10
-2.265043
 20
0.850287
  0
VERTEX
  8
PLAN_1
  6
CONTINUOUS
 10
-2.271193
 20
0.854681
  0
VERTEX
  8
PLAN_1
  6
CONTINUOUS
 10
-2.276461
 20
0.859512
  0
VERTEX
  8
PLAN_1
  6
CONTINUOUS
 10
-2.281295
 20
0.865220
  0
VERTEX
  8
PLAN_1
  6
CONTINUOUS
 10
-2.285685
 20
0.870933
  0
VERTEX
  8
PLAN_1
  6
CONTINUOUS
 10
-2.289638
 20
0.877083
  0
VERTEX
  8
PLAN_1
  6
CONTINUOUS
 10
-2.292713
 20
0.884110
  0
VERTEX
  8
PLAN_1
  6
CONTINUOUS
 10
-2.295350
 20
0.891138
  0
VERTEX
  8
PLAN_1
  6
CONTINUOUS
 10
-2.297106
 20
0.898165
  0
VERTEX
  8
PLAN_1
  6
CONTINUOUS
 10
-2.298425
 20
0.906071
  0
VERTEX
  8
PLAN_1
  6
CONTINUOUS
 10
-2.298862
 20
0.913539
  0
SEQEND
  8
0
  0
POLYLINE
  8
PLAN_1
  6
CONTINUOUS
 66
     1
 40
0.008343
 41
0.008343
  0
VERTEX
  8
PLAN_1
  6
CONTINUOUS
 10
-2.298862
 20
0.913539
  0
VERTEX
  8
PLAN_1
  6
CONTINUOUS
 10
-2.298862
 20
3.179106
  0
SEQEND
  8
0
  0
POLYLINE
  8
PLAN_1
  6
CONTINUOUS
 66
     1
 40
0.008343
 41
0.008343
  0
VERTEX
  8
PLAN_1
  6
CONTINUOUS
 10
-2.298862
 20
3.179106
  0
VERTEX
  8
PLAN_1
  6
CONTINUOUS
 10
-2.298425
 20
3.187012
  0
VERTEX
  8
PLAN_1
  6
CONTINUOUS
 10
-2.297106
 20
3.194480
  0
VERTEX
  8
PLAN_1
  6
CONTINUOUS
 10
-2.295350
 20
3.201949
  0
VERTEX
  8
PLAN_1
  6
CONTINUOUS
 10
-2.292713
 20
3.208976
  0
VERTEX
  8
PLAN_1
  6
CONTINUOUS
 10
-2.289638
 20
3.215563
  0
VERTEX
  8
PLAN_1
  6
CONTINUOUS
 10
-2.285685
 20
3.221713
  0
VERTEX
  8
PLAN_1
  6
CONTINUOUS
 10
-2.281295
 20
3.227862
  0
VERTEX
  8
PLAN_1
  6
CONTINUOUS
 10
-2.276461
 20
3.233134
  0
VERTEX
  8
PLAN_1
  6
CONTINUOUS
 10
-2.271193
 20
3.237965
  0
VERTEX
  8
PLAN_1
  6
CONTINUOUS
 10
-2.265043
 20
3.242358
  0
VERTEX
  8
PLAN_1
  6
CONTINUOUS
 10
-2.258894
 20
3.246311
  0
VERTEX
  8
PLAN_1
  6
CONTINUOUS
 10
-2.252303
 20
3.249386
  0
VERTEX
  8
PLAN_1
  6
CONTINUOUS
 10
-2.245276
 20
3.252020
  0
VERTEX
  8
PLAN_1
  6
CONTINUOUS
 10
-2.237811
 20
3.253776
  0
VERTEX
  8
PLAN_1
  6
CONTINUOUS
 10
-2.230343
 20
3.255094
  0
VERTEX
  8
PLAN_1
  6
CONTINUOUS
 10
-2.222437
 20
3.255535
  0
SEQEND
  8
0
  0
POLYLINE
  8
PLAN_1
  6
CONTINUOUS
 66
     1
 40
0.008343
 41
0.008343
  0
VERTEX
  8
PLAN_1
  6
CONTINUOUS
 10
-2.222437
 20
3.255535
  0
VERTEX
  8
PLAN_1
  6
CONTINUOUS
 10
-0.090394
 20
3.255535
  0
SEQEND
  8
0
  0
POLYLINE
  8
PLAN_1
  6
CONTINUOUS
 66
     1
 40
0.008343
 41
0.008343
  0
VERTEX
  8
PLAN_1
  6
CONTINUOUS
 10
-0.090394
 20
3.255535
  0
VERTEX
  8
PLAN_1
  6
CONTINUOUS
 10
-0.082488
 20
3.255094
  0
VERTEX
  8
PLAN_1
  6
CONTINUOUS
 10
-0.075020
 20
3.253776
  0
VERTEX
  8
PLAN_1
  6
CONTINUOUS
 10
-0.067555
 20
3.252020
  0
VERTEX
  8
PLAN_1
  6
CONTINUOUS
 10
-0.060528
 20
3.249386
  0
VERTEX
  8
PLAN_1
  6
CONTINUOUS
 10
-0.053937
 20
3.246311
  0
VERTEX
  8
PLAN_1
  6
CONTINUOUS
 10
-0.047787
 20
3.242358
  0
VERTEX
  8
PLAN_1
  6
CONTINUOUS
 10
-0.041638
 20
3.237965
  0
VERTEX
  8
PLAN_1
  6
CONTINUOUS
 10
-0.036366
 20
3.233134
  0
VERTEX
  8
PLAN_1
  6
CONTINUOUS
 10
-0.031535
 20
3.227862
  0
VERTEX
  8
PLAN_1
  6
CONTINUOUS
 10
-0.027146
 20
3.221713
  0
VERTEX
  8
PLAN_1
  6
CONTINUOUS
 10
-0.023189
 20
3.215563
  0
VERTEX
  8
PLAN_1
  6
CONTINUOUS
 10
-0.020118
 20
3.208976
  0
VERTEX
  8
PLAN_1
  6
CONTINUOUS
 10
-0.017480
 20
3.201949
  0
VERTEX
  8
PLAN_1
  6
CONTINUOUS
 10
-0.015724
 20
3.194480
  0
VERTEX
  8
PLAN_1
  6
CONTINUOUS
 10
-0.014406
 20
3.187012
  0
VERTEX
  8
PLAN_1
  6
CONTINUOUS
 10
-0.013969
 20
3.179106
  0
SEQEND
  8
0
  0
POLYLINE
  8
PLAN_1
  6
CONTINUOUS
 66
     1
 40
0.008343
 41
0.008343
  0
VERTEX
  8
PLAN_1
  6
CONTINUOUS
 10
-0.013969
 20
3.179106
  0
VERTEX
  8
PLAN_1
  6
CONTINUOUS
 10
-0.013969
 20
0.913539
  0
SEQEND
  8
0
  0
POLYLINE
  8
PLAN_1
  6
CONTINUOUS
 66
     1
 40
0.008343
 41
0.008343
  0
VERTEX
  8
PLAN_1
  6
CONTINUOUS
 10
-0.013969
 20
0.913539
  0
VERTEX
  8
PLAN_1
  6
CONTINUOUS
 10
-0.014406
 20
0.906071
  0
VERTEX
  8
PLAN_1
  6
CONTINUOUS
 10
-0.015724
 20
0.898165
  0
VERTEX
  8
PLAN_1
  6
CONTINUOUS
 10
-0.017480
 20
0.891138
  0
VERTEX
  8
PLAN_1
  6
CONTINUOUS
 10
-0.020118
 20
0.884110
  0
VERTEX
  8
PLAN_1
  6
CONTINUOUS
 10
-0.023189
 20
0.877083
  0
VERTEX
  8
PLAN_1
  6
CONTINUOUS
 10
-0.027146
 20
0.870933
  0
VERTEX
  8
PLAN_1
  6
CONTINUOUS
 10
-0.031535
 20
0.865220
  0
VERTEX
  8
PLAN_1
  6
CONTINUOUS
 10
-0.036366
 20
0.859512
  0
VERTEX
  8
PLAN_1
  6
CONTINUOUS
 10
-0.041638
 20
0.854681
  0
VERTEX
  8
PLAN_1
  6
CONTINUOUS
 10
-0.047787
 20
0.850287
  0
VERTEX
  8
PLAN_1
  6
CONTINUOUS
 10
-0.053937
 20
0.846335
  0
VERTEX
  8
PLAN_1
  6
CONTINUOUS
 10
-0.060528
 20
0.843260
  0
VERTEX
  8
PLAN_1
  6
CONTINUOUS
 10
-0.067555
 20
0.840626
  0
VERTEX
  8
PLAN_1
  6
CONTINUOUS
 10
-0.075020
 20
0.838866
  0
VERTEX
  8
PLAN_1
  6
CONTINUOUS
 10
-0.082488
 20
0.837551
  0
VERTEX
  8
PLAN_1
  6
CONTINUOUS
 10
-0.090394
 20
0.837110
  0
SEQEND
  8
0
  0
POLYLINE
  8
PLAN_1
  6
CONTINUOUS
 66
     1
 40
0.008343
 41
0.008343
  0
VERTEX
  8
PLAN_1
  6
CONTINUOUS
 10
-0.090394
 20
0.837110
  0
VERTEX
  8
PLAN_1
  6
CONTINUOUS
 10
-2.222437
 20
0.837110
  0
SEQEND
  8
0
  0
POLYLINE
  8
PLAN_1
  6
CONTINUOUS
 66
     1
 40
0.008343
 41
0.008343
  0
VERTEX
  8
PLAN_1
  6
CONTINUOUS
 10
-2.016874
 20
3.181744
  0
VERTEX
  8
PLAN_1
  6
CONTINUOUS
 10
-2.022587
 20
3.177791
  0
VERTEX
  8
PLAN_1
  6
CONTINUOUS
 10
-2.028295
 20
3.173835
  0
VERTEX
  8
PLAN_1
  6
CONTINUOUS
 10
-2.033567
 20
3.169445
  0
VERTEX
  8
PLAN_1
  6
CONTINUOUS
 10
-2.038398
 20
3.164614
  0
VERTEX
  8
PLAN_1
  6
CONTINUOUS
 10
-2.043228
 20
3.159343
  0
VERTEX
  8
PLAN_1
  6
CONTINUOUS
 10
-2.047622
 20
3.154071
  0
VERTEX
  8
PLAN_1
  6
CONTINUOUS
 10
-2.051575
 20
3.148362
  0
VERTEX
  8
PLAN_1
  6
CONTINUOUS
 10
-2.055528
 20
3.142213
  0
VERTEX
  8
PLAN_1
  6
CONTINUOUS
 10
-2.058602
 20
3.136063
  0
VERTEX
  8
PLAN_1
  6
CONTINUOUS
 10
-2.061677
 20
3.129472
  0
VERTEX
  8
PLAN_1
  6
CONTINUOUS
 10
-2.064311
 20
3.122886
  0
VERTEX
  8
PLAN_1
  6
CONTINUOUS
 10
-2.066508
 20
3.116295
  0
VERTEX
  8
PLAN_1
  6
CONTINUOUS
 10
-2.067827
 20
3.109268
  0
VERTEX
  8
PLAN_1
  6
CONTINUOUS
 10
-2.069146
 20
3.101803
  0
VERTEX
  8
PLAN_1
  6
CONTINUOUS
 10
-2.070024
 20
3.094776
  0
VERTEX
  8
PLAN_1
  6
CONTINUOUS
 10
-2.070024
 20
3.087307
  0
VERTEX
  8
PLAN_1
  6
CONTINUOUS
 10
-2.070024
 20
3.079839
  0
VERTEX
  8
PLAN_1
  6
CONTINUOUS
 10
-2.069146
 20
3.072374
  0
VERTEX
  8
PLAN_1
  6
CONTINUOUS
 10
-2.067827
 20
3.065346
  0
VERTEX
  8
PLAN_1
  6
CONTINUOUS
 10
-2.066508
 20
3.058319
  0
VERTEX
  8
PLAN_1
  6
CONTINUOUS
 10
-2.064311
 20
3.051291
  0
VERTEX
  8
PLAN_1
  6
CONTINUOUS
 10
-2.061677
 20
3.044701
  0
VERTEX
  8
PLAN_1
  6
CONTINUOUS
 10
-2.058602
 20
3.038114
  0
VERTEX
  8
PLAN_1
  6
CONTINUOUS
 10
-2.055528
 20
3.031965
  0
VERTEX
  8
PLAN_1
  6
CONTINUOUS
 10
-2.051575
 20
3.026252
  0
VERTEX
  8
PLAN_1
  6
CONTINUOUS
 10
-2.047622
 20
3.020543
  0
VERTEX
  8
PLAN_1
  6
CONTINUOUS
 10
-2.043228
 20
3.014835
  0
VERTEX
  8
PLAN_1
  6
CONTINUOUS
 10
-2.038398
 20
3.010004
  0
VERTEX
  8
PLAN_1
  6
CONTINUOUS
 10
-2.033567
 20
3.005169
  0
VERTEX
  8
PLAN_1
  6
CONTINUOUS
 10
-2.028295
 20
3.000339
  0
VERTEX
  8
PLAN_1
  6
CONTINUOUS
 10
-2.022587
 20
2.996386
  0
VERTEX
  8
PLAN_1
  6
CONTINUOUS
 10
-2.016874
 20
2.992433
  0
SEQEND
  8
0
  0
POLYLINE
  8
PLAN_1
  6
CONTINUOUS
 66
     1
 40
0.008343
 41
0.008343
  0
VERTEX
  8
PLAN_1
  6
CONTINUOUS
 10
-2.016874
 20
2.992433
  0
VERTEX
  8
PLAN_1
  6
CONTINUOUS
 10
-1.902673
 20
2.991992
  0
SEQEND
  8
0
  0
POLYLINE
  8
PLAN_1
  6
CONTINUOUS
 66
     1
 40
0.008343
 41
0.008343
  0
VERTEX
  8
PLAN_1
  6
CONTINUOUS
 10
-1.902673
 20
2.991992
  0
VERTEX
  8
PLAN_1
  6
CONTINUOUS
 10
-1.900476
 20
2.994189
  0
VERTEX
  8
PLAN_1
  6
CONTINUOUS
 10
-1.894327
 20
3.001217
  0
VERTEX
  8
PLAN_1
  6
CONTINUOUS
 10
-1.885543
 20
3.011319
  0
VERTEX
  8
PLAN_1
  6
CONTINUOUS
 10
-1.875882
 20
3.024496
  0
VERTEX
  8
PLAN_1
  6
CONTINUOUS
 10
-1.871047
 20
3.031524
  0
VERTEX
  8
PLAN_1
  6
CONTINUOUS
 10
-1.866217
 20
3.039429
  0
VERTEX
  8
PLAN_1
  6
CONTINUOUS
 10
-1.861827
 20
3.047339
  0
VERTEX
  8
PLAN_1
  6
CONTINUOUS
 10
-1.857433
 20
3.055244
  0
VERTEX
  8
PLAN_1
  6
CONTINUOUS
 10
-1.854358
 20
3.063591
  0
VERTEX
  8
PLAN_1
  6
CONTINUOUS
 10
-1.851724
 20
3.071496
  0
VERTEX
  8
PLAN_1
  6
CONTINUOUS
 10
-1.850843
 20
3.075449
  0
VERTEX
  8
PLAN_1
  6
CONTINUOUS
 10
-1.849965
 20
3.079402
  0
VERTEX
  8
PLAN_1
  6
CONTINUOUS
 10
-1.849528
 20
3.083354
  0
VERTEX
  8
PLAN_1
  6
CONTINUOUS
 10
-1.849528
 20
3.087307
  0
VERTEX
  8
PLAN_1
  6
CONTINUOUS
 10
-1.849528
 20
3.094776
  0
VERTEX
  8
PLAN_1
  6
CONTINUOUS
 10
-1.850406
 20
3.101803
  0
VERTEX
  8
PLAN_1
  6
CONTINUOUS
 10
-1.851724
 20
3.109268
  0
VERTEX
  8
PLAN_1
  6
CONTINUOUS
 10
-1.853039
 20
3.116295
  0
VERTEX
  8
PLAN_1
  6
CONTINUOUS
 10
-1.855236
 20
3.122886
  0
VERTEX
  8
PLAN_1
  6
CONTINUOUS
 10
-1.857874
 20
3.129472
  0
VERTEX
  8
PLAN_1
  6
CONTINUOUS
 10
-1.860508
 20
3.136063
  0
VERTEX
  8
PLAN_1
  6
CONTINUOUS
 10
-1.864020
 20
3.142213
  0
VERTEX
  8
PLAN_1
  6
CONTINUOUS
 10
-1.867535
 20
3.148362
  0
VERTEX
  8
PLAN_1
  6
CONTINUOUS
 10
-1.871929
 20
3.154071
  0
VERTEX
  8
PLAN_1
  6
CONTINUOUS
 10
-1.876319
 20
3.159343
  0
VERTEX
  8
PLAN_1
  6
CONTINUOUS
 10
-1.880713
 20
3.164614
  0
VERTEX
  8
PLAN_1
  6
CONTINUOUS
 10
-1.885984
 20
3.169445
  0
VERTEX
  8
PLAN_1
  6
CONTINUOUS
 10
-1.891252
 20
3.173835
  0
VERTEX
  8
PLAN_1
  6
CONTINUOUS
 10
-1.896965
 20
3.177791
  0
VERTEX
  8
PLAN_1
  6
CONTINUOUS
 10
-1.902673
 20
3.181744
  0
SEQEND
  8
0
  0
POLYLINE
  8
PLAN_1
  6
CONTINUOUS
 66
     1
 40
0.008343
 41
0.008343
  0
VERTEX
  8
PLAN_1
  6
CONTINUOUS
 10
-1.902673
 20
3.181744
  0
VERTEX
  8
PLAN_1
  6
CONTINUOUS
 10
-2.016874
 20
3.181744
  0
SEQEND
  8
0
  0
POLYLINE
  8
PLAN_1
  6
CONTINUOUS
 66
     1
 40
0.008343
 41
0.008343
  0
VERTEX
  8
PLAN_1
  6
CONTINUOUS
 10
-0.411472
 20
3.181744
  0
VERTEX
  8
PLAN_1
  6
CONTINUOUS
 10
-0.417622
 20
3.177791
  0
VERTEX
  8
PLAN_1
  6
CONTINUOUS
 10
-0.422894
 20
3.173835
  0
VERTEX
  8
PLAN_1
  6
CONTINUOUS
 10
-0.428602
 20
3.169445
  0
VERTEX
  8
PLAN_1
  6
CONTINUOUS
 10
-0.433437
 20
3.164614
  0
VERTEX
  8
PLAN_1
  6
CONTINUOUS
 10
-0.438268
 20
3.159343
  0
VERTEX
  8
PLAN_1
  6
CONTINUOUS
 10
-0.442661
 20
3.154071
  0
VERTEX
  8
PLAN_1
  6
CONTINUOUS
 10
-0.446614
 20
3.148362
  0
VERTEX
  8
PLAN_1
  6
CONTINUOUS
 10
-0.450126
 20
3.142213
  0
VERTEX
  8
PLAN_1
  6
CONTINUOUS
 10
-0.453642
 20
3.136063
  0
VERTEX
  8
PLAN_1
  6
CONTINUOUS
 10
-0.456717
 20
3.129472
  0
VERTEX
  8
PLAN_1
  6
CONTINUOUS
 10
-0.458909
 20
3.122886
  0
VERTEX
  8
PLAN_1
  6
CONTINUOUS
 10
-0.461106
 20
3.116295
  0
VERTEX
  8
PLAN_1
  6
CONTINUOUS
 10
-0.462866
 20
3.109268
  0
VERTEX
  8
PLAN_1
  6
CONTINUOUS
 10
-0.464181
 20
3.101803
  0
VERTEX
  8
PLAN_1
  6
CONTINUOUS
 10
-0.464622
 20
3.094776
  0
VERTEX
  8
PLAN_1
  6
CONTINUOUS
 10
-0.465059
 20
3.087307
  0
VERTEX
  8
PLAN_1
  6
CONTINUOUS
 10
-0.464622
 20
3.079839
  0
VERTEX
  8
PLAN_1
  6
CONTINUOUS
 10
-0.464181
 20
3.072374
  0
VERTEX
  8
PLAN_1
  6
CONTINUOUS
 10
-0.462866
 20
3.065346
  0
VERTEX
  8
PLAN_1
  6
CONTINUOUS
 10
-0.461106
 20
3.058319
  0
VERTEX
  8
PLAN_1
  6
CONTINUOUS
 10
-0.458909
 20
3.051291
  0
VERTEX
  8
PLAN_1
  6
CONTINUOUS
 10
-0.456717
 20
3.044701
  0
VERTEX
  8
PLAN_1
  6
CONTINUOUS
 10
-0.453642
 20
3.038114
  0
VERTEX
  8
PLAN_1
  6
CONTINUOUS
 10
-0.450126
 20
3.031965
  0
VERTEX
  8
PLAN_1
  6
CONTINUOUS
 10
-0.446614
 20
3.026252
  0
VERTEX
  8
PLAN_1
  6
CONTINUOUS
 10
-0.442661
 20
3.020543
  0
VERTEX
  8
PLAN_1
  6
CONTINUOUS
 10
-0.438268
 20
3.014835
  0
VERTEX
  8
PLAN_1
  6
CONTINUOUS
 10
-0.433437
 20
3.010004
  0
VERTEX
  8
PLAN_1
  6
CONTINUOUS
 10
-0.428602
 20
3.005169
  0
VERTEX
  8
PLAN_1
  6
CONTINUOUS
 10
-0.422894
 20
3.000339
  0
VERTEX
  8
PLAN_1
  6
CONTINUOUS
 10
-0.417622
 20
2.996386
  0
VERTEX
  8
PLAN_1
  6
CONTINUOUS
 10
-0.411472
 20
2.992433
  0
SEQEND
  8
0
  0
POLYLINE
  8
PLAN_1
  6
CONTINUOUS
 66
     1
 40
0.008343
 41
0.008343
  0
VERTEX
  8
PLAN_1
  6
CONTINUOUS
 10
-0.411472
 20
2.992433
  0
VERTEX
  8
PLAN_1
  6
CONTINUOUS
 10
-0.297713
 20
2.991992
  0
SEQEND
  8
0
  0
POLYLINE
  8
PLAN_1
  6
CONTINUOUS
 66
     1
 40
0.008343
 41
0.008343
  0
VERTEX
  8
PLAN_1
  6
CONTINUOUS
 10
-0.297713
 20
2.991992
  0
VERTEX
  8
PLAN_1
  6
CONTINUOUS
 10
-0.295079
 20
2.994189
  0
VERTEX
  8
PLAN_1
  6
CONTINUOUS
 10
-0.289366
 20
3.001217
  0
VERTEX
  8
PLAN_1
  6
CONTINUOUS
 10
-0.280583
 20
3.011319
  0
VERTEX
  8
PLAN_1
  6
CONTINUOUS
 10
-0.270917
 20
3.024496
  0
VERTEX
  8
PLAN_1
  6
CONTINUOUS
 10
-0.266087
 20
3.031524
  0
VERTEX
  8
PLAN_1
  6
CONTINUOUS
 10
-0.261256
 20
3.039429
  0
VERTEX
  8
PLAN_1
  6
CONTINUOUS
 10
-0.256425
 20
3.047339
  0
VERTEX
  8
PLAN_1
  6
CONTINUOUS
 10
-0.252472
 20
3.055244
  0
VERTEX
  8
PLAN_1
  6
CONTINUOUS
 10
-0.248957
 20
3.063591
  0
VERTEX
  8
PLAN_1
  6
CONTINUOUS
 10
-0.246323
 20
3.071496
  0
VERTEX
  8
PLAN_1
  6
CONTINUOUS
 10
-0.245445
 20
3.075449
  0
VERTEX
  8
PLAN_1
  6
CONTINUOUS
 10
-0.245004
 20
3.079402
  0
VERTEX
  8
PLAN_1
  6
CONTINUOUS
 10
-0.244563
 20
3.083354
  0
VERTEX
  8
PLAN_1
  6
CONTINUOUS
 10
-0.244126
 20
3.087307
  0
VERTEX
  8
PLAN_1
  6
CONTINUOUS
 10
-0.244563
 20
3.094776
  0
VERTEX
  8
PLAN_1
  6
CONTINUOUS
 10
-0.245004
 20
3.101803
  0
VERTEX
  8
PLAN_1
  6
CONTINUOUS
 10
-0.246323
 20
3.109268
  0
VERTEX
  8
PLAN_1
  6
CONTINUOUS
 10
-0.248079
 20
3.116295
  0
VERTEX
  8
PLAN_1
  6
CONTINUOUS
 10
-0.250276
 20
3.122886
  0
VERTEX
  8
PLAN_1
  6
CONTINUOUS
 10
-0.252909
 20
3.129472
  0
VERTEX
  8
PLAN_1
  6
CONTINUOUS
 10
-0.255547
 20
3.136063
  0
VERTEX
  8
PLAN_1
  6
CONTINUOUS
 10
-0.259059
 20
3.142213
  0
VERTEX
  8
PLAN_1
  6
CONTINUOUS
 10
-0.262575
 20
3.148362
  0
VERTEX
  8
PLAN_1
  6
CONTINUOUS
 10
-0.266528
 20
3.154071
  0
VERTEX
  8
PLAN_1
  6
CONTINUOUS
 10
-0.270917
 20
3.159343
  0
VERTEX
  8
PLAN_1
  6
CONTINUOUS
 10
-0.275752
 20
3.164614
  0
VERTEX
  8
PLAN_1
  6
CONTINUOUS
 10
-0.281020
 20
3.169445
  0
VERTEX
  8
PLAN_1
  6
CONTINUOUS
 10
-0.286291
 20
3.173835
  0
VERTEX
  8
PLAN_1
  6
CONTINUOUS
 10
-0.292004
 20
3.177791
  0
VERTEX
  8
PLAN_1
  6
CONTINUOUS
 10
-0.297713
 20
3.181744
  0
SEQEND
  8
0
  0
POLYLINE
  8
PLAN_1
  6
CONTINUOUS
 66
     1
 40
0.008343
 41
0.008343
  0
VERTEX
  8
PLAN_1
  6
CONTINUOUS
 10
-0.297713
 20
3.181744
  0
VERTEX
  8
PLAN_1
  6
CONTINUOUS
 10
-0.411472
 20
3.181744
  0
SEQEND
  8
0
  0
POLYLINE
  8
PLAN_1
  6
CONTINUOUS
 66
     1
 40
0.008343
 41
0.008343
  0
VERTEX
  8
PLAN_1
  6
CONTINUOUS
 10
-1.636500
 20
0.973713
  0
VERTEX
  8
PLAN_1
  6
CONTINUOUS
 10
-1.636937
 20
0.979421
  0
VERTEX
  8
PLAN_1
  6
CONTINUOUS
 10
-1.637815
 20
0.984693
  0
VERTEX
  8
PLAN_1
  6
CONTINUOUS
 10
-1.639134
 20
0.989965
  0
VERTEX
  8
PLAN_1
  6
CONTINUOUS
 10
-1.640890
 20
0.994795
  0
VERTEX
  8
PLAN_1
  6
CONTINUOUS
 10
-1.643087
 20
0.999626
  0
VERTEX
  8
PLAN_1
  6
CONTINUOUS
 10
-1.645720
 20
1.004020
  0
VERTEX
  8
PLAN_1
  6
CONTINUOUS
 10
-1.649236
 20
1.008413
  0
VERTEX
  8
PLAN_1
  6
CONTINUOUS
 10
-1.652311
 20
1.011925
  0
VERTEX
  8
PLAN_1
  6
CONTINUOUS
 10
-1.656264
 20
1.015441
  0
VERTEX
  8
PLAN_1
  6
CONTINUOUS
 10
-1.660657
 20
1.018953
  0
VERTEX
  8
PLAN_1
  6
CONTINUOUS
 10
-1.665047
 20
1.021591
  0
VERTEX
  8
PLAN_1
  6
CONTINUOUS
 10
-1.669878
 20
1.023783
  0
VERTEX
  8
PLAN_1
  6
CONTINUOUS
 10
-1.674713
 20
1.025543
  0
VERTEX
  8
PLAN_1
  6
CONTINUOUS
 10
-1.679980
 20
1.026858
  0
VERTEX
  8
PLAN_1
  6
CONTINUOUS
 10
-1.685252
 20
1.027740
  0
VERTEX
  8
PLAN_1
  6
CONTINUOUS
 10
-1.690965
 20
1.028177
  0
VERTEX
  8
PLAN_1
  6
CONTINUOUS
 10
-1.696673
 20
1.027740
  0
VERTEX
  8
PLAN_1
  6
CONTINUOUS
 10
-1.701945
 20
1.026858
  0
VERTEX
  8
PLAN_1
  6
CONTINUOUS
 10
-1.707217
 20
1.025543
  0
VERTEX
  8
PLAN_1
  6
CONTINUOUS
 10
-1.712047
 20
1.023783
  0
VERTEX
  8
PLAN_1
  6
CONTINUOUS
 10
-1.716878
 20
1.021591
  0
VERTEX
  8
PLAN_1
  6
CONTINUOUS
 10
-1.721272
 20
1.018953
  0
VERTEX
  8
PLAN_1
  6
CONTINUOUS
 10
-1.725661
 20
1.015441
  0
VERTEX
  8
PLAN_1
  6
CONTINUOUS
 10
-1.729177
 20
1.011925
  0
VERTEX
  8
PLAN_1
  6
CONTINUOUS
 10
-1.732689
 20
1.008413
  0
VERTEX
  8
PLAN_1
  6
CONTINUOUS
 10
-1.735764
 20
1.004020
  0
VERTEX
  8
PLAN_1
  6
CONTINUOUS
 10
-1.738839
 20
0.999626
  0
VERTEX
  8
PLAN_1
  6
CONTINUOUS
 10
-1.741035
 20
0.994795
  0
VERTEX
  8
PLAN_1
  6
CONTINUOUS
 10
-1.742791
 20
0.989965
  0
VERTEX
  8
PLAN_1
  6
CONTINUOUS
 10
-1.744110
 20
0.984693
  0
VERTEX
  8
PLAN_1
  6
CONTINUOUS
 10
-1.744988
 20
0.979421
  0
VERTEX
  8
PLAN_1
  6
CONTINUOUS
 10
-1.745429
 20
0.973713
  0
VERTEX
  8
PLAN_1
  6
CONTINUOUS
 10
-1.744988
 20
0.968004
  0
VERTEX
  8
PLAN_1
  6
CONTINUOUS
 10
-1.744110
 20
0.962732
  0
VERTEX
  8
PLAN_1
  6
CONTINUOUS
 10
-1.742791
 20
0.957461
  0
VERTEX
  8
PLAN_1
  6
CONTINUOUS
 10
-1.741035
 20
0.952630
  0
VERTEX
  8
PLAN_1
  6
CONTINUOUS
 10
-1.738839
 20
0.947799
  0
VERTEX
  8
PLAN_1
  6
CONTINUOUS
 10
-1.735764
 20
0.943406
  0
VERTEX
  8
PLAN_1
  6
CONTINUOUS
 10
-1.732689
 20
0.939012
  0
VERTEX
  8
PLAN_1
  6
CONTINUOUS
 10
-1.729177
 20
0.935500
  0
VERTEX
  8
PLAN_1
  6
CONTINUOUS
 10
-1.725661
 20
0.931984
  0
VERTEX
  8
PLAN_1
  6
CONTINUOUS
 10
-1.721272
 20
0.928472
  0
VERTEX
  8
PLAN_1
  6
CONTINUOUS
 10
-1.716878
 20
0.925835
  0
VERTEX
  8
PLAN_1
  6
CONTINUOUS
 10
-1.712047
 20
0.923642
  0
VERTEX
  8
PLAN_1
  6
CONTINUOUS
 10
-1.707217
 20
0.921882
  0
VERTEX
  8
PLAN_1
  6
CONTINUOUS
 10
-1.701945
 20
0.920567
  0
VERTEX
  8
PLAN_1
  6
CONTINUOUS
 10
-1.696673
 20
0.919685
  0
VERTEX
  8
PLAN_1
  6
CONTINUOUS
 10
-1.690965
 20
0.919248
  0
VERTEX
  8
PLAN_1
  6
CONTINUOUS
 10
-1.685252
 20
0.919685
  0
VERTEX
  8
PLAN_1
  6
CONTINUOUS
 10
-1.679980
 20
0.920567
  0
VERTEX
  8
PLAN_1
  6
CONTINUOUS
 10
-1.674713
 20
0.921882
  0
VERTEX
  8
PLAN_1
  6
CONTINUOUS
 10
-1.669878
 20
0.923642
  0
VERTEX
  8
PLAN_1
  6
CONTINUOUS
 10
-1.665047
 20
0.925835
  0
VERTEX
  8
PLAN_1
  6
CONTINUOUS
 10
-1.660657
 20
0.928472
  0
VERTEX
  8
PLAN_1
  6
CONTINUOUS
 10
-1.656264
 20
0.931984
  0
VERTEX
  8
PLAN_1
  6
CONTINUOUS
 10
-1.652311
 20
0.935500
  0
VERTEX
  8
PLAN_1
  6
CONTINUOUS
 10
-1.649236
 20
0.939012
  0
VERTEX
  8
PLAN_1
  6
CONTINUOUS
 10
-1.645720
 20
0.943406
  0
VERTEX
  8
PLAN_1
  6
CONTINUOUS
 10
-1.643087
 20
0.947799
  0
VERTEX
  8
PLAN_1
  6
CONTINUOUS
 10
-1.640890
 20
0.952630
  0
VERTEX
  8
PLAN_1
  6
CONTINUOUS
 10
-1.639134
 20
0.957461
  0
VERTEX
  8
PLAN_1
  6
CONTINUOUS
 10
-1.637815
 20
0.962732
  0
VERTEX
  8
PLAN_1
  6
CONTINUOUS
 10
-1.636937
 20
0.968004
  0
VERTEX
  8
PLAN_1
  6
CONTINUOUS
 10
-1.636500
 20
0.973713
  0
SEQEND
  8
0
  0
POLYLINE
  8
PLAN_1
  6
CONTINUOUS
 66
     1
 40
0.008343
 41
0.008343
  0
VERTEX
  8
PLAN_1
  6
CONTINUOUS
 10
-0.577504
 20
0.973713
  0
VERTEX
  8
PLAN_1
  6
CONTINUOUS
 10
-0.577945
 20
0.979421
  0
VERTEX
  8
PLAN_1
  6
CONTINUOUS
 10
-0.578823
 20
0.984693
  0
VERTEX
  8
PLAN_1
  6
CONTINUOUS
 10
-0.580142
 20
0.989965
  0
VERTEX
  8
PLAN_1
  6
CONTINUOUS
 10
-0.581898
 20
0.994795
  0
VERTEX
  8
PLAN_1
  6
CONTINUOUS
 10
-0.584094
 20
0.999626
  0
VERTEX
  8
PLAN_1
  6
CONTINUOUS
 10
-0.586728
 20
1.004020
  0
VERTEX
  8
PLAN_1
  6
CONTINUOUS
 10
-0.589803
 20
1.008413
  0
VERTEX
  8
PLAN_1
  6
CONTINUOUS
 10
-0.593315
 20
1.011925
  0
VERTEX
  8
PLAN_1
  6
CONTINUOUS
 10
-0.597272
 20
1.015441
  0
VERTEX
  8
PLAN_1
  6
CONTINUOUS
 10
-0.601661
 20
1.018953
  0
VERTEX
  8
PLAN_1
  6
CONTINUOUS
 10
-0.606055
 20
1.021591
  0
VERTEX
  8
PLAN_1
  6
CONTINUOUS
 10
-0.610886
 20
1.023783
  0
VERTEX
  8
PLAN_1
  6
CONTINUOUS
 10
-0.615717
 20
1.025543
  0
VERTEX
  8
PLAN_1
  6
CONTINUOUS
 10
-0.620988
 20
1.026858
  0
VERTEX
  8
PLAN_1
  6
CONTINUOUS
 10
-0.626260
 20
1.027740
  0
VERTEX
  8
PLAN_1
  6
CONTINUOUS
 10
-0.631969
 20
1.028177
  0
VERTEX
  8
PLAN_1
  6
CONTINUOUS
 10
-0.637240
 20
1.027740
  0
VERTEX
  8
PLAN_1
  6
CONTINUOUS
 10
-0.642949
 20
1.026858
  0
VERTEX
  8
PLAN_1
  6
CONTINUOUS
 10
-0.648220
 20
1.025543
  0
VERTEX
  8
PLAN_1
  6
CONTINUOUS
 10
-0.653051
 20
1.023783
  0
VERTEX
  8
PLAN_1
  6
CONTINUOUS
 10
-0.657886
 20
1.021591
  0
VERTEX
  8
PLAN_1
  6
CONTINUOUS
 10
-0.662276
 20
1.018953
  0
VERTEX
  8
PLAN_1
  6
CONTINUOUS
 10
-0.666669
 20
1.015441
  0
VERTEX
  8
PLAN_1
  6
CONTINUOUS
 10
-0.670181
 20
1.011925
  0
VERTEX
  8
PLAN_1
  6
CONTINUOUS
 10
-0.673697
 20
1.008413
  0
VERTEX
  8
PLAN_1
  6
CONTINUOUS
 10
-0.676772
 20
1.004020
  0
VERTEX
  8
PLAN_1
  6
CONTINUOUS
 10
-0.679846
 20
0.999626
  0
VERTEX
  8
PLAN_1
  6
CONTINUOUS
 10
-0.682043
 20
0.994795
  0
VERTEX
  8
PLAN_1
  6
CONTINUOUS
 10
-0.683799
 20
0.989965
  0
VERTEX
  8
PLAN_1
  6
CONTINUOUS
 10
-0.685118
 20
0.984693
  0
VERTEX
  8
PLAN_1
  6
CONTINUOUS
 10
-0.685996
 20
0.979421
  0
VERTEX
  8
PLAN_1
  6
CONTINUOUS
 10
-0.685996
 20
0.973713
  0
VERTEX
  8
PLAN_1
  6
CONTINUOUS
 10
-0.685996
 20
0.968004
  0
VERTEX
  8
PLAN_1
  6
CONTINUOUS
 10
-0.685118
 20
0.962732
  0
VERTEX
  8
PLAN_1
  6
CONTINUOUS
 10
-0.683799
 20
0.957461
  0
VERTEX
  8
PLAN_1
  6
CONTINUOUS
 10
-0.682043
 20
0.952630
  0
VERTEX
  8
PLAN_1
  6
CONTINUOUS
 10
-0.679846
 20
0.947799
  0
VERTEX
  8
PLAN_1
  6
CONTINUOUS
 10
-0.676772
 20
0.943406
  0
VERTEX
  8
PLAN_1
  6
CONTINUOUS
 10
-0.673697
 20
0.939012
  0
VERTEX
  8
PLAN_1
  6
CONTINUOUS
 10
-0.670181
 20
0.935500
  0
VERTEX
  8
PLAN_1
  6
CONTINUOUS
 10
-0.666669
 20
0.931984
  0
VERTEX
  8
PLAN_1
  6
CONTINUOUS
 10
-0.662276
 20
0.928472
  0
VERTEX
  8
PLAN_1
  6
CONTINUOUS
 10
-0.657886
 20
0.925835
  0
VERTEX
  8
PLAN_1
  6
CONTINUOUS
 10
-0.653051
 20
0.923642
  0
VERTEX
  8
PLAN_1
  6
CONTINUOUS
 10
-0.648220
 20
0.921882
  0
VERTEX
  8
PLAN_1
  6
CONTINUOUS
 10
-0.642949
 20
0.920567
  0
VERTEX
  8
PLAN_1
  6
CONTINUOUS
 10
-0.637240
 20
0.919685
  0
VERTEX
  8
PLAN_1
  6
CONTINUOUS
 10
-0.631969
 20
0.919248
  0
VERTEX
  8
PLAN_1
  6
CONTINUOUS
 10
-0.626260
 20
0.919685
  0
VERTEX
  8
PLAN_1
  6
CONTINUOUS
 10
-0.620988
 20
0.920567
  0
VERTEX
  8
PLAN_1
  6
CONTINUOUS
 10
-0.615717
 20
0.921882
  0
VERTEX
  8
PLAN_1
  6
CONTINUOUS
 10
-0.610886
 20
0.923642
  0
VERTEX
  8
PLAN_1
  6
CONTINUOUS
 10
-0.606055
 20
0.925835
  0
VERTEX
  8
PLAN_1
  6
CONTINUOUS
 10
-0.601661
 20
0.928472
  0
VERTEX
  8
PLAN_1
  6
CONTINUOUS
 10
-0.597272
 20
0.931984
  0
VERTEX
  8
PLAN_1
  6
CONTINUOUS
 10
-0.593315
 20
0.935500
  0
VERTEX
  8
PLAN_1
  6
CONTINUOUS
 10
-0.589803
 20
0.939012
  0
VERTEX
  8
PLAN_1
  6
CONTINUOUS
 10
-0.586728
 20
0.943406
  0
VERTEX
  8
PLAN_1
  6
CONTINUOUS
 10
-0.584094
 20
0.947799
  0
VERTEX
  8
PLAN_1
  6
CONTINUOUS
 10
-0.581898
 20
0.952630
  0
VERTEX
  8
PLAN_1
  6
CONTINUOUS
 10
-0.580142
 20
0.957461
  0
VERTEX
  8
PLAN_1
  6
CONTINUOUS
 10
-0.578823
 20
0.962732
  0
VERTEX
  8
PLAN_1
  6
CONTINUOUS
 10
-0.577945
 20
0.968004
  0
VERTEX
  8
PLAN_1
  6
CONTINUOUS
 10
-0.577504
 20
0.973713
  0
SEQEND
  8
0
  0
POLYLINE
  8
PLAN_1
  6
CONTINUOUS
 66
     1
 40
0.008343
 41
0.008343
  0
VERTEX
  8
PLAN_1
  6
CONTINUOUS
 10
-2.300622
 20
1.025980
  0
VERTEX
  8
PLAN_1
  6
CONTINUOUS
 10
-2.300622
 20
1.787614
  0
VERTEX
  8
PLAN_1
  6
CONTINUOUS
 10
-2.377047
 20
1.787614
  0
VERTEX
  8
PLAN_1
  6
CONTINUOUS
 10
-2.377047
 20
1.025980
  0
VERTEX
  8
PLAN_1
  6
CONTINUOUS
 10
-2.300622
 20
1.025980
  0
SEQEND
  8
0
  0
POLYLINE
  8
PLAN_1
  6
CONTINUOUS
 66
     1
 40
0.008343
 41
0.008343
  0
VERTEX
  8
PLAN_1
  6
CONTINUOUS
 10
0.060264
 20
1.025980
  0
VERTEX
  8
PLAN_1
  6
CONTINUOUS
 10
0.060264
 20
1.787614
  0
VERTEX
  8
PLAN_1
  6
CONTINUOUS
 10
-0.016161
 20
1.787614
  0
VERTEX
  8
PLAN_1
  6
CONTINUOUS
 10
-0.016161
 20
1.025980
  0
VERTEX
  8
PLAN_1
  6
CONTINUOUS
 10
0.060264
 20
1.025980
  0
SEQEND
  8
0
  0
POLYLINE
  8
PLAN_1
  6
CONTINUOUS
 66
     1
 40
0.008343
 41
0.008343
  0
VERTEX
  8
PLAN_1
  6
CONTINUOUS
 10
-0.739583
 20
0.779571
  0
VERTEX
  8
PLAN_1
  6
CONTINUOUS
 10
-0.739583
 20
0.837110
  0
VERTEX
  8
PLAN_1
  6
CONTINUOUS
 10
-1.577201
 20
0.837110
  0
VERTEX
  8
PLAN_1
  6
CONTINUOUS
 10
-1.577201
 20
0.779571
  0
VERTEX
  8
PLAN_1
  6
CONTINUOUS
 10
-0.739583
 20
0.779571
  0
SEQEND
  8
0
  0
POLYLINE
  8
PLAN_1
  6
CONTINUOUS
 66
     1
 40
0.003953
 41
0.003953
  0
VERTEX
  8
PLAN_1
  6
CONTINUOUS
 10
-0.176921
 20
3.085110
  0
VERTEX
  8
PLAN_1
  6
CONTINUOUS
 10
-0.545878
 20
3.085110
  0
SEQEND
  8
0
  0
POLYLINE
  8
PLAN_1
  6
CONTINUOUS
 66
     1
 40
0.003953
 41
0.003953
  0
VERTEX
  8
PLAN_1
  6
CONTINUOUS
 10
-1.747185
 20
3.088185
  0
VERTEX
  8
PLAN_1
  6
CONTINUOUS
 10
-2.174559
 20
3.088185
  0
SEQEND
  8
0
  0
POLYLINE
  8
PLAN_1
 62
     5
  6
CONTINUOUS
 66
     1
 40
0.003000
 41
0.003000
  0
VERTEX
  8
PLAN_1
 62
     5
  6
CONTINUOUS
 10
-1.963287
 20
0.912657
  0
VERTEX
  8
PLAN_1
 62
     5
  6
CONTINUOUS
 10
-1.963287
 20
0.921004
  0
SEQEND
  8
0
  0
POLYLINE
  8
PLAN_1
 62
     5
  6
CONTINUOUS
 66
     1
 40
0.003000
 41
0.003000
  0
VERTEX
  8
PLAN_1
 62
     5
  6
CONTINUOUS
 10
-1.963287
 20
0.929350
  0
VERTEX
  8
PLAN_1
 62
     5
  6
CONTINUOUS
 10
-1.963287
 20
0.937697
  0
SEQEND
  8
0
  0
POLYLINE
  8
PLAN_1
 62
     5
  6
CONTINUOUS
 66
     1
 40
0.003000
 41
0.003000
  0
VERTEX
  8
PLAN_1
 62
     5
  6
CONTINUOUS
 10
-1.963287
 20
0.946039
  0
VERTEX
  8
PLAN_1
 62
     5
  6
CONTINUOUS
 10
-1.963287
 20
0.954386
  0
SEQEND
  8
0
  0
POLYLINE
  8
PLAN_1
 62
     5
  6
CONTINUOUS
 66
     1
 40
0.003000
 41
0.003000
  0
VERTEX
  8
PLAN_1
 62
     5
  6
CONTINUOUS
 10
-1.963287
 20
0.962732
  0
VERTEX
  8
PLAN_1
 62
     5
  6
CONTINUOUS
 10
-1.963287
 20
0.971079
  0
SEQEND
  8
0
  0
POLYLINE
  8
PLAN_1
 62
     5
  6
CONTINUOUS
 66
     1
 40
0.003000
 41
0.003000
  0
VERTEX
  8
PLAN_1
 62
     5
  6
CONTINUOUS
 10
-1.963287
 20
0.979421
  0
VERTEX
  8
PLAN_1
 62
     5
  6
CONTINUOUS
 10
-1.963287
 20
0.987768
  0
SEQEND
  8
0
  0
POLYLINE
  8
PLAN_1
 62
     5
  6
CONTINUOUS
 66
     1
 40
0.003000
 41
0.003000
  0
VERTEX
  8
PLAN_1
 62
     5
  6
CONTINUOUS
 10
-1.963287
 20
0.996114
  0
VERTEX
  8
PLAN_1
 62
     5
  6
CONTINUOUS
 10
-1.963287
 20
1.004461
  0
SEQEND
  8
0
  0
POLYLINE
  8
PLAN_1
 62
     5
  6
CONTINUOUS
 66
     1
 40
0.003000
 41
0.003000
  0
VERTEX
  8
PLAN_1
 62
     5
  6
CONTINUOUS
 10
-1.963287
 20
1.012803
  0
VERTEX
  8
PLAN_1
 62
     5
  6
CONTINUOUS
 10
-1.963287
 20
1.021150
  0
SEQEND
  8
0
  0
POLYLINE
  8
PLAN_1
 62
     5
  6
CONTINUOUS
 66
     1
 40
0.003000
 41
0.003000
  0
VERTEX
  8
PLAN_1
 62
     5
  6
CONTINUOUS
 10
-1.963287
 20
1.029496
  0
VERTEX
  8
PLAN_1
 62
     5
  6
CONTINUOUS
 10
-1.963287
 20
1.037402
  0
SEQEND
  8
0
  0
POLYLINE
  8
PLAN_1
 62
     5
  6
CONTINUOUS
 66
     1
 40
0.003000
 41
0.003000
  0
VERTEX
  8
PLAN_1
 62
     5
  6
CONTINUOUS
 10
-1.963287
 20
1.045748
  0
VERTEX
  8
PLAN_1
 62
     5
  6
CONTINUOUS
 10
-1.963287
 20
1.054091
  0
SEQEND
  8
0
  0
POLYLINE
  8
PLAN_1
 62
     5
  6
CONTINUOUS
 66
     1
 40
0.003000
 41
0.003000
  0
VERTEX
  8
PLAN_1
 62
     5
  6
CONTINUOUS
 10
-1.963287
 20
1.062437
  0
VERTEX
  8
PLAN_1
 62
     5
  6
CONTINUOUS
 10
-1.963287
 20
1.070783
  0
SEQEND
  8
0
  0
POLYLINE
  8
PLAN_1
 62
     5
  6
CONTINUOUS
 66
     1
 40
0.003000
 41
0.003000
  0
VERTEX
  8
PLAN_1
 62
     5
  6
CONTINUOUS
 10
-1.963287
 20
1.079130
  0
VERTEX
  8
PLAN_1
 62
     5
  6
CONTINUOUS
 10
-1.963287
 20
1.087472
  0
SEQEND
  8
0
  0
POLYLINE
  8
PLAN_1
 62
     5
  6
CONTINUOUS
 66
     1
 40
0.003000
 41
0.003000
  0
VERTEX
  8
PLAN_1
 62
     5
  6
CONTINUOUS
 10
-1.963287
 20
1.095819
  0
VERTEX
  8
PLAN_1
 62
     5
  6
CONTINUOUS
 10
-1.963287
 20
1.104165
  0
SEQEND
  8
0
  0
POLYLINE
  8
PLAN_1
 62
     5
  6
CONTINUOUS
 66
     1
 40
0.003000
 41
0.003000
  0
VERTEX
  8
PLAN_1
 62
     5
  6
CONTINUOUS
 10
-1.963287
 20
1.112512
  0
VERTEX
  8
PLAN_1
 62
     5
  6
CONTINUOUS
 10
-1.963287
 20
1.120854
  0
SEQEND
  8
0
  0
POLYLINE
  8
PLAN_1
 62
     5
  6
CONTINUOUS
 66
     1
 40
0.003000
 41
0.003000
  0
VERTEX
  8
PLAN_1
 62
     5
  6
CONTINUOUS
 10
-1.963287
 20
1.129201
  0
VERTEX
  8
PLAN_1
 62
     5
  6
CONTINUOUS
 10
-1.963287
 20
1.137547
  0
SEQEND
  8
0
  0
POLYLINE
  8
PLAN_1
 62
     5
  6
CONTINUOUS
 66
     1
 40
0.003000
 41
0.003000
  0
VERTEX
  8
PLAN_1
 62
     5
  6
CONTINUOUS
 10
-1.963287
 20
1.145894
  0
VERTEX
  8
PLAN_1
 62
     5
  6
CONTINUOUS
 10
-1.963287
 20
1.154236
  0
SEQEND
  8
0
  0
POLYLINE
  8
PLAN_1
 62
     5
  6
CONTINUOUS
 66
     1
 40
0.003000
 41
0.003000
  0
VERTEX
  8
PLAN_1
 62
     5
  6
CONTINUOUS
 10
-1.963287
 20
1.162583
  0
VERTEX
  8
PLAN_1
 62
     5
  6
CONTINUOUS
 10
-1.963287
 20
1.170929
  0
SEQEND
  8
0
  0
POLYLINE
  8
PLAN_1
 62
     5
  6
CONTINUOUS
 66
     1
 40
0.003000
 41
0.003000
  0
VERTEX
  8
PLAN_1
 62
     5
  6
CONTINUOUS
 10
-1.963287
 20
1.179276
  0
VERTEX
  8
PLAN_1
 62
     5
  6
CONTINUOUS
 10
-1.963287
 20
1.187618
  0
SEQEND
  8
0
  0
POLYLINE
  8
PLAN_1
 62
     5
  6
CONTINUOUS
 66
     1
 40
0.003000
 41
0.003000
  0
VERTEX
  8
PLAN_1
 62
     5
  6
CONTINUOUS
 10
-1.963287
 20
1.195965
  0
VERTEX
  8
PLAN_1
 62
     5
  6
CONTINUOUS
 10
-1.963287
 20
1.204311
  0
SEQEND
  8
0
  0
POLYLINE
  8
PLAN_1
 62
     5
  6
CONTINUOUS
 66
     1
 40
0.003000
 41
0.003000
  0
VERTEX
  8
PLAN_1
 62
     5
  6
CONTINUOUS
 10
-1.963287
 20
1.212657
  0
VERTEX
  8
PLAN_1
 62
     5
  6
CONTINUOUS
 10
-1.963287
 20
1.221000
  0
SEQEND
  8
0
  0
POLYLINE
  8
PLAN_1
 62
     5
  6
CONTINUOUS
 66
     1
 40
0.003000
 41
0.003000
  0
VERTEX
  8
PLAN_1
 62
     5
  6
CONTINUOUS
 10
-1.963287
 20
1.229346
  0
VERTEX
  8
PLAN_1
 62
     5
  6
CONTINUOUS
 10
-1.963287
 20
1.237693
  0
SEQEND
  8
0
  0
POLYLINE
  8
PLAN_1
 62
     5
  6
CONTINUOUS
 66
     1
 40
0.003000
 41
0.003000
  0
VERTEX
  8
PLAN_1
 62
     5
  6
CONTINUOUS
 10
-1.963287
 20
1.246039
  0
VERTEX
  8
PLAN_1
 62
     5
  6
CONTINUOUS
 10
-1.963287
 20
1.254382
  0
SEQEND
  8
0
  0
POLYLINE
  8
PLAN_1
 62
     5
  6
CONTINUOUS
 66
     1
 40
0.003000
 41
0.003000
  0
VERTEX
  8
PLAN_1
 62
     5
  6
CONTINUOUS
 10
-1.963287
 20
1.262291
  0
VERTEX
  8
PLAN_1
 62
     5
  6
CONTINUOUS
 10
-1.963287
 20
1.270634
  0
SEQEND
  8
0
  0
POLYLINE
  8
PLAN_1
 62
     5
  6
CONTINUOUS
 66
     1
 40
0.003000
 41
0.003000
  0
VERTEX
  8
PLAN_1
 62
     5
  6
CONTINUOUS
 10
-1.963287
 20
1.278980
  0
VERTEX
  8
PLAN_1
 62
     5
  6
CONTINUOUS
 10
-1.963287
 20
1.287327
  0
SEQEND
  8
0
  0
POLYLINE
  8
PLAN_1
 62
     5
  6
CONTINUOUS
 66
     1
 40
0.003000
 41
0.003000
  0
VERTEX
  8
PLAN_1
 62
     5
  6
CONTINUOUS
 10
-1.963287
 20
1.295669
  0
VERTEX
  8
PLAN_1
 62
     5
  6
CONTINUOUS
 10
-1.963287
 20
1.304016
  0
SEQEND
  8
0
  0
POLYLINE
  8
PLAN_1
 62
     5
  6
CONTINUOUS
 66
     1
 40
0.003000
 41
0.003000
  0
VERTEX
  8
PLAN_1
 62
     5
  6
CONTINUOUS
 10
-1.963287
 20
1.312362
  0
VERTEX
  8
PLAN_1
 62
     5
  6
CONTINUOUS
 10
-1.963287
 20
1.320709
  0
SEQEND
  8
0
  0
POLYLINE
  8
PLAN_1
 62
     5
  6
CONTINUOUS
 66
     1
 40
0.003000
 41
0.003000
  0
VERTEX
  8
PLAN_1
 62
     5
  6
CONTINUOUS
 10
-1.963287
 20
1.329051
  0
VERTEX
  8
PLAN_1
 62
     5
  6
CONTINUOUS
 10
-1.963287
 20
1.337398
  0
SEQEND
  8
0
  0
POLYLINE
  8
PLAN_1
 62
     5
  6
CONTINUOUS
 66
     1
 40
0.003000
 41
0.003000
  0
VERTEX
  8
PLAN_1
 62
     5
  6
CONTINUOUS
 10
-1.963287
 20
1.345744
  0
VERTEX
  8
PLAN_1
 62
     5
  6
CONTINUOUS
 10
-1.963287
 20
1.354091
  0
SEQEND
  8
0
  0
POLYLINE
  8
PLAN_1
 62
     5
  6
CONTINUOUS
 66
     1
 40
0.003000
 41
0.003000
  0
VERTEX
  8
PLAN_1
 62
     5
  6
CONTINUOUS
 10
-1.963287
 20
1.362433
  0
VERTEX
  8
PLAN_1
 62
     5
  6
CONTINUOUS
 10
-1.963287
 20
1.370780
  0
SEQEND
  8
0
  0
POLYLINE
  8
PLAN_1
 62
     5
  6
CONTINUOUS
 66
     1
 40
0.003000
 41
0.003000
  0
VERTEX
  8
PLAN_1
 62
     5
  6
CONTINUOUS
 10
-1.963287
 20
1.379126
  0
VERTEX
  8
PLAN_1
 62
     5
  6
CONTINUOUS
 10
-1.963287
 20
1.387472
  0
SEQEND
  8
0
  0
POLYLINE
  8
PLAN_1
 62
     5
  6
CONTINUOUS
 66
     1
 40
0.003000
 41
0.003000
  0
VERTEX
  8
PLAN_1
 62
     5
  6
CONTINUOUS
 10
-1.963287
 20
1.395815
  0
VERTEX
  8
PLAN_1
 62
     5
  6
CONTINUOUS
 10
-1.963287
 20
1.404161
  0
SEQEND
  8
0
  0
POLYLINE
  8
PLAN_1
 62
     5
  6
CONTINUOUS
 66
     1
 40
0.003000
 41
0.003000
  0
VERTEX
  8
PLAN_1
 62
     5
  6
CONTINUOUS
 10
-1.963287
 20
1.412508
  0
VERTEX
  8
PLAN_1
 62
     5
  6
CONTINUOUS
 10
-1.963287
 20
1.420854
  0
SEQEND
  8
0
  0
POLYLINE
  8
PLAN_1
 62
     5
  6
CONTINUOUS
 66
     1
 40
0.003000
 41
0.003000
  0
VERTEX
  8
PLAN_1
 62
     5
  6
CONTINUOUS
 10
-1.963287
 20
1.429197
  0
VERTEX
  8
PLAN_1
 62
     5
  6
CONTINUOUS
 10
-1.963287
 20
1.437543
  0
SEQEND
  8
0
  0
POLYLINE
  8
PLAN_1
 62
     5
  6
CONTINUOUS
 66
     1
 40
0.003000
 41
0.003000
  0
VERTEX
  8
PLAN_1
 62
     5
  6
CONTINUOUS
 10
-1.963287
 20
1.445890
  0
VERTEX
  8
PLAN_1
 62
     5
  6
CONTINUOUS
 10
-1.963287
 20
1.454236
  0
SEQEND
  8
0
  0
POLYLINE
  8
PLAN_1
 62
     5
  6
CONTINUOUS
 66
     1
 40
0.003000
 41
0.003000
  0
VERTEX
  8
PLAN_1
 62
     5
  6
CONTINUOUS
 10
-1.963287
 20
1.462579
  0
VERTEX
  8
PLAN_1
 62
     5
  6
CONTINUOUS
 10
-1.963287
 20
1.470925
  0
SEQEND
  8
0
  0
POLYLINE
  8
PLAN_1
 62
     5
  6
CONTINUOUS
 66
     1
 40
0.003000
 41
0.003000
  0
VERTEX
  8
PLAN_1
 62
     5
  6
CONTINUOUS
 10
-1.963287
 20
1.479272
  0
VERTEX
  8
PLAN_1
 62
     5
  6
CONTINUOUS
 10
-1.963287
 20
1.487177
  0
SEQEND
  8
0
  0
POLYLINE
  8
PLAN_1
 62
     5
  6
CONTINUOUS
 66
     1
 40
0.003000
 41
0.003000
  0
VERTEX
  8
PLAN_1
 62
     5
  6
CONTINUOUS
 10
-1.963287
 20
1.495524
  0
VERTEX
  8
PLAN_1
 62
     5
  6
CONTINUOUS
 10
-1.963287
 20
1.503870
  0
SEQEND
  8
0
  0
POLYLINE
  8
PLAN_1
 62
     5
  6
CONTINUOUS
 66
     1
 40
0.003000
 41
0.003000
  0
VERTEX
  8
PLAN_1
 62
     5
  6
CONTINUOUS
 10
-1.963287
 20
1.512213
  0
VERTEX
  8
PLAN_1
 62
     5
  6
CONTINUOUS
 10
-1.963287
 20
1.520559
  0
SEQEND
  8
0
  0
POLYLINE
  8
PLAN_1
 62
     5
  6
CONTINUOUS
 66
     1
 40
0.003000
 41
0.003000
  0
VERTEX
  8
PLAN_1
 62
     5
  6
CONTINUOUS
 10
-1.963287
 20
1.528906
  0
VERTEX
  8
PLAN_1
 62
     5
  6
CONTINUOUS
 10
-1.963287
 20
1.537252
  0
SEQEND
  8
0
  0
POLYLINE
  8
PLAN_1
 62
     5
  6
CONTINUOUS
 66
     1
 40
0.003000
 41
0.003000
  0
VERTEX
  8
PLAN_1
 62
     5
  6
CONTINUOUS
 10
-1.963287
 20
1.545594
  0
VERTEX
  8
PLAN_1
 62
     5
  6
CONTINUOUS
 10
-1.963287
 20
1.553941
  0
SEQEND
  8
0
  0
POLYLINE
  8
PLAN_1
 62
     5
  6
CONTINUOUS
 66
     1
 40
0.003000
 41
0.003000
  0
VERTEX
  8
PLAN_1
 62
     5
  6
CONTINUOUS
 10
-1.963287
 20
1.562287
  0
VERTEX
  8
PLAN_1
 62
     5
  6
CONTINUOUS
 10
-1.963287
 20
1.570630
  0
SEQEND
  8
0
  0
POLYLINE
  8
PLAN_1
 62
     5
  6
CONTINUOUS
 66
     1
 40
0.003000
 41
0.003000
  0
VERTEX
  8
PLAN_1
 62
     5
  6
CONTINUOUS
 10
-1.963287
 20
1.578976
  0
VERTEX
  8
PLAN_1
 62
     5
  6
CONTINUOUS
 10
-1.963287
 20
1.587323
  0
SEQEND
  8
0
  0
POLYLINE
  8
PLAN_1
 62
     5
  6
CONTINUOUS
 66
     1
 40
0.003000
 41
0.003000
  0
VERTEX
  8
PLAN_1
 62
     5
  6
CONTINUOUS
 10
-1.963287
 20
1.595669
  0
VERTEX
  8
PLAN_1
 62
     5
  6
CONTINUOUS
 10
-1.963287
 20
1.604012
  0
SEQEND
  8
0
  0
POLYLINE
  8
PLAN_1
 62
     5
  6
CONTINUOUS
 66
     1
 40
0.003000
 41
0.003000
  0
VERTEX
  8
PLAN_1
 62
     5
  6
CONTINUOUS
 10
-1.963287
 20
1.612358
  0
VERTEX
  8
PLAN_1
 62
     5
  6
CONTINUOUS
 10
-1.963287
 20
1.620705
  0
SEQEND
  8
0
  0
POLYLINE
  8
PLAN_1
 62
     5
  6
CONTINUOUS
 66
     1
 40
0.003000
 41
0.003000
  0
VERTEX
  8
PLAN_1
 62
     5
  6
CONTINUOUS
 10
-1.963287
 20
1.629051
  0
VERTEX
  8
PLAN_1
 62
     5
  6
CONTINUOUS
 10
-1.963287
 20
1.637394
  0
SEQEND
  8
0
  0
POLYLINE
  8
PLAN_1
 62
     5
  6
CONTINUOUS
 66
     1
 40
0.003000
 41
0.003000
  0
VERTEX
  8
PLAN_1
 62
     5
  6
CONTINUOUS
 10
-1.963287
 20
1.645740
  0
VERTEX
  8
PLAN_1
 62
     5
  6
CONTINUOUS
 10
-1.963287
 20
1.654087
  0
SEQEND
  8
0
  0
POLYLINE
  8
PLAN_1
 62
     5
  6
CONTINUOUS
 66
     1
 40
0.003000
 41
0.003000
  0
VERTEX
  8
PLAN_1
 62
     5
  6
CONTINUOUS
 10
-1.963287
 20
1.662433
  0
VERTEX
  8
PLAN_1
 62
     5
  6
CONTINUOUS
 10
-1.963287
 20
1.670776
  0
SEQEND
  8
0
  0
POLYLINE
  8
PLAN_1
 62
     5
  6
CONTINUOUS
 66
     1
 40
0.003000
 41
0.003000
  0
VERTEX
  8
PLAN_1
 62
     5
  6
CONTINUOUS
 10
-1.963287
 20
1.679122
  0
VERTEX
  8
PLAN_1
 62
     5
  6
CONTINUOUS
 10
-1.963287
 20
1.687469
  0
SEQEND
  8
0
  0
POLYLINE
  8
PLAN_1
 62
     5
  6
CONTINUOUS
 66
     1
 40
0.003000
 41
0.003000
  0
VERTEX
  8
PLAN_1
 62
     5
  6
CONTINUOUS
 10
-1.963287
 20
1.695815
  0
VERTEX
  8
PLAN_1
 62
     5
  6
CONTINUOUS
 10
-1.963287
 20
1.704157
  0
SEQEND
  8
0
  0
POLYLINE
  8
PLAN_1
 62
     5
  6
CONTINUOUS
 66
     1
 40
0.003000
 41
0.003000
  0
VERTEX
  8
PLAN_1
 62
     5
  6
CONTINUOUS
 10
-1.963287
 20
1.712067
  0
VERTEX
  8
PLAN_1
 62
     5
  6
CONTINUOUS
 10
-1.963287
 20
1.720409
  0
SEQEND
  8
0
  0
POLYLINE
  8
PLAN_1
 62
     5
  6
CONTINUOUS
 66
     1
 40
0.003000
 41
0.003000
  0
VERTEX
  8
PLAN_1
 62
     5
  6
CONTINUOUS
 10
-1.963287
 20
1.728756
  0
VERTEX
  8
PLAN_1
 62
     5
  6
CONTINUOUS
 10
-1.963287
 20
1.737102
  0
SEQEND
  8
0
  0
POLYLINE
  8
PLAN_1
 62
     5
  6
CONTINUOUS
 66
     1
 40
0.003000
 41
0.003000
  0
VERTEX
  8
PLAN_1
 62
     5
  6
CONTINUOUS
 10
-1.963287
 20
1.745449
  0
VERTEX
  8
PLAN_1
 62
     5
  6
CONTINUOUS
 10
-1.963287
 20
1.753791
  0
SEQEND
  8
0
  0
POLYLINE
  8
PLAN_1
 62
     5
  6
CONTINUOUS
 66
     1
 40
0.003000
 41
0.003000
  0
VERTEX
  8
PLAN_1
 62
     5
  6
CONTINUOUS
 10
-1.963287
 20
1.762138
  0
VERTEX
  8
PLAN_1
 62
     5
  6
CONTINUOUS
 10
-1.963287
 20
1.770484
  0
SEQEND
  8
0
  0
POLYLINE
  8
PLAN_1
 62
     5
  6
CONTINUOUS
 66
     1
 40
0.003000
 41
0.003000
  0
VERTEX
  8
PLAN_1
 62
     5
  6
CONTINUOUS
 10
-1.963287
 20
1.778831
  0
VERTEX
  8
PLAN_1
 62
     5
  6
CONTINUOUS
 10
-1.963287
 20
1.787173
  0
SEQEND
  8
0
  0
POLYLINE
  8
PLAN_1
 62
     5
  6
CONTINUOUS
 66
     1
 40
0.003000
 41
0.003000
  0
VERTEX
  8
PLAN_1
 62
     5
  6
CONTINUOUS
 10
-1.963287
 20
1.795520
  0
VERTEX
  8
PLAN_1
 62
     5
  6
CONTINUOUS
 10
-1.963287
 20
1.803866
  0
SEQEND
  8
0
  0
POLYLINE
  8
PLAN_1
 62
     5
  6
CONTINUOUS
 66
     1
 40
0.003000
 41
0.003000
  0
VERTEX
  8
PLAN_1
 62
     5
  6
CONTINUOUS
 10
-1.963287
 20
1.812209
  0
VERTEX
  8
PLAN_1
 62
     5
  6
CONTINUOUS
 10
-1.963287
 20
1.820555
  0
SEQEND
  8
0
  0
POLYLINE
  8
PLAN_1
 62
     5
  6
CONTINUOUS
 66
     1
 40
0.003000
 41
0.003000
  0
VERTEX
  8
PLAN_1
 62
     5
  6
CONTINUOUS
 10
-1.963287
 20
1.828902
  0
VERTEX
  8
PLAN_1
 62
     5
  6
CONTINUOUS
 10
-1.963287
 20
1.837248
  0
SEQEND
  8
0
  0
POLYLINE
  8
PLAN_1
 62
     5
  6
CONTINUOUS
 66
     1
 40
0.003000
 41
0.003000
  0
VERTEX
  8
PLAN_1
 62
     5
  6
CONTINUOUS
 10
-1.963287
 20
1.845591
  0
VERTEX
  8
PLAN_1
 62
     5
  6
CONTINUOUS
 10
-1.963287
 20
1.853937
  0
SEQEND
  8
0
  0
POLYLINE
  8
PLAN_1
 62
     5
  6
CONTINUOUS
 66
     1
 40
0.003000
 41
0.003000
  0
VERTEX
  8
PLAN_1
 62
     5
  6
CONTINUOUS
 10
-1.963287
 20
1.862283
  0
VERTEX
  8
PLAN_1
 62
     5
  6
CONTINUOUS
 10
-1.963287
 20
1.870630
  0
SEQEND
  8
0
  0
POLYLINE
  8
PLAN_1
 62
     5
  6
CONTINUOUS
 66
     1
 40
0.003000
 41
0.003000
  0
VERTEX
  8
PLAN_1
 62
     5
  6
CONTINUOUS
 10
-1.963287
 20
1.878972
  0
VERTEX
  8
PLAN_1
 62
     5
  6
CONTINUOUS
 10
-1.963287
 20
1.887319
  0
SEQEND
  8
0
  0
POLYLINE
  8
PLAN_1
 62
     5
  6
CONTINUOUS
 66
     1
 40
0.003000
 41
0.003000
  0
VERTEX
  8
PLAN_1
 62
     5
  6
CONTINUOUS
 10
-1.963287
 20
1.895665
  0
VERTEX
  8
PLAN_1
 62
     5
  6
CONTINUOUS
 10
-1.963287
 20
1.904012
  0
SEQEND
  8
0
  0
POLYLINE
  8
PLAN_1
 62
     5
  6
CONTINUOUS
 66
     1
 40
0.003000
 41
0.003000
  0
VERTEX
  8
PLAN_1
 62
     5
  6
CONTINUOUS
 10
-1.963287
 20
1.912354
  0
VERTEX
  8
PLAN_1
 62
     5
  6
CONTINUOUS
 10
-1.963287
 20
1.920701
  0
SEQEND
  8
0
  0
POLYLINE
  8
PLAN_1
 62
     5
  6
CONTINUOUS
 66
     1
 40
0.003000
 41
0.003000
  0
VERTEX
  8
PLAN_1
 62
     5
  6
CONTINUOUS
 10
-1.963287
 20
1.929047
  0
VERTEX
  8
PLAN_1
 62
     5
  6
CONTINUOUS
 10
-1.963287
 20
1.937394
  0
SEQEND
  8
0
  0
POLYLINE
  8
PLAN_1
 62
     5
  6
CONTINUOUS
 66
     1
 40
0.003000
 41
0.003000
  0
VERTEX
  8
PLAN_1
 62
     5
  6
CONTINUOUS
 10
-1.963287
 20
1.945299
  0
VERTEX
  8
PLAN_1
 62
     5
  6
CONTINUOUS
 10
-1.963287
 20
1.953646
  0
SEQEND
  8
0
  0
POLYLINE
  8
PLAN_1
 62
     5
  6
CONTINUOUS
 66
     1
 40
0.003000
 41
0.003000
  0
VERTEX
  8
PLAN_1
 62
     5
  6
CONTINUOUS
 10
-1.963287
 20
1.961988
  0
VERTEX
  8
PLAN_1
 62
     5
  6
CONTINUOUS
 10
-1.963287
 20
1.970335
  0
SEQEND
  8
0
  0
POLYLINE
  8
PLAN_1
 62
     5
  6
CONTINUOUS
 66
     1
 40
0.003000
 41
0.003000
  0
VERTEX
  8
PLAN_1
 62
     5
  6
CONTINUOUS
 10
-1.963287
 20
1.978681
  0
VERTEX
  8
PLAN_1
 62
     5
  6
CONTINUOUS
 10
-1.963287
 20
1.987028
  0
SEQEND
  8
0
  0
POLYLINE
  8
PLAN_1
 62
     5
  6
CONTINUOUS
 66
     1
 40
0.003000
 41
0.003000
  0
VERTEX
  8
PLAN_1
 62
     5
  6
CONTINUOUS
 10
-1.963287
 20
1.995370
  0
VERTEX
  8
PLAN_1
 62
     5
  6
CONTINUOUS
 10
-1.963287
 20
2.003717
  0
SEQEND
  8
0
  0
POLYLINE
  8
PLAN_1
 62
     5
  6
CONTINUOUS
 66
     1
 40
0.003000
 41
0.003000
  0
VERTEX
  8
PLAN_1
 62
     5
  6
CONTINUOUS
 10
-1.963287
 20
2.012063
  0
VERTEX
  8
PLAN_1
 62
     5
  6
CONTINUOUS
 10
-1.963287
 20
2.020409
  0
SEQEND
  8
0
  0
POLYLINE
  8
PLAN_1
 62
     5
  6
CONTINUOUS
 66
     1
 40
0.003000
 41
0.003000
  0
VERTEX
  8
PLAN_1
 62
     5
  6
CONTINUOUS
 10
-1.963287
 20
2.028752
  0
VERTEX
  8
PLAN_1
 62
     5
  6
CONTINUOUS
 10
-1.963287
 20
2.037098
  0
SEQEND
  8
0
  0
POLYLINE
  8
PLAN_1
 62
     5
  6
CONTINUOUS
 66
     1
 40
0.003000
 41
0.003000
  0
VERTEX
  8
PLAN_1
 62
     5
  6
CONTINUOUS
 10
-1.963287
 20
2.045445
  0
VERTEX
  8
PLAN_1
 62
     5
  6
CONTINUOUS
 10
-1.963287
 20
2.053791
  0
SEQEND
  8
0
  0
POLYLINE
  8
PLAN_1
 62
     5
  6
CONTINUOUS
 66
     1
 40
0.003000
 41
0.003000
  0
VERTEX
  8
PLAN_1
 62
     5
  6
CONTINUOUS
 10
-1.963287
 20
2.062134
  0
VERTEX
  8
PLAN_1
 62
     5
  6
CONTINUOUS
 10
-1.963287
 20
2.070480
  0
SEQEND
  8
0
  0
POLYLINE
  8
PLAN_1
 62
     5
  6
CONTINUOUS
 66
     1
 40
0.003000
 41
0.003000
  0
VERTEX
  8
PLAN_1
 62
     5
  6
CONTINUOUS
 10
-1.963287
 20
2.078827
  0
VERTEX
  8
PLAN_1
 62
     5
  6
CONTINUOUS
 10
-1.963287
 20
2.087169
  0
SEQEND
  8
0
  0
POLYLINE
  8
PLAN_1
 62
     5
  6
CONTINUOUS
 66
     1
 40
0.003000
 41
0.003000
  0
VERTEX
  8
PLAN_1
 62
     5
  6
CONTINUOUS
 10
-1.963287
 20
2.095516
  0
VERTEX
  8
PLAN_1
 62
     5
  6
CONTINUOUS
 10
-1.963287
 20
2.103862
  0
SEQEND
  8
0
  0
POLYLINE
  8
PLAN_1
 62
     5
  6
CONTINUOUS
 66
     1
 40
0.003000
 41
0.003000
  0
VERTEX
  8
PLAN_1
 62
     5
  6
CONTINUOUS
 10
-1.963287
 20
2.112209
  0
VERTEX
  8
PLAN_1
 62
     5
  6
CONTINUOUS
 10
-1.963287
 20
2.120551
  0
SEQEND
  8
0
  0
POLYLINE
  8
PLAN_1
 62
     5
  6
CONTINUOUS
 66
     1
 40
0.003000
 41
0.003000
  0
VERTEX
  8
PLAN_1
 62
     5
  6
CONTINUOUS
 10
-1.963287
 20
2.128898
  0
VERTEX
  8
PLAN_1
 62
     5
  6
CONTINUOUS
 10
-1.963287
 20
2.137244
  0
SEQEND
  8
0
  0
POLYLINE
  8
PLAN_1
 62
     5
  6
CONTINUOUS
 66
     1
 40
0.003000
 41
0.003000
  0
VERTEX
  8
PLAN_1
 62
     5
  6
CONTINUOUS
 10
-1.963287
 20
2.145591
  0
VERTEX
  8
PLAN_1
 62
     5
  6
CONTINUOUS
 10
-1.963287
 20
2.153933
  0
SEQEND
  8
0
  0
POLYLINE
  8
PLAN_1
 62
     5
  6
CONTINUOUS
 66
     1
 40
0.003000
 41
0.003000
  0
VERTEX
  8
PLAN_1
 62
     5
  6
CONTINUOUS
 10
-1.963287
 20
2.162280
  0
VERTEX
  8
PLAN_1
 62
     5
  6
CONTINUOUS
 10
-1.963287
 20
2.170185
  0
SEQEND
  8
0
  0
POLYLINE
  8
PLAN_1
 62
     5
  6
CONTINUOUS
 66
     1
 40
0.003000
 41
0.003000
  0
VERTEX
  8
PLAN_1
 62
     5
  6
CONTINUOUS
 10
-1.963287
 20
2.178531
  0
VERTEX
  8
PLAN_1
 62
     5
  6
CONTINUOUS
 10
-1.963287
 20
2.186878
  0
SEQEND
  8
0
  0
POLYLINE
  8
PLAN_1
 62
     5
  6
CONTINUOUS
 66
     1
 40
0.003000
 41
0.003000
  0
VERTEX
  8
PLAN_1
 62
     5
  6
CONTINUOUS
 10
-1.963287
 20
2.195224
  0
VERTEX
  8
PLAN_1
 62
     5
  6
CONTINUOUS
 10
-1.963287
 20
2.203567
  0
SEQEND
  8
0
  0
POLYLINE
  8
PLAN_1
 62
     5
  6
CONTINUOUS
 66
     1
 40
0.003000
 41
0.003000
  0
VERTEX
  8
PLAN_1
 62
     5
  6
CONTINUOUS
 10
-1.963287
 20
2.211913
  0
VERTEX
  8
PLAN_1
 62
     5
  6
CONTINUOUS
 10
-1.963287
 20
2.220260
  0
SEQEND
  8
0
  0
POLYLINE
  8
PLAN_1
 62
     5
  6
CONTINUOUS
 66
     1
 40
0.003000
 41
0.003000
  0
VERTEX
  8
PLAN_1
 62
     5
  6
CONTINUOUS
 10
-1.963287
 20
2.228606
  0
VERTEX
  8
PLAN_1
 62
     5
  6
CONTINUOUS
 10
-1.963287
 20
2.236949
  0
SEQEND
  8
0
  0
POLYLINE
  8
PLAN_1
 62
     5
  6
CONTINUOUS
 66
     1
 40
0.003000
 41
0.003000
  0
VERTEX
  8
PLAN_1
 62
     5
  6
CONTINUOUS
 10
-1.963287
 20
2.245295
  0
VERTEX
  8
PLAN_1
 62
     5
  6
CONTINUOUS
 10
-1.963287
 20
2.253642
  0
SEQEND
  8
0
  0
POLYLINE
  8
PLAN_1
 62
     5
  6
CONTINUOUS
 66
     1
 40
0.003000
 41
0.003000
  0
VERTEX
  8
PLAN_1
 62
     5
  6
CONTINUOUS
 10
-1.963287
 20
2.261988
  0
VERTEX
  8
PLAN_1
 62
     5
  6
CONTINUOUS
 10
-1.963287
 20
2.270331
  0
SEQEND
  8
0
  0
POLYLINE
  8
PLAN_1
 62
     5
  6
CONTINUOUS
 66
     1
 40
0.003000
 41
0.003000
  0
VERTEX
  8
PLAN_1
 62
     5
  6
CONTINUOUS
 10
-1.963287
 20
2.278677
  0
VERTEX
  8
PLAN_1
 62
     5
  6
CONTINUOUS
 10
-1.963287
 20
2.287024
  0
SEQEND
  8
0
  0
POLYLINE
  8
PLAN_1
 62
     5
  6
CONTINUOUS
 66
     1
 40
0.003000
 41
0.003000
  0
VERTEX
  8
PLAN_1
 62
     5
  6
CONTINUOUS
 10
-1.963287
 20
2.295370
  0
VERTEX
  8
PLAN_1
 62
     5
  6
CONTINUOUS
 10
-1.963287
 20
2.303713
  0
SEQEND
  8
0
  0
POLYLINE
  8
PLAN_1
 62
     5
  6
CONTINUOUS
 66
     1
 40
0.003000
 41
0.003000
  0
VERTEX
  8
PLAN_1
 62
     5
  6
CONTINUOUS
 10
-1.963287
 20
2.312059
  0
VERTEX
  8
PLAN_1
 62
     5
  6
CONTINUOUS
 10
-1.963287
 20
2.320406
  0
SEQEND
  8
0
  0
POLYLINE
  8
PLAN_1
 62
     5
  6
CONTINUOUS
 66
     1
 40
0.003000
 41
0.003000
  0
VERTEX
  8
PLAN_1
 62
     5
  6
CONTINUOUS
 10
-1.963287
 20
2.328752
  0
VERTEX
  8
PLAN_1
 62
     5
  6
CONTINUOUS
 10
-1.963287
 20
2.337094
  0
SEQEND
  8
0
  0
POLYLINE
  8
PLAN_1
 62
     5
  6
CONTINUOUS
 66
     1
 40
0.003000
 41
0.003000
  0
VERTEX
  8
PLAN_1
 62
     5
  6
CONTINUOUS
 10
-1.963287
 20
2.345441
  0
VERTEX
  8
PLAN_1
 62
     5
  6
CONTINUOUS
 10
-1.963287
 20
2.353787
  0
SEQEND
  8
0
  0
POLYLINE
  8
PLAN_1
 62
     5
  6
CONTINUOUS
 66
     1
 40
0.003000
 41
0.003000
  0
VERTEX
  8
PLAN_1
 62
     5
  6
CONTINUOUS
 10
-1.963287
 20
2.362130
  0
VERTEX
  8
PLAN_1
 62
     5
  6
CONTINUOUS
 10
-1.963287
 20
2.370476
  0
SEQEND
  8
0
  0
POLYLINE
  8
PLAN_1
 62
     5
  6
CONTINUOUS
 66
     1
 40
0.003000
 41
0.003000
  0
VERTEX
  8
PLAN_1
 62
     5
  6
CONTINUOUS
 10
-1.963287
 20
2.378823
  0
VERTEX
  8
PLAN_1
 62
     5
  6
CONTINUOUS
 10
-1.963287
 20
2.387169
  0
SEQEND
  8
0
  0
POLYLINE
  8
PLAN_1
 62
     5
  6
CONTINUOUS
 66
     1
 40
0.003000
 41
0.003000
  0
VERTEX
  8
PLAN_1
 62
     5
  6
CONTINUOUS
 10
-1.963287
 20
2.395075
  0
VERTEX
  8
PLAN_1
 62
     5
  6
CONTINUOUS
 10
-1.963287
 20
2.403421
  0
SEQEND
  8
0
  0
POLYLINE
  8
PLAN_1
 62
     5
  6
CONTINUOUS
 66
     1
 40
0.003000
 41
0.003000
  0
VERTEX
  8
PLAN_1
 62
     5
  6
CONTINUOUS
 10
-1.963287
 20
2.411764
  0
VERTEX
  8
PLAN_1
 62
     5
  6
CONTINUOUS
 10
-1.963287
 20
2.420110
  0
SEQEND
  8
0
  0
POLYLINE
  8
PLAN_1
 62
     5
  6
CONTINUOUS
 66
     1
 40
0.003000
 41
0.003000
  0
VERTEX
  8
PLAN_1
 62
     5
  6
CONTINUOUS
 10
-1.963287
 20
2.428457
  0
VERTEX
  8
PLAN_1
 62
     5
  6
CONTINUOUS
 10
-1.963287
 20
2.436803
  0
SEQEND
  8
0
  0
POLYLINE
  8
PLAN_1
 62
     5
  6
CONTINUOUS
 66
     1
 40
0.003000
 41
0.003000
  0
VERTEX
  8
PLAN_1
 62
     5
  6
CONTINUOUS
 10
-1.963287
 20
2.445146
  0
VERTEX
  8
PLAN_1
 62
     5
  6
CONTINUOUS
 10
-1.963287
 20
2.453492
  0
SEQEND
  8
0
  0
POLYLINE
  8
PLAN_1
 62
     5
  6
CONTINUOUS
 66
     1
 40
0.003000
 41
0.003000
  0
VERTEX
  8
PLAN_1
 62
     5
  6
CONTINUOUS
 10
-1.963287
 20
2.461839
  0
VERTEX
  8
PLAN_1
 62
     5
  6
CONTINUOUS
 10
-1.963287
 20
2.470185
  0
SEQEND
  8
0
  0
POLYLINE
  8
PLAN_1
 62
     5
  6
CONTINUOUS
 66
     1
 40
0.003000
 41
0.003000
  0
VERTEX
  8
PLAN_1
 62
     5
  6
CONTINUOUS
 10
-1.963287
 20
2.478528
  0
VERTEX
  8
PLAN_1
 62
     5
  6
CONTINUOUS
 10
-1.963287
 20
2.486874
  0
SEQEND
  8
0
  0
POLYLINE
  8
PLAN_1
 62
     5
  6
CONTINUOUS
 66
     1
 40
0.003000
 41
0.003000
  0
VERTEX
  8
PLAN_1
 62
     5
  6
CONTINUOUS
 10
-1.963287
 20
2.495220
  0
VERTEX
  8
PLAN_1
 62
     5
  6
CONTINUOUS
 10
-1.963287
 20
2.503567
  0
SEQEND
  8
0
  0
POLYLINE
  8
PLAN_1
 62
     5
  6
CONTINUOUS
 66
     1
 40
0.003000
 41
0.003000
  0
VERTEX
  8
PLAN_1
 62
     5
  6
CONTINUOUS
 10
-1.963287
 20
2.511909
  0
VERTEX
  8
PLAN_1
 62
     5
  6
CONTINUOUS
 10
-1.963287
 20
2.520256
  0
SEQEND
  8
0
  0
POLYLINE
  8
PLAN_1
 62
     5
  6
CONTINUOUS
 66
     1
 40
0.003000
 41
0.003000
  0
VERTEX
  8
PLAN_1
 62
     5
  6
CONTINUOUS
 10
-1.963287
 20
2.528602
  0
VERTEX
  8
PLAN_1
 62
     5
  6
CONTINUOUS
 10
-1.963287
 20
2.536949
  0
SEQEND
  8
0
  0
POLYLINE
  8
PLAN_1
 62
     5
  6
CONTINUOUS
 66
     1
 40
0.003000
 41
0.003000
  0
VERTEX
  8
PLAN_1
 62
     5
  6
CONTINUOUS
 10
-1.963287
 20
2.545291
  0
VERTEX
  8
PLAN_1
 62
     5
  6
CONTINUOUS
 10
-1.963287
 20
2.553638
  0
SEQEND
  8
0
  0
POLYLINE
  8
PLAN_1
 62
     5
  6
CONTINUOUS
 66
     1
 40
0.003000
 41
0.003000
  0
VERTEX
  8
PLAN_1
 62
     5
  6
CONTINUOUS
 10
-1.963287
 20
2.561984
  0
VERTEX
  8
PLAN_1
 62
     5
  6
CONTINUOUS
 10
-1.963287
 20
2.570331
  0
SEQEND
  8
0
  0
POLYLINE
  8
PLAN_1
 62
     5
  6
CONTINUOUS
 66
     1
 40
0.003000
 41
0.003000
  0
VERTEX
  8
PLAN_1
 62
     5
  6
CONTINUOUS
 10
-1.963287
 20
2.578673
  0
VERTEX
  8
PLAN_1
 62
     5
  6
CONTINUOUS
 10
-1.963287
 20
2.587020
  0
SEQEND
  8
0
  0
POLYLINE
  8
PLAN_1
 62
     5
  6
CONTINUOUS
 66
     1
 40
0.003000
 41
0.003000
  0
VERTEX
  8
PLAN_1
 62
     5
  6
CONTINUOUS
 10
-1.963287
 20
2.595366
  0
VERTEX
  8
PLAN_1
 62
     5
  6
CONTINUOUS
 10
-1.963287
 20
2.603709
  0
SEQEND
  8
0
  0
POLYLINE
  8
PLAN_1
 62
     5
  6
CONTINUOUS
 66
     1
 40
0.003000
 41
0.003000
  0
VERTEX
  8
PLAN_1
 62
     5
  6
CONTINUOUS
 10
-1.963287
 20
2.612055
  0
VERTEX
  8
PLAN_1
 62
     5
  6
CONTINUOUS
 10
-1.963287
 20
2.619961
  0
SEQEND
  8
0
  0
POLYLINE
  8
PLAN_1
 62
     5
  6
CONTINUOUS
 66
     1
 40
0.003000
 41
0.003000
  0
VERTEX
  8
PLAN_1
 62
     5
  6
CONTINUOUS
 10
-1.963287
 20
2.628307
  0
VERTEX
  8
PLAN_1
 62
     5
  6
CONTINUOUS
 10
-1.963287
 20
2.636654
  0
SEQEND
  8
0
  0
POLYLINE
  8
PLAN_1
 62
     5
  6
CONTINUOUS
 66
     1
 40
0.003000
 41
0.003000
  0
VERTEX
  8
PLAN_1
 62
     5
  6
CONTINUOUS
 10
-1.963287
 20
2.645000
  0
VERTEX
  8
PLAN_1
 62
     5
  6
CONTINUOUS
 10
-1.963287
 20
2.653343
  0
SEQEND
  8
0
  0
POLYLINE
  8
PLAN_1
 62
     5
  6
CONTINUOUS
 66
     1
 40
0.003000
 41
0.003000
  0
VERTEX
  8
PLAN_1
 62
     5
  6
CONTINUOUS
 10
-1.963287
 20
2.661689
  0
VERTEX
  8
PLAN_1
 62
     5
  6
CONTINUOUS
 10
-1.963287
 20
2.670035
  0
SEQEND
  8
0
  0
POLYLINE
  8
PLAN_1
 62
     5
  6
CONTINUOUS
 66
     1
 40
0.003000
 41
0.003000
  0
VERTEX
  8
PLAN_1
 62
     5
  6
CONTINUOUS
 10
-1.963287
 20
2.678382
  0
VERTEX
  8
PLAN_1
 62
     5
  6
CONTINUOUS
 10
-1.963287
 20
2.686724
  0
SEQEND
  8
0
  0
POLYLINE
  8
PLAN_1
 62
     5
  6
CONTINUOUS
 66
     1
 40
0.003000
 41
0.003000
  0
VERTEX
  8
PLAN_1
 62
     5
  6
CONTINUOUS
 10
-1.963287
 20
2.695071
  0
VERTEX
  8
PLAN_1
 62
     5
  6
CONTINUOUS
 10
-1.963287
 20
2.703417
  0
SEQEND
  8
0
  0
POLYLINE
  8
PLAN_1
 62
     5
  6
CONTINUOUS
 66
     1
 40
0.003000
 41
0.003000
  0
VERTEX
  8
PLAN_1
 62
     5
  6
CONTINUOUS
 10
-1.963287
 20
2.711764
  0
VERTEX
  8
PLAN_1
 62
     5
  6
CONTINUOUS
 10
-1.963287
 20
2.720106
  0
SEQEND
  8
0
  0
POLYLINE
  8
PLAN_1
 62
     5
  6
CONTINUOUS
 66
     1
 40
0.003000
 41
0.003000
  0
VERTEX
  8
PLAN_1
 62
     5
  6
CONTINUOUS
 10
-1.963287
 20
2.728453
  0
VERTEX
  8
PLAN_1
 62
     5
  6
CONTINUOUS
 10
-1.963287
 20
2.736799
  0
SEQEND
  8
0
  0
POLYLINE
  8
PLAN_1
 62
     5
  6
CONTINUOUS
 66
     1
 40
0.003000
 41
0.003000
  0
VERTEX
  8
PLAN_1
 62
     5
  6
CONTINUOUS
 10
-1.963287
 20
2.745146
  0
VERTEX
  8
PLAN_1
 62
     5
  6
CONTINUOUS
 10
-1.963287
 20
2.753488
  0
SEQEND
  8
0
  0
POLYLINE
  8
PLAN_1
 62
     5
  6
CONTINUOUS
 66
     1
 40
0.003000
 41
0.003000
  0
VERTEX
  8
PLAN_1
 62
     5
  6
CONTINUOUS
 10
-1.963287
 20
2.761835
  0
VERTEX
  8
PLAN_1
 62
     5
  6
CONTINUOUS
 10
-1.963287
 20
2.770181
  0
SEQEND
  8
0
  0
POLYLINE
  8
PLAN_1
 62
     5
  6
CONTINUOUS
 66
     1
 40
0.003000
 41
0.003000
  0
VERTEX
  8
PLAN_1
 62
     5
  6
CONTINUOUS
 10
-1.963287
 20
2.778528
  0
VERTEX
  8
PLAN_1
 62
     5
  6
CONTINUOUS
 10
-1.963287
 20
2.786870
  0
SEQEND
  8
0
  0
POLYLINE
  8
PLAN_1
 62
     5
  6
CONTINUOUS
 66
     1
 40
0.003000
 41
0.003000
  0
VERTEX
  8
PLAN_1
 62
     5
  6
CONTINUOUS
 10
-1.963287
 20
2.795217
  0
VERTEX
  8
PLAN_1
 62
     5
  6
CONTINUOUS
 10
-1.963287
 20
2.803563
  0
SEQEND
  8
0
  0
POLYLINE
  8
PLAN_1
 62
     5
  6
CONTINUOUS
 66
     1
 40
0.003000
 41
0.003000
  0
VERTEX
  8
PLAN_1
 62
     5
  6
CONTINUOUS
 10
-1.963287
 20
2.811909
  0
VERTEX
  8
PLAN_1
 62
     5
  6
CONTINUOUS
 10
-1.963287
 20
2.820252
  0
SEQEND
  8
0
  0
POLYLINE
  8
PLAN_1
 62
     5
  6
CONTINUOUS
 66
     1
 40
0.003000
 41
0.003000
  0
VERTEX
  8
PLAN_1
 62
     5
  6
CONTINUOUS
 10
-1.963287
 20
2.828598
  0
VERTEX
  8
PLAN_1
 62
     5
  6
CONTINUOUS
 10
-1.963287
 20
2.836945
  0
SEQEND
  8
0
  0
POLYLINE
  8
PLAN_1
 62
     5
  6
CONTINUOUS
 66
     1
 40
0.003000
 41
0.003000
  0
VERTEX
  8
PLAN_1
 62
     5
  6
CONTINUOUS
 10
-1.963287
 20
2.845291
  0
VERTEX
  8
PLAN_1
 62
     5
  6
CONTINUOUS
 10
-1.963287
 20
2.853197
  0
SEQEND
  8
0
  0
POLYLINE
  8
PLAN_1
 62
     5
  6
CONTINUOUS
 66
     1
 40
0.003000
 41
0.003000
  0
VERTEX
  8
PLAN_1
 62
     5
  6
CONTINUOUS
 10
-1.963287
 20
2.861539
  0
VERTEX
  8
PLAN_1
 62
     5
  6
CONTINUOUS
 10
-1.963287
 20
2.869886
  0
SEQEND
  8
0
  0
POLYLINE
  8
PLAN_1
 62
     5
  6
CONTINUOUS
 66
     1
 40
0.003000
 41
0.003000
  0
VERTEX
  8
PLAN_1
 62
     5
  6
CONTINUOUS
 10
-1.963287
 20
2.878232
  0
VERTEX
  8
PLAN_1
 62
     5
  6
CONTINUOUS
 10
-1.963287
 20
2.886579
  0
SEQEND
  8
0
  0
POLYLINE
  8
PLAN_1
 62
     5
  6
CONTINUOUS
 66
     1
 40
0.003000
 41
0.003000
  0
VERTEX
  8
PLAN_1
 62
     5
  6
CONTINUOUS
 10
-1.963287
 20
2.894921
  0
VERTEX
  8
PLAN_1
 62
     5
  6
CONTINUOUS
 10
-1.963287
 20
2.903268
  0
SEQEND
  8
0
  0
POLYLINE
  8
PLAN_1
 62
     5
  6
CONTINUOUS
 66
     1
 40
0.003000
 41
0.003000
  0
VERTEX
  8
PLAN_1
 62
     5
  6
CONTINUOUS
 10
-1.963287
 20
2.911614
  0
VERTEX
  8
PLAN_1
 62
     5
  6
CONTINUOUS
 10
-1.963287
 20
2.919961
  0
SEQEND
  8
0
  0
POLYLINE
  8
PLAN_1
 62
     5
  6
CONTINUOUS
 66
     1
 40
0.003000
 41
0.003000
  0
VERTEX
  8
PLAN_1
 62
     5
  6
CONTINUOUS
 10
-1.963287
 20
2.928303
  0
VERTEX
  8
PLAN_1
 62
     5
  6
CONTINUOUS
 10
-1.963287
 20
2.936650
  0
SEQEND
  8
0
  0
POLYLINE
  8
PLAN_1
 62
     5
  6
CONTINUOUS
 66
     1
 40
0.003000
 41
0.003000
  0
VERTEX
  8
PLAN_1
 62
     5
  6
CONTINUOUS
 10
-1.963287
 20
2.944996
  0
VERTEX
  8
PLAN_1
 62
     5
  6
CONTINUOUS
 10
-1.963287
 20
2.953343
  0
SEQEND
  8
0
  0
POLYLINE
  8
PLAN_1
 62
     5
  6
CONTINUOUS
 66
     1
 40
0.003000
 41
0.003000
  0
VERTEX
  8
PLAN_1
 62
     5
  6
CONTINUOUS
 10
-1.963287
 20
2.961685
  0
VERTEX
  8
PLAN_1
 62
     5
  6
CONTINUOUS
 10
-1.963287
 20
2.970031
  0
SEQEND
  8
0
  0
POLYLINE
  8
PLAN_1
 62
     5
  6
CONTINUOUS
 66
     1
 40
0.003000
 41
0.003000
  0
VERTEX
  8
PLAN_1
 62
     5
  6
CONTINUOUS
 10
-1.963287
 20
2.978378
  0
VERTEX
  8
PLAN_1
 62
     5
  6
CONTINUOUS
 10
-1.963287
 20
2.986724
  0
SEQEND
  8
0
  0
POLYLINE
  8
PLAN_1
 62
     5
  6
CONTINUOUS
 66
     1
 40
0.003000
 41
0.003000
  0
VERTEX
  8
PLAN_1
 62
     5
  6
CONTINUOUS
 10
-1.963287
 20
2.995067
  0
VERTEX
  8
PLAN_1
 62
     5
  6
CONTINUOUS
 10
-1.963287
 20
3.003413
  0
SEQEND
  8
0
  0
POLYLINE
  8
PLAN_1
 62
     5
  6
CONTINUOUS
 66
     1
 40
0.003000
 41
0.003000
  0
VERTEX
  8
PLAN_1
 62
     5
  6
CONTINUOUS
 10
-1.963287
 20
3.011760
  0
VERTEX
  8
PLAN_1
 62
     5
  6
CONTINUOUS
 10
-1.963287
 20
3.020106
  0
SEQEND
  8
0
  0
POLYLINE
  8
PLAN_1
 62
     5
  6
CONTINUOUS
 66
     1
 40
0.003000
 41
0.003000
  0
VERTEX
  8
PLAN_1
 62
     5
  6
CONTINUOUS
 10
-1.963287
 20
3.028449
  0
VERTEX
  8
PLAN_1
 62
     5
  6
CONTINUOUS
 10
-1.963287
 20
3.036795
  0
SEQEND
  8
0
  0
POLYLINE
  8
PLAN_1
 62
     5
  6
CONTINUOUS
 66
     1
 40
0.003000
 41
0.003000
  0
VERTEX
  8
PLAN_1
 62
     5
  6
CONTINUOUS
 10
-1.963287
 20
3.045142
  0
VERTEX
  8
PLAN_1
 62
     5
  6
CONTINUOUS
 10
-1.963287
 20
3.053488
  0
SEQEND
  8
0
  0
POLYLINE
  8
PLAN_1
 62
     5
  6
CONTINUOUS
 66
     1
 40
0.003000
 41
0.003000
  0
VERTEX
  8
PLAN_1
 62
     5
  6
CONTINUOUS
 10
-1.963287
 20
3.061831
  0
VERTEX
  8
PLAN_1
 62
     5
  6
CONTINUOUS
 10
-1.963287
 20
3.070177
  0
SEQEND
  8
0
  0
POLYLINE
  8
PLAN_1
 62
     5
  6
CONTINUOUS
 66
     1
 40
0.003000
 41
0.003000
  0
VERTEX
  8
PLAN_1
 62
     5
  6
CONTINUOUS
 10
-1.963287
 20
3.078083
  0
VERTEX
  8
PLAN_1
 62
     5
  6
CONTINUOUS
 10
-1.963287
 20
3.086429
  0
SEQEND
  8
0
  0
POLYLINE
  8
PLAN_1
 62
     5
  6
CONTINUOUS
 66
     1
 40
0.003000
 41
0.003000
  0
VERTEX
  8
PLAN_1
 62
     5
  6
CONTINUOUS
 10
-1.963287
 20
3.094776
  0
VERTEX
  8
PLAN_1
 62
     5
  6
CONTINUOUS
 10
-1.963287
 20
3.103118
  0
SEQEND
  8
0
  0
POLYLINE
  8
PLAN_1
 62
     5
  6
CONTINUOUS
 66
     1
 40
0.003000
 41
0.003000
  0
VERTEX
  8
PLAN_1
 62
     5
  6
CONTINUOUS
 10
-1.963287
 20
3.111465
  0
VERTEX
  8
PLAN_1
 62
     5
  6
CONTINUOUS
 10
-1.963287
 20
3.119811
  0
SEQEND
  8
0
  0
POLYLINE
  8
PLAN_1
 62
     5
  6
CONTINUOUS
 66
     1
 40
0.003000
 41
0.003000
  0
VERTEX
  8
PLAN_1
 62
     5
  6
CONTINUOUS
 10
-1.963287
 20
3.128157
  0
VERTEX
  8
PLAN_1
 62
     5
  6
CONTINUOUS
 10
-1.963287
 20
3.136500
  0
SEQEND
  8
0
  0
POLYLINE
  8
PLAN_1
 62
     5
  6
CONTINUOUS
 66
     1
 40
0.003000
 41
0.003000
  0
VERTEX
  8
PLAN_1
 62
     5
  6
CONTINUOUS
 10
-1.963287
 20
3.144846
  0
VERTEX
  8
PLAN_1
 62
     5
  6
CONTINUOUS
 10
-1.963287
 20
3.153193
  0
SEQEND
  8
0
  0
POLYLINE
  8
PLAN_1
 62
     5
  6
CONTINUOUS
 66
     1
 40
0.003000
 41
0.003000
  0
VERTEX
  8
PLAN_1
 62
     5
  6
CONTINUOUS
 10
-1.963287
 20
3.161539
  0
VERTEX
  8
PLAN_1
 62
     5
  6
CONTINUOUS
 10
-1.963287
 20
3.169882
  0
SEQEND
  8
0
  0
POLYLINE
  8
PLAN_1
 62
     5
  6
CONTINUOUS
 66
     1
 40
0.003000
 41
0.003000
  0
VERTEX
  8
PLAN_1
 62
     5
  6
CONTINUOUS
 10
-1.963287
 20
3.178228
  0
VERTEX
  8
PLAN_1
 62
     5
  6
CONTINUOUS
 10
-1.963287
 20
3.186575
  0
SEQEND
  8
0
  0
POLYLINE
  8
PLAN_1
 62
     5
  6
CONTINUOUS
 66
     1
 40
0.003000
 41
0.003000
  0
VERTEX
  8
PLAN_1
 62
     5
  6
CONTINUOUS
 10
-1.963287
 20
3.194921
  0
VERTEX
  8
PLAN_1
 62
     5
  6
CONTINUOUS
 10
-1.963287
 20
3.203264
  0
SEQEND
  8
0
  0
POLYLINE
  8
PLAN_1
 62
     5
  6
CONTINUOUS
 66
     1
 40
0.003000
 41
0.003000
  0
VERTEX
  8
PLAN_1
 62
     5
  6
CONTINUOUS
 10
-1.963287
 20
3.211610
  0
VERTEX
  8
PLAN_1
 62
     5
  6
CONTINUOUS
 10
-1.963287
 20
3.219957
  0
SEQEND
  8
0
  0
POLYLINE
  8
PLAN_1
 62
     5
  6
CONTINUOUS
 66
     1
 40
0.003000
 41
0.003000
  0
VERTEX
  8
PLAN_1
 62
     5
  6
CONTINUOUS
 10
-1.963287
 20
3.228303
  0
VERTEX
  8
PLAN_1
 62
     5
  6
CONTINUOUS
 10
-1.963287
 20
3.229181
  0
SEQEND
  8
0
  0
POLYLINE
  8
PLAN_1
 62
     5
  6
CONTINUOUS
 66
     1
 40
0.003000
 41
0.003000
  0
VERTEX
  8
PLAN_1
 62
     5
  6
CONTINUOUS
 10
-1.963287
 20
3.228303
  0
VERTEX
  8
PLAN_1
 62
     5
  6
CONTINUOUS
 10
-1.963287
 20
3.229181
  0
SEQEND
  8
0
  0
POLYLINE
  8
PLAN_1
 62
     5
  6
CONTINUOUS
 66
     1
 40
0.003000
 41
0.003000
  0
VERTEX
  8
PLAN_1
 62
     5
  6
CONTINUOUS
 10
-0.349980
 20
0.912657
  0
VERTEX
  8
PLAN_1
 62
     5
  6
CONTINUOUS
 10
-0.349980
 20
0.921004
  0
SEQEND
  8
0
  0
POLYLINE
  8
PLAN_1
 62
     5
  6
CONTINUOUS
 66
     1
 40
0.003000
 41
0.003000
  0
VERTEX
  8
PLAN_1
 62
     5
  6
CONTINUOUS
 10
-0.349980
 20
0.929350
  0
VERTEX
  8
PLAN_1
 62
     5
  6
CONTINUOUS
 10
-0.349980
 20
0.937697
  0
SEQEND
  8
0
  0
POLYLINE
  8
PLAN_1
 62
     5
  6
CONTINUOUS
 66
     1
 40
0.003000
 41
0.003000
  0
VERTEX
  8
PLAN_1
 62
     5
  6
CONTINUOUS
 10
-0.349980
 20
0.946039
  0
VERTEX
  8
PLAN_1
 62
     5
  6
CONTINUOUS
 10
-0.349980
 20
0.954386
  0
SEQEND
  8
0
  0
POLYLINE
  8
PLAN_1
 62
     5
  6
CONTINUOUS
 66
     1
 40
0.003000
 41
0.003000
  0
VERTEX
  8
PLAN_1
 62
     5
  6
CONTINUOUS
 10
-0.349980
 20
0.962732
  0
VERTEX
  8
PLAN_1
 62
     5
  6
CONTINUOUS
 10
-0.349980
 20
0.971079
  0
SEQEND
  8
0
  0
POLYLINE
  8
PLAN_1
 62
     5
  6
CONTINUOUS
 66
     1
 40
0.003000
 41
0.003000
  0
VERTEX
  8
PLAN_1
 62
     5
  6
CONTINUOUS
 10
-0.349980
 20
0.979421
  0
VERTEX
  8
PLAN_1
 62
     5
  6
CONTINUOUS
 10
-0.349980
 20
0.987768
  0
SEQEND
  8
0
  0
POLYLINE
  8
PLAN_1
 62
     5
  6
CONTINUOUS
 66
     1
 40
0.003000
 41
0.003000
  0
VERTEX
  8
PLAN_1
 62
     5
  6
CONTINUOUS
 10
-0.349980
 20
0.996114
  0
VERTEX
  8
PLAN_1
 62
     5
  6
CONTINUOUS
 10
-0.349980
 20
1.004461
  0
SEQEND
  8
0
  0
POLYLINE
  8
PLAN_1
 62
     5
  6
CONTINUOUS
 66
     1
 40
0.003000
 41
0.003000
  0
VERTEX
  8
PLAN_1
 62
     5
  6
CONTINUOUS
 10
-0.349980
 20
1.012803
  0
VERTEX
  8
PLAN_1
 62
     5
  6
CONTINUOUS
 10
-0.349980
 20
1.021150
  0
SEQEND
  8
0
  0
POLYLINE
  8
PLAN_1
 62
     5
  6
CONTINUOUS
 66
     1
 40
0.003000
 41
0.003000
  0
VERTEX
  8
PLAN_1
 62
     5
  6
CONTINUOUS
 10
-0.349980
 20
1.029496
  0
VERTEX
  8
PLAN_1
 62
     5
  6
CONTINUOUS
 10
-0.349980
 20
1.037402
  0
SEQEND
  8
0
  0
POLYLINE
  8
PLAN_1
 62
     5
  6
CONTINUOUS
 66
     1
 40
0.003000
 41
0.003000
  0
VERTEX
  8
PLAN_1
 62
     5
  6
CONTINUOUS
 10
-0.349980
 20
1.045748
  0
VERTEX
  8
PLAN_1
 62
     5
  6
CONTINUOUS
 10
-0.349980
 20
1.054091
  0
SEQEND
  8
0
  0
POLYLINE
  8
PLAN_1
 62
     5
  6
CONTINUOUS
 66
     1
 40
0.003000
 41
0.003000
  0
VERTEX
  8
PLAN_1
 62
     5
  6
CONTINUOUS
 10
-0.349980
 20
1.062437
  0
VERTEX
  8
PLAN_1
 62
     5
  6
CONTINUOUS
 10
-0.349980
 20
1.070783
  0
SEQEND
  8
0
  0
POLYLINE
  8
PLAN_1
 62
     5
  6
CONTINUOUS
 66
     1
 40
0.003000
 41
0.003000
  0
VERTEX
  8
PLAN_1
 62
     5
  6
CONTINUOUS
 10
-0.349980
 20
1.079130
  0
VERTEX
  8
PLAN_1
 62
     5
  6
CONTINUOUS
 10
-0.349980
 20
1.087472
  0
SEQEND
  8
0
  0
POLYLINE
  8
PLAN_1
 62
     5
  6
CONTINUOUS
 66
     1
 40
0.003000
 41
0.003000
  0
VERTEX
  8
PLAN_1
 62
     5
  6
CONTINUOUS
 10
-0.349980
 20
1.095819
  0
VERTEX
  8
PLAN_1
 62
     5
  6
CONTINUOUS
 10
-0.349980
 20
1.104165
  0
SEQEND
  8
0
  0
POLYLINE
  8
PLAN_1
 62
     5
  6
CONTINUOUS
 66
     1
 40
0.003000
 41
0.003000
  0
VERTEX
  8
PLAN_1
 62
     5
  6
CONTINUOUS
 10
-0.349980
 20
1.112512
  0
VERTEX
  8
PLAN_1
 62
     5
  6
CONTINUOUS
 10
-0.349980
 20
1.120854
  0
SEQEND
  8
0
  0
POLYLINE
  8
PLAN_1
 62
     5
  6
CONTINUOUS
 66
     1
 40
0.003000
 41
0.003000
  0
VERTEX
  8
PLAN_1
 62
     5
  6
CONTINUOUS
 10
-0.349980
 20
1.129201
  0
VERTEX
  8
PLAN_1
 62
     5
  6
CONTINUOUS
 10
-0.349980
 20
1.137547
  0
SEQEND
  8
0
  0
POLYLINE
  8
PLAN_1
 62
     5
  6
CONTINUOUS
 66
     1
 40
0.003000
 41
0.003000
  0
VERTEX
  8
PLAN_1
 62
     5
  6
CONTINUOUS
 10
-0.349980
 20
1.145894
  0
VERTEX
  8
PLAN_1
 62
     5
  6
CONTINUOUS
 10
-0.349980
 20
1.154236
  0
SEQEND
  8
0
  0
POLYLINE
  8
PLAN_1
 62
     5
  6
CONTINUOUS
 66
     1
 40
0.003000
 41
0.003000
  0
VERTEX
  8
PLAN_1
 62
     5
  6
CONTINUOUS
 10
-0.349980
 20
1.162583
  0
VERTEX
  8
PLAN_1
 62
     5
  6
CONTINUOUS
 10
-0.349980
 20
1.170929
  0
SEQEND
  8
0
  0
POLYLINE
  8
PLAN_1
 62
     5
  6
CONTINUOUS
 66
     1
 40
0.003000
 41
0.003000
  0
VERTEX
  8
PLAN_1
 62
     5
  6
CONTINUOUS
 10
-0.349980
 20
1.179276
  0
VERTEX
  8
PLAN_1
 62
     5
  6
CONTINUOUS
 10
-0.349980
 20
1.187618
  0
SEQEND
  8
0
  0
POLYLINE
  8
PLAN_1
 62
     5
  6
CONTINUOUS
 66
     1
 40
0.003000
 41
0.003000
  0
VERTEX
  8
PLAN_1
 62
     5
  6
CONTINUOUS
 10
-0.349980
 20
1.195965
  0
VERTEX
  8
PLAN_1
 62
     5
  6
CONTINUOUS
 10
-0.349980
 20
1.204311
  0
SEQEND
  8
0
  0
POLYLINE
  8
PLAN_1
 62
     5
  6
CONTINUOUS
 66
     1
 40
0.003000
 41
0.003000
  0
VERTEX
  8
PLAN_1
 62
     5
  6
CONTINUOUS
 10
-0.349980
 20
1.212657
  0
VERTEX
  8
PLAN_1
 62
     5
  6
CONTINUOUS
 10
-0.349980
 20
1.221000
  0
SEQEND
  8
0
  0
POLYLINE
  8
PLAN_1
 62
     5
  6
CONTINUOUS
 66
     1
 40
0.003000
 41
0.003000
  0
VERTEX
  8
PLAN_1
 62
     5
  6
CONTINUOUS
 10
-0.349980
 20
1.229346
  0
VERTEX
  8
PLAN_1
 62
     5
  6
CONTINUOUS
 10
-0.349980
 20
1.237693
  0
SEQEND
  8
0
  0
POLYLINE
  8
PLAN_1
 62
     5
  6
CONTINUOUS
 66
     1
 40
0.003000
 41
0.003000
  0
VERTEX
  8
PLAN_1
 62
     5
  6
CONTINUOUS
 10
-0.349980
 20
1.246039
  0
VERTEX
  8
PLAN_1
 62
     5
  6
CONTINUOUS
 10
-0.349980
 20
1.254382
  0
SEQEND
  8
0
  0
POLYLINE
  8
PLAN_1
 62
     5
  6
CONTINUOUS
 66
     1
 40
0.003000
 41
0.003000
  0
VERTEX
  8
PLAN_1
 62
     5
  6
CONTINUOUS
 10
-0.349980
 20
1.262291
  0
VERTEX
  8
PLAN_1
 62
     5
  6
CONTINUOUS
 10
-0.349980
 20
1.270634
  0
SEQEND
  8
0
  0
POLYLINE
  8
PLAN_1
 62
     5
  6
CONTINUOUS
 66
     1
 40
0.003000
 41
0.003000
  0
VERTEX
  8
PLAN_1
 62
     5
  6
CONTINUOUS
 10
-0.349980
 20
1.278980
  0
VERTEX
  8
PLAN_1
 62
     5
  6
CONTINUOUS
 10
-0.349980
 20
1.287327
  0
SEQEND
  8
0
  0
POLYLINE
  8
PLAN_1
 62
     5
  6
CONTINUOUS
 66
     1
 40
0.003000
 41
0.003000
  0
VERTEX
  8
PLAN_1
 62
     5
  6
CONTINUOUS
 10
-0.349980
 20
1.295669
  0
VERTEX
  8
PLAN_1
 62
     5
  6
CONTINUOUS
 10
-0.349980
 20
1.304016
  0
SEQEND
  8
0
  0
POLYLINE
  8
PLAN_1
 62
     5
  6
CONTINUOUS
 66
     1
 40
0.003000
 41
0.003000
  0
VERTEX
  8
PLAN_1
 62
     5
  6
CONTINUOUS
 10
-0.349980
 20
1.312362
  0
VERTEX
  8
PLAN_1
 62
     5
  6
CONTINUOUS
 10
-0.349980
 20
1.320709
  0
SEQEND
  8
0
  0
POLYLINE
  8
PLAN_1
 62
     5
  6
CONTINUOUS
 66
     1
 40
0.003000
 41
0.003000
  0
VERTEX
  8
PLAN_1
 62
     5
  6
CONTINUOUS
 10
-0.349980
 20
1.329051
  0
VERTEX
  8
PLAN_1
 62
     5
  6
CONTINUOUS
 10
-0.349980
 20
1.337398
  0
SEQEND
  8
0
  0
POLYLINE
  8
PLAN_1
 62
     5
  6
CONTINUOUS
 66
     1
 40
0.003000
 41
0.003000
  0
VERTEX
  8
PLAN_1
 62
     5
  6
CONTINUOUS
 10
-0.349980
 20
1.345744
  0
VERTEX
  8
PLAN_1
 62
     5
  6
CONTINUOUS
 10
-0.349980
 20
1.354091
  0
SEQEND
  8
0
  0
POLYLINE
  8
PLAN_1
 62
     5
  6
CONTINUOUS
 66
     1
 40
0.003000
 41
0.003000
  0
VERTEX
  8
PLAN_1
 62
     5
  6
CONTINUOUS
 10
-0.349980
 20
1.362433
  0
VERTEX
  8
PLAN_1
 62
     5
  6
CONTINUOUS
 10
-0.349980
 20
1.370780
  0
SEQEND
  8
0
  0
POLYLINE
  8
PLAN_1
 62
     5
  6
CONTINUOUS
 66
     1
 40
0.003000
 41
0.003000
  0
VERTEX
  8
PLAN_1
 62
     5
  6
CONTINUOUS
 10
-0.349980
 20
1.379126
  0
VERTEX
  8
PLAN_1
 62
     5
  6
CONTINUOUS
 10
-0.349980
 20
1.387472
  0
SEQEND
  8
0
  0
POLYLINE
  8
PLAN_1
 62
     5
  6
CONTINUOUS
 66
     1
 40
0.003000
 41
0.003000
  0
VERTEX
  8
PLAN_1
 62
     5
  6
CONTINUOUS
 10
-0.349980
 20
1.395815
  0
VERTEX
  8
PLAN_1
 62
     5
  6
CONTINUOUS
 10
-0.349980
 20
1.404161
  0
SEQEND
  8
0
  0
POLYLINE
  8
PLAN_1
 62
     5
  6
CONTINUOUS
 66
     1
 40
0.003000
 41
0.003000
  0
VERTEX
  8
PLAN_1
 62
     5
  6
CONTINUOUS
 10
-0.349980
 20
1.412508
  0
VERTEX
  8
PLAN_1
 62
     5
  6
CONTINUOUS
 10
-0.349980
 20
1.420854
  0
SEQEND
  8
0
  0
POLYLINE
  8
PLAN_1
 62
     5
  6
CONTINUOUS
 66
     1
 40
0.003000
 41
0.003000
  0
VERTEX
  8
PLAN_1
 62
     5
  6
CONTINUOUS
 10
-0.349980
 20
1.429197
  0
VERTEX
  8
PLAN_1
 62
     5
  6
CONTINUOUS
 10
-0.349980
 20
1.437543
  0
SEQEND
  8
0
  0
POLYLINE
  8
PLAN_1
 62
     5
  6
CONTINUOUS
 66
     1
 40
0.003000
 41
0.003000
  0
VERTEX
  8
PLAN_1
 62
     5
  6
CONTINUOUS
 10
-0.349980
 20
1.445890
  0
VERTEX
  8
PLAN_1
 62
     5
  6
CONTINUOUS
 10
-0.349980
 20
1.454236
  0
SEQEND
  8
0
  0
POLYLINE
  8
PLAN_1
 62
     5
  6
CONTINUOUS
 66
     1
 40
0.003000
 41
0.003000
  0
VERTEX
  8
PLAN_1
 62
     5
  6
CONTINUOUS
 10
-0.349980
 20
1.462579
  0
VERTEX
  8
PLAN_1
 62
     5
  6
CONTINUOUS
 10
-0.349980
 20
1.470925
  0
SEQEND
  8
0
  0
POLYLINE
  8
PLAN_1
 62
     5
  6
CONTINUOUS
 66
     1
 40
0.003000
 41
0.003000
  0
VERTEX
  8
PLAN_1
 62
     5
  6
CONTINUOUS
 10
-0.349980
 20
1.479272
  0
VERTEX
  8
PLAN_1
 62
     5
  6
CONTINUOUS
 10
-0.349980
 20
1.487177
  0
SEQEND
  8
0
  0
POLYLINE
  8
PLAN_1
 62
     5
  6
CONTINUOUS
 66
     1
 40
0.003000
 41
0.003000
  0
VERTEX
  8
PLAN_1
 62
     5
  6
CONTINUOUS
 10
-0.349980
 20
1.495524
  0
VERTEX
  8
PLAN_1
 62
     5
  6
CONTINUOUS
 10
-0.349980
 20
1.503870
  0
SEQEND
  8
0
  0
POLYLINE
  8
PLAN_1
 62
     5
  6
CONTINUOUS
 66
     1
 40
0.003000
 41
0.003000
  0
VERTEX
  8
PLAN_1
 62
     5
  6
CONTINUOUS
 10
-0.349980
 20
1.512213
  0
VERTEX
  8
PLAN_1
 62
     5
  6
CONTINUOUS
 10
-0.349980
 20
1.520559
  0
SEQEND
  8
0
  0
POLYLINE
  8
PLAN_1
 62
     5
  6
CONTINUOUS
 66
     1
 40
0.003000
 41
0.003000
  0
VERTEX
  8
PLAN_1
 62
     5
  6
CONTINUOUS
 10
-0.349980
 20
1.528906
  0
VERTEX
  8
PLAN_1
 62
     5
  6
CONTINUOUS
 10
-0.349980
 20
1.537252
  0
SEQEND
  8
0
  0
POLYLINE
  8
PLAN_1
 62
     5
  6
CONTINUOUS
 66
     1
 40
0.003000
 41
0.003000
  0
VERTEX
  8
PLAN_1
 62
     5
  6
CONTINUOUS
 10
-0.349980
 20
1.545594
  0
VERTEX
  8
PLAN_1
 62
     5
  6
CONTINUOUS
 10
-0.349980
 20
1.553941
  0
SEQEND
  8
0
  0
POLYLINE
  8
PLAN_1
 62
     5
  6
CONTINUOUS
 66
     1
 40
0.003000
 41
0.003000
  0
VERTEX
  8
PLAN_1
 62
     5
  6
CONTINUOUS
 10
-0.349980
 20
1.562287
  0
VERTEX
  8
PLAN_1
 62
     5
  6
CONTINUOUS
 10
-0.349980
 20
1.570630
  0
SEQEND
  8
0
  0
POLYLINE
  8
PLAN_1
 62
     5
  6
CONTINUOUS
 66
     1
 40
0.003000
 41
0.003000
  0
VERTEX
  8
PLAN_1
 62
     5
  6
CONTINUOUS
 10
-0.349980
 20
1.578976
  0
VERTEX
  8
PLAN_1
 62
     5
  6
CONTINUOUS
 10
-0.349980
 20
1.587323
  0
SEQEND
  8
0
  0
POLYLINE
  8
PLAN_1
 62
     5
  6
CONTINUOUS
 66
     1
 40
0.003000
 41
0.003000
  0
VERTEX
  8
PLAN_1
 62
     5
  6
CONTINUOUS
 10
-0.349980
 20
1.595669
  0
VERTEX
  8
PLAN_1
 62
     5
  6
CONTINUOUS
 10
-0.349980
 20
1.604012
  0
SEQEND
  8
0
  0
POLYLINE
  8
PLAN_1
 62
     5
  6
CONTINUOUS
 66
     1
 40
0.003000
 41
0.003000
  0
VERTEX
  8
PLAN_1
 62
     5
  6
CONTINUOUS
 10
-0.349980
 20
1.612358
  0
VERTEX
  8
PLAN_1
 62
     5
  6
CONTINUOUS
 10
-0.349980
 20
1.620705
  0
SEQEND
  8
0
  0
POLYLINE
  8
PLAN_1
 62
     5
  6
CONTINUOUS
 66
     1
 40
0.003000
 41
0.003000
  0
VERTEX
  8
PLAN_1
 62
     5
  6
CONTINUOUS
 10
-0.349980
 20
1.629051
  0
VERTEX
  8
PLAN_1
 62
     5
  6
CONTINUOUS
 10
-0.349980
 20
1.637394
  0
SEQEND
  8
0
  0
POLYLINE
  8
PLAN_1
 62
     5
  6
CONTINUOUS
 66
     1
 40
0.003000
 41
0.003000
  0
VERTEX
  8
PLAN_1
 62
     5
  6
CONTINUOUS
 10
-0.349980
 20
1.645740
  0
VERTEX
  8
PLAN_1
 62
     5
  6
CONTINUOUS
 10
-0.349980
 20
1.654087
  0
SEQEND
  8
0
  0
POLYLINE
  8
PLAN_1
 62
     5
  6
CONTINUOUS
 66
     1
 40
0.003000
 41
0.003000
  0
VERTEX
  8
PLAN_1
 62
     5
  6
CONTINUOUS
 10
-0.349980
 20
1.662433
  0
VERTEX
  8
PLAN_1
 62
     5
  6
CONTINUOUS
 10
-0.349980
 20
1.670776
  0
SEQEND
  8
0
  0
POLYLINE
  8
PLAN_1
 62
     5
  6
CONTINUOUS
 66
     1
 40
0.003000
 41
0.003000
  0
VERTEX
  8
PLAN_1
 62
     5
  6
CONTINUOUS
 10
-0.349980
 20
1.679122
  0
VERTEX
  8
PLAN_1
 62
     5
  6
CONTINUOUS
 10
-0.349980
 20
1.687469
  0
SEQEND
  8
0
  0
POLYLINE
  8
PLAN_1
 62
     5
  6
CONTINUOUS
 66
     1
 40
0.003000
 41
0.003000
  0
VERTEX
  8
PLAN_1
 62
     5
  6
CONTINUOUS
 10
-0.349980
 20
1.695815
  0
VERTEX
  8
PLAN_1
 62
     5
  6
CONTINUOUS
 10
-0.349980
 20
1.704157
  0
SEQEND
  8
0
  0
POLYLINE
  8
PLAN_1
 62
     5
  6
CONTINUOUS
 66
     1
 40
0.003000
 41
0.003000
  0
VERTEX
  8
PLAN_1
 62
     5
  6
CONTINUOUS
 10
-0.349980
 20
1.712067
  0
VERTEX
  8
PLAN_1
 62
     5
  6
CONTINUOUS
 10
-0.349980
 20
1.720409
  0
SEQEND
  8
0
  0
POLYLINE
  8
PLAN_1
 62
     5
  6
CONTINUOUS
 66
     1
 40
0.003000
 41
0.003000
  0
VERTEX
  8
PLAN_1
 62
     5
  6
CONTINUOUS
 10
-0.349980
 20
1.728756
  0
VERTEX
  8
PLAN_1
 62
     5
  6
CONTINUOUS
 10
-0.349980
 20
1.737102
  0
SEQEND
  8
0
  0
POLYLINE
  8
PLAN_1
 62
     5
  6
CONTINUOUS
 66
     1
 40
0.003000
 41
0.003000
  0
VERTEX
  8
PLAN_1
 62
     5
  6
CONTINUOUS
 10
-0.349980
 20
1.745449
  0
VERTEX
  8
PLAN_1
 62
     5
  6
CONTINUOUS
 10
-0.349980
 20
1.753791
  0
SEQEND
  8
0
  0
POLYLINE
  8
PLAN_1
 62
     5
  6
CONTINUOUS
 66
     1
 40
0.003000
 41
0.003000
  0
VERTEX
  8
PLAN_1
 62
     5
  6
CONTINUOUS
 10
-0.349980
 20
1.762138
  0
VERTEX
  8
PLAN_1
 62
     5
  6
CONTINUOUS
 10
-0.349980
 20
1.770484
  0
SEQEND
  8
0
  0
POLYLINE
  8
PLAN_1
 62
     5
  6
CONTINUOUS
 66
     1
 40
0.003000
 41
0.003000
  0
VERTEX
  8
PLAN_1
 62
     5
  6
CONTINUOUS
 10
-0.349980
 20
1.778831
  0
VERTEX
  8
PLAN_1
 62
     5
  6
CONTINUOUS
 10
-0.349980
 20
1.787173
  0
SEQEND
  8
0
  0
POLYLINE
  8
PLAN_1
 62
     5
  6
CONTINUOUS
 66
     1
 40
0.003000
 41
0.003000
  0
VERTEX
  8
PLAN_1
 62
     5
  6
CONTINUOUS
 10
-0.349980
 20
1.795520
  0
VERTEX
  8
PLAN_1
 62
     5
  6
CONTINUOUS
 10
-0.349980
 20
1.803866
  0
SEQEND
  8
0
  0
POLYLINE
  8
PLAN_1
 62
     5
  6
CONTINUOUS
 66
     1
 40
0.003000
 41
0.003000
  0
VERTEX
  8
PLAN_1
 62
     5
  6
CONTINUOUS
 10
-0.349980
 20
1.812209
  0
VERTEX
  8
PLAN_1
 62
     5
  6
CONTINUOUS
 10
-0.349980
 20
1.820555
  0
SEQEND
  8
0
  0
POLYLINE
  8
PLAN_1
 62
     5
  6
CONTINUOUS
 66
     1
 40
0.003000
 41
0.003000
  0
VERTEX
  8
PLAN_1
 62
     5
  6
CONTINUOUS
 10
-0.349980
 20
1.828902
  0
VERTEX
  8
PLAN_1
 62
     5
  6
CONTINUOUS
 10
-0.349980
 20
1.837248
  0
SEQEND
  8
0
  0
POLYLINE
  8
PLAN_1
 62
     5
  6
CONTINUOUS
 66
     1
 40
0.003000
 41
0.003000
  0
VERTEX
  8
PLAN_1
 62
     5
  6
CONTINUOUS
 10
-0.349980
 20
1.845591
  0
VERTEX
  8
PLAN_1
 62
     5
  6
CONTINUOUS
 10
-0.349980
 20
1.853937
  0
SEQEND
  8
0
  0
POLYLINE
  8
PLAN_1
 62
     5
  6
CONTINUOUS
 66
     1
 40
0.003000
 41
0.003000
  0
VERTEX
  8
PLAN_1
 62
     5
  6
CONTINUOUS
 10
-0.349980
 20
1.862283
  0
VERTEX
  8
PLAN_1
 62
     5
  6
CONTINUOUS
 10
-0.349980
 20
1.870630
  0
SEQEND
  8
0
  0
POLYLINE
  8
PLAN_1
 62
     5
  6
CONTINUOUS
 66
     1
 40
0.003000
 41
0.003000
  0
VERTEX
  8
PLAN_1
 62
     5
  6
CONTINUOUS
 10
-0.349980
 20
1.878972
  0
VERTEX
  8
PLAN_1
 62
     5
  6
CONTINUOUS
 10
-0.349980
 20
1.887319
  0
SEQEND
  8
0
  0
POLYLINE
  8
PLAN_1
 62
     5
  6
CONTINUOUS
 66
     1
 40
0.003000
 41
0.003000
  0
VERTEX
  8
PLAN_1
 62
     5
  6
CONTINUOUS
 10
-0.349980
 20
1.895665
  0
VERTEX
  8
PLAN_1
 62
     5
  6
CONTINUOUS
 10
-0.349980
 20
1.904012
  0
SEQEND
  8
0
  0
POLYLINE
  8
PLAN_1
 62
     5
  6
CONTINUOUS
 66
     1
 40
0.003000
 41
0.003000
  0
VERTEX
  8
PLAN_1
 62
     5
  6
CONTINUOUS
 10
-0.349980
 20
1.912354
  0
VERTEX
  8
PLAN_1
 62
     5
  6
CONTINUOUS
 10
-0.349980
 20
1.920701
  0
SEQEND
  8
0
  0
POLYLINE
  8
PLAN_1
 62
     5
  6
CONTINUOUS
 66
     1
 40
0.003000
 41
0.003000
  0
VERTEX
  8
PLAN_1
 62
     5
  6
CONTINUOUS
 10
-0.349980
 20
1.929047
  0
VERTEX
  8
PLAN_1
 62
     5
  6
CONTINUOUS
 10
-0.349980
 20
1.937394
  0
SEQEND
  8
0
  0
POLYLINE
  8
PLAN_1
 62
     5
  6
CONTINUOUS
 66
     1
 40
0.003000
 41
0.003000
  0
VERTEX
  8
PLAN_1
 62
     5
  6
CONTINUOUS
 10
-0.349980
 20
1.945299
  0
VERTEX
  8
PLAN_1
 62
     5
  6
CONTINUOUS
 10
-0.349980
 20
1.953646
  0
SEQEND
  8
0
  0
POLYLINE
  8
PLAN_1
 62
     5
  6
CONTINUOUS
 66
     1
 40
0.003000
 41
0.003000
  0
VERTEX
  8
PLAN_1
 62
     5
  6
CONTINUOUS
 10
-0.349980
 20
1.961988
  0
VERTEX
  8
PLAN_1
 62
     5
  6
CONTINUOUS
 10
-0.349980
 20
1.970335
  0
SEQEND
  8
0
  0
POLYLINE
  8
PLAN_1
 62
     5
  6
CONTINUOUS
 66
     1
 40
0.003000
 41
0.003000
  0
VERTEX
  8
PLAN_1
 62
     5
  6
CONTINUOUS
 10
-0.349980
 20
1.978681
  0
VERTEX
  8
PLAN_1
 62
     5
  6
CONTINUOUS
 10
-0.349980
 20
1.987028
  0
SEQEND
  8
0
  0
POLYLINE
  8
PLAN_1
 62
     5
  6
CONTINUOUS
 66
     1
 40
0.003000
 41
0.003000
  0
VERTEX
  8
PLAN_1
 62
     5
  6
CONTINUOUS
 10
-0.349980
 20
1.995370
  0
VERTEX
  8
PLAN_1
 62
     5
  6
CONTINUOUS
 10
-0.349980
 20
2.003717
  0
SEQEND
  8
0
  0
POLYLINE
  8
PLAN_1
 62
     5
  6
CONTINUOUS
 66
     1
 40
0.003000
 41
0.003000
  0
VERTEX
  8
PLAN_1
 62
     5
  6
CONTINUOUS
 10
-0.349980
 20
2.012063
  0
VERTEX
  8
PLAN_1
 62
     5
  6
CONTINUOUS
 10
-0.349980
 20
2.020409
  0
SEQEND
  8
0
  0
POLYLINE
  8
PLAN_1
 62
     5
  6
CONTINUOUS
 66
     1
 40
0.003000
 41
0.003000
  0
VERTEX
  8
PLAN_1
 62
     5
  6
CONTINUOUS
 10
-0.349980
 20
2.028752
  0
VERTEX
  8
PLAN_1
 62
     5
  6
CONTINUOUS
 10
-0.349980
 20
2.037098
  0
SEQEND
  8
0
  0
POLYLINE
  8
PLAN_1
 62
     5
  6
CONTINUOUS
 66
     1
 40
0.003000
 41
0.003000
  0
VERTEX
  8
PLAN_1
 62
     5
  6
CONTINUOUS
 10
-0.349980
 20
2.045445
  0
VERTEX
  8
PLAN_1
 62
     5
  6
CONTINUOUS
 10
-0.349980
 20
2.053791
  0
SEQEND
  8
0
  0
POLYLINE
  8
PLAN_1
 62
     5
  6
CONTINUOUS
 66
     1
 40
0.003000
 41
0.003000
  0
VERTEX
  8
PLAN_1
 62
     5
  6
CONTINUOUS
 10
-0.349980
 20
2.062134
  0
VERTEX
  8
PLAN_1
 62
     5
  6
CONTINUOUS
 10
-0.349980
 20
2.070480
  0
SEQEND
  8
0
  0
POLYLINE
  8
PLAN_1
 62
     5
  6
CONTINUOUS
 66
     1
 40
0.003000
 41
0.003000
  0
VERTEX
  8
PLAN_1
 62
     5
  6
CONTINUOUS
 10
-0.349980
 20
2.078827
  0
VERTEX
  8
PLAN_1
 62
     5
  6
CONTINUOUS
 10
-0.349980
 20
2.087169
  0
SEQEND
  8
0
  0
POLYLINE
  8
PLAN_1
 62
     5
  6
CONTINUOUS
 66
     1
 40
0.003000
 41
0.003000
  0
VERTEX
  8
PLAN_1
 62
     5
  6
CONTINUOUS
 10
-0.349980
 20
2.095516
  0
VERTEX
  8
PLAN_1
 62
     5
  6
CONTINUOUS
 10
-0.349980
 20
2.103862
  0
SEQEND
  8
0
  0
POLYLINE
  8
PLAN_1
 62
     5
  6
CONTINUOUS
 66
     1
 40
0.003000
 41
0.003000
  0
VERTEX
  8
PLAN_1
 62
     5
  6
CONTINUOUS
 10
-0.349980
 20
2.112209
  0
VERTEX
  8
PLAN_1
 62
     5
  6
CONTINUOUS
 10
-0.349980
 20
2.120551
  0
SEQEND
  8
0
  0
POLYLINE
  8
PLAN_1
 62
     5
  6
CONTINUOUS
 66
     1
 40
0.003000
 41
0.003000
  0
VERTEX
  8
PLAN_1
 62
     5
  6
CONTINUOUS
 10
-0.349980
 20
2.128898
  0
VERTEX
  8
PLAN_1
 62
     5
  6
CONTINUOUS
 10
-0.349980
 20
2.137244
  0
SEQEND
  8
0
  0
POLYLINE
  8
PLAN_1
 62
     5
  6
CONTINUOUS
 66
     1
 40
0.003000
 41
0.003000
  0
VERTEX
  8
PLAN_1
 62
     5
  6
CONTINUOUS
 10
-0.349980
 20
2.145591
  0
VERTEX
  8
PLAN_1
 62
     5
  6
CONTINUOUS
 10
-0.349980
 20
2.153933
  0
SEQEND
  8
0
  0
POLYLINE
  8
PLAN_1
 62
     5
  6
CONTINUOUS
 66
     1
 40
0.003000
 41
0.003000
  0
VERTEX
  8
PLAN_1
 62
     5
  6
CONTINUOUS
 10
-0.349980
 20
2.162280
  0
VERTEX
  8
PLAN_1
 62
     5
  6
CONTINUOUS
 10
-0.349980
 20
2.170185
  0
SEQEND
  8
0
  0
POLYLINE
  8
PLAN_1
 62
     5
  6
CONTINUOUS
 66
     1
 40
0.003000
 41
0.003000
  0
VERTEX
  8
PLAN_1
 62
     5
  6
CONTINUOUS
 10
-0.349980
 20
2.178531
  0
VERTEX
  8
PLAN_1
 62
     5
  6
CONTINUOUS
 10
-0.349980
 20
2.186878
  0
SEQEND
  8
0
  0
POLYLINE
  8
PLAN_1
 62
     5
  6
CONTINUOUS
 66
     1
 40
0.003000
 41
0.003000
  0
VERTEX
  8
PLAN_1
 62
     5
  6
CONTINUOUS
 10
-0.349980
 20
2.195224
  0
VERTEX
  8
PLAN_1
 62
     5
  6
CONTINUOUS
 10
-0.349980
 20
2.203567
  0
SEQEND
  8
0
  0
POLYLINE
  8
PLAN_1
 62
     5
  6
CONTINUOUS
 66
     1
 40
0.003000
 41
0.003000
  0
VERTEX
  8
PLAN_1
 62
     5
  6
CONTINUOUS
 10
-0.349980
 20
2.211913
  0
VERTEX
  8
PLAN_1
 62
     5
  6
CONTINUOUS
 10
-0.349980
 20
2.220260
  0
SEQEND
  8
0
  0
POLYLINE
  8
PLAN_1
 62
     5
  6
CONTINUOUS
 66
     1
 40
0.003000
 41
0.003000
  0
VERTEX
  8
PLAN_1
 62
     5
  6
CONTINUOUS
 10
-0.349980
 20
2.228606
  0
VERTEX
  8
PLAN_1
 62
     5
  6
CONTINUOUS
 10
-0.349980
 20
2.236949
  0
SEQEND
  8
0
  0
POLYLINE
  8
PLAN_1
 62
     5
  6
CONTINUOUS
 66
     1
 40
0.003000
 41
0.003000
  0
VERTEX
  8
PLAN_1
 62
     5
  6
CONTINUOUS
 10
-0.349980
 20
2.245295
  0
VERTEX
  8
PLAN_1
 62
     5
  6
CONTINUOUS
 10
-0.349980
 20
2.253642
  0
SEQEND
  8
0
  0
POLYLINE
  8
PLAN_1
 62
     5
  6
CONTINUOUS
 66
     1
 40
0.003000
 41
0.003000
  0
VERTEX
  8
PLAN_1
 62
     5
  6
CONTINUOUS
 10
-0.349980
 20
2.261988
  0
VERTEX
  8
PLAN_1
 62
     5
  6
CONTINUOUS
 10
-0.349980
 20
2.270331
  0
SEQEND
  8
0
  0
POLYLINE
  8
PLAN_1
 62
     5
  6
CONTINUOUS
 66
     1
 40
0.003000
 41
0.003000
  0
VERTEX
  8
PLAN_1
 62
     5
  6
CONTINUOUS
 10
-0.349980
 20
2.278677
  0
VERTEX
  8
PLAN_1
 62
     5
  6
CONTINUOUS
 10
-0.349980
 20
2.287024
  0
SEQEND
  8
0
  0
POLYLINE
  8
PLAN_1
 62
     5
  6
CONTINUOUS
 66
     1
 40
0.003000
 41
0.003000
  0
VERTEX
  8
PLAN_1
 62
     5
  6
CONTINUOUS
 10
-0.349980
 20
2.295370
  0
VERTEX
  8
PLAN_1
 62
     5
  6
CONTINUOUS
 10
-0.349980
 20
2.303713
  0
SEQEND
  8
0
  0
POLYLINE
  8
PLAN_1
 62
     5
  6
CONTINUOUS
 66
     1
 40
0.003000
 41
0.003000
  0
VERTEX
  8
PLAN_1
 62
     5
  6
CONTINUOUS
 10
-0.349980
 20
2.312059
  0
VERTEX
  8
PLAN_1
 62
     5
  6
CONTINUOUS
 10
-0.349980
 20
2.320406
  0
SEQEND
  8
0
  0
POLYLINE
  8
PLAN_1
 62
     5
  6
CONTINUOUS
 66
     1
 40
0.003000
 41
0.003000
  0
VERTEX
  8
PLAN_1
 62
     5
  6
CONTINUOUS
 10
-0.349980
 20
2.328752
  0
VERTEX
  8
PLAN_1
 62
     5
  6
CONTINUOUS
 10
-0.349980
 20
2.337094
  0
SEQEND
  8
0
  0
POLYLINE
  8
PLAN_1
 62
     5
  6
CONTINUOUS
 66
     1
 40
0.003000
 41
0.003000
  0
VERTEX
  8
PLAN_1
 62
     5
  6
CONTINUOUS
 10
-0.349980
 20
2.345441
  0
VERTEX
  8
PLAN_1
 62
     5
  6
CONTINUOUS
 10
-0.349980
 20
2.353787
  0
SEQEND
  8
0
  0
POLYLINE
  8
PLAN_1
 62
     5
  6
CONTINUOUS
 66
     1
 40
0.003000
 41
0.003000
  0
VERTEX
  8
PLAN_1
 62
     5
  6
CONTINUOUS
 10
-0.349980
 20
2.362130
  0
VERTEX
  8
PLAN_1
 62
     5
  6
CONTINUOUS
 10
-0.349980
 20
2.370476
  0
SEQEND
  8
0
  0
POLYLINE
  8
PLAN_1
 62
     5
  6
CONTINUOUS
 66
     1
 40
0.003000
 41
0.003000
  0
VERTEX
  8
PLAN_1
 62
     5
  6
CONTINUOUS
 10
-0.349980
 20
2.378823
  0
VERTEX
  8
PLAN_1
 62
     5
  6
CONTINUOUS
 10
-0.349980
 20
2.387169
  0
SEQEND
  8
0
  0
POLYLINE
  8
PLAN_1
 62
     5
  6
CONTINUOUS
 66
     1
 40
0.003000
 41
0.003000
  0
VERTEX
  8
PLAN_1
 62
     5
  6
CONTINUOUS
 10
-0.349980
 20
2.395075
  0
VERTEX
  8
PLAN_1
 62
     5
  6
CONTINUOUS
 10
-0.349980
 20
2.403421
  0
SEQEND
  8
0
  0
POLYLINE
  8
PLAN_1
 62
     5
  6
CONTINUOUS
 66
     1
 40
0.003000
 41
0.003000
  0
VERTEX
  8
PLAN_1
 62
     5
  6
CONTINUOUS
 10
-0.349980
 20
2.411764
  0
VERTEX
  8
PLAN_1
 62
     5
  6
CONTINUOUS
 10
-0.349980
 20
2.420110
  0
SEQEND
  8
0
  0
POLYLINE
  8
PLAN_1
 62
     5
  6
CONTINUOUS
 66
     1
 40
0.003000
 41
0.003000
  0
VERTEX
  8
PLAN_1
 62
     5
  6
CONTINUOUS
 10
-0.349980
 20
2.428457
  0
VERTEX
  8
PLAN_1
 62
     5
  6
CONTINUOUS
 10
-0.349980
 20
2.436803
  0
SEQEND
  8
0
  0
POLYLINE
  8
PLAN_1
 62
     5
  6
CONTINUOUS
 66
     1
 40
0.003000
 41
0.003000
  0
VERTEX
  8
PLAN_1
 62
     5
  6
CONTINUOUS
 10
-0.349980
 20
2.445146
  0
VERTEX
  8
PLAN_1
 62
     5
  6
CONTINUOUS
 10
-0.349980
 20
2.453492
  0
SEQEND
  8
0
  0
POLYLINE
  8
PLAN_1
 62
     5
  6
CONTINUOUS
 66
     1
 40
0.003000
 41
0.003000
  0
VERTEX
  8
PLAN_1
 62
     5
  6
CONTINUOUS
 10
-0.349980
 20
2.461839
  0
VERTEX
  8
PLAN_1
 62
     5
  6
CONTINUOUS
 10
-0.349980
 20
2.470185
  0
SEQEND
  8
0
  0
POLYLINE
  8
PLAN_1
 62
     5
  6
CONTINUOUS
 66
     1
 40
0.003000
 41
0.003000
  0
VERTEX
  8
PLAN_1
 62
     5
  6
CONTINUOUS
 10
-0.349980
 20
2.478528
  0
VERTEX
  8
PLAN_1
 62
     5
  6
CONTINUOUS
 10
-0.349980
 20
2.486874
  0
SEQEND
  8
0
  0
POLYLINE
  8
PLAN_1
 62
     5
  6
CONTINUOUS
 66
     1
 40
0.003000
 41
0.003000
  0
VERTEX
  8
PLAN_1
 62
     5
  6
CONTINUOUS
 10
-0.349980
 20
2.495220
  0
VERTEX
  8
PLAN_1
 62
     5
  6
CONTINUOUS
 10
-0.349980
 20
2.503567
  0
SEQEND
  8
0
  0
POLYLINE
  8
PLAN_1
 62
     5
  6
CONTINUOUS
 66
     1
 40
0.003000
 41
0.003000
  0
VERTEX
  8
PLAN_1
 62
     5
  6
CONTINUOUS
 10
-0.349980
 20
2.511909
  0
VERTEX
  8
PLAN_1
 62
     5
  6
CONTINUOUS
 10
-0.349980
 20
2.520256
  0
SEQEND
  8
0
  0
POLYLINE
  8
PLAN_1
 62
     5
  6
CONTINUOUS
 66
     1
 40
0.003000
 41
0.003000
  0
VERTEX
  8
PLAN_1
 62
     5
  6
CONTINUOUS
 10
-0.349980
 20
2.528602
  0
VERTEX
  8
PLAN_1
 62
     5
  6
CONTINUOUS
 10
-0.349980
 20
2.536949
  0
SEQEND
  8
0
  0
POLYLINE
  8
PLAN_1
 62
     5
  6
CONTINUOUS
 66
     1
 40
0.003000
 41
0.003000
  0
VERTEX
  8
PLAN_1
 62
     5
  6
CONTINUOUS
 10
-0.349980
 20
2.545291
  0
VERTEX
  8
PLAN_1
 62
     5
  6
CONTINUOUS
 10
-0.349980
 20
2.553638
  0
SEQEND
  8
0
  0
POLYLINE
  8
PLAN_1
 62
     5
  6
CONTINUOUS
 66
     1
 40
0.003000
 41
0.003000
  0
VERTEX
  8
PLAN_1
 62
     5
  6
CONTINUOUS
 10
-0.349980
 20
2.561984
  0
VERTEX
  8
PLAN_1
 62
     5
  6
CONTINUOUS
 10
-0.349980
 20
2.570331
  0
SEQEND
  8
0
  0
POLYLINE
  8
PLAN_1
 62
     5
  6
CONTINUOUS
 66
     1
 40
0.003000
 41
0.003000
  0
VERTEX
  8
PLAN_1
 62
     5
  6
CONTINUOUS
 10
-0.349980
 20
2.578673
  0
VERTEX
  8
PLAN_1
 62
     5
  6
CONTINUOUS
 10
-0.349980
 20
2.587020
  0
SEQEND
  8
0
  0
POLYLINE
  8
PLAN_1
 62
     5
  6
CONTINUOUS
 66
     1
 40
0.003000
 41
0.003000
  0
VERTEX
  8
PLAN_1
 62
     5
  6
CONTINUOUS
 10
-0.349980
 20
2.595366
  0
VERTEX
  8
PLAN_1
 62
     5
  6
CONTINUOUS
 10
-0.349980
 20
2.603709
  0
SEQEND
  8
0
  0
POLYLINE
  8
PLAN_1
 62
     5
  6
CONTINUOUS
 66
     1
 40
0.003000
 41
0.003000
  0
VERTEX
  8
PLAN_1
 62
     5
  6
CONTINUOUS
 10
-0.349980
 20
2.612055
  0
VERTEX
  8
PLAN_1
 62
     5
  6
CONTINUOUS
 10
-0.349980
 20
2.619961
  0
SEQEND
  8
0
  0
POLYLINE
  8
PLAN_1
 62
     5
  6
CONTINUOUS
 66
     1
 40
0.003000
 41
0.003000
  0
VERTEX
  8
PLAN_1
 62
     5
  6
CONTINUOUS
 10
-0.349980
 20
2.628307
  0
VERTEX
  8
PLAN_1
 62
     5
  6
CONTINUOUS
 10
-0.349980
 20
2.636654
  0
SEQEND
  8
0
  0
POLYLINE
  8
PLAN_1
 62
     5
  6
CONTINUOUS
 66
     1
 40
0.003000
 41
0.003000
  0
VERTEX
  8
PLAN_1
 62
     5
  6
CONTINUOUS
 10
-0.349980
 20
2.645000
  0
VERTEX
  8
PLAN_1
 62
     5
  6
CONTINUOUS
 10
-0.349980
 20
2.653343
  0
SEQEND
  8
0
  0
POLYLINE
  8
PLAN_1
 62
     5
  6
CONTINUOUS
 66
     1
 40
0.003000
 41
0.003000
  0
VERTEX
  8
PLAN_1
 62
     5
  6
CONTINUOUS
 10
-0.349980
 20
2.661689
  0
VERTEX
  8
PLAN_1
 62
     5
  6
CONTINUOUS
 10
-0.349980
 20
2.670035
  0
SEQEND
  8
0
  0
POLYLINE
  8
PLAN_1
 62
     5
  6
CONTINUOUS
 66
     1
 40
0.003000
 41
0.003000
  0
VERTEX
  8
PLAN_1
 62
     5
  6
CONTINUOUS
 10
-0.349980
 20
2.678382
  0
VERTEX
  8
PLAN_1
 62
     5
  6
CONTINUOUS
 10
-0.349980
 20
2.686724
  0
SEQEND
  8
0
  0
POLYLINE
  8
PLAN_1
 62
     5
  6
CONTINUOUS
 66
     1
 40
0.003000
 41
0.003000
  0
VERTEX
  8
PLAN_1
 62
     5
  6
CONTINUOUS
 10
-0.349980
 20
2.695071
  0
VERTEX
  8
PLAN_1
 62
     5
  6
CONTINUOUS
 10
-0.349980
 20
2.703417
  0
SEQEND
  8
0
  0
POLYLINE
  8
PLAN_1
 62
     5
  6
CONTINUOUS
 66
     1
 40
0.003000
 41
0.003000
  0
VERTEX
  8
PLAN_1
 62
     5
  6
CONTINUOUS
 10
-0.349980
 20
2.711764
  0
VERTEX
  8
PLAN_1
 62
     5
  6
CONTINUOUS
 10
-0.349980
 20
2.720106
  0
SEQEND
  8
0
  0
POLYLINE
  8
PLAN_1
 62
     5
  6
CONTINUOUS
 66
     1
 40
0.003000
 41
0.003000
  0
VERTEX
  8
PLAN_1
 62
     5
  6
CONTINUOUS
 10
-0.349980
 20
2.728453
  0
VERTEX
  8
PLAN_1
 62
     5
  6
CONTINUOUS
 10
-0.349980
 20
2.736799
  0
SEQEND
  8
0
  0
POLYLINE
  8
PLAN_1
 62
     5
  6
CONTINUOUS
 66
     1
 40
0.003000
 41
0.003000
  0
VERTEX
  8
PLAN_1
 62
     5
  6
CONTINUOUS
 10
-0.349980
 20
2.745146
  0
VERTEX
  8
PLAN_1
 62
     5
  6
CONTINUOUS
 10
-0.349980
 20
2.753488
  0
SEQEND
  8
0
  0
POLYLINE
  8
PLAN_1
 62
     5
  6
CONTINUOUS
 66
     1
 40
0.003000
 41
0.003000
  0
VERTEX
  8
PLAN_1
 62
     5
  6
CONTINUOUS
 10
-0.349980
 20
2.761835
  0
VERTEX
  8
PLAN_1
 62
     5
  6
CONTINUOUS
 10
-0.349980
 20
2.770181
  0
SEQEND
  8
0
  0
POLYLINE
  8
PLAN_1
 62
     5
  6
CONTINUOUS
 66
     1
 40
0.003000
 41
0.003000
  0
VERTEX
  8
PLAN_1
 62
     5
  6
CONTINUOUS
 10
-0.349980
 20
2.778528
  0
VERTEX
  8
PLAN_1
 62
     5
  6
CONTINUOUS
 10
-0.349980
 20
2.786870
  0
SEQEND
  8
0
  0
POLYLINE
  8
PLAN_1
 62
     5
  6
CONTINUOUS
 66
     1
 40
0.003000
 41
0.003000
  0
VERTEX
  8
PLAN_1
 62
     5
  6
CONTINUOUS
 10
-0.349980
 20
2.795217
  0
VERTEX
  8
PLAN_1
 62
     5
  6
CONTINUOUS
 10
-0.349980
 20
2.803563
  0
SEQEND
  8
0
  0
POLYLINE
  8
PLAN_1
 62
     5
  6
CONTINUOUS
 66
     1
 40
0.003000
 41
0.003000
  0
VERTEX
  8
PLAN_1
 62
     5
  6
CONTINUOUS
 10
-0.349980
 20
2.811909
  0
VERTEX
  8
PLAN_1
 62
     5
  6
CONTINUOUS
 10
-0.349980
 20
2.820252
  0
SEQEND
  8
0
  0
POLYLINE
  8
PLAN_1
 62
     5
  6
CONTINUOUS
 66
     1
 40
0.003000
 41
0.003000
  0
VERTEX
  8
PLAN_1
 62
     5
  6
CONTINUOUS
 10
-0.349980
 20
2.828598
  0
VERTEX
  8
PLAN_1
 62
     5
  6
CONTINUOUS
 10
-0.349980
 20
2.836945
  0
SEQEND
  8
0
  0
POLYLINE
  8
PLAN_1
 62
     5
  6
CONTINUOUS
 66
     1
 40
0.003000
 41
0.003000
  0
VERTEX
  8
PLAN_1
 62
     5
  6
CONTINUOUS
 10
-0.349980
 20
2.845291
  0
VERTEX
  8
PLAN_1
 62
     5
  6
CONTINUOUS
 10
-0.349980
 20
2.853197
  0
SEQEND
  8
0
  0
POLYLINE
  8
PLAN_1
 62
     5
  6
CONTINUOUS
 66
     1
 40
0.003000
 41
0.003000
  0
VERTEX
  8
PLAN_1
 62
     5
  6
CONTINUOUS
 10
-0.349980
 20
2.861539
  0
VERTEX
  8
PLAN_1
 62
     5
  6
CONTINUOUS
 10
-0.349980
 20
2.869886
  0
SEQEND
  8
0
  0
POLYLINE
  8
PLAN_1
 62
     5
  6
CONTINUOUS
 66
     1
 40
0.003000
 41
0.003000
  0
VERTEX
  8
PLAN_1
 62
     5
  6
CONTINUOUS
 10
-0.349980
 20
2.878232
  0
VERTEX
  8
PLAN_1
 62
     5
  6
CONTINUOUS
 10
-0.349980
 20
2.886579
  0
SEQEND
  8
0
  0
POLYLINE
  8
PLAN_1
 62
     5
  6
CONTINUOUS
 66
     1
 40
0.003000
 41
0.003000
  0
VERTEX
  8
PLAN_1
 62
     5
  6
CONTINUOUS
 10
-0.349980
 20
2.894921
  0
VERTEX
  8
PLAN_1
 62
     5
  6
CONTINUOUS
 10
-0.349980
 20
2.903268
  0
SEQEND
  8
0
  0
POLYLINE
  8
PLAN_1
 62
     5
  6
CONTINUOUS
 66
     1
 40
0.003000
 41
0.003000
  0
VERTEX
  8
PLAN_1
 62
     5
  6
CONTINUOUS
 10
-0.349980
 20
2.911614
  0
VERTEX
  8
PLAN_1
 62
     5
  6
CONTINUOUS
 10
-0.349980
 20
2.919961
  0
SEQEND
  8
0
  0
POLYLINE
  8
PLAN_1
 62
     5
  6
CONTINUOUS
 66
     1
 40
0.003000
 41
0.003000
  0
VERTEX
  8
PLAN_1
 62
     5
  6
CONTINUOUS
 10
-0.349980
 20
2.928303
  0
VERTEX
  8
PLAN_1
 62
     5
  6
CONTINUOUS
 10
-0.349980
 20
2.936650
  0
SEQEND
  8
0
  0
POLYLINE
  8
PLAN_1
 62
     5
  6
CONTINUOUS
 66
     1
 40
0.003000
 41
0.003000
  0
VERTEX
  8
PLAN_1
 62
     5
  6
CONTINUOUS
 10
-0.349980
 20
2.944996
  0
VERTEX
  8
PLAN_1
 62
     5
  6
CONTINUOUS
 10
-0.349980
 20
2.953343
  0
SEQEND
  8
0
  0
POLYLINE
  8
PLAN_1
 62
     5
  6
CONTINUOUS
 66
     1
 40
0.003000
 41
0.003000
  0
VERTEX
  8
PLAN_1
 62
     5
  6
CONTINUOUS
 10
-0.349980
 20
2.961685
  0
VERTEX
  8
PLAN_1
 62
     5
  6
CONTINUOUS
 10
-0.349980
 20
2.970031
  0
SEQEND
  8
0
  0
POLYLINE
  8
PLAN_1
 62
     5
  6
CONTINUOUS
 66
     1
 40
0.003000
 41
0.003000
  0
VERTEX
  8
PLAN_1
 62
     5
  6
CONTINUOUS
 10
-0.349980
 20
2.978378
  0
VERTEX
  8
PLAN_1
 62
     5
  6
CONTINUOUS
 10
-0.349980
 20
2.986724
  0
SEQEND
  8
0
  0
POLYLINE
  8
PLAN_1
 62
     5
  6
CONTINUOUS
 66
     1
 40
0.003000
 41
0.003000
  0
VERTEX
  8
PLAN_1
 62
     5
  6
CONTINUOUS
 10
-0.349980
 20
2.995067
  0
VERTEX
  8
PLAN_1
 62
     5
  6
CONTINUOUS
 10
-0.349980
 20
3.003413
  0
SEQEND
  8
0
  0
POLYLINE
  8
PLAN_1
 62
     5
  6
CONTINUOUS
 66
     1
 40
0.003000
 41
0.003000
  0
VERTEX
  8
PLAN_1
 62
     5
  6
CONTINUOUS
 10
-0.349980
 20
3.011760
  0
VERTEX
  8
PLAN_1
 62
     5
  6
CONTINUOUS
 10
-0.349980
 20
3.020106
  0
SEQEND
  8
0
  0
POLYLINE
  8
PLAN_1
 62
     5
  6
CONTINUOUS
 66
     1
 40
0.003000
 41
0.003000
  0
VERTEX
  8
PLAN_1
 62
     5
  6
CONTINUOUS
 10
-0.349980
 20
3.028449
  0
VERTEX
  8
PLAN_1
 62
     5
  6
CONTINUOUS
 10
-0.349980
 20
3.036795
  0
SEQEND
  8
0
  0
POLYLINE
  8
PLAN_1
 62
     5
  6
CONTINUOUS
 66
     1
 40
0.003000
 41
0.003000
  0
VERTEX
  8
PLAN_1
 62
     5
  6
CONTINUOUS
 10
-0.349980
 20
3.045142
  0
VERTEX
  8
PLAN_1
 62
     5
  6
CONTINUOUS
 10
-0.349980
 20
3.053488
  0
SEQEND
  8
0
  0
POLYLINE
  8
PLAN_1
 62
     5
  6
CONTINUOUS
 66
     1
 40
0.003000
 41
0.003000
  0
VERTEX
  8
PLAN_1
 62
     5
  6
CONTINUOUS
 10
-0.349980
 20
3.061831
  0
VERTEX
  8
PLAN_1
 62
     5
  6
CONTINUOUS
 10
-0.349980
 20
3.070177
  0
SEQEND
  8
0
  0
POLYLINE
  8
PLAN_1
 62
     5
  6
CONTINUOUS
 66
     1
 40
0.003000
 41
0.003000
  0
VERTEX
  8
PLAN_1
 62
     5
  6
CONTINUOUS
 10
-0.349980
 20
3.078083
  0
VERTEX
  8
PLAN_1
 62
     5
  6
CONTINUOUS
 10
-0.349980
 20
3.086429
  0
SEQEND
  8
0
  0
POLYLINE
  8
PLAN_1
 62
     5
  6
CONTINUOUS
 66
     1
 40
0.003000
 41
0.003000
  0
VERTEX
  8
PLAN_1
 62
     5
  6
CONTINUOUS
 10
-0.349980
 20
3.094776
  0
VERTEX
  8
PLAN_1
 62
     5
  6
CONTINUOUS
 10
-0.349980
 20
3.103118
  0
SEQEND
  8
0
  0
POLYLINE
  8
PLAN_1
 62
     5
  6
CONTINUOUS
 66
     1
 40
0.003000
 41
0.003000
  0
VERTEX
  8
PLAN_1
 62
     5
  6
CONTINUOUS
 10
-0.349980
 20
3.111465
  0
VERTEX
  8
PLAN_1
 62
     5
  6
CONTINUOUS
 10
-0.349980
 20
3.119811
  0
SEQEND
  8
0
  0
POLYLINE
  8
PLAN_1
 62
     5
  6
CONTINUOUS
 66
     1
 40
0.003000
 41
0.003000
  0
VERTEX
  8
PLAN_1
 62
     5
  6
CONTINUOUS
 10
-0.349980
 20
3.128157
  0
VERTEX
  8
PLAN_1
 62
     5
  6
CONTINUOUS
 10
-0.349980
 20
3.136500
  0
SEQEND
  8
0
  0
POLYLINE
  8
PLAN_1
 62
     5
  6
CONTINUOUS
 66
     1
 40
0.003000
 41
0.003000
  0
VERTEX
  8
PLAN_1
 62
     5
  6
CONTINUOUS
 10
-0.349980
 20
3.144846
  0
VERTEX
  8
PLAN_1
 62
     5
  6
CONTINUOUS
 10
-0.349980
 20
3.153193
  0
SEQEND
  8
0
  0
POLYLINE
  8
PLAN_1
 62
     5
  6
CONTINUOUS
 66
     1
 40
0.003000
 41
0.003000
  0
VERTEX
  8
PLAN_1
 62
     5
  6
CONTINUOUS
 10
-0.349980
 20
3.161539
  0
VERTEX
  8
PLAN_1
 62
     5
  6
CONTINUOUS
 10
-0.349980
 20
3.169882
  0
SEQEND
  8
0
  0
POLYLINE
  8
PLAN_1
 62
     5
  6
CONTINUOUS
 66
     1
 40
0.003000
 41
0.003000
  0
VERTEX
  8
PLAN_1
 62
     5
  6
CONTINUOUS
 10
-0.349980
 20
3.178228
  0
VERTEX
  8
PLAN_1
 62
     5
  6
CONTINUOUS
 10
-0.349980
 20
3.186575
  0
SEQEND
  8
0
  0
POLYLINE
  8
PLAN_1
 62
     5
  6
CONTINUOUS
 66
     1
 40
0.003000
 41
0.003000
  0
VERTEX
  8
PLAN_1
 62
     5
  6
CONTINUOUS
 10
-0.349980
 20
3.194921
  0
VERTEX
  8
PLAN_1
 62
     5
  6
CONTINUOUS
 10
-0.349980
 20
3.203264
  0
SEQEND
  8
0
  0
POLYLINE
  8
PLAN_1
 62
     5
  6
CONTINUOUS
 66
     1
 40
0.003000
 41
0.003000
  0
VERTEX
  8
PLAN_1
 62
     5
  6
CONTINUOUS
 10
-0.349980
 20
3.211610
  0
VERTEX
  8
PLAN_1
 62
     5
  6
CONTINUOUS
 10
-0.349980
 20
3.219957
  0
SEQEND
  8
0
  0
POLYLINE
  8
PLAN_1
 62
     5
  6
CONTINUOUS
 66
     1
 40
0.003000
 41
0.003000
  0
VERTEX
  8
PLAN_1
 62
     5
  6
CONTINUOUS
 10
-0.349980
 20
3.228303
  0
VERTEX
  8
PLAN_1
 62
     5
  6
CONTINUOUS
 10
-0.349980
 20
3.229181
  0
SEQEND
  8
0
  0
POLYLINE
  8
PLAN_1
 62
     5
  6
CONTINUOUS
 66
     1
 40
0.003000
 41
0.003000
  0
VERTEX
  8
PLAN_1
 62
     5
  6
CONTINUOUS
 10
-0.349980
 20
3.228303
  0
VERTEX
  8
PLAN_1
 62
     5
  6
CONTINUOUS
 10
-0.349980
 20
3.229181
  0
SEQEND
  8
0
  0
POLYLINE
  8
PLAN_1
 62
     2
  6
CONTINUOUS
 66
     1
 40
0.003953
 41
0.003953
  0
VERTEX
  8
PLAN_1
 62
     2
  6
CONTINUOUS
 10
-2.150402
 20
0.626280
  0
VERTEX
  8
PLAN_1
 62
     2
  6
CONTINUOUS
 10
-0.164185
 20
0.626280
  0
SEQEND
  8
0
  0
SOLID
  8
PLAN_1
 62
     2
 10
-0.631969
 20
0.626280
 11
-0.690827
 21
0.642091
 12
-0.631969
 22
0.626280
 13
-0.690827
 23
0.610465
  0
POLYLINE
  8
PLAN_1
 62
     2
  6
CONTINUOUS
 66
     1
 40
0.003000
 41
0.003000
  0
VERTEX
  8
PLAN_1
 62
     2
  6
CONTINUOUS
 10
-0.631969
 20
0.626280
  0
VERTEX
  8
PLAN_1
 62
     2
  6
CONTINUOUS
 10
-0.690827
 20
0.642091
  0
VERTEX
  8
PLAN_1
 62
     2
  6
CONTINUOUS
 10
-0.690827
 20
0.610465
  0
VERTEX
  8
PLAN_1
 62
     2
  6
CONTINUOUS
 10
-0.631969
 20
0.626280
  0
SEQEND
  8
0
  0
SOLID
  8
PLAN_1
 62
     2
 10
-1.958016
 20
0.626280
 11
-2.016874
 21
0.642091
 12
-1.958016
 22
0.626280
 13
-2.016874
 23
0.610465
  0
POLYLINE
  8
PLAN_1
 62
     2
  6
CONTINUOUS
 66
     1
 40
0.003000
 41
0.003000
  0
VERTEX
  8
PLAN_1
 62
     2
  6
CONTINUOUS
 10
-1.958016
 20
0.626280
  0
VERTEX
  8
PLAN_1
 62
     2
  6
CONTINUOUS
 10
-2.016874
 20
0.642091
  0
VERTEX
  8
PLAN_1
 62
     2
  6
CONTINUOUS
 10
-2.016874
 20
0.610465
  0
VERTEX
  8
PLAN_1
 62
     2
  6
CONTINUOUS
 10
-1.958016
 20
0.626280
  0
SEQEND
  8
0
  0
SOLID
  8
PLAN_1
 62
     2
 10
-1.688768
 20
0.626280
 11
-1.629909
 21
0.642091
 12
-1.688768
 22
0.626280
 13
-1.629909
 23
0.610465
  0
POLYLINE
  8
PLAN_1
 62
     2
  6
CONTINUOUS
 66
     1
 40
0.003000
 41
0.003000
  0
VERTEX
  8
PLAN_1
 62
     2
  6
CONTINUOUS
 10
-1.688768
 20
0.626280
  0
VERTEX
  8
PLAN_1
 62
     2
  6
CONTINUOUS
 10
-1.629909
 20
0.642091
  0
VERTEX
  8
PLAN_1
 62
     2
  6
CONTINUOUS
 10
-1.629909
 20
0.610465
  0
VERTEX
  8
PLAN_1
 62
     2
  6
CONTINUOUS
 10
-1.688768
 20
0.626280
  0
SEQEND
  8
0
  0
SOLID
  8
PLAN_1
 62
     2
 10
-0.344272
 20
0.626280
 11
-0.284976
 21
0.642091
 12
-0.344272
 22
0.626280
 13
-0.284976
 23
0.610465
  0
POLYLINE
  8
PLAN_1
 62
     2
  6
CONTINUOUS
 66
     1
 40
0.003000
 41
0.003000
  0
VERTEX
  8
PLAN_1
 62
     2
  6
CONTINUOUS
 10
-0.344272
 20
0.626280
  0
VERTEX
  8
PLAN_1
 62
     2
  6
CONTINUOUS
 10
-0.284976
 20
0.642091
  0
VERTEX
  8
PLAN_1
 62
     2
  6
CONTINUOUS
 10
-0.284976
 20
0.610465
  0
VERTEX
  8
PLAN_1
 62
     2
  6
CONTINUOUS
 10
-0.344272
 20
0.626280
  0
SEQEND
  8
0
  0
POLYLINE
  8
PLAN_1
 62
     2
  6
CONTINUOUS
 66
     1
 40
0.003000
 41
0.003000
  0
VERTEX
  8
PLAN_1
 62
     2
  6
CONTINUOUS
 10
-1.210441
 20
0.696555
  0
VERTEX
  8
PLAN_1
 62
     2
  6
CONTINUOUS
 10
-1.210441
 20
0.700949
  0
VERTEX
  8
PLAN_1
 62
     2
  6
CONTINUOUS
 10
-1.210000
 20
0.704902
  0
VERTEX
  8
PLAN_1
 62
     2
  6
CONTINUOUS
 10
-1.209122
 20
0.707976
  0
VERTEX
  8
PLAN_1
 62
     2
  6
CONTINUOUS
 10
-1.207807
 20
0.711051
  0
VERTEX
  8
PLAN_1
 62
     2
  6
CONTINUOUS
 10
-1.206488
 20
0.713248
  0
VERTEX
  8
PLAN_1
 62
     2
  6
CONTINUOUS
 10
-1.204732
 20
0.715441
  0
VERTEX
  8
PLAN_1
 62
     2
  6
CONTINUOUS
 10
-1.202972
 20
0.717201
  0
VERTEX
  8
PLAN_1
 62
     2
  6
CONTINUOUS
 10
-1.200780
 20
0.718957
  0
VERTEX
  8
PLAN_1
 62
     2
  6
CONTINUOUS
 10
-1.196823
 20
0.720713
  0
VERTEX
  8
PLAN_1
 62
     2
  6
CONTINUOUS
 10
-1.192433
 20
0.722031
  0
VERTEX
  8
PLAN_1
 62
     2
  6
CONTINUOUS
 10
-1.188917
 20
0.722909
  0
VERTEX
  8
PLAN_1
 62
     2
  6
CONTINUOUS
 10
-1.185406
 20
0.722909
  0
VERTEX
  8
PLAN_1
 62
     2
  6
CONTINUOUS
 10
-1.180575
 20
0.722472
  0
VERTEX
  8
PLAN_1
 62
     2
  6
CONTINUOUS
 10
-1.176618
 20
0.721591
  0
VERTEX
  8
PLAN_1
 62
     2
  6
CONTINUOUS
 10
-1.172665
 20
0.719835
  0
VERTEX
  8
PLAN_1
 62
     2
  6
CONTINUOUS
 10
-1.169154
 20
0.717201
  0
VERTEX
  8
PLAN_1
 62
     2
  6
CONTINUOUS
 10
-1.167835
 20
0.715441
  0
VERTEX
  8
PLAN_1
 62
     2
  6
CONTINUOUS
 10
-1.166516
 20
0.714126
  0
VERTEX
  8
PLAN_1
 62
     2
  6
CONTINUOUS
 10
-1.165201
 20
0.712370
  0
VERTEX
  8
PLAN_1
 62
     2
  6
CONTINUOUS
 10
-1.164323
 20
0.710173
  0
VERTEX
  8
PLAN_1
 62
     2
  6
CONTINUOUS
 10
-1.163441
 20
0.707976
  0
VERTEX
  8
PLAN_1
 62
     2
  6
CONTINUOUS
 10
-1.163004
 20
0.705780
  0
VERTEX
  8
PLAN_1
 62
     2
  6
CONTINUOUS
 10
-1.162563
 20
0.703583
  0
VERTEX
  8
PLAN_1
 62
     2
  6
CONTINUOUS
 10
-1.162563
 20
0.700949
  0
VERTEX
  8
PLAN_1
 62
     2
  6
CONTINUOUS
 10
-1.163004
 20
0.696555
  0
VERTEX
  8
PLAN_1
 62
     2
  6
CONTINUOUS
 10
-1.163882
 20
0.692602
  0
VERTEX
  8
PLAN_1
 62
     2
  6
CONTINUOUS
 10
-1.165638
 20
0.689091
  0
VERTEX
  8
PLAN_1
 62
     2
  6
CONTINUOUS
 10
-1.168276
 20
0.686016
  0
VERTEX
  8
PLAN_1
 62
     2
  6
CONTINUOUS
 10
-1.170909
 20
0.683378
  0
VERTEX
  8
PLAN_1
 62
     2
  6
CONTINUOUS
 10
-1.174425
 20
0.681181
  0
VERTEX
  8
PLAN_1
 62
     2
  6
CONTINUOUS
 10
-1.177937
 20
0.678988
  0
VERTEX
  8
PLAN_1
 62
     2
  6
CONTINUOUS
 10
-1.181890
 20
0.676791
  0
VERTEX
  8
PLAN_1
 62
     2
  6
CONTINUOUS
 10
-1.189795
 20
0.672398
  0
VERTEX
  8
PLAN_1
 62
     2
  6
CONTINUOUS
 10
-1.192870
 20
0.670201
  0
VERTEX
  8
PLAN_1
 62
     2
  6
CONTINUOUS
 10
-1.195945
 20
0.668445
  0
VERTEX
  8
PLAN_1
 62
     2
  6
CONTINUOUS
 10
-1.197705
 20
0.666248
  0
VERTEX
  8
PLAN_1
 62
     2
  6
CONTINUOUS
 10
-1.199461
 20
0.664492
  0
VERTEX
  8
PLAN_1
 62
     2
  6
CONTINUOUS
 10
-1.200780
 20
0.662736
  0
VERTEX
  8
PLAN_1
 62
     2
  6
CONTINUOUS
 10
-1.201657
 20
0.660976
  0
VERTEX
  8
PLAN_1
 62
     2
  6
CONTINUOUS
 10
-1.202094
 20
0.659661
  0
VERTEX
  8
PLAN_1
 62
     2
  6
CONTINUOUS
 10
-1.202094
 20
0.658343
  0
VERTEX
  8
PLAN_1
 62
     2
  6
CONTINUOUS
 10
-1.162563
 20
0.658343
  0
VERTEX
  8
PLAN_1
 62
     2
  6
CONTINUOUS
 10
-1.162563
 20
0.649996
  0
VERTEX
  8
PLAN_1
 62
     2
  6
CONTINUOUS
 10
-1.212638
 20
0.649996
  0
VERTEX
  8
PLAN_1
 62
     2
  6
CONTINUOUS
 10
-1.212197
 20
0.655268
  0
VERTEX
  8
PLAN_1
 62
     2
  6
CONTINUOUS
 10
-1.210882
 20
0.660098
  0
VERTEX
  8
PLAN_1
 62
     2
  6
CONTINUOUS
 10
-1.209563
 20
0.664051
  0
VERTEX
  8
PLAN_1
 62
     2
  6
CONTINUOUS
 10
-1.207366
 20
0.668004
  0
VERTEX
  8
PLAN_1
 62
     2
  6
CONTINUOUS
 10
-1.204732
 20
0.671079
  0
VERTEX
  8
PLAN_1
 62
     2
  6
CONTINUOUS
 10
-1.202094
 20
0.674154
  0
VERTEX
  8
PLAN_1
 62
     2
  6
CONTINUOUS
 10
-1.199020
 20
0.676350
  0
VERTEX
  8
PLAN_1
 62
     2
  6
CONTINUOUS
 10
-1.195508
 20
0.678988
  0
VERTEX
  8
PLAN_1
 62
     2
  6
CONTINUOUS
 10
-1.185843
 20
0.684256
  0
VERTEX
  8
PLAN_1
 62
     2
  6
CONTINUOUS
 10
-1.182768
 20
0.686016
  0
VERTEX
  8
PLAN_1
 62
     2
  6
CONTINUOUS
 10
-1.180134
 20
0.687772
  0
VERTEX
  8
PLAN_1
 62
     2
  6
CONTINUOUS
 10
-1.177937
 20
0.689091
  0
VERTEX
  8
PLAN_1
 62
     2
  6
CONTINUOUS
 10
-1.176181
 20
0.690846
  0
VERTEX
  8
PLAN_1
 62
     2
  6
CONTINUOUS
 10
-1.174425
 20
0.693043
  0
VERTEX
  8
PLAN_1
 62
     2
  6
CONTINUOUS
 10
-1.173106
 20
0.695236
  0
VERTEX
  8
PLAN_1
 62
     2
  6
CONTINUOUS
 10
-1.172665
 20
0.698311
  0
VERTEX
  8
PLAN_1
 62
     2
  6
CONTINUOUS
 10
-1.172228
 20
0.701386
  0
VERTEX
  8
PLAN_1
 62
     2
  6
CONTINUOUS
 10
-1.172228
 20
0.703583
  0
VERTEX
  8
PLAN_1
 62
     2
  6
CONTINUOUS
 10
-1.173106
 20
0.706220
  0
VERTEX
  8
PLAN_1
 62
     2
  6
CONTINUOUS
 10
-1.173984
 20
0.708413
  0
VERTEX
  8
PLAN_1
 62
     2
  6
CONTINUOUS
 10
-1.175303
 20
0.710173
  0
VERTEX
  8
PLAN_1
 62
     2
  6
CONTINUOUS
 10
-1.177500
 20
0.711929
  0
VERTEX
  8
PLAN_1
 62
     2
  6
CONTINUOUS
 10
-1.179693
 20
0.713685
  0
VERTEX
  8
PLAN_1
 62
     2
  6
CONTINUOUS
 10
-1.183209
 20
0.714563
  0
VERTEX
  8
PLAN_1
 62
     2
  6
CONTINUOUS
 10
-1.186720
 20
0.714563
  0
VERTEX
  8
PLAN_1
 62
     2
  6
CONTINUOUS
 10
-1.188917
 20
0.714563
  0
VERTEX
  8
PLAN_1
 62
     2
  6
CONTINUOUS
 10
-1.191114
 20
0.714126
  0
VERTEX
  8
PLAN_1
 62
     2
  6
CONTINUOUS
 10
-1.193311
 20
0.713685
  0
VERTEX
  8
PLAN_1
 62
     2
  6
CONTINUOUS
 10
-1.194630
 20
0.712807
  0
VERTEX
  8
PLAN_1
 62
     2
  6
CONTINUOUS
 10
-1.196386
 20
0.711488
  0
VERTEX
  8
PLAN_1
 62
     2
  6
CONTINUOUS
 10
-1.197264
 20
0.710173
  0
VERTEX
  8
PLAN_1
 62
     2
  6
CONTINUOUS
 10
-1.198142
 20
0.708854
  0
VERTEX
  8
PLAN_1
 62
     2
  6
CONTINUOUS
 10
-1.199020
 20
0.707535
  0
VERTEX
  8
PLAN_1
 62
     2
  6
CONTINUOUS
 10
-1.200339
 20
0.704461
  0
VERTEX
  8
PLAN_1
 62
     2
  6
CONTINUOUS
 10
-1.200780
 20
0.701827
  0
VERTEX
  8
PLAN_1
 62
     2
  6
CONTINUOUS
 10
-1.201217
 20
0.698752
  0
VERTEX
  8
PLAN_1
 62
     2
  6
CONTINUOUS
 10
-1.201657
 20
0.696555
  0
VERTEX
  8
PLAN_1
 62
     2
  6
CONTINUOUS
 10
-1.210441
 20
0.696555
  0
SEQEND
  8
0
  0
POLYLINE
  8
PLAN_1
 62
     2
  6
CONTINUOUS
 66
     1
 40
0.003000
 41
0.003000
  0
VERTEX
  8
PLAN_1
 62
     2
  6
CONTINUOUS
 10
-1.153339
 20
0.721591
  0
VERTEX
  8
PLAN_1
 62
     2
  6
CONTINUOUS
 10
-1.102827
 20
0.721591
  0
VERTEX
  8
PLAN_1
 62
     2
  6
CONTINUOUS
 10
-1.102827
 20
0.713248
  0
VERTEX
  8
PLAN_1
 62
     2
  6
CONTINUOUS
 10
-1.105902
 20
0.709732
  0
VERTEX
  8
PLAN_1
 62
     2
  6
CONTINUOUS
 10
-1.109854
 20
0.704902
  0
VERTEX
  8
PLAN_1
 62
     2
  6
CONTINUOUS
 10
-1.114248
 20
0.698311
  0
VERTEX
  8
PLAN_1
 62
     2
  6
CONTINUOUS
 10
-1.118642
 20
0.690846
  0
VERTEX
  8
PLAN_1
 62
     2
  6
CONTINUOUS
 10
-1.123031
 20
0.682063
  0
VERTEX
  8
PLAN_1
 62
     2
  6
CONTINUOUS
 10
-1.126988
 20
0.672398
  0
VERTEX
  8
PLAN_1
 62
     2
  6
CONTINUOUS
 10
-1.128744
 20
0.667126
  0
VERTEX
  8
PLAN_1
 62
     2
  6
CONTINUOUS
 10
-1.130500
 20
0.661417
  0
VERTEX
  8
PLAN_1
 62
     2
  6
CONTINUOUS
 10
-1.131819
 20
0.655709
  0
VERTEX
  8
PLAN_1
 62
     2
  6
CONTINUOUS
 10
-1.133134
 20
0.649996
  0
VERTEX
  8
PLAN_1
 62
     2
  6
CONTINUOUS
 10
-1.143236
 20
0.649996
  0
VERTEX
  8
PLAN_1
 62
     2
  6
CONTINUOUS
 10
-1.141480
 20
0.657465
  0
VERTEX
  8
PLAN_1
 62
     2
  6
CONTINUOUS
 10
-1.139283
 20
0.665811
  0
VERTEX
  8
PLAN_1
 62
     2
  6
CONTINUOUS
 10
-1.136209
 20
0.674154
  0
VERTEX
  8
PLAN_1
 62
     2
  6
CONTINUOUS
 10
-1.132256
 20
0.682500
  0
VERTEX
  8
PLAN_1
 62
     2
  6
CONTINUOUS
 10
-1.128303
 20
0.690846
  0
VERTEX
  8
PLAN_1
 62
     2
  6
CONTINUOUS
 10
-1.123472
 20
0.698752
  0
VERTEX
  8
PLAN_1
 62
     2
  6
CONTINUOUS
 10
-1.118201
 20
0.705780
  0
VERTEX
  8
PLAN_1
 62
     2
  6
CONTINUOUS
 10
-1.113370
 20
0.712370
  0
VERTEX
  8
PLAN_1
 62
     2
  6
CONTINUOUS
 10
-1.153339
 20
0.712370
  0
VERTEX
  8
PLAN_1
 62
     2
  6
CONTINUOUS
 10
-1.153339
 20
0.721591
  0
SEQEND
  8
0
  0
SOLID
  8
PLAN_1
 62
     2
 10
-0.193173
 20
0.682941
 11
-0.245882
 21
0.682941
 12
-0.193173
 22
0.690406
 13
-0.245882
 23
0.690406
  0
POLYLINE
  8
PLAN_1
 62
     2
  6
CONTINUOUS
 66
     1
 40
0.003000
 41
0.003000
  0
VERTEX
  8
PLAN_1
 62
     2
  6
CONTINUOUS
 10
-0.193173
 20
0.682941
  0
VERTEX
  8
PLAN_1
 62
     2
  6
CONTINUOUS
 10
-0.245882
 20
0.682941
  0
VERTEX
  8
PLAN_1
 62
     2
  6
CONTINUOUS
 10
-0.245882
 20
0.690406
  0
VERTEX
  8
PLAN_1
 62
     2
  6
CONTINUOUS
 10
-0.193173
 20
0.690406
  0
VERTEX
  8
PLAN_1
 62
     2
  6
CONTINUOUS
 10
-0.193173
 20
0.682941
  0
SEQEND
  8
0
  0
SOLID
  8
PLAN_1
 62
     2
 10
-0.193173
 20
0.661854
 11
-0.245882
 21
0.661854
 12
-0.193173
 22
0.669323
 13
-0.245882
 23
0.669323
  0
POLYLINE
  8
PLAN_1
 62
     2
  6
CONTINUOUS
 66
     1
 40
0.003000
 41
0.003000
  0
VERTEX
  8
PLAN_1
 62
     2
  6
CONTINUOUS
 10
-0.193173
 20
0.661854
  0
VERTEX
  8
PLAN_1
 62
     2
  6
CONTINUOUS
 10
-0.245882
 20
0.661854
  0
VERTEX
  8
PLAN_1
 62
     2
  6
CONTINUOUS
 10
-0.245882
 20
0.669323
  0
VERTEX
  8
PLAN_1
 62
     2
  6
CONTINUOUS
 10
-0.193173
 20
0.669323
  0
VERTEX
  8
PLAN_1
 62
     2
  6
CONTINUOUS
 10
-0.193173
 20
0.661854
  0
SEQEND
  8
0
  0
SOLID
  8
PLAN_1
 62
     2
 10
-2.062555
 20
0.682941
 11
-2.115264
 21
0.682941
 12
-2.062555
 22
0.690406
 13
-2.115264
 23
0.690406
  0
POLYLINE
  8
PLAN_1
 62
     2
  6
CONTINUOUS
 66
     1
 40
0.003000
 41
0.003000
  0
VERTEX
  8
PLAN_1
 62
     2
  6
CONTINUOUS
 10
-2.062555
 20
0.682941
  0
VERTEX
  8
PLAN_1
 62
     2
  6
CONTINUOUS
 10
-2.115264
 20
0.682941
  0
VERTEX
  8
PLAN_1
 62
     2
  6
CONTINUOUS
 10
-2.115264
 20
0.690406
  0
VERTEX
  8
PLAN_1
 62
     2
  6
CONTINUOUS
 10
-2.062555
 20
0.690406
  0
VERTEX
  8
PLAN_1
 62
     2
  6
CONTINUOUS
 10
-2.062555
 20
0.682941
  0
SEQEND
  8
0
  0
SOLID
  8
PLAN_1
 62
     2
 10
-2.062555
 20
0.661854
 11
-2.115264
 21
0.661854
 12
-2.062555
 22
0.669323
 13
-2.115264
 23
0.669323
  0
POLYLINE
  8
PLAN_1
 62
     2
  6
CONTINUOUS
 66
     1
 40
0.003000
 41
0.003000
  0
VERTEX
  8
PLAN_1
 62
     2
  6
CONTINUOUS
 10
-2.062555
 20
0.661854
  0
VERTEX
  8
PLAN_1
 62
     2
  6
CONTINUOUS
 10
-2.115264
 20
0.661854
  0
VERTEX
  8
PLAN_1
 62
     2
  6
CONTINUOUS
 10
-2.115264
 20
0.669323
  0
VERTEX
  8
PLAN_1
 62
     2
  6
CONTINUOUS
 10
-2.062555
 20
0.669323
  0
VERTEX
  8
PLAN_1
 62
     2
  6
CONTINUOUS
 10
-2.062555
 20
0.661854
  0
SEQEND
  8
0
  0
POLYLINE
  8
PLAN_1
 62
     2
  6
CONTINUOUS
 66
     1
 40
0.003953
 41
0.003953
  0
VERTEX
  8
PLAN_1
 62
     2
  6
CONTINUOUS
 10
-1.958016
 20
0.602559
  0
VERTEX
  8
PLAN_1
 62
     2
  6
CONTINUOUS
 10
-1.958016
 20
0.817346
  0
SEQEND
  8
0
  0
POLYLINE
  8
PLAN_1
 62
     2
  6
CONTINUOUS
 66
     1
 40
0.003953
 41
0.003953
  0
VERTEX
  8
PLAN_1
 62
     2
  6
CONTINUOUS
 10
-1.688768
 20
0.602559
  0
VERTEX
  8
PLAN_1
 62
     2
  6
CONTINUOUS
 10
-1.688768
 20
0.817346
  0
SEQEND
  8
0
  0
POLYLINE
  8
PLAN_1
 62
     2
  6
CONTINUOUS
 66
     1
 40
0.003953
 41
0.003953
  0
VERTEX
  8
PLAN_1
 62
     2
  6
CONTINUOUS
 10
-0.631969
 20
0.602559
  0
VERTEX
  8
PLAN_1
 62
     2
  6
CONTINUOUS
 10
-0.631969
 20
0.817346
  0
SEQEND
  8
0
  0
POLYLINE
  8
PLAN_1
 62
     2
  6
CONTINUOUS
 66
     1
 40
0.003953
 41
0.003953
  0
VERTEX
  8
PLAN_1
 62
     2
  6
CONTINUOUS
 10
-0.344272
 20
0.602559
  0
VERTEX
  8
PLAN_1
 62
     2
  6
CONTINUOUS
 10
-0.344272
 20
0.817346
  0
SEQEND
  8
0
  0
POLYLINE
  8
PLAN_1
 62
     2
  6
CONTINUOUS
 66
     1
 40
0.003953
 41
0.003953
  0
VERTEX
  8
PLAN_1
 62
     2
  6
CONTINUOUS
 10
-1.933858
 20
3.419370
  0
VERTEX
  8
PLAN_1
 62
     2
  6
CONTINUOUS
 10
-0.379409
 20
3.419370
  0
SEQEND
  8
0
  0
SOLID
  8
PLAN_1
 62
     2
 10
-0.349543
 20
3.419370
 11
-0.408839
 21
3.435181
 12
-0.349543
 22
3.419370
 13
-0.408839
 23
3.403555
  0
POLYLINE
  8
PLAN_1
 62
     2
  6
CONTINUOUS
 66
     1
 40
0.003000
 41
0.003000
  0
VERTEX
  8
PLAN_1
 62
     2
  6
CONTINUOUS
 10
-0.349543
 20
3.419370
  0
VERTEX
  8
PLAN_1
 62
     2
  6
CONTINUOUS
 10
-0.408839
 20
3.435181
  0
VERTEX
  8
PLAN_1
 62
     2
  6
CONTINUOUS
 10
-0.408839
 20
3.403555
  0
VERTEX
  8
PLAN_1
 62
     2
  6
CONTINUOUS
 10
-0.349543
 20
3.419370
  0
SEQEND
  8
0
  0
SOLID
  8
PLAN_1
 62
     2
 10
-1.963287
 20
3.419370
 11
-1.904429
 21
3.435181
 12
-1.963287
 22
3.419370
 13
-1.904429
 23
3.403555
  0
POLYLINE
  8
PLAN_1
 62
     2
  6
CONTINUOUS
 66
     1
 40
0.003000
 41
0.003000
  0
VERTEX
  8
PLAN_1
 62
     2
  6
CONTINUOUS
 10
-1.963287
 20
3.419370
  0
VERTEX
  8
PLAN_1
 62
     2
  6
CONTINUOUS
 10
-1.904429
 20
3.435181
  0
VERTEX
  8
PLAN_1
 62
     2
  6
CONTINUOUS
 10
-1.904429
 20
3.403555
  0
VERTEX
  8
PLAN_1
 62
     2
  6
CONTINUOUS
 10
-1.963287
 20
3.419370
  0
SEQEND
  8
0
  0
POLYLINE
  8
PLAN_1
 62
     2
  6
CONTINUOUS
 66
     1
 40
0.003000
 41
0.003000
  0
VERTEX
  8
PLAN_1
 62
     2
  6
CONTINUOUS
 10
-1.170909
 20
3.460657
  0
VERTEX
  8
PLAN_1
 62
     2
  6
CONTINUOUS
 10
-1.170909
 20
3.442650
  0
VERTEX
  8
PLAN_1
 62
     2
  6
CONTINUOUS
 10
-1.179693
 20
3.442650
  0
VERTEX
  8
PLAN_1
 62
     2
  6
CONTINUOUS
 10
-1.179693
 20
3.460657
  0
VERTEX
  8
PLAN_1
 62
     2
  6
CONTINUOUS
 10
-1.211760
 20
3.460657
  0
VERTEX
  8
PLAN_1
 62
     2
  6
CONTINUOUS
 10
-1.211760
 20
3.469441
  0
VERTEX
  8
PLAN_1
 62
     2
  6
CONTINUOUS
 10
-1.178378
 20
3.516000
  0
VERTEX
  8
PLAN_1
 62
     2
  6
CONTINUOUS
 10
-1.170909
 20
3.516000
  0
VERTEX
  8
PLAN_1
 62
     2
  6
CONTINUOUS
 10
-1.170909
 20
3.468563
  0
VERTEX
  8
PLAN_1
 62
     2
  6
CONTINUOUS
 10
-1.159929
 20
3.468563
  0
VERTEX
  8
PLAN_1
 62
     2
  6
CONTINUOUS
 10
-1.159929
 20
3.460657
  0
VERTEX
  8
PLAN_1
 62
     2
  6
CONTINUOUS
 10
-1.170909
 20
3.460657
  0
SEQEND
  8
0
  0
SOLID
  8
PLAN_1
 62
     2
 10
-1.203413
 20
3.468563
 11
-1.179693
 21
3.468563
 12
-1.180134
 22
3.501945
 13
-1.179693
 23
3.501945
  0
POLYLINE
  8
PLAN_1
 62
     2
  6
CONTINUOUS
 66
     1
 40
0.003000
 41
0.003000
  0
VERTEX
  8
PLAN_1
 62
     2
  6
CONTINUOUS
 10
-1.203413
 20
3.468563
  0
VERTEX
  8
PLAN_1
 62
     2
  6
CONTINUOUS
 10
-1.179693
 20
3.468563
  0
VERTEX
  8
PLAN_1
 62
     2
  6
CONTINUOUS
 10
-1.179693
 20
3.501945
  0
VERTEX
  8
PLAN_1
 62
     2
  6
CONTINUOUS
 10
-1.180134
 20
3.501945
  0
VERTEX
  8
PLAN_1
 62
     2
  6
CONTINUOUS
 10
-1.203413
 20
3.468563
  0
SEQEND
  8
0
  0
POLYLINE
  8
PLAN_1
 62
     2
  6
CONTINUOUS
 66
     1
 40
0.003000
 41
0.003000
  0
VERTEX
  8
PLAN_1
 62
     2
  6
CONTINUOUS
 10
-1.119079
 20
3.442650
  0
VERTEX
  8
PLAN_1
 62
     2
  6
CONTINUOUS
 10
-1.128744
 20
3.442650
  0
VERTEX
  8
PLAN_1
 62
     2
  6
CONTINUOUS
 10
-1.128744
 20
3.494917
  0
VERTEX
  8
PLAN_1
 62
     2
  6
CONTINUOUS
 10
-1.145874
 20
3.494917
  0
VERTEX
  8
PLAN_1
 62
     2
  6
CONTINUOUS
 10
-1.145874
 20
3.501945
  0
VERTEX
  8
PLAN_1
 62
     2
  6
CONTINUOUS
 10
-1.141921
 20
3.502382
  0
VERTEX
  8
PLAN_1
 62
     2
  6
CONTINUOUS
 10
-1.138406
 20
3.502823
  0
VERTEX
  8
PLAN_1
 62
     2
  6
CONTINUOUS
 10
-1.135331
 20
3.503701
  0
VERTEX
  8
PLAN_1
 62
     2
  6
CONTINUOUS
 10
-1.132697
 20
3.505020
  0
VERTEX
  8
PLAN_1
 62
     2
  6
CONTINUOUS
 10
-1.130941
 20
3.506339
  0
VERTEX
  8
PLAN_1
 62
     2
  6
CONTINUOUS
 10
-1.129181
 20
3.508972
  0
VERTEX
  8
PLAN_1
 62
     2
  6
CONTINUOUS
 10
-1.127425
 20
3.512047
  0
VERTEX
  8
PLAN_1
 62
     2
  6
CONTINUOUS
 10
-1.126547
 20
3.516000
  0
VERTEX
  8
PLAN_1
 62
     2
  6
CONTINUOUS
 10
-1.119079
 20
3.516000
  0
VERTEX
  8
PLAN_1
 62
     2
  6
CONTINUOUS
 10
-1.119079
 20
3.442650
  0
SEQEND
  8
0
  0
POLYLINE
  8
PLAN_1
 62
     2
  6
CONTINUOUS
 66
     1
 40
0.003953
 41
0.003953
  0
VERTEX
  8
PLAN_1
 62
     2
  6
CONTINUOUS
 10
-1.963287
 20
3.284083
  0
VERTEX
  8
PLAN_1
 62
     2
  6
CONTINUOUS
 10
-1.963287
 20
3.442650
  0
SEQEND
  8
0
  0
POLYLINE
  8
PLAN_1
 62
     2
  6
CONTINUOUS
 66
     1
 40
0.003953
 41
0.003953
  0
VERTEX
  8
PLAN_1
 62
     2
  6
CONTINUOUS
 10
-0.349543
 20
3.284083
  0
VERTEX
  8
PLAN_1
 62
     2
  6
CONTINUOUS
 10
-0.349543
 20
3.442650
  0
SEQEND
  8
0
  0
POLYLINE
  8
PLAN_1
 62
     2
  6
CONTINUOUS
 66
     1
 40
0.003953
 41
0.003953
  0
VERTEX
  8
PLAN_1
 62
     2
  6
CONTINUOUS
 10
0.216193
 20
1.006217
  0
VERTEX
  8
PLAN_1
 62
     2
  6
CONTINUOUS
 10
0.216193
 20
3.060075
  0
SEQEND
  8
0
  0
SOLID
  8
PLAN_1
 62
     2
 10
0.216193
 20
3.089941
 11
0.200378
 21
3.030646
 12
0.216193
 22
3.089941
 13
0.232004
 23
3.030646
  0
POLYLINE
  8
PLAN_1
 62
     2
  6
CONTINUOUS
 66
     1
 40
0.003000
 41
0.003000
  0
VERTEX
  8
PLAN_1
 62
     2
  6
CONTINUOUS
 10
0.216193
 20
3.089941
  0
VERTEX
  8
PLAN_1
 62
     2
  6
CONTINUOUS
 10
0.200378
 20
3.030646
  0
VERTEX
  8
PLAN_1
 62
     2
  6
CONTINUOUS
 10
0.232004
 20
3.030646
  0
VERTEX
  8
PLAN_1
 62
     2
  6
CONTINUOUS
 10
0.216193
 20
3.089941
  0
SEQEND
  8
0
  0
SOLID
  8
PLAN_1
 62
     2
 10
0.216193
 20
0.976787
 11
0.200378
 21
1.035646
 12
0.216193
 22
0.976787
 13
0.232004
 23
1.035646
  0
POLYLINE
  8
PLAN_1
 62
     2
  6
CONTINUOUS
 66
     1
 40
0.003000
 41
0.003000
  0
VERTEX
  8
PLAN_1
 62
     2
  6
CONTINUOUS
 10
0.216193
 20
0.976787
  0
VERTEX
  8
PLAN_1
 62
     2
  6
CONTINUOUS
 10
0.200378
 20
1.035646
  0
VERTEX
  8
PLAN_1
 62
     2
  6
CONTINUOUS
 10
0.232004
 20
1.035646
  0
VERTEX
  8
PLAN_1
 62
     2
  6
CONTINUOUS
 10
0.216193
 20
0.976787
  0
SEQEND
  8
0
  0
POLYLINE
  8
PLAN_1
 62
     2
  6
CONTINUOUS
 66
     1
 40
0.003000
 41
0.003000
  0
VERTEX
  8
PLAN_1
 62
     2
  6
CONTINUOUS
 10
0.149866
 20
1.990539
  0
VERTEX
  8
PLAN_1
 62
     2
  6
CONTINUOUS
 10
0.148988
 20
1.991858
  0
VERTEX
  8
PLAN_1
 62
     2
  6
CONTINUOUS
 10
0.148110
 20
1.993173
  0
VERTEX
  8
PLAN_1
 62
     2
  6
CONTINUOUS
 10
0.147669
 20
1.994933
  0
VERTEX
  8
PLAN_1
 62
     2
  6
CONTINUOUS
 10
0.146791
 20
1.996248
  0
VERTEX
  8
PLAN_1
 62
     2
  6
CONTINUOUS
 10
0.146354
 20
1.998008
  0
VERTEX
  8
PLAN_1
 62
     2
  6
CONTINUOUS
 10
0.145913
 20
2.000205
  0
VERTEX
  8
PLAN_1
 62
     2
  6
CONTINUOUS
 10
0.145476
 20
2.002398
  0
VERTEX
  8
PLAN_1
 62
     2
  6
CONTINUOUS
 10
0.145476
 20
2.004594
  0
VERTEX
  8
PLAN_1
 62
     2
  6
CONTINUOUS
 10
0.145913
 20
2.008988
  0
VERTEX
  8
PLAN_1
 62
     2
  6
CONTINUOUS
 10
0.146791
 20
2.013378
  0
VERTEX
  8
PLAN_1
 62
     2
  6
CONTINUOUS
 10
0.148988
 20
2.017772
  0
VERTEX
  8
PLAN_1
 62
     2
  6
CONTINUOUS
 10
0.151626
 20
2.021287
  0
VERTEX
  8
PLAN_1
 62
     2
  6
CONTINUOUS
 10
0.152941
 20
2.023043
  0
VERTEX
  8
PLAN_1
 62
     2
  6
CONTINUOUS
 10
0.154701
 20
2.024362
  0
VERTEX
  8
PLAN_1
 62
     2
  6
CONTINUOUS
 10
0.156894
 20
2.025677
  0
VERTEX
  8
PLAN_1
 62
     2
  6
CONTINUOUS
 10
0.158654
 20
2.026555
  0
VERTEX
  8
PLAN_1
 62
     2
  6
CONTINUOUS
 10
0.160846
 20
2.027437
  0
VERTEX
  8
PLAN_1
 62
     2
  6
CONTINUOUS
 10
0.163484
 20
2.028315
  0
VERTEX
  8
PLAN_1
 62
     2
  6
CONTINUOUS
 10
0.166118
 20
2.028752
  0
VERTEX
  8
PLAN_1
 62
     2
  6
CONTINUOUS
 10
0.168756
 20
2.028752
  0
VERTEX
  8
PLAN_1
 62
     2
  6
CONTINUOUS
 10
0.172268
 20
2.028752
  0
VERTEX
  8
PLAN_1
 62
     2
  6
CONTINUOUS
 10
0.176220
 20
2.027874
  0
VERTEX
  8
PLAN_1
 62
     2
  6
CONTINUOUS
 10
0.180614
 20
2.026555
  0
VERTEX
  8
PLAN_1
 62
     2
  6
CONTINUOUS
 10
0.184567
 20
2.023921
  0
VERTEX
  8
PLAN_1
 62
     2
  6
CONTINUOUS
 10
0.186764
 20
2.022602
  0
VERTEX
  8
PLAN_1
 62
     2
  6
CONTINUOUS
 10
0.188520
 20
2.020846
  0
VERTEX
  8
PLAN_1
 62
     2
  6
CONTINUOUS
 10
0.190276
 20
2.018650
  0
VERTEX
  8
PLAN_1
 62
     2
  6
CONTINUOUS
 10
0.191594
 20
2.016016
  0
VERTEX
  8
PLAN_1
 62
     2
  6
CONTINUOUS
 10
0.192913
 20
2.013378
  0
VERTEX
  8
PLAN_1
 62
     2
  6
CONTINUOUS
 10
0.193791
 20
2.009866
  0
VERTEX
  8
PLAN_1
 62
     2
  6
CONTINUOUS
 10
0.194228
 20
2.006350
  0
VERTEX
  8
PLAN_1
 62
     2
  6
CONTINUOUS
 10
0.194669
 20
2.002398
  0
VERTEX
  8
PLAN_1
 62
     2
  6
CONTINUOUS
 10
0.194228
 20
1.998445
  0
VERTEX
  8
PLAN_1
 62
     2
  6
CONTINUOUS
 10
0.193791
 20
1.994933
  0
VERTEX
  8
PLAN_1
 62
     2
  6
CONTINUOUS
 10
0.192472
 20
1.990980
  0
VERTEX
  8
PLAN_1
 62
     2
  6
CONTINUOUS
 10
0.190717
 20
1.987465
  0
VERTEX
  8
PLAN_1
 62
     2
  6
CONTINUOUS
 10
0.189398
 20
1.985709
  0
VERTEX
  8
PLAN_1
 62
     2
  6
CONTINUOUS
 10
0.188083
 20
1.984390
  0
VERTEX
  8
PLAN_1
 62
     2
  6
CONTINUOUS
 10
0.186323
 20
1.983071
  0
VERTEX
  8
PLAN_1
 62
     2
  6
CONTINUOUS
 10
0.184567
 20
1.981756
  0
VERTEX
  8
PLAN_1
 62
     2
  6
CONTINUOUS
 10
0.182370
 20
1.980437
  0
VERTEX
  8
PLAN_1
 62
     2
  6
CONTINUOUS
 10
0.179736
 20
1.979559
  0
VERTEX
  8
PLAN_1
 62
     2
  6
CONTINUOUS
 10
0.177098
 20
1.979118
  0
VERTEX
  8
PLAN_1
 62
     2
  6
CONTINUOUS
 10
0.174465
 20
1.978681
  0
VERTEX
  8
PLAN_1
 62
     2
  6
CONTINUOUS
 10
0.174465
 20
1.987906
  0
VERTEX
  8
PLAN_1
 62
     2
  6
CONTINUOUS
 10
0.177098
 20
1.988783
  0
VERTEX
  8
PLAN_1
 62
     2
  6
CONTINUOUS
 10
0.179736
 20
1.989661
  0
VERTEX
  8
PLAN_1
 62
     2
  6
CONTINUOUS
 10
0.181933
 20
1.991417
  0
VERTEX
  8
PLAN_1
 62
     2
  6
CONTINUOUS
 10
0.183689
 20
1.993173
  0
VERTEX
  8
PLAN_1
 62
     2
  6
CONTINUOUS
 10
0.185008
 20
1.995370
  0
VERTEX
  8
PLAN_1
 62
     2
  6
CONTINUOUS
 10
0.185886
 20
1.998008
  0
VERTEX
  8
PLAN_1
 62
     2
  6
CONTINUOUS
 10
0.186323
 20
2.000642
  0
VERTEX
  8
PLAN_1
 62
     2
  6
CONTINUOUS
 10
0.186764
 20
2.003717
  0
VERTEX
  8
PLAN_1
 62
     2
  6
CONTINUOUS
 10
0.186323
 20
2.006791
  0
VERTEX
  8
PLAN_1
 62
     2
  6
CONTINUOUS
 10
0.185445
 20
2.009866
  0
VERTEX
  8
PLAN_1
 62
     2
  6
CONTINUOUS
 10
0.183689
 20
2.012500
  0
VERTEX
  8
PLAN_1
 62
     2
  6
CONTINUOUS
 10
0.181492
 20
2.014697
  0
VERTEX
  8
PLAN_1
 62
     2
  6
CONTINUOUS
 10
0.179295
 20
2.016453
  0
VERTEX
  8
PLAN_1
 62
     2
  6
CONTINUOUS
 10
0.176220
 20
2.017772
  0
VERTEX
  8
PLAN_1
 62
     2
  6
CONTINUOUS
 10
0.173146
 20
2.018650
  0
VERTEX
  8
PLAN_1
 62
     2
  6
CONTINUOUS
 10
0.170071
 20
2.019091
  0
VERTEX
  8
PLAN_1
 62
     2
  6
CONTINUOUS
 10
0.166118
 20
2.018650
  0
VERTEX
  8
PLAN_1
 62
     2
  6
CONTINUOUS
 10
0.163043
 20
2.017772
  0
VERTEX
  8
PLAN_1
 62
     2
  6
CONTINUOUS
 10
0.159969
 20
2.016453
  0
VERTEX
  8
PLAN_1
 62
     2
  6
CONTINUOUS
 10
0.157772
 20
2.014260
  0
VERTEX
  8
PLAN_1
 62
     2
  6
CONTINUOUS
 10
0.156016
 20
2.012063
  0
VERTEX
  8
PLAN_1
 62
     2
  6
CONTINUOUS
 10
0.154701
 20
2.008988
  0
VERTEX
  8
PLAN_1
 62
     2
  6
CONTINUOUS
 10
0.153819
 20
2.005913
  0
VERTEX
  8
PLAN_1
 62
     2
  6
CONTINUOUS
 10
0.153819
 20
2.002839
  0
VERTEX
  8
PLAN_1
 62
     2
  6
CONTINUOUS
 10
0.153819
 20
2.000642
  0
VERTEX
  8
PLAN_1
 62
     2
  6
CONTINUOUS
 10
0.154260
 20
1.998886
  0
VERTEX
  8
PLAN_1
 62
     2
  6
CONTINUOUS
 10
0.154701
 20
1.997130
  0
VERTEX
  8
PLAN_1
 62
     2
  6
CONTINUOUS
 10
0.155579
 20
1.995370
  0
VERTEX
  8
PLAN_1
 62
     2
  6
CONTINUOUS
 10
0.156457
 20
1.993614
  0
VERTEX
  8
PLAN_1
 62
     2
  6
CONTINUOUS
 10
0.157772
 20
1.991858
  0
VERTEX
  8
PLAN_1
 62
     2
  6
CONTINUOUS
 10
0.159091
 20
1.990539
  0
VERTEX
  8
PLAN_1
 62
     2
  6
CONTINUOUS
 10
0.160409
 20
1.989220
  0
VERTEX
  8
PLAN_1
 62
     2
  6
CONTINUOUS
 10
0.160409
 20
1.981315
  0
VERTEX
  8
PLAN_1
 62
     2
  6
CONTINUOUS
 10
0.120878
 20
1.987028
  0
VERTEX
  8
PLAN_1
 62
     2
  6
CONTINUOUS
 10
0.120878
 20
2.024799
  0
VERTEX
  8
PLAN_1
 62
     2
  6
CONTINUOUS
 10
0.130102
 20
2.024799
  0
VERTEX
  8
PLAN_1
 62
     2
  6
CONTINUOUS
 10
0.130102
 20
1.993614
  0
VERTEX
  8
PLAN_1
 62
     2
  6
CONTINUOUS
 10
0.149866
 20
1.990539
  0
SEQEND
  8
0
  0
POLYLINE
  8
PLAN_1
 62
     2
  6
CONTINUOUS
 66
     1
 40
0.003000
 41
0.003000
  0
VERTEX
  8
PLAN_1
 62
     2
  6
CONTINUOUS
 10
0.174906
 20
2.077067
  0
VERTEX
  8
PLAN_1
 62
     2
  6
CONTINUOUS
 10
0.192472
 20
2.077067
  0
VERTEX
  8
PLAN_1
 62
     2
  6
CONTINUOUS
 10
0.192472
 20
2.067846
  0
VERTEX
  8
PLAN_1
 62
     2
  6
CONTINUOUS
 10
0.174906
 20
2.067846
  0
VERTEX
  8
PLAN_1
 62
     2
  6
CONTINUOUS
 10
0.174906
 20
2.035780
  0
VERTEX
  8
PLAN_1
 62
     2
  6
CONTINUOUS
 10
0.165681
 20
2.035780
  0
VERTEX
  8
PLAN_1
 62
     2
  6
CONTINUOUS
 10
0.119559
 20
2.069161
  0
VERTEX
  8
PLAN_1
 62
     2
  6
CONTINUOUS
 10
0.119559
 20
2.077067
  0
VERTEX
  8
PLAN_1
 62
     2
  6
CONTINUOUS
 10
0.166996
 20
2.077067
  0
VERTEX
  8
PLAN_1
 62
     2
  6
CONTINUOUS
 10
0.166996
 20
2.087610
  0
VERTEX
  8
PLAN_1
 62
     2
  6
CONTINUOUS
 10
0.174906
 20
2.087610
  0
VERTEX
  8
PLAN_1
 62
     2
  6
CONTINUOUS
 10
0.174906
 20
2.077067
  0
SEQEND
  8
0
  0
SOLID
  8
PLAN_1
 62
     2
 10
0.166996
 20
2.044126
 11
0.166996
 21
2.067846
 12
0.133614
 22
2.067406
 13
0.133614
 23
2.067846
  0
POLYLINE
  8
PLAN_1
 62
     2
  6
CONTINUOUS
 66
     1
 40
0.003000
 41
0.003000
  0
VERTEX
  8
PLAN_1
 62
     2
  6
CONTINUOUS
 10
0.166996
 20
2.044126
  0
VERTEX
  8
PLAN_1
 62
     2
  6
CONTINUOUS
 10
0.166996
 20
2.067846
  0
VERTEX
  8
PLAN_1
 62
     2
  6
CONTINUOUS
 10
0.133614
 20
2.067846
  0
VERTEX
  8
PLAN_1
 62
     2
  6
CONTINUOUS
 10
0.133614
 20
2.067406
  0
VERTEX
  8
PLAN_1
 62
     2
  6
CONTINUOUS
 10
0.166996
 20
2.044126
  0
SEQEND
  8
0
  0
POLYLINE
  8
PLAN_1
 62
     2
  6
CONTINUOUS
 66
     1
 40
0.003953
 41
0.003953
  0
VERTEX
  8
PLAN_1
 62
     2
  6
CONTINUOUS
 10
0.239909
 20
0.976787
  0
VERTEX
  8
PLAN_1
 62
     2
  6
CONTINUOUS
 10
-0.553787
 20
0.976787
  0
SEQEND
  8
0
  0
POLYLINE
  8
PLAN_1
 62
     2
  6
CONTINUOUS
 66
     1
 40
0.003953
 41
0.003953
  0
VERTEX
  8
PLAN_1
 62
     2
  6
CONTINUOUS
 10
0.239909
 20
3.089941
  0
VERTEX
  8
PLAN_1
 62
     2
  6
CONTINUOUS
 10
-0.152764
 20
3.089941
  0
SEQEND
  8
0
  0
POLYLINE
  8
PLAN_1
 62
     2
  6
CONTINUOUS
 66
     1
 40
0.003000
 41
0.003000
  0
VERTEX
  8
PLAN_1
 62
     2
  6
CONTINUOUS
 10
-1.453339
 20
1.253945
  0
VERTEX
  8
PLAN_1
 62
     2
  6
CONTINUOUS
 10
-1.452898
 20
1.257898
  0
VERTEX
  8
PLAN_1
 62
     2
  6
CONTINUOUS
 10
-1.452461
 20
1.261850
  0
VERTEX
  8
PLAN_1
 62
     2
  6
CONTINUOUS
 10
-1.451579
 20
1.264925
  0
VERTEX
  8
PLAN_1
 62
     2
  6
CONTINUOUS
 10
-1.450264
 20
1.268000
  0
VERTEX
  8
PLAN_1
 62
     2
  6
CONTINUOUS
 10
-1.448945
 20
1.270197
  0
VERTEX
  8
PLAN_1
 62
     2
  6
CONTINUOUS
 10
-1.447189
 20
1.272394
  0
VERTEX
  8
PLAN_1
 62
     2
  6
CONTINUOUS
 10
-1.445433
 20
1.274150
  0
VERTEX
  8
PLAN_1
 62
     2
  6
CONTINUOUS
 10
-1.443673
 20
1.275906
  0
VERTEX
  8
PLAN_1
 62
     2
  6
CONTINUOUS
 10
-1.439283
 20
1.278102
  0
VERTEX
  8
PLAN_1
 62
     2
  6
CONTINUOUS
 10
-1.435331
 20
1.279421
  0
VERTEX
  8
PLAN_1
 62
     2
  6
CONTINUOUS
 10
-1.431374
 20
1.279858
  0
VERTEX
  8
PLAN_1
 62
     2
  6
CONTINUOUS
 10
-1.427862
 20
1.279858
  0
VERTEX
  8
PLAN_1
 62
     2
  6
CONTINUOUS
 10
-1.423469
 20
1.279421
  0
VERTEX
  8
PLAN_1
 62
     2
  6
CONTINUOUS
 10
-1.419079
 20
1.278539
  0
VERTEX
  8
PLAN_1
 62
     2
  6
CONTINUOUS
 10
-1.415126
 20
1.276783
  0
VERTEX
  8
PLAN_1
 62
     2
  6
CONTINUOUS
 10
-1.411610
 20
1.274150
  0
VERTEX
  8
PLAN_1
 62
     2
  6
CONTINUOUS
 10
-1.410291
 20
1.272831
  0
VERTEX
  8
PLAN_1
 62
     2
  6
CONTINUOUS
 10
-1.408976
 20
1.271075
  0
VERTEX
  8
PLAN_1
 62
     2
  6
CONTINUOUS
 10
-1.407657
 20
1.269319
  0
VERTEX
  8
PLAN_1
 62
     2
  6
CONTINUOUS
 10
-1.406780
 20
1.267122
  0
VERTEX
  8
PLAN_1
 62
     2
  6
CONTINUOUS
 10
-1.405902
 20
1.265362
  0
VERTEX
  8
PLAN_1
 62
     2
  6
CONTINUOUS
 10
-1.405461
 20
1.263169
  0
VERTEX
  8
PLAN_1
 62
     2
  6
CONTINUOUS
 10
-1.405020
 20
1.260531
  0
VERTEX
  8
PLAN_1
 62
     2
  6
CONTINUOUS
 10
-1.405020
 20
1.257898
  0
VERTEX
  8
PLAN_1
 62
     2
  6
CONTINUOUS
 10
-1.405461
 20
1.253504
  0
VERTEX
  8
PLAN_1
 62
     2
  6
CONTINUOUS
 10
-1.406339
 20
1.249551
  0
VERTEX
  8
PLAN_1
 62
     2
  6
CONTINUOUS
 10
-1.408535
 20
1.246039
  0
VERTEX
  8
PLAN_1
 62
     2
  6
CONTINUOUS
 10
-1.410732
 20
1.242965
  0
VERTEX
  8
PLAN_1
 62
     2
  6
CONTINUOUS
 10
-1.413807
 20
1.240327
  0
VERTEX
  8
PLAN_1
 62
     2
  6
CONTINUOUS
 10
-1.416882
 20
1.238130
  0
VERTEX
  8
PLAN_1
 62
     2
  6
CONTINUOUS
 10
-1.420394
 20
1.235937
  0
VERTEX
  8
PLAN_1
 62
     2
  6
CONTINUOUS
 10
-1.424787
 20
1.233740
  0
VERTEX
  8
PLAN_1
 62
     2
  6
CONTINUOUS
 10
-1.432256
 20
1.229346
  0
VERTEX
  8
PLAN_1
 62
     2
  6
CONTINUOUS
 10
-1.435768
 20
1.227591
  0
VERTEX
  8
PLAN_1
 62
     2
  6
CONTINUOUS
 10
-1.438402
 20
1.225394
  0
VERTEX
  8
PLAN_1
 62
     2
  6
CONTINUOUS
 10
-1.440598
 20
1.223197
  0
VERTEX
  8
PLAN_1
 62
     2
  6
CONTINUOUS
 10
-1.441917
 20
1.221441
  0
VERTEX
  8
PLAN_1
 62
     2
  6
CONTINUOUS
 10
-1.443236
 20
1.219685
  0
VERTEX
  8
PLAN_1
 62
     2
  6
CONTINUOUS
 10
-1.444114
 20
1.217925
  0
VERTEX
  8
PLAN_1
 62
     2
  6
CONTINUOUS
 10
-1.444551
 20
1.216610
  0
VERTEX
  8
PLAN_1
 62
     2
  6
CONTINUOUS
 10
-1.444551
 20
1.215291
  0
VERTEX
  8
PLAN_1
 62
     2
  6
CONTINUOUS
 10
-1.405020
 20
1.215291
  0
VERTEX
  8
PLAN_1
 62
     2
  6
CONTINUOUS
 10
-1.405020
 20
1.206945
  0
VERTEX
  8
PLAN_1
 62
     2
  6
CONTINUOUS
 10
-1.455094
 20
1.206945
  0
VERTEX
  8
PLAN_1
 62
     2
  6
CONTINUOUS
 10
-1.454654
 20
1.212217
  0
VERTEX
  8
PLAN_1
 62
     2
  6
CONTINUOUS
 10
-1.453339
 20
1.217047
  0
VERTEX
  8
PLAN_1
 62
     2
  6
CONTINUOUS
 10
-1.452020
 20
1.221000
  0
VERTEX
  8
PLAN_1
 62
     2
  6
CONTINUOUS
 10
-1.449823
 20
1.224953
  0
VERTEX
  8
PLAN_1
 62
     2
  6
CONTINUOUS
 10
-1.447626
 20
1.228028
  0
VERTEX
  8
PLAN_1
 62
     2
  6
CONTINUOUS
 10
-1.444551
 20
1.231102
  0
VERTEX
  8
PLAN_1
 62
     2
  6
CONTINUOUS
 10
-1.441476
 20
1.233740
  0
VERTEX
  8
PLAN_1
 62
     2
  6
CONTINUOUS
 10
-1.437965
 20
1.235937
  0
VERTEX
  8
PLAN_1
 62
     2
  6
CONTINUOUS
 10
-1.428299
 20
1.241646
  0
VERTEX
  8
PLAN_1
 62
     2
  6
CONTINUOUS
 10
-1.425228
 20
1.242965
  0
VERTEX
  8
PLAN_1
 62
     2
  6
CONTINUOUS
 10
-1.423031
 20
1.244720
  0
VERTEX
  8
PLAN_1
 62
     2
  6
CONTINUOUS
 10
-1.420394
 20
1.246476
  0
VERTEX
  8
PLAN_1
 62
     2
  6
CONTINUOUS
 10
-1.418638
 20
1.248232
  0
VERTEX
  8
PLAN_1
 62
     2
  6
CONTINUOUS
 10
-1.416882
 20
1.249992
  0
VERTEX
  8
PLAN_1
 62
     2
  6
CONTINUOUS
 10
-1.416004
 20
1.252626
  0
VERTEX
  8
PLAN_1
 62
     2
  6
CONTINUOUS
 10
-1.415126
 20
1.255260
  0
VERTEX
  8
PLAN_1
 62
     2
  6
CONTINUOUS
 10
-1.414685
 20
1.258335
  0
VERTEX
  8
PLAN_1
 62
     2
  6
CONTINUOUS
 10
-1.415126
 20
1.260972
  0
VERTEX
  8
PLAN_1
 62
     2
  6
CONTINUOUS
 10
-1.415563
 20
1.263169
  0
VERTEX
  8
PLAN_1
 62
     2
  6
CONTINUOUS
 10
-1.416441
 20
1.265362
  0
VERTEX
  8
PLAN_1
 62
     2
  6
CONTINUOUS
 10
-1.418197
 20
1.267122
  0
VERTEX
  8
PLAN_1
 62
     2
  6
CONTINUOUS
 10
-1.419957
 20
1.268878
  0
VERTEX
  8
PLAN_1
 62
     2
  6
CONTINUOUS
 10
-1.422591
 20
1.270634
  0
VERTEX
  8
PLAN_1
 62
     2
  6
CONTINUOUS
 10
-1.425665
 20
1.271512
  0
VERTEX
  8
PLAN_1
 62
     2
  6
CONTINUOUS
 10
-1.429181
 20
1.271953
  0
VERTEX
  8
PLAN_1
 62
     2
  6
CONTINUOUS
 10
-1.431815
 20
1.271512
  0
VERTEX
  8
PLAN_1
 62
     2
  6
CONTINUOUS
 10
-1.434012
 20
1.271075
  0
VERTEX
  8
PLAN_1
 62
     2
  6
CONTINUOUS
 10
-1.435768
 20
1.270634
  0
VERTEX
  8
PLAN_1
 62
     2
  6
CONTINUOUS
 10
-1.437524
 20
1.269756
  0
VERTEX
  8
PLAN_1
 62
     2
  6
CONTINUOUS
 10
-1.438843
 20
1.268437
  0
VERTEX
  8
PLAN_1
 62
     2
  6
CONTINUOUS
 10
-1.439720
 20
1.267559
  0
VERTEX
  8
PLAN_1
 62
     2
  6
CONTINUOUS
 10
-1.441039
 20
1.266244
  0
VERTEX
  8
PLAN_1
 62
     2
  6
CONTINUOUS
 10
-1.441917
 20
1.264484
  0
VERTEX
  8
PLAN_1
 62
     2
  6
CONTINUOUS
 10
-1.442795
 20
1.261850
  0
VERTEX
  8
PLAN_1
 62
     2
  6
CONTINUOUS
 10
-1.443673
 20
1.258776
  0
VERTEX
  8
PLAN_1
 62
     2
  6
CONTINUOUS
 10
-1.443673
 20
1.256142
  0
VERTEX
  8
PLAN_1
 62
     2
  6
CONTINUOUS
 10
-1.444114
 20
1.253945
  0
VERTEX
  8
PLAN_1
 62
     2
  6
CONTINUOUS
 10
-1.453339
 20
1.253945
  0
SEQEND
  8
0
  0
POLYLINE
  8
PLAN_1
 62
     2
  6
CONTINUOUS
 66
     1
 40
0.003000
 41
0.003000
  0
VERTEX
  8
PLAN_1
 62
     2
  6
CONTINUOUS
 10
-1.319811
 20
1.206945
  0
VERTEX
  8
PLAN_1
 62
     2
  6
CONTINUOUS
 10
-1.331669
 20
1.206945
  0
VERTEX
  8
PLAN_1
 62
     2
  6
CONTINUOUS
 10
-1.345287
 20
1.227150
  0
VERTEX
  8
PLAN_1
 62
     2
  6
CONTINUOUS
 10
-1.358024
 20
1.206945
  0
VERTEX
  8
PLAN_1
 62
     2
  6
CONTINUOUS
 10
-1.369882
 20
1.206945
  0
VERTEX
  8
PLAN_1
 62
     2
  6
CONTINUOUS
 10
-1.350555
 20
1.234618
  0
VERTEX
  8
PLAN_1
 62
     2
  6
CONTINUOUS
 10
-1.369004
 20
1.261409
  0
VERTEX
  8
PLAN_1
 62
     2
  6
CONTINUOUS
 10
-1.357146
 20
1.261409
  0
VERTEX
  8
PLAN_1
 62
     2
  6
CONTINUOUS
 10
-1.344406
 20
1.242083
  0
VERTEX
  8
PLAN_1
 62
     2
  6
CONTINUOUS
 10
-1.332110
 20
1.261409
  0
VERTEX
  8
PLAN_1
 62
     2
  6
CONTINUOUS
 10
-1.320689
 20
1.261409
  0
VERTEX
  8
PLAN_1
 62
     2
  6
CONTINUOUS
 10
-1.339138
 20
1.234618
  0
VERTEX
  8
PLAN_1
 62
     2
  6
CONTINUOUS
 10
-1.319811
 20
1.206945
  0
SEQEND
  8
0
  0
POLYLINE
  8
PLAN_1
 62
     2
  6
CONTINUOUS
 66
     1
 40
0.003000
 41
0.003000
  0
VERTEX
  8
PLAN_1
 62
     2
  6
CONTINUOUS
 10
-1.221421
 20
1.271075
  0
VERTEX
  8
PLAN_1
 62
     2
  6
CONTINUOUS
 10
-1.219224
 20
1.268000
  0
VERTEX
  8
PLAN_1
 62
     2
  6
CONTINUOUS
 10
-1.217469
 20
1.264484
  0
VERTEX
  8
PLAN_1
 62
     2
  6
CONTINUOUS
 10
-1.216150
 20
1.260972
  0
VERTEX
  8
PLAN_1
 62
     2
  6
CONTINUOUS
 10
-1.214835
 20
1.257898
  0
VERTEX
  8
PLAN_1
 62
     2
  6
CONTINUOUS
 10
-1.213957
 20
1.254382
  0
VERTEX
  8
PLAN_1
 62
     2
  6
CONTINUOUS
 10
-1.213516
 20
1.250870
  0
VERTEX
  8
PLAN_1
 62
     2
  6
CONTINUOUS
 10
-1.213075
 20
1.247354
  0
VERTEX
  8
PLAN_1
 62
     2
  6
CONTINUOUS
 10
-1.213075
 20
1.244280
  0
VERTEX
  8
PLAN_1
 62
     2
  6
CONTINUOUS
 10
-1.213516
 20
1.237693
  0
VERTEX
  8
PLAN_1
 62
     2
  6
CONTINUOUS
 10
-1.214835
 20
1.231102
  0
VERTEX
  8
PLAN_1
 62
     2
  6
CONTINUOUS
 10
-1.215713
 20
1.228028
  0
VERTEX
  8
PLAN_1
 62
     2
  6
CONTINUOUS
 10
-1.217028
 20
1.224516
  0
VERTEX
  8
PLAN_1
 62
     2
  6
CONTINUOUS
 10
-1.218787
 20
1.221441
  0
VERTEX
  8
PLAN_1
 62
     2
  6
CONTINUOUS
 10
-1.220984
 20
1.218366
  0
VERTEX
  8
PLAN_1
 62
     2
  6
CONTINUOUS
 10
-1.223177
 20
1.215732
  0
VERTEX
  8
PLAN_1
 62
     2
  6
CONTINUOUS
 10
-1.225815
 20
1.213094
  0
VERTEX
  8
PLAN_1
 62
     2
  6
CONTINUOUS
 10
-1.228449
 20
1.210898
  0
VERTEX
  8
PLAN_1
 62
     2
  6
CONTINUOUS
 10
-1.231965
 20
1.208705
  0
VERTEX
  8
PLAN_1
 62
     2
  6
CONTINUOUS
 10
-1.235917
 20
1.206945
  0
VERTEX
  8
PLAN_1
 62
     2
  6
CONTINUOUS
 10
-1.239870
 20
1.206067
  0
VERTEX
  8
PLAN_1
 62
     2
  6
CONTINUOUS
 10
-1.244264
 20
1.205189
  0
VERTEX
  8
PLAN_1
 62
     2
  6
CONTINUOUS
 10
-1.249531
 20
1.204748
  0
VERTEX
  8
PLAN_1
 62
     2
  6
CONTINUOUS
 10
-1.253484
 20
1.205189
  0
VERTEX
  8
PLAN_1
 62
     2
  6
CONTINUOUS
 10
-1.257000
 20
1.205630
  0
VERTEX
  8
PLAN_1
 62
     2
  6
CONTINUOUS
 10
-1.260512
 20
1.206067
  0
VERTEX
  8
PLAN_1
 62
     2
  6
CONTINUOUS
 10
-1.263587
 20
1.207386
  0
VERTEX
  8
PLAN_1
 62
     2
  6
CONTINUOUS
 10
-1.266661
 20
1.208705
  0
VERTEX
  8
PLAN_1
 62
     2
  6
CONTINUOUS
 10
-1.269299
 20
1.210020
  0
VERTEX
  8
PLAN_1
 62
     2
  6
CONTINUOUS
 10
-1.271933
 20
1.211776
  0
VERTEX
  8
PLAN_1
 62
     2
  6
CONTINUOUS
 10
-1.274130
 20
1.213972
  0
VERTEX
  8
PLAN_1
 62
     2
  6
CONTINUOUS
 10
-1.282476
 20
1.204748
  0
VERTEX
  8
PLAN_1
 62
     2
  6
CONTINUOUS
 10
-1.285551
 20
1.207823
  0
VERTEX
  8
PLAN_1
 62
     2
  6
CONTINUOUS
 10
-1.277205
 20
1.217047
  0
VERTEX
  8
PLAN_1
 62
     2
  6
CONTINUOUS
 10
-1.279402
 20
1.220122
  0
VERTEX
  8
PLAN_1
 62
     2
  6
CONTINUOUS
 10
-1.281157
 20
1.223638
  0
VERTEX
  8
PLAN_1
 62
     2
  6
CONTINUOUS
 10
-1.282476
 20
1.227150
  0
VERTEX
  8
PLAN_1
 62
     2
  6
CONTINUOUS
 10
-1.283791
 20
1.230665
  0
VERTEX
  8
PLAN_1
 62
     2
  6
CONTINUOUS
 10
-1.284673
 20
1.234177
  0
VERTEX
  8
PLAN_1
 62
     2
  6
CONTINUOUS
 10
-1.285551
 20
1.237252
  0
VERTEX
  8
PLAN_1
 62
     2
  6
CONTINUOUS
 10
-1.285551
 20
1.240768
  0
VERTEX
  8
PLAN_1
 62
     2
  6
CONTINUOUS
 10
-1.285988
 20
1.244280
  0
VERTEX
  8
PLAN_1
 62
     2
  6
CONTINUOUS
 10
-1.285551
 20
1.250429
  0
VERTEX
  8
PLAN_1
 62
     2
  6
CONTINUOUS
 10
-1.284232
 20
1.257020
  0
VERTEX
  8
PLAN_1
 62
     2
  6
CONTINUOUS
 10
-1.282913
 20
1.260531
  0
VERTEX
  8
PLAN_1
 62
     2
  6
CONTINUOUS
 10
-1.281598
 20
1.263606
  0
VERTEX
  8
PLAN_1
 62
     2
  6
CONTINUOUS
 10
-1.279839
 20
1.266681
  0
VERTEX
  8
PLAN_1
 62
     2
  6
CONTINUOUS
 10
-1.278083
 20
1.269756
  0
VERTEX
  8
PLAN_1
 62
     2
  6
CONTINUOUS
 10
-1.275886
 20
1.272831
  0
VERTEX
  8
PLAN_1
 62
     2
  6
CONTINUOUS
 10
-1.273252
 20
1.275465
  0
VERTEX
  8
PLAN_1
 62
     2
  6
CONTINUOUS
 10
-1.270177
 20
1.277661
  0
VERTEX
  8
PLAN_1
 62
     2
  6
CONTINUOUS
 10
-1.267102
 20
1.279421
  0
VERTEX
  8
PLAN_1
 62
     2
  6
CONTINUOUS
 10
-1.263150
 20
1.281177
  0
VERTEX
  8
PLAN_1
 62
     2
  6
CONTINUOUS
 10
-1.259197
 20
1.282496
  0
VERTEX
  8
PLAN_1
 62
     2
  6
CONTINUOUS
 10
-1.254366
 20
1.283374
  0
VERTEX
  8
PLAN_1
 62
     2
  6
CONTINUOUS
 10
-1.249531
 20
1.283374
  0
VERTEX
  8
PLAN_1
 62
     2
  6
CONTINUOUS
 10
-1.245579
 20
1.283374
  0
VERTEX
  8
PLAN_1
 62
     2
  6
CONTINUOUS
 10
-1.241626
 20
1.282933
  0
VERTEX
  8
PLAN_1
 62
     2
  6
CONTINUOUS
 10
-1.238114
 20
1.282055
  0
VERTEX
  8
PLAN_1
 62
     2
  6
CONTINUOUS
 10
-1.235039
 20
1.280736
  0
VERTEX
  8
PLAN_1
 62
     2
  6
CONTINUOUS
 10
-1.231965
 20
1.279421
  0
VERTEX
  8
PLAN_1
 62
     2
  6
CONTINUOUS
 10
-1.229327
 20
1.278102
  0
VERTEX
  8
PLAN_1
 62
     2
  6
CONTINUOUS
 10
-1.226693
 20
1.276346
  0
VERTEX
  8
PLAN_1
 62
     2
  6
CONTINUOUS
 10
-1.224496
 20
1.274150
  0
VERTEX
  8
PLAN_1
 62
     2
  6
CONTINUOUS
 10
-1.216150
 20
1.283374
  0
VERTEX
  8
PLAN_1
 62
     2
  6
CONTINUOUS
 10
-1.213075
 20
1.280299
  0
VERTEX
  8
PLAN_1
 62
     2
  6
CONTINUOUS
 10
-1.221421
 20
1.271075
  0
SEQEND
  8
0
  0
POLYLINE
  8
PLAN_1
 62
     2
  6
CONTINUOUS
 66
     1
 40
0.003000
 41
0.003000
  0
VERTEX
  8
PLAN_1
 62
     2
  6
CONTINUOUS
 10
-1.267543
 20
1.221000
  0
VERTEX
  8
PLAN_1
 62
     2
  6
CONTINUOUS
 10
-1.265783
 20
1.219685
  0
VERTEX
  8
PLAN_1
 62
     2
  6
CONTINUOUS
 10
-1.263587
 20
1.217925
  0
VERTEX
  8
PLAN_1
 62
     2
  6
CONTINUOUS
 10
-1.261831
 20
1.216610
  0
VERTEX
  8
PLAN_1
 62
     2
  6
CONTINUOUS
 10
-1.259634
 20
1.215732
  0
VERTEX
  8
PLAN_1
 62
     2
  6
CONTINUOUS
 10
-1.257437
 20
1.214850
  0
VERTEX
  8
PLAN_1
 62
     2
  6
CONTINUOUS
 10
-1.254803
 20
1.214413
  0
VERTEX
  8
PLAN_1
 62
     2
  6
CONTINUOUS
 10
-1.252169
 20
1.213972
  0
VERTEX
  8
PLAN_1
 62
     2
  6
CONTINUOUS
 10
-1.249531
 20
1.213972
  0
VERTEX
  8
PLAN_1
 62
     2
  6
CONTINUOUS
 10
-1.246457
 20
1.213972
  0
VERTEX
  8
PLAN_1
 62
     2
  6
CONTINUOUS
 10
-1.243823
 20
1.214413
  0
VERTEX
  8
PLAN_1
 62
     2
  6
CONTINUOUS
 10
-1.241189
 20
1.215291
  0
VERTEX
  8
PLAN_1
 62
     2
  6
CONTINUOUS
 10
-1.238551
 20
1.216169
  0
VERTEX
  8
PLAN_1
 62
     2
  6
CONTINUOUS
 10
-1.236354
 20
1.217488
  0
VERTEX
  8
PLAN_1
 62
     2
  6
CONTINUOUS
 10
-1.234161
 20
1.218807
  0
VERTEX
  8
PLAN_1
 62
     2
  6
CONTINUOUS
 10
-1.231965
 20
1.220563
  0
VERTEX
  8
PLAN_1
 62
     2
  6
CONTINUOUS
 10
-1.230205
 20
1.222319
  0
VERTEX
  8
PLAN_1
 62
     2
  6
CONTINUOUS
 10
-1.228890
 20
1.224516
  0
VERTEX
  8
PLAN_1
 62
     2
  6
CONTINUOUS
 10
-1.227571
 20
1.226713
  0
VERTEX
  8
PLAN_1
 62
     2
  6
CONTINUOUS
 10
-1.226252
 20
1.229346
  0
VERTEX
  8
PLAN_1
 62
     2
  6
CONTINUOUS
 10
-1.225374
 20
1.231980
  0
VERTEX
  8
PLAN_1
 62
     2
  6
CONTINUOUS
 10
-1.224496
 20
1.234618
  0
VERTEX
  8
PLAN_1
 62
     2
  6
CONTINUOUS
 10
-1.224059
 20
1.237693
  0
VERTEX
  8
PLAN_1
 62
     2
  6
CONTINUOUS
 10
-1.223618
 20
1.240768
  0
VERTEX
  8
PLAN_1
 62
     2
  6
CONTINUOUS
 10
-1.223618
 20
1.244280
  0
VERTEX
  8
PLAN_1
 62
     2
  6
CONTINUOUS
 10
-1.223618
 20
1.246917
  0
VERTEX
  8
PLAN_1
 62
     2
  6
CONTINUOUS
 10
-1.223618
 20
1.249551
  0
VERTEX
  8
PLAN_1
 62
     2
  6
CONTINUOUS
 10
-1.224059
 20
1.252189
  0
VERTEX
  8
PLAN_1
 62
     2
  6
CONTINUOUS
 10
-1.224937
 20
1.254823
  0
VERTEX
  8
PLAN_1
 62
     2
  6
CONTINUOUS
 10
-1.225374
 20
1.257020
  0
VERTEX
  8
PLAN_1
 62
     2
  6
CONTINUOUS
 10
-1.226252
 20
1.259217
  0
VERTEX
  8
PLAN_1
 62
     2
  6
CONTINUOUS
 10
-1.227571
 20
1.261409
  0
VERTEX
  8
PLAN_1
 62
     2
  6
CONTINUOUS
 10
-1.228449
 20
1.263169
  0
VERTEX
  8
PLAN_1
 62
     2
  6
CONTINUOUS
 10
-1.267543
 20
1.221000
  0
SEQEND
  8
0
  0
POLYLINE
  8
PLAN_1
 62
     2
  6
CONTINUOUS
 66
     1
 40
0.003000
 41
0.003000
  0
VERTEX
  8
PLAN_1
 62
     2
  6
CONTINUOUS
 10
-1.231087
 20
1.267122
  0
VERTEX
  8
PLAN_1
 62
     2
  6
CONTINUOUS
 10
-1.232843
 20
1.268437
  0
VERTEX
  8
PLAN_1
 62
     2
  6
CONTINUOUS
 10
-1.235039
 20
1.270197
  0
VERTEX
  8
PLAN_1
 62
     2
  6
CONTINUOUS
 10
-1.236795
 20
1.271512
  0
VERTEX
  8
PLAN_1
 62
     2
  6
CONTINUOUS
 10
-1.238992
 20
1.272394
  0
VERTEX
  8
PLAN_1
 62
     2
  6
CONTINUOUS
 10
-1.241626
 20
1.273272
  0
VERTEX
  8
PLAN_1
 62
     2
  6
CONTINUOUS
 10
-1.243823
 20
1.274150
  0
VERTEX
  8
PLAN_1
 62
     2
  6
CONTINUOUS
 10
-1.246457
 20
1.274587
  0
VERTEX
  8
PLAN_1
 62
     2
  6
CONTINUOUS
 10
-1.249531
 20
1.274587
  0
VERTEX
  8
PLAN_1
 62
     2
  6
CONTINUOUS
 10
-1.252606
 20
1.274587
  0
VERTEX
  8
PLAN_1
 62
     2
  6
CONTINUOUS
 10
-1.255244
 20
1.274150
  0
VERTEX
  8
PLAN_1
 62
     2
  6
CONTINUOUS
 10
-1.257878
 20
1.273272
  0
VERTEX
  8
PLAN_1
 62
     2
  6
CONTINUOUS
 10
-1.260512
 20
1.272394
  0
VERTEX
  8
PLAN_1
 62
     2
  6
CONTINUOUS
 10
-1.262709
 20
1.271075
  0
VERTEX
  8
PLAN_1
 62
     2
  6
CONTINUOUS
 10
-1.264906
 20
1.269756
  0
VERTEX
  8
PLAN_1
 62
     2
  6
CONTINUOUS
 10
-1.266661
 20
1.268000
  0
VERTEX
  8
PLAN_1
 62
     2
  6
CONTINUOUS
 10
-1.268421
 20
1.265803
  0
VERTEX
  8
PLAN_1
 62
     2
  6
CONTINUOUS
 10
-1.270177
 20
1.263606
  0
VERTEX
  8
PLAN_1
 62
     2
  6
CONTINUOUS
 10
-1.271496
 20
1.261409
  0
VERTEX
  8
PLAN_1
 62
     2
  6
CONTINUOUS
 10
-1.272811
 20
1.259217
  0
VERTEX
  8
PLAN_1
 62
     2
  6
CONTINUOUS
 10
-1.273689
 20
1.256142
  0
VERTEX
  8
PLAN_1
 62
     2
  6
CONTINUOUS
 10
-1.274571
 20
1.253504
  0
VERTEX
  8
PLAN_1
 62
     2
  6
CONTINUOUS
 10
-1.275008
 20
1.250429
  0
VERTEX
  8
PLAN_1
 62
     2
  6
CONTINUOUS
 10
-1.275449
 20
1.247354
  0
VERTEX
  8
PLAN_1
 62
     2
  6
CONTINUOUS
 10
-1.275449
 20
1.244280
  0
VERTEX
  8
PLAN_1
 62
     2
  6
CONTINUOUS
 10
-1.275449
 20
1.241205
  0
VERTEX
  8
PLAN_1
 62
     2
  6
CONTINUOUS
 10
-1.275008
 20
1.238571
  0
VERTEX
  8
PLAN_1
 62
     2
  6
CONTINUOUS
 10
-1.274571
 20
1.235937
  0
VERTEX
  8
PLAN_1
 62
     2
  6
CONTINUOUS
 10
-1.274130
 20
1.233740
  0
VERTEX
  8
PLAN_1
 62
     2
  6
CONTINUOUS
 10
-1.273252
 20
1.231102
  0
VERTEX
  8
PLAN_1
 62
     2
  6
CONTINUOUS
 10
-1.272374
 20
1.228909
  0
VERTEX
  8
PLAN_1
 62
     2
  6
CONTINUOUS
 10
-1.271496
 20
1.226713
  0
VERTEX
  8
PLAN_1
 62
     2
  6
CONTINUOUS
 10
-1.270177
 20
1.224516
  0
VERTEX
  8
PLAN_1
 62
     2
  6
CONTINUOUS
 10
-1.231087
 20
1.267122
  0
SEQEND
  8
0
  0
POLYLINE
  8
PLAN_1
 62
     2
  6
CONTINUOUS
 66
     1
 40
0.003000
 41
0.003000
  0
VERTEX
  8
PLAN_1
 62
     2
  6
CONTINUOUS
 10
-1.136209
 20
1.224516
  0
VERTEX
  8
PLAN_1
 62
     2
  6
CONTINUOUS
 10
-1.136209
 20
1.206945
  0
VERTEX
  8
PLAN_1
 62
     2
  6
CONTINUOUS
 10
-1.145433
 20
1.206945
  0
VERTEX
  8
PLAN_1
 62
     2
  6
CONTINUOUS
 10
-1.145433
 20
1.224516
  0
VERTEX
  8
PLAN_1
 62
     2
  6
CONTINUOUS
 10
-1.177500
 20
1.224516
  0
VERTEX
  8
PLAN_1
 62
     2
  6
CONTINUOUS
 10
-1.177500
 20
1.233740
  0
VERTEX
  8
PLAN_1
 62
     2
  6
CONTINUOUS
 10
-1.143677
 20
1.279858
  0
VERTEX
  8
PLAN_1
 62
     2
  6
CONTINUOUS
 10
-1.136209
 20
1.279858
  0
VERTEX
  8
PLAN_1
 62
     2
  6
CONTINUOUS
 10
-1.136209
 20
1.232421
  0
VERTEX
  8
PLAN_1
 62
     2
  6
CONTINUOUS
 10
-1.125669
 20
1.232421
  0
VERTEX
  8
PLAN_1
 62
     2
  6
CONTINUOUS
 10
-1.125669
 20
1.224516
  0
VERTEX
  8
PLAN_1
 62
     2
  6
CONTINUOUS
 10
-1.136209
 20
1.224516
  0
SEQEND
  8
0
  0
SOLID
  8
PLAN_1
 62
     2
 10
-1.169154
 20
1.232421
 11
-1.145433
 21
1.232421
 12
-1.169154
 22
1.232421
 13
-1.145433
 23
1.265803
  0
POLYLINE
  8
PLAN_1
 62
     2
  6
CONTINUOUS
 66
     1
 40
0.003000
 41
0.003000
  0
VERTEX
  8
PLAN_1
 62
     2
  6
CONTINUOUS
 10
-1.169154
 20
1.232421
  0
VERTEX
  8
PLAN_1
 62
     2
  6
CONTINUOUS
 10
-1.145433
 20
1.232421
  0
VERTEX
  8
PLAN_1
 62
     2
  6
CONTINUOUS
 10
-1.145433
 20
1.265803
  0
VERTEX
  8
PLAN_1
 62
     2
  6
CONTINUOUS
 10
-1.169154
 20
1.232421
  0
SEQEND
  8
0
  0
POLYLINE
  8
PLAN_1
 62
     2
  6
CONTINUOUS
 66
     1
 40
0.003000
 41
0.003000
  0
VERTEX
  8
PLAN_1
 62
     2
  6
CONTINUOUS
 10
-1.036063
 20
1.281614
  0
VERTEX
  8
PLAN_1
 62
     2
  6
CONTINUOUS
 10
-1.025961
 20
1.281614
  0
VERTEX
  8
PLAN_1
 62
     2
  6
CONTINUOUS
 10
-1.025961
 20
1.206945
  0
VERTEX
  8
PLAN_1
 62
     2
  6
CONTINUOUS
 10
-1.036063
 20
1.206945
  0
VERTEX
  8
PLAN_1
 62
     2
  6
CONTINUOUS
 10
-1.036063
 20
1.241646
  0
VERTEX
  8
PLAN_1
 62
     2
  6
CONTINUOUS
 10
-1.075157
 20
1.241646
  0
VERTEX
  8
PLAN_1
 62
     2
  6
CONTINUOUS
 10
-1.075157
 20
1.206945
  0
VERTEX
  8
PLAN_1
 62
     2
  6
CONTINUOUS
 10
-1.085260
 20
1.206945
  0
VERTEX
  8
PLAN_1
 62
     2
  6
CONTINUOUS
 10
-1.085260
 20
1.281614
  0
VERTEX
  8
PLAN_1
 62
     2
  6
CONTINUOUS
 10
-1.075157
 20
1.281614
  0
VERTEX
  8
PLAN_1
 62
     2
  6
CONTINUOUS
 10
-1.075157
 20
1.250429
  0
VERTEX
  8
PLAN_1
 62
     2
  6
CONTINUOUS
 10
-1.036063
 20
1.250429
  0
VERTEX
  8
PLAN_1
 62
     2
  6
CONTINUOUS
 10
-1.036063
 20
1.281614
  0
SEQEND
  8
0
  0
POLYLINE
  8
PLAN_1
 62
     2
  6
CONTINUOUS
 66
     1
 40
0.003000
 41
0.003000
  0
VERTEX
  8
PLAN_1
 62
     2
  6
CONTINUOUS
 10
-0.951732
 20
1.206945
  0
VERTEX
  8
PLAN_1
 62
     2
  6
CONTINUOUS
 10
-0.961394
 20
1.206945
  0
VERTEX
  8
PLAN_1
 62
     2
  6
CONTINUOUS
 10
-0.961394
 20
1.258776
  0
VERTEX
  8
PLAN_1
 62
     2
  6
CONTINUOUS
 10
-0.978524
 20
1.258776
  0
VERTEX
  8
PLAN_1
 62
     2
  6
CONTINUOUS
 10
-0.978524
 20
1.265803
  0
VERTEX
  8
PLAN_1
 62
     2
  6
CONTINUOUS
 10
-0.974571
 20
1.266244
  0
VERTEX
  8
PLAN_1
 62
     2
  6
CONTINUOUS
 10
-0.970618
 20
1.266681
  0
VERTEX
  8
PLAN_1
 62
     2
  6
CONTINUOUS
 10
-0.967984
 20
1.267559
  0
VERTEX
  8
PLAN_1
 62
     2
  6
CONTINUOUS
 10
-0.965346
 20
1.268878
  0
VERTEX
  8
PLAN_1
 62
     2
  6
CONTINUOUS
 10
-0.963154
 20
1.270634
  0
VERTEX
  8
PLAN_1
 62
     2
  6
CONTINUOUS
 10
-0.961394
 20
1.272831
  0
VERTEX
  8
PLAN_1
 62
     2
  6
CONTINUOUS
 10
-0.960079
 20
1.275906
  0
VERTEX
  8
PLAN_1
 62
     2
  6
CONTINUOUS
 10
-0.958760
 20
1.279858
  0
VERTEX
  8
PLAN_1
 62
     2
  6
CONTINUOUS
 10
-0.951732
 20
1.279858
  0
VERTEX
  8
PLAN_1
 62
     2
  6
CONTINUOUS
 10
-0.951732
 20
1.206945
  0
SEQEND
  8
0
  0
POLYLINE
  8
PLAN_1
 62
     2
  6
CONTINUOUS
 66
     1
 40
0.003000
 41
0.003000
  0
VERTEX
  8
PLAN_1
 62
     2
  6
CONTINUOUS
 10
-0.893752
 20
1.206945
  0
VERTEX
  8
PLAN_1
 62
     2
  6
CONTINUOUS
 10
-0.903417
 20
1.206945
  0
VERTEX
  8
PLAN_1
 62
     2
  6
CONTINUOUS
 10
-0.903417
 20
1.258776
  0
VERTEX
  8
PLAN_1
 62
     2
  6
CONTINUOUS
 10
-0.920547
 20
1.258776
  0
VERTEX
  8
PLAN_1
 62
     2
  6
CONTINUOUS
 10
-0.920547
 20
1.265803
  0
VERTEX
  8
PLAN_1
 62
     2
  6
CONTINUOUS
 10
-0.916594
 20
1.266244
  0
VERTEX
  8
PLAN_1
 62
     2
  6
CONTINUOUS
 10
-0.913079
 20
1.266681
  0
VERTEX
  8
PLAN_1
 62
     2
  6
CONTINUOUS
 10
-0.910004
 20
1.267559
  0
VERTEX
  8
PLAN_1
 62
     2
  6
CONTINUOUS
 10
-0.907370
 20
1.268878
  0
VERTEX
  8
PLAN_1
 62
     2
  6
CONTINUOUS
 10
-0.905173
 20
1.270634
  0
VERTEX
  8
PLAN_1
 62
     2
  6
CONTINUOUS
 10
-0.903417
 20
1.272831
  0
VERTEX
  8
PLAN_1
 62
     2
  6
CONTINUOUS
 10
-0.902098
 20
1.275906
  0
VERTEX
  8
PLAN_1
 62
     2
  6
CONTINUOUS
 10
-0.900780
 20
1.279858
  0
VERTEX
  8
PLAN_1
 62
     2
  6
CONTINUOUS
 10
-0.893752
 20
1.279858
  0
VERTEX
  8
PLAN_1
 62
     2
  6
CONTINUOUS
 10
-0.893752
 20
1.206945
  0
SEQEND
  8
0
  0
POLYLINE
  8
PLAN_1
 62
     2
  6
CONTINUOUS
 66
     1
 40
0.003000
 41
0.003000
  0
VERTEX
  8
PLAN_1
 62
     2
  6
CONTINUOUS
 10
-1.451579
 20
1.136228
  0
VERTEX
  8
PLAN_1
 62
     2
  6
CONTINUOUS
 10
-1.443236
 20
1.136228
  0
VERTEX
  8
PLAN_1
 62
     2
  6
CONTINUOUS
 10
-1.443236
 20
1.128764
  0
VERTEX
  8
PLAN_1
 62
     2
  6
CONTINUOUS
 10
-1.442795
 20
1.128764
  0
VERTEX
  8
PLAN_1
 62
     2
  6
CONTINUOUS
 10
-1.441917
 20
1.129642
  0
VERTEX
  8
PLAN_1
 62
     2
  6
CONTINUOUS
 10
-1.440598
 20
1.131398
  0
VERTEX
  8
PLAN_1
 62
     2
  6
CONTINUOUS
 10
-1.439283
 20
1.132717
  0
VERTEX
  8
PLAN_1
 62
     2
  6
CONTINUOUS
 10
-1.437524
 20
1.134472
  0
VERTEX
  8
PLAN_1
 62
     2
  6
CONTINUOUS
 10
-1.435768
 20
1.135791
  0
VERTEX
  8
PLAN_1
 62
     2
  6
CONTINUOUS
 10
-1.433134
 20
1.136669
  0
VERTEX
  8
PLAN_1
 62
     2
  6
CONTINUOUS
 10
-1.430059
 20
1.137547
  0
VERTEX
  8
PLAN_1
 62
     2
  6
CONTINUOUS
 10
-1.426543
 20
1.137984
  0
VERTEX
  8
PLAN_1
 62
     2
  6
CONTINUOUS
 10
-1.423909
 20
1.137547
  0
VERTEX
  8
PLAN_1
 62
     2
  6
CONTINUOUS
 10
-1.421713
 20
1.137106
  0
VERTEX
  8
PLAN_1
 62
     2
  6
CONTINUOUS
 10
-1.419079
 20
1.136669
  0
VERTEX
  8
PLAN_1
 62
     2
  6
CONTINUOUS
 10
-1.416882
 20
1.135791
  0
VERTEX
  8
PLAN_1
 62
     2
  6
CONTINUOUS
 10
-1.415126
 20
1.134472
  0
VERTEX
  8
PLAN_1
 62
     2
  6
CONTINUOUS
 10
-1.412929
 20
1.133154
  0
VERTEX
  8
PLAN_1
 62
     2
  6
CONTINUOUS
 10
-1.411610
 20
1.131839
  0
VERTEX
  8
PLAN_1
 62
     2
  6
CONTINUOUS
 10
-1.409854
 20
1.130079
  0
VERTEX
  8
PLAN_1
 62
     2
  6
CONTINUOUS
 10
-1.408535
 20
1.127882
  0
VERTEX
  8
PLAN_1
 62
     2
  6
CONTINUOUS
 10
-1.407217
 20
1.126126
  0
VERTEX
  8
PLAN_1
 62
     2
  6
CONTINUOUS
 10
-1.406339
 20
1.123929
  0
VERTEX
  8
PLAN_1
 62
     2
  6
CONTINUOUS
 10
-1.405461
 20
1.121295
  0
VERTEX
  8
PLAN_1
 62
     2
  6
CONTINUOUS
 10
-1.404142
 20
1.116024
  0
VERTEX
  8
PLAN_1
 62
     2
  6
CONTINUOUS
 10
-1.404142
 20
1.110752
  0
VERTEX
  8
PLAN_1
 62
     2
  6
CONTINUOUS
 10
-1.404142
 20
1.105484
  0
VERTEX
  8
PLAN_1
 62
     2
  6
CONTINUOUS
 10
-1.405020
 20
1.100213
  0
VERTEX
  8
PLAN_1
 62
     2
  6
CONTINUOUS
 10
-1.406780
 20
1.095382
  0
VERTEX
  8
PLAN_1
 62
     2
  6
CONTINUOUS
 10
-1.408976
 20
1.090547
  0
VERTEX
  8
PLAN_1
 62
     2
  6
CONTINUOUS
 10
-1.410291
 20
1.088354
  0
VERTEX
  8
PLAN_1
 62
     2
  6
CONTINUOUS
 10
-1.412051
 20
1.086594
  0
VERTEX
  8
PLAN_1
 62
     2
  6
CONTINUOUS
 10
-1.414244
 20
1.084839
  0
VERTEX
  8
PLAN_1
 62
     2
  6
CONTINUOUS
 10
-1.416441
 20
1.083083
  0
VERTEX
  8
PLAN_1
 62
     2
  6
CONTINUOUS
 10
-1.418638
 20
1.081764
  0
VERTEX
  8
PLAN_1
 62
     2
  6
CONTINUOUS
 10
-1.421713
 20
1.080886
  0
VERTEX
  8
PLAN_1
 62
     2
  6
CONTINUOUS
 10
-1.424787
 20
1.080445
  0
VERTEX
  8
PLAN_1
 62
     2
  6
CONTINUOUS
 10
-1.427862
 20
1.080445
  0
VERTEX
  8
PLAN_1
 62
     2
  6
CONTINUOUS
 10
-1.430496
 20
1.080445
  0
VERTEX
  8
PLAN_1
 62
     2
  6
CONTINUOUS
 10
-1.432693
 20
1.080886
  0
VERTEX
  8
PLAN_1
 62
     2
  6
CONTINUOUS
 10
-1.434890
 20
1.081764
  0
VERTEX
  8
PLAN_1
 62
     2
  6
CONTINUOUS
 10
-1.437087
 20
1.082642
  0
VERTEX
  8
PLAN_1
 62
     2
  6
CONTINUOUS
 10
-1.438843
 20
1.083520
  0
VERTEX
  8
PLAN_1
 62
     2
  6
CONTINUOUS
 10
-1.440161
 20
1.084839
  0
VERTEX
  8
PLAN_1
 62
     2
  6
CONTINUOUS
 10
-1.441476
 20
1.086157
  0
VERTEX
  8
PLAN_1
 62
     2
  6
CONTINUOUS
 10
-1.442358
 20
1.087472
  0
VERTEX
  8
PLAN_1
 62
     2
  6
CONTINUOUS
 10
-1.442358
 20
1.060240
  0
VERTEX
  8
PLAN_1
 62
     2
  6
CONTINUOUS
 10
-1.451579
 20
1.060240
  0
VERTEX
  8
PLAN_1
 62
     2
  6
CONTINUOUS
 10
-1.451579
 20
1.136228
  0
SEQEND
  8
0
  0
POLYLINE
  8
PLAN_1
 62
     2
  6
CONTINUOUS
 66
     1
 40
0.003000
 41
0.003000
  0
VERTEX
  8
PLAN_1
 62
     2
  6
CONTINUOUS
 10
-1.428299
 20
1.088354
  0
VERTEX
  8
PLAN_1
 62
     2
  6
CONTINUOUS
 10
-1.424787
 20
1.088791
  0
VERTEX
  8
PLAN_1
 62
     2
  6
CONTINUOUS
 10
-1.421713
 20
1.089669
  0
VERTEX
  8
PLAN_1
 62
     2
  6
CONTINUOUS
 10
-1.419079
 20
1.091866
  0
VERTEX
  8
PLAN_1
 62
     2
  6
CONTINUOUS
 10
-1.416882
 20
1.094063
  0
VERTEX
  8
PLAN_1
 62
     2
  6
CONTINUOUS
 10
-1.415563
 20
1.097138
  0
VERTEX
  8
PLAN_1
 62
     2
  6
CONTINUOUS
 10
-1.414244
 20
1.100650
  0
VERTEX
  8
PLAN_1
 62
     2
  6
CONTINUOUS
 10
-1.413807
 20
1.105043
  0
VERTEX
  8
PLAN_1
 62
     2
  6
CONTINUOUS
 10
-1.413366
 20
1.108996
  0
VERTEX
  8
PLAN_1
 62
     2
  6
CONTINUOUS
 10
-1.413366
 20
1.112071
  0
VERTEX
  8
PLAN_1
 62
     2
  6
CONTINUOUS
 10
-1.413807
 20
1.115146
  0
VERTEX
  8
PLAN_1
 62
     2
  6
CONTINUOUS
 10
-1.414244
 20
1.118661
  0
VERTEX
  8
PLAN_1
 62
     2
  6
CONTINUOUS
 10
-1.415563
 20
1.122173
  0
VERTEX
  8
PLAN_1
 62
     2
  6
CONTINUOUS
 10
-1.416441
 20
1.123492
  0
VERTEX
  8
PLAN_1
 62
     2
  6
CONTINUOUS
 10
-1.417319
 20
1.124811
  0
VERTEX
  8
PLAN_1
 62
     2
  6
CONTINUOUS
 10
-1.418638
 20
1.126126
  0
VERTEX
  8
PLAN_1
 62
     2
  6
CONTINUOUS
 10
-1.419957
 20
1.127445
  0
VERTEX
  8
PLAN_1
 62
     2
  6
CONTINUOUS
 10
-1.421713
 20
1.128323
  0
VERTEX
  8
PLAN_1
 62
     2
  6
CONTINUOUS
 10
-1.423469
 20
1.129201
  0
VERTEX
  8
PLAN_1
 62
     2
  6
CONTINUOUS
 10
-1.425665
 20
1.129642
  0
VERTEX
  8
PLAN_1
 62
     2
  6
CONTINUOUS
 10
-1.428299
 20
1.129642
  0
VERTEX
  8
PLAN_1
 62
     2
  6
CONTINUOUS
 10
-1.430496
 20
1.129642
  0
VERTEX
  8
PLAN_1
 62
     2
  6
CONTINUOUS
 10
-1.432693
 20
1.128764
  0
VERTEX
  8
PLAN_1
 62
     2
  6
CONTINUOUS
 10
-1.434449
 20
1.128323
  0
VERTEX
  8
PLAN_1
 62
     2
  6
CONTINUOUS
 10
-1.436209
 20
1.127445
  0
VERTEX
  8
PLAN_1
 62
     2
  6
CONTINUOUS
 10
-1.437524
 20
1.126126
  0
VERTEX
  8
PLAN_1
 62
     2
  6
CONTINUOUS
 10
-1.438843
 20
1.124811
  0
VERTEX
  8
PLAN_1
 62
     2
  6
CONTINUOUS
 10
-1.439720
 20
1.123051
  0
VERTEX
  8
PLAN_1
 62
     2
  6
CONTINUOUS
 10
-1.440598
 20
1.121295
  0
VERTEX
  8
PLAN_1
 62
     2
  6
CONTINUOUS
 10
-1.441917
 20
1.117780
  0
VERTEX
  8
PLAN_1
 62
     2
  6
CONTINUOUS
 10
-1.442358
 20
1.113827
  0
VERTEX
  8
PLAN_1
 62
     2
  6
CONTINUOUS
 10
-1.442795
 20
1.109874
  0
VERTEX
  8
PLAN_1
 62
     2
  6
CONTINUOUS
 10
-1.442795
 20
1.106362
  0
VERTEX
  8
PLAN_1
 62
     2
  6
CONTINUOUS
 10
-1.442795
 20
1.101531
  0
VERTEX
  8
PLAN_1
 62
     2
  6
CONTINUOUS
 10
-1.441476
 20
1.097575
  0
VERTEX
  8
PLAN_1
 62
     2
  6
CONTINUOUS
 10
-1.439720
 20
1.094500
  0
VERTEX
  8
PLAN_1
 62
     2
  6
CONTINUOUS
 10
-1.437524
 20
1.091866
  0
VERTEX
  8
PLAN_1
 62
     2
  6
CONTINUOUS
 10
-1.435331
 20
1.090110
  0
VERTEX
  8
PLAN_1
 62
     2
  6
CONTINUOUS
 10
-1.432693
 20
1.089232
  0
VERTEX
  8
PLAN_1
 62
     2
  6
CONTINUOUS
 10
-1.430496
 20
1.088354
  0
VERTEX
  8
PLAN_1
 62
     2
  6
CONTINUOUS
 10
-1.428299
 20
1.088354
  0
SEQEND
  8
0
  0
POLYLINE
  8
PLAN_1
 62
     2
  6
CONTINUOUS
 66
     1
 40
0.003000
 41
0.003000
  0
VERTEX
  8
PLAN_1
 62
     2
  6
CONTINUOUS
 10
-1.382622
 20
1.081764
  0
VERTEX
  8
PLAN_1
 62
     2
  6
CONTINUOUS
 10
-1.391846
 20
1.081764
  0
VERTEX
  8
PLAN_1
 62
     2
  6
CONTINUOUS
 10
-1.391846
 20
1.136228
  0
VERTEX
  8
PLAN_1
 62
     2
  6
CONTINUOUS
 10
-1.383059
 20
1.136228
  0
VERTEX
  8
PLAN_1
 62
     2
  6
CONTINUOUS
 10
-1.383059
 20
1.127004
  0
VERTEX
  8
PLAN_1
 62
     2
  6
CONTINUOUS
 10
-1.381744
 20
1.129642
  0
VERTEX
  8
PLAN_1
 62
     2
  6
CONTINUOUS
 10
-1.379984
 20
1.131398
  0
VERTEX
  8
PLAN_1
 62
     2
  6
CONTINUOUS
 10
-1.378228
 20
1.133154
  0
VERTEX
  8
PLAN_1
 62
     2
  6
CONTINUOUS
 10
-1.376472
 20
1.134913
  0
VERTEX
  8
PLAN_1
 62
     2
  6
CONTINUOUS
 10
-1.374713
 20
1.136228
  0
VERTEX
  8
PLAN_1
 62
     2
  6
CONTINUOUS
 10
-1.372520
 20
1.137106
  0
VERTEX
  8
PLAN_1
 62
     2
  6
CONTINUOUS
 10
-1.370323
 20
1.137547
  0
VERTEX
  8
PLAN_1
 62
     2
  6
CONTINUOUS
 10
-1.367685
 20
1.137984
  0
VERTEX
  8
PLAN_1
 62
     2
  6
CONTINUOUS
 10
-1.367248
 20
1.137984
  0
VERTEX
  8
PLAN_1
 62
     2
  6
CONTINUOUS
 10
-1.366807
 20
1.137984
  0
VERTEX
  8
PLAN_1
 62
     2
  6
CONTINUOUS
 10
-1.366807
 20
1.137547
  0
VERTEX
  8
PLAN_1
 62
     2
  6
CONTINUOUS
 10
-1.366370
 20
1.137547
  0
VERTEX
  8
PLAN_1
 62
     2
  6
CONTINUOUS
 10
-1.365929
 20
1.137547
  0
VERTEX
  8
PLAN_1
 62
     2
  6
CONTINUOUS
 10
-1.365492
 20
1.137547
  0
VERTEX
  8
PLAN_1
 62
     2
  6
CONTINUOUS
 10
-1.365492
 20
1.127882
  0
VERTEX
  8
PLAN_1
 62
     2
  6
CONTINUOUS
 10
-1.368567
 20
1.127882
  0
VERTEX
  8
PLAN_1
 62
     2
  6
CONTINUOUS
 10
-1.371642
 20
1.127882
  0
VERTEX
  8
PLAN_1
 62
     2
  6
CONTINUOUS
 10
-1.374713
 20
1.127004
  0
VERTEX
  8
PLAN_1
 62
     2
  6
CONTINUOUS
 10
-1.376909
 20
1.125689
  0
VERTEX
  8
PLAN_1
 62
     2
  6
CONTINUOUS
 10
-1.379106
 20
1.123929
  0
VERTEX
  8
PLAN_1
 62
     2
  6
CONTINUOUS
 10
-1.380425
 20
1.121736
  0
VERTEX
  8
PLAN_1
 62
     2
  6
CONTINUOUS
 10
-1.381744
 20
1.119098
  0
VERTEX
  8
PLAN_1
 62
     2
  6
CONTINUOUS
 10
-1.382622
 20
1.116465
  0
VERTEX
  8
PLAN_1
 62
     2
  6
CONTINUOUS
 10
-1.382622
 20
1.113390
  0
VERTEX
  8
PLAN_1
 62
     2
  6
CONTINUOUS
 10
-1.382622
 20
1.081764
  0
SEQEND
  8
0
  0
POLYLINE
  8
PLAN_1
 62
     2
  6
CONTINUOUS
 66
     1
 40
0.003000
 41
0.003000
  0
VERTEX
  8
PLAN_1
 62
     2
  6
CONTINUOUS
 10
-1.336063
 20
1.137984
  0
VERTEX
  8
PLAN_1
 62
     2
  6
CONTINUOUS
 10
-1.332988
 20
1.137547
  0
VERTEX
  8
PLAN_1
 62
     2
  6
CONTINUOUS
 10
-1.330350
 20
1.137106
  0
VERTEX
  8
PLAN_1
 62
     2
  6
CONTINUOUS
 10
-1.327717
 20
1.136228
  0
VERTEX
  8
PLAN_1
 62
     2
  6
CONTINUOUS
 10
-1.325083
 20
1.135350
  0
VERTEX
  8
PLAN_1
 62
     2
  6
CONTINUOUS
 10
-1.322886
 20
1.134031
  0
VERTEX
  8
PLAN_1
 62
     2
  6
CONTINUOUS
 10
-1.320689
 20
1.132276
  0
VERTEX
  8
PLAN_1
 62
     2
  6
CONTINUOUS
 10
-1.318933
 20
1.130520
  0
VERTEX
  8
PLAN_1
 62
     2
  6
CONTINUOUS
 10
-1.317173
 20
1.128764
  0
VERTEX
  8
PLAN_1
 62
     2
  6
CONTINUOUS
 10
-1.315858
 20
1.126567
  0
VERTEX
  8
PLAN_1
 62
     2
  6
CONTINUOUS
 10
-1.314539
 20
1.124370
  0
VERTEX
  8
PLAN_1
 62
     2
  6
CONTINUOUS
 10
-1.313220
 20
1.122173
  0
VERTEX
  8
PLAN_1
 62
     2
  6
CONTINUOUS
 10
-1.312343
 20
1.119539
  0
VERTEX
  8
PLAN_1
 62
     2
  6
CONTINUOUS
 10
-1.311465
 20
1.114268
  0
VERTEX
  8
PLAN_1
 62
     2
  6
CONTINUOUS
 10
-1.311024
 20
1.108996
  0
VERTEX
  8
PLAN_1
 62
     2
  6
CONTINUOUS
 10
-1.311465
 20
1.103724
  0
VERTEX
  8
PLAN_1
 62
     2
  6
CONTINUOUS
 10
-1.312343
 20
1.098894
  0
VERTEX
  8
PLAN_1
 62
     2
  6
CONTINUOUS
 10
-1.313220
 20
1.096260
  0
VERTEX
  8
PLAN_1
 62
     2
  6
CONTINUOUS
 10
-1.314539
 20
1.093622
  0
VERTEX
  8
PLAN_1
 62
     2
  6
CONTINUOUS
 10
-1.315858
 20
1.091429
  0
VERTEX
  8
PLAN_1
 62
     2
  6
CONTINUOUS
 10
-1.317173
 20
1.089669
  0
VERTEX
  8
PLAN_1
 62
     2
  6
CONTINUOUS
 10
-1.318933
 20
1.087472
  0
VERTEX
  8
PLAN_1
 62
     2
  6
CONTINUOUS
 10
-1.320689
 20
1.085717
  0
VERTEX
  8
PLAN_1
 62
     2
  6
CONTINUOUS
 10
-1.322886
 20
1.084398
  0
VERTEX
  8
PLAN_1
 62
     2
  6
CONTINUOUS
 10
-1.325083
 20
1.083083
  0
VERTEX
  8
PLAN_1
 62
     2
  6
CONTINUOUS
 10
-1.327717
 20
1.081764
  0
VERTEX
  8
PLAN_1
 62
     2
  6
CONTINUOUS
 10
-1.330350
 20
1.080886
  0
VERTEX
  8
PLAN_1
 62
     2
  6
CONTINUOUS
 10
-1.332988
 20
1.080445
  0
VERTEX
  8
PLAN_1
 62
     2
  6
CONTINUOUS
 10
-1.336063
 20
1.080445
  0
VERTEX
  8
PLAN_1
 62
     2
  6
CONTINUOUS
 10
-1.339575
 20
1.080445
  0
VERTEX
  8
PLAN_1
 62
     2
  6
CONTINUOUS
 10
-1.342213
 20
1.080886
  0
VERTEX
  8
PLAN_1
 62
     2
  6
CONTINUOUS
 10
-1.345287
 20
1.081764
  0
VERTEX
  8
PLAN_1
 62
     2
  6
CONTINUOUS
 10
-1.347480
 20
1.083083
  0
VERTEX
  8
PLAN_1
 62
     2
  6
CONTINUOUS
 10
-1.349677
 20
1.084398
  0
VERTEX
  8
PLAN_1
 62
     2
  6
CONTINUOUS
 10
-1.351874
 20
1.085717
  0
VERTEX
  8
PLAN_1
 62
     2
  6
CONTINUOUS
 10
-1.353630
 20
1.087472
  0
VERTEX
  8
PLAN_1
 62
     2
  6
CONTINUOUS
 10
-1.355390
 20
1.089669
  0
VERTEX
  8
PLAN_1
 62
     2
  6
CONTINUOUS
 10
-1.356705
 20
1.091429
  0
VERTEX
  8
PLAN_1
 62
     2
  6
CONTINUOUS
 10
-1.358024
 20
1.093622
  0
VERTEX
  8
PLAN_1
 62
     2
  6
CONTINUOUS
 10
-1.359343
 20
1.096260
  0
VERTEX
  8
PLAN_1
 62
     2
  6
CONTINUOUS
 10
-1.360220
 20
1.098894
  0
VERTEX
  8
PLAN_1
 62
     2
  6
CONTINUOUS
 10
-1.361098
 20
1.103724
  0
VERTEX
  8
PLAN_1
 62
     2
  6
CONTINUOUS
 10
-1.361539
 20
1.108996
  0
VERTEX
  8
PLAN_1
 62
     2
  6
CONTINUOUS
 10
-1.361098
 20
1.114268
  0
VERTEX
  8
PLAN_1
 62
     2
  6
CONTINUOUS
 10
-1.360220
 20
1.119539
  0
VERTEX
  8
PLAN_1
 62
     2
  6
CONTINUOUS
 10
-1.359343
 20
1.122173
  0
VERTEX
  8
PLAN_1
 62
     2
  6
CONTINUOUS
 10
-1.358024
 20
1.124370
  0
VERTEX
  8
PLAN_1
 62
     2
  6
CONTINUOUS
 10
-1.356705
 20
1.126567
  0
VERTEX
  8
PLAN_1
 62
     2
  6
CONTINUOUS
 10
-1.355390
 20
1.128764
  0
VERTEX
  8
PLAN_1
 62
     2
  6
CONTINUOUS
 10
-1.353630
 20
1.130520
  0
VERTEX
  8
PLAN_1
 62
     2
  6
CONTINUOUS
 10
-1.351874
 20
1.132276
  0
VERTEX
  8
PLAN_1
 62
     2
  6
CONTINUOUS
 10
-1.349677
 20
1.134031
  0
VERTEX
  8
PLAN_1
 62
     2
  6
CONTINUOUS
 10
-1.347480
 20
1.135350
  0
VERTEX
  8
PLAN_1
 62
     2
  6
CONTINUOUS
 10
-1.345287
 20
1.136228
  0
VERTEX
  8
PLAN_1
 62
     2
  6
CONTINUOUS
 10
-1.342213
 20
1.137106
  0
VERTEX
  8
PLAN_1
 62
     2
  6
CONTINUOUS
 10
-1.339575
 20
1.137547
  0
VERTEX
  8
PLAN_1
 62
     2
  6
CONTINUOUS
 10
-1.336063
 20
1.137984
  0
SEQEND
  8
0
  0
POLYLINE
  8
PLAN_1
 62
     2
  6
CONTINUOUS
 66
     1
 40
0.003000
 41
0.003000
  0
VERTEX
  8
PLAN_1
 62
     2
  6
CONTINUOUS
 10
-1.336063
 20
1.088354
  0
VERTEX
  8
PLAN_1
 62
     2
  6
CONTINUOUS
 10
-1.333866
 20
1.088354
  0
VERTEX
  8
PLAN_1
 62
     2
  6
CONTINUOUS
 10
-1.331669
 20
1.088791
  0
VERTEX
  8
PLAN_1
 62
     2
  6
CONTINUOUS
 10
-1.329913
 20
1.089669
  0
VERTEX
  8
PLAN_1
 62
     2
  6
CONTINUOUS
 10
-1.328157
 20
1.090547
  0
VERTEX
  8
PLAN_1
 62
     2
  6
CONTINUOUS
 10
-1.326839
 20
1.091429
  0
VERTEX
  8
PLAN_1
 62
     2
  6
CONTINUOUS
 10
-1.325520
 20
1.092744
  0
VERTEX
  8
PLAN_1
 62
     2
  6
CONTINUOUS
 10
-1.324201
 20
1.094500
  0
VERTEX
  8
PLAN_1
 62
     2
  6
CONTINUOUS
 10
-1.323323
 20
1.095819
  0
VERTEX
  8
PLAN_1
 62
     2
  6
CONTINUOUS
 10
-1.322008
 20
1.099335
  0
VERTEX
  8
PLAN_1
 62
     2
  6
CONTINUOUS
 10
-1.321126
 20
1.102846
  0
VERTEX
  8
PLAN_1
 62
     2
  6
CONTINUOUS
 10
-1.320689
 20
1.105921
  0
VERTEX
  8
PLAN_1
 62
     2
  6
CONTINUOUS
 10
-1.320689
 20
1.108996
  0
VERTEX
  8
PLAN_1
 62
     2
  6
CONTINUOUS
 10
-1.320689
 20
1.112071
  0
VERTEX
  8
PLAN_1
 62
     2
  6
CONTINUOUS
 10
-1.321126
 20
1.115587
  0
VERTEX
  8
PLAN_1
 62
     2
  6
CONTINUOUS
 10
-1.322008
 20
1.118661
  0
VERTEX
  8
PLAN_1
 62
     2
  6
CONTINUOUS
 10
-1.323323
 20
1.122173
  0
VERTEX
  8
PLAN_1
 62
     2
  6
CONTINUOUS
 10
-1.324201
 20
1.123929
  0
VERTEX
  8
PLAN_1
 62
     2
  6
CONTINUOUS
 10
-1.325520
 20
1.125248
  0
VERTEX
  8
PLAN_1
 62
     2
  6
CONTINUOUS
 10
-1.326839
 20
1.126567
  0
VERTEX
  8
PLAN_1
 62
     2
  6
CONTINUOUS
 10
-1.328157
 20
1.127882
  0
VERTEX
  8
PLAN_1
 62
     2
  6
CONTINUOUS
 10
-1.329913
 20
1.128764
  0
VERTEX
  8
PLAN_1
 62
     2
  6
CONTINUOUS
 10
-1.331669
 20
1.129201
  0
VERTEX
  8
PLAN_1
 62
     2
  6
CONTINUOUS
 10
-1.333866
 20
1.129642
  0
VERTEX
  8
PLAN_1
 62
     2
  6
CONTINUOUS
 10
-1.336063
 20
1.130079
  0
VERTEX
  8
PLAN_1
 62
     2
  6
CONTINUOUS
 10
-1.338697
 20
1.129642
  0
VERTEX
  8
PLAN_1
 62
     2
  6
CONTINUOUS
 10
-1.340894
 20
1.129201
  0
VERTEX
  8
PLAN_1
 62
     2
  6
CONTINUOUS
 10
-1.342650
 20
1.128764
  0
VERTEX
  8
PLAN_1
 62
     2
  6
CONTINUOUS
 10
-1.344406
 20
1.127882
  0
VERTEX
  8
PLAN_1
 62
     2
  6
CONTINUOUS
 10
-1.345724
 20
1.126567
  0
VERTEX
  8
PLAN_1
 62
     2
  6
CONTINUOUS
 10
-1.347043
 20
1.125248
  0
VERTEX
  8
PLAN_1
 62
     2
  6
CONTINUOUS
 10
-1.348362
 20
1.123929
  0
VERTEX
  8
PLAN_1
 62
     2
  6
CONTINUOUS
 10
-1.349240
 20
1.122173
  0
VERTEX
  8
PLAN_1
 62
     2
  6
CONTINUOUS
 10
-1.350555
 20
1.118661
  0
VERTEX
  8
PLAN_1
 62
     2
  6
CONTINUOUS
 10
-1.351437
 20
1.115587
  0
VERTEX
  8
PLAN_1
 62
     2
  6
CONTINUOUS
 10
-1.351874
 20
1.112071
  0
VERTEX
  8
PLAN_1
 62
     2
  6
CONTINUOUS
 10
-1.352315
 20
1.108996
  0
VERTEX
  8
PLAN_1
 62
     2
  6
CONTINUOUS
 10
-1.351874
 20
1.105921
  0
VERTEX
  8
PLAN_1
 62
     2
  6
CONTINUOUS
 10
-1.351437
 20
1.102846
  0
VERTEX
  8
PLAN_1
 62
     2
  6
CONTINUOUS
 10
-1.350555
 20
1.099335
  0
VERTEX
  8
PLAN_1
 62
     2
  6
CONTINUOUS
 10
-1.349240
 20
1.095819
  0
VERTEX
  8
PLAN_1
 62
     2
  6
CONTINUOUS
 10
-1.348362
 20
1.094500
  0
VERTEX
  8
PLAN_1
 62
     2
  6
CONTINUOUS
 10
-1.347043
 20
1.092744
  0
VERTEX
  8
PLAN_1
 62
     2
  6
CONTINUOUS
 10
-1.345724
 20
1.091429
  0
VERTEX
  8
PLAN_1
 62
     2
  6
CONTINUOUS
 10
-1.344406
 20
1.090547
  0
VERTEX
  8
PLAN_1
 62
     2
  6
CONTINUOUS
 10
-1.342650
 20
1.089669
  0
VERTEX
  8
PLAN_1
 62
     2
  6
CONTINUOUS
 10
-1.340894
 20
1.088791
  0
VERTEX
  8
PLAN_1
 62
     2
  6
CONTINUOUS
 10
-1.338697
 20
1.088354
  0
VERTEX
  8
PLAN_1
 62
     2
  6
CONTINUOUS
 10
-1.336063
 20
1.088354
  0
SEQEND
  8
0
  0
POLYLINE
  8
PLAN_1
 62
     2
  6
CONTINUOUS
 66
     1
 40
0.003000
 41
0.003000
  0
VERTEX
  8
PLAN_1
 62
     2
  6
CONTINUOUS
 10
-1.289063
 20
1.128764
  0
VERTEX
  8
PLAN_1
 62
     2
  6
CONTINUOUS
 10
-1.289063
 20
1.081764
  0
VERTEX
  8
PLAN_1
 62
     2
  6
CONTINUOUS
 10
-1.298287
 20
1.081764
  0
VERTEX
  8
PLAN_1
 62
     2
  6
CONTINUOUS
 10
-1.298287
 20
1.128764
  0
VERTEX
  8
PLAN_1
 62
     2
  6
CONTINUOUS
 10
-1.305756
 20
1.128764
  0
VERTEX
  8
PLAN_1
 62
     2
  6
CONTINUOUS
 10
-1.305756
 20
1.136228
  0
VERTEX
  8
PLAN_1
 62
     2
  6
CONTINUOUS
 10
-1.298287
 20
1.136228
  0
VERTEX
  8
PLAN_1
 62
     2
  6
CONTINUOUS
 10
-1.298287
 20
1.145453
  0
VERTEX
  8
PLAN_1
 62
     2
  6
CONTINUOUS
 10
-1.298287
 20
1.148528
  0
VERTEX
  8
PLAN_1
 62
     2
  6
CONTINUOUS
 10
-1.297409
 20
1.151161
  0
VERTEX
  8
PLAN_1
 62
     2
  6
CONTINUOUS
 10
-1.296091
 20
1.152921
  0
VERTEX
  8
PLAN_1
 62
     2
  6
CONTINUOUS
 10
-1.294776
 20
1.154677
  0
VERTEX
  8
PLAN_1
 62
     2
  6
CONTINUOUS
 10
-1.292579
 20
1.155996
  0
VERTEX
  8
PLAN_1
 62
     2
  6
CONTINUOUS
 10
-1.290382
 20
1.156874
  0
VERTEX
  8
PLAN_1
 62
     2
  6
CONTINUOUS
 10
-1.287307
 20
1.157311
  0
VERTEX
  8
PLAN_1
 62
     2
  6
CONTINUOUS
 10
-1.284232
 20
1.157752
  0
VERTEX
  8
PLAN_1
 62
     2
  6
CONTINUOUS
 10
-1.283791
 20
1.157752
  0
VERTEX
  8
PLAN_1
 62
     2
  6
CONTINUOUS
 10
-1.283354
 20
1.157752
  0
VERTEX
  8
PLAN_1
 62
     2
  6
CONTINUOUS
 10
-1.282476
 20
1.157752
  0
VERTEX
  8
PLAN_1
 62
     2
  6
CONTINUOUS
 10
-1.282035
 20
1.157311
  0
VERTEX
  8
PLAN_1
 62
     2
  6
CONTINUOUS
 10
-1.281598
 20
1.157311
  0
VERTEX
  8
PLAN_1
 62
     2
  6
CONTINUOUS
 10
-1.281157
 20
1.157311
  0
VERTEX
  8
PLAN_1
 62
     2
  6
CONTINUOUS
 10
-1.280717
 20
1.157311
  0
VERTEX
  8
PLAN_1
 62
     2
  6
CONTINUOUS
 10
-1.279839
 20
1.157311
  0
VERTEX
  8
PLAN_1
 62
     2
  6
CONTINUOUS
 10
-1.279839
 20
1.148969
  0
VERTEX
  8
PLAN_1
 62
     2
  6
CONTINUOUS
 10
-1.280280
 20
1.149406
  0
VERTEX
  8
PLAN_1
 62
     2
  6
CONTINUOUS
 10
-1.281157
 20
1.149406
  0
VERTEX
  8
PLAN_1
 62
     2
  6
CONTINUOUS
 10
-1.281598
 20
1.149406
  0
VERTEX
  8
PLAN_1
 62
     2
  6
CONTINUOUS
 10
-1.282035
 20
1.149406
  0
VERTEX
  8
PLAN_1
 62
     2
  6
CONTINUOUS
 10
-1.282476
 20
1.149406
  0
VERTEX
  8
PLAN_1
 62
     2
  6
CONTINUOUS
 10
-1.282913
 20
1.149406
  0
VERTEX
  8
PLAN_1
 62
     2
  6
CONTINUOUS
 10
-1.283354
 20
1.149406
  0
VERTEX
  8
PLAN_1
 62
     2
  6
CONTINUOUS
 10
-1.283791
 20
1.149406
  0
VERTEX
  8
PLAN_1
 62
     2
  6
CONTINUOUS
 10
-1.285110
 20
1.149406
  0
VERTEX
  8
PLAN_1
 62
     2
  6
CONTINUOUS
 10
-1.286429
 20
1.148969
  0
VERTEX
  8
PLAN_1
 62
     2
  6
CONTINUOUS
 10
-1.287307
 20
1.148528
  0
VERTEX
  8
PLAN_1
 62
     2
  6
CONTINUOUS
 10
-1.288185
 20
1.147650
  0
VERTEX
  8
PLAN_1
 62
     2
  6
CONTINUOUS
 10
-1.288626
 20
1.146772
  0
VERTEX
  8
PLAN_1
 62
     2
  6
CONTINUOUS
 10
-1.289063
 20
1.145894
  0
VERTEX
  8
PLAN_1
 62
     2
  6
CONTINUOUS
 10
-1.289063
 20
1.144575
  0
VERTEX
  8
PLAN_1
 62
     2
  6
CONTINUOUS
 10
-1.289063
 20
1.142819
  0
VERTEX
  8
PLAN_1
 62
     2
  6
CONTINUOUS
 10
-1.289063
 20
1.136228
  0
VERTEX
  8
PLAN_1
 62
     2
  6
CONTINUOUS
 10
-1.279839
 20
1.136228
  0
VERTEX
  8
PLAN_1
 62
     2
  6
CONTINUOUS
 10
-1.279839
 20
1.128764
  0
VERTEX
  8
PLAN_1
 62
     2
  6
CONTINUOUS
 10
-1.289063
 20
1.128764
  0
SEQEND
  8
0
  0
POLYLINE
  8
PLAN_1
 62
     2
  6
CONTINUOUS
 66
     1
 40
0.003000
 41
0.003000
  0
VERTEX
  8
PLAN_1
 62
     2
  6
CONTINUOUS
 10
-1.252606
 20
1.137984
  0
VERTEX
  8
PLAN_1
 62
     2
  6
CONTINUOUS
 10
-1.249531
 20
1.137547
  0
VERTEX
  8
PLAN_1
 62
     2
  6
CONTINUOUS
 10
-1.246457
 20
1.137106
  0
VERTEX
  8
PLAN_1
 62
     2
  6
CONTINUOUS
 10
-1.243823
 20
1.136228
  0
VERTEX
  8
PLAN_1
 62
     2
  6
CONTINUOUS
 10
-1.241189
 20
1.135350
  0
VERTEX
  8
PLAN_1
 62
     2
  6
CONTINUOUS
 10
-1.238992
 20
1.134031
  0
VERTEX
  8
PLAN_1
 62
     2
  6
CONTINUOUS
 10
-1.236795
 20
1.132276
  0
VERTEX
  8
PLAN_1
 62
     2
  6
CONTINUOUS
 10
-1.235039
 20
1.130520
  0
VERTEX
  8
PLAN_1
 62
     2
  6
CONTINUOUS
 10
-1.233280
 20
1.128764
  0
VERTEX
  8
PLAN_1
 62
     2
  6
CONTINUOUS
 10
-1.231965
 20
1.126567
  0
VERTEX
  8
PLAN_1
 62
     2
  6
CONTINUOUS
 10
-1.230646
 20
1.124370
  0
VERTEX
  8
PLAN_1
 62
     2
  6
CONTINUOUS
 10
-1.229768
 20
1.122173
  0
VERTEX
  8
PLAN_1
 62
     2
  6
CONTINUOUS
 10
-1.228890
 20
1.119539
  0
VERTEX
  8
PLAN_1
 62
     2
  6
CONTINUOUS
 10
-1.227571
 20
1.114268
  0
VERTEX
  8
PLAN_1
 62
     2
  6
CONTINUOUS
 10
-1.227130
 20
1.108996
  0
VERTEX
  8
PLAN_1
 62
     2
  6
CONTINUOUS
 10
-1.227571
 20
1.103724
  0
VERTEX
  8
PLAN_1
 62
     2
  6
CONTINUOUS
 10
-1.228890
 20
1.098894
  0
VERTEX
  8
PLAN_1
 62
     2
  6
CONTINUOUS
 10
-1.229768
 20
1.096260
  0
VERTEX
  8
PLAN_1
 62
     2
  6
CONTINUOUS
 10
-1.230646
 20
1.093622
  0
VERTEX
  8
PLAN_1
 62
     2
  6
CONTINUOUS
 10
-1.231965
 20
1.091429
  0
VERTEX
  8
PLAN_1
 62
     2
  6
CONTINUOUS
 10
-1.233280
 20
1.089669
  0
VERTEX
  8
PLAN_1
 62
     2
  6
CONTINUOUS
 10
-1.235039
 20
1.087472
  0
VERTEX
  8
PLAN_1
 62
     2
  6
CONTINUOUS
 10
-1.236795
 20
1.085717
  0
VERTEX
  8
PLAN_1
 62
     2
  6
CONTINUOUS
 10
-1.238992
 20
1.084398
  0
VERTEX
  8
PLAN_1
 62
     2
  6
CONTINUOUS
 10
-1.241189
 20
1.083083
  0
VERTEX
  8
PLAN_1
 62
     2
  6
CONTINUOUS
 10
-1.243823
 20
1.081764
  0
VERTEX
  8
PLAN_1
 62
     2
  6
CONTINUOUS
 10
-1.246457
 20
1.080886
  0
VERTEX
  8
PLAN_1
 62
     2
  6
CONTINUOUS
 10
-1.249531
 20
1.080445
  0
VERTEX
  8
PLAN_1
 62
     2
  6
CONTINUOUS
 10
-1.252606
 20
1.080445
  0
VERTEX
  8
PLAN_1
 62
     2
  6
CONTINUOUS
 10
-1.255681
 20
1.080445
  0
VERTEX
  8
PLAN_1
 62
     2
  6
CONTINUOUS
 10
-1.258756
 20
1.080886
  0
VERTEX
  8
PLAN_1
 62
     2
  6
CONTINUOUS
 10
-1.261394
 20
1.081764
  0
VERTEX
  8
PLAN_1
 62
     2
  6
CONTINUOUS
 10
-1.264028
 20
1.083083
  0
VERTEX
  8
PLAN_1
 62
     2
  6
CONTINUOUS
 10
-1.266224
 20
1.084398
  0
VERTEX
  8
PLAN_1
 62
     2
  6
CONTINUOUS
 10
-1.267980
 20
1.085717
  0
VERTEX
  8
PLAN_1
 62
     2
  6
CONTINUOUS
 10
-1.270177
 20
1.087472
  0
VERTEX
  8
PLAN_1
 62
     2
  6
CONTINUOUS
 10
-1.271496
 20
1.089669
  0
VERTEX
  8
PLAN_1
 62
     2
  6
CONTINUOUS
 10
-1.273252
 20
1.091429
  0
VERTEX
  8
PLAN_1
 62
     2
  6
CONTINUOUS
 10
-1.274571
 20
1.093622
  0
VERTEX
  8
PLAN_1
 62
     2
  6
CONTINUOUS
 10
-1.275449
 20
1.096260
  0
VERTEX
  8
PLAN_1
 62
     2
  6
CONTINUOUS
 10
-1.276327
 20
1.098894
  0
VERTEX
  8
PLAN_1
 62
     2
  6
CONTINUOUS
 10
-1.277646
 20
1.103724
  0
VERTEX
  8
PLAN_1
 62
     2
  6
CONTINUOUS
 10
-1.277646
 20
1.108996
  0
VERTEX
  8
PLAN_1
 62
     2
  6
CONTINUOUS
 10
-1.277646
 20
1.114268
  0
VERTEX
  8
PLAN_1
 62
     2
  6
CONTINUOUS
 10
-1.276327
 20
1.119539
  0
VERTEX
  8
PLAN_1
 62
     2
  6
CONTINUOUS
 10
-1.275449
 20
1.122173
  0
VERTEX
  8
PLAN_1
 62
     2
  6
CONTINUOUS
 10
-1.274571
 20
1.124370
  0
VERTEX
  8
PLAN_1
 62
     2
  6
CONTINUOUS
 10
-1.273252
 20
1.126567
  0
VERTEX
  8
PLAN_1
 62
     2
  6
CONTINUOUS
 10
-1.271496
 20
1.128764
  0
VERTEX
  8
PLAN_1
 62
     2
  6
CONTINUOUS
 10
-1.270177
 20
1.130520
  0
VERTEX
  8
PLAN_1
 62
     2
  6
CONTINUOUS
 10
-1.267980
 20
1.132276
  0
VERTEX
  8
PLAN_1
 62
     2
  6
CONTINUOUS
 10
-1.266224
 20
1.134031
  0
VERTEX
  8
PLAN_1
 62
     2
  6
CONTINUOUS
 10
-1.264028
 20
1.135350
  0
VERTEX
  8
PLAN_1
 62
     2
  6
CONTINUOUS
 10
-1.261394
 20
1.136228
  0
VERTEX
  8
PLAN_1
 62
     2
  6
CONTINUOUS
 10
-1.258756
 20
1.137106
  0
VERTEX
  8
PLAN_1
 62
     2
  6
CONTINUOUS
 10
-1.255681
 20
1.137547
  0
VERTEX
  8
PLAN_1
 62
     2
  6
CONTINUOUS
 10
-1.252606
 20
1.137984
  0
SEQEND
  8
0
  0
POLYLINE
  8
PLAN_1
 62
     2
  6
CONTINUOUS
 66
     1
 40
0.003000
 41
0.003000
  0
VERTEX
  8
PLAN_1
 62
     2
  6
CONTINUOUS
 10
-1.252606
 20
1.088354
  0
VERTEX
  8
PLAN_1
 62
     2
  6
CONTINUOUS
 10
-1.250409
 20
1.088354
  0
VERTEX
  8
PLAN_1
 62
     2
  6
CONTINUOUS
 10
-1.248217
 20
1.088791
  0
VERTEX
  8
PLAN_1
 62
     2
  6
CONTINUOUS
 10
-1.246020
 20
1.089669
  0
VERTEX
  8
PLAN_1
 62
     2
  6
CONTINUOUS
 10
-1.244701
 20
1.090547
  0
VERTEX
  8
PLAN_1
 62
     2
  6
CONTINUOUS
 10
-1.242945
 20
1.091429
  0
VERTEX
  8
PLAN_1
 62
     2
  6
CONTINUOUS
 10
-1.241626
 20
1.092744
  0
VERTEX
  8
PLAN_1
 62
     2
  6
CONTINUOUS
 10
-1.240748
 20
1.094500
  0
VERTEX
  8
PLAN_1
 62
     2
  6
CONTINUOUS
 10
-1.239870
 20
1.095819
  0
VERTEX
  8
PLAN_1
 62
     2
  6
CONTINUOUS
 10
-1.238114
 20
1.099335
  0
VERTEX
  8
PLAN_1
 62
     2
  6
CONTINUOUS
 10
-1.237232
 20
1.102846
  0
VERTEX
  8
PLAN_1
 62
     2
  6
CONTINUOUS
 10
-1.236795
 20
1.105921
  0
VERTEX
  8
PLAN_1
 62
     2
  6
CONTINUOUS
 10
-1.236795
 20
1.108996
  0
VERTEX
  8
PLAN_1
 62
     2
  6
CONTINUOUS
 10
-1.236795
 20
1.112071
  0
VERTEX
  8
PLAN_1
 62
     2
  6
CONTINUOUS
 10
-1.237232
 20
1.115587
  0
VERTEX
  8
PLAN_1
 62
     2
  6
CONTINUOUS
 10
-1.238114
 20
1.118661
  0
VERTEX
  8
PLAN_1
 62
     2
  6
CONTINUOUS
 10
-1.239870
 20
1.122173
  0
VERTEX
  8
PLAN_1
 62
     2
  6
CONTINUOUS
 10
-1.240748
 20
1.123929
  0
VERTEX
  8
PLAN_1
 62
     2
  6
CONTINUOUS
 10
-1.241626
 20
1.125248
  0
VERTEX
  8
PLAN_1
 62
     2
  6
CONTINUOUS
 10
-1.242945
 20
1.126567
  0
VERTEX
  8
PLAN_1
 62
     2
  6
CONTINUOUS
 10
-1.244701
 20
1.127882
  0
VERTEX
  8
PLAN_1
 62
     2
  6
CONTINUOUS
 10
-1.246020
 20
1.128764
  0
VERTEX
  8
PLAN_1
 62
     2
  6
CONTINUOUS
 10
-1.248217
 20
1.129201
  0
VERTEX
  8
PLAN_1
 62
     2
  6
CONTINUOUS
 10
-1.250409
 20
1.129642
  0
VERTEX
  8
PLAN_1
 62
     2
  6
CONTINUOUS
 10
-1.252606
 20
1.130079
  0
VERTEX
  8
PLAN_1
 62
     2
  6
CONTINUOUS
 10
-1.254803
 20
1.129642
  0
VERTEX
  8
PLAN_1
 62
     2
  6
CONTINUOUS
 10
-1.257000
 20
1.129201
  0
VERTEX
  8
PLAN_1
 62
     2
  6
CONTINUOUS
 10
-1.258756
 20
1.128764
  0
VERTEX
  8
PLAN_1
 62
     2
  6
CONTINUOUS
 10
-1.260512
 20
1.127882
  0
VERTEX
  8
PLAN_1
 62
     2
  6
CONTINUOUS
 10
-1.261831
 20
1.126567
  0
VERTEX
  8
PLAN_1
 62
     2
  6
CONTINUOUS
 10
-1.263150
 20
1.125248
  0
VERTEX
  8
PLAN_1
 62
     2
  6
CONTINUOUS
 10
-1.264469
 20
1.123929
  0
VERTEX
  8
PLAN_1
 62
     2
  6
CONTINUOUS
 10
-1.265346
 20
1.122173
  0
VERTEX
  8
PLAN_1
 62
     2
  6
CONTINUOUS
 10
-1.266661
 20
1.118661
  0
VERTEX
  8
PLAN_1
 62
     2
  6
CONTINUOUS
 10
-1.267543
 20
1.115587
  0
VERTEX
  8
PLAN_1
 62
     2
  6
CONTINUOUS
 10
-1.268421
 20
1.112071
  0
VERTEX
  8
PLAN_1
 62
     2
  6
CONTINUOUS
 10
-1.268421
 20
1.108996
  0
VERTEX
  8
PLAN_1
 62
     2
  6
CONTINUOUS
 10
-1.268421
 20
1.105921
  0
VERTEX
  8
PLAN_1
 62
     2
  6
CONTINUOUS
 10
-1.267543
 20
1.102846
  0
VERTEX
  8
PLAN_1
 62
     2
  6
CONTINUOUS
 10
-1.266661
 20
1.099335
  0
VERTEX
  8
PLAN_1
 62
     2
  6
CONTINUOUS
 10
-1.265346
 20
1.095819
  0
VERTEX
  8
PLAN_1
 62
     2
  6
CONTINUOUS
 10
-1.264469
 20
1.094500
  0
VERTEX
  8
PLAN_1
 62
     2
  6
CONTINUOUS
 10
-1.263150
 20
1.092744
  0
VERTEX
  8
PLAN_1
 62
     2
  6
CONTINUOUS
 10
-1.261831
 20
1.091429
  0
VERTEX
  8
PLAN_1
 62
     2
  6
CONTINUOUS
 10
-1.260512
 20
1.090547
  0
VERTEX
  8
PLAN_1
 62
     2
  6
CONTINUOUS
 10
-1.258756
 20
1.089669
  0
VERTEX
  8
PLAN_1
 62
     2
  6
CONTINUOUS
 10
-1.257000
 20
1.088791
  0
VERTEX
  8
PLAN_1
 62
     2
  6
CONTINUOUS
 10
-1.254803
 20
1.088354
  0
VERTEX
  8
PLAN_1
 62
     2
  6
CONTINUOUS
 10
-1.252606
 20
1.088354
  0
SEQEND
  8
0
  0
POLYLINE
  8
PLAN_1
 62
     2
  6
CONTINUOUS
 66
     1
 40
0.003000
 41
0.003000
  0
VERTEX
  8
PLAN_1
 62
     2
  6
CONTINUOUS
 10
-1.172665
 20
1.081764
  0
VERTEX
  8
PLAN_1
 62
     2
  6
CONTINUOUS
 10
-1.181453
 20
1.081764
  0
VERTEX
  8
PLAN_1
 62
     2
  6
CONTINUOUS
 10
-1.181453
 20
1.115146
  0
VERTEX
  8
PLAN_1
 62
     2
  6
CONTINUOUS
 10
-1.181890
 20
1.118661
  0
VERTEX
  8
PLAN_1
 62
     2
  6
CONTINUOUS
 10
-1.182331
 20
1.121736
  0
VERTEX
  8
PLAN_1
 62
     2
  6
CONTINUOUS
 10
-1.182768
 20
1.123929
  0
VERTEX
  8
PLAN_1
 62
     2
  6
CONTINUOUS
 10
-1.184087
 20
1.126126
  0
VERTEX
  8
PLAN_1
 62
     2
  6
CONTINUOUS
 10
-1.185843
 20
1.127445
  0
VERTEX
  8
PLAN_1
 62
     2
  6
CONTINUOUS
 10
-1.187602
 20
1.128764
  0
VERTEX
  8
PLAN_1
 62
     2
  6
CONTINUOUS
 10
-1.190236
 20
1.129201
  0
VERTEX
  8
PLAN_1
 62
     2
  6
CONTINUOUS
 10
-1.193311
 20
1.129642
  0
VERTEX
  8
PLAN_1
 62
     2
  6
CONTINUOUS
 10
-1.195508
 20
1.129201
  0
VERTEX
  8
PLAN_1
 62
     2
  6
CONTINUOUS
 10
-1.197705
 20
1.128764
  0
VERTEX
  8
PLAN_1
 62
     2
  6
CONTINUOUS
 10
-1.200339
 20
1.127882
  0
VERTEX
  8
PLAN_1
 62
     2
  6
CONTINUOUS
 10
-1.202535
 20
1.126126
  0
VERTEX
  8
PLAN_1
 62
     2
  6
CONTINUOUS
 10
-1.204291
 20
1.123492
  0
VERTEX
  8
PLAN_1
 62
     2
  6
CONTINUOUS
 10
-1.206047
 20
1.120417
  0
VERTEX
  8
PLAN_1
 62
     2
  6
CONTINUOUS
 10
-1.207366
 20
1.116465
  0
VERTEX
  8
PLAN_1
 62
     2
  6
CONTINUOUS
 10
-1.207807
 20
1.111634
  0
VERTEX
  8
PLAN_1
 62
     2
  6
CONTINUOUS
 10
-1.207807
 20
1.081764
  0
VERTEX
  8
PLAN_1
 62
     2
  6
CONTINUOUS
 10
-1.217028
 20
1.081764
  0
VERTEX
  8
PLAN_1
 62
     2
  6
CONTINUOUS
 10
-1.217028
 20
1.136228
  0
VERTEX
  8
PLAN_1
 62
     2
  6
CONTINUOUS
 10
-1.208244
 20
1.136228
  0
VERTEX
  8
PLAN_1
 62
     2
  6
CONTINUOUS
 10
-1.208244
 20
1.128764
  0
VERTEX
  8
PLAN_1
 62
     2
  6
CONTINUOUS
 10
-1.207807
 20
1.128764
  0
VERTEX
  8
PLAN_1
 62
     2
  6
CONTINUOUS
 10
-1.206925
 20
1.129642
  0
VERTEX
  8
PLAN_1
 62
     2
  6
CONTINUOUS
 10
-1.206047
 20
1.131398
  0
VERTEX
  8
PLAN_1
 62
     2
  6
CONTINUOUS
 10
-1.204291
 20
1.132717
  0
VERTEX
  8
PLAN_1
 62
     2
  6
CONTINUOUS
 10
-1.202535
 20
1.134472
  0
VERTEX
  8
PLAN_1
 62
     2
  6
CONTINUOUS
 10
-1.200339
 20
1.135791
  0
VERTEX
  8
PLAN_1
 62
     2
  6
CONTINUOUS
 10
-1.197705
 20
1.136669
  0
VERTEX
  8
PLAN_1
 62
     2
  6
CONTINUOUS
 10
-1.195067
 20
1.137547
  0
VERTEX
  8
PLAN_1
 62
     2
  6
CONTINUOUS
 10
-1.191555
 20
1.137984
  0
VERTEX
  8
PLAN_1
 62
     2
  6
CONTINUOUS
 10
-1.188480
 20
1.137547
  0
VERTEX
  8
PLAN_1
 62
     2
  6
CONTINUOUS
 10
-1.184965
 20
1.137106
  0
VERTEX
  8
PLAN_1
 62
     2
  6
CONTINUOUS
 10
-1.181890
 20
1.135791
  0
VERTEX
  8
PLAN_1
 62
     2
  6
CONTINUOUS
 10
-1.178815
 20
1.134031
  0
VERTEX
  8
PLAN_1
 62
     2
  6
CONTINUOUS
 10
-1.177500
 20
1.133154
  0
VERTEX
  8
PLAN_1
 62
     2
  6
CONTINUOUS
 10
-1.176181
 20
1.131839
  0
VERTEX
  8
PLAN_1
 62
     2
  6
CONTINUOUS
 10
-1.175303
 20
1.130079
  0
VERTEX
  8
PLAN_1
 62
     2
  6
CONTINUOUS
 10
-1.174425
 20
1.128323
  0
VERTEX
  8
PLAN_1
 62
     2
  6
CONTINUOUS
 10
-1.173543
 20
1.126567
  0
VERTEX
  8
PLAN_1
 62
     2
  6
CONTINUOUS
 10
-1.173106
 20
1.123929
  0
VERTEX
  8
PLAN_1
 62
     2
  6
CONTINUOUS
 10
-1.172665
 20
1.121736
  0
VERTEX
  8
PLAN_1
 62
     2
  6
CONTINUOUS
 10
-1.172665
 20
1.118661
  0
VERTEX
  8
PLAN_1
 62
     2
  6
CONTINUOUS
 10
-1.172665
 20
1.081764
  0
SEQEND
  8
0
  0
POLYLINE
  8
PLAN_1
 62
     2
  6
CONTINUOUS
 66
     1
 40
0.003000
 41
0.003000
  0
VERTEX
  8
PLAN_1
 62
     2
  6
CONTINUOUS
 10
-1.113811
 20
1.081764
  0
VERTEX
  8
PLAN_1
 62
     2
  6
CONTINUOUS
 10
-1.122594
 20
1.081764
  0
VERTEX
  8
PLAN_1
 62
     2
  6
CONTINUOUS
 10
-1.122594
 20
1.089232
  0
VERTEX
  8
PLAN_1
 62
     2
  6
CONTINUOUS
 10
-1.124350
 20
1.086594
  0
VERTEX
  8
PLAN_1
 62
     2
  6
CONTINUOUS
 10
-1.126106
 20
1.084839
  0
VERTEX
  8
PLAN_1
 62
     2
  6
CONTINUOUS
 10
-1.127866
 20
1.083083
  0
VERTEX
  8
PLAN_1
 62
     2
  6
CONTINUOUS
 10
-1.130063
 20
1.082205
  0
VERTEX
  8
PLAN_1
 62
     2
  6
CONTINUOUS
 10
-1.131819
 20
1.081327
  0
VERTEX
  8
PLAN_1
 62
     2
  6
CONTINUOUS
 10
-1.134016
 20
1.080445
  0
VERTEX
  8
PLAN_1
 62
     2
  6
CONTINUOUS
 10
-1.136209
 20
1.080445
  0
VERTEX
  8
PLAN_1
 62
     2
  6
CONTINUOUS
 10
-1.137969
 20
1.080445
  0
VERTEX
  8
PLAN_1
 62
     2
  6
CONTINUOUS
 10
-1.141480
 20
1.080445
  0
VERTEX
  8
PLAN_1
 62
     2
  6
CONTINUOUS
 10
-1.144555
 20
1.080886
  0
VERTEX
  8
PLAN_1
 62
     2
  6
CONTINUOUS
 10
-1.147193
 20
1.081764
  0
VERTEX
  8
PLAN_1
 62
     2
  6
CONTINUOUS
 10
-1.149827
 20
1.083083
  0
VERTEX
  8
PLAN_1
 62
     2
  6
CONTINUOUS
 10
-1.152024
 20
1.084839
  0
VERTEX
  8
PLAN_1
 62
     2
  6
CONTINUOUS
 10
-1.153780
 20
1.086594
  0
VERTEX
  8
PLAN_1
 62
     2
  6
CONTINUOUS
 10
-1.155535
 20
1.088354
  0
VERTEX
  8
PLAN_1
 62
     2
  6
CONTINUOUS
 10
-1.156854
 20
1.090547
  0
VERTEX
  8
PLAN_1
 62
     2
  6
CONTINUOUS
 10
-1.159488
 20
1.095382
  0
VERTEX
  8
PLAN_1
 62
     2
  6
CONTINUOUS
 10
-1.160807
 20
1.100213
  0
VERTEX
  8
PLAN_1
 62
     2
  6
CONTINUOUS
 10
-1.161685
 20
1.105484
  0
VERTEX
  8
PLAN_1
 62
     2
  6
CONTINUOUS
 10
-1.162126
 20
1.110752
  0
VERTEX
  8
PLAN_1
 62
     2
  6
CONTINUOUS
 10
-1.161685
 20
1.116024
  0
VERTEX
  8
PLAN_1
 62
     2
  6
CONTINUOUS
 10
-1.160370
 20
1.121295
  0
VERTEX
  8
PLAN_1
 62
     2
  6
CONTINUOUS
 10
-1.159488
 20
1.123929
  0
VERTEX
  8
PLAN_1
 62
     2
  6
CONTINUOUS
 10
-1.158610
 20
1.126126
  0
VERTEX
  8
PLAN_1
 62
     2
  6
CONTINUOUS
 10
-1.157295
 20
1.127882
  0
VERTEX
  8
PLAN_1
 62
     2
  6
CONTINUOUS
 10
-1.155976
 20
1.130079
  0
VERTEX
  8
PLAN_1
 62
     2
  6
CONTINUOUS
 10
-1.154657
 20
1.131839
  0
VERTEX
  8
PLAN_1
 62
     2
  6
CONTINUOUS
 10
-1.152902
 20
1.133154
  0
VERTEX
  8
PLAN_1
 62
     2
  6
CONTINUOUS
 10
-1.151146
 20
1.134472
  0
VERTEX
  8
PLAN_1
 62
     2
  6
CONTINUOUS
 10
-1.148949
 20
1.135791
  0
VERTEX
  8
PLAN_1
 62
     2
  6
CONTINUOUS
 10
-1.146752
 20
1.136669
  0
VERTEX
  8
PLAN_1
 62
     2
  6
CONTINUOUS
 10
-1.144555
 20
1.137106
  0
VERTEX
  8
PLAN_1
 62
     2
  6
CONTINUOUS
 10
-1.141921
 20
1.137547
  0
VERTEX
  8
PLAN_1
 62
     2
  6
CONTINUOUS
 10
-1.139283
 20
1.137984
  0
VERTEX
  8
PLAN_1
 62
     2
  6
CONTINUOUS
 10
-1.135772
 20
1.137547
  0
VERTEX
  8
PLAN_1
 62
     2
  6
CONTINUOUS
 10
-1.133134
 20
1.136669
  0
VERTEX
  8
PLAN_1
 62
     2
  6
CONTINUOUS
 10
-1.130500
 20
1.135791
  0
VERTEX
  8
PLAN_1
 62
     2
  6
CONTINUOUS
 10
-1.128303
 20
1.134472
  0
VERTEX
  8
PLAN_1
 62
     2
  6
CONTINUOUS
 10
-1.126547
 20
1.132717
  0
VERTEX
  8
PLAN_1
 62
     2
  6
CONTINUOUS
 10
-1.125228
 20
1.131398
  0
VERTEX
  8
PLAN_1
 62
     2
  6
CONTINUOUS
 10
-1.123913
 20
1.129642
  0
VERTEX
  8
PLAN_1
 62
     2
  6
CONTINUOUS
 10
-1.123031
 20
1.128764
  0
VERTEX
  8
PLAN_1
 62
     2
  6
CONTINUOUS
 10
-1.123031
 20
1.129201
  0
VERTEX
  8
PLAN_1
 62
     2
  6
CONTINUOUS
 10
-1.123031
 20
1.156433
  0
VERTEX
  8
PLAN_1
 62
     2
  6
CONTINUOUS
 10
-1.113811
 20
1.156433
  0
VERTEX
  8
PLAN_1
 62
     2
  6
CONTINUOUS
 10
-1.113811
 20
1.081764
  0
SEQEND
  8
0
  0
POLYLINE
  8
PLAN_1
 62
     2
  6
CONTINUOUS
 66
     1
 40
0.003000
 41
0.003000
  0
VERTEX
  8
PLAN_1
 62
     2
  6
CONTINUOUS
 10
-1.137969
 20
1.088354
  0
VERTEX
  8
PLAN_1
 62
     2
  6
CONTINUOUS
 10
-1.135772
 20
1.088354
  0
VERTEX
  8
PLAN_1
 62
     2
  6
CONTINUOUS
 10
-1.133134
 20
1.089232
  0
VERTEX
  8
PLAN_1
 62
     2
  6
CONTINUOUS
 10
-1.130500
 20
1.090110
  0
VERTEX
  8
PLAN_1
 62
     2
  6
CONTINUOUS
 10
-1.128303
 20
1.091866
  0
VERTEX
  8
PLAN_1
 62
     2
  6
CONTINUOUS
 10
-1.126106
 20
1.094500
  0
VERTEX
  8
PLAN_1
 62
     2
  6
CONTINUOUS
 10
-1.124350
 20
1.097575
  0
VERTEX
  8
PLAN_1
 62
     2
  6
CONTINUOUS
 10
-1.123472
 20
1.101531
  0
VERTEX
  8
PLAN_1
 62
     2
  6
CONTINUOUS
 10
-1.123031
 20
1.106362
  0
VERTEX
  8
PLAN_1
 62
     2
  6
CONTINUOUS
 10
-1.123031
 20
1.109874
  0
VERTEX
  8
PLAN_1
 62
     2
  6
CONTINUOUS
 10
-1.123472
 20
1.113827
  0
VERTEX
  8
PLAN_1
 62
     2
  6
CONTINUOUS
 10
-1.124350
 20
1.117780
  0
VERTEX
  8
PLAN_1
 62
     2
  6
CONTINUOUS
 10
-1.125228
 20
1.121295
  0
VERTEX
  8
PLAN_1
 62
     2
  6
CONTINUOUS
 10
-1.126106
 20
1.123051
  0
VERTEX
  8
PLAN_1
 62
     2
  6
CONTINUOUS
 10
-1.127425
 20
1.124811
  0
VERTEX
  8
PLAN_1
 62
     2
  6
CONTINUOUS
 10
-1.128303
 20
1.126126
  0
VERTEX
  8
PLAN_1
 62
     2
  6
CONTINUOUS
 10
-1.129622
 20
1.127445
  0
VERTEX
  8
PLAN_1
 62
     2
  6
CONTINUOUS
 10
-1.131378
 20
1.128323
  0
VERTEX
  8
PLAN_1
 62
     2
  6
CONTINUOUS
 10
-1.133134
 20
1.128764
  0
VERTEX
  8
PLAN_1
 62
     2
  6
CONTINUOUS
 10
-1.135331
 20
1.129642
  0
VERTEX
  8
PLAN_1
 62
     2
  6
CONTINUOUS
 10
-1.137528
 20
1.129642
  0
VERTEX
  8
PLAN_1
 62
     2
  6
CONTINUOUS
 10
-1.140165
 20
1.129642
  0
VERTEX
  8
PLAN_1
 62
     2
  6
CONTINUOUS
 10
-1.142358
 20
1.129201
  0
VERTEX
  8
PLAN_1
 62
     2
  6
CONTINUOUS
 10
-1.144118
 20
1.128323
  0
VERTEX
  8
PLAN_1
 62
     2
  6
CONTINUOUS
 10
-1.145874
 20
1.127445
  0
VERTEX
  8
PLAN_1
 62
     2
  6
CONTINUOUS
 10
-1.147630
 20
1.126126
  0
VERTEX
  8
PLAN_1
 62
     2
  6
CONTINUOUS
 10
-1.148508
 20
1.124811
  0
VERTEX
  8
PLAN_1
 62
     2
  6
CONTINUOUS
 10
-1.149827
 20
1.123492
  0
VERTEX
  8
PLAN_1
 62
     2
  6
CONTINUOUS
 10
-1.150268
 20
1.122173
  0
VERTEX
  8
PLAN_1
 62
     2
  6
CONTINUOUS
 10
-1.151583
 20
1.118661
  0
VERTEX
  8
PLAN_1
 62
     2
  6
CONTINUOUS
 10
-1.152024
 20
1.115146
  0
VERTEX
  8
PLAN_1
 62
     2
  6
CONTINUOUS
 10
-1.152461
 20
1.112071
  0
VERTEX
  8
PLAN_1
 62
     2
  6
CONTINUOUS
 10
-1.152461
 20
1.108996
  0
VERTEX
  8
PLAN_1
 62
     2
  6
CONTINUOUS
 10
-1.152461
 20
1.105043
  0
VERTEX
  8
PLAN_1
 62
     2
  6
CONTINUOUS
 10
-1.151583
 20
1.100650
  0
VERTEX
  8
PLAN_1
 62
     2
  6
CONTINUOUS
 10
-1.150705
 20
1.097138
  0
VERTEX
  8
PLAN_1
 62
     2
  6
CONTINUOUS
 10
-1.148949
 20
1.094063
  0
VERTEX
  8
PLAN_1
 62
     2
  6
CONTINUOUS
 10
-1.146752
 20
1.091866
  0
VERTEX
  8
PLAN_1
 62
     2
  6
CONTINUOUS
 10
-1.144555
 20
1.089669
  0
VERTEX
  8
PLAN_1
 62
     2
  6
CONTINUOUS
 10
-1.142799
 20
1.089232
  0
VERTEX
  8
PLAN_1
 62
     2
  6
CONTINUOUS
 10
-1.141480
 20
1.088791
  0
VERTEX
  8
PLAN_1
 62
     2
  6
CONTINUOUS
 10
-1.139724
 20
1.088354
  0
VERTEX
  8
PLAN_1
 62
     2
  6
CONTINUOUS
 10
-1.137969
 20
1.088354
  0
SEQEND
  8
0
  0
POLYLINE
  8
PLAN_1
 62
     2
  6
CONTINUOUS
 66
     1
 40
0.003000
 41
0.003000
  0
VERTEX
  8
PLAN_1
 62
     2
  6
CONTINUOUS
 10
-1.054953
 20
1.098894
  0
VERTEX
  8
PLAN_1
 62
     2
  6
CONTINUOUS
 10
-1.054953
 20
1.097575
  0
VERTEX
  8
PLAN_1
 62
     2
  6
CONTINUOUS
 10
-1.055390
 20
1.096260
  0
VERTEX
  8
PLAN_1
 62
     2
  6
CONTINUOUS
 10
-1.056272
 20
1.094063
  0
VERTEX
  8
PLAN_1
 62
     2
  6
CONTINUOUS
 10
-1.057150
 20
1.092307
  0
VERTEX
  8
PLAN_1
 62
     2
  6
CONTINUOUS
 10
-1.058465
 20
1.090110
  0
VERTEX
  8
PLAN_1
 62
     2
  6
CONTINUOUS
 10
-1.060224
 20
1.087913
  0
VERTEX
  8
PLAN_1
 62
     2
  6
CONTINUOUS
 10
-1.061980
 20
1.085717
  0
VERTEX
  8
PLAN_1
 62
     2
  6
CONTINUOUS
 10
-1.064614
 20
1.083961
  0
VERTEX
  8
PLAN_1
 62
     2
  6
CONTINUOUS
 10
-1.065492
 20
1.083520
  0
VERTEX
  8
PLAN_1
 62
     2
  6
CONTINUOUS
 10
-1.066811
 20
1.082642
  0
VERTEX
  8
PLAN_1
 62
     2
  6
CONTINUOUS
 10
-1.068130
 20
1.082205
  0
VERTEX
  8
PLAN_1
 62
     2
  6
CONTINUOUS
 10
-1.069445
 20
1.081327
  0
VERTEX
  8
PLAN_1
 62
     2
  6
CONTINUOUS
 10
-1.071205
 20
1.080886
  0
VERTEX
  8
PLAN_1
 62
     2
  6
CONTINUOUS
 10
-1.073839
 20
1.080445
  0
VERTEX
  8
PLAN_1
 62
     2
  6
CONTINUOUS
 10
-1.076035
 20
1.080445
  0
VERTEX
  8
PLAN_1
 62
     2
  6
CONTINUOUS
 10
-1.079110
 20
1.080445
  0
VERTEX
  8
PLAN_1
 62
     2
  6
CONTINUOUS
 10
-1.082185
 20
1.080445
  0
VERTEX
  8
PLAN_1
 62
     2
  6
CONTINUOUS
 10
-1.084819
 20
1.080886
  0
VERTEX
  8
PLAN_1
 62
     2
  6
CONTINUOUS
 10
-1.087016
 20
1.081327
  0
VERTEX
  8
PLAN_1
 62
     2
  6
CONTINUOUS
 10
-1.089650
 20
1.082205
  0
VERTEX
  8
PLAN_1
 62
     2
  6
CONTINUOUS
 10
-1.091846
 20
1.083520
  0
VERTEX
  8
PLAN_1
 62
     2
  6
CONTINUOUS
 10
-1.093606
 20
1.084839
  0
VERTEX
  8
PLAN_1
 62
     2
  6
CONTINUOUS
 10
-1.095362
 20
1.086157
  0
VERTEX
  8
PLAN_1
 62
     2
  6
CONTINUOUS
 10
-1.097118
 20
1.087913
  0
VERTEX
  8
PLAN_1
 62
     2
  6
CONTINUOUS
 10
-1.098874
 20
1.090110
  0
VERTEX
  8
PLAN_1
 62
     2
  6
CONTINUOUS
 10
-1.099752
 20
1.091866
  0
VERTEX
  8
PLAN_1
 62
     2
  6
CONTINUOUS
 10
-1.101071
 20
1.094063
  0
VERTEX
  8
PLAN_1
 62
     2
  6
CONTINUOUS
 10
-1.101949
 20
1.096697
  0
VERTEX
  8
PLAN_1
 62
     2
  6
CONTINUOUS
 10
-1.102827
 20
1.099335
  0
VERTEX
  8
PLAN_1
 62
     2
  6
CONTINUOUS
 10
-1.103268
 20
1.101969
  0
VERTEX
  8
PLAN_1
 62
     2
  6
CONTINUOUS
 10
-1.103709
 20
1.104602
  0
VERTEX
  8
PLAN_1
 62
     2
  6
CONTINUOUS
 10
-1.103709
 20
1.107677
  0
VERTEX
  8
PLAN_1
 62
     2
  6
CONTINUOUS
 10
-1.103268
 20
1.113827
  0
VERTEX
  8
PLAN_1
 62
     2
  6
CONTINUOUS
 10
-1.101949
 20
1.119539
  0
VERTEX
  8
PLAN_1
 62
     2
  6
CONTINUOUS
 10
-1.101071
 20
1.122173
  0
VERTEX
  8
PLAN_1
 62
     2
  6
CONTINUOUS
 10
-1.100193
 20
1.124370
  0
VERTEX
  8
PLAN_1
 62
     2
  6
CONTINUOUS
 10
-1.098874
 20
1.127004
  0
VERTEX
  8
PLAN_1
 62
     2
  6
CONTINUOUS
 10
-1.097118
 20
1.129201
  0
VERTEX
  8
PLAN_1
 62
     2
  6
CONTINUOUS
 10
-1.095799
 20
1.130957
  0
VERTEX
  8
PLAN_1
 62
     2
  6
CONTINUOUS
 10
-1.093606
 20
1.132717
  0
VERTEX
  8
PLAN_1
 62
     2
  6
CONTINUOUS
 10
-1.091409
 20
1.134031
  0
VERTEX
  8
PLAN_1
 62
     2
  6
CONTINUOUS
 10
-1.089213
 20
1.135350
  0
VERTEX
  8
PLAN_1
 62
     2
  6
CONTINUOUS
 10
-1.086579
 20
1.136669
  0
VERTEX
  8
PLAN_1
 62
     2
  6
CONTINUOUS
 10
-1.083941
 20
1.137106
  0
VERTEX
  8
PLAN_1
 62
     2
  6
CONTINUOUS
 10
-1.080866
 20
1.137547
  0
VERTEX
  8
PLAN_1
 62
     2
  6
CONTINUOUS
 10
-1.077354
 20
1.137984
  0
VERTEX
  8
PLAN_1
 62
     2
  6
CONTINUOUS
 10
-1.074717
 20
1.137547
  0
VERTEX
  8
PLAN_1
 62
     2
  6
CONTINUOUS
 10
-1.072083
 20
1.137106
  0
VERTEX
  8
PLAN_1
 62
     2
  6
CONTINUOUS
 10
-1.069445
 20
1.136669
  0
VERTEX
  8
PLAN_1
 62
     2
  6
CONTINUOUS
 10
-1.067252
 20
1.135350
  0
VERTEX
  8
PLAN_1
 62
     2
  6
CONTINUOUS
 10
-1.065055
 20
1.134472
  0
VERTEX
  8
PLAN_1
 62
     2
  6
CONTINUOUS
 10
-1.063299
 20
1.132717
  0
VERTEX
  8
PLAN_1
 62
     2
  6
CONTINUOUS
 10
-1.061539
 20
1.130957
  0
VERTEX
  8
PLAN_1
 62
     2
  6
CONTINUOUS
 10
-1.059783
 20
1.129201
  0
VERTEX
  8
PLAN_1
 62
     2
  6
CONTINUOUS
 10
-1.058465
 20
1.127004
  0
VERTEX
  8
PLAN_1
 62
     2
  6
CONTINUOUS
 10
-1.057150
 20
1.124370
  0
VERTEX
  8
PLAN_1
 62
     2
  6
CONTINUOUS
 10
-1.056272
 20
1.122173
  0
VERTEX
  8
PLAN_1
 62
     2
  6
CONTINUOUS
 10
-1.055390
 20
1.119098
  0
VERTEX
  8
PLAN_1
 62
     2
  6
CONTINUOUS
 10
-1.054512
 20
1.112949
  0
VERTEX
  8
PLAN_1
 62
     2
  6
CONTINUOUS
 10
-1.054075
 20
1.105921
  0
VERTEX
  8
PLAN_1
 62
     2
  6
CONTINUOUS
 10
-1.094043
 20
1.105921
  0
VERTEX
  8
PLAN_1
 62
     2
  6
CONTINUOUS
 10
-1.093606
 20
1.101969
  0
VERTEX
  8
PLAN_1
 62
     2
  6
CONTINUOUS
 10
-1.092724
 20
1.098457
  0
VERTEX
  8
PLAN_1
 62
     2
  6
CONTINUOUS
 10
-1.091409
 20
1.095382
  0
VERTEX
  8
PLAN_1
 62
     2
  6
CONTINUOUS
 10
-1.090091
 20
1.092744
  0
VERTEX
  8
PLAN_1
 62
     2
  6
CONTINUOUS
 10
-1.087457
 20
1.090988
  0
VERTEX
  8
PLAN_1
 62
     2
  6
CONTINUOUS
 10
-1.084819
 20
1.089232
  0
VERTEX
  8
PLAN_1
 62
     2
  6
CONTINUOUS
 10
-1.081744
 20
1.088354
  0
VERTEX
  8
PLAN_1
 62
     2
  6
CONTINUOUS
 10
-1.078232
 20
1.088354
  0
VERTEX
  8
PLAN_1
 62
     2
  6
CONTINUOUS
 10
-1.075157
 20
1.088354
  0
VERTEX
  8
PLAN_1
 62
     2
  6
CONTINUOUS
 10
-1.072083
 20
1.089232
  0
VERTEX
  8
PLAN_1
 62
     2
  6
CONTINUOUS
 10
-1.069886
 20
1.090547
  0
VERTEX
  8
PLAN_1
 62
     2
  6
CONTINUOUS
 10
-1.067689
 20
1.091866
  0
VERTEX
  8
PLAN_1
 62
     2
  6
CONTINUOUS
 10
-1.066374
 20
1.093622
  0
VERTEX
  8
PLAN_1
 62
     2
  6
CONTINUOUS
 10
-1.065055
 20
1.095382
  0
VERTEX
  8
PLAN_1
 62
     2
  6
CONTINUOUS
 10
-1.064177
 20
1.097138
  0
VERTEX
  8
PLAN_1
 62
     2
  6
CONTINUOUS
 10
-1.064177
 20
1.098894
  0
VERTEX
  8
PLAN_1
 62
     2
  6
CONTINUOUS
 10
-1.054953
 20
1.098894
  0
SEQEND
  8
0
  0
POLYLINE
  8
PLAN_1
 62
     2
  6
CONTINUOUS
 66
     1
 40
0.003000
 41
0.003000
  0
VERTEX
  8
PLAN_1
 62
     2
  6
CONTINUOUS
 10
-1.063736
 20
1.113390
  0
VERTEX
  8
PLAN_1
 62
     2
  6
CONTINUOUS
 10
-1.063736
 20
1.116465
  0
VERTEX
  8
PLAN_1
 62
     2
  6
CONTINUOUS
 10
-1.064614
 20
1.119539
  0
VERTEX
  8
PLAN_1
 62
     2
  6
CONTINUOUS
 10
-1.065492
 20
1.122173
  0
VERTEX
  8
PLAN_1
 62
     2
  6
CONTINUOUS
 10
-1.067252
 20
1.124811
  0
VERTEX
  8
PLAN_1
 62
     2
  6
CONTINUOUS
 10
-1.069008
 20
1.126567
  0
VERTEX
  8
PLAN_1
 62
     2
  6
CONTINUOUS
 10
-1.071642
 20
1.128323
  0
VERTEX
  8
PLAN_1
 62
     2
  6
CONTINUOUS
 10
-1.074717
 20
1.129201
  0
VERTEX
  8
PLAN_1
 62
     2
  6
CONTINUOUS
 10
-1.078669
 20
1.129642
  0
VERTEX
  8
PLAN_1
 62
     2
  6
CONTINUOUS
 10
-1.081744
 20
1.129201
  0
VERTEX
  8
PLAN_1
 62
     2
  6
CONTINUOUS
 10
-1.084819
 20
1.128323
  0
VERTEX
  8
PLAN_1
 62
     2
  6
CONTINUOUS
 10
-1.087016
 20
1.126567
  0
VERTEX
  8
PLAN_1
 62
     2
  6
CONTINUOUS
 10
-1.089650
 20
1.124811
  0
VERTEX
  8
PLAN_1
 62
     2
  6
CONTINUOUS
 10
-1.091409
 20
1.122173
  0
VERTEX
  8
PLAN_1
 62
     2
  6
CONTINUOUS
 10
-1.092724
 20
1.119539
  0
VERTEX
  8
PLAN_1
 62
     2
  6
CONTINUOUS
 10
-1.093606
 20
1.116465
  0
VERTEX
  8
PLAN_1
 62
     2
  6
CONTINUOUS
 10
-1.094043
 20
1.113390
  0
VERTEX
  8
PLAN_1
 62
     2
  6
CONTINUOUS
 10
-1.063736
 20
1.113390
  0
SEQEND
  8
0
  0
POLYLINE
  8
PLAN_1
 62
     2
  6
CONTINUOUS
 66
     1
 40
0.003000
 41
0.003000
  0
VERTEX
  8
PLAN_1
 62
     2
  6
CONTINUOUS
 10
-1.007516
 20
1.081764
  0
VERTEX
  8
PLAN_1
 62
     2
  6
CONTINUOUS
 10
-1.007516
 20
1.089669
  0
VERTEX
  8
PLAN_1
 62
     2
  6
CONTINUOUS
 10
-1.007953
 20
1.090110
  0
VERTEX
  8
PLAN_1
 62
     2
  6
CONTINUOUS
 10
-1.009272
 20
1.087913
  0
VERTEX
  8
PLAN_1
 62
     2
  6
CONTINUOUS
 10
-1.011028
 20
1.085717
  0
VERTEX
  8
PLAN_1
 62
     2
  6
CONTINUOUS
 10
-1.012787
 20
1.083961
  0
VERTEX
  8
PLAN_1
 62
     2
  6
CONTINUOUS
 10
-1.014543
 20
1.082642
  0
VERTEX
  8
PLAN_1
 62
     2
  6
CONTINUOUS
 10
-1.016740
 20
1.081764
  0
VERTEX
  8
PLAN_1
 62
     2
  6
CONTINUOUS
 10
-1.019374
 20
1.080886
  0
VERTEX
  8
PLAN_1
 62
     2
  6
CONTINUOUS
 10
-1.022008
 20
1.080445
  0
VERTEX
  8
PLAN_1
 62
     2
  6
CONTINUOUS
 10
-1.025083
 20
1.080445
  0
VERTEX
  8
PLAN_1
 62
     2
  6
CONTINUOUS
 10
-1.028157
 20
1.080445
  0
VERTEX
  8
PLAN_1
 62
     2
  6
CONTINUOUS
 10
-1.031232
 20
1.080886
  0
VERTEX
  8
PLAN_1
 62
     2
  6
CONTINUOUS
 10
-1.034307
 20
1.082205
  0
VERTEX
  8
PLAN_1
 62
     2
  6
CONTINUOUS
 10
-1.036945
 20
1.083961
  0
VERTEX
  8
PLAN_1
 62
     2
  6
CONTINUOUS
 10
-1.039138
 20
1.086157
  0
VERTEX
  8
PLAN_1
 62
     2
  6
CONTINUOUS
 10
-1.041335
 20
1.088791
  0
VERTEX
  8
PLAN_1
 62
     2
  6
CONTINUOUS
 10
-1.041776
 20
1.090547
  0
VERTEX
  8
PLAN_1
 62
     2
  6
CONTINUOUS
 10
-1.042213
 20
1.092744
  0
VERTEX
  8
PLAN_1
 62
     2
  6
CONTINUOUS
 10
-1.042654
 20
1.094941
  0
VERTEX
  8
PLAN_1
 62
     2
  6
CONTINUOUS
 10
-1.042654
 20
1.097138
  0
VERTEX
  8
PLAN_1
 62
     2
  6
CONTINUOUS
 10
-1.042654
 20
1.136228
  0
VERTEX
  8
PLAN_1
 62
     2
  6
CONTINUOUS
 10
-1.033870
 20
1.136228
  0
VERTEX
  8
PLAN_1
 62
     2
  6
CONTINUOUS
 10
-1.033870
 20
1.100213
  0
VERTEX
  8
PLAN_1
 62
     2
  6
CONTINUOUS
 10
-1.033429
 20
1.097138
  0
VERTEX
  8
PLAN_1
 62
     2
  6
CONTINUOUS
 10
-1.032992
 20
1.094500
  0
VERTEX
  8
PLAN_1
 62
     2
  6
CONTINUOUS
 10
-1.032110
 20
1.092307
  0
VERTEX
  8
PLAN_1
 62
     2
  6
CONTINUOUS
 10
-1.030795
 20
1.090988
  0
VERTEX
  8
PLAN_1
 62
     2
  6
CONTINUOUS
 10
-1.029035
 20
1.089669
  0
VERTEX
  8
PLAN_1
 62
     2
  6
CONTINUOUS
 10
-1.027280
 20
1.088791
  0
VERTEX
  8
PLAN_1
 62
     2
  6
CONTINUOUS
 10
-1.025083
 20
1.088354
  0
VERTEX
  8
PLAN_1
 62
     2
  6
CONTINUOUS
 10
-1.023327
 20
1.088354
  0
VERTEX
  8
PLAN_1
 62
     2
  6
CONTINUOUS
 10
-1.021130
 20
1.088354
  0
VERTEX
  8
PLAN_1
 62
     2
  6
CONTINUOUS
 10
-1.019374
 20
1.088791
  0
VERTEX
  8
PLAN_1
 62
     2
  6
CONTINUOUS
 10
-1.017618
 20
1.089232
  0
VERTEX
  8
PLAN_1
 62
     2
  6
CONTINUOUS
 10
-1.015858
 20
1.090110
  0
VERTEX
  8
PLAN_1
 62
     2
  6
CONTINUOUS
 10
-1.013224
 20
1.091866
  0
VERTEX
  8
PLAN_1
 62
     2
  6
CONTINUOUS
 10
-1.011469
 20
1.094063
  0
VERTEX
  8
PLAN_1
 62
     2
  6
CONTINUOUS
 10
-1.009713
 20
1.097138
  0
VERTEX
  8
PLAN_1
 62
     2
  6
CONTINUOUS
 10
-1.008831
 20
1.100213
  0
VERTEX
  8
PLAN_1
 62
     2
  6
CONTINUOUS
 10
-1.008394
 20
1.103287
  0
VERTEX
  8
PLAN_1
 62
     2
  6
CONTINUOUS
 10
-1.007953
 20
1.106362
  0
VERTEX
  8
PLAN_1
 62
     2
  6
CONTINUOUS
 10
-1.007953
 20
1.136228
  0
VERTEX
  8
PLAN_1
 62
     2
  6
CONTINUOUS
 10
-0.999169
 20
1.136228
  0
VERTEX
  8
PLAN_1
 62
     2
  6
CONTINUOUS
 10
-0.999169
 20
1.081764
  0
VERTEX
  8
PLAN_1
 62
     2
  6
CONTINUOUS
 10
-1.007516
 20
1.081764
  0
SEQEND
  8
0
  0
POLYLINE
  8
PLAN_1
 62
     2
  6
CONTINUOUS
 66
     1
 40
0.003000
 41
0.003000
  0
VERTEX
  8
PLAN_1
 62
     2
  6
CONTINUOUS
 10
-0.975012
 20
1.081764
  0
VERTEX
  8
PLAN_1
 62
     2
  6
CONTINUOUS
 10
-0.983795
 20
1.081764
  0
VERTEX
  8
PLAN_1
 62
     2
  6
CONTINUOUS
 10
-0.983795
 20
1.136228
  0
VERTEX
  8
PLAN_1
 62
     2
  6
CONTINUOUS
 10
-0.975449
 20
1.136228
  0
VERTEX
  8
PLAN_1
 62
     2
  6
CONTINUOUS
 10
-0.975449
 20
1.127004
  0
VERTEX
  8
PLAN_1
 62
     2
  6
CONTINUOUS
 10
-0.975012
 20
1.127004
  0
VERTEX
  8
PLAN_1
 62
     2
  6
CONTINUOUS
 10
-0.973693
 20
1.129642
  0
VERTEX
  8
PLAN_1
 62
     2
  6
CONTINUOUS
 10
-0.972374
 20
1.131398
  0
VERTEX
  8
PLAN_1
 62
     2
  6
CONTINUOUS
 10
-0.970618
 20
1.133154
  0
VERTEX
  8
PLAN_1
 62
     2
  6
CONTINUOUS
 10
-0.968862
 20
1.134913
  0
VERTEX
  8
PLAN_1
 62
     2
  6
CONTINUOUS
 10
-0.966665
 20
1.136228
  0
VERTEX
  8
PLAN_1
 62
     2
  6
CONTINUOUS
 10
-0.964469
 20
1.137106
  0
VERTEX
  8
PLAN_1
 62
     2
  6
CONTINUOUS
 10
-0.962272
 20
1.137547
  0
VERTEX
  8
PLAN_1
 62
     2
  6
CONTINUOUS
 10
-0.959638
 20
1.137984
  0
VERTEX
  8
PLAN_1
 62
     2
  6
CONTINUOUS
 10
-0.959201
 20
1.137984
  0
VERTEX
  8
PLAN_1
 62
     2
  6
CONTINUOUS
 10
-0.958760
 20
1.137547
  0
VERTEX
  8
PLAN_1
 62
     2
  6
CONTINUOUS
 10
-0.958319
 20
1.137547
  0
VERTEX
  8
PLAN_1
 62
     2
  6
CONTINUOUS
 10
-0.957882
 20
1.137547
  0
VERTEX
  8
PLAN_1
 62
     2
  6
CONTINUOUS
 10
-0.957441
 20
1.137547
  0
VERTEX
  8
PLAN_1
 62
     2
  6
CONTINUOUS
 10
-0.957441
 20
1.127882
  0
VERTEX
  8
PLAN_1
 62
     2
  6
CONTINUOUS
 10
-0.960957
 20
1.127882
  0
VERTEX
  8
PLAN_1
 62
     2
  6
CONTINUOUS
 10
-0.964031
 20
1.127882
  0
VERTEX
  8
PLAN_1
 62
     2
  6
CONTINUOUS
 10
-0.966665
 20
1.127004
  0
VERTEX
  8
PLAN_1
 62
     2
  6
CONTINUOUS
 10
-0.968862
 20
1.125689
  0
VERTEX
  8
PLAN_1
 62
     2
  6
CONTINUOUS
 10
-0.971059
 20
1.123929
  0
VERTEX
  8
PLAN_1
 62
     2
  6
CONTINUOUS
 10
-0.972815
 20
1.121736
  0
VERTEX
  8
PLAN_1
 62
     2
  6
CONTINUOUS
 10
-0.973693
 20
1.119098
  0
VERTEX
  8
PLAN_1
 62
     2
  6
CONTINUOUS
 10
-0.974571
 20
1.116465
  0
VERTEX
  8
PLAN_1
 62
     2
  6
CONTINUOUS
 10
-0.975012
 20
1.113390
  0
VERTEX
  8
PLAN_1
 62
     2
  6
CONTINUOUS
 10
-0.975012
 20
1.081764
  0
SEQEND
  8
0
  0
POLYLINE
  8
PLAN_1
 62
     2
  6
CONTINUOUS
 66
     1
 40
0.003000
 41
0.003000
  0
VERTEX
  8
PLAN_1
 62
     2
  6
CONTINUOUS
 10
-0.891118
 20
1.081764
  0
VERTEX
  8
PLAN_1
 62
     2
  6
CONTINUOUS
 10
-0.900780
 20
1.081764
  0
VERTEX
  8
PLAN_1
 62
     2
  6
CONTINUOUS
 10
-0.900780
 20
1.133594
  0
VERTEX
  8
PLAN_1
 62
     2
  6
CONTINUOUS
 10
-0.917909
 20
1.133594
  0
VERTEX
  8
PLAN_1
 62
     2
  6
CONTINUOUS
 10
-0.917909
 20
1.141059
  0
VERTEX
  8
PLAN_1
 62
     2
  6
CONTINUOUS
 10
-0.913957
 20
1.141500
  0
VERTEX
  8
PLAN_1
 62
     2
  6
CONTINUOUS
 10
-0.910004
 20
1.141941
  0
VERTEX
  8
PLAN_1
 62
     2
  6
CONTINUOUS
 10
-0.907370
 20
1.142819
  0
VERTEX
  8
PLAN_1
 62
     2
  6
CONTINUOUS
 10
-0.904732
 20
1.143697
  0
VERTEX
  8
PLAN_1
 62
     2
  6
CONTINUOUS
 10
-0.902539
 20
1.145453
  0
VERTEX
  8
PLAN_1
 62
     2
  6
CONTINUOUS
 10
-0.900780
 20
1.148087
  0
VERTEX
  8
PLAN_1
 62
     2
  6
CONTINUOUS
 10
-0.899465
 20
1.151161
  0
VERTEX
  8
PLAN_1
 62
     2
  6
CONTINUOUS
 10
-0.898146
 20
1.155118
  0
VERTEX
  8
PLAN_1
 62
     2
  6
CONTINUOUS
 10
-0.891118
 20
1.155118
  0
VERTEX
  8
PLAN_1
 62
     2
  6
CONTINUOUS
 10
-0.891118
 20
1.081764
  0
SEQEND
  8
0
  0
POLYLINE
  8
PLAN_1
 62
     2
  6
CONTINUOUS
 66
     1
 40
0.003000
 41
0.003000
  0
VERTEX
  8
PLAN_1
 62
     2
  6
CONTINUOUS
 10
-0.841484
 20
1.080008
  0
VERTEX
  8
PLAN_1
 62
     2
  6
CONTINUOUS
 10
-0.845437
 20
1.080008
  0
VERTEX
  8
PLAN_1
 62
     2
  6
CONTINUOUS
 10
-0.848512
 20
1.080886
  0
VERTEX
  8
PLAN_1
 62
     2
  6
CONTINUOUS
 10
-0.851587
 20
1.082205
  0
VERTEX
  8
PLAN_1
 62
     2
  6
CONTINUOUS
 10
-0.854220
 20
1.083520
  0
VERTEX
  8
PLAN_1
 62
     2
  6
CONTINUOUS
 10
-0.856858
 20
1.085717
  0
VERTEX
  8
PLAN_1
 62
     2
  6
CONTINUOUS
 10
-0.858614
 20
1.087913
  0
VERTEX
  8
PLAN_1
 62
     2
  6
CONTINUOUS
 10
-0.860370
 20
1.090110
  0
VERTEX
  8
PLAN_1
 62
     2
  6
CONTINUOUS
 10
-0.862130
 20
1.092744
  0
VERTEX
  8
PLAN_1
 62
     2
  6
CONTINUOUS
 10
-0.863445
 20
1.095819
  0
VERTEX
  8
PLAN_1
 62
     2
  6
CONTINUOUS
 10
-0.864323
 20
1.098894
  0
VERTEX
  8
PLAN_1
 62
     2
  6
CONTINUOUS
 10
-0.865205
 20
1.101969
  0
VERTEX
  8
PLAN_1
 62
     2
  6
CONTINUOUS
 10
-0.865642
 20
1.105043
  0
VERTEX
  8
PLAN_1
 62
     2
  6
CONTINUOUS
 10
-0.866520
 20
1.111634
  0
VERTEX
  8
PLAN_1
 62
     2
  6
CONTINUOUS
 10
-0.866520
 20
1.117343
  0
VERTEX
  8
PLAN_1
 62
     2
  6
CONTINUOUS
 10
-0.866520
 20
1.123492
  0
VERTEX
  8
PLAN_1
 62
     2
  6
CONTINUOUS
 10
-0.865642
 20
1.129642
  0
VERTEX
  8
PLAN_1
 62
     2
  6
CONTINUOUS
 10
-0.865205
 20
1.132717
  0
VERTEX
  8
PLAN_1
 62
     2
  6
CONTINUOUS
 10
-0.864323
 20
1.135791
  0
VERTEX
  8
PLAN_1
 62
     2
  6
CONTINUOUS
 10
-0.863445
 20
1.138866
  0
VERTEX
  8
PLAN_1
 62
     2
  6
CONTINUOUS
 10
-0.862130
 20
1.141941
  0
VERTEX
  8
PLAN_1
 62
     2
  6
CONTINUOUS
 10
-0.860370
 20
1.144575
  0
VERTEX
  8
PLAN_1
 62
     2
  6
CONTINUOUS
 10
-0.858614
 20
1.147209
  0
VERTEX
  8
PLAN_1
 62
     2
  6
CONTINUOUS
 10
-0.856858
 20
1.149406
  0
VERTEX
  8
PLAN_1
 62
     2
  6
CONTINUOUS
 10
-0.854220
 20
1.151161
  0
VERTEX
  8
PLAN_1
 62
     2
  6
CONTINUOUS
 10
-0.851587
 20
1.152921
  0
VERTEX
  8
PLAN_1
 62
     2
  6
CONTINUOUS
 10
-0.848512
 20
1.153799
  0
VERTEX
  8
PLAN_1
 62
     2
  6
CONTINUOUS
 10
-0.845437
 20
1.154677
  0
VERTEX
  8
PLAN_1
 62
     2
  6
CONTINUOUS
 10
-0.841484
 20
1.155118
  0
VERTEX
  8
PLAN_1
 62
     2
  6
CONTINUOUS
 10
-0.837969
 20
1.154677
  0
VERTEX
  8
PLAN_1
 62
     2
  6
CONTINUOUS
 10
-0.834457
 20
1.153799
  0
VERTEX
  8
PLAN_1
 62
     2
  6
CONTINUOUS
 10
-0.831382
 20
1.152921
  0
VERTEX
  8
PLAN_1
 62
     2
  6
CONTINUOUS
 10
-0.828748
 20
1.151161
  0
VERTEX
  8
PLAN_1
 62
     2
  6
CONTINUOUS
 10
-0.826551
 20
1.149406
  0
VERTEX
  8
PLAN_1
 62
     2
  6
CONTINUOUS
 10
-0.824354
 20
1.147209
  0
VERTEX
  8
PLAN_1
 62
     2
  6
CONTINUOUS
 10
-0.822598
 20
1.144575
  0
VERTEX
  8
PLAN_1
 62
     2
  6
CONTINUOUS
 10
-0.821280
 20
1.141941
  0
VERTEX
  8
PLAN_1
 62
     2
  6
CONTINUOUS
 10
-0.819961
 20
1.138866
  0
VERTEX
  8
PLAN_1
 62
     2
  6
CONTINUOUS
 10
-0.819083
 20
1.135791
  0
VERTEX
  8
PLAN_1
 62
     2
  6
CONTINUOUS
 10
-0.818205
 20
1.132717
  0
VERTEX
  8
PLAN_1
 62
     2
  6
CONTINUOUS
 10
-0.817327
 20
1.129642
  0
VERTEX
  8
PLAN_1
 62
     2
  6
CONTINUOUS
 10
-0.816886
 20
1.123492
  0
VERTEX
  8
PLAN_1
 62
     2
  6
CONTINUOUS
 10
-0.816449
 20
1.117343
  0
VERTEX
  8
PLAN_1
 62
     2
  6
CONTINUOUS
 10
-0.816886
 20
1.111634
  0
VERTEX
  8
PLAN_1
 62
     2
  6
CONTINUOUS
 10
-0.817327
 20
1.105043
  0
VERTEX
  8
PLAN_1
 62
     2
  6
CONTINUOUS
 10
-0.818205
 20
1.101969
  0
VERTEX
  8
PLAN_1
 62
     2
  6
CONTINUOUS
 10
-0.819083
 20
1.098894
  0
VERTEX
  8
PLAN_1
 62
     2
  6
CONTINUOUS
 10
-0.819961
 20
1.095819
  0
VERTEX
  8
PLAN_1
 62
     2
  6
CONTINUOUS
 10
-0.821280
 20
1.092744
  0
VERTEX
  8
PLAN_1
 62
     2
  6
CONTINUOUS
 10
-0.822598
 20
1.090110
  0
VERTEX
  8
PLAN_1
 62
     2
  6
CONTINUOUS
 10
-0.824354
 20
1.087913
  0
VERTEX
  8
PLAN_1
 62
     2
  6
CONTINUOUS
 10
-0.826551
 20
1.085717
  0
VERTEX
  8
PLAN_1
 62
     2
  6
CONTINUOUS
 10
-0.828748
 20
1.083520
  0
VERTEX
  8
PLAN_1
 62
     2
  6
CONTINUOUS
 10
-0.831382
 20
1.082205
  0
VERTEX
  8
PLAN_1
 62
     2
  6
CONTINUOUS
 10
-0.834457
 20
1.080886
  0
VERTEX
  8
PLAN_1
 62
     2
  6
CONTINUOUS
 10
-0.837969
 20
1.080008
  0
VERTEX
  8
PLAN_1
 62
     2
  6
CONTINUOUS
 10
-0.841484
 20
1.080008
  0
SEQEND
  8
0
  0
POLYLINE
  8
PLAN_1
 62
     2
  6
CONTINUOUS
 66
     1
 40
0.003000
 41
0.003000
  0
VERTEX
  8
PLAN_1
 62
     2
  6
CONTINUOUS
 10
-0.841484
 20
1.146772
  0
VERTEX
  8
PLAN_1
 62
     2
  6
CONTINUOUS
 10
-0.843681
 20
1.146772
  0
VERTEX
  8
PLAN_1
 62
     2
  6
CONTINUOUS
 10
-0.845437
 20
1.146331
  0
VERTEX
  8
PLAN_1
 62
     2
  6
CONTINUOUS
 10
-0.846756
 20
1.145453
  0
VERTEX
  8
PLAN_1
 62
     2
  6
CONTINUOUS
 10
-0.848512
 20
1.144575
  0
VERTEX
  8
PLAN_1
 62
     2
  6
CONTINUOUS
 10
-0.849831
 20
1.143697
  0
VERTEX
  8
PLAN_1
 62
     2
  6
CONTINUOUS
 10
-0.851146
 20
1.142378
  0
VERTEX
  8
PLAN_1
 62
     2
  6
CONTINUOUS
 10
-0.852028
 20
1.140622
  0
VERTEX
  8
PLAN_1
 62
     2
  6
CONTINUOUS
 10
-0.853343
 20
1.138866
  0
VERTEX
  8
PLAN_1
 62
     2
  6
CONTINUOUS
 10
-0.854661
 20
1.134913
  0
VERTEX
  8
PLAN_1
 62
     2
  6
CONTINUOUS
 10
-0.855980
 20
1.129642
  0
VERTEX
  8
PLAN_1
 62
     2
  6
CONTINUOUS
 10
-0.856858
 20
1.123929
  0
VERTEX
  8
PLAN_1
 62
     2
  6
CONTINUOUS
 10
-0.856858
 20
1.117343
  0
VERTEX
  8
PLAN_1
 62
     2
  6
CONTINUOUS
 10
-0.856858
 20
1.110752
  0
VERTEX
  8
PLAN_1
 62
     2
  6
CONTINUOUS
 10
-0.855980
 20
1.105043
  0
VERTEX
  8
PLAN_1
 62
     2
  6
CONTINUOUS
 10
-0.854661
 20
1.100213
  0
VERTEX
  8
PLAN_1
 62
     2
  6
CONTINUOUS
 10
-0.853343
 20
1.095819
  0
VERTEX
  8
PLAN_1
 62
     2
  6
CONTINUOUS
 10
-0.852028
 20
1.094063
  0
VERTEX
  8
PLAN_1
 62
     2
  6
CONTINUOUS
 10
-0.851146
 20
1.092744
  0
VERTEX
  8
PLAN_1
 62
     2
  6
CONTINUOUS
 10
-0.849831
 20
1.090988
  0
VERTEX
  8
PLAN_1
 62
     2
  6
CONTINUOUS
 10
-0.848512
 20
1.090110
  0
VERTEX
  8
PLAN_1
 62
     2
  6
CONTINUOUS
 10
-0.846756
 20
1.089232
  0
VERTEX
  8
PLAN_1
 62
     2
  6
CONTINUOUS
 10
-0.845437
 20
1.088791
  0
VERTEX
  8
PLAN_1
 62
     2
  6
CONTINUOUS
 10
-0.843681
 20
1.088354
  0
VERTEX
  8
PLAN_1
 62
     2
  6
CONTINUOUS
 10
-0.841484
 20
1.087913
  0
VERTEX
  8
PLAN_1
 62
     2
  6
CONTINUOUS
 10
-0.839728
 20
1.088354
  0
VERTEX
  8
PLAN_1
 62
     2
  6
CONTINUOUS
 10
-0.837969
 20
1.088791
  0
VERTEX
  8
PLAN_1
 62
     2
  6
CONTINUOUS
 10
-0.836213
 20
1.089232
  0
VERTEX
  8
PLAN_1
 62
     2
  6
CONTINUOUS
 10
-0.834898
 20
1.090110
  0
VERTEX
  8
PLAN_1
 62
     2
  6
CONTINUOUS
 10
-0.833579
 20
1.090988
  0
VERTEX
  8
PLAN_1
 62
     2
  6
CONTINUOUS
 10
-0.832260
 20
1.092744
  0
VERTEX
  8
PLAN_1
 62
     2
  6
CONTINUOUS
 10
-0.830941
 20
1.094063
  0
VERTEX
  8
PLAN_1
 62
     2
  6
CONTINUOUS
 10
-0.830063
 20
1.095819
  0
VERTEX
  8
PLAN_1
 62
     2
  6
CONTINUOUS
 10
-0.828307
 20
1.100213
  0
VERTEX
  8
PLAN_1
 62
     2
  6
CONTINUOUS
 10
-0.826988
 20
1.105043
  0
VERTEX
  8
PLAN_1
 62
     2
  6
CONTINUOUS
 10
-0.826551
 20
1.110752
  0
VERTEX
  8
PLAN_1
 62
     2
  6
CONTINUOUS
 10
-0.826110
 20
1.117343
  0
VERTEX
  8
PLAN_1
 62
     2
  6
CONTINUOUS
 10
-0.826551
 20
1.123929
  0
VERTEX
  8
PLAN_1
 62
     2
  6
CONTINUOUS
 10
-0.826988
 20
1.129642
  0
VERTEX
  8
PLAN_1
 62
     2
  6
CONTINUOUS
 10
-0.828307
 20
1.134913
  0
VERTEX
  8
PLAN_1
 62
     2
  6
CONTINUOUS
 10
-0.830063
 20
1.138866
  0
VERTEX
  8
PLAN_1
 62
     2
  6
CONTINUOUS
 10
-0.830941
 20
1.140622
  0
VERTEX
  8
PLAN_1
 62
     2
  6
CONTINUOUS
 10
-0.832260
 20
1.142378
  0
VERTEX
  8
PLAN_1
 62
     2
  6
CONTINUOUS
 10
-0.833579
 20
1.143697
  0
VERTEX
  8
PLAN_1
 62
     2
  6
CONTINUOUS
 10
-0.834898
 20
1.144575
  0
VERTEX
  8
PLAN_1
 62
     2
  6
CONTINUOUS
 10
-0.836213
 20
1.145453
  0
VERTEX
  8
PLAN_1
 62
     2
  6
CONTINUOUS
 10
-0.837969
 20
1.146331
  0
VERTEX
  8
PLAN_1
 62
     2
  6
CONTINUOUS
 10
-0.839728
 20
1.146772
  0
VERTEX
  8
PLAN_1
 62
     2
  6
CONTINUOUS
 10
-0.841484
 20
1.146772
  0
SEQEND
  8
0
  0
SOLID
  8
PLAN_1
 62
     2
 10
-0.631531
 20
1.032130
 11
-0.662276
 21
1.084839
 12
-0.631531
 22
1.032130
 13
-0.684677
 23
1.062878
  0
POLYLINE
  8
PLAN_1
 62
     2
  6
CONTINUOUS
 66
     1
 40
0.003000
 41
0.003000
  0
VERTEX
  8
PLAN_1
 62
     2
  6
CONTINUOUS
 10
-0.631531
 20
1.032130
  0
VERTEX
  8
PLAN_1
 62
     2
  6
CONTINUOUS
 10
-0.662276
 20
1.084839
  0
VERTEX
  8
PLAN_1
 62
     2
  6
CONTINUOUS
 10
-0.684677
 20
1.062878
  0
VERTEX
  8
PLAN_1
 62
     2
  6
CONTINUOUS
 10
-0.631531
 20
1.032130
  0
SEQEND
  8
0
  0
POLYLINE
  8
PLAN_1
 62
     2
  6
CONTINUOUS
 66
     1
 40
0.003953
 41
0.003953
  0
VERTEX
  8
PLAN_1
 62
     2
  6
CONTINUOUS
 10
-0.657886
 20
1.058484
  0
VERTEX
  8
PLAN_1
 62
     2
  6
CONTINUOUS
 10
-0.787898
 20
1.183228
  0
VERTEX
  8
PLAN_1
 62
     2
  6
CONTINUOUS
 10
-1.485402
 20
1.183228
  0
SEQEND
  8
0
  0
ENDSEC
  0
EOF
