  0
SECTION
  2
HEADER
  9
$ACADVER
  1
AC1024
  9
$ACADMAINTVER
 70
     6
  9
$DWGCODEPAGE
  3
ANSI_1252
  9
$INSBASE
 10
0.0
 20
0.0
 30
0.0
  9
$EXTMIN
 10
1.000000000000000E+20
 20
1.000000000000000E+20
 30
1.000000000000000E+20
  9
$EXTMAX
 10
-1.000000000000000E+20
 20
-1.000000000000000E+20
 30
-1.000000000000000E+20
  9
$LIMMIN
 10
0.0
 20
0.0
  9
$LIMMAX
 10
12.0
 20
9.0
  9
$ORTHOMODE
 70
     0
  9
$REGENMODE
 70
     1
  9
$FILLMODE
 70
     1
  9
$QTEXTMODE
 70
     0
  9
$MIRRTEXT
 70
     1
  9
$LTSCALE
 40
1.0
  9
$ATTMODE
 70
     1
  9
$TEXTSIZE
 40
0.2
  9
$TRACEWID
 40
0.05
  9
$TEXTSTYLE
  7
Standard
  9
$CLAYER
  8
0
  9
$CELTYPE
  6
ByLayer
  9
$CECOLOR
 62
   256
  9
$CELTSCALE
 40
1.0
  9
$DISPSILH
 70
     0
  9
$DIMSCALE
 40
1.0
  9
$DIMASZ
 40
0.18
  9
$DIMEXO
 40
0.0625
  9
$DIMDLI
 40
0.38
  9
$DIMRND
 40
0.0
  9
$DIMDLE
 40
0.0
  9
$DIMEXE
 40
0.18
  9
$DIMTP
 40
0.0
  9
$DIMTM
 40
0.0
  9
$DIMTXT
 40
0.18
  9
$DIMCEN
 40
0.09
  9
$DIMTSZ
 40
0.0
  9
$DIMTOL
 70
     0
  9
$DIMLIM
 70
     0
  9
$DIMTIH
 70
     1
  9
$DIMTOH
 70
     1
  9
$DIMSE1
 70
     0
  9
$DIMSE2
 70
     0
  9
$DIMTAD
 70
     0
  9
$DIMZIN
 70
     0
  9
$DIMBLK
  1

  9
$DIMASO
 70
     1
  9
$DIMSHO
 70
     1
  9
$DIMPOST
  1

  9
$DIMAPOST
  1

  9
$DIMALT
 70
     0
  9
$DIMALTD
 70
     2
  9
$DIMALTF
 40
25.4
  9
$DIMLFAC
 40
1.0
  9
$DIMTOFL
 70
     0
  9
$DIMTVP
 40
0.0
  9
$DIMTIX
 70
     0
  9
$DIMSOXD
 70
     0
  9
$DIMSAH
 70
     0
  9
$DIMBLK1
  1

  9
$DIMBLK2
  1

  9
$DIMSTYLE
  2
Standard
  9
$DIMCLRD
 70
     0
  9
$DIMCLRE
 70
     0
  9
$DIMCLRT
 70
     0
  9
$DIMTFAC
 40
1.0
  9
$DIMGAP
 40
0.09
  9
$DIMJUST
 70
     0
  9
$DIMSD1
 70
     0
  9
$DIMSD2
 70
     0
  9
$DIMTOLJ
 70
     1
  9
$DIMTZIN
 70
     0
  9
$DIMALTZ
 70
     0
  9
$DIMALTTZ
 70
     0
  9
$DIMUPT
 70
     0
  9
$DIMDEC
 70
     4
  9
$DIMTDEC
 70
     4
  9
$DIMALTU
 70
     2
  9
$DIMALTTD
 70
     2
  9
$DIMTXSTY
  7
Standard
  9
$DIMAUNIT
 70
     0
  9
$DIMADEC
 70
     0
  9
$DIMALTRND
 40
0.0
  9
$DIMAZIN
 70
     0
  9
$DIMDSEP
 70
    46
  9
$DIMATFIT
 70
     3
  9
$DIMFRAC
 70
     0
  9
$DIMLDRBLK
  1

  9
$DIMLUNIT
 70
     2
  9
$DIMLWD
 70
    -2
  9
$DIMLWE
 70
    -2
  9
$DIMTMOVE
 70
     0
  9
$DIMFXL
 40
1.0
  9
$DIMFXLON
 70
     0
  9
$DIMJOGANG
 40
0.7853981633974483
  9
$DIMTFILL
 70
     0
  9
$DIMTFILLCLR
 70
     0
  9
$DIMARCSYM
 70
     0
  9
$DIMLTYPE
  6

  9
$DIMLTEX1
  6

  9
$DIMLTEX2
  6

  9
$DIMTXTDIRECTION
 70
     0
  9
$LUNITS
 70
     2
  9
$LUPREC
 70
     4
  9
$SKETCHINC
 40
0.1
  9
$FILLETRAD
 40
0.5
  9
$AUNITS
 70
     0
  9
$AUPREC
 70
     0
  9
$MENU
  1
.
  9
$ELEVATION
 40
0.0
  9
$PELEVATION
 40
0.0
  9
$THICKNESS
 40
0.0
  9
$LIMCHECK
 70
     0
  9
$CHAMFERA
 40
0.5
  9
$CHAMFERB
 40
0.5
  9
$CHAMFERC
 40
1.0
  9
$CHAMFERD
 40
0.0
  9
$SKPOLY
 70
     0
  9
$TDCREATE
 40
2458197.650578021
  9
$TDUCREATE
 40
2458197.608911354
  9
$TDUPDATE
 40
2458197.650578113
  9
$TDUUPDATE
 40
2458197.608911447
  9
$TDINDWG
 40
0.0000000116
  9
$TDUSRTIMER
 40
0.0000000116
  9
$USRTIMER
 70
     1
  9
$ANGBASE
 50
0.0
  9
$ANGDIR
 70
     0
  9
$PDMODE
 70
     0
  9
$PDSIZE
 40
0.0
  9
$PLINEWID
 40
0.0
  9
$SPLFRAME
 70
     0
  9
$SPLINETYPE
 70
     6
  9
$SPLINESEGS
 70
     8
  9
$HANDSEED
  5
259
  9
$SURFTAB1
 70
     6
  9
$SURFTAB2
 70
     6
  9
$SURFTYPE
 70
     6
  9
$SURFU
 70
     6
  9
$SURFV
 70
     6
  9
$UCSBASE
  2

  9
$UCSNAME
  2

  9
$UCSORG
 10
0.0
 20
0.0
 30
0.0
  9
$UCSXDIR
 10
1.0
 20
0.0
 30
0.0
  9
$UCSYDIR
 10
0.0
 20
1.0
 30
0.0
  9
$UCSORTHOREF
  2

  9
$UCSORTHOVIEW
 70
     0
  9
$UCSORGTOP
 10
0.0
 20
0.0
 30
0.0
  9
$UCSORGBOTTOM
 10
0.0
 20
0.0
 30
0.0
  9
$UCSORGLEFT
 10
0.0
 20
0.0
 30
0.0
  9
$UCSORGRIGHT
 10
0.0
 20
0.0
 30
0.0
  9
$UCSORGFRONT
 10
0.0
 20
0.0
 30
0.0
  9
$UCSORGBACK
 10
0.0
 20
0.0
 30
0.0
  9
$PUCSBASE
  2

  9
$PUCSNAME
  2

  9
$PUCSORG
 10
0.0
 20
0.0
 30
0.0
  9
$PUCSXDIR
 10
1.0
 20
0.0
 30
0.0
  9
$PUCSYDIR
 10
0.0
 20
1.0
 30
0.0
  9
$PUCSORTHOREF
  2

  9
$PUCSORTHOVIEW
 70
     0
  9
$PUCSORGTOP
 10
0.0
 20
0.0
 30
0.0
  9
$PUCSORGBOTTOM
 10
0.0
 20
0.0
 30
0.0
  9
$PUCSORGLEFT
 10
0.0
 20
0.0
 30
0.0
  9
$PUCSORGRIGHT
 10
0.0
 20
0.0
 30
0.0
  9
$PUCSORGFRONT
 10
0.0
 20
0.0
 30
0.0
  9
$PUCSORGBACK
 10
0.0
 20
0.0
 30
0.0
  9
$USERI1
 70
     0
  9
$USERI2
 70
     0
  9
$USERI3
 70
     0
  9
$USERI4
 70
     0
  9
$USERI5
 70
     0
  9
$USERR1
 40
0.0
  9
$USERR2
 40
0.0
  9
$USERR3
 40
0.0
  9
$USERR4
 40
0.0
  9
$USERR5
 40
0.0
  9
$WORLDVIEW
 70
     1
  9
$SHADEDGE
 70
     3
  9
$SHADEDIF
 70
    70
  9
$TILEMODE
 70
     1
  9
$MAXACTVP
 70
    64
  9
$PINSBASE
 10
0.0
 20
0.0
 30
0.0
  9
$PLIMCHECK
 70
     0
  9
$PEXTMIN
 10
1.000000000000000E+20
 20
1.000000000000000E+20
 30
1.000000000000000E+20
  9
$PEXTMAX
 10
-1.000000000000000E+20
 20
-1.000000000000000E+20
 30
-1.000000000000000E+20
  9
$PLIMMIN
 10
0.0
 20
0.0
  9
$PLIMMAX
 10
12.0
 20
9.0
  9
$UNITMODE
 70
     0
  9
$VISRETAIN
 70
     1
  9
$PLINEGEN
 70
     0
  9
$PSLTSCALE
 70
     1
  9
$TREEDEPTH
 70
  3020
  9
$CMLSTYLE
  2
Standard
  9
$CMLJUST
 70
     0
  9
$CMLSCALE
 40
1.0
  9
$PROXYGRAPHICS
 70
     1
  9
$MEASUREMENT
 70
     0
  9
$CELWEIGHT
370
    -1
  9
$ENDCAPS
280
     0
  9
$JOINSTYLE
280
     0
  9
$LWDISPLAY
290
     1
  9
$INSUNITS
 70
     1
  9
$HYPERLINKBASE
  1

  9
$STYLESHEET
  1

  9
$XEDIT
290
     1
  9
$CEPSNTYPE
380
     0
  9
$PSTYLEMODE
290
     1
  9
$FINGERPRINTGUID
  2
{2779CFEF-20A6-4192-8C62-B9CF5638C6EB}
  9
$VERSIONGUID
  2
{FAEB1C32-E019-11D5-929B-00C0DF256EC4}
  9
$EXTNAMES
290
     1
  9
$PSVPSCALE
 40
0.0
  9
$OLESTARTUP
290
     0
  9
$SORTENTS
280
   127
  9
$INDEXCTL
280
     0
  9
$HIDETEXT
280
     1
  9
$XCLIPFRAME
280
     2
  9
$HALOGAP
280
     0
  9
$OBSCOLOR
 70
   257
  9
$OBSLTYPE
280
     0
  9
$INTERSECTIONDISPLAY
280
     0
  9
$INTERSECTIONCOLOR
 70
   257
  9
$DIMASSOC
280
     2
  9
$PROJECTNAME
  1

  9
$CAMERADISPLAY
290
     0
  9
$LENSLENGTH
 40
50.0
  9
$CAMERAHEIGHT
 40
0.0
  9
$STEPSPERSEC
 40
2.0
  9
$STEPSIZE
 40
6.0
  9
$3DDWFPREC
 40
2.0
  9
$PSOLWIDTH
 40
0.25
  9
$PSOLHEIGHT
 40
4.0
  9
$LOFTANG1
 40
1.570796326794897
  9
$LOFTANG2
 40
1.570796326794897
  9
$LOFTMAG1
 40
0.0
  9
$LOFTMAG2
 40
0.0
  9
$LOFTPARAM
 70
     7
  9
$LOFTNORMALS
280
     1
  9
$LATITUDE
 40
37.795
  9
$LONGITUDE
 40
-122.394
  9
$NORTHDIRECTION
 40
0.0
  9
$TIMEZONE
 70
 -8000
  9
$LIGHTGLYPHDISPLAY
280
     1
  9
$TILEMODELIGHTSYNCH
280
     1
  9
$CMATERIAL
347
3C
  9
$SOLIDHIST
280
     1
  9
$SHOWHIST
280
     1
  9
$DWFFRAME
280
     2
  9
$DGNFRAME
280
     2
  9
$REALWORLDSCALE
290
     1
  9
$INTERFERECOLOR
 62
   256
  9
$CSHADOW
280
     0
  9
$SHADOWPLANELOCATION
 40
0.0
  0
ENDSEC
  0
SECTION
  2
CLASSES
  0
CLASS
  1
ACDBDICTIONARYWDFLT
  2
AcDbDictionaryWithDefault
  3
ObjectDBX Classes
 90
        0
 91
        4
280
     0
281
     0
  0
CLASS
  1
VISUALSTYLE
  2
AcDbVisualStyle
  3
ObjectDBX Classes
 90
     4095
 91
        4
280
     0
281
     0
  0
CLASS
  1
MATERIAL
  2
AcDbMaterial
  3
ObjectDBX Classes
 90
     1153
 91
        4
280
     0
281
     0
  0
CLASS
  1
SUN
  2
AcDbSun
  3
SCENEOE
 90
     1024
 91
        4
280
     0
281
     0
  0
ENDSEC
  0
SECTION
  2
TABLES
  0
TABLE
  2
VPORT
  5
8
330
0
100
AcDbSymbolTable
 70
     1
  0
VPORT
  5
29
330
8
100
AcDbSymbolTableRecord
100
AcDbViewportTableRecord
  2
*Active
 70
     0
 10
0.0
 20
0.0
 11
1.0
 21
1.0
 12
0.0
 22
0.0
 13
0.0
 23
0.0
 14
0.5
 24
0.5
 15
0.5
 25
0.5
 16
0.0
 26
0.0
 36
1.0
 17
3.999961911841358
 27
7.249927106705616
 37
0.0
 40
14.49985421341123
 41
0.5517244315658989
 42
50.0
 43
0.0
 44
0.0
 50
0.0
 51
0.0
 71
     0
 72
   100
 73
     1
 74
     3
 75
     0
 76
     0
 77
     0
 78
     0
281
     0
 65
     1
110
0.0
120
0.0
130
0.0
111
1.0
121
0.0
131
0.0
112
0.0
122
1.0
132
0.0
 79
     0
146
0.0
 60
     3
 61
     5
292
     1
282
     1
141
0.0
142
0.0
 63
   250
361
3F
  0
ENDTAB
  0
TABLE
  2
LTYPE
  5
5
330
0
100
AcDbSymbolTable
 70
     1
  0
LTYPE
  5
14
330
5
100
AcDbSymbolTableRecord
100
AcDbLinetypeTableRecord
  2
ByBlock
 70
     0
  3

 72
    65
 73
     0
 40
0.0
  0
LTYPE
  5
15
330
5
100
AcDbSymbolTableRecord
100
AcDbLinetypeTableRecord
  2
ByLayer
 70
     0
  3

 72
    65
 73
     0
 40
0.0
  0
LTYPE
  5
16
330
5
100
AcDbSymbolTableRecord
100
AcDbLinetypeTableRecord
  2
Continuous
 70
     0
  3
Solid line
 72
    65
 73
     0
 40
0.0
  0
ENDTAB
  0
TABLE
  2
LAYER
  5
2
330
0
100
AcDbSymbolTable
 70
     2
  0
LAYER
  5
10
330
2
100
AcDbSymbolTableRecord
100
AcDbLayerTableRecord
  2
0
 70
     0
 62
     7
  6
Continuous
370
    -3
390
F
347
3E
  0
LAYER
  5
40
330
2
100
AcDbSymbolTableRecord
100
AcDbLayerTableRecord
  2
Layer 1
 70
     0
 62
     7
  6
Continuous
370
    -3
390
F
347
3E
  0
ENDTAB
  0
TABLE
  2
STYLE
  5
3
330
0
100
AcDbSymbolTable
 70
     1
  0
STYLE
  5
11
330
3
100
AcDbSymbolTableRecord
100
AcDbTextStyleTableRecord
  2
Standard
 70
     0
 40
0.0
 41
1.0
 50
0.0
 71
     0
 42
0.2
  3
txt
  4

  0
ENDTAB
  0
TABLE
  2
VIEW
  5
6
330
0
100
AcDbSymbolTable
 70
     0
  0
ENDTAB
  0
TABLE
  2
UCS
  5
7
330
0
100
AcDbSymbolTable
 70
     0
  0
ENDTAB
  0
TABLE
  2
APPID
  5
9
330
0
100
AcDbSymbolTable
 70
     1
  0
APPID
  5
12
330
9
100
AcDbSymbolTableRecord
100
AcDbRegAppTableRecord
  2
ACAD
 70
     0
  0
ENDTAB
  0
TABLE
  2
DIMSTYLE
  5
A
330
0
100
AcDbSymbolTable
 70
     1
100
AcDbDimStyleTable
  0
DIMSTYLE
105
27
330
A
100
AcDbSymbolTableRecord
100
AcDbDimStyleTableRecord
  2
Standard
 70
     0
178
     0
340
11
  0
ENDTAB
  0
TABLE
  2
BLOCK_RECORD
  5
1
330
0
100
AcDbSymbolTable
 70
    59
  0
BLOCK_RECORD
  5
1F
330
1
100
AcDbSymbolTableRecord
100
AcDbBlockTableRecord
  2
*Model_Space
340
22
 70
     0
280
     1
281
     0
  0
BLOCK_RECORD
  5
1B
330
1
100
AcDbSymbolTableRecord
100
AcDbBlockTableRecord
  2
*Paper_Space
340
1E
 70
     0
280
     1
281
     0
  0
BLOCK_RECORD
  5
23
330
1
100
AcDbSymbolTableRecord
100
AcDbBlockTableRecord
  2
*Paper_Space0
340
26
 70
     0
280
     1
281
     0
  0
BLOCK_RECORD
  5
41
330
1
100
AcDbSymbolTableRecord
100
AcDbBlockTableRecord
  2
block 2
340
0
102
{BLKREFS
331
42
102
}
 70
     0
280
     1
281
     0
  0
BLOCK_RECORD
  5
45
330
1
100
AcDbSymbolTableRecord
100
AcDbBlockTableRecord
  2
block 3
340
0
102
{BLKREFS
331
46
102
}
 70
     0
280
     1
281
     0
  0
BLOCK_RECORD
  5
49
330
1
100
AcDbSymbolTableRecord
100
AcDbBlockTableRecord
  2
block 4
340
0
102
{BLKREFS
331
4A
102
}
 70
     0
280
     1
281
     0
  0
BLOCK_RECORD
  5
4D
330
1
100
AcDbSymbolTableRecord
100
AcDbBlockTableRecord
  2
block 5
340
0
102
{BLKREFS
331
4E
102
}
 70
     0
280
     1
281
     0
  0
BLOCK_RECORD
  5
51
330
1
100
AcDbSymbolTableRecord
100
AcDbBlockTableRecord
  2
block 6
340
0
102
{BLKREFS
331
52
102
}
 70
     0
280
     1
281
     0
  0
BLOCK_RECORD
  5
55
330
1
100
AcDbSymbolTableRecord
100
AcDbBlockTableRecord
  2
block 7
340
0
102
{BLKREFS
331
56
102
}
 70
     0
280
     1
281
     0
  0
BLOCK_RECORD
  5
66
330
1
100
AcDbSymbolTableRecord
100
AcDbBlockTableRecord
  2
block 8
340
0
102
{BLKREFS
331
67
102
}
 70
     0
280
     1
281
     0
  0
BLOCK_RECORD
  5
78
330
1
100
AcDbSymbolTableRecord
100
AcDbBlockTableRecord
  2
block 9
340
0
102
{BLKREFS
331
79
102
}
 70
     0
280
     1
281
     0
  0
BLOCK_RECORD
  5
7C
330
1
100
AcDbSymbolTableRecord
100
AcDbBlockTableRecord
  2
block 10
340
0
102
{BLKREFS
331
7D
102
}
 70
     0
280
     1
281
     0
  0
BLOCK_RECORD
  5
82
330
1
100
AcDbSymbolTableRecord
100
AcDbBlockTableRecord
  2
block 11
340
0
102
{BLKREFS
331
83
102
}
 70
     0
280
     1
281
     0
  0
BLOCK_RECORD
  5
8E
330
1
100
AcDbSymbolTableRecord
100
AcDbBlockTableRecord
  2
block 12
340
0
102
{BLKREFS
331
8F
102
}
 70
     0
280
     1
281
     0
  0
BLOCK_RECORD
  5
94
330
1
100
AcDbSymbolTableRecord
100
AcDbBlockTableRecord
  2
block 13
340
0
102
{BLKREFS
331
95
102
}
 70
     0
280
     1
281
     0
  0
BLOCK_RECORD
  5
A0
330
1
100
AcDbSymbolTableRecord
100
AcDbBlockTableRecord
  2
block 14
340
0
102
{BLKREFS
331
A1
102
}
 70
     0
280
     1
281
     0
  0
BLOCK_RECORD
  5
A4
330
1
100
AcDbSymbolTableRecord
100
AcDbBlockTableRecord
  2
block 15
340
0
102
{BLKREFS
331
A5
102
}
 70
     0
280
     1
281
     0
  0
BLOCK_RECORD
  5
AA
330
1
100
AcDbSymbolTableRecord
100
AcDbBlockTableRecord
  2
block 16
340
0
102
{BLKREFS
331
AB
102
}
 70
     0
280
     1
281
     0
  0
BLOCK_RECORD
  5
B6
330
1
100
AcDbSymbolTableRecord
100
AcDbBlockTableRecord
  2
block 17
340
0
102
{BLKREFS
331
B7
102
}
 70
     0
280
     1
281
     0
  0
BLOCK_RECORD
  5
BA
330
1
100
AcDbSymbolTableRecord
100
AcDbBlockTableRecord
  2
block 18
340
0
102
{BLKREFS
331
BB
102
}
 70
     0
280
     1
281
     0
  0
BLOCK_RECORD
  5
BE
330
1
100
AcDbSymbolTableRecord
100
AcDbBlockTableRecord
  2
block 19
340
0
102
{BLKREFS
331
BF
102
}
 70
     0
280
     1
281
     0
  0
BLOCK_RECORD
  5
C2
330
1
100
AcDbSymbolTableRecord
100
AcDbBlockTableRecord
  2
block 20
340
0
102
{BLKREFS
331
C3
102
}
 70
     0
280
     1
281
     0
  0
BLOCK_RECORD
  5
C8
330
1
100
AcDbSymbolTableRecord
100
AcDbBlockTableRecord
  2
block 21
340
0
102
{BLKREFS
331
C9
102
}
 70
     0
280
     1
281
     0
  0
BLOCK_RECORD
  5
CC
330
1
100
AcDbSymbolTableRecord
100
AcDbBlockTableRecord
  2
block 22
340
0
102
{BLKREFS
331
CD
102
}
 70
     0
280
     1
281
     0
  0
BLOCK_RECORD
  5
E4
330
1
100
AcDbSymbolTableRecord
100
AcDbBlockTableRecord
  2
block 23
340
0
102
{BLKREFS
331
E5
102
}
 70
     0
280
     1
281
     0
  0
BLOCK_RECORD
  5
E8
330
1
100
AcDbSymbolTableRecord
100
AcDbBlockTableRecord
  2
block 24
340
0
102
{BLKREFS
331
E9
102
}
 70
     0
280
     1
281
     0
  0
BLOCK_RECORD
  5
F0
330
1
100
AcDbSymbolTableRecord
100
AcDbBlockTableRecord
  2
block 25
340
0
102
{BLKREFS
331
F1
102
}
 70
     0
280
     1
281
     0
  0
BLOCK_RECORD
  5
F4
330
1
100
AcDbSymbolTableRecord
100
AcDbBlockTableRecord
  2
block 26
340
0
102
{BLKREFS
331
F5
102
}
 70
     0
280
     1
281
     0
  0
BLOCK_RECORD
  5
FC
330
1
100
AcDbSymbolTableRecord
100
AcDbBlockTableRecord
  2
block 27
340
0
102
{BLKREFS
331
FD
102
}
 70
     0
280
     1
281
     0
  0
BLOCK_RECORD
  5
100
330
1
100
AcDbSymbolTableRecord
100
AcDbBlockTableRecord
  2
block 28
340
0
102
{BLKREFS
331
101
102
}
 70
     0
280
     1
281
     0
  0
BLOCK_RECORD
  5
108
330
1
100
AcDbSymbolTableRecord
100
AcDbBlockTableRecord
  2
block 29
340
0
102
{BLKREFS
331
109
102
}
 70
     0
280
     1
281
     0
  0
BLOCK_RECORD
  5
10C
330
1
100
AcDbSymbolTableRecord
100
AcDbBlockTableRecord
  2
block 30
340
0
102
{BLKREFS
331
10D
102
}
 70
     0
280
     1
281
     0
  0
BLOCK_RECORD
  5
110
330
1
100
AcDbSymbolTableRecord
100
AcDbBlockTableRecord
  2
block 31
340
0
102
{BLKREFS
331
111
102
}
 70
     0
280
     1
281
     0
  0
BLOCK_RECORD
  5
11E
330
1
100
AcDbSymbolTableRecord
100
AcDbBlockTableRecord
  2
block 32
340
0
102
{BLKREFS
331
11F
102
}
 70
     0
280
     1
281
     0
  0
BLOCK_RECORD
  5
122
330
1
100
AcDbSymbolTableRecord
100
AcDbBlockTableRecord
  2
block 33
340
0
102
{BLKREFS
331
123
102
}
 70
     0
280
     1
281
     0
  0
BLOCK_RECORD
  5
12C
330
1
100
AcDbSymbolTableRecord
100
AcDbBlockTableRecord
  2
block 34
340
0
102
{BLKREFS
331
12D
102
}
 70
     0
280
     1
281
     0
  0
BLOCK_RECORD
  5
181
330
1
100
AcDbSymbolTableRecord
100
AcDbBlockTableRecord
  2
block 35
340
0
102
{BLKREFS
331
182
102
}
 70
     0
280
     1
281
     0
  0
BLOCK_RECORD
  5
185
330
1
100
AcDbSymbolTableRecord
100
AcDbBlockTableRecord
  2
block 36
340
0
102
{BLKREFS
331
186
102
}
 70
     0
280
     1
281
     0
  0
BLOCK_RECORD
  5
189
330
1
100
AcDbSymbolTableRecord
100
AcDbBlockTableRecord
  2
block 37
340
0
102
{BLKREFS
331
18A
102
}
 70
     0
280
     1
281
     0
  0
BLOCK_RECORD
  5
18D
330
1
100
AcDbSymbolTableRecord
100
AcDbBlockTableRecord
  2
block 38
340
0
102
{BLKREFS
331
18E
102
}
 70
     0
280
     1
281
     0
  0
BLOCK_RECORD
  5
1A1
330
1
100
AcDbSymbolTableRecord
100
AcDbBlockTableRecord
  2
block 39
340
0
102
{BLKREFS
331
1A2
102
}
 70
     0
280
     1
281
     0
  0
BLOCK_RECORD
  5
1AE
330
1
100
AcDbSymbolTableRecord
100
AcDbBlockTableRecord
  2
block 40
340
0
102
{BLKREFS
331
1AF
102
}
 70
     0
280
     1
281
     0
  0
BLOCK_RECORD
  5
1BE
330
1
100
AcDbSymbolTableRecord
100
AcDbBlockTableRecord
  2
block 41
340
0
102
{BLKREFS
331
1BF
102
}
 70
     0
280
     1
281
     0
  0
BLOCK_RECORD
  5
1C2
330
1
100
AcDbSymbolTableRecord
100
AcDbBlockTableRecord
  2
block 42
340
0
102
{BLKREFS
331
1C3
102
}
 70
     0
280
     1
281
     0
  0
BLOCK_RECORD
  5
1C6
330
1
100
AcDbSymbolTableRecord
100
AcDbBlockTableRecord
  2
block 43
340
0
102
{BLKREFS
331
1C7
102
}
 70
     0
280
     1
281
     0
  0
BLOCK_RECORD
  5
1CA
330
1
100
AcDbSymbolTableRecord
100
AcDbBlockTableRecord
  2
block 44
340
0
102
{BLKREFS
331
1CB
102
}
 70
     0
280
     1
281
     0
  0
BLOCK_RECORD
  5
1CE
330
1
100
AcDbSymbolTableRecord
100
AcDbBlockTableRecord
  2
block 45
340
0
102
{BLKREFS
331
1CF
102
}
 70
     0
280
     1
281
     0
  0
BLOCK_RECORD
  5
1D6
330
1
100
AcDbSymbolTableRecord
100
AcDbBlockTableRecord
  2
block 46
340
0
102
{BLKREFS
331
1D7
102
}
 70
     0
280
     1
281
     0
  0
BLOCK_RECORD
  5
1DA
330
1
100
AcDbSymbolTableRecord
100
AcDbBlockTableRecord
  2
block 47
340
0
102
{BLKREFS
331
1DB
102
}
 70
     0
280
     1
281
     0
  0
BLOCK_RECORD
  5
1E2
330
1
100
AcDbSymbolTableRecord
100
AcDbBlockTableRecord
  2
block 48
340
0
102
{BLKREFS
331
1E3
102
}
 70
     0
280
     1
281
     0
  0
BLOCK_RECORD
  5
1EF
330
1
100
AcDbSymbolTableRecord
100
AcDbBlockTableRecord
  2
block 49
340
0
102
{BLKREFS
331
1F0
102
}
 70
     0
280
     1
281
     0
  0
BLOCK_RECORD
  5
1FF
330
1
100
AcDbSymbolTableRecord
100
AcDbBlockTableRecord
  2
block 50
340
0
102
{BLKREFS
331
200
102
}
 70
     0
280
     1
281
     0
  0
BLOCK_RECORD
  5
203
330
1
100
AcDbSymbolTableRecord
100
AcDbBlockTableRecord
  2
block 51
340
0
102
{BLKREFS
331
204
102
}
 70
     0
280
     1
281
     0
  0
BLOCK_RECORD
  5
207
330
1
100
AcDbSymbolTableRecord
100
AcDbBlockTableRecord
  2
block 52
340
0
102
{BLKREFS
331
208
102
}
 70
     0
280
     1
281
     0
  0
BLOCK_RECORD
  5
20E
330
1
100
AcDbSymbolTableRecord
100
AcDbBlockTableRecord
  2
block 53
340
0
102
{BLKREFS
331
20F
102
}
 70
     0
280
     1
281
     0
  0
BLOCK_RECORD
  5
212
330
1
100
AcDbSymbolTableRecord
100
AcDbBlockTableRecord
  2
block 54
340
0
102
{BLKREFS
331
213
102
}
 70
     0
280
     1
281
     0
  0
BLOCK_RECORD
  5
21A
330
1
100
AcDbSymbolTableRecord
100
AcDbBlockTableRecord
  2
block 55
340
0
102
{BLKREFS
331
21B
102
}
 70
     0
280
     1
281
     0
  0
BLOCK_RECORD
  5
21E
330
1
100
AcDbSymbolTableRecord
100
AcDbBlockTableRecord
  2
block 56
340
0
102
{BLKREFS
331
21F
102
}
 70
     0
280
     1
281
     0
  0
BLOCK_RECORD
  5
228
330
1
100
AcDbSymbolTableRecord
100
AcDbBlockTableRecord
  2
block 57
340
0
102
{BLKREFS
331
229
102
}
 70
     0
280
     1
281
     0
  0
BLOCK_RECORD
  5
22C
330
1
100
AcDbSymbolTableRecord
100
AcDbBlockTableRecord
  2
block 58
340
0
102
{BLKREFS
331
22D
102
}
 70
     0
280
     1
281
     0
  0
BLOCK_RECORD
  5
230
330
1
100
AcDbSymbolTableRecord
100
AcDbBlockTableRecord
  2
block 59
340
0
102
{BLKREFS
331
231
102
}
 70
     0
280
     1
281
     0
  0
ENDTAB
  0
ENDSEC
  0
SECTION
  2
BLOCKS
  0
BLOCK
  5
20
330
1F
100
AcDbEntity
  8
0
100
AcDbBlockBegin
  2
*Model_Space
 70
     0
 10
0.0
 20
0.0
 30
0.0
  3
*Model_Space
  1

  0
ENDBLK
  5
21
330
1F
100
AcDbEntity
  8
0
100
AcDbBlockEnd
  0
BLOCK
  5
1C
330
1B
100
AcDbEntity
 67
     1
  8
0
100
AcDbBlockBegin
  2
*Paper_Space
 70
     0
 10
0.0
 20
0.0
 30
0.0
  3
*Paper_Space
  1

  0
ENDBLK
  5
1D
330
1B
100
AcDbEntity
 67
     1
  8
0
100
AcDbBlockEnd
  0
BLOCK
  5
24
330
23
100
AcDbEntity
  8
0
100
AcDbBlockBegin
  2
*Paper_Space0
 70
     0
 10
0.0
 20
0.0
 30
0.0
  3
*Paper_Space0
  1

  0
ENDBLK
  5
25
330
23
100
AcDbEntity
  8
0
100
AcDbBlockEnd
  0
BLOCK
  5
43
330
41
100
AcDbEntity
  8
0
100
AcDbBlockBegin
  2
block 2
 70
     0
 10
0.0
 20
0.0
 30
0.0
  3
block 2
  1

  0
INSERT
  5
46
330
41
100
AcDbEntity
  8
Layer 1
100
AcDbBlockReference
  2
block 3
 10
0.0
 20
0.0
 30
0.0
  0
ENDBLK
  5
44
330
41
100
AcDbEntity
  8
0
100
AcDbBlockEnd
  0
BLOCK
  5
47
330
45
100
AcDbEntity
  8
0
100
AcDbBlockBegin
  2
block 3
 70
     0
 10
0.0
 20
0.0
 30
0.0
  3
block 3
  1

  0
INSERT
  5
4A
330
45
100
AcDbEntity
  8
Layer 1
100
AcDbBlockReference
  2
block 4
 10
0.0
 20
0.0
 30
0.0
  0
INSERT
  5
79
330
45
100
AcDbEntity
  8
Layer 1
100
AcDbBlockReference
  2
block 9
 10
0.0
 20
0.0
 30
0.0
  0
INSERT
  5
8F
330
45
100
AcDbEntity
  8
Layer 1
100
AcDbBlockReference
  2
block 12
 10
0.0
 20
0.0
 30
0.0
  0
INSERT
  5
95
330
45
100
AcDbEntity
  8
Layer 1
100
AcDbBlockReference
  2
block 13
 10
0.0
 20
0.0
 30
0.0
  0
INSERT
  5
A1
330
45
100
AcDbEntity
  8
Layer 1
100
AcDbBlockReference
  2
block 14
 10
0.0
 20
0.0
 30
0.0
  0
INSERT
  5
B7
330
45
100
AcDbEntity
  8
Layer 1
100
AcDbBlockReference
  2
block 17
 10
0.0
 20
0.0
 30
0.0
  0
INSERT
  5
182
330
45
100
AcDbEntity
  8
Layer 1
100
AcDbBlockReference
  2
block 35
 10
0.0
 20
0.0
 30
0.0
  0
INSERT
  5
1BF
330
45
100
AcDbEntity
  8
Layer 1
100
AcDbBlockReference
  2
block 41
 10
0.0
 20
0.0
 30
0.0
  0
INSERT
  5
200
330
45
100
AcDbEntity
  8
Layer 1
100
AcDbBlockReference
  2
block 50
 10
0.0
 20
0.0
 30
0.0
  0
ENDBLK
  5
48
330
45
100
AcDbEntity
  8
0
100
AcDbBlockEnd
  0
BLOCK
  5
4B
330
49
100
AcDbEntity
  8
0
100
AcDbBlockBegin
  2
block 4
 70
     0
 10
0.0
 20
0.0
 30
0.0
  3
block 4
  1

  0
INSERT
  5
4E
330
49
100
AcDbEntity
  8
Layer 1
100
AcDbBlockReference
  2
block 5
 10
0.0
 20
0.0
 30
0.0
  0
INSERT
  5
67
330
49
100
AcDbEntity
  8
Layer 1
100
AcDbBlockReference
  2
block 8
 10
0.0
 20
0.0
 30
0.0
  0
ENDBLK
  5
4C
330
49
100
AcDbEntity
  8
0
100
AcDbBlockEnd
  0
BLOCK
  5
4F
330
4D
100
AcDbEntity
  8
0
100
AcDbBlockBegin
  2
block 5
 70
     0
 10
0.0
 20
0.0
 30
0.0
  3
block 5
  1

  0
INSERT
  5
52
330
4D
100
AcDbEntity
  8
Layer 1
100
AcDbBlockReference
  2
block 6
 10
0.0
 20
0.0
 30
0.0
  0
POLYLINE
  5
5D
330
4D
100
AcDbEntity
  8
Layer 1
370
     0
100
AcDb2dPolyline
 66
     1
 10
0.0
 20
0.0
 30
0.0
  0
VERTEX
  5
5E
330
5D
100
AcDbEntity
  8
Layer 1
370
     0
100
AcDbVertex
100
AcDb2dVertex
 10
4.495196635317979
 20
3.55878332587454
 30
0.0
  0
VERTEX
  5
5F
330
5D
100
AcDbEntity
  8
Layer 1
370
     0
100
AcDbVertex
100
AcDb2dVertex
 10
4.495196635317979
 20
3.236633804746415
 30
0.0
  0
VERTEX
  5
60
330
5D
100
AcDbEntity
  8
Layer 1
370
     0
100
AcDbVertex
100
AcDb2dVertex
 10
4.617391798867187
 20
3.181099526982488
 30
0.0
  0
VERTEX
  5
61
330
5D
100
AcDbEntity
  8
Layer 1
370
     0
100
AcDbVertex
100
AcDb2dVertex
 10
4.739590490194083
 20
3.281073221401925
 30
0.0
  0
VERTEX
  5
62
330
5D
100
AcDbEntity
  8
Layer 1
370
     0
100
AcDbVertex
100
AcDb2dVertex
 10
4.739590490194083
 20
3.614352880012398
 30
0.0
  0
VERTEX
  5
63
330
5D
100
AcDbEntity
  8
Layer 1
370
     0
100
AcDbVertex
100
AcDb2dVertex
 10
4.495196635317979
 20
3.55878332587454
 30
0.0
  0
SEQEND
  5
65
330
5D
100
AcDbEntity
  8
Layer 1
370
     0
  0
HATCH
  5
64
330
4D
100
AcDbEntity
  8
Layer 1
 62
   253
420
 10329244
100
AcDbHatch
 10
0.0
 20
0.0
 30
0.0
210
0.0
220
0.0
230
1.0
  2
SOLID
 70
     1
 71
     0
 91
        1
 92
        1
 93
        5
 72
     1
 10
4.495196635317979
 20
3.55878332587454
 11
4.495196635317979
 21
3.236633804746415
 72
     1
 10
4.495196635317979
 20
3.236633804746415
 11
4.617391798867187
 21
3.181099526982488
 72
     1
 10
4.617391798867187
 20
3.181099526982488
 11
4.739590490194083
 21
3.281073221401925
 72
     1
 10
4.739590490194083
 20
3.281073221401925
 11
4.739590490194083
 21
3.614352880012398
 72
     1
 10
4.739590490194083
 20
3.614352880012398
 11
4.495196635317979
 21
3.55878332587454
 97
        0
 75
     2
 76
     1
 98
        0
  0
ENDBLK
  5
50
330
4D
100
AcDbEntity
  8
0
100
AcDbBlockEnd
  0
BLOCK
  5
53
330
51
100
AcDbEntity
  8
0
100
AcDbBlockBegin
  2
block 6
 70
     0
 10
0.0
 20
0.0
 30
0.0
  3
block 6
  1

  0
INSERT
  5
56
330
51
100
AcDbEntity
  8
Layer 1
100
AcDbBlockReference
  2
block 7
 10
0.0
 20
0.0
 30
0.0
  0
ENDBLK
  5
54
330
51
100
AcDbEntity
  8
0
100
AcDbBlockEnd
  0
BLOCK
  5
57
330
55
100
AcDbEntity
  8
0
100
AcDbBlockBegin
  2
block 7
 70
     0
 10
0.0
 20
0.0
 30
0.0
  3
block 7
  1

  0
SPLINE
  5
59
330
55
100
AcDbEntity
  8
Layer 1
370
     0
100
AcDbSpline
210
0.0
220
0.0
230
1.0
 70
    11
 71
     3
 72
    32
 73
    28
 74
     0
 42
0.0000000001
 43
0.0000000001
 12
1.0
 22
0.0
 32
0.0
 13
1.0
 23
0.0
 33
0.0
 40
0.0
 40
0.0
 40
0.0
 40
0.0
 40
1.0
 40
1.0
 40
1.0
 40
2.0
 40
2.0
 40
2.0
 40
3.0
 40
3.0
 40
3.0
 40
4.0
 40
4.0
 40
4.0
 40
5.0
 40
5.0
 40
5.0
 40
6.0
 40
6.0
 40
6.0
 40
7.0
 40
7.0
 40
7.0
 40
8.0
 40
8.0
 40
8.0
 40
9.0
 40
9.0
 40
9.0
 40
9.0
 10
2.939975915931688
 20
4.358632833246457
 30
0.0
 10
2.939975915931688
 20
4.358632833246457
 30
0.0
 10
2.939975915931688
 20
3.214412332529751
 30
0.0
 10
2.939975915931688
 20
3.214412332529751
 30
0.0
 10
2.939975915931688
 20
3.147783193657472
 30
0.0
 10
3.03995313812891
 20
2.970050221479692
 30
0.0
 10
3.03995313812891
 20
2.970050221479692
 30
0.0
 10
3.03995313812891
 20
2.970050221479692
 30
0.0
 10
2.673378221553893
 20
3.003366554804707
 30
0.0
 10
2.673378221553893
 20
3.003366554804707
 30
0.0
 10
2.673378221553893
 20
3.003366554804707
 30
0.0
 10
2.117940193914968
 20
3.125561721440809
 30
0.0
 10
2.117940193914968
 20
3.125561721440809
 30
0.0
 10
2.117940193914968
 20
3.125561721440809
 30
0.0
 10
1.740238666231608
 20
3.392180582485308
 30
0.0
 10
1.740238666231608
 20
3.392180582485308
 30
0.0
 10
1.740238666231608
 20
3.392180582485308
 30
0.0
 10
1.529175249617708
 20
3.647665684718073
 30
0.0
 10
1.529175249617708
 20
3.647665684718073
 30
0.0
 10
1.529175249617708
 20
3.647665684718073
 30
0.0
 10
1.529175249617708
 20
3.92537587207754
 30
0.0
 10
1.529175249617708
 20
3.92537587207754
 30
0.0
 10
1.529175249617708
 20
3.92537587207754
 30
0.0
 10
1.529175249617708
 20
4.380850777124074
 30
0.0
 10
1.529175249617708
 20
4.380850777124074
 30
0.0
 10
1.529175249617708
 20
4.380850777124074
 30
0.0
 10
2.939975915931688
 20
4.358632833246457
 30
0.0
 10
2.939975915931688
 20
4.358632833246457
 30
0.0
  0
HATCH
  5
5A
330
55
100
AcDbEntity
  8
Layer 1
 62
     8
420
  7303022
100
AcDbHatch
 10
0.0
 20
0.0
 30
0.0
210
0.0
220
0.0
230
1.0
  2
SOLID
 70
     1
 71
     0
 91
        1
 92
        1
 93
        1
 72
     4
 94
        3
 73
     0
 74
     1
 95
       32
 96
       28
 40
0.0
 40
0.0
 40
0.0
 40
0.0
 40
1.0
 40
1.0
 40
1.0
 40
2.0
 40
2.0
 40
2.0
 40
3.0
 40
3.0
 40
3.0
 40
4.0
 40
4.0
 40
4.0
 40
5.0
 40
5.0
 40
5.0
 40
6.0
 40
6.0
 40
6.0
 40
7.0
 40
7.0
 40
7.0
 40
8.0
 40
8.0
 40
8.0
 40
9.0
 40
9.0
 40
9.0
 40
9.0
 10
2.939975915931688
 20
4.358632833246457
 10
2.939975915931688
 20
4.358632833246457
 10
2.939975915931688
 20
3.214412332529751
 10
2.939975915931688
 20
3.214412332529751
 10
2.939975915931688
 20
3.147783193657472
 10
3.03995313812891
 20
2.970050221479692
 10
3.03995313812891
 20
2.970050221479692
 10
3.03995313812891
 20
2.970050221479692
 10
2.673378221553893
 20
3.003366554804707
 10
2.673378221553893
 20
3.003366554804707
 10
2.673378221553893
 20
3.003366554804707
 10
2.117940193914968
 20
3.125561721440809
 10
2.117940193914968
 20
3.125561721440809
 10
2.117940193914968
 20
3.125561721440809
 10
1.740238666231608
 20
3.392180582485308
 10
1.740238666231608
 20
3.392180582485308
 10
1.740238666231608
 20
3.392180582485308
 10
1.529175249617708
 20
3.647665684718073
 10
1.529175249617708
 20
3.647665684718073
 10
1.529175249617708
 20
3.647665684718073
 10
1.529175249617708
 20
3.92537587207754
 10
1.529175249617708
 20
3.92537587207754
 10
1.529175249617708
 20
3.92537587207754
 10
1.529175249617708
 20
4.380850777124074
 10
1.529175249617708
 20
4.380850777124074
 10
1.529175249617708
 20
4.380850777124074
 10
2.939975915931688
 20
4.358632833246457
 10
2.939975915931688
 20
4.358632833246457
 97
        0
 97
        0
 75
     2
 76
     1
 98
        0
  0
SPLINE
  5
5B
330
55
100
AcDbEntity
  8
Layer 1
370
     0
100
AcDbSpline
210
0.0
220
0.0
230
1.0
 70
    11
 71
     3
 72
    35
 73
    31
 74
     0
 42
0.0000000001
 43
0.0000000001
 12
1.0
 22
0.0
 32
0.0
 13
1.0
 23
0.0
 33
0.0
 40
0.0
 40
0.0
 40
0.0
 40
0.0
 40
1.0
 40
1.0
 40
1.0
 40
2.0
 40
2.0
 40
2.0
 40
3.0
 40
3.0
 40
3.0
 40
4.0
 40
4.0
 40
4.0
 40
5.0
 40
5.0
 40
5.0
 40
6.0
 40
6.0
 40
6.0
 40
7.0
 40
7.0
 40
7.0
 40
8.0
 40
8.0
 40
8.0
 40
9.0
 40
9.0
 40
9.0
 40
10.0
 40
10.0
 40
10.0
 40
10.0
 10
4.783514850184591
 20
3.600125352597594
 30
0.0
 10
4.852588737311258
 20
3.68897243366425
 30
0.0
 10
4.861958514849992
 20
3.760494598506234
 30
0.0
 10
4.861958514849992
 20
3.834768429944684
 30
0.0
 10
4.861958514849992
 20
3.834768429944684
 30
0.0
 10
4.861958514849992
 20
4.290246862768906
 30
0.0
 10
4.861958514849992
 20
4.290246862768906
 30
0.0
 10
4.861958514849992
 20
4.290246862768906
 30
0.0
 10
1.636264471813164
 20
4.290246862768906
 30
0.0
 10
1.636264471813164
 20
4.290246862768906
 30
0.0
 10
1.636264471813164
 20
4.290246862768906
 30
0.0
 10
1.636264471813164
 20
3.834768429944684
 30
0.0
 10
1.636264471813164
 20
3.834768429944684
 30
0.0
 10
1.636264471813164
 20
3.760494598506234
 30
0.0
 10
1.667682860694188
 20
3.68897243366425
 30
0.0
 10
1.725838277346324
 20
3.622311546476022
 30
0.0
 10
1.725838277346324
 20
3.622311546476022
 30
0.0
 10
1.762975194003713
 20
3.572668658853629
 30
0.0
 10
1.762975194003713
 20
3.572668658853629
 30
0.0
 10
1.870237277310233
 20
3.277940554736058
 30
0.0
 10
2.482433721601609
 20
3.06272494367876
 30
0.0
 10
3.249104499187715
 20
3.06272494367876
 30
0.0
 10
3.781629514633704
 20
3.06272494367876
 30
0.0
 10
4.25775955804217
 20
3.182856360315406
 30
0.0
 10
4.530439134418868
 20
3.349804915829188
 30
0.0
 10
4.620873715445023
 20
3.405028749148761
 30
0.0
 10
4.688913963709171
 20
3.46542077691145
 30
0.0
 10
4.72918707379283
 20
3.52860318775561
 30
0.0
 10
4.72918707379283
 20
3.52860318775561
 30
0.0
 10
4.783514850184591
 20
3.600125352597594
 30
0.0
 10
4.783514850184591
 20
3.600125352597594
 30
0.0
  0
HATCH
  5
5C
330
55
100
AcDbEntity
  8
Layer 1
 62
   253
420
 10329244
100
AcDbHatch
 10
0.0
 20
0.0
 30
0.0
210
0.0
220
0.0
230
1.0
  2
SOLID
 70
     1
 71
     0
 91
        1
 92
        1
 93
        1
 72
     4
 94
        3
 73
     0
 74
     1
 95
       35
 96
       31
 40
0.0
 40
0.0
 40
0.0
 40
0.0
 40
1.0
 40
1.0
 40
1.0
 40
2.0
 40
2.0
 40
2.0
 40
3.0
 40
3.0
 40
3.0
 40
4.0
 40
4.0
 40
4.0
 40
5.0
 40
5.0
 40
5.0
 40
6.0
 40
6.0
 40
6.0
 40
7.0
 40
7.0
 40
7.0
 40
8.0
 40
8.0
 40
8.0
 40
9.0
 40
9.0
 40
9.0
 40
10.0
 40
10.0
 40
10.0
 40
10.0
 10
4.783514850184591
 20
3.600125352597594
 10
4.852588737311258
 20
3.68897243366425
 10
4.861958514849992
 20
3.760494598506234
 10
4.861958514849992
 20
3.834768429944684
 10
4.861958514849992
 20
3.834768429944684
 10
4.861958514849992
 20
4.290246862768906
 10
4.861958514849992
 20
4.290246862768906
 10
4.861958514849992
 20
4.290246862768906
 10
1.636264471813164
 20
4.290246862768906
 10
1.636264471813164
 20
4.290246862768906
 10
1.636264471813164
 20
4.290246862768906
 10
1.636264471813164
 20
3.834768429944684
 10
1.636264471813164
 20
3.834768429944684
 10
1.636264471813164
 20
3.760494598506234
 10
1.667682860694188
 20
3.68897243366425
 10
1.725838277346324
 20
3.622311546476022
 10
1.725838277346324
 20
3.622311546476022
 10
1.762975194003713
 20
3.572668658853629
 10
1.762975194003713
 20
3.572668658853629
 10
1.870237277310233
 20
3.277940554736058
 10
2.482433721601609
 20
3.06272494367876
 10
3.249104499187715
 20
3.06272494367876
 10
3.781629514633704
 20
3.06272494367876
 10
4.25775955804217
 20
3.182856360315406
 10
4.530439134418868
 20
3.349804915829188
 10
4.620873715445023
 20
3.405028749148761
 10
4.688913963709171
 20
3.46542077691145
 10
4.72918707379283
 20
3.52860318775561
 10
4.72918707379283
 20
3.52860318775561
 10
4.783514850184591
 20
3.600125352597594
 10
4.783514850184591
 20
3.600125352597594
 97
        0
 97
        0
 75
     2
 76
     1
 98
        0
  0
ENDBLK
  5
58
330
55
100
AcDbEntity
  8
0
100
AcDbBlockEnd
  0
BLOCK
  5
68
330
66
100
AcDbEntity
  8
0
100
AcDbBlockBegin
  2
block 8
 70
     0
 10
0.0
 20
0.0
 30
0.0
  3
block 8
  1

  0
SPLINE
  5
6A
330
66
100
AcDbEntity
  8
Layer 1
 62
     7
420
 16777215
370
     9
100
AcDbSpline
210
0.0
220
0.0
230
1.0
 70
     8
 71
     3
 72
    11
 73
     7
 74
     0
 42
0.0000000001
 43
0.0000000001
 12
1.0
 22
0.0
 32
0.0
 13
1.0
 23
0.0
 33
0.0
 40
0.0
 40
0.0
 40
0.0
 40
0.0
 40
1.0
 40
1.0
 40
1.0
 40
2.0
 40
2.0
 40
2.0
 40
2.0
 10
1.725838277346324
 20
3.622311546476022
 30
0.0
 10
1.945393055069222
 20
3.370647026935086
 30
0.0
 10
2.54440972158612
 20
3.189777860313687
 30
0.0
 10
3.249104499187715
 20
3.189777860313687
 30
0.0
 10
3.953643954689694
 20
3.189777860313687
 30
0.0
 10
4.552660606074173
 20
3.370647026935086
 30
0.0
 10
4.772388239357343
 20
3.622311546476022
 30
0.0
  0
POLYLINE
  5
6B
330
66
100
AcDbEntity
  8
Layer 1
 62
     7
420
 16777215
370
     9
100
AcDb2dPolyline
 66
     1
 10
0.0
 20
0.0
 30
0.0
  0
VERTEX
  5
6C
330
6B
100
AcDbEntity
  8
Layer 1
 62
     7
420
 16777215
370
     9
100
AcDbVertex
100
AcDb2dVertex
 10
4.614601326716156
 20
3.186987388092133
 30
0.0
  0
VERTEX
  5
6D
330
6B
100
AcDbEntity
  8
Layer 1
 62
     7
420
 16777215
370
     9
100
AcDbVertex
100
AcDb2dVertex
 10
4.614601326716156
 20
3.385908193597941
 30
0.0
  0
SEQEND
  5
6E
330
6B
100
AcDbEntity
  8
Layer 1
 62
     7
420
 16777215
370
     9
  0
POLYLINE
  5
6F
330
66
100
AcDbEntity
  8
Layer 1
 62
     7
420
 16777215
370
    18
100
AcDb2dPolyline
 66
     1
 10
0.0
 20
0.0
 30
0.0
  0
VERTEX
  5
70
330
6F
100
AcDbEntity
  8
Layer 1
 62
     7
420
 16777215
370
    18
100
AcDbVertex
100
AcDb2dVertex
 10
4.484789691139038
 20
3.336988499165758
 30
0.0
  0
VERTEX
  5
71
330
6F
100
AcDbEntity
  8
Layer 1
 62
     7
420
 16777215
370
    18
100
AcDbVertex
100
AcDb2dVertex
 10
4.484789691139038
 20
3.258855276963078
 30
0.0
  0
VERTEX
  5
72
330
6F
100
AcDbEntity
  8
Layer 1
 62
     7
420
 16777215
370
    18
100
AcDbVertex
100
AcDb2dVertex
 10
4.614601326716156
 20
3.179720165871723
 30
0.0
  0
VERTEX
  5
73
330
6F
100
AcDbEntity
  8
Layer 1
 62
     7
420
 16777215
370
    18
100
AcDbVertex
100
AcDb2dVertex
 10
4.62173449320084
 20
3.179720165871723
 30
0.0
  0
VERTEX
  5
74
330
6F
100
AcDbEntity
  8
Layer 1
 62
     7
420
 16777215
370
    18
100
AcDbVertex
100
AcDb2dVertex
 10
4.728291018260135
 20
3.272049165848661
 30
0.0
  0
VERTEX
  5
75
330
6F
100
AcDbEntity
  8
Layer 1
 62
     7
420
 16777215
370
    18
100
AcDbVertex
100
AcDb2dVertex
 10
4.728291018260135
 20
3.499770749125037
 30
0.0
  0
SEQEND
  5
76
330
6F
100
AcDbEntity
  8
Layer 1
 62
     7
420
 16777215
370
    18
  0
SPLINE
  5
77
330
66
100
AcDbEntity
  8
Layer 1
 62
     7
420
 16777215
370
    20
100
AcDbSpline
210
0.0
220
0.0
230
1.0
 70
    11
 71
     3
 72
    35
 73
    31
 74
     0
 42
0.0000000001
 43
0.0000000001
 12
1.0
 22
0.0
 32
0.0
 13
1.0
 23
0.0
 33
0.0
 40
0.0
 40
0.0
 40
0.0
 40
0.0
 40
1.0
 40
1.0
 40
1.0
 40
2.0
 40
2.0
 40
2.0
 40
3.0
 40
3.0
 40
3.0
 40
4.0
 40
4.0
 40
4.0
 40
5.0
 40
5.0
 40
5.0
 40
6.0
 40
6.0
 40
6.0
 40
7.0
 40
7.0
 40
7.0
 40
8.0
 40
8.0
 40
8.0
 40
9.0
 40
9.0
 40
9.0
 40
10.0
 40
10.0
 40
10.0
 40
10.0
 10
4.783514850184591
 20
3.600125352597594
 30
0.0
 10
4.852588737311258
 20
3.68897243366425
 30
0.0
 10
4.861958514849992
 20
3.760494598506234
 30
0.0
 10
4.861958514849992
 20
3.834768429944684
 30
0.0
 10
4.861958514849992
 20
3.834768429944684
 30
0.0
 10
4.861958514849992
 20
4.290246862768906
 30
0.0
 10
4.861958514849992
 20
4.290246862768906
 30
0.0
 10
4.861958514849992
 20
4.290246862768906
 30
0.0
 10
1.636264471813164
 20
4.290246862768906
 30
0.0
 10
1.636264471813164
 20
4.290246862768906
 30
0.0
 10
1.636264471813164
 20
4.290246862768906
 30
0.0
 10
1.636264471813164
 20
3.834768429944684
 30
0.0
 10
1.636264471813164
 20
3.834768429944684
 30
0.0
 10
1.636264471813164
 20
3.760494598506234
 30
0.0
 10
1.667682860694188
 20
3.68897243366425
 30
0.0
 10
1.725838277346324
 20
3.622311546476022
 30
0.0
 10
1.725838277346324
 20
3.622311546476022
 30
0.0
 10
1.762975194003713
 20
3.572668658853629
 30
0.0
 10
1.762975194003713
 20
3.572668658853629
 30
0.0
 10
1.870237277310233
 20
3.277940554736058
 30
0.0
 10
2.482433721601609
 20
3.06272494367876
 30
0.0
 10
3.249104499187715
 20
3.06272494367876
 30
0.0
 10
3.781629514633704
 20
3.06272494367876
 30
0.0
 10
4.25775955804217
 20
3.182856360315406
 30
0.0
 10
4.530439134418868
 20
3.349804915829188
 30
0.0
 10
4.620873715445023
 20
3.405028749148761
 30
0.0
 10
4.688913963709171
 20
3.46542077691145
 30
0.0
 10
4.72918707379283
 20
3.52860318775561
 30
0.0
 10
4.72918707379283
 20
3.52860318775561
 30
0.0
 10
4.783514850184591
 20
3.600125352597594
 30
0.0
 10
4.783514850184591
 20
3.600125352597594
 30
0.0
  0
ENDBLK
  5
69
330
66
100
AcDbEntity
  8
0
100
AcDbBlockEnd
  0
BLOCK
  5
7A
330
78
100
AcDbEntity
  8
0
100
AcDbBlockBegin
  2
block 9
 70
     0
 10
0.0
 20
0.0
 30
0.0
  3
block 9
  1

  0
INSERT
  5
7D
330
78
100
AcDbEntity
  8
Layer 1
100
AcDbBlockReference
  2
block 10
 10
0.0
 20
0.0
 30
0.0
  0
INSERT
  5
83
330
78
100
AcDbEntity
  8
Layer 1
100
AcDbBlockReference
  2
block 11
 10
0.0
 20
0.0
 30
0.0
  0
ENDBLK
  5
7B
330
78
100
AcDbEntity
  8
0
100
AcDbBlockEnd
  0
BLOCK
  5
7E
330
7C
100
AcDbEntity
  8
0
100
AcDbBlockBegin
  2
block 10
 70
     0
 10
0.0
 20
0.0
 30
0.0
  3
block 10
  1

  0
SPLINE
  5
80
330
7C
100
AcDbEntity
  8
Layer 1
370
     0
100
AcDbSpline
210
0.0
220
0.0
230
1.0
 70
    11
 71
     3
 72
    26
 73
    22
 74
     0
 42
0.0000000001
 43
0.0000000001
 12
1.0
 22
0.0
 32
0.0
 13
1.0
 23
0.0
 33
0.0
 40
0.0
 40
0.0
 40
0.0
 40
0.0
 40
1.0
 40
1.0
 40
1.0
 40
2.0
 40
2.0
 40
2.0
 40
3.0
 40
3.0
 40
3.0
 40
4.0
 40
4.0
 40
4.0
 40
5.0
 40
5.0
 40
5.0
 40
6.0
 40
6.0
 40
6.0
 40
7.0
 40
7.0
 40
7.0
 40
7.0
 10
0.6552388609472984
 20
5.31674550324741
 30
0.0
 10
0.6552388609472984
 20
5.31674550324741
 30
0.0
 10
0.6552388609472984
 20
4.061802090819239
 30
0.0
 10
0.6552388609472984
 20
4.061802090819239
 30
0.0
 10
0.6552388609472984
 20
4.034722869287866
 30
0.0
 10
0.6816125276073608
 20
4.007989369969894
 30
0.0
 10
0.7269162498182591
 20
3.988904092679022
 30
0.0
 10
0.7720471109180927
 20
3.969818815388151
 30
0.0
 10
0.8355718053466482
 20
3.958723954560093
 30
0.0
 10
0.899445749775149
 20
3.958723954560093
 30
0.0
 10
0.9633161664258336
 20
3.958723954560093
 30
0.0
 10
1.026844388632173
 20
3.969818815388151
 30
0.0
 10
1.071975249732007
 20
3.988904092679022
 30
0.0
 10
1.11710611083184
 20
4.007989369969894
 30
0.0
 10
1.143497416380791
 20
4.034722869287866
 30
0.0
 10
1.143497416380791
 20
4.061802090819239
 30
0.0
 10
1.143497416380791
 20
4.061802090819239
 30
0.0
 10
1.143497416380791
 20
5.238989755231125
 30
0.0
 10
1.143497416380791
 20
5.238989755231125
 30
0.0
 10
1.143497416380791
 20
5.238989755231125
 30
0.0
 10
0.6552388609472984
 20
5.31674550324741
 30
0.0
 10
0.6552388609472984
 20
5.31674550324741
 30
0.0
  0
HATCH
  5
81
330
7C
100
AcDbEntity
  8
Layer 1
 62
    40
420
 16768256
100
AcDbHatch
 10
0.0
 20
0.0
 30
0.0
210
0.0
220
0.0
230
1.0
  2
SOLID
 70
     1
 71
     0
 91
        1
 92
        1
 93
        1
 72
     4
 94
        3
 73
     0
 74
     1
 95
       26
 96
       22
 40
0.0
 40
0.0
 40
0.0
 40
0.0
 40
1.0
 40
1.0
 40
1.0
 40
2.0
 40
2.0
 40
2.0
 40
3.0
 40
3.0
 40
3.0
 40
4.0
 40
4.0
 40
4.0
 40
5.0
 40
5.0
 40
5.0
 40
6.0
 40
6.0
 40
6.0
 40
7.0
 40
7.0
 40
7.0
 40
7.0
 10
0.6552388609472984
 20
5.31674550324741
 10
0.6552388609472984
 20
5.31674550324741
 10
0.6552388609472984
 20
4.061802090819239
 10
0.6552388609472984
 20
4.061802090819239
 10
0.6552388609472984
 20
4.034722869287866
 10
0.6816125276073608
 20
4.007989369969894
 10
0.7269162498182591
 20
3.988904092679022
 10
0.7720471109180927
 20
3.969818815388151
 10
0.8355718053466482
 20
3.958723954560093
 10
0.899445749775149
 20
3.958723954560093
 10
0.9633161664258336
 20
3.958723954560093
 10
1.026844388632173
 20
3.969818815388151
 10
1.071975249732007
 20
3.988904092679022
 10
1.11710611083184
 20
4.007989369969894
 10
1.143497416380791
 20
4.034722869287866
 10
1.143497416380791
 20
4.061802090819239
 10
1.143497416380791
 20
4.061802090819239
 10
1.143497416380791
 20
5.238989755231125
 10
1.143497416380791
 20
5.238989755231125
 10
1.143497416380791
 20
5.238989755231125
 10
0.6552388609472984
 20
5.31674550324741
 10
0.6552388609472984
 20
5.31674550324741
 97
        0
 97
        0
 75
     2
 76
     1
 98
        0
  0
ENDBLK
  5
7F
330
7C
100
AcDbEntity
  8
0
100
AcDbBlockEnd
  0
BLOCK
  5
84
330
82
100
AcDbEntity
  8
0
100
AcDbBlockBegin
  2
block 11
 70
     0
 10
0.0
 20
0.0
 30
0.0
  3
block 11
  1

  0
SPLINE
  5
86
330
82
100
AcDbEntity
  8
Layer 1
 62
     7
420
 16777215
370
     9
100
AcDbSpline
210
0.0
220
0.0
230
1.0
 70
     8
 71
     3
 72
    17
 73
    13
 74
     0
 42
0.0000000001
 43
0.0000000001
 12
1.0
 22
0.0
 32
0.0
 13
1.0
 23
0.0
 33
0.0
 40
0.0
 40
0.0
 40
0.0
 40
0.0
 40
1.0
 40
1.0
 40
1.0
 40
2.0
 40
2.0
 40
2.0
 40
3.0
 40
3.0
 40
3.0
 40
4.0
 40
4.0
 40
4.0
 40
4.0
 10
0.6552388609472984
 20
5.072697498731814
 30
0.0
 10
0.6552388609472984
 20
5.045618149053334
 30
0.0
 10
0.6816125276073608
 20
5.018884649735362
 30
0.0
 10
0.7269162498182591
 20
4.999799372444491
 30
0.0
 10
0.7720471109180927
 20
4.980710567375931
 30
0.0
 10
0.8355718053466482
 20
4.969619234325561
 30
0.0
 10
0.899445749775149
 20
4.969619234325561
 30
0.0
 10
0.9633161664258336
 20
4.969619234325561
 30
0.0
 10
1.026844388632173
 20
4.980710567375931
 30
0.0
 10
1.071975249732007
 20
4.999799372444491
 30
0.0
 10
1.11710611083184
 20
5.018884649735362
 30
0.0
 10
1.143497416380791
 20
5.045618149053334
 30
0.0
 10
1.143497416380791
 20
5.072697498731814
 30
0.0
  0
SPLINE
  5
87
330
82
100
AcDbEntity
  8
Layer 1
 62
     7
420
 16777215
370
     9
100
AcDbSpline
210
0.0
220
0.0
230
1.0
 70
     8
 71
     3
 72
    17
 73
    13
 74
     0
 42
0.0000000001
 43
0.0000000001
 12
1.0
 22
0.0
 32
0.0
 13
1.0
 23
0.0
 33
0.0
 40
0.0
 40
0.0
 40
0.0
 40
0.0
 40
1.0
 40
1.0
 40
1.0
 40
2.0
 40
2.0
 40
2.0
 40
3.0
 40
3.0
 40
3.0
 40
4.0
 40
4.0
 40
4.0
 40
4.0
 10
0.6552388609472984
 20
4.928277207602506
 30
0.0
 10
0.6552388609472984
 20
4.901197986071133
 30
0.0
 10
0.6816125276073608
 20
4.874499764530039
 30
0.0
 10
0.7269162498182591
 20
4.855379209462289
 30
0.0
 10
0.7720471109180927
 20
4.836293932171418
 30
0.0
 10
0.8355718053466482
 20
4.82519907134336
 30
0.0
 10
0.899445749775149
 20
4.82519907134336
 30
0.0
 10
0.9633161664258336
 20
4.82519907134336
 30
0.0
 10
1.026844388632173
 20
4.836293932171418
 30
0.0
 10
1.071975249732007
 20
4.855379209462289
 30
0.0
 10
1.11710611083184
 20
4.874499764530039
 30
0.0
 10
1.143497416380791
 20
4.901197986071133
 30
0.0
 10
1.143497416380791
 20
4.928277207602506
 30
0.0
  0
SPLINE
  5
88
330
82
100
AcDbEntity
  8
Layer 1
 62
     7
420
 16777215
370
     9
100
AcDbSpline
210
0.0
220
0.0
230
1.0
 70
     8
 71
     3
 72
    17
 73
    13
 74
     0
 42
0.0000000001
 43
0.0000000001
 12
1.0
 22
0.0
 32
0.0
 13
1.0
 23
0.0
 33
0.0
 40
0.0
 40
0.0
 40
0.0
 40
0.0
 40
1.0
 40
1.0
 40
1.0
 40
2.0
 40
2.0
 40
2.0
 40
3.0
 40
3.0
 40
3.0
 40
4.0
 40
4.0
 40
4.0
 40
4.0
 10
0.6552388609472984
 20
4.783892322397183
 30
0.0
 10
0.6552388609472984
 20
4.756816628643497
 30
0.0
 10
0.6816125276073608
 20
4.730083129325525
 30
0.0
 10
0.7269162498182591
 20
4.710962574257776
 30
0.0
 10
0.7720471109180927
 20
4.691873887715905
 30
0.0
 10
0.8355718053466482
 20
4.680782436138847
 30
0.0
 10
0.899445749775149
 20
4.680782436138847
 30
0.0
 10
0.9633161664258336
 20
4.680782436138847
 30
0.0
 10
1.026844388632173
 20
4.691873887715905
 30
0.0
 10
1.071975249732007
 20
4.710962574257776
 30
0.0
 10
1.11710611083184
 20
4.730083129325525
 30
0.0
 10
1.143497416380791
 20
4.756816628643497
 30
0.0
 10
1.143497416380791
 20
4.783892322397183
 30
0.0
  0
SPLINE
  5
89
330
82
100
AcDbEntity
  8
Layer 1
 62
     7
420
 16777215
370
     9
100
AcDbSpline
210
0.0
220
0.0
230
1.0
 70
     8
 71
     3
 72
    17
 73
    13
 74
     0
 42
0.0000000001
 43
0.0000000001
 12
1.0
 22
0.0
 32
0.0
 13
1.0
 23
0.0
 33
0.0
 40
0.0
 40
0.0
 40
0.0
 40
0.0
 40
1.0
 40
1.0
 40
1.0
 40
2.0
 40
2.0
 40
2.0
 40
3.0
 40
3.0
 40
3.0
 40
4.0
 40
4.0
 40
4.0
 40
4.0
 10
0.6552388609472984
 20
4.639475687192669
 30
0.0
 10
0.6552388609472984
 20
4.612396465661296
 30
0.0
 10
0.6816125276073608
 20
4.585662966343324
 30
0.0
 10
0.7269162498182591
 20
4.566577689052452
 30
0.0
 10
0.7720471109180927
 20
4.547457133984703
 30
0.0
 10
0.8355718053466482
 20
4.536362273156645
 30
0.0
 10
0.899445749775149
 20
4.536362273156645
 30
0.0
 10
0.9633161664258336
 20
4.536362273156645
 30
0.0
 10
1.026844388632173
 20
4.547457133984703
 30
0.0
 10
1.071975249732007
 20
4.566577689052452
 30
0.0
 10
1.11710611083184
 20
4.585662966343324
 30
0.0
 10
1.143497416380791
 20
4.612396465661296
 30
0.0
 10
1.143497416380791
 20
4.639475687192669
 30
0.0
  0
SPLINE
  5
8A
330
82
100
AcDbEntity
  8
Layer 1
 62
     7
420
 16777215
370
     9
100
AcDbSpline
210
0.0
220
0.0
230
1.0
 70
     8
 71
     3
 72
    17
 73
    13
 74
     0
 42
0.0000000001
 43
0.0000000001
 12
1.0
 22
0.0
 32
0.0
 13
1.0
 23
0.0
 33
0.0
 40
0.0
 40
0.0
 40
0.0
 40
0.0
 40
1.0
 40
1.0
 40
1.0
 40
2.0
 40
2.0
 40
2.0
 40
3.0
 40
3.0
 40
3.0
 40
4.0
 40
4.0
 40
4.0
 40
4.0
 10
0.6552388609472984
 20
4.495055524210468
 30
0.0
 10
0.6552388609472984
 20
4.467979830456782
 30
0.0
 10
0.6816125276073608
 20
4.44124633113881
 30
0.0
 10
0.7269162498182591
 20
4.422157526070251
 30
0.0
 10
0.7720471109180927
 20
4.403072248779379
 30
0.0
 10
0.8355718053466482
 20
4.391945637952132
 30
0.0
 10
0.899445749775149
 20
4.391945637952132
 30
0.0
 10
0.9633161664258336
 20
4.391945637952132
 30
0.0
 10
1.026844388632173
 20
4.403072248779379
 30
0.0
 10
1.071975249732007
 20
4.422157526070251
 30
0.0
 10
1.11710611083184
 20
4.44124633113881
 30
0.0
 10
1.143497416380791
 20
4.467979830456782
 30
0.0
 10
1.143497416380791
 20
4.495055524210468
 30
0.0
  0
SPLINE
  5
8B
330
82
100
AcDbEntity
  8
Layer 1
 62
     7
420
 16777215
370
     9
100
AcDbSpline
210
0.0
220
0.0
230
1.0
 70
     8
 71
     3
 72
    17
 73
    13
 74
     0
 42
0.0000000001
 43
0.0000000001
 12
1.0
 22
0.0
 32
0.0
 13
1.0
 23
0.0
 33
0.0
 40
0.0
 40
0.0
 40
0.0
 40
0.0
 40
1.0
 40
1.0
 40
1.0
 40
2.0
 40
2.0
 40
2.0
 40
3.0
 40
3.0
 40
3.0
 40
4.0
 40
4.0
 40
4.0
 40
4.0
 10
0.6552388609472984
 20
4.350638889005954
 30
0.0
 10
0.6552388609472984
 20
4.323559667474581
 30
0.0
 10
0.6816125276073608
 20
4.296826168156609
 30
0.0
 10
0.7269162498182591
 20
4.277740890865737
 30
0.0
 10
0.7720471109180927
 20
4.258655613574866
 30
0.0
 10
0.8355718053466482
 20
4.24752547496993
 30
0.0
 10
0.899445749775149
 20
4.24752547496993
 30
0.0
 10
0.9633161664258336
 20
4.24752547496993
 30
0.0
 10
1.026844388632173
 20
4.258655613574866
 30
0.0
 10
1.071975249732007
 20
4.277740890865737
 30
0.0
 10
1.11710611083184
 20
4.296826168156609
 30
0.0
 10
1.143497416380791
 20
4.323559667474581
 30
0.0
 10
1.143497416380791
 20
4.350638889005954
 30
0.0
  0
SPLINE
  5
8C
330
82
100
AcDbEntity
  8
Layer 1
 62
     7
420
 16777215
370
     9
100
AcDbSpline
210
0.0
220
0.0
230
1.0
 70
     8
 71
     3
 72
    17
 73
    13
 74
     0
 42
0.0000000001
 43
0.0000000001
 12
1.0
 22
0.0
 32
0.0
 13
1.0
 23
0.0
 33
0.0
 40
0.0
 40
0.0
 40
0.0
 40
0.0
 40
1.0
 40
1.0
 40
1.0
 40
2.0
 40
2.0
 40
2.0
 40
3.0
 40
3.0
 40
3.0
 40
4.0
 40
4.0
 40
4.0
 40
4.0
 10
0.6552388609472984
 20
4.206218726023753
 30
0.0
 10
0.6552388609472984
 20
4.179143032270067
 30
0.0
 10
0.6816125276073608
 20
4.152409532952095
 30
0.0
 10
0.7269162498182591
 20
4.133320832300034
 30
0.0
 10
0.7720471109180927
 20
4.11423555452699
 30
0.0
 10
0.8355718053466482
 20
4.103108839765417
 30
0.0
 10
0.899445749775149
 20
4.103108839765417
 30
0.0
 10
0.9633161664258336
 20
4.103108839765417
 30
0.0
 10
1.026844388632173
 20
4.11423555452699
 30
0.0
 10
1.071975249732007
 20
4.133320832300034
 30
0.0
 10
1.11710611083184
 20
4.152409532952095
 30
0.0
 10
1.143497416380791
 20
4.179143032270067
 30
0.0
 10
1.143497416380791
 20
4.206218726023753
 30
0.0
  0
SPLINE
  5
8D
330
82
100
AcDbEntity
  8
Layer 1
 62
     7
420
 16777215
370
    20
100
AcDbSpline
210
0.0
220
0.0
230
1.0
 70
     8
 71
     3
 72
    23
 73
    19
 74
     0
 42
0.0000000001
 43
0.0000000001
 12
1.0
 22
0.0
 32
0.0
 13
1.0
 23
0.0
 33
0.0
 40
0.0
 40
0.0
 40
0.0
 40
0.0
 40
1.0
 40
1.0
 40
1.0
 40
2.0
 40
2.0
 40
2.0
 40
3.0
 40
3.0
 40
3.0
 40
4.0
 40
4.0
 40
4.0
 40
5.0
 40
5.0
 40
5.0
 40
6.0
 40
6.0
 40
6.0
 40
6.0
 10
0.6552388609472984
 20
5.31674550324741
 30
0.0
 10
0.6552388609472984
 20
5.31674550324741
 30
0.0
 10
0.6552388609472984
 20
4.061802090819239
 30
0.0
 10
0.6552388609472984
 20
4.061802090819239
 30
0.0
 10
0.6552388609472984
 20
4.034722869287866
 30
0.0
 10
0.6816125276073608
 20
4.007989369969894
 30
0.0
 10
0.7269162498182591
 20
3.988904092679022
 30
0.0
 10
0.7720471109180927
 20
3.969818815388151
 30
0.0
 10
0.8355718053466482
 20
3.958723954560093
 30
0.0
 10
0.899445749775149
 20
3.958723954560093
 30
0.0
 10
0.9633161664258336
 20
3.958723954560093
 30
0.0
 10
1.026844388632173
 20
3.969818815388151
 30
0.0
 10
1.071975249732007
 20
3.988904092679022
 30
0.0
 10
1.11710611083184
 20
4.007989369969894
 30
0.0
 10
1.143497416380791
 20
4.034722869287866
 30
0.0
 10
1.143497416380791
 20
4.061802090819239
 30
0.0
 10
1.143497416380791
 20
4.061802090819239
 30
0.0
 10
1.143497416380791
 20
5.238989755231125
 30
0.0
 10
1.143497416380791
 20
5.238989755231125
 30
0.0
  0
ENDBLK
  5
85
330
82
100
AcDbEntity
  8
0
100
AcDbBlockEnd
  0
BLOCK
  5
90
330
8E
100
AcDbEntity
  8
0
100
AcDbBlockBegin
  2
block 12
 70
     0
 10
0.0
 20
0.0
 30
0.0
  3
block 12
  1

  0
SPLINE
  5
92
330
8E
100
AcDbEntity
  8
Layer 1
370
     0
100
AcDbSpline
210
0.0
220
0.0
230
1.0
 70
    11
 71
     3
 72
    26
 73
    22
 74
     0
 42
0.0000000001
 43
0.0000000001
 12
1.0
 22
0.0
 32
0.0
 13
1.0
 23
0.0
 33
0.0
 40
0.0
 40
0.0
 40
0.0
 40
0.0
 40
1.0
 40
1.0
 40
1.0
 40
2.0
 40
2.0
 40
2.0
 40
3.0
 40
3.0
 40
3.0
 40
4.0
 40
4.0
 40
4.0
 40
5.0
 40
5.0
 40
5.0
 40
6.0
 40
6.0
 40
6.0
 40
7.0
 40
7.0
 40
7.0
 40
7.0
 10
2.543704166030725
 20
4.250315947120962
 30
0.0
 10
2.543704166030725
 20
4.250315947120962
 30
0.0
 10
2.543704166030725
 20
2.995372610362263
 30
0.0
 10
2.543704166030725
 20
2.995372610362263
 30
0.0
 10
2.543704166030725
 20
2.968293388146837
 30
0.0
 10
2.570091943801923
 20
2.941559888153478
 30
0.0
 10
2.615395666012822
 20
2.922474610380497
 30
0.0
 10
2.660526527112655
 20
2.903389332607517
 30
0.0
 10
2.724054749318995
 20
2.892262721499141
 30
0.0
 10
2.78792516596968
 20
2.892262721499141
 30
0.0
 10
2.851799110398148
 20
2.892262721499141
 30
0.0
 10
2.915327332604488
 20
2.903389332607517
 30
0.0
 10
2.960458193704322
 20
2.922474610380497
 30
0.0
 10
3.005589054804155
 20
2.941559888153478
 30
0.0
 10
3.031976832575354
 20
2.968293388146837
 30
0.0
 10
3.031976832575354
 20
2.995372610362263
 30
0.0
 10
3.031976832575354
 20
2.995372610362263
 30
0.0
 10
3.031976832575354
 20
4.172560199104676
 30
0.0
 10
3.031976832575354
 20
4.172560199104676
 30
0.0
 10
3.031976832575354
 20
4.172560199104676
 30
0.0
 10
2.543704166030725
 20
4.250315947120962
 30
0.0
 10
2.543704166030725
 20
4.250315947120962
 30
0.0
  0
HATCH
  5
93
330
8E
100
AcDbEntity
  8
Layer 1
 62
    40
420
 16768256
100
AcDbHatch
 10
0.0
 20
0.0
 30
0.0
210
0.0
220
0.0
230
1.0
  2
SOLID
 70
     1
 71
     0
 91
        1
 92
        1
 93
        1
 72
     4
 94
        3
 73
     0
 74
     1
 95
       26
 96
       22
 40
0.0
 40
0.0
 40
0.0
 40
0.0
 40
1.0
 40
1.0
 40
1.0
 40
2.0
 40
2.0
 40
2.0
 40
3.0
 40
3.0
 40
3.0
 40
4.0
 40
4.0
 40
4.0
 40
5.0
 40
5.0
 40
5.0
 40
6.0
 40
6.0
 40
6.0
 40
7.0
 40
7.0
 40
7.0
 40
7.0
 10
2.543704166030725
 20
4.250315947120962
 10
2.543704166030725
 20
4.250315947120962
 10
2.543704166030725
 20
2.995372610362263
 10
2.543704166030725
 20
2.995372610362263
 10
2.543704166030725
 20
2.968293388146837
 10
2.570091943801923
 20
2.941559888153478
 10
2.615395666012822
 20
2.922474610380497
 10
2.660526527112655
 20
2.903389332607517
 10
2.724054749318995
 20
2.892262721499141
 10
2.78792516596968
 20
2.892262721499141
 10
2.851799110398148
 20
2.892262721499141
 10
2.915327332604488
 20
2.903389332607517
 10
2.960458193704322
 20
2.922474610380497
 10
3.005589054804155
 20
2.941559888153478
 10
3.031976832575354
 20
2.968293388146837
 10
3.031976832575354
 20
2.995372610362263
 10
3.031976832575354
 20
2.995372610362263
 10
3.031976832575354
 20
4.172560199104676
 10
3.031976832575354
 20
4.172560199104676
 10
3.031976832575354
 20
4.172560199104676
 10
2.543704166030725
 20
4.250315947120962
 10
2.543704166030725
 20
4.250315947120962
 97
        0
 97
        0
 75
     2
 76
     1
 98
        0
  0
ENDBLK
  5
91
330
8E
100
AcDbEntity
  8
0
100
AcDbBlockEnd
  0
BLOCK
  5
96
330
94
100
AcDbEntity
  8
0
100
AcDbBlockBegin
  2
block 13
 70
     0
 10
0.0
 20
0.0
 30
0.0
  3
block 13
  1

  0
SPLINE
  5
98
330
94
100
AcDbEntity
  8
Layer 1
 62
     7
420
 16777215
370
     9
100
AcDbSpline
210
0.0
220
0.0
230
1.0
 70
     8
 71
     3
 72
    17
 73
    13
 74
     0
 42
0.0000000001
 43
0.0000000001
 12
1.0
 22
0.0
 32
0.0
 13
1.0
 23
0.0
 33
0.0
 40
0.0
 40
0.0
 40
0.0
 40
0.0
 40
1.0
 40
1.0
 40
1.0
 40
2.0
 40
2.0
 40
2.0
 40
3.0
 40
3.0
 40
3.0
 40
4.0
 40
4.0
 40
4.0
 40
4.0
 10
2.543704166030725
 20
4.006267814458259
 30
0.0
 10
2.543704166030725
 20
3.979188592926886
 30
0.0
 10
2.570091943801923
 20
3.952455093608914
 30
0.0
 10
2.615395666012822
 20
3.933369816318042
 30
0.0
 10
2.660526527112655
 20
3.91428453902717
 30
0.0
 10
2.724054749318995
 20
3.903154400422235
 30
0.0
 10
2.78792516596968
 20
3.903154400422235
 30
0.0
 10
2.851799110398148
 20
3.903154400422235
 30
0.0
 10
2.915327332604488
 20
3.91428453902717
 30
0.0
 10
2.960458193704322
 20
3.933369816318042
 30
0.0
 10
3.005589054804155
 20
3.952455093608914
 30
0.0
 10
3.031976832575354
 20
3.979188592926886
 30
0.0
 10
3.031976832575354
 20
4.006267814458259
 30
0.0
  0
SPLINE
  5
99
330
94
100
AcDbEntity
  8
Layer 1
 62
     7
420
 16777215
370
     9
100
AcDbSpline
210
0.0
220
0.0
230
1.0
 70
     8
 71
     3
 72
    17
 73
    13
 74
     0
 42
0.0000000001
 43
0.0000000001
 12
1.0
 22
0.0
 32
0.0
 13
1.0
 23
0.0
 33
0.0
 40
0.0
 40
0.0
 40
0.0
 40
0.0
 40
1.0
 40
1.0
 40
1.0
 40
2.0
 40
2.0
 40
2.0
 40
3.0
 40
3.0
 40
3.0
 40
4.0
 40
4.0
 40
4.0
 40
4.0
 10
2.543704166030725
 20
3.861847651476058
 30
0.0
 10
2.543704166030725
 20
3.834768429944684
 30
0.0
 10
2.570091943801923
 20
3.808034930626713
 30
0.0
 10
2.615395666012822
 20
3.788949653335841
 30
0.0
 10
2.660526527112655
 20
3.769864376044969
 30
0.0
 10
2.724054749318995
 20
3.758773042994599
 30
0.0
 10
2.78792516596968
 20
3.758773042994599
 30
0.0
 10
2.851799110398148
 20
3.758773042994599
 30
0.0
 10
2.915327332604488
 20
3.769864376044969
 30
0.0
 10
2.960458193704322
 20
3.788949653335841
 30
0.0
 10
3.005589054804155
 20
3.808034930626713
 30
0.0
 10
3.031976832575354
 20
3.834768429944684
 30
0.0
 10
3.031976832575354
 20
3.861847651476058
 30
0.0
  0
SPLINE
  5
9A
330
94
100
AcDbEntity
  8
Layer 1
 62
     7
420
 16777215
370
     9
100
AcDbSpline
210
0.0
220
0.0
230
1.0
 70
     8
 71
     3
 72
    17
 73
    13
 74
     0
 42
0.0000000001
 43
0.0000000001
 12
1.0
 22
0.0
 32
0.0
 13
1.0
 23
0.0
 33
0.0
 40
0.0
 40
0.0
 40
0.0
 40
0.0
 40
1.0
 40
1.0
 40
1.0
 40
2.0
 40
2.0
 40
2.0
 40
3.0
 40
3.0
 40
3.0
 40
4.0
 40
4.0
 40
4.0
 40
4.0
 10
2.543704166030725
 20
3.71743111018176
 30
0.0
 10
2.543704166030725
 20
3.690351794740171
 30
0.0
 10
2.570091943801923
 20
3.663653573199077
 30
0.0
 10
2.615395666012822
 20
3.644533018131327
 30
0.0
 10
2.660526527112655
 20
3.625447740840456
 30
0.0
 10
2.724054749318995
 20
3.614352880012398
 30
0.0
 10
2.78792516596968
 20
3.614352880012398
 30
0.0
 10
2.851799110398148
 20
3.614352880012398
 30
0.0
 10
2.915327332604488
 20
3.625447740840456
 30
0.0
 10
2.960458193704322
 20
3.644533018131327
 30
0.0
 10
3.005589054804155
 20
3.663653573199077
 30
0.0
 10
3.031976832575354
 20
3.690351794740171
 30
0.0
 10
3.031976832575354
 20
3.71743111018176
 30
0.0
  0
SPLINE
  5
9B
330
94
100
AcDbEntity
  8
Layer 1
 62
     7
420
 16777215
370
     9
100
AcDbSpline
210
0.0
220
0.0
230
1.0
 70
     8
 71
     3
 72
    17
 73
    13
 74
     0
 42
0.0000000001
 43
0.0000000001
 12
1.0
 22
0.0
 32
0.0
 13
1.0
 23
0.0
 33
0.0
 40
0.0
 40
0.0
 40
0.0
 40
0.0
 40
1.0
 40
1.0
 40
1.0
 40
2.0
 40
2.0
 40
2.0
 40
3.0
 40
3.0
 40
3.0
 40
4.0
 40
4.0
 40
4.0
 40
4.0
 10
2.543704166030725
 20
3.573046131066221
 30
0.0
 10
2.543704166030725
 20
3.545966909534847
 30
0.0
 10
2.570091943801923
 20
3.51923349912017
 30
0.0
 10
2.615395666012822
 20
3.500112943569414
 30
0.0
 10
2.660526527112655
 20
3.481027665796434
 30
0.0
 10
2.724054749318995
 20
3.469936332465834
 30
0.0
 10
2.78792516596968
 20
3.469936332465834
 30
0.0
 10
2.851799110398148
 20
3.469936332465834
 30
0.0
 10
2.915327332604488
 20
3.481027665796434
 30
0.0
 10
2.960458193704322
 20
3.500112943569414
 30
0.0
 10
3.005589054804155
 20
3.51923349912017
 30
0.0
 10
3.031976832575354
 20
3.545966909534847
 30
0.0
 10
3.031976832575354
 20
3.573046131066221
 30
0.0
  0
SPLINE
  5
9C
330
94
100
AcDbEntity
  8
Layer 1
 62
     7
420
 16777215
370
     9
100
AcDbSpline
210
0.0
220
0.0
230
1.0
 70
     8
 71
     3
 72
    17
 73
    13
 74
     0
 42
0.0000000001
 43
0.0000000001
 12
1.0
 22
0.0
 32
0.0
 13
1.0
 23
0.0
 33
0.0
 40
0.0
 40
0.0
 40
0.0
 40
0.0
 40
1.0
 40
1.0
 40
1.0
 40
2.0
 40
2.0
 40
2.0
 40
3.0
 40
3.0
 40
3.0
 40
4.0
 40
4.0
 40
4.0
 40
4.0
 10
2.543704166030725
 20
3.42862958247619
 30
0.0
 10
2.543704166030725
 20
3.401550360260701
 30
0.0
 10
2.570091943801923
 20
3.374816860267405
 30
0.0
 10
2.615395666012822
 20
3.355728054716609
 30
0.0
 10
2.660526527112655
 20
3.336611026943604
 30
0.0
 10
2.724054749318995
 20
3.325516165835317
 30
0.0
 10
2.78792516596968
 20
3.325516165835317
 30
0.0
 10
2.851799110398148
 20
3.325516165835317
 30
0.0
 10
2.915327332604488
 20
3.336611026943604
 30
0.0
 10
2.960458193704322
 20
3.355728054716609
 30
0.0
 10
3.005589054804155
 20
3.374816860267405
 30
0.0
 10
3.031976832575354
 20
3.401550360260701
 30
0.0
 10
3.031976832575354
 20
3.42862958247619
 30
0.0
  0
SPLINE
  5
9D
330
94
100
AcDbEntity
  8
Layer 1
 62
     7
420
 16777215
370
     9
100
AcDbSpline
210
0.0
220
0.0
230
1.0
 70
     8
 71
     3
 72
    17
 73
    13
 74
     0
 42
0.0000000001
 43
0.0000000001
 12
1.0
 22
0.0
 32
0.0
 13
1.0
 23
0.0
 33
0.0
 40
0.0
 40
0.0
 40
0.0
 40
0.0
 40
1.0
 40
1.0
 40
1.0
 40
2.0
 40
2.0
 40
2.0
 40
3.0
 40
3.0
 40
3.0
 40
4.0
 40
4.0
 40
4.0
 40
4.0
 10
2.543704166030725
 20
3.284209415845609
 30
0.0
 10
2.543704166030725
 20
3.257130193630184
 30
0.0
 10
2.570091943801923
 20
3.230396693636824
 30
0.0
 10
2.615395666012822
 20
3.211311415863844
 30
0.0
 10
2.660526527112655
 20
3.192226138090863
 30
0.0
 10
2.724054749318995
 20
3.181099526982488
 30
0.0
 10
2.78792516596968
 20
3.181099526982488
 30
0.0
 10
2.851799110398148
 20
3.181099526982488
 30
0.0
 10
2.915327332604488
 20
3.192226138090863
 30
0.0
 10
2.960458193704322
 20
3.211311415863844
 30
0.0
 10
3.005589054804155
 20
3.230396693636824
 30
0.0
 10
3.031976832575354
 20
3.257130193630184
 30
0.0
 10
3.031976832575354
 20
3.284209415845609
 30
0.0
  0
SPLINE
  5
9E
330
94
100
AcDbEntity
  8
Layer 1
 62
     7
420
 16777215
370
     9
100
AcDbSpline
210
0.0
220
0.0
230
1.0
 70
     8
 71
     3
 72
    17
 73
    13
 74
     0
 42
0.0000000001
 43
0.0000000001
 12
1.0
 22
0.0
 32
0.0
 13
1.0
 23
0.0
 33
0.0
 40
0.0
 40
0.0
 40
0.0
 40
0.0
 40
1.0
 40
1.0
 40
1.0
 40
2.0
 40
2.0
 40
2.0
 40
3.0
 40
3.0
 40
3.0
 40
4.0
 40
4.0
 40
4.0
 40
4.0
 10
2.543704166030725
 20
3.139792776992844
 30
0.0
 10
2.543704166030725
 20
3.112713554777355
 30
0.0
 10
2.570091943801923
 20
3.085980054784059
 30
0.0
 10
2.615395666012822
 20
3.066891249233263
 30
0.0
 10
2.660526527112655
 20
3.047805971460282
 30
0.0
 10
2.724054749318995
 20
3.03667936035197
 30
0.0
 10
2.78792516596968
 20
3.03667936035197
 30
0.0
 10
2.851799110398148
 20
3.03667936035197
 30
0.0
 10
2.915327332604488
 20
3.047805971460282
 30
0.0
 10
2.960458193704322
 20
3.066891249233263
 30
0.0
 10
3.005589054804155
 20
3.085980054784059
 30
0.0
 10
3.031976832575354
 20
3.112713554777355
 30
0.0
 10
3.031976832575354
 20
3.139792776992844
 30
0.0
  0
SPLINE
  5
9F
330
94
100
AcDbEntity
  8
Layer 1
 62
     7
420
 16777215
370
    20
100
AcDbSpline
210
0.0
220
0.0
230
1.0
 70
     8
 71
     3
 72
    23
 73
    19
 74
     0
 42
0.0000000001
 43
0.0000000001
 12
1.0
 22
0.0
 32
0.0
 13
1.0
 23
0.0
 33
0.0
 40
0.0
 40
0.0
 40
0.0
 40
0.0
 40
1.0
 40
1.0
 40
1.0
 40
2.0
 40
2.0
 40
2.0
 40
3.0
 40
3.0
 40
3.0
 40
4.0
 40
4.0
 40
4.0
 40
5.0
 40
5.0
 40
5.0
 40
6.0
 40
6.0
 40
6.0
 40
6.0
 10
2.543704166030725
 20
4.250315947120962
 30
0.0
 10
2.543704166030725
 20
4.250315947120962
 30
0.0
 10
2.543704166030725
 20
2.995372610362263
 30
0.0
 10
2.543704166030725
 20
2.995372610362263
 30
0.0
 10
2.543704166030725
 20
2.968293388146837
 30
0.0
 10
2.570091943801923
 20
2.941559888153478
 30
0.0
 10
2.615395666012822
 20
2.922474610380497
 30
0.0
 10
2.660526527112655
 20
2.903389332607517
 30
0.0
 10
2.724054749318995
 20
2.892262721499141
 30
0.0
 10
2.78792516596968
 20
2.892262721499141
 30
0.0
 10
2.851799110398148
 20
2.892262721499141
 30
0.0
 10
2.915327332604488
 20
2.903389332607517
 30
0.0
 10
2.960458193704322
 20
2.922474610380497
 30
0.0
 10
3.005589054804155
 20
2.941559888153478
 30
0.0
 10
3.031976832575354
 20
2.968293388146837
 30
0.0
 10
3.031976832575354
 20
2.995372610362263
 30
0.0
 10
3.031976832575354
 20
2.995372610362263
 30
0.0
 10
3.031976832575354
 20
4.172560199104676
 30
0.0
 10
3.031976832575354
 20
4.172560199104676
 30
0.0
  0
ENDBLK
  5
97
330
94
100
AcDbEntity
  8
0
100
AcDbBlockEnd
  0
BLOCK
  5
A2
330
A0
100
AcDbEntity
  8
0
100
AcDbBlockBegin
  2
block 14
 70
     0
 10
0.0
 20
0.0
 30
0.0
  3
block 14
  1

  0
INSERT
  5
A5
330
A0
100
AcDbEntity
  8
Layer 1
100
AcDbBlockReference
  2
block 15
 10
0.0
 20
0.0
 30
0.0
  0
INSERT
  5
AB
330
A0
100
AcDbEntity
  8
Layer 1
100
AcDbBlockReference
  2
block 16
 10
0.0
 20
0.0
 30
0.0
  0
ENDBLK
  5
A3
330
A0
100
AcDbEntity
  8
0
100
AcDbBlockEnd
  0
BLOCK
  5
A6
330
A4
100
AcDbEntity
  8
0
100
AcDbBlockBegin
  2
block 15
 70
     0
 10
0.0
 20
0.0
 30
0.0
  3
block 15
  1

  0
SPLINE
  5
A8
330
A4
100
AcDbEntity
  8
Layer 1
370
     0
100
AcDbSpline
210
0.0
220
0.0
230
1.0
 70
    11
 71
     3
 72
    26
 73
    22
 74
     0
 42
0.0000000001
 43
0.0000000001
 12
1.0
 22
0.0
 32
0.0
 13
1.0
 23
0.0
 33
0.0
 40
0.0
 40
0.0
 40
0.0
 40
0.0
 40
1.0
 40
1.0
 40
1.0
 40
2.0
 40
2.0
 40
2.0
 40
3.0
 40
3.0
 40
3.0
 40
4.0
 40
4.0
 40
4.0
 40
5.0
 40
5.0
 40
5.0
 40
6.0
 40
6.0
 40
6.0
 40
7.0
 40
7.0
 40
7.0
 40
7.0
 10
5.34310166533091
 20
5.116794720943012
 30
0.0
 10
5.34310166533091
 20
5.116794720943012
 30
0.0
 10
5.34310166533091
 20
3.861847651476058
 30
0.0
 10
5.34310166533091
 20
3.861847651476058
 30
0.0
 10
5.34310166533091
 20
3.834768429944684
 30
0.0
 10
5.369492835235047
 20
3.808034930626713
 30
0.0
 10
5.414793028523787
 20
3.788949653335841
 30
0.0
 10
5.459923888483514
 20
3.769864376044969
 30
0.0
 10
5.523452109084996
 20
3.758773042994599
 30
0.0
 10
5.587326051899881
 20
3.758773042994599
 30
0.0
 10
5.651196466937077
 20
3.758773042994599
 30
0.0
 10
5.71472468753856
 20
3.769864376044969
 30
0.0
 10
5.759855547498287
 20
3.788949653335841
 30
0.0
 10
5.804986407458014
 20
3.808034930626713
 30
0.0
 10
5.831374184562583
 20
3.834768429944684
 30
0.0
 10
5.831374184562583
 20
3.861847651476058
 30
0.0
 10
5.831374184562583
 20
3.861847651476058
 30
0.0
 10
5.831374184562583
 20
5.03903884366563
 30
0.0
 10
5.831374184562583
 20
5.03903884366563
 30
0.0
 10
5.831374184562583
 20
5.03903884366563
 30
0.0
 10
5.34310166533091
 20
5.116794720943012
 30
0.0
 10
5.34310166533091
 20
5.116794720943012
 30
0.0
  0
HATCH
  5
A9
330
A4
100
AcDbEntity
  8
Layer 1
 62
    40
420
 16768256
100
AcDbHatch
 10
0.0
 20
0.0
 30
0.0
210
0.0
220
0.0
230
1.0
  2
SOLID
 70
     1
 71
     0
 91
        1
 92
        1
 93
        1
 72
     4
 94
        3
 73
     0
 74
     1
 95
       26
 96
       22
 40
0.0
 40
0.0
 40
0.0
 40
0.0
 40
1.0
 40
1.0
 40
1.0
 40
2.0
 40
2.0
 40
2.0
 40
3.0
 40
3.0
 40
3.0
 40
4.0
 40
4.0
 40
4.0
 40
5.0
 40
5.0
 40
5.0
 40
6.0
 40
6.0
 40
6.0
 40
7.0
 40
7.0
 40
7.0
 40
7.0
 10
5.34310166533091
 20
5.116794720943012
 10
5.34310166533091
 20
5.116794720943012
 10
5.34310166533091
 20
3.861847651476058
 10
5.34310166533091
 20
3.861847651476058
 10
5.34310166533091
 20
3.834768429944684
 10
5.369492835235047
 20
3.808034930626713
 10
5.414793028523787
 20
3.788949653335841
 10
5.459923888483514
 20
3.769864376044969
 10
5.523452109084996
 20
3.758773042994599
 10
5.587326051899881
 20
3.758773042994599
 10
5.651196466937077
 20
3.758773042994599
 10
5.71472468753856
 20
3.769864376044969
 10
5.759855547498287
 20
3.788949653335841
 10
5.804986407458014
 20
3.808034930626713
 10
5.831374184562583
 20
3.834768429944684
 10
5.831374184562583
 20
3.861847651476058
 10
5.831374184562583
 20
3.861847651476058
 10
5.831374184562583
 20
5.03903884366563
 10
5.831374184562583
 20
5.03903884366563
 10
5.831374184562583
 20
5.03903884366563
 10
5.34310166533091
 20
5.116794720943012
 10
5.34310166533091
 20
5.116794720943012
 97
        0
 97
        0
 75
     2
 76
     1
 98
        0
  0
ENDBLK
  5
A7
330
A4
100
AcDbEntity
  8
0
100
AcDbBlockEnd
  0
BLOCK
  5
AC
330
AA
100
AcDbEntity
  8
0
100
AcDbBlockBegin
  2
block 16
 70
     0
 10
0.0
 20
0.0
 30
0.0
  3
block 16
  1

  0
SPLINE
  5
AE
330
AA
100
AcDbEntity
  8
Layer 1
 62
     7
420
 16777215
370
     9
100
AcDbSpline
210
0.0
220
0.0
230
1.0
 70
     8
 71
     3
 72
    17
 73
    13
 74
     0
 42
0.0000000001
 43
0.0000000001
 12
1.0
 22
0.0
 32
0.0
 13
1.0
 23
0.0
 33
0.0
 40
0.0
 40
0.0
 40
0.0
 40
0.0
 40
1.0
 40
1.0
 40
1.0
 40
2.0
 40
2.0
 40
2.0
 40
3.0
 40
3.0
 40
3.0
 40
4.0
 40
4.0
 40
4.0
 40
4.0
 10
5.34310166533091
 20
4.872743054337369
 30
0.0
 10
5.34310166533091
 20
4.845663709710152
 30
0.0
 10
5.369492835235047
 20
4.818930210392181
 30
0.0
 10
5.414793028523787
 20
4.799844933101309
 30
0.0
 10
5.459923888483514
 20
4.780759655810437
 30
0.0
 10
5.523452109084996
 20
4.769629517205502
 30
0.0
 10
5.587326051899881
 20
4.769629517205502
 30
0.0
 10
5.651196466937077
 20
4.769629517205502
 30
0.0
 10
5.71472468753856
 20
4.780759655810437
 30
0.0
 10
5.759855547498287
 20
4.799844933101309
 30
0.0
 10
5.804986407458014
 20
4.818930210392181
 30
0.0
 10
5.831374184562583
 20
4.845663709710152
 30
0.0
 10
5.831374184562583
 20
4.872743054337369
 30
0.0
  0
SPLINE
  5
AF
330
AA
100
AcDbEntity
  8
Layer 1
 62
     7
420
 16777215
370
     9
100
AcDbSpline
210
0.0
220
0.0
230
1.0
 70
     8
 71
     3
 72
    17
 73
    13
 74
     0
 42
0.0000000001
 43
0.0000000001
 12
1.0
 22
0.0
 32
0.0
 13
1.0
 23
0.0
 33
0.0
 40
0.0
 40
0.0
 40
0.0
 40
0.0
 40
1.0
 40
1.0
 40
1.0
 40
2.0
 40
2.0
 40
2.0
 40
3.0
 40
3.0
 40
3.0
 40
4.0
 40
4.0
 40
4.0
 40
4.0
 10
5.34310166533091
 20
4.728326296037013
 30
0.0
 10
5.34310166533091
 20
4.701247074505639
 30
0.0
 10
5.369492835235047
 20
4.674513575187667
 30
0.0
 10
5.414793028523787
 20
4.655424770119108
 30
0.0
 10
5.459923888483514
 20
4.636339492828236
 30
0.0
 10
5.523452109084996
 20
4.625248159777866
 30
0.0
 10
5.587326051899881
 20
4.625248159777866
 30
0.0
 10
5.651196466937077
 20
4.625248159777866
 30
0.0
 10
5.71472468753856
 20
4.636339492828236
 30
0.0
 10
5.759855547498287
 20
4.655424770119108
 30
0.0
 10
5.804986407458014
 20
4.674513575187667
 30
0.0
 10
5.831374184562583
 20
4.701247074505639
 30
0.0
 10
5.831374184562583
 20
4.728326296037013
 30
0.0
  0
SPLINE
  5
B0
330
AA
100
AcDbEntity
  8
Layer 1
 62
     7
420
 16777215
370
     9
100
AcDbSpline
210
0.0
220
0.0
230
1.0
 70
     8
 71
     3
 72
    17
 73
    13
 74
     0
 42
0.0000000001
 43
0.0000000001
 12
1.0
 22
0.0
 32
0.0
 13
1.0
 23
0.0
 33
0.0
 40
0.0
 40
0.0
 40
0.0
 40
0.0
 40
1.0
 40
1.0
 40
1.0
 40
2.0
 40
2.0
 40
2.0
 40
3.0
 40
3.0
 40
3.0
 40
4.0
 40
4.0
 40
4.0
 40
4.0
 10
5.34310166533091
 20
4.583906133054811
 30
0.0
 10
5.34310166533091
 20
4.556826911523437
 30
0.0
 10
5.369492835235047
 20
4.530128689982344
 30
0.0
 10
5.414793028523787
 20
4.511008134914595
 30
0.0
 10
5.459923888483514
 20
4.491922857623722
 30
0.0
 10
5.523452109084996
 20
4.480827996795664
 30
0.0
 10
5.587326051899881
 20
4.480827996795664
 30
0.0
 10
5.651196466937077
 20
4.480827996795664
 30
0.0
 10
5.71472468753856
 20
4.491922857623722
 30
0.0
 10
5.759855547498287
 20
4.511008134914595
 30
0.0
 10
5.804986407458014
 20
4.530128689982344
 30
0.0
 10
5.831374184562583
 20
4.556826911523437
 30
0.0
 10
5.831374184562583
 20
4.583906133054811
 30
0.0
  0
SPLINE
  5
B1
330
AA
100
AcDbEntity
  8
Layer 1
 62
     7
420
 16777215
370
     9
100
AcDbSpline
210
0.0
220
0.0
230
1.0
 70
     8
 71
     3
 72
    17
 73
    13
 74
     0
 42
0.0000000001
 43
0.0000000001
 12
1.0
 22
0.0
 32
0.0
 13
1.0
 23
0.0
 33
0.0
 40
0.0
 40
0.0
 40
0.0
 40
0.0
 40
1.0
 40
1.0
 40
1.0
 40
2.0
 40
2.0
 40
2.0
 40
3.0
 40
3.0
 40
3.0
 40
4.0
 40
4.0
 40
4.0
 40
4.0
 10
5.34310166533091
 20
4.439521247849488
 30
0.0
 10
5.34310166533091
 20
4.412442026318114
 30
0.0
 10
5.369492835235047
 20
4.385708527000142
 30
0.0
 10
5.414793028523787
 20
4.366623249709271
 30
0.0
 10
5.459923888483514
 20
4.347502694641521
 30
0.0
 10
5.523452109084996
 20
4.336411361591151
 30
0.0
 10
5.587326051899881
 20
4.336411361591151
 30
0.0
 10
5.651196466937077
 20
4.336411361591151
 30
0.0
 10
5.71472468753856
 20
4.347502694641521
 30
0.0
 10
5.759855547498287
 20
4.366623249709271
 30
0.0
 10
5.804986407458014
 20
4.385708527000142
 30
0.0
 10
5.831374184562583
 20
4.412442026318114
 30
0.0
 10
5.831374184562583
 20
4.439521247849488
 30
0.0
  0
SPLINE
  5
B2
330
AA
100
AcDbEntity
  8
Layer 1
 62
     7
420
 16777215
370
     9
100
AcDbSpline
210
0.0
220
0.0
230
1.0
 70
     8
 71
     3
 72
    17
 73
    13
 74
     0
 42
0.0000000001
 43
0.0000000001
 12
1.0
 22
0.0
 32
0.0
 13
1.0
 23
0.0
 33
0.0
 40
0.0
 40
0.0
 40
0.0
 40
0.0
 40
1.0
 40
1.0
 40
1.0
 40
2.0
 40
2.0
 40
2.0
 40
3.0
 40
3.0
 40
3.0
 40
4.0
 40
4.0
 40
4.0
 40
4.0
 10
5.34310166533091
 20
4.295104721148453
 30
0.0
 10
5.34310166533091
 20
4.268025391113601
 30
0.0
 10
5.369492835235047
 20
4.241291891795629
 30
0.0
 10
5.414793028523787
 20
4.222206614504757
 30
0.0
 10
5.459923888483514
 20
4.203086059437007
 30
0.0
 10
5.523452109084996
 20
4.19199119860895
 30
0.0
 10
5.587326051899881
 20
4.19199119860895
 30
0.0
 10
5.651196466937077
 20
4.19199119860895
 30
0.0
 10
5.71472468753856
 20
4.203086059437007
 30
0.0
 10
5.759855547498287
 20
4.222206614504757
 30
0.0
 10
5.804986407458014
 20
4.241291891795629
 30
0.0
 10
5.831374184562583
 20
4.268025391113601
 30
0.0
 10
5.831374184562583
 20
4.295104721148453
 30
0.0
  0
SPLINE
  5
B3
330
AA
100
AcDbEntity
  8
Layer 1
 62
     7
420
 16777215
370
     9
100
AcDbSpline
210
0.0
220
0.0
230
1.0
 70
     8
 71
     3
 72
    17
 73
    13
 74
     0
 42
0.0000000001
 43
0.0000000001
 12
1.0
 22
0.0
 32
0.0
 13
1.0
 23
0.0
 33
0.0
 40
0.0
 40
0.0
 40
0.0
 40
0.0
 40
1.0
 40
1.0
 40
1.0
 40
2.0
 40
2.0
 40
2.0
 40
3.0
 40
3.0
 40
3.0
 40
4.0
 40
4.0
 40
4.0
 40
4.0
 10
5.34310166533091
 20
4.150684449662773
 30
0.0
 10
5.34310166533091
 20
4.123605228131399
 30
0.0
 10
5.369492835235047
 20
4.096871728813428
 30
0.0
 10
5.414793028523787
 20
4.077786451522556
 30
0.0
 10
5.459923888483514
 20
4.058701174231683
 30
0.0
 10
5.523452109084996
 20
4.047574563404436
 30
0.0
 10
5.587326051899881
 20
4.047574563404436
 30
0.0
 10
5.651196466937077
 20
4.047574563404436
 30
0.0
 10
5.71472468753856
 20
4.058701174231683
 30
0.0
 10
5.759855547498287
 20
4.077786451522556
 30
0.0
 10
5.804986407458014
 20
4.096871728813428
 30
0.0
 10
5.831374184562583
 20
4.123605228131399
 30
0.0
 10
5.831374184562583
 20
4.150684449662773
 30
0.0
  0
SPLINE
  5
B4
330
AA
100
AcDbEntity
  8
Layer 1
 62
     7
420
 16777215
370
     9
100
AcDbSpline
210
0.0
220
0.0
230
1.0
 70
     8
 71
     3
 72
    17
 73
    13
 74
     0
 42
0.0000000001
 43
0.0000000001
 12
1.0
 22
0.0
 32
0.0
 13
1.0
 23
0.0
 33
0.0
 40
0.0
 40
0.0
 40
0.0
 40
0.0
 40
1.0
 40
1.0
 40
1.0
 40
2.0
 40
2.0
 40
2.0
 40
3.0
 40
3.0
 40
3.0
 40
4.0
 40
4.0
 40
4.0
 40
4.0
 10
5.34310166533091
 20
4.006267814458259
 30
0.0
 10
5.34310166533091
 20
3.979188592926886
 30
0.0
 10
5.369492835235047
 20
3.952455093608914
 30
0.0
 10
5.414793028523787
 20
3.933369816318042
 30
0.0
 10
5.459923888483514
 20
3.91428453902717
 30
0.0
 10
5.523452109084996
 20
3.903154400422235
 30
0.0
 10
5.587326051899881
 20
3.903154400422235
 30
0.0
 10
5.651196466937077
 20
3.903154400422235
 30
0.0
 10
5.71472468753856
 20
3.91428453902717
 30
0.0
 10
5.759855547498287
 20
3.933369816318042
 30
0.0
 10
5.804986407458014
 20
3.952455093608914
 30
0.0
 10
5.831374184562583
 20
3.979188592926886
 30
0.0
 10
5.831374184562583
 20
4.006267814458259
 30
0.0
  0
SPLINE
  5
B5
330
AA
100
AcDbEntity
  8
Layer 1
 62
     7
420
 16777215
370
    20
100
AcDbSpline
210
0.0
220
0.0
230
1.0
 70
     8
 71
     3
 72
    23
 73
    19
 74
     0
 42
0.0000000001
 43
0.0000000001
 12
1.0
 22
0.0
 32
0.0
 13
1.0
 23
0.0
 33
0.0
 40
0.0
 40
0.0
 40
0.0
 40
0.0
 40
1.0
 40
1.0
 40
1.0
 40
2.0
 40
2.0
 40
2.0
 40
3.0
 40
3.0
 40
3.0
 40
4.0
 40
4.0
 40
4.0
 40
5.0
 40
5.0
 40
5.0
 40
6.0
 40
6.0
 40
6.0
 40
6.0
 10
5.34310166533091
 20
5.116794720943012
 30
0.0
 10
5.34310166533091
 20
5.116794720943012
 30
0.0
 10
5.34310166533091
 20
3.861847651476058
 30
0.0
 10
5.34310166533091
 20
3.861847651476058
 30
0.0
 10
5.34310166533091
 20
3.834768429944684
 30
0.0
 10
5.369492835235047
 20
3.808034930626713
 30
0.0
 10
5.414793028523787
 20
3.788949653335841
 30
0.0
 10
5.459923888483514
 20
3.769864376044969
 30
0.0
 10
5.523452109084996
 20
3.758773042994599
 30
0.0
 10
5.587326051899881
 20
3.758773042994599
 30
0.0
 10
5.651196466937077
 20
3.758773042994599
 30
0.0
 10
5.71472468753856
 20
3.769864376044969
 30
0.0
 10
5.759855547498287
 20
3.788949653335841
 30
0.0
 10
5.804986407458014
 20
3.808034930626713
 30
0.0
 10
5.831374184562583
 20
3.834768429944684
 30
0.0
 10
5.831374184562583
 20
3.861847651476058
 30
0.0
 10
5.831374184562583
 20
3.861847651476058
 30
0.0
 10
5.831374184562583
 20
5.03903884366563
 30
0.0
 10
5.831374184562583
 20
5.03903884366563
 30
0.0
  0
ENDBLK
  5
AD
330
AA
100
AcDbEntity
  8
0
100
AcDbBlockEnd
  0
BLOCK
  5
B8
330
B6
100
AcDbEntity
  8
0
100
AcDbBlockBegin
  2
block 17
 70
     0
 10
0.0
 20
0.0
 30
0.0
  3
block 17
  1

  0
INSERT
  5
BB
330
B6
100
AcDbEntity
  8
Layer 1
100
AcDbBlockReference
  2
block 18
 10
0.0
 20
0.0
 30
0.0
  0
INSERT
  5
12D
330
B6
100
AcDbEntity
  8
Layer 1
100
AcDbBlockReference
  2
block 34
 10
0.0
 20
0.0
 30
0.0
  0
ENDBLK
  5
B9
330
B6
100
AcDbEntity
  8
0
100
AcDbBlockEnd
  0
BLOCK
  5
BC
330
BA
100
AcDbEntity
  8
0
100
AcDbBlockBegin
  2
block 18
 70
     0
 10
0.0
 20
0.0
 30
0.0
  3
block 18
  1

  0
INSERT
  5
BF
330
BA
100
AcDbEntity
  8
Layer 1
100
AcDbBlockReference
  2
block 19
 10
0.0
 20
0.0
 30
0.0
  0
INSERT
  5
C9
330
BA
100
AcDbEntity
  8
Layer 1
100
AcDbBlockReference
  2
block 21
 10
0.0
 20
0.0
 30
0.0
  0
INSERT
  5
E5
330
BA
100
AcDbEntity
  8
Layer 1
100
AcDbBlockReference
  2
block 23
 10
0.0
 20
0.0
 30
0.0
  0
INSERT
  5
F1
330
BA
100
AcDbEntity
  8
Layer 1
100
AcDbBlockReference
  2
block 25
 10
0.0
 20
0.0
 30
0.0
  0
INSERT
  5
FD
330
BA
100
AcDbEntity
  8
Layer 1
100
AcDbBlockReference
  2
block 27
 10
0.0
 20
0.0
 30
0.0
  0
INSERT
  5
109
330
BA
100
AcDbEntity
  8
Layer 1
100
AcDbBlockReference
  2
block 29
 10
0.0
 20
0.0
 30
0.0
  0
ENDBLK
  5
BD
330
BA
100
AcDbEntity
  8
0
100
AcDbBlockEnd
  0
BLOCK
  5
C0
330
BE
100
AcDbEntity
  8
0
100
AcDbBlockBegin
  2
block 19
 70
     0
 10
0.0
 20
0.0
 30
0.0
  3
block 19
  1

  0
INSERT
  5
C3
330
BE
100
AcDbEntity
  8
Layer 1
100
AcDbBlockReference
  2
block 20
 10
0.0
 20
0.0
 30
0.0
  0
ENDBLK
  5
C1
330
BE
100
AcDbEntity
  8
0
100
AcDbBlockEnd
  0
BLOCK
  5
C4
330
C2
100
AcDbEntity
  8
0
100
AcDbBlockBegin
  2
block 20
 70
     0
 10
0.0
 20
0.0
 30
0.0
  3
block 20
  1

  0
SPLINE
  5
C6
330
C2
100
AcDbEntity
  8
Layer 1
370
     0
100
AcDbSpline
210
0.0
220
0.0
230
1.0
 70
    11
 71
     3
 72
    35
 73
    31
 74
     0
 42
0.0000000001
 43
0.0000000001
 12
1.0
 22
0.0
 32
0.0
 13
1.0
 23
0.0
 33
0.0
 40
0.0
 40
0.0
 40
0.0
 40
0.0
 40
1.0
 40
1.0
 40
1.0
 40
2.0
 40
2.0
 40
2.0
 40
3.0
 40
3.0
 40
3.0
 40
4.0
 40
4.0
 40
4.0
 40
5.0
 40
5.0
 40
5.0
 40
6.0
 40
6.0
 40
6.0
 40
7.0
 40
7.0
 40
7.0
 40
8.0
 40
8.0
 40
8.0
 40
9.0
 40
9.0
 40
9.0
 40
10.0
 40
10.0
 40
10.0
 40
10.0
 10
4.059526674210623
 20
8.856168608897073
 30
0.0
 10
4.059526674210623
 20
8.856168608897073
 30
0.0
 10
4.059526674210623
 20
9.110450831055713
 30
0.0
 10
4.059526674210623
 20
9.110450831055713
 30
0.0
 10
4.059526674210623
 20
9.15610027548874
 30
0.0
 10
4.015087258677701
 20
9.201400237474944
 30
0.0
 10
3.938724982848087
 20
9.233682931095789
 30
0.0
 10
3.862348595907722
 20
9.265979735827385
 30
0.0
 10
3.755086515310873
 20
9.284723053234385
 30
0.0
 10
3.646942490292079
 20
9.284723053234385
 30
0.0
 10
3.538974854157674
 20
9.284549957575841
 30
0.0
 10
3.431712860253177
 20
9.265806874720683
 30
0.0
 10
3.3553329436056
 20
9.233510069989087
 30
0.0
 10
3.278974193624694
 20
9.20123090414593
 30
0.0
 10
3.234531249191367
 20
9.155754321972802
 30
0.0
 10
3.234531249191367
 20
9.110277739799672
 30
0.0
 10
3.234531249191367
 20
9.110277739799672
 30
0.0
 10
3.234531249191367
 20
8.855826190735717
 30
0.0
 10
3.234531249191367
 20
8.855826190735717
 30
0.0
 10
3.234531249191367
 20
8.810176747455888
 30
0.0
 10
3.279143526958007
 20
8.76487302638946
 30
0.0
 10
3.3553329436056
 20
8.732576221657864
 30
0.0
 10
3.431882193586458
 20
8.70046638914372
 30
0.0
 10
3.539147715264375
 20
8.68172683406625
 30
0.0
 10
3.64711535139878
 20
8.68172683406625
 30
0.0
 10
3.755086515310873
 20
8.68172683406625
 30
0.0
 10
3.862521457014423
 20
8.700639250250422
 30
0.0
 10
3.938724982848087
 20
8.732939582759704
 30
0.0
 10
4.015087258677701
 20
8.76521874860286
 30
0.0
 10
4.059526674210623
 20
8.810522469669289
 30
0.0
 10
4.059526674210623
 20
8.856168608897073
 30
0.0
  0
HATCH
  5
C7
330
C2
100
AcDbEntity
  8
Layer 1
 62
    40
420
 16768256
100
AcDbHatch
 10
0.0
 20
0.0
 30
0.0
210
0.0
220
0.0
230
1.0
  2
SOLID
 70
     1
 71
     0
 91
        1
 92
        1
 93
        1
 72
     4
 94
        3
 73
     0
 74
     1
 95
       35
 96
       31
 40
0.0
 40
0.0
 40
0.0
 40
0.0
 40
1.0
 40
1.0
 40
1.0
 40
2.0
 40
2.0
 40
2.0
 40
3.0
 40
3.0
 40
3.0
 40
4.0
 40
4.0
 40
4.0
 40
5.0
 40
5.0
 40
5.0
 40
6.0
 40
6.0
 40
6.0
 40
7.0
 40
7.0
 40
7.0
 40
8.0
 40
8.0
 40
8.0
 40
9.0
 40
9.0
 40
9.0
 40
10.0
 40
10.0
 40
10.0
 40
10.0
 10
4.059526674210623
 20
8.856168608897073
 10
4.059526674210623
 20
8.856168608897073
 10
4.059526674210623
 20
9.110450831055713
 10
4.059526674210623
 20
9.110450831055713
 10
4.059526674210623
 20
9.15610027548874
 10
4.015087258677701
 20
9.201400237474944
 10
3.938724982848087
 20
9.233682931095789
 10
3.862348595907722
 20
9.265979735827385
 10
3.755086515310873
 20
9.284723053234385
 10
3.646942490292079
 20
9.284723053234385
 10
3.538974854157674
 20
9.284549957575841
 10
3.431712860253177
 20
9.265806874720683
 10
3.3553329436056
 20
9.233510069989087
 10
3.278974193624694
 20
9.20123090414593
 10
3.234531249191367
 20
9.155754321972802
 10
3.234531249191367
 20
9.110277739799672
 10
3.234531249191367
 20
9.110277739799672
 10
3.234531249191367
 20
8.855826190735717
 10
3.234531249191367
 20
8.855826190735717
 10
3.234531249191367
 20
8.810176747455888
 10
3.279143526958007
 20
8.76487302638946
 10
3.3553329436056
 20
8.732576221657864
 10
3.431882193586458
 20
8.70046638914372
 10
3.539147715264375
 20
8.68172683406625
 10
3.64711535139878
 20
8.68172683406625
 10
3.755086515310873
 20
8.68172683406625
 10
3.862521457014423
 20
8.700639250250422
 10
3.938724982848087
 20
8.732939582759704
 10
4.015087258677701
 20
8.76521874860286
 10
4.059526674210623
 20
8.810522469669289
 10
4.059526674210623
 20
8.856168608897073
 97
        0
 97
        0
 75
     2
 76
     1
 98
        0
  0
ENDBLK
  5
C5
330
C2
100
AcDbEntity
  8
0
100
AcDbBlockEnd
  0
BLOCK
  5
CA
330
C8
100
AcDbEntity
  8
0
100
AcDbBlockBegin
  2
block 21
 70
     0
 10
0.0
 20
0.0
 30
0.0
  3
block 21
  1

  0
INSERT
  5
CD
330
C8
100
AcDbEntity
  8
Layer 1
100
AcDbBlockReference
  2
block 22
 10
0.0
 20
0.0
 30
0.0
  0
ENDBLK
  5
CB
330
C8
100
AcDbEntity
  8
0
100
AcDbBlockEnd
  0
BLOCK
  5
CE
330
CC
100
AcDbEntity
  8
0
100
AcDbBlockBegin
  2
block 22
 70
     0
 10
0.0
 20
0.0
 30
0.0
  3
block 22
  1

  0
POLYLINE
  5
D0
330
CC
100
AcDbEntity
  8
Layer 1
370
     0
100
AcDb2dPolyline
 66
     1
 10
0.0
 20
0.0
 30
0.0
  0
VERTEX
  5
D1
330
D0
100
AcDbEntity
  8
Layer 1
370
     0
100
AcDbVertex
100
AcDb2dVertex
 10
2.65896019377969
 20
3.713261183044592
 30
0.0
  0
VERTEX
  5
D2
330
D0
100
AcDbEntity
  8
Layer 1
370
     0
100
AcDbVertex
100
AcDb2dVertex
 10
2.65896019377969
 20
6.767477220530378
 30
0.0
  0
VERTEX
  5
D3
330
D0
100
AcDbEntity
  8
Layer 1
370
     0
100
AcDbVertex
100
AcDb2dVertex
 10
1.937589610626699
 20
7.183952372277661
 30
0.0
  0
VERTEX
  5
D4
330
D0
100
AcDbEntity
  8
Layer 1
370
     0
100
AcDbVertex
100
AcDb2dVertex
 10
1.937589610626699
 20
7.774632884985923
 30
0.0
  0
VERTEX
  5
D5
330
D0
100
AcDbEntity
  8
Layer 1
370
     0
100
AcDbVertex
100
AcDb2dVertex
 10
0.9395459997651245
 20
8.350895370284242
 30
0.0
  0
VERTEX
  5
D6
330
D0
100
AcDbEntity
  8
Layer 1
370
     0
100
AcDbVertex
100
AcDb2dVertex
 10
0.9282641664346042
 20
7.769602274003153
 30
0.0
  0
VERTEX
  5
D7
330
D0
100
AcDbEntity
  8
Layer 1
370
     0
100
AcDbVertex
100
AcDb2dVertex
 10
0.2065506832816981
 20
8.18635629114865
 30
0.0
  0
VERTEX
  5
D8
330
D0
100
AcDbEntity
  8
Layer 1
370
     0
100
AcDbVertex
100
AcDb2dVertex
 10
0.1261766166351126
 20
8.27730592771722
 30
0.0
  0
VERTEX
  5
D9
330
D0
100
AcDbEntity
  8
Layer 1
370
     0
100
AcDbVertex
100
AcDb2dVertex
 10
0.1150662333045817
 20
5.033489649362758
 30
0.0
  0
VERTEX
  5
DA
330
D0
100
AcDbEntity
  8
Layer 1
370
     0
100
AcDbVertex
100
AcDb2dVertex
 10
2.65896019377969
 20
3.578249603155691
 30
0.0
  0
VERTEX
  5
DB
330
D0
100
AcDbEntity
  8
Layer 1
370
     0
100
AcDbVertex
100
AcDb2dVertex
 10
2.65896019377969
 20
3.713261183044592
 30
0.0
  0
SEQEND
  5
DD
330
D0
100
AcDbEntity
  8
Layer 1
370
     0
  0
HATCH
  5
DC
330
CC
100
AcDbEntity
  8
Layer 1
 62
     8
420
  7303022
100
AcDbHatch
 10
0.0
 20
0.0
 30
0.0
210
0.0
220
0.0
230
1.0
  2
SOLID
 70
     1
 71
     0
 91
        1
 92
        1
 93
       10
 72
     1
 10
2.65896019377969
 20
3.713261183044592
 11
2.65896019377969
 21
6.767477220530378
 72
     1
 10
2.65896019377969
 20
6.767477220530378
 11
1.937589610626699
 21
7.183952372277661
 72
     1
 10
1.937589610626699
 20
7.183952372277661
 11
1.937589610626699
 21
7.774632884985923
 72
     1
 10
1.937589610626699
 20
7.774632884985923
 11
0.9395459997651245
 21
8.350895370284242
 72
     1
 10
0.9395459997651245
 20
8.350895370284242
 11
0.9282641664346042
 21
7.769602274003153
 72
     1
 10
0.9282641664346042
 20
7.769602274003153
 11
0.206550683281698
 21
8.18635629114865
 72
     1
 10
0.2065506832816981
 20
8.18635629114865
 11
0.1261766166351126
 21
8.27730592771722
 72
     1
 10
0.1261766166351126
 20
8.27730592771722
 11
0.1150662333045817
 21
5.033489649362758
 72
     1
 10
0.1150662333045817
 20
5.033489649362758
 11
2.65896019377969
 21
3.578249603155691
 72
     1
 10
2.65896019377969
 20
3.578249603155691
 11
2.65896019377969
 21
3.713261183044592
 97
        0
 75
     2
 76
     1
 98
        0
  0
SPLINE
  5
DE
330
CC
100
AcDbEntity
  8
Layer 1
370
     0
100
AcDbSpline
210
0.0
220
0.0
230
1.0
 70
    11
 71
     3
 72
    23
 73
    19
 74
     0
 42
0.0000000001
 43
0.0000000001
 12
1.0
 22
0.0
 32
0.0
 13
1.0
 23
0.0
 33
0.0
 40
0.0
 40
0.0
 40
0.0
 40
0.0
 40
1.0
 40
1.0
 40
1.0
 40
2.0
 40
2.0
 40
2.0
 40
3.0
 40
3.0
 40
3.0
 40
4.0
 40
4.0
 40
4.0
 40
5.0
 40
5.0
 40
5.0
 40
6.0
 40
6.0
 40
6.0
 40
6.0
 10
1.241389721911885
 20
9.088229129251069
 30
0.0
 10
1.241389721911885
 20
9.088229129251069
 30
0.0
 10
1.508177916289633
 20
8.93426985540112
 30
0.0
 10
1.508177916289633
 20
8.93426985540112
 30
0.0
 10
1.64303427736702
 20
8.856341246278133
 30
0.0
 10
1.699277638464061
 20
8.782755553359868
 30
0.0
 10
1.697880638464408
 20
8.716263777629583
 30
0.0
 10
1.695453527353904
 20
8.605350447125886
 30
0.0
 10
1.533341555172211
 20
8.513882227237213
 30
0.0
 10
1.309945027450299
 20
8.45417833121978
 30
0.0
 10
1.309945027450299
 20
8.45417833121978
 30
0.0
 10
1.125960833051856
 20
8.577237586731993
 30
0.0
 10
1.125960833051856
 20
8.577237586731993
 30
0.0
 10
1.125960833051856
 20
8.577237586731993
 30
0.0
 10
1.13706980527128
 20
9.110450831055713
 30
0.0
 10
1.13706980527128
 20
9.110450831055713
 30
0.0
 10
1.13706980527128
 20
9.110450831055713
 30
0.0
 10
1.241389721911885
 20
9.088229129251069
 30
0.0
 10
1.241389721911885
 20
9.088229129251069
 30
0.0
  0
HATCH
  5
DF
330
CC
100
AcDbEntity
  8
Layer 1
 62
     8
420
  7303022
100
AcDbHatch
 10
0.0
 20
0.0
 30
0.0
210
0.0
220
0.0
230
1.0
  2
SOLID
 70
     1
 71
     0
 91
        1
 92
        1
 93
        1
 72
     4
 94
        3
 73
     0
 74
     1
 95
       23
 96
       19
 40
0.0
 40
0.0
 40
0.0
 40
0.0
 40
1.0
 40
1.0
 40
1.0
 40
2.0
 40
2.0
 40
2.0
 40
3.0
 40
3.0
 40
3.0
 40
4.0
 40
4.0
 40
4.0
 40
5.0
 40
5.0
 40
5.0
 40
6.0
 40
6.0
 40
6.0
 40
6.0
 10
1.241389721911885
 20
9.088229129251069
 10
1.241389721911885
 20
9.088229129251069
 10
1.508177916289633
 20
8.93426985540112
 10
1.508177916289633
 20
8.93426985540112
 10
1.64303427736702
 20
8.856341246278133
 10
1.699277638464061
 20
8.782755553359868
 10
1.697880638464408
 20
8.716263777629583
 10
1.695453527353904
 20
8.605350447125886
 10
1.533341555172211
 20
8.513882227237213
 10
1.309945027450299
 20
8.45417833121978
 10
1.309945027450299
 20
8.45417833121978
 10
1.125960833051856
 20
8.577237586731993
 10
1.125960833051856
 20
8.577237586731993
 10
1.125960833051856
 20
8.577237586731993
 10
1.13706980527128
 20
9.110450831055713
 10
1.13706980527128
 20
9.110450831055713
 10
1.13706980527128
 20
9.110450831055713
 10
1.241389721911885
 20
9.088229129251069
 10
1.241389721911885
 20
9.088229129251069
 97
        0
 97
        0
 75
     2
 76
     1
 98
        0
  0
SPLINE
  5
E0
330
CC
100
AcDbEntity
  8
Layer 1
370
     0
100
AcDbSpline
210
0.0
220
0.0
230
1.0
 70
    11
 71
     3
 72
    26
 73
    22
 74
     0
 42
0.0000000001
 43
0.0000000001
 12
1.0
 22
0.0
 32
0.0
 13
1.0
 23
0.0
 33
0.0
 40
0.0
 40
0.0
 40
0.0
 40
0.0
 40
1.0
 40
1.0
 40
1.0
 40
2.0
 40
2.0
 40
2.0
 40
3.0
 40
3.0
 40
3.0
 40
4.0
 40
4.0
 40
4.0
 40
5.0
 40
5.0
 40
5.0
 40
6.0
 40
6.0
 40
6.0
 40
7.0
 40
7.0
 40
7.0
 40
7.0
 10
3.243385971411383
 20
7.303723952555367
 30
0.0
 10
3.318023165837146
 20
7.280641703144243
 30
0.0
 10
3.381551388043485
 20
7.25235598164365
 30
0.0
 10
3.433967110252617
 20
7.22197123241883
 30
0.0
 10
3.433967110252617
 20
7.22197123241883
 30
0.0
 10
3.707165276850987
 20
7.064374998233906
 30
0.0
 10
3.707165276850987
 20
7.064374998233906
 30
0.0
 10
3.707165276850987
 20
7.064374998233906
 30
0.0
 10
3.677485989512849
 20
7.652091999223313
 30
0.0
 10
3.677485989512849
 20
7.652091999223313
 30
0.0
 10
3.677485989512849
 20
7.652091999223313
 30
0.0
 10
3.348220943607398
 20
7.842158077707657
 30
0.0
 10
3.348220943607398
 20
7.842158077707657
 30
0.0
 10
3.213879638085421
 20
7.919740964617241
 30
0.0
 10
3.033183332575022
 20
7.95498346371813
 30
0.0
 10
2.836707277068606
 20
7.954450769287275
 30
0.0
 10
2.836707277068606
 20
7.954450769287275
 30
0.0
 10
2.836707277068606
 20
7.277523331513965
 30
0.0
 10
2.836707277068606
 20
7.277523331513965
 30
0.0
 10
2.836707277068606
 20
7.277523331513965
 30
0.0
 10
3.243385971411383
 20
7.303723952555367
 30
0.0
 10
3.243385971411383
 20
7.303723952555367
 30
0.0
  0
HATCH
  5
E1
330
CC
100
AcDbEntity
  8
Layer 1
 62
     8
420
  7303022
100
AcDbHatch
 10
0.0
 20
0.0
 30
0.0
210
0.0
220
0.0
230
1.0
  2
SOLID
 70
     1
 71
     0
 91
        1
 92
        1
 93
        1
 72
     4
 94
        3
 73
     0
 74
     1
 95
       26
 96
       22
 40
0.0
 40
0.0
 40
0.0
 40
0.0
 40
1.0
 40
1.0
 40
1.0
 40
2.0
 40
2.0
 40
2.0
 40
3.0
 40
3.0
 40
3.0
 40
4.0
 40
4.0
 40
4.0
 40
5.0
 40
5.0
 40
5.0
 40
6.0
 40
6.0
 40
6.0
 40
7.0
 40
7.0
 40
7.0
 40
7.0
 10
3.243385971411383
 20
7.303723952555367
 10
3.318023165837146
 20
7.280641703144243
 10
3.381551388043485
 20
7.25235598164365
 10
3.433967110252617
 20
7.22197123241883
 10
3.433967110252617
 20
7.22197123241883
 10
3.707165276850987
 20
7.064374998233906
 10
3.707165276850987
 20
7.064374998233906
 10
3.707165276850987
 20
7.064374998233906
 10
3.677485989512849
 20
7.652091999223313
 10
3.677485989512849
 20
7.652091999223313
 10
3.677485989512849
 20
7.652091999223313
 10
3.348220943607398
 20
7.842158077707657
 10
3.348220943607398
 20
7.842158077707657
 10
3.213879638085421
 20
7.919740964617241
 10
3.033183332575022
 20
7.95498346371813
 10
2.836707277068606
 20
7.954450769287275
 10
2.836707277068606
 20
7.954450769287275
 10
2.836707277068606
 20
7.277523331513965
 10
2.836707277068606
 20
7.277523331513965
 10
2.836707277068606
 20
7.277523331513965
 10
3.243385971411383
 20
7.303723952555367
 10
3.243385971411383
 20
7.303723952555367
 97
        0
 97
        0
 75
     2
 76
     1
 98
        0
  0
SPLINE
  5
E2
330
CC
100
AcDbEntity
  8
Layer 1
370
     0
100
AcDbSpline
210
0.0
220
0.0
230
1.0
 70
    11
 71
     3
 72
    53
 73
    49
 74
     0
 42
0.0000000001
 43
0.0000000001
 12
1.0
 22
0.0
 32
0.0
 13
1.0
 23
0.0
 33
0.0
 40
0.0
 40
0.0
 40
0.0
 40
0.0
 40
1.0
 40
1.0
 40
1.0
 40
2.0
 40
2.0
 40
2.0
 40
3.0
 40
3.0
 40
3.0
 40
4.0
 40
4.0
 40
4.0
 40
5.0
 40
5.0
 40
5.0
 40
6.0
 40
6.0
 40
6.0
 40
7.0
 40
7.0
 40
7.0
 40
8.0
 40
8.0
 40
8.0
 40
9.0
 40
9.0
 40
9.0
 40
10.0
 40
10.0
 40
10.0
 40
11.0
 40
11.0
 40
11.0
 40
12.0
 40
12.0
 40
12.0
 40
13.0
 40
13.0
 40
13.0
 40
14.0
 40
14.0
 40
14.0
 40
15.0
 40
15.0
 40
15.0
 40
16.0
 40
16.0
 40
16.0
 40
16.0
 10
5.417721084004642
 20
4.422503248283653
 30
0.0
 10
5.417721084004642
 20
4.422503248283653
 30
0.0
 10
2.657220999335692
 20
3.682738850489948
 30
0.0
 10
2.657220999335692
 20
3.682738850489948
 30
0.0
 10
2.657220999335692
 20
3.682738850489948
 30
0.0
 10
0.1971801999507029
 20
5.103254980916229
 30
0.0
 10
0.1971801999507029
 20
5.103254980916229
 30
0.0
 10
0.1971801999507029
 20
5.103254980916229
 30
0.0
 10
0.1971801999507029
 20
8.216208345942617
 30
0.0
 10
0.1971801999507029
 20
8.216208345942617
 30
0.0
 10
0.1971801999507029
 20
8.216208345942617
 30
0.0
 10
0.5113372776499431
 20
8.300388177128344
 30
0.0
 10
0.5113372776499431
 20
8.300388177128344
 30
0.0
 10
0.5113372776499431
 20
8.300388177128344
 30
0.0
 10
1.223853138582919
 20
8.530367532372193
 30
0.0
 10
1.223853138582919
 20
8.530367532372193
 30
0.0
 10
1.223853138582919
 20
8.530367532372193
 30
0.0
 10
1.223853138582919
 20
9.083889962695103
 30
0.0
 10
1.223853138582919
 20
9.083889962695103
 30
0.0
 10
1.223853138582919
 20
9.083889962695103
 30
0.0
 10
2.682384638218302
 20
9.474788897166885
 30
0.0
 10
2.682384638218302
 20
9.474788897166885
 30
0.0
 10
2.682384638218302
 20
9.474788897166885
 30
0.0
 10
2.966882277036048
 20
9.310577901356256
 30
0.0
 10
2.966882277036048
 20
9.310577901356256
 30
0.0
 10
3.373384582489976
 20
9.075740796236339
 30
0.0
 10
3.871718373446457
 20
9.128675100441429
 30
0.0
 10
4.186068059871173
 20
9.20348515408842
 30
0.0
 10
4.186068059871173
 20
9.20348515408842
 30
0.0
 10
4.574878549951791
 20
9.307805068093664
 30
0.0
 10
4.574878549951791
 20
9.307805068093664
 30
0.0
 10
4.574878549951791
 20
9.307805068093664
 30
0.0
 10
5.534201387505338
 20
8.754106248886364
 30
0.0
 10
5.534201387505338
 20
8.754106248886364
 30
0.0
 10
5.534201387505338
 20
8.754106248886364
 30
0.0
 10
5.534201387505338
 20
8.246060400736583
 30
0.0
 10
5.534201387505338
 20
8.246060400736583
 30
0.0
 10
5.534201387505338
 20
8.246060400736583
 30
0.0
 10
5.936209154110243
 20
7.932056436525269
 30
0.0
 10
5.936209154110243
 20
7.932056436525269
 30
0.0
 10
5.936209154110243
 20
7.932056436525269
 30
0.0
 10
6.232316702111465
 20
7.760920413113535
 30
0.0
 10
6.232316702111465
 20
7.760920413113535
 30
0.0
 10
6.232316702111465
 20
7.760920413113535
 30
0.0
 10
6.232316702111465
 20
6.963949572334844
 30
0.0
 10
6.232316702111465
 20
6.963949572334844
 30
0.0
 10
6.232316702111465
 20
6.963949572334844
 30
0.0
 10
5.417721084004642
 20
4.422503248283653
 30
0.0
 10
5.417721084004642
 20
4.422503248283653
 30
0.0
  0
HATCH
  5
E3
330
CC
100
AcDbEntity
  8
Layer 1
 62
   253
420
 10329244
100
AcDbHatch
 10
0.0
 20
0.0
 30
0.0
210
0.0
220
0.0
230
1.0
  2
SOLID
 70
     1
 71
     0
 91
        1
 92
        1
 93
        1
 72
     4
 94
        3
 73
     0
 74
     1
 95
       53
 96
       49
 40
0.0
 40
0.0
 40
0.0
 40
0.0
 40
1.0
 40
1.0
 40
1.0
 40
2.0
 40
2.0
 40
2.0
 40
3.0
 40
3.0
 40
3.0
 40
4.0
 40
4.0
 40
4.0
 40
5.0
 40
5.0
 40
5.0
 40
6.0
 40
6.0
 40
6.0
 40
7.0
 40
7.0
 40
7.0
 40
8.0
 40
8.0
 40
8.0
 40
9.0
 40
9.0
 40
9.0
 40
10.0
 40
10.0
 40
10.0
 40
11.0
 40
11.0
 40
11.0
 40
12.0
 40
12.0
 40
12.0
 40
13.0
 40
13.0
 40
13.0
 40
14.0
 40
14.0
 40
14.0
 40
15.0
 40
15.0
 40
15.0
 40
16.0
 40
16.0
 40
16.0
 40
16.0
 10
5.417721084004642
 20
4.422503248283653
 10
5.417721084004642
 20
4.422503248283653
 10
2.657220999335692
 20
3.682738850489948
 10
2.657220999335692
 20
3.682738850489948
 10
2.657220999335692
 20
3.682738850489948
 10
0.1971801999507029
 20
5.103254980916229
 10
0.1971801999507029
 20
5.103254980916229
 10
0.1971801999507029
 20
5.103254980916229
 10
0.1971801999507029
 20
8.216208345942617
 10
0.1971801999507029
 20
8.216208345942617
 10
0.1971801999507029
 20
8.216208345942617
 10
0.5113372776499431
 20
8.300388177128344
 10
0.5113372776499431
 20
8.300388177128344
 10
0.5113372776499431
 20
8.300388177128344
 10
1.223853138582919
 20
8.530367532372193
 10
1.223853138582919
 20
8.530367532372193
 10
1.223853138582919
 20
8.530367532372193
 10
1.223853138582919
 20
9.083889962695103
 10
1.223853138582919
 20
9.083889962695103
 10
1.223853138582919
 20
9.083889962695103
 10
2.682384638218302
 20
9.474788897166885
 10
2.682384638218302
 20
9.474788897166885
 10
2.682384638218302
 20
9.474788897166885
 10
2.966882277036048
 20
9.310577901356256
 10
2.966882277036048
 20
9.310577901356256
 10
3.373384582489976
 20
9.075740796236339
 10
3.871718373446457
 20
9.128675100441429
 10
4.186068059871173
 20
9.20348515408842
 10
4.186068059871173
 20
9.20348515408842
 10
4.574878549951791
 20
9.307805068093664
 10
4.574878549951791
 20
9.307805068093664
 10
4.574878549951791
 20
9.307805068093664
 10
5.534201387505338
 20
8.754106248886364
 10
5.534201387505338
 20
8.754106248886364
 10
5.534201387505338
 20
8.754106248886364
 10
5.534201387505338
 20
8.246060400736583
 10
5.534201387505338
 20
8.246060400736583
 10
5.534201387505338
 20
8.246060400736583
 10
5.936209154110243
 20
7.932056436525269
 10
5.936209154110243
 20
7.932056436525269
 10
5.936209154110243
 20
7.932056436525269
 10
6.232316702111465
 20
7.760920413113535
 10
6.232316702111465
 20
7.760920413113535
 10
6.232316702111465
 20
7.760920413113535
 10
6.232316702111465
 20
6.963949572334844
 10
6.232316702111465
 20
6.963949572334844
 10
6.232316702111465
 20
6.963949572334844
 10
5.417721084004642
 20
4.422503248283653
 10
5.417721084004642
 20
4.422503248283653
 97
        0
 97
        0
 75
     2
 76
     1
 98
        0
  0
ENDBLK
  5
CF
330
CC
100
AcDbEntity
  8
0
100
AcDbBlockEnd
  0
BLOCK
  5
E6
330
E4
100
AcDbEntity
  8
0
100
AcDbBlockBegin
  2
block 23
 70
     0
 10
0.0
 20
0.0
 30
0.0
  3
block 23
  1

  0
INSERT
  5
E9
330
E4
100
AcDbEntity
  8
Layer 1
100
AcDbBlockReference
  2
block 24
 10
0.0
 20
0.0
 30
0.0
  0
ENDBLK
  5
E7
330
E4
100
AcDbEntity
  8
0
100
AcDbBlockEnd
  0
BLOCK
  5
EA
330
E8
100
AcDbEntity
  8
0
100
AcDbBlockBegin
  2
block 24
 70
     0
 10
0.0
 20
0.0
 30
0.0
  3
block 24
  1

  0
SPLINE
  5
EC
330
E8
100
AcDbEntity
  8
Layer 1
370
     0
100
AcDbSpline
210
0.0
220
0.0
230
1.0
 70
    11
 71
     3
 72
    26
 73
    22
 74
     0
 42
0.0000000001
 43
0.0000000001
 12
1.0
 22
0.0
 32
0.0
 13
1.0
 23
0.0
 33
0.0
 40
0.0
 40
0.0
 40
0.0
 40
0.0
 40
1.0
 40
1.0
 40
1.0
 40
2.0
 40
2.0
 40
2.0
 40
3.0
 40
3.0
 40
3.0
 40
4.0
 40
4.0
 40
4.0
 40
5.0
 40
5.0
 40
5.0
 40
6.0
 40
6.0
 40
6.0
 40
7.0
 40
7.0
 40
7.0
 40
7.0
 10
2.390277582735768
 20
7.299571942619564
 30
0.0
 10
2.390277582735768
 20
7.253908203826272
 30
0.0
 10
2.434872221613519
 20
7.208431621653143
 30
0.0
 10
2.51107927715
 20
7.176339428027439
 30
0.0
 10
2.587628527130859
 20
7.144024984407404
 30
0.0
 10
2.694890610437378
 20
7.125285429329935
 30
0.0
 10
2.802861777077077
 20
7.125285429329935
 30
0.0
 10
2.802861777077077
 20
7.125285429329935
 30
0.0
 10
2.802861777077077
 20
6.82197768706796
 30
0.0
 10
2.802861777077077
 20
6.82197768706796
 30
0.0
 10
2.802861777077077
 20
6.82197768706796
 30
0.0
 10
2.459005749385246
 20
6.855290491773635
 30
0.0
 10
2.459005749385246
 20
6.855290491773635
 30
0.0
 10
2.459005749385246
 20
6.855290491773635
 30
0.0
 10
2.292367638315785
 20
7.088663569153125
 30
0.0
 10
2.292367638315785
 20
7.088663569153125
 30
0.0
 10
2.292367638315785
 20
7.088663569153125
 30
0.0
 10
2.325698082751904
 20
7.366388053713948
 30
0.0
 10
2.325698082751904
 20
7.366388053713948
 30
0.0
 10
2.325698082751904
 20
7.366388053713948
 30
0.0
 10
2.390277582735768
 20
7.299571942619564
 30
0.0
 10
2.390277582735768
 20
7.299571942619564
 30
0.0
  0
HATCH
  5
ED
330
E8
100
AcDbEntity
  8
Layer 1
 62
    52
420
 14334976
100
AcDbHatch
 10
0.0
 20
0.0
 30
0.0
210
0.0
220
0.0
230
1.0
  2
SOLID
 70
     1
 71
     0
 91
        1
 92
        1
 93
        1
 72
     4
 94
        3
 73
     0
 74
     1
 95
       26
 96
       22
 40
0.0
 40
0.0
 40
0.0
 40
0.0
 40
1.0
 40
1.0
 40
1.0
 40
2.0
 40
2.0
 40
2.0
 40
3.0
 40
3.0
 40
3.0
 40
4.0
 40
4.0
 40
4.0
 40
5.0
 40
5.0
 40
5.0
 40
6.0
 40
6.0
 40
6.0
 40
7.0
 40
7.0
 40
7.0
 40
7.0
 10
2.390277582735768
 20
7.299571942619564
 10
2.390277582735768
 20
7.253908203826272
 10
2.434872221613519
 20
7.208431621653143
 10
2.51107927715
 20
7.176339428027439
 10
2.587628527130859
 20
7.144024984407404
 10
2.694890610437378
 20
7.125285429329935
 10
2.802861777077077
 20
7.125285429329935
 10
2.802861777077077
 20
7.125285429329935
 10
2.802861777077077
 20
6.82197768706796
 10
2.802861777077077
 20
6.82197768706796
 10
2.802861777077077
 20
6.82197768706796
 10
2.459005749385246
 20
6.855290491773635
 10
2.459005749385246
 20
6.855290491773635
 10
2.459005749385246
 20
6.855290491773635
 10
2.292367638315785
 20
7.088663569153125
 10
2.292367638315785
 20
7.088663569153125
 10
2.292367638315785
 20
7.088663569153125
 10
2.325698082751904
 20
7.366388053713948
 10
2.325698082751904
 20
7.366388053713948
 10
2.325698082751904
 20
7.366388053713948
 10
2.390277582735768
 20
7.299571942619564
 10
2.390277582735768
 20
7.299571942619564
 97
        0
 97
        0
 75
     2
 76
     1
 98
        0
  0
SPLINE
  5
EE
330
E8
100
AcDbEntity
  8
Layer 1
370
     0
100
AcDbSpline
210
0.0
220
0.0
230
1.0
 70
    11
 71
     3
 72
    35
 73
    31
 74
     0
 42
0.0000000001
 43
0.0000000001
 12
1.0
 22
0.0
 32
0.0
 13
1.0
 23
0.0
 33
0.0
 40
0.0
 40
0.0
 40
0.0
 40
0.0
 40
1.0
 40
1.0
 40
1.0
 40
2.0
 40
2.0
 40
2.0
 40
3.0
 40
3.0
 40
3.0
 40
4.0
 40
4.0
 40
4.0
 40
5.0
 40
5.0
 40
5.0
 40
6.0
 40
6.0
 40
6.0
 40
7.0
 40
7.0
 40
7.0
 40
8.0
 40
8.0
 40
8.0
 40
9.0
 40
9.0
 40
9.0
 40
10.0
 40
10.0
 40
10.0
 40
10.0
 10
3.21527311030729
 20
7.045462403588612
 30
0.0
 10
3.21527311030729
 20
7.045462403588612
 30
0.0
 10
3.21527311030729
 20
7.299744619323555
 30
0.0
 10
3.21527311030729
 20
7.299744619323555
 30
0.0
 10
3.21527311030729
 20
7.345390534825697
 30
0.0
 10
3.170830165873963
 20
7.390694442596771
 30
0.0
 10
3.094453777004169
 20
7.422973609255366
 30
0.0
 10
3.01809149924548
 20
7.455256115356126
 30
0.0
 10
2.910811777050072
 20
7.473995670433595
 30
0.0
 10
2.802688915965981
 20
7.473995670433595
 30
0.0
 10
2.694717749326314
 20
7.473822809326894
 30
0.0
 10
2.587455666019794
 20
7.455083254249424
 30
0.0
 10
2.51107927715
 20
7.422804088406268
 30
0.0
 10
2.434699360502423
 20
7.390521394785424
 30
0.0
 10
2.390277582735768
 20
7.345048340389982
 30
0.0
 10
2.390277582735768
 20
7.299571942619564
 30
0.0
 10
2.390277582735768
 20
7.299571942619564
 30
0.0
 10
2.390277582735768
 20
7.045289720460925
 30
0.0
 10
2.390277582735768
 20
7.045289720460925
 30
0.0
 10
2.390277582735768
 20
6.999364932542434
 30
0.0
 10
2.434872221613519
 20
6.954234072582707
 30
0.0
 10
2.51107927715
 20
6.92195490673955
 30
0.0
 10
2.587628527130859
 20
6.889675740896394
 30
0.0
 10
2.694890610437378
 20
6.870932658041236
 30
0.0
 10
2.802861777077077
 20
6.870932658041236
 30
0.0
 10
2.910811777050072
 20
6.870932658041236
 30
0.0
 10
3.018264360356544
 20
6.890017935332108
 30
0.0
 10
3.094453777004169
 20
6.922300628952953
 30
0.0
 10
3.170830165873963
 20
6.95457979479611
 30
0.0
 10
3.21527311030729
 20
6.999710831583386
 30
0.0
 10
3.21527311030729
 20
7.045462403588612
 30
0.0
  0
HATCH
  5
EF
330
E8
100
AcDbEntity
  8
Layer 1
 62
    40
420
 16768256
100
AcDbHatch
 10
0.0
 20
0.0
 30
0.0
210
0.0
220
0.0
230
1.0
  2
SOLID
 70
     1
 71
     0
 91
        1
 92
        1
 93
        1
 72
     4
 94
        3
 73
     0
 74
     1
 95
       35
 96
       31
 40
0.0
 40
0.0
 40
0.0
 40
0.0
 40
1.0
 40
1.0
 40
1.0
 40
2.0
 40
2.0
 40
2.0
 40
3.0
 40
3.0
 40
3.0
 40
4.0
 40
4.0
 40
4.0
 40
5.0
 40
5.0
 40
5.0
 40
6.0
 40
6.0
 40
6.0
 40
7.0
 40
7.0
 40
7.0
 40
8.0
 40
8.0
 40
8.0
 40
9.0
 40
9.0
 40
9.0
 40
10.0
 40
10.0
 40
10.0
 40
10.0
 10
3.21527311030729
 20
7.045462403588612
 10
3.21527311030729
 20
7.045462403588612
 10
3.21527311030729
 20
7.299744619323555
 10
3.21527311030729
 20
7.299744619323555
 10
3.21527311030729
 20
7.345390534825697
 10
3.170830165873963
 20
7.390694442596771
 10
3.094453777004169
 20
7.422973609255366
 10
3.01809149924548
 20
7.455256115356126
 10
2.910811777050072
 20
7.473995670433595
 10
2.802688915965981
 20
7.473995670433595
 10
2.694717749326314
 20
7.473822809326894
 10
2.587455666019794
 20
7.455083254249424
 10
2.51107927715
 20
7.422804088406268
 10
2.434699360502423
 20
7.390521394785424
 10
2.390277582735768
 20
7.345048340389982
 10
2.390277582735768
 20
7.299571942619564
 10
2.390277582735768
 20
7.299571942619564
 10
2.390277582735768
 20
7.045289720460925
 10
2.390277582735768
 20
7.045289720460925
 10
2.390277582735768
 20
6.999364932542434
 10
2.434872221613519
 20
6.954234072582707
 10
2.51107927715
 20
6.92195490673955
 10
2.587628527130859
 20
6.889675740896394
 10
2.694890610437378
 20
6.870932658041236
 10
2.802861777077077
 20
6.870932658041236
 10
2.910811777050072
 20
6.870932658041236
 10
3.018264360356544
 20
6.890017935332108
 10
3.094453777004169
 20
6.922300628952953
 10
3.170830165873963
 20
6.95457979479611
 10
3.21527311030729
 20
6.999710831583386
 10
3.21527311030729
 20
7.045462403588612
 97
        0
 97
        0
 75
     2
 76
     1
 98
        0
  0
ENDBLK
  5
EB
330
E8
100
AcDbEntity
  8
0
100
AcDbBlockEnd
  0
BLOCK
  5
F2
330
F0
100
AcDbEntity
  8
0
100
AcDbBlockBegin
  2
block 25
 70
     0
 10
0.0
 20
0.0
 30
0.0
  3
block 25
  1

  0
INSERT
  5
F5
330
F0
100
AcDbEntity
  8
Layer 1
100
AcDbBlockReference
  2
block 26
 10
0.0
 20
0.0
 30
0.0
  0
ENDBLK
  5
F3
330
F0
100
AcDbEntity
  8
0
100
AcDbBlockEnd
  0
BLOCK
  5
F6
330
F4
100
AcDbEntity
  8
0
100
AcDbBlockBegin
  2
block 26
 70
     0
 10
0.0
 20
0.0
 30
0.0
  3
block 26
  1

  0
SPLINE
  5
F8
330
F4
100
AcDbEntity
  8
Layer 1
370
     0
100
AcDbSpline
210
0.0
220
0.0
230
1.0
 70
    11
 71
     3
 72
    26
 73
    22
 74
     0
 42
0.0000000001
 43
0.0000000001
 12
1.0
 22
0.0
 32
0.0
 13
1.0
 23
0.0
 33
0.0
 40
0.0
 40
0.0
 40
0.0
 40
0.0
 40
1.0
 40
1.0
 40
1.0
 40
2.0
 40
2.0
 40
2.0
 40
3.0
 40
3.0
 40
3.0
 40
4.0
 40
4.0
 40
4.0
 40
5.0
 40
5.0
 40
5.0
 40
6.0
 40
6.0
 40
6.0
 40
7.0
 40
7.0
 40
7.0
 40
7.0
 10
0.5130764720939414
 20
8.399314119048977
 30
0.0
 10
0.5130764720939414
 20
8.353668203546835
 30
0.0
 10
0.5575017776384125
 20
8.308191621373705
 30
0.0
 10
0.6337088331748933
 20
8.27608531663725
 30
0.0
 10
0.7102580831557835
 20
8.243802623016405
 30
0.0
 10
0.8175201664622715
 20
8.225063067938937
 30
0.0
 10
0.9254913331019703
 20
8.225063067938937
 30
0.0
 10
0.9254913331019703
 20
8.225063067938937
 30
0.0
 10
0.9254913331019703
 20
7.921825881230717
 30
0.0
 10
0.9254913331019703
 20
7.921825881230717
 30
0.0
 10
0.9254913331019703
 20
7.921825881230717
 30
0.0
 10
0.5816353054101389
 20
7.955156324824831
 30
0.0
 10
0.5816353054101389
 20
7.955156324824831
 30
0.0
 10
0.5816353054101389
 20
7.955156324824831
 30
0.0
 10
0.4150148332295662
 20
8.188441207762127
 30
0.0
 10
0.4150148332295662
 20
8.188441207762127
 30
0.0
 10
0.4150148332295662
 20
8.188441207762127
 30
0.0
 10
0.4483276387767974
 20
8.466151395121594
 30
0.0
 10
0.4483276387767974
 20
8.466151395121594
 30
0.0
 10
0.4483276387767974
 20
8.466151395121594
 30
0.0
 10
0.5130764720939414
 20
8.399314119048977
 30
0.0
 10
0.5130764720939414
 20
8.399314119048977
 30
0.0
  0
HATCH
  5
F9
330
F4
100
AcDbEntity
  8
Layer 1
 62
    52
420
 14334976
100
AcDbHatch
 10
0.0
 20
0.0
 30
0.0
210
0.0
220
0.0
230
1.0
  2
SOLID
 70
     1
 71
     0
 91
        1
 92
        1
 93
        1
 72
     4
 94
        3
 73
     0
 74
     1
 95
       26
 96
       22
 40
0.0
 40
0.0
 40
0.0
 40
0.0
 40
1.0
 40
1.0
 40
1.0
 40
2.0
 40
2.0
 40
2.0
 40
3.0
 40
3.0
 40
3.0
 40
4.0
 40
4.0
 40
4.0
 40
5.0
 40
5.0
 40
5.0
 40
6.0
 40
6.0
 40
6.0
 40
7.0
 40
7.0
 40
7.0
 40
7.0
 10
0.5130764720939414
 20
8.399314119048977
 10
0.5130764720939414
 20
8.353668203546835
 10
0.5575017776384125
 20
8.308191621373705
 10
0.6337088331748933
 20
8.27608531663725
 10
0.7102580831557835
 20
8.243802623016405
 10
0.8175201664622715
 20
8.225063067938937
 10
0.9254913331019703
 20
8.225063067938937
 10
0.9254913331019703
 20
8.225063067938937
 10
0.9254913331019703
 20
7.921825881230717
 10
0.9254913331019703
 20
7.921825881230717
 10
0.9254913331019703
 20
7.921825881230717
 10
0.5816353054101389
 20
7.955156324824831
 10
0.5816353054101389
 20
7.955156324824831
 10
0.5816353054101389
 20
7.955156324824831
 10
0.4150148332295662
 20
8.188441207762127
 10
0.4150148332295662
 20
8.188441207762127
 10
0.4150148332295662
 20
8.188441207762127
 10
0.4483276387767974
 20
8.466151395121594
 10
0.4483276387767974
 20
8.466151395121594
 10
0.4483276387767974
 20
8.466151395121594
 10
0.5130764720939414
 20
8.399314119048977
 10
0.5130764720939414
 20
8.399314119048977
 97
        0
 97
        0
 75
     2
 76
     1
 98
        0
  0
SPLINE
  5
FA
330
F4
100
AcDbEntity
  8
Layer 1
370
     0
100
AcDbSpline
210
0.0
220
0.0
230
1.0
 70
    11
 71
     3
 72
    32
 73
    28
 74
     0
 42
0.0000000001
 43
0.0000000001
 12
1.0
 22
0.0
 32
0.0
 13
1.0
 23
0.0
 33
0.0
 40
0.0
 40
0.0
 40
0.0
 40
0.0
 40
1.0
 40
1.0
 40
1.0
 40
2.0
 40
2.0
 40
2.0
 40
3.0
 40
3.0
 40
3.0
 40
4.0
 40
4.0
 40
4.0
 40
5.0
 40
5.0
 40
5.0
 40
6.0
 40
6.0
 40
6.0
 40
7.0
 40
7.0
 40
7.0
 40
8.0
 40
8.0
 40
8.0
 40
9.0
 40
9.0
 40
9.0
 40
9.0
 10
0.9157581942154953
 20
8.356285814591164
 30
0.0
 10
0.9157581942154953
 20
8.356285814591164
 30
0.0
 10
1.326793694112759
 20
8.44515053454626
 30
0.0
 10
1.305948055229077
 20
8.466151395121594
 30
0.0
 10
1.285296444123131
 20
8.48714872791924
 30
0.0
 10
1.255098666352878
 20
8.506593838534265
 30
0.0
 10
1.217083333029062
 20
8.522736949233531
 30
0.0
 10
1.140721055270373
 20
8.555016115076688
 30
0.0
 10
1.033441333074965
 20
8.573755670154158
 30
0.0
 10
0.9253184719909057
 20
8.573755670154158
 30
0.0
 10
0.8173473053512069
 20
8.573586336825144
 30
0.0
 10
0.7100852220446868
 20
8.554843253969986
 30
0.0
 10
0.6337088331748933
 20
8.522564088126831
 30
0.0
 10
0.5575017776384125
 20
8.490281394505987
 30
0.0
 10
0.5130764720939414
 20
8.444808340110544
 30
0.0
 10
0.5130764720939414
 20
8.399314119048977
 30
0.0
 10
0.5130764720939414
 20
8.399314119048977
 30
0.0
 10
0.5130764720939414
 20
8.144859042207333
 30
0.0
 10
0.5130764720939414
 20
8.144859042207333
 30
0.0
 10
0.5130764720939414
 20
8.099213331308524
 30
0.0
 10
0.5575017776384125
 20
8.053909405638763
 30
0.0
 10
0.6337088331748933
 20
8.021630239795607
 30
0.0
 10
0.7102580831557835
 20
7.989520407281463
 30
0.0
 10
0.8175201664622715
 20
7.970780852203994
 30
0.0
 10
0.9254913331019703
 20
7.970780852203994
 30
0.0
 10
0.9254913331019703
 20
7.970780852203994
 30
0.0
 10
0.9157581942154953
 20
8.356285814591164
 30
0.0
 10
0.9157581942154953
 20
8.356285814591164
 30
0.0
  0
HATCH
  5
FB
330
F4
100
AcDbEntity
  8
Layer 1
 62
    40
420
 16768256
100
AcDbHatch
 10
0.0
 20
0.0
 30
0.0
210
0.0
220
0.0
230
1.0
  2
SOLID
 70
     1
 71
     0
 91
        1
 92
        1
 93
        1
 72
     4
 94
        3
 73
     0
 74
     1
 95
       32
 96
       28
 40
0.0
 40
0.0
 40
0.0
 40
0.0
 40
1.0
 40
1.0
 40
1.0
 40
2.0
 40
2.0
 40
2.0
 40
3.0
 40
3.0
 40
3.0
 40
4.0
 40
4.0
 40
4.0
 40
5.0
 40
5.0
 40
5.0
 40
6.0
 40
6.0
 40
6.0
 40
7.0
 40
7.0
 40
7.0
 40
8.0
 40
8.0
 40
8.0
 40
9.0
 40
9.0
 40
9.0
 40
9.0
 10
0.9157581942154953
 20
8.356285814591164
 10
0.9157581942154953
 20
8.356285814591164
 10
1.326793694112759
 20
8.44515053454626
 10
1.305948055229077
 20
8.466151395121594
 10
1.285296444123131
 20
8.48714872791924
 10
1.255098666352878
 20
8.506593838534265
 10
1.217083333029062
 20
8.522736949233531
 10
1.140721055270373
 20
8.555016115076688
 10
1.033441333074965
 20
8.573755670154158
 10
0.9253184719909057
 20
8.573755670154158
 10
0.8173473053512069
 20
8.573586336825144
 10
0.7100852220446868
 20
8.554843253969986
 10
0.6337088331748933
 20
8.522564088126831
 10
0.5575017776384125
 20
8.490281394505987
 10
0.5130764720939414
 20
8.444808340110544
 10
0.5130764720939414
 20
8.399314119048977
 10
0.5130764720939414
 20
8.399314119048977
 10
0.5130764720939414
 20
8.144859042207333
 10
0.5130764720939414
 20
8.144859042207333
 10
0.5130764720939414
 20
8.099213331308524
 10
0.5575017776384125
 20
8.053909405638763
 10
0.6337088331748933
 20
8.021630239795607
 10
0.7102580831557835
 20
7.989520407281463
 10
0.8175201664622715
 20
7.970780852203994
 10
0.9254913331019703
 20
7.970780852203994
 10
0.9254913331019703
 20
7.970780852203994
 10
0.9157581942154953
 20
8.356285814591164
 10
0.9157581942154953
 20
8.356285814591164
 97
        0
 97
        0
 75
     2
 76
     1
 98
        0
  0
ENDBLK
  5
F7
330
F4
100
AcDbEntity
  8
0
100
AcDbBlockEnd
  0
BLOCK
  5
FE
330
FC
100
AcDbEntity
  8
0
100
AcDbBlockBegin
  2
block 27
 70
     0
 10
0.0
 20
0.0
 30
0.0
  3
block 27
  1

  0
INSERT
  5
101
330
FC
100
AcDbEntity
  8
Layer 1
100
AcDbBlockReference
  2
block 28
 10
0.0
 20
0.0
 30
0.0
  0
ENDBLK
  5
FF
330
FC
100
AcDbEntity
  8
0
100
AcDbBlockEnd
  0
BLOCK
  5
102
330
100
100
AcDbEntity
  8
0
100
AcDbBlockBegin
  2
block 28
 70
     0
 10
0.0
 20
0.0
 30
0.0
  3
block 28
  1

  0
SPLINE
  5
104
330
100
100
AcDbEntity
  8
Layer 1
370
     0
100
AcDbSpline
210
0.0
220
0.0
230
1.0
 70
    11
 71
     3
 72
    26
 73
    22
 74
     0
 42
0.0000000001
 43
0.0000000001
 12
1.0
 22
0.0
 32
0.0
 13
1.0
 23
0.0
 33
0.0
 40
0.0
 40
0.0
 40
0.0
 40
0.0
 40
1.0
 40
1.0
 40
1.0
 40
2.0
 40
2.0
 40
2.0
 40
3.0
 40
3.0
 40
3.0
 40
4.0
 40
4.0
 40
4.0
 40
5.0
 40
5.0
 40
5.0
 40
6.0
 40
6.0
 40
6.0
 40
7.0
 40
7.0
 40
7.0
 40
7.0
 10
5.112074425135671
 20
8.054960683389721
 30
0.0
 10
5.112074425135671
 20
8.009297128999139
 30
0.0
 10
5.156513840668594
 20
7.96382054682601
 30
0.0
 10
5.232720894279946
 20
7.931710714311867
 30
0.0
 10
5.309234998672676
 20
7.89943154846871
 30
0.0
 10
5.41651811181311
 20
7.880688465613553
 30
0.0
 10
5.524485747947515
 20
7.880688465613553
 30
0.0
 10
5.524485747947515
 20
7.880688465613553
 30
0.0
 10
5.524485747947515
 20
7.577451278905333
 30
0.0
 10
5.524485747947515
 20
7.577451278905333
 30
0.0
 10
5.524485747947515
 20
7.577451278905333
 30
0.0
 10
5.180629728942235
 20
7.610785250277136
 30
0.0
 10
5.180629728942235
 20
7.610785250277136
 30
0.0
 10
5.180629728942235
 20
7.610785250277136
 30
0.0
 10
5.013991622082417
 20
7.844070133214431
 30
0.0
 10
5.013991622082417
 20
7.844070133214431
 30
0.0
 10
5.013991622082417
 20
7.844070133214431
 30
0.0
 10
5.047339704564969
 20
8.121776792796211
 30
0.0
 10
5.047339704564969
 20
8.121776792796211
 30
0.0
 10
5.047339704564969
 20
8.121776792796211
 30
0.0
 10
5.112074425135671
 20
8.054960683389721
 30
0.0
 10
5.112074425135671
 20
8.054960683389721
 30
0.0
  0
HATCH
  5
105
330
100
100
AcDbEntity
  8
Layer 1
 62
    52
420
 14334976
100
AcDbHatch
 10
0.0
 20
0.0
 30
0.0
210
0.0
220
0.0
230
1.0
  2
SOLID
 70
     1
 71
     0
 91
        1
 92
        1
 93
        1
 72
     4
 94
        3
 73
     0
 74
     1
 95
       26
 96
       22
 40
0.0
 40
0.0
 40
0.0
 40
0.0
 40
1.0
 40
1.0
 40
1.0
 40
2.0
 40
2.0
 40
2.0
 40
3.0
 40
3.0
 40
3.0
 40
4.0
 40
4.0
 40
4.0
 40
5.0
 40
5.0
 40
5.0
 40
6.0
 40
6.0
 40
6.0
 40
7.0
 40
7.0
 40
7.0
 40
7.0
 10
5.112074425135671
 20
8.054960683389721
 10
5.112074425135671
 20
8.009297128999139
 10
5.156513840668594
 20
7.96382054682601
 10
5.232720894279946
 20
7.931710714311867
 10
5.309234998672676
 20
7.89943154846871
 10
5.41651811181311
 20
7.880688465613553
 10
5.524485747947515
 20
7.880688465613553
 10
5.524485747947515
 20
7.880688465613553
 10
5.524485747947515
 20
7.577451278905333
 10
5.524485747947515
 20
7.577451278905333
 10
5.524485747947515
 20
7.577451278905333
 10
5.180629728942235
 20
7.610785250277136
 10
5.180629728942235
 20
7.610785250277136
 10
5.180629728942235
 20
7.610785250277136
 10
5.013991622082417
 20
7.844070133214431
 10
5.013991622082417
 20
7.844070133214431
 10
5.013991622082417
 20
7.844070133214431
 10
5.047339704564969
 20
8.121776792796211
 10
5.047339704564969
 20
8.121776792796211
 10
5.047339704564969
 20
8.121776792796211
 10
5.112074425135671
 20
8.054960683389721
 10
5.112074425135671
 20
8.054960683389721
 97
        0
 97
        0
 75
     2
 76
     1
 98
        0
  0
SPLINE
  5
106
330
100
100
AcDbEntity
  8
Layer 1
370
     0
100
AcDbSpline
210
0.0
220
0.0
230
1.0
 70
    11
 71
     3
 72
    38
 73
    34
 74
     0
 42
0.0000000001
 43
0.0000000001
 12
1.0
 22
0.0
 32
0.0
 13
1.0
 23
0.0
 33
0.0
 40
0.0
 40
0.0
 40
0.0
 40
0.0
 40
1.0
 40
1.0
 40
1.0
 40
2.0
 40
2.0
 40
2.0
 40
3.0
 40
3.0
 40
3.0
 40
4.0
 40
4.0
 40
4.0
 40
5.0
 40
5.0
 40
5.0
 40
6.0
 40
6.0
 40
6.0
 40
7.0
 40
7.0
 40
7.0
 40
8.0
 40
8.0
 40
8.0
 40
9.0
 40
9.0
 40
9.0
 40
10.0
 40
10.0
 40
10.0
 40
11.0
 40
11.0
 40
11.0
 40
11.0
 10
5.15961475725615
 20
7.726041275114487
 30
0.0
 10
5.174569006874635
 20
7.716480997580613
 30
0.0
 10
5.213773332029871
 20
7.685422442817426
 30
0.0
 10
5.232720894279946
 20
7.677255831414004
 30
0.0
 10
5.309234998672676
 20
7.645149332733769
 30
0.0
 10
5.41651811181311
 20
7.62640624987861
 30
0.0
 10
5.524485747947515
 20
7.62640624987861
 30
0.0
 10
5.632456911859608
 20
7.62640624987861
 30
0.0
 10
5.739874214674719
 20
7.645322193840469
 30
0.0
 10
5.816077740508383
 20
7.677601359683626
 30
0.0
 10
5.892457655226436
 20
7.70988405330447
 30
0.0
 10
5.936897220738028
 20
7.75518444250566
 30
0.0
 10
5.936897220738028
 20
7.800851328761479
 30
0.0
 10
5.936897220738028
 20
7.800851328761479
 30
0.0
 10
5.936897220738028
 20
8.055133544496421
 30
0.0
 10
5.936897220738028
 20
8.055133544496421
 30
0.0
 10
5.936897220738028
 20
8.100779459998565
 30
0.0
 10
5.892457655226436
 20
8.146083181064991
 30
0.0
 10
5.816077740508383
 20
8.178362346908148
 30
0.0
 10
5.739701353568019
 20
8.210645040528993
 30
0.0
 10
5.632456911859608
 20
8.229402234494902
 30
0.0
 10
5.524312886840814
 20
8.229402234494902
 30
0.0
 10
5.416345250706409
 20
8.2292293733882
 30
0.0
 10
5.30906553122112
 20
8.210472179422291
 30
0.0
 10
5.232720894279946
 20
8.178193013579135
 30
0.0
 10
5.184453839955785
 20
8.157710736323905
 30
0.0
 10
5.148865618641494
 20
8.13202851475689
 30
0.0
 10
5.129438146914908
 20
8.104413071016975
 30
0.0
 10
5.129438146914908
 20
8.104413071016975
 30
0.0
 10
5.169538395891865
 20
8.06624251643523
 30
0.0
 10
5.169538395891865
 20
8.06624251643523
 30
0.0
 10
5.169538395891865
 20
8.06624251643523
 30
0.0
 10
5.15961475725615
 20
7.726041275114487
 30
0.0
 10
5.15961475725615
 20
7.726041275114487
 30
0.0
  0
HATCH
  5
107
330
100
100
AcDbEntity
  8
Layer 1
 62
    40
420
 16768256
100
AcDbHatch
 10
0.0
 20
0.0
 30
0.0
210
0.0
220
0.0
230
1.0
  2
SOLID
 70
     1
 71
     0
 91
        1
 92
        1
 93
        1
 72
     4
 94
        3
 73
     0
 74
     1
 95
       38
 96
       34
 40
0.0
 40
0.0
 40
0.0
 40
0.0
 40
1.0
 40
1.0
 40
1.0
 40
2.0
 40
2.0
 40
2.0
 40
3.0
 40
3.0
 40
3.0
 40
4.0
 40
4.0
 40
4.0
 40
5.0
 40
5.0
 40
5.0
 40
6.0
 40
6.0
 40
6.0
 40
7.0
 40
7.0
 40
7.0
 40
8.0
 40
8.0
 40
8.0
 40
9.0
 40
9.0
 40
9.0
 40
10.0
 40
10.0
 40
10.0
 40
11.0
 40
11.0
 40
11.0
 40
11.0
 10
5.15961475725615
 20
7.726041275114487
 10
5.174569006874635
 20
7.716480997580613
 10
5.213773332029871
 20
7.685422442817426
 10
5.232720894279946
 20
7.677255831414004
 10
5.309234998672676
 20
7.645149332733769
 10
5.41651811181311
 20
7.62640624987861
 10
5.524485747947515
 20
7.62640624987861
 10
5.632456911859608
 20
7.62640624987861
 10
5.739874214674719
 20
7.645322193840469
 10
5.816077740508383
 20
7.677601359683626
 10
5.892457655226436
 20
7.70988405330447
 10
5.936897220738028
 20
7.75518444250566
 10
5.936897220738028
 20
7.800851328761479
 10
5.936897220738028
 20
7.800851328761479
 10
5.936897220738028
 20
8.055133544496421
 10
5.936897220738028
 20
8.055133544496421
 10
5.936897220738028
 20
8.100779459998565
 10
5.892457655226436
 20
8.146083181064991
 10
5.816077740508383
 20
8.178362346908148
 10
5.739701353568019
 20
8.210645040528993
 10
5.632456911859608
 20
8.229402234494902
 10
5.524312886840814
 20
8.229402234494902
 10
5.416345250706409
 20
8.2292293733882
 10
5.30906553122112
 20
8.210472179422291
 10
5.232720894279946
 20
8.178193013579135
 10
5.184453839955785
 20
8.157710736323905
 10
5.148865618641494
 20
8.13202851475689
 10
5.129438146914908
 20
8.104413071016975
 10
5.129438146914908
 20
8.104413071016975
 10
5.169538395891865
 20
8.06624251643523
 10
5.169538395891865
 20
8.06624251643523
 10
5.169538395891865
 20
8.06624251643523
 10
5.15961475725615
 20
7.726041275114487
 10
5.15961475725615
 20
7.726041275114487
 97
        0
 97
        0
 75
     2
 76
     1
 98
        0
  0
ENDBLK
  5
103
330
100
100
AcDbEntity
  8
0
100
AcDbBlockEnd
  0
BLOCK
  5
10A
330
108
100
AcDbEntity
  8
0
100
AcDbBlockBegin
  2
block 29
 70
     0
 10
0.0
 20
0.0
 30
0.0
  3
block 29
  1

  0
INSERT
  5
10D
330
108
100
AcDbEntity
  8
Layer 1
100
AcDbBlockReference
  2
block 30
 10
0.0
 20
0.0
 30
0.0
  0
ENDBLK
  5
10B
330
108
100
AcDbEntity
  8
0
100
AcDbBlockEnd
  0
BLOCK
  5
10E
330
10C
100
AcDbEntity
  8
0
100
AcDbBlockBegin
  2
block 30
 70
     0
 10
0.0
 20
0.0
 30
0.0
  3
block 30
  1

  0
INSERT
  5
111
330
10C
100
AcDbEntity
  8
Layer 1
100
AcDbBlockReference
  2
block 31
 10
0.0
 20
0.0
 30
0.0
  0
INSERT
  5
11F
330
10C
100
AcDbEntity
  8
Layer 1
100
AcDbBlockReference
  2
block 32
 10
0.0
 20
0.0
 30
0.0
  0
SPLINE
  5
12A
330
10C
100
AcDbEntity
  8
Layer 1
370
     0
100
AcDbSpline
210
0.0
220
0.0
230
1.0
 70
    11
 71
     3
 72
    41
 73
    37
 74
     0
 42
0.0000000001
 43
0.0000000001
 12
1.0
 22
0.0
 32
0.0
 13
1.0
 23
0.0
 33
0.0
 40
0.0
 40
0.0
 40
0.0
 40
0.0
 40
1.0
 40
1.0
 40
1.0
 40
2.0
 40
2.0
 40
2.0
 40
3.0
 40
3.0
 40
3.0
 40
4.0
 40
4.0
 40
4.0
 40
5.0
 40
5.0
 40
5.0
 40
6.0
 40
6.0
 40
6.0
 40
7.0
 40
7.0
 40
7.0
 40
8.0
 40
8.0
 40
8.0
 40
9.0
 40
9.0
 40
9.0
 40
10.0
 40
10.0
 40
10.0
 40
11.0
 40
11.0
 40
11.0
 40
12.0
 40
12.0
 40
12.0
 40
12.0
 10
5.155998785126179
 20
7.541693724262029
 30
0.0
 10
5.155998785126179
 20
7.541693724262029
 30
0.0
 10
6.456729224164002
 20
6.802546687563686
 30
0.0
 10
6.456729224164002
 20
6.802546687563686
 30
0.0
 10
6.686207634976187
 20
6.670255024272061
 30
0.0
 10
6.842788047648154
 20
6.415457752994703
 30
0.0
 10
6.882853018848234
 20
6.109980427454746
 30
0.0
 10
6.92278040671849
 20
5.804503101914788
 30
0.0
 10
6.845543242022308
 20
5.452483805339993
 30
0.0
 10
6.672495163103799
 20
5.152897868538623
 30
0.0
 10
6.499619945291991
 20
4.853311931737252
 30
0.0
 10
6.233350340973984
 20
4.61029391015938
 30
0.0
 10
5.949060848226813
 20
4.492265052059436
 30
0.0
 10
5.664390355489362
 20
4.374236193959493
 30
0.0
 10
5.365323002008095
 20
4.382575860413397
 30
0.0
 10
5.136017452302611
 20
4.514832245928144
 30
0.0
 10
5.136017452302611
 20
4.514832245928144
 30
0.0
 10
5.22679422776448
 20
4.474559135844485
 30
0.0
 10
5.22679422776448
 20
4.474559135844485
 30
0.0
 10
5.193135832035061
 20
4.488098746610173
 30
0.0
 10
5.160510812788845
 20
4.503737498874096
 30
0.0
 10
5.129092424701506
 20
4.521792551306127
 30
0.0
 10
5.129092424701506
 20
4.521792551306127
 30
0.0
 10
3.84169345754579
 20
5.265381060113381
 30
0.0
 10
3.84169345754579
 20
5.265381060113381
 30
0.0
 10
3.613439185591264
 20
5.396949528979013
 30
0.0
 10
3.457395082468981
 20
5.650713161393852
 30
0.0
 10
3.417481804701174
 20
5.954468931422174
 30
0.0
 10
3.37772727693336
 20
6.258566895886212
 30
0.0
 10
3.454795110247412
 20
6.608829359172494
 30
0.0
 10
3.626978887982141
 20
6.907036109384382
 30
0.0
 10
3.79882037530624
 20
7.204970871741434
 30
0.0
 10
4.063869368544276
 20
7.446747115573208
 30
0.0
 10
4.346952361322228
 20
7.564430251459751
 30
0.0
 10
4.629897770770356
 20
7.681771386968452
 30
0.0
 10
4.927554013176512
 20
7.673604387563374
 30
0.0
 10
5.155998785126179
 20
7.541693724262029
 30
0.0
  0
HATCH
  5
12B
330
10C
100
AcDbEntity
  8
Layer 1
 62
   253
420
 10329244
100
AcDbHatch
 10
0.0
 20
0.0
 30
0.0
210
0.0
220
0.0
230
1.0
  2
SOLID
 70
     1
 71
     0
 91
        1
 92
        1
 93
        1
 72
     4
 94
        3
 73
     0
 74
     1
 95
       41
 96
       37
 40
0.0
 40
0.0
 40
0.0
 40
0.0
 40
1.0
 40
1.0
 40
1.0
 40
2.0
 40
2.0
 40
2.0
 40
3.0
 40
3.0
 40
3.0
 40
4.0
 40
4.0
 40
4.0
 40
5.0
 40
5.0
 40
5.0
 40
6.0
 40
6.0
 40
6.0
 40
7.0
 40
7.0
 40
7.0
 40
8.0
 40
8.0
 40
8.0
 40
9.0
 40
9.0
 40
9.0
 40
10.0
 40
10.0
 40
10.0
 40
11.0
 40
11.0
 40
11.0
 40
12.0
 40
12.0
 40
12.0
 40
12.0
 10
5.155998785126179
 20
7.541693724262029
 10
5.155998785126179
 20
7.541693724262029
 10
6.456729224164002
 20
6.802546687563686
 10
6.456729224164002
 20
6.802546687563686
 10
6.686207634976187
 20
6.670255024272061
 10
6.842788047648154
 20
6.415457752994703
 10
6.882853018848234
 20
6.109980427454746
 10
6.92278040671849
 20
5.804503101914788
 10
6.845543242022308
 20
5.452483805339993
 10
6.672495163103799
 20
5.152897868538623
 10
6.499619945291991
 20
4.853311931737252
 10
6.233350340973984
 20
4.61029391015938
 10
5.949060848226813
 20
4.492265052059436
 10
5.664390355489362
 20
4.374236193959493
 10
5.365323002008095
 20
4.382575860413397
 10
5.136017452302611
 20
4.514832245928144
 10
5.136017452302611
 20
4.514832245928144
 10
5.22679422776448
 20
4.474559135844485
 10
5.22679422776448
 20
4.474559135844485
 10
5.193135832035061
 20
4.488098746610173
 10
5.160510812788845
 20
4.503737498874096
 10
5.129092424701506
 20
4.521792551306127
 10
5.129092424701506
 20
4.521792551306127
 10
3.84169345754579
 20
5.265381060113381
 10
3.84169345754579
 20
5.265381060113381
 10
3.613439185591264
 20
5.396949528979013
 10
3.457395082468981
 20
5.650713161393852
 10
3.417481804701174
 20
5.954468931422174
 10
3.37772727693336
 20
6.258566895886212
 10
3.454795110247412
 20
6.608829359172494
 10
3.626978887982141
 20
6.907036109384382
 10
3.79882037530624
 20
7.204970871741434
 10
4.063869368544276
 20
7.446747115573208
 10
4.346952361322228
 20
7.564430251459751
 10
4.629897770770356
 20
7.681771386968452
 10
4.927554013176512
 20
7.673604387563374
 10
5.155998785126179
 20
7.541693724262029
 97
        0
 97
        0
 75
     2
 76
     1
 98
        0
  0
ENDBLK
  5
10F
330
10C
100
AcDbEntity
  8
0
100
AcDbBlockEnd
  0
BLOCK
  5
112
330
110
100
AcDbEntity
  8
0
100
AcDbBlockBegin
  2
block 31
 70
     0
 10
0.0
 20
0.0
 30
0.0
  3
block 31
  1

  0
POLYLINE
  5
114
330
110
100
AcDbEntity
  8
Layer 1
370
     0
100
AcDb2dPolyline
 66
     1
 10
0.0
 20
0.0
 30
0.0
  0
VERTEX
  5
115
330
114
100
AcDbEntity
  8
Layer 1
370
     0
100
AcDbVertex
100
AcDb2dVertex
 10
4.88070159770515
 20
4.533571801005614
 30
0.0
  0
VERTEX
  5
116
330
114
100
AcDbEntity
  8
Layer 1
370
     0
100
AcDbVertex
100
AcDb2dVertex
 10
5.532133969974614
 20
5.661808022221909
 30
0.0
  0
VERTEX
  5
117
330
114
100
AcDbEntity
  8
Layer 1
370
     0
100
AcDbVertex
100
AcDb2dVertex
 10
3.503213860235321
 20
6.833072547896017
 30
0.0
  0
VERTEX
  5
118
330
114
100
AcDbEntity
  8
Layer 1
370
     0
100
AcDbVertex
100
AcDb2dVertex
 10
2.851971971509245
 20
5.704871604456599
 30
0.0
  0
VERTEX
  5
119
330
114
100
AcDbEntity
  8
Layer 1
370
     0
100
AcDbVertex
100
AcDb2dVertex
 10
4.88070159770515
 20
4.533571801005614
 30
0.0
  0
SEQEND
  5
11A
330
114
100
AcDbEntity
  8
Layer 1
370
     0
  0
POLYLINE
  5
11B
330
110
100
AcDbEntity
  8
Layer 1
370
     0
100
AcDb2dPolyline
 66
     1
 10
0.0
 20
0.0
 30
0.0
  0
VERTEX
  5
11C
330
11B
100
AcDbEntity
  8
Layer 1
370
     0
100
AcDbVertex
100
AcDb2dVertex
 10
4.191955920832072
 20
5.683338049450411
 30
0.0
  0
VERTEX
  5
256
330
11B
100
AcDbEntity
  8
0
100
AcDbVertex
100
AcDb2dVertex
 10
4.191955920832072
 20
5.683338049450411
 30
0.0
  0
SEQEND
  5
11D
330
11B
100
AcDbEntity
  8
Layer 1
370
     0
  0
ENDBLK
  5
113
330
110
100
AcDbEntity
  8
0
100
AcDbBlockEnd
  0
BLOCK
  5
120
330
11E
100
AcDbEntity
  8
0
100
AcDbBlockBegin
  2
block 32
 70
     0
 10
0.0
 20
0.0
 30
0.0
  3
block 32
  1

  0
INSERT
  5
123
330
11E
100
AcDbEntity
  8
Layer 1
100
AcDbBlockReference
  2
block 33
 10
0.0
 20
0.0
 30
0.0
  0
ENDBLK
  5
121
330
11E
100
AcDbEntity
  8
0
100
AcDbBlockEnd
  0
BLOCK
  5
124
330
122
100
AcDbEntity
  8
0
100
AcDbBlockBegin
  2
block 33
 70
     0
 10
0.0
 20
0.0
 30
0.0
  3
block 33
  1

  0
SPLINE
  5
126
330
122
100
AcDbEntity
  8
Layer 1
370
     0
100
AcDbSpline
210
0.0
220
0.0
230
1.0
 70
    11
 71
     3
 72
    26
 73
    22
 74
     0
 42
0.0000000001
 43
0.0000000001
 12
1.0
 22
0.0
 32
0.0
 13
1.0
 23
0.0
 33
0.0
 40
0.0
 40
0.0
 40
0.0
 40
0.0
 40
1.0
 40
1.0
 40
1.0
 40
2.0
 40
2.0
 40
2.0
 40
3.0
 40
3.0
 40
3.0
 40
4.0
 40
4.0
 40
4.0
 40
5.0
 40
5.0
 40
5.0
 40
6.0
 40
6.0
 40
6.0
 40
7.0
 40
7.0
 40
7.0
 40
7.0
 10
5.136017452302611
 20
4.514832245928144
 30
0.0
 10
4.906574443217827
 20
4.647434353656293
 30
0.0
 10
4.749648184381935
 20
4.902266902710529
 30
0.0
 10
4.709720796511679
 20
5.207744228250487
 30
0.0
 10
4.674855769623382
 20
5.474705276995298
 30
0.0
 10
4.729702129335245
 20
5.777423880383414
 30
0.0
 10
4.859340903805663
 20
6.049588401217696
 30
0.0
 10
4.859340903805663
 20
6.049588401217696
 30
0.0
 10
4.527990856703551
 20
6.24086097967126
 30
0.0
 10
4.527990856703551
 20
6.24086097967126
 30
0.0
 10
4.527990856703551
 20
6.24086097967126
 30
0.0
 10
4.347470944642331
 20
5.28897836506692
 30
0.0
 10
4.347470944642331
 20
5.28897836506692
 30
0.0
 10
4.347470944642331
 20
5.28897836506692
 30
0.0
 10
4.647434353656293
 20
4.689118574815063
 30
0.0
 10
4.647434353656293
 20
4.689118574815063
 30
0.0
 10
4.647434353656293
 20
4.689118574815063
 30
0.0
 10
5.158411785064618
 20
4.455816052989328
 30
0.0
 10
5.158411785064618
 20
4.455816052989328
 30
0.0
 10
5.158411785064618
 20
4.455816052989328
 30
0.0
 10
5.136017452302611
 20
4.514832245928144
 30
0.0
 10
5.136017452302611
 20
4.514832245928144
 30
0.0
  0
HATCH
  5
127
330
122
100
AcDbEntity
  8
Layer 1
 62
    52
420
 14334976
100
AcDbHatch
 10
0.0
 20
0.0
 30
0.0
210
0.0
220
0.0
230
1.0
  2
SOLID
 70
     1
 71
     0
 91
        1
 92
        1
 93
        1
 72
     4
 94
        3
 73
     0
 74
     1
 95
       26
 96
       22
 40
0.0
 40
0.0
 40
0.0
 40
0.0
 40
1.0
 40
1.0
 40
1.0
 40
2.0
 40
2.0
 40
2.0
 40
3.0
 40
3.0
 40
3.0
 40
4.0
 40
4.0
 40
4.0
 40
5.0
 40
5.0
 40
5.0
 40
6.0
 40
6.0
 40
6.0
 40
7.0
 40
7.0
 40
7.0
 40
7.0
 10
5.136017452302611
 20
4.514832245928144
 10
4.906574443217827
 20
4.647434353656293
 10
4.749648184381935
 20
4.902266902710529
 10
4.709720796511679
 20
5.207744228250487
 10
4.674855769623382
 20
5.474705276995298
 10
4.729702129335245
 20
5.777423880383414
 10
4.859340903805663
 20
6.049588401217696
 10
4.859340903805663
 20
6.049588401217696
 10
4.527990856703551
 20
6.24086097967126
 10
4.527990856703551
 20
6.24086097967126
 10
4.527990856703551
 20
6.24086097967126
 10
4.347470944642331
 20
5.28897836506692
 10
4.347470944642331
 20
5.28897836506692
 10
4.347470944642331
 20
5.28897836506692
 10
4.647434353656293
 20
4.689118574815063
 10
4.647434353656293
 20
4.689118574815063
 10
4.647434353656293
 20
4.689118574815063
 10
5.158411785064618
 20
4.455816052989328
 10
5.158411785064618
 20
4.455816052989328
 10
5.158411785064618
 20
4.455816052989328
 10
5.136017452302611
 20
4.514832245928144
 10
5.136017452302611
 20
4.514832245928144
 97
        0
 97
        0
 75
     2
 76
     1
 98
        0
  0
SPLINE
  5
128
330
122
100
AcDbEntity
  8
Layer 1
370
     0
100
AcDbSpline
210
0.0
220
0.0
230
1.0
 70
    11
 71
     3
 72
    41
 73
    37
 74
     0
 42
0.0000000001
 43
0.0000000001
 12
1.0
 22
0.0
 32
0.0
 13
1.0
 23
0.0
 33
0.0
 40
0.0
 40
0.0
 40
0.0
 40
0.0
 40
1.0
 40
1.0
 40
1.0
 40
2.0
 40
2.0
 40
2.0
 40
3.0
 40
3.0
 40
3.0
 40
4.0
 40
4.0
 40
4.0
 40
5.0
 40
5.0
 40
5.0
 40
6.0
 40
6.0
 40
6.0
 40
7.0
 40
7.0
 40
7.0
 40
8.0
 40
8.0
 40
8.0
 40
9.0
 40
9.0
 40
9.0
 40
10.0
 40
10.0
 40
10.0
 40
11.0
 40
11.0
 40
11.0
 40
12.0
 40
12.0
 40
12.0
 40
12.0
 10
4.917665652317674
 20
4.641197242704305
 30
0.0
 10
4.688222519282367
 20
4.773453628219052
 30
0.0
 10
4.531299912174686
 20
5.028254427274097
 30
0.0
 10
4.491372524304429
 20
5.333767030590932
 30
0.0
 10
4.451441608656485
 20
5.639240828353202
 30
0.0
 10
4.528855276645578
 20
5.991263652705685
 30
0.0
 10
4.701762130048055
 20
6.290846061729368
 30
0.0
 10
4.874637347859863
 20
6.590089804095023
 30
0.0
 10
5.140875202178679
 20
6.833414742331732
 30
0.0
 10
5.425199972702728
 20
6.951443600431676
 30
0.0
 10
5.70969407655579
 20
7.069405430755552
 30
0.0
 10
6.008934442942222
 20
7.061238625408349
 30
0.0
 10
6.238208090850052
 20
6.928534212127254
 30
0.0
 10
6.238208090850052
 20
6.928534212127254
 30
0.0
 10
6.391479448050885
 20
6.93304623978992
 30
0.0
 10
6.391479448050885
 20
6.93304623978992
 30
0.0
 10
6.391479448050885
 20
6.93304623978992
 30
0.0
 10
6.846954353097419
 20
6.49982808417557
 30
0.0
 10
6.846954353097419
 20
6.49982808417557
 30
0.0
 10
6.846954353097419
 20
6.49982808417557
 30
0.0
 10
7.024687498243828
 20
5.522245609115776
 30
0.0
 10
7.024687498243828
 20
5.522245609115776
 30
0.0
 10
7.024687498243828
 20
5.522245609115776
 30
0.0
 10
6.824733053849384
 20
5.166783332041606
 30
0.0
 10
6.824733053849384
 20
5.166783332041606
 30
0.0
 10
6.824733053849384
 20
5.166783332041606
 30
0.0
 10
6.135990732346723
 20
4.466946191594263
 30
0.0
 10
6.135990732346723
 20
4.466946191594263
 30
0.0
 10
6.135990732346723
 20
4.466946191594263
 30
0.0
 10
5.536130942094865
 20
4.244770280595777
 30
0.0
 10
5.536130942094865
 20
4.244770280595777
 30
0.0
 10
5.536130942094865
 20
4.244770280595777
 30
0.0
 10
4.991770276529827
 20
4.478037524644633
 30
0.0
 10
4.991770276529827
 20
4.478037524644633
 30
0.0
 10
4.991770276529827
 20
4.478037524644633
 30
0.0
 10
4.917665652317674
 20
4.641197242704305
 30
0.0
 10
4.917665652317674
 20
4.641197242704305
 30
0.0
  0
HATCH
  5
129
330
122
100
AcDbEntity
  8
Layer 1
 62
    40
420
 16768256
100
AcDbHatch
 10
0.0
 20
0.0
 30
0.0
210
0.0
220
0.0
230
1.0
  2
SOLID
 70
     1
 71
     0
 91
        1
 92
        1
 93
        1
 72
     4
 94
        3
 73
     0
 74
     1
 95
       41
 96
       37
 40
0.0
 40
0.0
 40
0.0
 40
0.0
 40
1.0
 40
1.0
 40
1.0
 40
2.0
 40
2.0
 40
2.0
 40
3.0
 40
3.0
 40
3.0
 40
4.0
 40
4.0
 40
4.0
 40
5.0
 40
5.0
 40
5.0
 40
6.0
 40
6.0
 40
6.0
 40
7.0
 40
7.0
 40
7.0
 40
8.0
 40
8.0
 40
8.0
 40
9.0
 40
9.0
 40
9.0
 40
10.0
 40
10.0
 40
10.0
 40
11.0
 40
11.0
 40
11.0
 40
12.0
 40
12.0
 40
12.0
 40
12.0
 10
4.917665652317674
 20
4.641197242704305
 10
4.688222519282367
 20
4.773453628219052
 10
4.531299912174686
 20
5.028254427274097
 10
4.491372524304429
 20
5.333767030590932
 10
4.451441608656485
 20
5.639240828353202
 10
4.528855276645578
 20
5.991263652705685
 10
4.701762130048055
 20
6.290846061729368
 10
4.874637347859863
 20
6.590089804095023
 10
5.140875202178679
 20
6.833414742331732
 10
5.425199972702728
 20
6.951443600431676
 10
5.70969407655579
 20
7.069405430755552
 10
6.008934442942222
 20
7.061238625408349
 10
6.238208090850052
 20
6.928534212127254
 10
6.238208090850052
 20
6.928534212127254
 10
6.391479448050885
 20
6.93304623978992
 10
6.391479448050885
 20
6.93304623978992
 10
6.391479448050885
 20
6.93304623978992
 10
6.846954353097419
 20
6.49982808417557
 10
6.846954353097419
 20
6.49982808417557
 10
6.846954353097419
 20
6.49982808417557
 10
7.024687498243828
 20
5.522245609115776
 10
7.024687498243828
 20
5.522245609115776
 10
7.024687498243828
 20
5.522245609115776
 10
6.824733053849384
 20
5.166783332041606
 10
6.824733053849384
 20
5.166783332041606
 10
6.824733053849384
 20
5.166783332041606
 10
6.135990732346723
 20
4.466946191594263
 10
6.135990732346723
 20
4.466946191594263
 10
6.135990732346723
 20
4.466946191594263
 10
5.536130942094865
 20
4.244770280595777
 10
5.536130942094865
 20
4.244770280595777
 10
5.536130942094865
 20
4.244770280595777
 10
4.991770276529827
 20
4.478037524644633
 10
4.991770276529827
 20
4.478037524644633
 10
4.991770276529827
 20
4.478037524644633
 10
4.917665652317674
 20
4.641197242704305
 10
4.917665652317674
 20
4.641197242704305
 97
        0
 97
        0
 75
     2
 76
     1
 98
        0
  0
ENDBLK
  5
125
330
122
100
AcDbEntity
  8
0
100
AcDbBlockEnd
  0
BLOCK
  5
12E
330
12C
100
AcDbEntity
  8
0
100
AcDbBlockBegin
  2
block 34
 70
     0
 10
0.0
 20
0.0
 30
0.0
  3
block 34
  1

  0
SPLINE
  5
130
330
12C
100
AcDbEntity
  8
Layer 1
 62
     7
420
 16777215
370
     9
100
AcDbSpline
210
0.0
220
0.0
230
1.0
 70
     8
 71
     3
 72
    17
 73
    13
 74
     0
 42
0.0000000001
 43
0.0000000001
 12
1.0
 22
0.0
 32
0.0
 13
1.0
 23
0.0
 33
0.0
 40
0.0
 40
0.0
 40
0.0
 40
0.0
 40
1.0
 40
1.0
 40
1.0
 40
2.0
 40
2.0
 40
2.0
 40
3.0
 40
3.0
 40
3.0
 40
4.0
 40
4.0
 40
4.0
 40
4.0
 10
6.456729224164002
 20
6.802546687563686
 30
0.0
 10
6.227286091128695
 20
6.935148795291836
 30
0.0
 10
5.928045876540727
 20
6.943484933968052
 30
0.0
 10
5.643721106016678
 20
6.825456075868107
 30
0.0
 10
5.359258887549047
 20
6.707085023332449
 30
0.0
 10
5.092989147844799
 20
6.464067001754578
 30
0.0
 10
4.920113930032991
 20
6.164826942903244
 30
0.0
 10
4.747238712221184
 20
5.865240850365239
 30
0.0
 10
4.669793408641422
 20
5.513221553790444
 30
0.0
 10
4.709720796511679
 20
5.207744228250487
 30
0.0
 10
4.749648184381935
 20
4.902266902710529
 30
0.0
 10
4.906574443217827
 20
4.647434353656293
 30
0.0
 10
5.136017452302611
 20
4.514832245928144
 30
0.0
  0
SPLINE
  5
131
330
12C
100
AcDbEntity
  8
Layer 1
 62
     7
420
 16777215
370
    20
100
AcDbSpline
210
0.0
220
0.0
230
1.0
 70
     8
 71
     3
 72
    26
 73
    22
 74
     0
 42
0.0000000001
 43
0.0000000001
 12
1.0
 22
0.0
 32
0.0
 13
1.0
 23
0.0
 33
0.0
 40
0.0
 40
0.0
 40
0.0
 40
0.0
 40
1.0
 40
1.0
 40
1.0
 40
2.0
 40
2.0
 40
2.0
 40
3.0
 40
3.0
 40
3.0
 40
4.0
 40
4.0
 40
4.0
 40
5.0
 40
5.0
 40
5.0
 40
6.0
 40
6.0
 40
6.0
 40
7.0
 40
7.0
 40
7.0
 40
7.0
 10
5.534201387505338
 20
8.246060400736583
 30
0.0
 10
5.534201387505338
 20
8.246060400736583
 30
0.0
 10
5.534201387505338
 20
8.754106248886364
 30
0.0
 10
5.534201387505338
 20
8.754106248886364
 30
0.0
 10
5.534201387505338
 20
8.754106248886364
 30
0.0
 10
4.574878549951791
 20
9.307805068093664
 30
0.0
 10
4.574878549951791
 20
9.307805068093664
 30
0.0
 10
4.574878549951791
 20
9.307805068093664
 30
0.0
 10
4.186068059871173
 20
9.20348515408842
 30
0.0
 10
4.186068059871173
 20
9.20348515408842
 30
0.0
 10
3.871718373446457
 20
9.128675100441429
 30
0.0
 10
3.373384582489976
 20
9.075740796236339
 30
0.0
 10
2.966882277036048
 20
9.310577901356256
 30
0.0
 10
2.966882277036048
 20
9.310577901356256
 30
0.0
 10
2.682384638218302
 20
9.474788897166885
 30
0.0
 10
2.682384638218302
 20
9.474788897166885
 30
0.0
 10
2.682384638218302
 20
9.474788897166885
 30
0.0
 10
1.223853138582919
 20
9.083889962695103
 30
0.0
 10
1.223853138582919
 20
9.083889962695103
 30
0.0
 10
1.223853138582919
 20
9.083889962695103
 30
0.0
 10
1.223853138582919
 20
8.530367532372193
 30
0.0
 10
1.223853138582919
 20
8.530367532372193
 30
0.0
  0
SPLINE
  5
132
330
12C
100
AcDbEntity
  8
Layer 1
 62
     7
420
 16777215
370
    20
100
AcDbSpline
210
0.0
220
0.0
230
1.0
 70
     8
 71
     3
 72
    14
 73
    10
 74
     0
 42
0.0000000001
 43
0.0000000001
 12
1.0
 22
0.0
 32
0.0
 13
1.0
 23
0.0
 33
0.0
 40
0.0
 40
0.0
 40
0.0
 40
0.0
 40
1.0
 40
1.0
 40
1.0
 40
2.0
 40
2.0
 40
2.0
 40
3.0
 40
3.0
 40
3.0
 40
3.0
 10
0.924612916435511
 20
7.767348024060664
 30
0.0
 10
0.924612916435511
 20
7.767348024060664
 30
0.0
 10
0.924612916435511
 20
8.350895370284242
 30
0.0
 10
0.924612916435511
 20
8.350895370284242
 30
0.0
 10
0.924612916435511
 20
8.350895370284242
 30
0.0
 10
1.309945027450299
 20
8.45417833121978
 30
0.0
 10
1.309945027450299
 20
8.45417833121978
 30
0.0
 10
1.533341555172211
 20
8.513882227237213
 30
0.0
 10
1.695453527353904
 20
8.605350447125886
 30
0.0
 10
1.697880638464408
 20
8.716263777629583
 30
0.0
  0
SPLINE
  5
133
330
12C
100
AcDbEntity
  8
Layer 1
 62
     7
420
 16777215
370
     9
100
AcDbSpline
210
0.0
220
0.0
230
1.0
 70
     8
 71
     3
 72
    11
 73
     7
 74
     0
 42
0.0000000001
 43
0.0000000001
 12
1.0
 22
0.0
 32
0.0
 13
1.0
 23
0.0
 33
0.0
 40
0.0
 40
0.0
 40
0.0
 40
0.0
 40
1.0
 40
1.0
 40
1.0
 40
2.0
 40
2.0
 40
2.0
 40
2.0
 10
1.697880638464408
 20
8.716263777629583
 30
0.0
 10
1.699277638464061
 20
8.782755553359868
 30
0.0
 10
1.64303427736702
 20
8.856341246278133
 30
0.0
 10
1.508177916289633
 20
8.93426985540112
 30
0.0
 10
1.508177916289633
 20
8.93426985540112
 30
0.0
 10
1.241389721911885
 20
9.088229129251069
 30
0.0
 10
1.241389721911885
 20
9.088229129251069
 30
0.0
  0
POLYLINE
  5
134
330
12C
100
AcDbEntity
  8
Layer 1
 62
     7
420
 16777215
370
     9
100
AcDb2dPolyline
 66
     1
 10
0.0
 20
0.0
 30
0.0
  0
VERTEX
  5
135
330
134
100
AcDbEntity
  8
Layer 1
 62
     7
420
 16777215
370
     9
100
AcDbVertex
100
AcDb2dVertex
 10
0.9395459997651245
 20
8.350895370284242
 30
0.0
  0
VERTEX
  5
136
330
134
100
AcDbEntity
  8
Layer 1
 62
     7
420
 16777215
370
     9
100
AcDbVertex
100
AcDb2dVertex
 10
1.937589610626699
 20
7.774632884985923
 30
0.0
  0
VERTEX
  5
137
330
134
100
AcDbEntity
  8
Layer 1
 62
     7
420
 16777215
370
     9
100
AcDbVertex
100
AcDb2dVertex
 10
1.937589610626699
 20
7.183952372277661
 30
0.0
  0
VERTEX
  5
138
330
134
100
AcDbEntity
  8
Layer 1
 62
     7
420
 16777215
370
     9
100
AcDbVertex
100
AcDb2dVertex
 10
2.65896019377969
 20
6.767477220530378
 30
0.0
  0
VERTEX
  5
139
330
134
100
AcDbEntity
  8
Layer 1
 62
     7
420
 16777215
370
     9
100
AcDbVertex
100
AcDb2dVertex
 10
2.65896019377969
 20
3.713261183044592
 30
0.0
  0
SEQEND
  5
13A
330
134
100
AcDbEntity
  8
Layer 1
 62
     7
420
 16777215
370
     9
  0
POLYLINE
  5
13B
330
12C
100
AcDbEntity
  8
Layer 1
 62
     7
420
 16777215
370
     9
100
AcDb2dPolyline
 66
     1
 10
0.0
 20
0.0
 30
0.0
  0
VERTEX
  5
13C
330
13B
100
AcDbEntity
  8
Layer 1
 62
     7
420
 16777215
370
     9
100
AcDbVertex
100
AcDb2dVertex
 10
2.660011471557214
 20
6.779983021472666
 30
0.0
  0
VERTEX
  5
13D
330
13B
100
AcDbEntity
  8
Layer 1
 62
     7
420
 16777215
370
     9
100
AcDbVertex
100
AcDb2dVertex
 10
3.700582350034723
 20
7.058829153247598
 30
0.0
  0
VERTEX
  5
13E
330
13B
100
AcDbEntity
  8
Layer 1
 62
     7
420
 16777215
370
     9
100
AcDbVertex
100
AcDb2dVertex
 10
3.700582350034723
 20
7.677601359683626
 30
0.0
  0
VERTEX
  5
13F
330
13B
100
AcDbEntity
  8
Layer 1
 62
     7
420
 16777215
370
     9
100
AcDbVertex
100
AcDb2dVertex
 10
5.146629007587443
 20
8.065191238684273
 30
0.0
  0
SEQEND
  5
140
330
13B
100
AcDbEntity
  8
Layer 1
 62
     7
420
 16777215
370
     9
  0
SPLINE
  5
141
330
12C
100
AcDbEntity
  8
Layer 1
 62
     7
420
 16777215
370
     9
100
AcDbSpline
210
0.0
220
0.0
230
1.0
 70
     8
 71
     3
 72
    11
 73
     7
 74
     0
 42
0.0000000001
 43
0.0000000001
 12
1.0
 22
0.0
 32
0.0
 13
1.0
 23
0.0
 33
0.0
 40
0.0
 40
0.0
 40
0.0
 40
0.0
 40
1.0
 40
1.0
 40
1.0
 40
2.0
 40
2.0
 40
2.0
 40
2.0
 10
4.80587390516972
 20
8.397765424644042
 30
0.0
 10
4.829333626793434
 20
8.495484866595456
 30
0.0
 10
4.961420678979168
 20
8.576376808976176
 30
0.0
 10
5.068492259580878
 20
8.605177586019185
 30
0.0
 10
5.068492259580878
 20
8.605177586019185
 30
0.0
 10
5.517183248133817
 20
8.725291360732605
 30
0.0
 10
5.517183248133817
 20
8.725291360732605
 30
0.0
  0
POLYLINE
  5
142
330
12C
100
AcDbEntity
  8
Layer 1
 62
     7
420
 16777215
370
     9
100
AcDb2dPolyline
 66
     1
 10
0.0
 20
0.0
 30
0.0
  0
VERTEX
  5
143
330
142
100
AcDbEntity
  8
Layer 1
 62
     7
420
 16777215
370
     9
100
AcDbVertex
100
AcDb2dVertex
 10
0.2065506832816981
 20
8.18635629114865
 30
0.0
  0
VERTEX
  5
144
330
142
100
AcDbEntity
  8
Layer 1
 62
     7
420
 16777215
370
     9
100
AcDbVertex
100
AcDb2dVertex
 10
0.9282641664346042
 20
7.769602274003153
 30
0.0
  0
SEQEND
  5
145
330
142
100
AcDbEntity
  8
Layer 1
 62
     7
420
 16777215
370
     9
  0
SPLINE
  5
146
330
12C
100
AcDbEntity
  8
Layer 1
 62
     7
420
 16777215
370
     9
100
AcDbSpline
210
0.0
220
0.0
230
1.0
 70
     8
 71
     3
 72
    14
 73
    10
 74
     0
 42
0.0000000001
 43
0.0000000001
 12
1.0
 22
0.0
 32
0.0
 13
1.0
 23
0.0
 33
0.0
 40
0.0
 40
0.0
 40
0.0
 40
0.0
 40
1.0
 40
1.0
 40
1.0
 40
2.0
 40
2.0
 40
2.0
 40
3.0
 40
3.0
 40
3.0
 40
3.0
 10
1.957038249510728
 20
7.782436329231285
 30
0.0
 10
1.957038249510728
 20
7.782436329231285
 30
0.0
 10
2.345834638302441
 20
7.88657985435214
 30
0.0
 10
2.345834638302441
 20
7.88657985435214
 30
0.0
 10
2.710860860433412
 20
7.984489998003888
 30
0.0
 10
3.105562749223593
 20
7.982235546356205
 30
0.0
 10
3.348220943607398
 20
7.842158077707657
 30
0.0
 10
3.348220943607398
 20
7.842158077707657
 30
0.0
 10
3.677485989512849
 20
7.652091999223313
 30
0.0
 10
3.677485989512849
 20
7.652091999223313
 30
0.0
  0
SPLINE
  5
147
330
12C
100
AcDbEntity
  8
Layer 1
 62
     7
420
 16777215
370
     9
100
AcDbSpline
210
0.0
220
0.0
230
1.0
 70
     8
 71
     3
 72
    11
 73
     7
 74
     0
 42
0.0000000001
 43
0.0000000001
 12
1.0
 22
0.0
 32
0.0
 13
1.0
 23
0.0
 33
0.0
 40
0.0
 40
0.0
 40
0.0
 40
0.0
 40
1.0
 40
1.0
 40
1.0
 40
2.0
 40
2.0
 40
2.0
 40
2.0
 10
3.707165276850987
 20
7.064374998233906
 30
0.0
 10
3.707165276850987
 20
7.064374998233906
 30
0.0
 10
3.433967110252617
 20
7.22197123241883
 30
0.0
 10
3.433967110252617
 20
7.22197123241883
 30
0.0
 10
3.381551388043485
 20
7.25235598164365
 30
0.0
 10
3.318023165837146
 20
7.280641703144243
 30
0.0
 10
3.243385971411383
 20
7.303723952555367
 30
0.0
  0
POLYLINE
  5
148
330
12C
100
AcDbEntity
  8
Layer 1
 62
     7
420
 16777215
370
     9
100
AcDb2dPolyline
 66
     1
 10
0.0
 20
0.0
 30
0.0
  0
VERTEX
  5
149
330
148
100
AcDbEntity
  8
Layer 1
 62
     7
420
 16777215
370
     9
100
AcDbVertex
100
AcDb2dVertex
 10
2.345834638302441
 20
7.288632119607057
 30
0.0
  0
VERTEX
  5
14A
330
148
100
AcDbEntity
  8
Layer 1
 62
     7
420
 16777215
370
     9
100
AcDbVertex
100
AcDb2dVertex
 10
1.970750721729537
 20
7.188122205504612
 30
0.0
  0
SEQEND
  5
14B
330
148
100
AcDbEntity
  8
Layer 1
 62
     7
420
 16777215
370
     9
  0
SPLINE
  5
14C
330
12C
100
AcDbEntity
  8
Layer 1
 62
     7
420
 16777215
370
     9
100
AcDbSpline
210
0.0
220
0.0
230
1.0
 70
     8
 71
     3
 72
    17
 73
    13
 74
     0
 42
0.0000000001
 43
0.0000000001
 12
1.0
 22
0.0
 32
0.0
 13
1.0
 23
0.0
 33
0.0
 40
0.0
 40
0.0
 40
0.0
 40
0.0
 40
1.0
 40
1.0
 40
1.0
 40
2.0
 40
2.0
 40
2.0
 40
3.0
 40
3.0
 40
3.0
 40
4.0
 40
4.0
 40
4.0
 40
4.0
 10
2.390277582735768
 20
7.045289720460925
 30
0.0
 10
2.390277582735768
 20
6.999364932542434
 30
0.0
 10
2.434872221613519
 20
6.954234072582707
 30
0.0
 10
2.51107927715
 20
6.92195490673955
 30
0.0
 10
2.587628527130859
 20
6.889675740896394
 30
0.0
 10
2.694890610437378
 20
6.870932658041236
 30
0.0
 10
2.802861777077077
 20
6.870932658041236
 30
0.0
 10
2.910811777050072
 20
6.870932658041236
 30
0.0
 10
3.018264360356544
 20
6.890017935332108
 30
0.0
 10
3.094453777004169
 20
6.922300628952953
 30
0.0
 10
3.170830165873963
 20
6.95457979479611
 30
0.0
 10
3.21527311030729
 20
6.999710831583386
 30
0.0
 10
3.21527311030729
 20
7.045462403588612
 30
0.0
  0
SPLINE
  5
14D
330
12C
100
AcDbEntity
  8
Layer 1
 62
     7
420
 16777215
370
    20
100
AcDbSpline
210
0.0
220
0.0
230
1.0
 70
     8
 71
     3
 72
    23
 73
    19
 74
     0
 42
0.0000000001
 43
0.0000000001
 12
1.0
 22
0.0
 32
0.0
 13
1.0
 23
0.0
 33
0.0
 40
0.0
 40
0.0
 40
0.0
 40
0.0
 40
1.0
 40
1.0
 40
1.0
 40
2.0
 40
2.0
 40
2.0
 40
3.0
 40
3.0
 40
3.0
 40
4.0
 40
4.0
 40
4.0
 40
5.0
 40
5.0
 40
5.0
 40
6.0
 40
6.0
 40
6.0
 40
6.0
 10
3.21527311030729
 20
7.045462403588612
 30
0.0
 10
3.21527311030729
 20
7.045462403588612
 30
0.0
 10
3.21527311030729
 20
7.299744619323555
 30
0.0
 10
3.21527311030729
 20
7.299744619323555
 30
0.0
 10
3.21527311030729
 20
7.345390534825697
 30
0.0
 10
3.170830165873963
 20
7.390694442596771
 30
0.0
 10
3.094453777004169
 20
7.422973609255366
 30
0.0
 10
3.01809149924548
 20
7.455256115356126
 30
0.0
 10
2.910811777050072
 20
7.473995670433595
 30
0.0
 10
2.802688915965981
 20
7.473995670433595
 30
0.0
 10
2.694717749326314
 20
7.473822809326894
 30
0.0
 10
2.587455666019794
 20
7.455083254249424
 30
0.0
 10
2.51107927715
 20
7.422804088406268
 30
0.0
 10
2.434699360502423
 20
7.390521394785424
 30
0.0
 10
2.390277582735768
 20
7.345048340389982
 30
0.0
 10
2.390277582735768
 20
7.299571942619564
 30
0.0
 10
2.390277582735768
 20
7.299571942619564
 30
0.0
 10
2.390277582735768
 20
7.045289720460925
 30
0.0
 10
2.390277582735768
 20
7.045289720460925
 30
0.0
  0
POLYLINE
  5
14E
330
12C
100
AcDbEntity
  8
Layer 1
 62
     7
420
 16777215
370
     9
100
AcDb2dPolyline
 66
     1
 10
0.0
 20
0.0
 30
0.0
  0
VERTEX
  5
14F
330
14E
100
AcDbEntity
  8
Layer 1
 62
     7
420
 16777215
370
     9
100
AcDbVertex
100
AcDb2dVertex
 10
2.540412749364897
 20
7.408403887036802
 30
0.0
  0
VERTEX
  5
150
330
14E
100
AcDbEntity
  8
Layer 1
 62
     7
420
 16777215
370
     9
100
AcDbVertex
100
AcDb2dVertex
 10
2.988758027030583
 20
7.149433067602766
 30
0.0
  0
VERTEX
  5
151
330
14E
100
AcDbEntity
  8
Layer 1
 62
     7
420
 16777215
370
     9
100
AcDbVertex
100
AcDb2dVertex
 10
2.988758027030583
 20
7.034332264983677
 30
0.0
  0
SEQEND
  5
152
330
14E
100
AcDbEntity
  8
Layer 1
 62
     7
420
 16777215
370
     9
  0
SPLINE
  5
153
330
12C
100
AcDbEntity
  8
Layer 1
 62
     7
420
 16777215
370
     9
100
AcDbSpline
210
0.0
220
0.0
230
1.0
 70
     8
 71
     3
 72
    14
 73
    10
 74
     0
 42
0.0000000001
 43
0.0000000001
 12
1.0
 22
0.0
 32
0.0
 13
1.0
 23
0.0
 33
0.0
 40
0.0
 40
0.0
 40
0.0
 40
0.0
 40
1.0
 40
1.0
 40
1.0
 40
2.0
 40
2.0
 40
2.0
 40
3.0
 40
3.0
 40
3.0
 40
3.0
 10
2.390277582735768
 20
7.299571942619564
 30
0.0
 10
2.390277582735768
 20
7.253908203826272
 30
0.0
 10
2.434872221613519
 20
7.208431621653143
 30
0.0
 10
2.51107927715
 20
7.176339428027439
 30
0.0
 10
2.587628527130859
 20
7.144024984407404
 30
0.0
 10
2.694890610437378
 20
7.125285429329935
 30
0.0
 10
2.802861777077077
 20
7.125285429329935
 30
0.0
 10
2.856829721508007
 20
7.125285429329935
 30
0.0
 10
2.910638915939007
 20
7.129970318099302
 30
0.0
 10
2.960458193704322
 20
7.138825040095622
 30
0.0
  0
SPLINE
  5
154
330
12C
100
AcDbEntity
  8
Layer 1
 62
     7
420
 16777215
370
     9
100
AcDbSpline
210
0.0
220
0.0
230
1.0
 70
     8
 71
     3
 72
     8
 73
     4
 74
     0
 42
0.0000000001
 43
0.0000000001
 12
1.0
 22
0.0
 32
0.0
 13
1.0
 23
0.0
 33
0.0
 40
0.0
 40
0.0
 40
0.0
 40
0.0
 40
1.0
 40
1.0
 40
1.0
 40
1.0
 10
3.138896721437496
 20
7.198716121901006
 30
0.0
 10
3.187661193647535
 20
7.228049593374869
 30
0.0
 10
3.21527311030729
 20
7.263810675795861
 30
0.0
 10
3.21527311030729
 20
7.299744619323555
 30
0.0
  0
SPLINE
  5
155
330
12C
100
AcDbEntity
  8
Layer 1
 62
     7
420
 16777215
370
     9
100
AcDbSpline
210
0.0
220
0.0
230
1.0
 70
     8
 71
     3
 72
    11
 73
     7
 74
     0
 42
0.0000000001
 43
0.0000000001
 12
1.0
 22
0.0
 32
0.0
 13
1.0
 23
0.0
 33
0.0
 40
0.0
 40
0.0
 40
0.0
 40
0.0
 40
1.0
 40
1.0
 40
1.0
 40
2.0
 40
2.0
 40
2.0
 40
2.0
 10
0.5203648609810234
 20
8.137228459068673
 30
0.0
 10
0.5203648609810234
 20
8.09158254356653
 30
0.0
 10
0.5648078054143506
 20
8.046278822500103
 30
0.0
 10
0.641166555395256
 20
8.013999656656946
 30
0.0
 10
0.7175429442650495
 20
7.981699324147662
 30
0.0
 10
0.8248085553493537
 20
7.962959769070193
 30
0.0
 10
0.9327761942112363
 20
7.963132630176894
 30
0.0
  0
SPLINE
  5
156
330
12C
100
AcDbEntity
  8
Layer 1
 62
     7
420
 16777215
370
    20
100
AcDbSpline
210
0.0
220
0.0
230
1.0
 70
     8
 71
     3
 72
    20
 73
    16
 74
     0
 42
0.0000000001
 43
0.0000000001
 12
1.0
 22
0.0
 32
0.0
 13
1.0
 23
0.0
 33
0.0
 40
0.0
 40
0.0
 40
0.0
 40
0.0
 40
1.0
 40
1.0
 40
1.0
 40
2.0
 40
2.0
 40
2.0
 40
3.0
 40
3.0
 40
3.0
 40
4.0
 40
4.0
 40
4.0
 40
5.0
 40
5.0
 40
5.0
 40
5.0
 10
1.299368749675173
 20
8.471351339433376
 30
0.0
 10
1.279923638568895
 20
8.487490922354954
 30
0.0
 10
1.254583610797469
 20
8.5022546719783
 30
0.0
 10
1.224385833027249
 20
8.515103053426765
 30
0.0
 10
1.14818230526852
 20
8.547212670831327
 30
0.0
 10
1.040747360850935
 20
8.565955753686483
 30
0.0
 10
0.9327761942112363
 20
8.565955753686483
 30
0.0
 10
0.8248085553493537
 20
8.565955753686483
 30
0.0
 10
0.717373610931769
 20
8.547039809724625
 30
0.0
 10
0.641166555395256
 20
8.51474300499303
 30
0.0
 10
0.5648078054143506
 20
8.482463839149872
 30
0.0
 10
0.5203648609810234
 20
8.437160118083446
 30
0.0
 10
0.5203648609810234
 20
8.391510674803614
 30
0.0
 10
0.5203648609810234
 20
8.391510674803614
 30
0.0
 10
0.5203648609810234
 20
8.137228459068673
 30
0.0
 10
0.5203648609810234
 20
8.137228459068673
 30
0.0
  0
POLYLINE
  5
157
330
12C
100
AcDbEntity
  8
Layer 1
 62
     7
420
 16777215
370
     9
100
AcDb2dPolyline
 66
     1
 10
0.0
 20
0.0
 30
0.0
  0
VERTEX
  5
158
330
157
100
AcDbEntity
  8
Layer 1
 62
     7
420
 16777215
370
     9
100
AcDbVertex
100
AcDb2dVertex
 10
0.6703306942768725
 20
8.500515477578226
 30
0.0
  0
VERTEX
  5
159
330
157
100
AcDbEntity
  8
Layer 1
 62
     7
420
 16777215
370
     9
100
AcDbVertex
100
AcDb2dVertex
 10
0.9258335275463154
 20
8.35297675912003
 30
0.0
  0
SEQEND
  5
15A
330
157
100
AcDbEntity
  8
Layer 1
 62
     7
420
 16777215
370
     9
  0
SPLINE
  5
15B
330
12C
100
AcDbEntity
  8
Layer 1
 62
     7
420
 16777215
370
     9
100
AcDbSpline
210
0.0
220
0.0
230
1.0
 70
     8
 71
     3
 72
    11
 73
     7
 74
     0
 42
0.0000000001
 43
0.0000000001
 12
1.0
 22
0.0
 32
0.0
 13
1.0
 23
0.0
 33
0.0
 40
0.0
 40
0.0
 40
0.0
 40
0.0
 40
1.0
 40
1.0
 40
1.0
 40
2.0
 40
2.0
 40
2.0
 40
2.0
 10
0.5203648609810234
 20
8.391510674803614
 30
0.0
 10
0.5203648609810234
 20
8.345864759301472
 30
0.0
 10
0.5648078054143506
 20
8.300561038235045
 30
0.0
 10
0.641166555395256
 20
8.268281872391888
 30
0.0
 10
0.7175429442650495
 20
8.236172039877745
 30
0.0
 10
0.8248085553493537
 20
8.217241984805135
 30
0.0
 10
0.9327761942112363
 20
8.217414845911836
 30
0.0
  0
SPLINE
  5
15C
330
12C
100
AcDbEntity
  8
Layer 1
 62
     7
420
 16777215
370
    20
100
AcDbSpline
210
0.0
220
0.0
230
1.0
 70
     8
 71
     3
 72
    17
 73
    13
 74
     0
 42
0.0000000001
 43
0.0000000001
 12
1.0
 22
0.0
 32
0.0
 13
1.0
 23
0.0
 33
0.0
 40
0.0
 40
0.0
 40
0.0
 40
0.0
 40
1.0
 40
1.0
 40
1.0
 40
2.0
 40
2.0
 40
2.0
 40
3.0
 40
3.0
 40
3.0
 40
4.0
 40
4.0
 40
4.0
 40
4.0
 10
4.02116561963374
 20
9.176578793663747
 30
0.0
 10
4.000514009049495
 20
9.197593765349833
 30
0.0
 10
3.970298593153688
 20
9.21702499769576
 30
0.0
 10
3.932128038571945
 20
9.233164347775686
 30
0.0
 10
3.85575165163158
 20
9.265447041396529
 30
0.0
 10
3.748486043257042
 20
9.284204235362438
 30
0.0
 10
3.640518407122638
 20
9.284031374255736
 30
0.0
 10
3.532550770988232
 20
9.284031374255736
 30
0.0
 10
3.425285249143666
 20
9.265101319183128
 30
0.0
 10
3.348908860273872
 20
9.232995014446672
 30
0.0
 10
3.31073830472788
 20
9.216682570418392
 30
0.0
 10
3.280522888068772
 20
9.19740679313238
 30
0.0
 10
3.259871276962826
 20
9.176236599228034
 30
0.0
  0
SPLINE
  5
15D
330
12C
100
AcDbEntity
  8
Layer 1
 62
     7
420
 16777215
370
     9
100
AcDbSpline
210
0.0
220
0.0
230
1.0
 70
     8
 71
     3
 72
    17
 73
    13
 74
     0
 42
0.0000000001
 43
0.0000000001
 12
1.0
 22
0.0
 32
0.0
 13
1.0
 23
0.0
 33
0.0
 40
0.0
 40
0.0
 40
0.0
 40
0.0
 40
1.0
 40
1.0
 40
1.0
 40
2.0
 40
2.0
 40
2.0
 40
3.0
 40
3.0
 40
3.0
 40
4.0
 40
4.0
 40
4.0
 40
4.0
 10
5.188450812076036
 20
7.707816775579433
 30
0.0
 10
5.201990554255077
 20
7.69964997023223
 30
0.0
 10
5.217078728012344
 20
7.692019387093569
 30
0.0
 10
5.233927394249165
 20
7.684889748386572
 30
0.0
 10
5.31030378118953
 20
7.652607054765728
 30
0.0
 10
5.417721084004642
 20
7.633867499688258
 30
0.0
 10
5.525692247916735
 20
7.633867499688258
 30
0.0
 10
5.633490550722126
 20
7.634036833017271
 30
0.0
 10
5.740770270207415
 20
7.652779915872429
 30
0.0
 10
5.817111379370902
 20
7.685076720604025
 30
0.0
 10
5.893491294088955
 20
7.717359414224869
 30
0.0
 10
5.937930709621877
 20
7.76283246862031
 30
0.0
 10
5.937930709621877
 20
7.808309050793439
 30
0.0
  0
SPLINE
  5
15E
330
12C
100
AcDbEntity
  8
Layer 1
 62
     7
420
 16777215
370
    20
100
AcDbSpline
210
0.0
220
0.0
230
1.0
 70
     8
 71
     3
 72
    20
 73
    16
 74
     0
 42
0.0000000001
 43
0.0000000001
 12
1.0
 22
0.0
 32
0.0
 13
1.0
 23
0.0
 33
0.0
 40
0.0
 40
0.0
 40
0.0
 40
0.0
 40
1.0
 40
1.0
 40
1.0
 40
2.0
 40
2.0
 40
2.0
 40
3.0
 40
3.0
 40
3.0
 40
4.0
 40
4.0
 40
4.0
 40
5.0
 40
5.0
 40
5.0
 40
5.0
 10
5.937930709621877
 20
7.808309050793439
 30
0.0
 10
5.937930709621877
 20
7.808309050793439
 30
0.0
 10
5.937930709621877
 20
8.062764127635083
 30
0.0
 10
5.937930709621877
 20
8.062764127635083
 30
0.0
 10
5.937761376292864
 20
8.108410043137225
 30
0.0
 10
5.893318432982253
 20
8.153713764203653
 30
0.0
 10
5.817111379370902
 20
8.18599293004681
 30
0.0
 10
5.740770270207415
 20
8.218120401449392
 30
0.0
 10
5.633317689615425
 20
8.236859956526862
 30
0.0
 10
5.525519386810034
 20
8.236859956526862
 30
0.0
 10
5.417551750675629
 20
8.236859956526862
 30
0.0
 10
5.31030378118953
 20
8.217929901454252
 30
0.0
 10
5.233927394249165
 20
8.185650735611095
 30
0.0
 10
5.194342200814623
 20
8.168992775735525
 30
0.0
 10
5.163611729376401
 20
8.148856014327585
 30
0.0
 10
5.142804896573893
 20
8.126980264885681
 30
0.0
  0
POLYLINE
  5
15F
330
12C
100
AcDbEntity
  8
Layer 1
 62
     7
420
 16777215
370
     9
100
AcDb2dPolyline
 66
     1
 10
0.0
 20
0.0
 30
0.0
  0
VERTEX
  5
160
330
15F
100
AcDbEntity
  8
Layer 1
 62
     7
420
 16777215
370
     9
100
AcDbVertex
100
AcDb2dVertex
 10
5.262901032398875
 20
8.171250553512749
 30
0.0
  0
VERTEX
  5
161
330
15F
100
AcDbEntity
  8
Layer 1
 62
     7
420
 16777215
370
     9
100
AcDbVertex
100
AcDb2dVertex
 10
5.711588493174126
 20
7.912452775799663
 30
0.0
  0
VERTEX
  5
162
330
15F
100
AcDbEntity
  8
Layer 1
 62
     7
420
 16777215
370
     9
100
AcDbVertex
100
AcDb2dVertex
 10
5.711588493174126
 20
7.797369412183643
 30
0.0
  0
SEQEND
  5
163
330
15F
100
AcDbEntity
  8
Layer 1
 62
     7
420
 16777215
370
     9
  0
SPLINE
  5
164
330
12C
100
AcDbEntity
  8
Layer 1
 62
     7
420
 16777215
370
     9
100
AcDbSpline
210
0.0
220
0.0
230
1.0
 70
     8
 71
     3
 72
    14
 73
    10
 74
     0
 42
0.0000000001
 43
0.0000000001
 12
1.0
 22
0.0
 32
0.0
 13
1.0
 23
0.0
 33
0.0
 40
0.0
 40
0.0
 40
0.0
 40
0.0
 40
1.0
 40
1.0
 40
1.0
 40
2.0
 40
2.0
 40
2.0
 40
3.0
 40
3.0
 40
3.0
 40
3.0
 10
5.205814533855273
 20
7.952365852673799
 30
0.0
 10
5.214842116958293
 20
7.947853825011133
 30
0.0
 10
5.224039165360676
 20
7.943338269570779
 30
0.0
 10
5.233927394249165
 20
7.939189603009954
 30
0.0
 10
5.31030378118953
 20
7.90688927050067
 30
0.0
 10
5.417721084004642
 20
7.888149715423201
 30
0.0
 10
5.525692247916735
 20
7.888322775805689
 30
0.0
 10
5.57950496876608
 20
7.888322775805689
 30
0.0
 10
5.633317689615425
 20
7.893007465299269
 30
0.0
 10
5.68330629945122
 20
7.901689326188888
 30
0.0
  0
SPLINE
  5
165
330
12C
100
AcDbEntity
  8
Layer 1
 62
     7
420
 16777215
370
    20
100
AcDbSpline
210
0.0
220
0.0
230
1.0
 70
     8
 71
     3
 72
    14
 73
    10
 74
     0
 42
0.0000000001
 43
0.0000000001
 12
1.0
 22
0.0
 32
0.0
 13
1.0
 23
0.0
 33
0.0
 40
0.0
 40
0.0
 40
0.0
 40
0.0
 40
1.0
 40
1.0
 40
1.0
 40
2.0
 40
2.0
 40
2.0
 40
3.0
 40
3.0
 40
3.0
 40
3.0
 10
5.158411785064618
 20
7.547602751889055
 30
0.0
 10
5.158411785064618
 20
7.547602751889055
 30
0.0
 10
5.158411785064618
 20
8.066588238648633
 30
0.0
 10
5.158411785064618
 20
8.066588238648633
 30
0.0
 10
5.158411785064618
 20
8.066588238648633
 30
0.0
 10
4.943023318337413
 20
8.191041386841125
 30
0.0
 10
4.943023318337413
 20
8.191041386841125
 30
0.0
 10
4.822891904735554
 20
8.260287928151387
 30
0.0
 10
4.790267016678995
 20
8.332670870749189
 30
0.0
 10
4.80587390516972
 20
8.397765424644042
 30
0.0
  0
POLYLINE
  5
166
330
12C
100
AcDbEntity
  8
Layer 1
 62
     7
420
 16777215
370
     9
100
AcDb2dPolyline
 66
     1
 10
0.0
 20
0.0
 30
0.0
  0
VERTEX
  5
167
330
166
100
AcDbEntity
  8
Layer 1
 62
     7
420
 16777215
370
     9
100
AcDbVertex
100
AcDb2dVertex
 10
6.205583202793493
 20
7.752411413330618
 30
0.0
  0
VERTEX
  5
168
330
166
100
AcDbEntity
  8
Layer 1
 62
     7
420
 16777215
370
     9
100
AcDbVertex
100
AcDb2dVertex
 10
5.268997032243353
 20
7.50143825306681
 30
0.0
  0
SEQEND
  5
169
330
166
100
AcDbEntity
  8
Layer 1
 62
     7
420
 16777215
370
     9
  0
SPLINE
  5
16A
330
12C
100
AcDbEntity
  8
Layer 1
 62
     7
420
 16777215
370
     9
100
AcDbSpline
210
0.0
220
0.0
230
1.0
 70
     8
 71
     3
 72
    17
 73
    13
 74
     0
 42
0.0000000001
 43
0.0000000001
 12
1.0
 22
0.0
 32
0.0
 13
1.0
 23
0.0
 33
0.0
 40
0.0
 40
0.0
 40
0.0
 40
0.0
 40
1.0
 40
1.0
 40
1.0
 40
2.0
 40
2.0
 40
2.0
 40
3.0
 40
3.0
 40
3.0
 40
4.0
 40
4.0
 40
4.0
 40
4.0
 10
3.84169345754579
 20
5.265381060113381
 30
0.0
 10
3.613439185591264
 20
5.396949528979013
 30
0.0
 10
3.457395082468981
 20
5.650713161393852
 30
0.0
 10
3.417481804701174
 20
5.954468931422174
 30
0.0
 10
3.37772727693336
 20
6.258566895886212
 30
0.0
 10
3.454795110247412
 20
6.608829359172494
 30
0.0
 10
3.626978887982141
 20
6.907036109384382
 30
0.0
 10
3.79882037530624
 20
7.204970871741434
 30
0.0
 10
4.063869368544276
 20
7.446747115573208
 30
0.0
 10
4.346952361322228
 20
7.564430251459751
 30
0.0
 10
4.629897770770356
 20
7.681771386968452
 30
0.0
 10
4.927554013176512
 20
7.673604387563374
 30
0.0
 10
5.155998785126179
 20
7.541693724262029
 30
0.0
  0
SPLINE
  5
16B
330
12C
100
AcDbEntity
  8
Layer 1
 62
     7
420
 16777215
370
    20
100
AcDbSpline
210
0.0
220
0.0
230
1.0
 70
     8
 71
     3
 72
    29
 73
    25
 74
     0
 42
0.0000000001
 43
0.0000000001
 12
1.0
 22
0.0
 32
0.0
 13
1.0
 23
0.0
 33
0.0
 40
0.0
 40
0.0
 40
0.0
 40
0.0
 40
1.0
 40
1.0
 40
1.0
 40
2.0
 40
2.0
 40
2.0
 40
3.0
 40
3.0
 40
3.0
 40
4.0
 40
4.0
 40
4.0
 40
5.0
 40
5.0
 40
5.0
 40
6.0
 40
6.0
 40
6.0
 40
7.0
 40
7.0
 40
7.0
 40
8.0
 40
8.0
 40
8.0
 40
8.0
 10
5.155998785126179
 20
7.541693724262029
 30
0.0
 10
5.155998785126179
 20
7.541693724262029
 30
0.0
 10
6.456729224164002
 20
6.802546687563686
 30
0.0
 10
6.456729224164002
 20
6.802546687563686
 30
0.0
 10
6.686207634976187
 20
6.670255024272061
 30
0.0
 10
6.842788047648154
 20
6.415457752994703
 30
0.0
 10
6.882853018848234
 20
6.109980427454746
 30
0.0
 10
6.92278040671849
 20
5.804503101914788
 30
0.0
 10
6.845543242022308
 20
5.452483805339993
 30
0.0
 10
6.672495163103799
 20
5.152897868538623
 30
0.0
 10
6.499619945291991
 20
4.853311931737252
 30
0.0
 10
6.233350340973984
 20
4.61029391015938
 30
0.0
 10
5.949060848226813
 20
4.492265052059436
 30
0.0
 10
5.664390355489362
 20
4.374236193959493
 30
0.0
 10
5.365323002008095
 20
4.382575860413397
 30
0.0
 10
5.136017452302611
 20
4.514832245928144
 30
0.0
 10
5.136017452302611
 20
4.514832245928144
 30
0.0
 10
5.22679422776448
 20
4.474559135844485
 30
0.0
 10
5.22679422776448
 20
4.474559135844485
 30
0.0
 10
5.193135832035061
 20
4.488098746610173
 30
0.0
 10
5.160510812788845
 20
4.503737498874096
 30
0.0
 10
5.129092424701506
 20
4.521792551306127
 30
0.0
 10
5.129092424701506
 20
4.521792551306127
 30
0.0
 10
3.84169345754579
 20
5.265381060113381
 30
0.0
 10
3.84169345754579
 20
5.265381060113381
 30
0.0
  0
POLYLINE
  5
16C
330
12C
100
AcDbEntity
  8
Layer 1
 62
     7
420
 16777215
370
    20
100
AcDb2dPolyline
 66
     1
 10
0.0
 20
0.0
 30
0.0
  0
VERTEX
  5
16D
330
16C
100
AcDbEntity
  8
Layer 1
 62
     7
420
 16777215
370
    20
100
AcDbVertex
100
AcDb2dVertex
 10
5.936209154110243
 20
7.932056436525269
 30
0.0
  0
VERTEX
  5
16E
330
16C
100
AcDbEntity
  8
Layer 1
 62
     7
420
 16777215
370
    20
100
AcDbVertex
100
AcDb2dVertex
 10
6.232316702111465
 20
7.760920413113535
 30
0.0
  0
VERTEX
  5
16F
330
16C
100
AcDbEntity
  8
Layer 1
 62
     7
420
 16777215
370
    20
100
AcDbVertex
100
AcDb2dVertex
 10
6.232316702111465
 20
6.963949572334844
 30
0.0
  0
SEQEND
  5
170
330
16C
100
AcDbEntity
  8
Layer 1
 62
     7
420
 16777215
370
    20
  0
POLYLINE
  5
171
330
12C
100
AcDbEntity
  8
Layer 1
 62
     7
420
 16777215
370
    20
100
AcDb2dPolyline
 66
     1
 10
0.0
 20
0.0
 30
0.0
  0
VERTEX
  5
172
330
171
100
AcDbEntity
  8
Layer 1
 62
     7
420
 16777215
370
    20
100
AcDbVertex
100
AcDb2dVertex
 10
5.417721084004642
 20
4.422503248283653
 30
0.0
  0
VERTEX
  5
173
330
171
100
AcDbEntity
  8
Layer 1
 62
     7
420
 16777215
370
    20
100
AcDbVertex
100
AcDb2dVertex
 10
2.657220999335692
 20
3.682738850489948
 30
0.0
  0
VERTEX
  5
174
330
171
100
AcDbEntity
  8
Layer 1
 62
     7
420
 16777215
370
    20
100
AcDbVertex
100
AcDb2dVertex
 10
0.1971801999507029
 20
5.103254980916229
 30
0.0
  0
VERTEX
  5
175
330
171
100
AcDbEntity
  8
Layer 1
 62
     7
420
 16777215
370
    20
100
AcDbVertex
100
AcDb2dVertex
 10
0.1971801999507029
 20
8.216208345942617
 30
0.0
  0
VERTEX
  5
176
330
171
100
AcDbEntity
  8
Layer 1
 62
     7
420
 16777215
370
    20
100
AcDbVertex
100
AcDb2dVertex
 10
0.5113372776499431
 20
8.300388177128344
 30
0.0
  0
SEQEND
  5
177
330
171
100
AcDbEntity
  8
Layer 1
 62
     7
420
 16777215
370
    20
  0
SPLINE
  5
178
330
12C
100
AcDbEntity
  8
Layer 1
 62
     7
420
 16777215
370
     9
100
AcDbSpline
210
0.0
220
0.0
230
1.0
 70
     8
 71
     3
 72
    17
 73
    13
 74
     0
 42
0.0000000001
 43
0.0000000001
 12
1.0
 22
0.0
 32
0.0
 13
1.0
 23
0.0
 33
0.0
 40
0.0
 40
0.0
 40
0.0
 40
0.0
 40
1.0
 40
1.0
 40
1.0
 40
2.0
 40
2.0
 40
2.0
 40
3.0
 40
3.0
 40
3.0
 40
4.0
 40
4.0
 40
4.0
 40
4.0
 10
6.238208090850052
 20
6.928534212127254
 30
0.0
 10
6.008934442942222
 20
7.061238625408349
 30
0.0
 10
5.70969407655579
 20
7.069405430755552
 30
0.0
 10
5.425199972702728
 20
6.951443600431676
 30
0.0
 10
5.140875202178679
 20
6.833414742331732
 30
0.0
 10
4.874637347859863
 20
6.590089804095023
 30
0.0
 10
4.701762130048055
 20
6.290846061729368
 30
0.0
 10
4.528855276645578
 20
5.991263652705685
 30
0.0
 10
4.451441608656485
 20
5.639240828353202
 30
0.0
 10
4.491372524304429
 20
5.333767030590932
 30
0.0
 10
4.531299912174686
 20
5.028254427274097
 30
0.0
 10
4.688222519282367
 20
4.773453628219052
 30
0.0
 10
4.917665652317674
 20
4.641197242704305
 30
0.0
  0
POLYLINE
  5
179
330
12C
100
AcDbEntity
  8
Layer 1
 62
     7
420
 16777215
370
     9
100
AcDb2dPolyline
 66
     1
 10
0.0
 20
0.0
 30
0.0
  0
VERTEX
  5
17A
330
179
100
AcDbEntity
  8
Layer 1
 62
     7
420
 16777215
370
     9
100
AcDbVertex
100
AcDb2dVertex
 10
4.700005296759541
 20
5.318470586536733
 30
0.0
  0
VERTEX
  5
17B
330
179
100
AcDbEntity
  8
Layer 1
 62
     7
420
 16777215
370
     9
100
AcDbVertex
100
AcDb2dVertex
 10
4.510630662702002
 20
5.427852861523936
 30
0.0
  0
SEQEND
  5
17C
330
179
100
AcDbEntity
  8
Layer 1
 62
     7
420
 16777215
370
     9
  0
POLYLINE
  5
17D
330
12C
100
AcDbEntity
  8
Layer 1
 62
     7
420
 16777215
370
     9
100
AcDb2dPolyline
 66
     1
 10
0.0
 20
0.0
 30
0.0
  0
VERTEX
  5
17E
330
17D
100
AcDbEntity
  8
Layer 1
 62
     7
420
 16777215
370
     9
100
AcDbVertex
100
AcDb2dVertex
 10
4.700005296759541
 20
5.647580494807106
 30
0.0
  0
VERTEX
  5
17F
330
17D
100
AcDbEntity
  8
Layer 1
 62
     7
420
 16777215
370
     9
100
AcDbVertex
100
AcDb2dVertex
 10
4.510630662702002
 20
5.756927492017432
 30
0.0
  0
SEQEND
  5
180
330
17D
100
AcDbEntity
  8
Layer 1
 62
     7
420
 16777215
370
     9
  0
ENDBLK
  5
12F
330
12C
100
AcDbEntity
  8
0
100
AcDbBlockEnd
  0
BLOCK
  5
183
330
181
100
AcDbEntity
  8
0
100
AcDbBlockBegin
  2
block 35
 70
     0
 10
0.0
 20
0.0
 30
0.0
  3
block 35
  1

  0
INSERT
  5
186
330
181
100
AcDbEntity
  8
Layer 1
100
AcDbBlockReference
  2
block 36
 10
0.0
 20
0.0
 30
0.0
  0
ENDBLK
  5
184
330
181
100
AcDbEntity
  8
0
100
AcDbBlockEnd
  0
BLOCK
  5
187
330
185
100
AcDbEntity
  8
0
100
AcDbBlockBegin
  2
block 36
 70
     0
 10
0.0
 20
0.0
 30
0.0
  3
block 36
  1

  0
INSERT
  5
18A
330
185
100
AcDbEntity
  8
Layer 1
100
AcDbBlockReference
  2
block 37
 10
0.0
 20
0.0
 30
0.0
  0
INSERT
  5
1A2
330
185
100
AcDbEntity
  8
Layer 1
100
AcDbBlockReference
  2
block 39
 10
0.0
 20
0.0
 30
0.0
  0
ENDBLK
  5
188
330
185
100
AcDbEntity
  8
0
100
AcDbBlockEnd
  0
BLOCK
  5
18B
330
189
100
AcDbEntity
  8
0
100
AcDbBlockBegin
  2
block 37
 70
     0
 10
0.0
 20
0.0
 30
0.0
  3
block 37
  1

  0
INSERT
  5
18E
330
189
100
AcDbEntity
  8
Layer 1
100
AcDbBlockReference
  2
block 38
 10
0.0
 20
0.0
 30
0.0
  0
ENDBLK
  5
18C
330
189
100
AcDbEntity
  8
0
100
AcDbBlockEnd
  0
BLOCK
  5
18F
330
18D
100
AcDbEntity
  8
0
100
AcDbBlockBegin
  2
block 38
 70
     0
 10
0.0
 20
0.0
 30
0.0
  3
block 38
  1

  0
SPLINE
  5
191
330
18D
100
AcDbEntity
  8
Layer 1
370
     0
100
AcDbSpline
210
0.0
220
0.0
230
1.0
 70
    11
 71
     3
 72
    23
 73
    19
 74
     0
 42
0.0000000001
 43
0.0000000001
 12
1.0
 22
0.0
 32
0.0
 13
1.0
 23
0.0
 33
0.0
 40
0.0
 40
0.0
 40
0.0
 40
0.0
 40
1.0
 40
1.0
 40
1.0
 40
2.0
 40
2.0
 40
2.0
 40
3.0
 40
3.0
 40
3.0
 40
4.0
 40
4.0
 40
4.0
 40
5.0
 40
5.0
 40
5.0
 40
6.0
 40
6.0
 40
6.0
 40
6.0
 10
5.416345250706409
 20
6.373459720628888
 30
0.0
 10
5.416345250706409
 20
6.373459720628888
 30
0.0
 10
5.882742155474299
 20
6.104089038716158
 30
0.0
 10
5.882742155474299
 20
6.104089038716158
 30
0.0
 10
6.161485981696285
 20
5.942996598381525
 30
0.0
 10
6.469408057173871
 20
5.942650876168122
 30
0.0
 10
6.674770579712415
 20
5.942650876168122
 30
0.0
 10
6.674770579712415
 20
5.942650876168122
 30
0.0
 10
6.674770579712415
 20
6.206821452761903
 30
0.0
 10
6.674770579712415
 20
6.206821452761903
 30
0.0
 10
6.469408057173871
 20
6.206821452761903
 30
0.0
 10
6.161485981696285
 20
6.207167174975305
 30
0.0
 10
5.882742155474299
 20
6.368259615309939
 30
0.0
 10
5.882742155474299
 20
6.368259615309939
 30
0.0
 10
5.416345250706409
 20
6.637287941779788
 30
0.0
 10
5.416345250706409
 20
6.637287941779788
 30
0.0
 10
5.416345250706409
 20
6.637287941779788
 30
0.0
 10
5.416345250706409
 20
6.373459720628888
 30
0.0
 10
5.416345250706409
 20
6.373459720628888
 30
0.0
  0
HATCH
  5
192
330
18D
100
AcDbEntity
  8
Layer 1
 62
    52
420
 14334976
100
AcDbHatch
 10
0.0
 20
0.0
 30
0.0
210
0.0
220
0.0
230
1.0
  2
SOLID
 70
     1
 71
     0
 91
        1
 92
        1
 93
        1
 72
     4
 94
        3
 73
     0
 74
     1
 95
       23
 96
       19
 40
0.0
 40
0.0
 40
0.0
 40
0.0
 40
1.0
 40
1.0
 40
1.0
 40
2.0
 40
2.0
 40
2.0
 40
3.0
 40
3.0
 40
3.0
 40
4.0
 40
4.0
 40
4.0
 40
5.0
 40
5.0
 40
5.0
 40
6.0
 40
6.0
 40
6.0
 40
6.0
 10
5.416345250706409
 20
6.373459720628888
 10
5.416345250706409
 20
6.373459720628888
 10
5.882742155474299
 20
6.104089038716158
 10
5.882742155474299
 20
6.104089038716158
 10
6.161485981696285
 20
5.942996598381525
 10
6.469408057173871
 20
5.942650876168122
 10
6.674770579712415
 20
5.942650876168122
 10
6.674770579712415
 20
5.942650876168122
 10
6.674770579712415
 20
6.206821452761903
 10
6.674770579712415
 20
6.206821452761903
 10
6.469408057173871
 20
6.206821452761903
 10
6.161485981696285
 20
6.207167174975305
 10
5.882742155474299
 20
6.368259615309939
 10
5.882742155474299
 20
6.368259615309939
 10
5.416345250706409
 20
6.637287941779788
 10
5.416345250706409
 20
6.637287941779788
 10
5.416345250706409
 20
6.637287941779788
 10
5.416345250706409
 20
6.373459720628888
 10
5.416345250706409
 20
6.373459720628888
 97
        0
 97
        0
 75
     2
 76
     1
 98
        0
  0
SPLINE
  5
193
330
18D
100
AcDbEntity
  8
Layer 1
370
     0
100
AcDbSpline
210
0.0
220
0.0
230
1.0
 70
    11
 71
     3
 72
    20
 73
    16
 74
     0
 42
0.0000000001
 43
0.0000000001
 12
1.0
 22
0.0
 32
0.0
 13
1.0
 23
0.0
 33
0.0
 40
0.0
 40
0.0
 40
0.0
 40
0.0
 40
1.0
 40
1.0
 40
1.0
 40
2.0
 40
2.0
 40
2.0
 40
3.0
 40
3.0
 40
3.0
 40
4.0
 40
4.0
 40
4.0
 40
5.0
 40
5.0
 40
5.0
 40
5.0
 10
6.806854104120461
 20
6.896255046284097
 30
0.0
 10
6.806854104120461
 20
6.896255046284097
 30
0.0
 10
6.806854104120461
 20
10.34317606945693
 30
0.0
 10
6.806854104120461
 20
10.34317606945693
 30
0.0
 10
6.806854104120461
 20
10.53670289785298
 30
0.0
 10
6.741396189123765
 20
10.65767745032222
 30
0.0
 10
6.651653052524415
 20
10.73197244842679
 30
0.0
 10
6.60948552582242
 20
10.76704208642098
 30
0.0
 10
6.561941665924254
 20
10.79150369690803
 30
0.0
 10
6.513332417164379
 20
10.80852169647386
 30
0.0
 10
6.513332417164379
 20
10.80852169647386
 30
0.0
 10
6.436437446903911
 20
7.098206387114363
 30
0.0
 10
6.436437446903911
 20
7.098206387114363
 30
0.0
 10
6.436437446903911
 20
7.098206387114363
 30
0.0
 10
6.806854104120461
 20
6.896255046284097
 30
0.0
 10
6.806854104120461
 20
6.896255046284097
 30
0.0
  0
HATCH
  5
194
330
18D
100
AcDbEntity
  8
Layer 1
 62
    52
420
 14334976
100
AcDbHatch
 10
0.0
 20
0.0
 30
0.0
210
0.0
220
0.0
230
1.0
  2
SOLID
 70
     1
 71
     0
 91
        1
 92
        1
 93
        1
 72
     4
 94
        3
 73
     0
 74
     1
 95
       20
 96
       16
 40
0.0
 40
0.0
 40
0.0
 40
0.0
 40
1.0
 40
1.0
 40
1.0
 40
2.0
 40
2.0
 40
2.0
 40
3.0
 40
3.0
 40
3.0
 40
4.0
 40
4.0
 40
4.0
 40
5.0
 40
5.0
 40
5.0
 40
5.0
 10
6.806854104120461
 20
6.896255046284097
 10
6.806854104120461
 20
6.896255046284097
 10
6.806854104120461
 20
10.34317606945693
 10
6.806854104120461
 20
10.34317606945693
 10
6.806854104120461
 20
10.53670289785298
 10
6.741396189123765
 20
10.65767745032222
 10
6.651653052524415
 20
10.73197244842679
 10
6.60948552582242
 20
10.76704208642098
 10
6.561941665924254
 20
10.79150369690803
 10
6.513332417164379
 20
10.80852169647386
 10
6.513332417164379
 20
10.80852169647386
 10
6.436437446903911
 20
7.098206387114363
 10
6.436437446903911
 20
7.098206387114363
 10
6.436437446903911
 20
7.098206387114363
 10
6.806854104120461
 20
6.896255046284097
 10
6.806854104120461
 20
6.896255046284097
 97
        0
 97
        0
 75
     2
 76
     1
 98
        0
  0
SPLINE
  5
195
330
18D
100
AcDbEntity
  8
Layer 1
370
     0
100
AcDbSpline
210
0.0
220
0.0
230
1.0
 70
    11
 71
     3
 72
    26
 73
    22
 74
     0
 42
0.0000000001
 43
0.0000000001
 12
1.0
 22
0.0
 32
0.0
 13
1.0
 23
0.0
 33
0.0
 40
0.0
 40
0.0
 40
0.0
 40
0.0
 40
1.0
 40
1.0
 40
1.0
 40
2.0
 40
2.0
 40
2.0
 40
3.0
 40
3.0
 40
3.0
 40
4.0
 40
4.0
 40
4.0
 40
5.0
 40
5.0
 40
5.0
 40
6.0
 40
6.0
 40
6.0
 40
7.0
 40
7.0
 40
7.0
 40
7.0
 10
5.556937774897373
 20
1.506128277401249
 30
0.0
 10
5.592525996211664
 20
1.471400832965509
 30
0.0
 10
5.632626387480762
 20
1.443633694083514
 30
0.0
 10
5.676345994073237
 20
1.423169055199768
 30
0.0
 10
5.797683907644315
 20
1.366220138547364
 30
0.0
 10
5.946439709404794
 20
1.364844305214352
 30
0.0
 10
6.10264264986417
 20
1.424890610754911
 30
0.0
 10
6.484185917907968
 20
1.571720249607076
 30
0.0
 10
6.806854104120461
 20
2.026507249493345
 30
0.0
 10
6.806854104120461
 20
2.466343527161176
 30
0.0
 10
6.806854104120461
 20
2.466343527161176
 30
0.0
 10
6.806854104120461
 20
5.00606823339567
 30
0.0
 10
6.806854104120461
 20
5.00606823339567
 30
0.0
 10
6.806854104120461
 20
5.00606823339567
 30
0.0
 10
6.61937035890357
 20
4.802635405252341
 30
0.0
 10
6.61937035890357
 20
4.802635405252341
 30
0.0
 10
6.61937035890357
 20
4.802635405252341
 30
0.0
 10
6.61937035890357
 20
4.786651044549024
 30
0.0
 10
6.61937035890357
 20
4.786651044549024
 30
0.0
 10
6.61937035890357
 20
4.786651044549024
 30
0.0
 10
5.556937774897373
 20
1.506128277401249
 30
0.0
 10
5.556937774897373
 20
1.506128277401249
 30
0.0
  0
HATCH
  5
196
330
18D
100
AcDbEntity
  8
Layer 1
 62
    52
420
 14334976
100
AcDbHatch
 10
0.0
 20
0.0
 30
0.0
210
0.0
220
0.0
230
1.0
  2
SOLID
 70
     1
 71
     0
 91
        1
 92
        1
 93
        1
 72
     4
 94
        3
 73
     0
 74
     1
 95
       26
 96
       22
 40
0.0
 40
0.0
 40
0.0
 40
0.0
 40
1.0
 40
1.0
 40
1.0
 40
2.0
 40
2.0
 40
2.0
 40
3.0
 40
3.0
 40
3.0
 40
4.0
 40
4.0
 40
4.0
 40
5.0
 40
5.0
 40
5.0
 40
6.0
 40
6.0
 40
6.0
 40
7.0
 40
7.0
 40
7.0
 40
7.0
 10
5.556937774897373
 20
1.506128277401249
 10
5.592525996211664
 20
1.471400832965509
 10
5.632626387480762
 20
1.443633694083514
 10
5.676345994073237
 20
1.423169055199768
 10
5.797683907644315
 20
1.366220138547364
 10
5.946439709404794
 20
1.364844305214352
 10
6.10264264986417
 20
1.424890610754911
 10
6.484185917907968
 20
1.571720249607076
 10
6.806854104120461
 20
2.026507249493345
 10
6.806854104120461
 20
2.466343527161176
 10
6.806854104120461
 20
2.466343527161176
 10
6.806854104120461
 20
5.00606823339567
 10
6.806854104120461
 20
5.00606823339567
 10
6.806854104120461
 20
5.00606823339567
 10
6.61937035890357
 20
4.802635405252341
 10
6.61937035890357
 20
4.802635405252341
 10
6.61937035890357
 20
4.802635405252341
 10
6.61937035890357
 20
4.786651044549024
 10
6.61937035890357
 20
4.786651044549024
 10
6.61937035890357
 20
4.786651044549024
 10
5.556937774897373
 20
1.506128277401249
 10
5.556937774897373
 20
1.506128277401249
 97
        0
 97
        0
 75
     2
 76
     1
 98
        0
  0
SPLINE
  5
197
330
18D
100
AcDbEntity
  8
Layer 1
370
     0
100
AcDbSpline
210
0.0
220
0.0
230
1.0
 70
    11
 71
     3
 72
    41
 73
    37
 74
     0
 42
0.0000000001
 43
0.0000000001
 12
1.0
 22
0.0
 32
0.0
 13
1.0
 23
0.0
 33
0.0
 40
0.0
 40
0.0
 40
0.0
 40
0.0
 40
1.0
 40
1.0
 40
1.0
 40
2.0
 40
2.0
 40
2.0
 40
3.0
 40
3.0
 40
3.0
 40
4.0
 40
4.0
 40
4.0
 40
5.0
 40
5.0
 40
5.0
 40
6.0
 40
6.0
 40
6.0
 40
7.0
 40
7.0
 40
7.0
 40
8.0
 40
8.0
 40
8.0
 40
9.0
 40
9.0
 40
9.0
 40
10.0
 40
10.0
 40
10.0
 40
11.0
 40
11.0
 40
11.0
 40
12.0
 40
12.0
 40
12.0
 40
12.0
 10
5.365323002008095
 20
0.2657545554891116
 30
0.0
 10
5.33807091937002
 20
0.2844958749288708
 30
0.0
 10
5.314300753309781
 20
0.317499999920625
 30
0.0
 10
5.296076387564869
 20
0.3688679721299849
 30
0.0
 10
5.296076387564869
 20
0.3688679721299849
 30
0.0
 10
4.943884096093231
 20
1.850153638426329
 30
0.0
 10
4.943884096093231
 20
1.850153638426329
 30
0.0
 10
4.943884096093231
 20
1.850153638426329
 30
0.0
 10
4.943884096093231
 20
9.771065778497121
 30
0.0
 10
4.943884096093231
 20
9.771065778497121
 30
0.0
 10
4.943884096093231
 20
9.771065778497121
 30
0.0
 10
5.39863580671377
 20
12.89538917101121
 30
0.0
 10
5.39863580671377
 20
12.89538917101121
 30
0.0
 10
5.441872250055161
 20
13.08562811060226
 30
0.0
 10
5.546361497389418
 20
13.29634579967085
 30
0.0
 10
5.702906632284508
 20
13.4582990177613
 30
0.0
 10
5.702906632284508
 20
13.4582990177613
 30
0.0
 10
5.420857278369075
 20
13.62109890249681
 30
0.0
 10
5.420857278369075
 20
13.62109890249681
 30
0.0
 10
5.420857278369075
 20
13.62109890249681
 30
0.0
 10
5.07648620382138
 20
13.0812854162686
 30
0.0
 10
5.07648620382138
 20
13.0812854162686
 30
0.0
 10
5.07648620382138
 20
13.0812854162686
 30
0.0
 10
4.595516049425284
 20
9.943422412988825
 30
0.0
 10
4.595516049425284
 20
9.943422412988825
 30
0.0
 10
4.595516049425284
 20
9.943422412988825
 30
0.0
 10
4.574501077739199
 20
1.84736316620484
 30
0.0
 10
4.574501077739199
 20
1.84736316620484
 30
0.0
 10
4.574501077739199
 20
1.84736316620484
 30
0.0
 10
4.993011928173209
 20
0.2782605277081884
 30
0.0
 10
4.993011928173209
 20
0.2782605277081884
 30
0.0
 10
4.993011928173209
 20
0.2782605277081884
 30
0.0
 10
5.453136444212232
 20
0.09012378608861
 30
0.0
 10
5.453136444212232
 20
0.09012378608861
 30
0.0
 10
5.453136444212232
 20
0.09012378608861
 30
0.0
 10
5.365323002008095
 20
0.2657545554891116
 30
0.0
 10
5.365323002008095
 20
0.2657545554891116
 30
0.0
  0
HATCH
  5
198
330
18D
100
AcDbEntity
  8
Layer 1
 62
    52
420
 14334976
100
AcDbHatch
 10
0.0
 20
0.0
 30
0.0
210
0.0
220
0.0
230
1.0
  2
SOLID
 70
     1
 71
     0
 91
        1
 92
        1
 93
        1
 72
     4
 94
        3
 73
     0
 74
     1
 95
       41
 96
       37
 40
0.0
 40
0.0
 40
0.0
 40
0.0
 40
1.0
 40
1.0
 40
1.0
 40
2.0
 40
2.0
 40
2.0
 40
3.0
 40
3.0
 40
3.0
 40
4.0
 40
4.0
 40
4.0
 40
5.0
 40
5.0
 40
5.0
 40
6.0
 40
6.0
 40
6.0
 40
7.0
 40
7.0
 40
7.0
 40
8.0
 40
8.0
 40
8.0
 40
9.0
 40
9.0
 40
9.0
 40
10.0
 40
10.0
 40
10.0
 40
11.0
 40
11.0
 40
11.0
 40
12.0
 40
12.0
 40
12.0
 40
12.0
 10
5.365323002008095
 20
0.2657545554891116
 10
5.33807091937002
 20
0.2844958749288708
 10
5.314300753309781
 20
0.317499999920625
 10
5.296076387564869
 20
0.3688679721299849
 10
5.296076387564869
 20
0.3688679721299849
 10
4.943884096093231
 20
1.850153638426329
 10
4.943884096093231
 20
1.850153638426329
 10
4.943884096093231
 20
1.850153638426329
 10
4.943884096093231
 20
9.771065778497121
 10
4.943884096093231
 20
9.771065778497121
 10
4.943884096093231
 20
9.771065778497121
 10
5.39863580671377
 20
12.89538917101121
 10
5.39863580671377
 20
12.89538917101121
 10
5.441872250055161
 20
13.08562811060226
 10
5.546361497389418
 20
13.29634579967085
 10
5.702906632284508
 20
13.4582990177613
 10
5.702906632284508
 20
13.4582990177613
 10
5.420857278369075
 20
13.62109890249681
 10
5.420857278369075
 20
13.62109890249681
 10
5.420857278369075
 20
13.62109890249681
 10
5.07648620382138
 20
13.0812854162686
 10
5.07648620382138
 20
13.0812854162686
 10
5.07648620382138
 20
13.0812854162686
 10
4.595516049425284
 20
9.943422412988825
 10
4.595516049425284
 20
9.943422412988825
 10
4.595516049425284
 20
9.943422412988825
 10
4.574501077739199
 20
1.84736316620484
 10
4.574501077739199
 20
1.84736316620484
 10
4.574501077739199
 20
1.84736316620484
 10
4.993011928173209
 20
0.2782605277081884
 10
4.993011928173209
 20
0.2782605277081884
 10
4.993011928173209
 20
0.2782605277081884
 10
5.453136444212232
 20
0.09012378608861
 10
5.453136444212232
 20
0.09012378608861
 10
5.453136444212232
 20
0.09012378608861
 10
5.365323002008095
 20
0.2657545554891116
 10
5.365323002008095
 20
0.2657545554891116
 97
        0
 97
        0
 75
     2
 76
     1
 98
        0
  0
SPLINE
  5
199
330
18D
100
AcDbEntity
  8
Layer 1
370
     0
100
AcDbSpline
210
0.0
220
0.0
230
1.0
 70
    11
 71
     3
 72
    26
 73
    22
 74
     0
 42
0.0000000001
 43
0.0000000001
 12
1.0
 22
0.0
 32
0.0
 13
1.0
 23
0.0
 33
0.0
 40
0.0
 40
0.0
 40
0.0
 40
0.0
 40
1.0
 40
1.0
 40
1.0
 40
2.0
 40
2.0
 40
2.0
 40
3.0
 40
3.0
 40
3.0
 40
4.0
 40
4.0
 40
4.0
 40
5.0
 40
5.0
 40
5.0
 40
6.0
 40
6.0
 40
6.0
 40
7.0
 40
7.0
 40
7.0
 40
7.0
 10
7.019483848695825
 20
6.401226697802212
 30
0.0
 10
7.068407069669911
 20
6.435266387280053
 30
0.0
 10
7.095313609337296
 20
6.475161862582635
 30
0.0
 10
7.095313609337296
 20
6.515089250452892
 30
0.0
 10
7.095313609337296
 20
6.572726082315787
 30
0.0
 10
7.03943360935124
 20
6.63001719196528
 30
0.0
 10
6.94310746175546
 20
6.670636024262341
 30
0.0
 10
6.846954353097419
 20
6.711251328781714
 30
0.0
 10
6.711734634324939
 20
6.734852161512939
 30
0.0
 10
6.575654137796642
 20
6.734852161512939
 30
0.0
 10
6.575654137796642
 20
6.734852161512939
 30
0.0
 10
6.575654137796642
 20
6.500170278611284
 30
0.0
 10
6.575654137796642
 20
6.500170278611284
 30
0.0
 10
6.711734634324939
 20
6.500170278611284
 30
0.0
 10
6.846954353097419
 20
6.476572973657746
 30
0.0
 10
6.94310746175546
 20
6.435954141360686
 30
0.0
 10
6.966877627815699
 20
6.425896447172835
 30
0.0
 10
6.987892776030816
 20
6.414766308567899
 30
0.0
 10
7.006462821250241
 20
6.403329253304126
 30
0.0
 10
7.006462821250241
 20
6.403329253304126
 30
0.0
 10
7.019483848695825
 20
6.401226697802212
 30
0.0
 10
7.019483848695825
 20
6.401226697802212
 30
0.0
  0
HATCH
  5
19A
330
18D
100
AcDbEntity
  8
Layer 1
 62
    52
420
 14334976
100
AcDbHatch
 10
0.0
 20
0.0
 30
0.0
210
0.0
220
0.0
230
1.0
  2
SOLID
 70
     1
 71
     0
 91
        1
 92
        1
 93
        1
 72
     4
 94
        3
 73
     0
 74
     1
 95
       26
 96
       22
 40
0.0
 40
0.0
 40
0.0
 40
0.0
 40
1.0
 40
1.0
 40
1.0
 40
2.0
 40
2.0
 40
2.0
 40
3.0
 40
3.0
 40
3.0
 40
4.0
 40
4.0
 40
4.0
 40
5.0
 40
5.0
 40
5.0
 40
6.0
 40
6.0
 40
6.0
 40
7.0
 40
7.0
 40
7.0
 40
7.0
 10
7.019483848695825
 20
6.401226697802212
 10
7.068407069669911
 20
6.435266387280053
 10
7.095313609337296
 20
6.475161862582635
 10
7.095313609337296
 20
6.515089250452892
 10
7.095313609337296
 20
6.572726082315787
 10
7.03943360935124
 20
6.63001719196528
 10
6.94310746175546
 20
6.670636024262341
 10
6.846954353097419
 20
6.711251328781714
 10
6.711734634324939
 20
6.734852161512939
 10
6.575654137796642
 20
6.734852161512939
 10
6.575654137796642
 20
6.734852161512939
 10
6.575654137796642
 20
6.500170278611284
 10
6.575654137796642
 20
6.500170278611284
 10
6.711734634324939
 20
6.500170278611284
 10
6.846954353097419
 20
6.476572973657746
 10
6.94310746175546
 20
6.435954141360686
 10
6.966877627815699
 20
6.425896447172835
 10
6.987892776030816
 20
6.414766308567899
 10
7.006462821250241
 20
6.403329253304126
 10
7.006462821250241
 20
6.403329253304126
 10
7.019483848695825
 20
6.401226697802212
 10
7.019483848695825
 20
6.401226697802212
 97
        0
 97
        0
 75
     2
 76
     1
 98
        0
  0
SPLINE
  5
19B
330
18D
100
AcDbEntity
  8
Layer 1
370
     0
100
AcDbSpline
210
0.0
220
0.0
230
1.0
 70
    11
 71
     3
 72
    17
 73
    13
 74
     0
 42
0.0000000001
 43
0.0000000001
 12
1.0
 22
0.0
 32
0.0
 13
1.0
 23
0.0
 33
0.0
 40
0.0
 40
0.0
 40
0.0
 40
0.0
 40
1.0
 40
1.0
 40
1.0
 40
2.0
 40
2.0
 40
2.0
 40
3.0
 40
3.0
 40
3.0
 40
4.0
 40
4.0
 40
4.0
 40
4.0
 10
6.212197785958074
 20
5.75796113087995
 30
0.0
 10
6.28995353397436
 20
5.791309213362504
 30
0.0
 10
6.367709442852531
 20
5.791309213362504
 30
0.0
 10
6.434370169178874
 20
5.769087741707198
 30
0.0
 10
6.500999306367912
 20
5.746866270051893
 30
0.0
 10
6.712080356538341
 20
5.546915358486399
 30
0.0
 10
6.523220778023217
 20
5.213635616989073
 30
0.0
 10
6.523220778023217
 20
5.213635616989073
 30
0.0
 10
6.069672039594209
 20
5.475393331964503
 30
0.0
 10
6.069672039594209
 20
5.475393331964503
 30
0.0
 10
6.069672039594209
 20
5.475393331964503
 30
0.0
 10
6.212197785958074
 20
5.75796113087995
 30
0.0
 10
6.212197785958074
 20
5.75796113087995
 30
0.0
  0
HATCH
  5
19C
330
18D
100
AcDbEntity
  8
Layer 1
 62
    52
420
 14334976
100
AcDbHatch
 10
0.0
 20
0.0
 30
0.0
210
0.0
220
0.0
230
1.0
  2
SOLID
 70
     1
 71
     0
 91
        1
 92
        1
 93
        1
 72
     4
 94
        3
 73
     0
 74
     1
 95
       17
 96
       13
 40
0.0
 40
0.0
 40
0.0
 40
0.0
 40
1.0
 40
1.0
 40
1.0
 40
2.0
 40
2.0
 40
2.0
 40
3.0
 40
3.0
 40
3.0
 40
4.0
 40
4.0
 40
4.0
 40
4.0
 10
6.212197785958074
 20
5.75796113087995
 10
6.28995353397436
 20
5.791309213362504
 10
6.367709442852531
 20
5.791309213362504
 10
6.434370169178874
 20
5.769087741707198
 10
6.500999306367912
 20
5.746866270051893
 10
6.712080356538341
 20
5.546915358486399
 10
6.523220778023217
 20
5.213635616989073
 10
6.523220778023217
 20
5.213635616989073
 10
6.069672039594209
 20
5.475393331964503
 10
6.069672039594209
 20
5.475393331964503
 10
6.069672039594209
 20
5.475393331964503
 10
6.212197785958074
 20
5.75796113087995
 10
6.212197785958074
 20
5.75796113087995
 97
        0
 97
        0
 75
     2
 76
     1
 98
        0
  0
SPLINE
  5
19D
330
18D
100
AcDbEntity
  8
Layer 1
370
     0
100
AcDbSpline
210
0.0
220
0.0
230
1.0
 70
    11
 71
     3
 72
    17
 73
    13
 74
     0
 42
0.0000000001
 43
0.0000000001
 12
1.0
 22
0.0
 32
0.0
 13
1.0
 23
0.0
 33
0.0
 40
0.0
 40
0.0
 40
0.0
 40
0.0
 40
1.0
 40
1.0
 40
1.0
 40
2.0
 40
2.0
 40
2.0
 40
3.0
 40
3.0
 40
3.0
 40
4.0
 40
4.0
 40
4.0
 40
4.0
 10
5.466848916084619
 20
4.51207705155399
 30
0.0
 10
5.233581672035763
 20
4.712027963119485
 30
0.0
 10
5.20023358955321
 20
5.311887753371342
 30
0.0
 10
5.389093168068334
 20
5.634040884041419
 30
0.0
 10
5.389093168068334
 20
5.634040884041419
 30
0.0
 10
5.290149720899696
 20
5.691331993690913
 30
0.0
 10
5.290149720899696
 20
5.691331993690913
 30
0.0
 10
5.101325286521016
 20
5.369182390798523
 30
0.0
 10
5.134638091226691
 20
4.769287322769787
 30
0.0
 10
5.367905335275547
 20
4.569332883426606
 30
0.0
 10
5.367905335275547
 20
4.569332883426606
 30
0.0
 10
5.466848916084619
 20
4.51207705155399
 30
0.0
 10
5.466848916084619
 20
4.51207705155399
 30
0.0
  0
HATCH
  5
19E
330
18D
100
AcDbEntity
  8
Layer 1
 62
    52
420
 14334976
100
AcDbHatch
 10
0.0
 20
0.0
 30
0.0
210
0.0
220
0.0
230
1.0
  2
SOLID
 70
     1
 71
     0
 91
        1
 92
        1
 93
        1
 72
     4
 94
        3
 73
     0
 74
     1
 95
       17
 96
       13
 40
0.0
 40
0.0
 40
0.0
 40
0.0
 40
1.0
 40
1.0
 40
1.0
 40
2.0
 40
2.0
 40
2.0
 40
3.0
 40
3.0
 40
3.0
 40
4.0
 40
4.0
 40
4.0
 40
4.0
 10
5.466848916084619
 20
4.51207705155399
 10
5.233581672035763
 20
4.712027963119485
 10
5.20023358955321
 20
5.311887753371342
 10
5.389093168068334
 20
5.634040884041419
 10
5.389093168068334
 20
5.634040884041419
 10
5.290149720899696
 20
5.691331993690913
 10
5.290149720899696
 20
5.691331993690913
 10
5.101325286521016
 20
5.369182390798523
 10
5.134638091226691
 20
4.769287322769787
 10
5.367905335275547
 20
4.569332883426606
 10
5.367905335275547
 20
4.569332883426606
 10
5.466848916084619
 20
4.51207705155399
 10
5.466848916084619
 20
4.51207705155399
 97
        0
 97
        0
 75
     2
 76
     1
 98
        0
  0
SPLINE
  5
19F
330
18D
100
AcDbEntity
  8
Layer 1
370
     0
100
AcDbSpline
210
0.0
220
0.0
230
1.0
 70
    11
 71
     3
 72
   143
 73
   139
 74
     0
 42
0.0000000001
 43
0.0000000001
 12
1.0
 22
0.0
 32
0.0
 13
1.0
 23
0.0
 33
0.0
 40
0.0
 40
0.0
 40
0.0
 40
0.0
 40
1.0
 40
1.0
 40
1.0
 40
2.0
 40
2.0
 40
2.0
 40
3.0
 40
3.0
 40
3.0
 40
4.0
 40
4.0
 40
4.0
 40
5.0
 40
5.0
 40
5.0
 40
6.0
 40
6.0
 40
6.0
 40
7.0
 40
7.0
 40
7.0
 40
8.0
 40
8.0
 40
8.0
 40
9.0
 40
9.0
 40
9.0
 40
10.0
 40
10.0
 40
10.0
 40
11.0
 40
11.0
 40
11.0
 40
12.0
 40
12.0
 40
12.0
 40
13.0
 40
13.0
 40
13.0
 40
14.0
 40
14.0
 40
14.0
 40
15.0
 40
15.0
 40
15.0
 40
16.0
 40
16.0
 40
16.0
 40
17.0
 40
17.0
 40
17.0
 40
18.0
 40
18.0
 40
18.0
 40
19.0
 40
19.0
 40
19.0
 40
20.0
 40
20.0
 40
20.0
 40
21.0
 40
21.0
 40
21.0
 40
22.0
 40
22.0
 40
22.0
 40
23.0
 40
23.0
 40
23.0
 40
24.0
 40
24.0
 40
24.0
 40
25.0
 40
25.0
 40
25.0
 40
26.0
 40
26.0
 40
26.0
 40
27.0
 40
27.0
 40
27.0
 40
28.0
 40
28.0
 40
28.0
 40
29.0
 40
29.0
 40
29.0
 40
30.0
 40
30.0
 40
30.0
 40
31.0
 40
31.0
 40
31.0
 40
32.0
 40
32.0
 40
32.0
 40
33.0
 40
33.0
 40
33.0
 40
34.0
 40
34.0
 40
34.0
 40
35.0
 40
35.0
 40
35.0
 40
36.0
 40
36.0
 40
36.0
 40
37.0
 40
37.0
 40
37.0
 40
38.0
 40
38.0
 40
38.0
 40
39.0
 40
39.0
 40
39.0
 40
40.0
 40
40.0
 40
40.0
 40
41.0
 40
41.0
 40
41.0
 40
42.0
 40
42.0
 40
42.0
 40
43.0
 40
43.0
 40
43.0
 40
44.0
 40
44.0
 40
44.0
 40
45.0
 40
45.0
 40
45.0
 40
46.0
 40
46.0
 40
46.0
 40
46.0
 10
5.856696572805444
 20
5.12478500814473
 30
0.0
 10
5.812253629494833
 20
5.280296504177302
 30
0.0
 10
5.912230849166424
 20
5.646889050380302
 30
0.0
 10
6.212197785958074
 20
5.75796113087995
 30
0.0
 10
6.334392949507283
 20
5.446938138814808
 30
0.0
 10
5.934452320821729
 20
5.113658397317483
 30
0.0
 10
5.767846109669135
 20
5.091436925662178
 30
0.0
 10
5.767846109669135
 20
5.091436925662178
 30
0.0
 10
4.756435628653217
 20
5.047029260128444
 30
0.0
 10
4.756435628653217
 20
5.047029260128444
 30
0.0
 10
4.756435628653217
 20
5.047029260128444
 30
0.0
 10
4.756435628653217
 20
1.958466999510405
 30
0.0
 10
4.756435628653217
 20
1.958466999510405
 30
0.0
 10
4.756435628653217
 20
1.958466999510405
 30
0.0
 10
5.108592508557836
 20
0.4771813332140609
 30
0.0
 10
5.108592508557836
 20
0.4771813332140609
 30
0.0
 10
5.12681700809289
 20
0.4258133610046368
 30
0.0
 10
5.150590832045692
 20
0.3928109999017906
 30
0.0
 10
5.177839256791204
 20
0.3740679165731235
 30
0.0
 10
5.177839256791204
 20
0.3740679165731235
 30
0.0
 10
5.365323002008095
 20
0.2657545554891116
 30
0.0
 10
5.365323002008095
 20
0.2657545554891116
 30
0.0
 10
5.447248583251333
 20
0.2091862860588444
 30
0.0
 10
5.559901108155105
 20
0.2807063360409196
 30
0.0
 10
5.648060272572644
 20
0.3688679721299849
 30
0.0
 10
6.146739870961379
 20
0.8677169164497394
 30
0.0
 10
6.484185917907968
 20
0.7208872775975735
 30
0.0
 10
6.586745470847012
 20
0.6622168053900275
 30
0.0
 10
6.689513331660947
 20
0.6035463331824172
 30
0.0
 10
6.821427353748667
 20
0.5448758609748712
 30
0.0
 10
6.880270685580782
 20
0.7503759720346471
 30
0.0
 10
6.880270685580782
 20
0.7503759720346471
 30
0.0
 10
7.261605814741
 20
2.466343527161176
 30
0.0
 10
7.261605814741
 20
2.466343527161176
 30
0.0
 10
7.261605814741
 20
2.466343527161176
 30
0.0
 10
7.261605814741
 20
3.541800604085583
 30
0.0
 10
7.261605814741
 20
3.541800604085583
 30
0.0
 10
7.261605814741
 20
3.541800604085583
 30
0.0
 10
6.618682442254453
 20
3.562953159101492
 30
0.0
 10
6.618682442254453
 20
3.562953159101492
 30
0.0
 10
6.618682442254453
 20
3.562953159101492
 30
0.0
 10
6.61937035890357
 20
2.574621610467476
 30
0.0
 10
6.61937035890357
 20
2.574621610467476
 30
0.0
 10
6.61937035890357
 20
2.134443138355267
 30
0.0
 10
6.296705700468765
 20
1.680033610691088
 30
0.0
 10
5.915367043530858
 20
1.533203971838923
 30
0.0
 10
5.794374998551405
 20
1.486697277406076
 30
0.0
 10
5.668733049823016
 20
1.479391249630138
 30
0.0
 10
5.566138219107094
 20
1.503679999624073
 30
0.0
 10
5.459236109746302
 20
1.607481332931452
 30
0.0
 10
5.383893223756552
 20
1.776186721778153
 30
0.0
 10
5.383893223756552
 20
1.996983277278559
 30
0.0
 10
5.383893223756552
 20
1.996983277278559
 30
0.0
 10
5.383893223756552
 20
4.456507497416133
 30
0.0
 10
5.383893223756552
 20
4.456507497416133
 30
0.0
 10
5.471879527067389
 20
4.353775083370388
 30
0.0
 10
5.691988160340839
 20
4.285389112892837
 30
0.0
 10
5.867996044739392
 20
4.344059583618251
 30
0.0
 10
5.867996044739392
 20
4.344059583618251
 30
0.0
 10
6.236140813125015
 20
4.41171883189212
 30
0.0
 10
6.236140813125015
 20
4.41171883189212
 30
0.0
 10
6.324127116435853
 20
4.44124633113881
 30
0.0
 10
6.544405083038316
 20
4.660628242208579
 30
0.0
 10
6.617648803391935
 20
4.792542433287611
 30
0.0
 10
6.617648803391935
 20
4.792542433287611
 30
0.0
 10
6.618336720041052
 20
3.311630832505411
 30
0.0
 10
6.618336720041052
 20
3.311630832505411
 30
0.0
 10
6.618336720041052
 20
3.311630832505411
 30
0.0
 10
7.261605814741
 20
3.332818665833439
 30
0.0
 10
7.261605814741
 20
3.332818665833439
 30
0.0
 10
7.261605814741
 20
3.332818665833439
 30
0.0
 10
7.261605814741
 20
6.073185706171235
 30
0.0
 10
7.261605814741
 20
6.073185706171235
 30
0.0
 10
7.324273257586666
 20
6.125587315945469
 30
0.0
 10
7.34632186813527
 20
6.177674953505492
 30
0.0
 10
7.34632186813527
 20
6.240515257457858
 30
0.0
 10
7.34632186813527
 20
6.240515257457858
 30
0.0
 10
7.34632186813527
 20
6.376595753986155
 30
0.0
 10
7.34632186813527
 20
6.376595753986155
 30
0.0
 10
7.34632186813527
 20
6.554328887250287
 30
0.0
 10
7.313661702301833
 20
6.575170832253416
 30
0.0
 10
7.261605814741
 20
6.637975858428904
 30
0.0
 10
7.261605814741
 20
6.637975858428904
 30
0.0
 10
7.261605814741
 20
8.478999561460476
 30
0.0
 10
7.261605814741
 20
8.478999561460476
 30
0.0
 10
7.261605814741
 20
8.478999561460476
 30
0.0
 10
6.620266414436266
 20
8.499824033151421
 30
0.0
 10
6.620266414436266
 20
8.499824033151421
 30
0.0
 10
6.620266414436266
 20
8.499824033151421
 30
0.0
 10
6.620957858863069
 20
7.008840543411802
 30
0.0
 10
6.620957858863069
 20
7.008840543411802
 30
0.0
 10
6.620957858863069
 20
7.008840543411802
 30
0.0
 10
5.39136858467695
 20
6.672703301987378
 30
0.0
 10
5.39136858467695
 20
6.672703301987378
 30
0.0
 10
5.39136858467695
 20
6.672703301987378
 30
0.0
 10
5.383893223756552
 20
9.712412946660146
 30
0.0
 10
5.383893223756552
 20
9.712412946660146
 30
0.0
 10
5.383893223756552
 20
10.51916984274473
 30
0.0
 10
6.058750039872852
 20
10.79792805285606
 30
0.0
 10
6.161313120589583
 20
10.82726477932902
 30
0.0
 10
6.211643924861094
 20
10.84150994563226
 30
0.0
 10
6.366329920914725
 20
10.85208622314021
 30
0.0
 10
6.512298778301861
 20
10.8012368355486
 30
0.0
 10
6.576860637765861
 20
10.72589083065187
 30
0.0
 10
6.61937035890357
 20
10.60908610845882
 30
0.0
 10
6.61937035890357
 20
10.45148942780473
 30
0.0
 10
6.61937035890357
 20
10.45148942780473
 30
0.0
 10
6.620097081107252
 20
8.18616579115351
 30
0.0
 10
6.620097081107252
 20
8.18616579115351
 30
0.0
 10
6.620097081107252
 20
8.18616579115351
 30
0.0
 10
7.261605814741
 20
8.18616579115351
 30
0.0
 10
7.261605814741
 20
8.18616579115351
 30
0.0
 10
7.261605814741
 20
8.18616579115351
 30
0.0
 10
7.261605814741
 20
10.46051701090775
 30
0.0
 10
7.261605814741
 20
10.46051701090775
 30
0.0
 10
7.261605814741
 20
10.46051701090775
 30
0.0
 10
6.806854104120461
 20
13.35015852052019
 30
0.0
 10
6.806854104120461
 20
13.35015852052019
 30
0.0
 10
6.780462799238204
 20
13.48832393366196
 30
0.0
 10
6.712941134294159
 20
13.59401968096544
 30
0.0
 10
6.611757414653348
 20
13.659287095967
 30
0.0
 10
6.611757414653348
 20
13.659287095967
 30
0.0
 10
6.399815586727101
 20
13.78217370394301
 30
0.0
 10
6.399815586727101
 20
13.78217370394301
 30
0.0
 10
6.277616895400205
 20
13.85004109110046
 30
0.0
 10
6.112012427402905
 20
13.86340784075944
 30
0.0
 10
5.915367043530858
 20
13.81047388543627
 30
0.0
 10
5.53385552548625
 20
13.70772348362017
 30
0.0
 10
5.284431059627376
 20
13.32637071557151
 30
0.0
 10
5.211190867051444
 20
13.00370252935902
 30
0.0
 10
5.211190867051444
 20
13.00370252935902
 30
0.0
 10
4.756435628653217
 20
9.879379136844928
 30
0.0
 10
4.756435628653217
 20
9.879379136844928
 30
0.0
 10
4.756435628653217
 20
9.879379136844928
 30
0.0
 10
4.756435628653217
 20
4.580459494253853
 30
0.0
 10
4.756435628653217
 20
4.580459494253853
 30
0.0
 10
4.756435628653217
 20
4.580459494253853
 30
0.0
 10
5.856696572805444
 20
5.12478500814473
 30
0.0
 10
5.856696572805444
 20
5.12478500814473
 30
0.0
  0
HATCH
  5
1A0
330
18D
100
AcDbEntity
  8
Layer 1
 62
    40
420
 16768256
100
AcDbHatch
 10
0.0
 20
0.0
 30
0.0
210
0.0
220
0.0
230
1.0
  2
SOLID
 70
     1
 71
     0
 91
        1
 92
        1
 93
        1
 72
     4
 94
        3
 73
     0
 74
     1
 95
      143
 96
      139
 40
0.0
 40
0.0
 40
0.0
 40
0.0
 40
1.0
 40
1.0
 40
1.0
 40
2.0
 40
2.0
 40
2.0
 40
3.0
 40
3.0
 40
3.0
 40
4.0
 40
4.0
 40
4.0
 40
5.0
 40
5.0
 40
5.0
 40
6.0
 40
6.0
 40
6.0
 40
7.0
 40
7.0
 40
7.0
 40
8.0
 40
8.0
 40
8.0
 40
9.0
 40
9.0
 40
9.0
 40
10.0
 40
10.0
 40
10.0
 40
11.0
 40
11.0
 40
11.0
 40
12.0
 40
12.0
 40
12.0
 40
13.0
 40
13.0
 40
13.0
 40
14.0
 40
14.0
 40
14.0
 40
15.0
 40
15.0
 40
15.0
 40
16.0
 40
16.0
 40
16.0
 40
17.0
 40
17.0
 40
17.0
 40
18.0
 40
18.0
 40
18.0
 40
19.0
 40
19.0
 40
19.0
 40
20.0
 40
20.0
 40
20.0
 40
21.0
 40
21.0
 40
21.0
 40
22.0
 40
22.0
 40
22.0
 40
23.0
 40
23.0
 40
23.0
 40
24.0
 40
24.0
 40
24.0
 40
25.0
 40
25.0
 40
25.0
 40
26.0
 40
26.0
 40
26.0
 40
27.0
 40
27.0
 40
27.0
 40
28.0
 40
28.0
 40
28.0
 40
29.0
 40
29.0
 40
29.0
 40
30.0
 40
30.0
 40
30.0
 40
31.0
 40
31.0
 40
31.0
 40
32.0
 40
32.0
 40
32.0
 40
33.0
 40
33.0
 40
33.0
 40
34.0
 40
34.0
 40
34.0
 40
35.0
 40
35.0
 40
35.0
 40
36.0
 40
36.0
 40
36.0
 40
37.0
 40
37.0
 40
37.0
 40
38.0
 40
38.0
 40
38.0
 40
39.0
 40
39.0
 40
39.0
 40
40.0
 40
40.0
 40
40.0
 40
41.0
 40
41.0
 40
41.0
 40
42.0
 40
42.0
 40
42.0
 40
43.0
 40
43.0
 40
43.0
 40
44.0
 40
44.0
 40
44.0
 40
45.0
 40
45.0
 40
45.0
 40
46.0
 40
46.0
 40
46.0
 40
46.0
 10
5.856696572805444
 20
5.12478500814473
 10
5.812253629494833
 20
5.280296504177302
 10
5.912230849166424
 20
5.646889050380302
 10
6.212197785958074
 20
5.75796113087995
 10
6.334392949507283
 20
5.446938138814808
 10
5.934452320821729
 20
5.113658397317483
 10
5.767846109669135
 20
5.091436925662178
 10
5.767846109669135
 20
5.091436925662178
 10
4.756435628653217
 20
5.047029260128444
 10
4.756435628653217
 20
5.047029260128444
 10
4.756435628653217
 20
5.047029260128444
 10
4.756435628653217
 20
1.958466999510405
 10
4.756435628653217
 20
1.958466999510405
 10
4.756435628653217
 20
1.958466999510405
 10
5.108592508557836
 20
0.4771813332140609
 10
5.108592508557836
 20
0.4771813332140609
 10
5.12681700809289
 20
0.4258133610046368
 10
5.150590832045692
 20
0.3928109999017906
 10
5.177839256791204
 20
0.3740679165731235
 10
5.177839256791204
 20
0.3740679165731235
 10
5.365323002008095
 20
0.2657545554891116
 10
5.365323002008095
 20
0.2657545554891116
 10
5.447248583251333
 20
0.2091862860588444
 10
5.559901108155105
 20
0.2807063360409196
 10
5.648060272572644
 20
0.3688679721299849
 10
6.146739870961379
 20
0.8677169164497394
 10
6.484185917907968
 20
0.7208872775975735
 10
6.586745470847012
 20
0.6622168053900275
 10
6.689513331660947
 20
0.6035463331824172
 10
6.821427353748667
 20
0.5448758609748712
 10
6.880270685580782
 20
0.7503759720346471
 10
6.880270685580782
 20
0.7503759720346471
 10
7.261605814741
 20
2.466343527161176
 10
7.261605814741
 20
2.466343527161176
 10
7.261605814741
 20
2.466343527161176
 10
7.261605814741
 20
3.541800604085583
 10
7.261605814741
 20
3.541800604085583
 10
7.261605814741
 20
3.541800604085583
 10
6.618682442254453
 20
3.562953159101492
 10
6.618682442254453
 20
3.562953159101492
 10
6.618682442254453
 20
3.562953159101492
 10
6.61937035890357
 20
2.574621610467476
 10
6.61937035890357
 20
2.574621610467476
 10
6.61937035890357
 20
2.134443138355267
 10
6.296705700468765
 20
1.680033610691088
 10
5.915367043530858
 20
1.533203971838923
 10
5.794374998551405
 20
1.486697277406076
 10
5.668733049823016
 20
1.479391249630138
 10
5.566138219107094
 20
1.503679999624073
 10
5.459236109746302
 20
1.607481332931452
 10
5.383893223756552
 20
1.776186721778153
 10
5.383893223756552
 20
1.996983277278559
 10
5.383893223756552
 20
1.996983277278559
 10
5.383893223756552
 20
4.456507497416133
 10
5.383893223756552
 20
4.456507497416133
 10
5.471879527067389
 20
4.353775083370388
 10
5.691988160340839
 20
4.285389112892837
 10
5.867996044739392
 20
4.344059583618251
 10
5.867996044739392
 20
4.344059583618251
 10
6.236140813125015
 20
4.41171883189212
 10
6.236140813125015
 20
4.41171883189212
 10
6.324127116435853
 20
4.44124633113881
 10
6.544405083038316
 20
4.660628242208579
 10
6.617648803391935
 20
4.792542433287611
 10
6.617648803391935
 20
4.792542433287611
 10
6.618336720041052
 20
3.311630832505411
 10
6.618336720041052
 20
3.311630832505411
 10
6.618336720041052
 20
3.311630832505411
 10
7.261605814741
 20
3.332818665833439
 10
7.261605814741
 20
3.332818665833439
 10
7.261605814741
 20
3.332818665833439
 10
7.261605814741
 20
6.073185706171235
 10
7.261605814741
 20
6.073185706171235
 10
7.324273257586666
 20
6.125587315945469
 10
7.34632186813527
 20
6.177674953505492
 10
7.34632186813527
 20
6.240515257457858
 10
7.34632186813527
 20
6.240515257457858
 10
7.34632186813527
 20
6.376595753986155
 10
7.34632186813527
 20
6.376595753986155
 10
7.34632186813527
 20
6.554328887250287
 10
7.313661702301833
 20
6.575170832253416
 10
7.261605814741
 20
6.637975858428904
 10
7.261605814741
 20
6.637975858428904
 10
7.261605814741
 20
8.478999561460476
 10
7.261605814741
 20
8.478999561460476
 10
7.261605814741
 20
8.478999561460476
 10
6.620266414436266
 20
8.499824033151421
 10
6.620266414436266
 20
8.499824033151421
 10
6.620266414436266
 20
8.499824033151421
 10
6.620957858863069
 20
7.008840543411802
 10
6.620957858863069
 20
7.008840543411802
 10
6.620957858863069
 20
7.008840543411802
 10
5.39136858467695
 20
6.672703301987378
 10
5.39136858467695
 20
6.672703301987378
 10
5.39136858467695
 20
6.672703301987378
 10
5.383893223756552
 20
9.712412946660146
 10
5.383893223756552
 20
9.712412946660146
 10
5.383893223756552
 20
10.51916984274473
 10
6.058750039872852
 20
10.79792805285606
 10
6.161313120589583
 20
10.82726477932902
 10
6.211643924861094
 20
10.84150994563226
 10
6.366329920914725
 20
10.85208622314021
 10
6.512298778301861
 20
10.8012368355486
 10
6.576860637765861
 20
10.72589083065187
 10
6.61937035890357
 20
10.60908610845882
 10
6.61937035890357
 20
10.45148942780473
 10
6.61937035890357
 20
10.45148942780473
 10
6.620097081107252
 20
8.18616579115351
 10
6.620097081107252
 20
8.18616579115351
 10
6.620097081107252
 20
8.18616579115351
 10
7.261605814741
 20
8.18616579115351
 10
7.261605814741
 20
8.18616579115351
 10
7.261605814741
 20
8.18616579115351
 10
7.261605814741
 20
10.46051701090775
 10
7.261605814741
 20
10.46051701090775
 10
7.261605814741
 20
10.46051701090775
 10
6.806854104120461
 20
13.35015852052019
 10
6.806854104120461
 20
13.35015852052019
 10
6.780462799238204
 20
13.48832393366196
 10
6.712941134294159
 20
13.59401968096544
 10
6.611757414653348
 20
13.659287095967
 10
6.611757414653348
 20
13.659287095967
 10
6.399815586727101
 20
13.78217370394301
 10
6.399815586727101
 20
13.78217370394301
 10
6.277616895400205
 20
13.85004109110046
 10
6.112012427402905
 20
13.86340784075944
 10
5.915367043530858
 20
13.81047388543627
 10
5.53385552548625
 20
13.70772348362017
 10
5.284431059627376
 20
13.32637071557151
 10
5.211190867051444
 20
13.00370252935902
 10
5.211190867051444
 20
13.00370252935902
 10
4.756435628653217
 20
9.879379136844928
 10
4.756435628653217
 20
9.879379136844928
 10
4.756435628653217
 20
9.879379136844928
 10
4.756435628653217
 20
4.580459494253853
 10
4.756435628653217
 20
4.580459494253853
 10
4.756435628653217
 20
4.580459494253853
 10
5.856696572805444
 20
5.12478500814473
 10
5.856696572805444
 20
5.12478500814473
 97
        0
 97
        0
 75
     2
 76
     1
 98
        0
  0
ENDBLK
  5
190
330
18D
100
AcDbEntity
  8
0
100
AcDbBlockEnd
  0
BLOCK
  5
1A3
330
1A1
100
AcDbEntity
  8
0
100
AcDbBlockBegin
  2
block 39
 70
     0
 10
0.0
 20
0.0
 30
0.0
  3
block 39
  1

  0
SPLINE
  5
1A5
330
1A1
100
AcDbEntity
  8
Layer 1
 62
     7
420
 16777215
370
     9
100
AcDbSpline
210
0.0
220
0.0
230
1.0
 70
     8
 71
     3
 72
    23
 73
    19
 74
     0
 42
0.0000000001
 43
0.0000000001
 12
1.0
 22
0.0
 32
0.0
 13
1.0
 23
0.0
 33
0.0
 40
0.0
 40
0.0
 40
0.0
 40
0.0
 40
1.0
 40
1.0
 40
1.0
 40
2.0
 40
2.0
 40
2.0
 40
3.0
 40
3.0
 40
3.0
 40
4.0
 40
4.0
 40
4.0
 40
5.0
 40
5.0
 40
5.0
 40
6.0
 40
6.0
 40
6.0
 40
6.0
 10
5.365323002008095
 20
0.2657545554891116
 30
0.0
 10
5.33807091937002
 20
0.2844958749288708
 30
0.0
 10
5.314300753309781
 20
0.317499999920625
 30
0.0
 10
5.296076387564869
 20
0.3688679721299849
 30
0.0
 10
5.296076387564869
 20
0.3688679721299849
 30
0.0
 10
4.943884096093231
 20
1.850153638426329
 30
0.0
 10
4.943884096093231
 20
1.850153638426329
 30
0.0
 10
4.943884096093231
 20
1.850153638426329
 30
0.0
 10
4.943884096093231
 20
9.771065778497121
 30
0.0
 10
4.943884096093231
 20
9.771065778497121
 30
0.0
 10
4.943884096093231
 20
9.771065778497121
 30
0.0
 10
5.39863580671377
 20
12.89538917101121
 30
0.0
 10
5.39863580671377
 20
12.89538917101121
 30
0.0
 10
5.471879527067389
 20
13.21807146833446
 30
0.0
 10
5.721303992926263
 20
13.59958332993344
 30
0.0
 10
6.10264264986417
 20
13.70216017820655
 30
0.0
 10
6.313032255607795
 20
13.75874573231848
 30
0.0
 10
6.487459695602225
 20
13.73966045502761
 30
0.0
 10
6.611757414653348
 20
13.659287095967
 30
0.0
  0
SPLINE
  5
1A6
330
1A1
100
AcDbEntity
  8
Layer 1
 62
     7
420
 16777215
370
    20
100
AcDbSpline
210
0.0
220
0.0
230
1.0
 70
     8
 71
     3
 72
    11
 73
     7
 74
     0
 42
0.0000000001
 43
0.0000000001
 12
1.0
 22
0.0
 32
0.0
 13
1.0
 23
0.0
 33
0.0
 40
0.0
 40
0.0
 40
0.0
 40
0.0
 40
1.0
 40
1.0
 40
1.0
 40
2.0
 40
2.0
 40
2.0
 40
2.0
 10
5.676345994073237
 20
1.423169055199768
 30
0.0
 10
5.501576359643093
 20
1.505094638512614
 30
0.0
 10
5.383893223756552
 20
1.702600805129881
 30
0.0
 10
5.383893223756552
 20
1.996983277278559
 30
0.0
 10
5.383893223756552
 20
1.996983277278559
 30
0.0
 10
5.383893223756552
 20
4.547111411771301
 30
0.0
 10
5.383893223756552
 20
4.547111411771301
 30
0.0
  0
SPLINE
  5
1A7
330
1A1
100
AcDbEntity
  8
Layer 1
 62
     7
420
 16777215
370
    20
100
AcDbSpline
210
0.0
220
0.0
230
1.0
 70
     8
 71
     3
 72
    14
 73
    10
 74
     0
 42
0.0000000001
 43
0.0000000001
 12
1.0
 22
0.0
 32
0.0
 13
1.0
 23
0.0
 33
0.0
 40
0.0
 40
0.0
 40
0.0
 40
0.0
 40
1.0
 40
1.0
 40
1.0
 40
2.0
 40
2.0
 40
2.0
 40
3.0
 40
3.0
 40
3.0
 40
3.0
 10
5.383893223756552
 20
5.902377766084464
 30
0.0
 10
5.383893223756552
 20
5.902377766084464
 30
0.0
 10
5.383893223756552
 20
9.712412946660146
 30
0.0
 10
5.383893223756552
 20
9.712412946660146
 30
0.0
 10
5.383893223756552
 20
10.51916984274473
 30
0.0
 10
6.058750039872852
 20
10.79792805285606
 30
0.0
 10
6.161313120589583
 20
10.82726477932902
 30
0.0
 10
6.228492591097915
 20
10.84636769550833
 30
0.0
 10
6.482947667939558
 20
10.87187705596864
 30
0.0
 10
6.651653052524415
 20
10.73197244842679
 30
0.0
  0
SPLINE
  5
1A8
330
1A1
100
AcDbEntity
  8
Layer 1
 62
     7
420
 16777215
370
     9
100
AcDbSpline
210
0.0
220
0.0
230
1.0
 70
     8
 71
     3
 72
    14
 73
    10
 74
     0
 42
0.0000000001
 43
0.0000000001
 12
1.0
 22
0.0
 32
0.0
 13
1.0
 23
0.0
 33
0.0
 40
0.0
 40
0.0
 40
0.0
 40
0.0
 40
1.0
 40
1.0
 40
1.0
 40
2.0
 40
2.0
 40
2.0
 40
3.0
 40
3.0
 40
3.0
 40
3.0
 10
7.348904201402722
 20
6.471715223781677
 30
0.0
 10
7.342324896015019
 20
6.327986665084676
 30
0.0
 10
7.072400514012474
 20
6.21653695251404
 30
0.0
 10
6.674770579712415
 20
6.206821452761903
 30
0.0
 10
6.469408057173871
 20
6.206821452761903
 30
0.0
 10
6.161485981696285
 20
6.207167174975305
 30
0.0
 10
5.882742155474299
 20
6.368259615309939
 30
0.0
 10
5.882742155474299
 20
6.368259615309939
 30
0.0
 10
5.416345250706409
 20
6.637287941779788
 30
0.0
 10
5.416345250706409
 20
6.637287941779788
 30
0.0
  0
SPLINE
  5
1A9
330
1A1
100
AcDbEntity
  8
Layer 1
 62
     7
420
 16777215
370
    20
100
AcDbSpline
210
0.0
220
0.0
230
1.0
 70
     8
 71
     3
 72
    20
 73
    16
 74
     0
 42
0.0000000001
 43
0.0000000001
 12
1.0
 22
0.0
 32
0.0
 13
1.0
 23
0.0
 33
0.0
 40
0.0
 40
0.0
 40
0.0
 40
0.0
 40
1.0
 40
1.0
 40
1.0
 40
2.0
 40
2.0
 40
2.0
 40
3.0
 40
3.0
 40
3.0
 40
4.0
 40
4.0
 40
4.0
 40
5.0
 40
5.0
 40
5.0
 40
5.0
 10
5.39863580671377
 20
6.676181690787526
 30
0.0
 10
5.39863580671377
 20
6.676181690787526
 30
0.0
 10
6.622679414374705
 20
7.004155831582282
 30
0.0
 10
6.622679414374705
 20
7.004155831582282
 30
0.0
 10
6.622679414374705
 20
7.004155831582282
 30
0.0
 10
7.165110511647246
 20
6.690754940415731
 30
0.0
 10
7.165110511647246
 20
6.690754940415731
 30
0.0
 10
7.29561006387348
 20
6.615408664560197
 30
0.0
 10
7.352040395767156
 20
6.540101194259228
 30
0.0
 10
7.348904201402722
 20
6.471715223781677
 30
0.0
 10
7.348904201402722
 20
6.471715223781677
 30
0.0
 10
7.348904201402722
 20
6.207509369411019
 30
0.0
 10
7.348904201402722
 20
6.207509369411019
 30
0.0
 10
7.346836923677685
 20
6.162036315015578
 30
0.0
 10
7.318004396635486
 20
6.119350204993481
 30
0.0
 10
7.26663642572377
 20
6.08255548370997
 30
0.0
  0
SPLINE
  5
1AA
330
1A1
100
AcDbEntity
  8
Layer 1
 62
     7
420
 16777215
370
    20
100
AcDbSpline
210
0.0
220
0.0
230
1.0
 70
     8
 71
     3
 72
    14
 73
    10
 74
     0
 42
0.0000000001
 43
0.0000000001
 12
1.0
 22
0.0
 32
0.0
 13
1.0
 23
0.0
 33
0.0
 40
0.0
 40
0.0
 40
0.0
 40
0.0
 40
1.0
 40
1.0
 40
1.0
 40
2.0
 40
2.0
 40
2.0
 40
3.0
 40
3.0
 40
3.0
 40
3.0
 10
7.26663642572377
 20
6.08255548370997
 30
0.0
 10
7.157289428513445
 20
6.003388624618573
 30
0.0
 10
6.945520461693899
 20
5.949611181546106
 30
0.0
 10
6.674770579712415
 20
5.942650876168122
 30
0.0
 10
6.469408057173871
 20
5.942650876168122
 30
0.0
 10
6.161485981696285
 20
5.942996598381525
 30
0.0
 10
5.882742155474299
 20
6.104089038716158
 30
0.0
 10
5.882742155474299
 20
6.104089038716158
 30
0.0
 10
5.416345250706409
 20
6.373459720628888
 30
0.0
 10
5.416345250706409
 20
6.373459720628888
 30
0.0
  0
SPLINE
  5
1AB
330
1A1
100
AcDbEntity
  8
Layer 1
 62
     7
420
 16777215
370
    20
100
AcDbSpline
210
0.0
220
0.0
230
1.0
 70
     8
 71
     3
 72
     8
 73
     4
 74
     0
 42
0.0000000001
 43
0.0000000001
 12
1.0
 22
0.0
 32
0.0
 13
1.0
 23
0.0
 33
0.0
 40
0.0
 40
0.0
 40
0.0
 40
0.0
 40
1.0
 40
1.0
 40
1.0
 40
1.0
 10
5.383893223756552
 20
4.461365247292201
 30
0.0
 10
5.471879527067389
 20
4.358632833246457
 30
0.0
 10
5.691988160340839
 20
4.285389112892837
 30
0.0
 10
5.867996044739392
 20
4.344059583618251
 30
0.0
  0
SPLINE
  5
1AC
330
1A1
100
AcDbEntity
  8
Layer 1
 62
     7
420
 16777215
370
     9
100
AcDbSpline
210
0.0
220
0.0
230
1.0
 70
     8
 71
     3
 72
    17
 73
    13
 74
     0
 42
0.0000000001
 43
0.0000000001
 12
1.0
 22
0.0
 32
0.0
 13
1.0
 23
0.0
 33
0.0
 40
0.0
 40
0.0
 40
0.0
 40
0.0
 40
1.0
 40
1.0
 40
1.0
 40
2.0
 40
2.0
 40
2.0
 40
3.0
 40
3.0
 40
3.0
 40
4.0
 40
4.0
 40
4.0
 40
4.0
 10
7.095313609337296
 20
6.515089250452892
 30
0.0
 10
7.095313609337296
 20
6.572726082315787
 30
0.0
 10
7.03943360935124
 20
6.63001719196528
 30
0.0
 10
6.94310746175546
 20
6.670636024262341
 30
0.0
 10
6.846954353097419
 20
6.711251328781714
 30
0.0
 10
6.711734634324939
 20
6.734852161512939
 30
0.0
 10
6.575654137796642
 20
6.734852161512939
 30
0.0
 10
6.439573641268344
 20
6.734852161512939
 30
0.0
 10
6.304181061389164
 20
6.711251328781714
 30
0.0
 10
6.208027952731123
 20
6.670636024262341
 30
0.0
 10
6.111666705189503
 20
6.63001719196528
 30
0.0
 10
6.055617373286107
 20
6.572726082315787
 30
0.0
 10
6.055617373286107
 20
6.515089250452892
 30
0.0
  0
SPLINE
  5
1AD
330
1A1
100
AcDbEntity
  8
Layer 1
 62
     7
420
 16777215
370
    20
100
AcDbSpline
210
0.0
220
0.0
230
1.0
 70
     8
 71
     3
 72
    17
 73
    13
 74
     0
 42
0.0000000001
 43
0.0000000001
 12
1.0
 22
0.0
 32
0.0
 13
1.0
 23
0.0
 33
0.0
 40
0.0
 40
0.0
 40
0.0
 40
0.0
 40
1.0
 40
1.0
 40
1.0
 40
2.0
 40
2.0
 40
2.0
 40
3.0
 40
3.0
 40
3.0
 40
4.0
 40
4.0
 40
4.0
 40
4.0
 10
6.055617373286107
 20
6.515089250452892
 30
0.0
 10
6.055617373286107
 20
6.457829890802588
 30
0.0
 10
6.111666705189503
 20
6.400538781153095
 30
0.0
 10
6.208027952731123
 20
6.359923476633723
 30
0.0
 10
6.304181061389164
 20
6.319304644336662
 30
0.0
 10
6.439573641268344
 20
6.295361617169722
 30
0.0
 10
6.575654137796642
 20
6.295361617169722
 30
0.0
 10
6.711734634324939
 20
6.295361617169722
 30
0.0
 10
6.846954353097419
 20
6.319304644336662
 30
0.0
 10
6.94310746175546
 20
6.359923476633723
 30
0.0
 10
7.03943360935124
 20
6.400538781153095
 30
0.0
 10
7.095313609337296
 20
6.457829890802588
 30
0.0
 10
7.095313609337296
 20
6.515089250452892
 30
0.0
  0
INSERT
  5
1AF
330
1A1
100
AcDbEntity
  8
Layer 1
100
AcDbBlockReference
  2
block 40
 10
0.0
 20
0.0
 30
0.0
  0
SPLINE
  5
1B3
330
1A1
100
AcDbEntity
  8
Layer 1
 62
     7
420
 16777215
370
     9
100
AcDbSpline
210
0.0
220
0.0
230
1.0
 70
     8
 71
     3
 72
    11
 73
     7
 74
     0
 42
0.0000000001
 43
0.0000000001
 12
1.0
 22
0.0
 32
0.0
 13
1.0
 23
0.0
 33
0.0
 40
0.0
 40
0.0
 40
0.0
 40
0.0
 40
1.0
 40
1.0
 40
1.0
 40
2.0
 40
2.0
 40
2.0
 40
2.0
 10
6.651653052524415
 20
10.73197244842679
 30
0.0
 10
6.741396189123765
 20
10.65767745032222
 30
0.0
 10
6.806854104120461
 20
10.53670289785298
 30
0.0
 10
6.806854104120461
 20
10.34317606945693
 30
0.0
 10
6.806854104120461
 20
10.34317606945693
 30
0.0
 10
6.806854104120461
 20
6.896255046284097
 30
0.0
 10
6.806854104120461
 20
6.896255046284097
 30
0.0
  0
SPLINE
  5
1B4
330
1A1
100
AcDbEntity
  8
Layer 1
 62
     7
420
 16777215
370
     9
100
AcDbSpline
210
0.0
220
0.0
230
1.0
 70
     8
 71
     3
 72
    14
 73
    10
 74
     0
 42
0.0000000001
 43
0.0000000001
 12
1.0
 22
0.0
 32
0.0
 13
1.0
 23
0.0
 33
0.0
 40
0.0
 40
0.0
 40
0.0
 40
0.0
 40
1.0
 40
1.0
 40
1.0
 40
2.0
 40
2.0
 40
2.0
 40
3.0
 40
3.0
 40
3.0
 40
3.0
 10
6.806854104120461
 20
4.991459705990587
 30
0.0
 10
6.806854104120461
 20
4.991459705990587
 30
0.0
 10
6.806854104120461
 20
2.466343527161176
 30
0.0
 10
6.806854104120461
 20
2.466343527161176
 30
0.0
 10
6.806854104120461
 20
2.026507249493345
 30
0.0
 10
6.484185917907968
 20
1.571720249607076
 30
0.0
 10
6.10264264986417
 20
1.424890610754911
 30
0.0
 10
5.946439709404794
 20
1.364844305214352
 30
0.0
 10
5.797683907644315
 20
1.366220138547364
 30
0.0
 10
5.676345994073237
 20
1.423169055199768
 30
0.0
  0
SPLINE
  5
1B5
330
1A1
100
AcDbEntity
  8
Layer 1
 62
     7
420
 16777215
370
    20
100
AcDbSpline
210
0.0
220
0.0
230
1.0
 70
     8
 71
     3
 72
    11
 73
     7
 74
     0
 42
0.0000000001
 43
0.0000000001
 12
1.0
 22
0.0
 32
0.0
 13
1.0
 23
0.0
 33
0.0
 40
0.0
 40
0.0
 40
0.0
 40
0.0
 40
1.0
 40
1.0
 40
1.0
 40
2.0
 40
2.0
 40
2.0
 40
2.0
 10
6.511438000546043
 20
10.79393080795722
 30
0.0
 10
6.575999860010044
 20
10.71860569876781
 30
0.0
 10
6.61937035890357
 20
10.60908610845882
 30
0.0
 10
6.61937035890357
 20
10.45148942780473
 30
0.0
 10
6.61937035890357
 20
10.45148942780473
 30
0.0
 10
6.61937035890357
 20
7.01352543218117
 30
0.0
 10
6.61937035890357
 20
7.01352543218117
 30
0.0
  0
SPLINE
  5
1B6
330
1A1
100
AcDbEntity
  8
Layer 1
 62
     7
420
 16777215
370
    20
100
AcDbSpline
210
0.0
220
0.0
230
1.0
 70
     8
 71
     3
 72
    14
 73
    10
 74
     0
 42
0.0000000001
 43
0.0000000001
 12
1.0
 22
0.0
 32
0.0
 13
1.0
 23
0.0
 33
0.0
 40
0.0
 40
0.0
 40
0.0
 40
0.0
 40
1.0
 40
1.0
 40
1.0
 40
2.0
 40
2.0
 40
2.0
 40
3.0
 40
3.0
 40
3.0
 40
3.0
 10
6.61937035890357
 20
4.735971109927104
 30
0.0
 10
6.61937035890357
 20
4.735971109927104
 30
0.0
 10
6.61937035890357
 20
2.574621610467476
 30
0.0
 10
6.61937035890357
 20
2.574621610467476
 30
0.0
 10
6.61937035890357
 20
2.134443138355267
 30
0.0
 10
6.296705700468765
 20
1.680033610691088
 30
0.0
 10
5.915367043530858
 20
1.533203971838923
 30
0.0
 10
5.794374998551405
 20
1.486697277406076
 30
0.0
 10
5.677929966255049
 20
1.476946499630777
 30
0.0
 10
5.575335276383917
 20
1.501270527402488
 30
0.0
  0
SPLINE
  5
1B7
330
1A1
100
AcDbEntity
  8
Layer 1
 62
     7
420
 16777215
370
    20
100
AcDbSpline
210
0.0
220
0.0
230
1.0
 70
     8
 71
     3
 72
    53
 73
    49
 74
     0
 42
0.0000000001
 43
0.0000000001
 12
1.0
 22
0.0
 32
0.0
 13
1.0
 23
0.0
 33
0.0
 40
0.0
 40
0.0
 40
0.0
 40
0.0
 40
1.0
 40
1.0
 40
1.0
 40
2.0
 40
2.0
 40
2.0
 40
3.0
 40
3.0
 40
3.0
 40
4.0
 40
4.0
 40
4.0
 40
5.0
 40
5.0
 40
5.0
 40
6.0
 40
6.0
 40
6.0
 40
7.0
 40
7.0
 40
7.0
 40
8.0
 40
8.0
 40
8.0
 40
9.0
 40
9.0
 40
9.0
 40
10.0
 40
10.0
 40
10.0
 40
11.0
 40
11.0
 40
11.0
 40
12.0
 40
12.0
 40
12.0
 40
13.0
 40
13.0
 40
13.0
 40
14.0
 40
14.0
 40
14.0
 40
15.0
 40
15.0
 40
15.0
 40
16.0
 40
16.0
 40
16.0
 40
16.0
 10
7.261605814741
 20
6.637975858428904
 30
0.0
 10
7.261605814741
 20
6.637975858428904
 30
0.0
 10
7.261605814741
 20
10.46051701090775
 30
0.0
 10
7.261605814741
 20
10.46051701090775
 30
0.0
 10
7.261605814741
 20
10.46051701090775
 30
0.0
 10
6.806854104120461
 20
13.35015852052019
 30
0.0
 10
6.806854104120461
 20
13.35015852052019
 30
0.0
 10
6.780462799238204
 20
13.48832393366196
 30
0.0
 10
6.712941134294159
 20
13.59401968096544
 30
0.0
 10
6.611757414653348
 20
13.659287095967
 30
0.0
 10
6.611757414653348
 20
13.659287095967
 30
0.0
 10
6.399815586727101
 20
13.78217370394301
 30
0.0
 10
6.399815586727101
 20
13.78217370394301
 30
0.0
 10
6.277616895400205
 20
13.85004109110046
 30
0.0
 10
6.112012427402905
 20
13.86340784075944
 30
0.0
 10
5.915367043530858
 20
13.81047388543627
 30
0.0
 10
5.53385552548625
 20
13.70772348362017
 30
0.0
 10
5.284431059627376
 20
13.32637071557151
 30
0.0
 10
5.211190867051444
 20
13.00370252935902
 30
0.0
 10
5.211190867051444
 20
13.00370252935902
 30
0.0
 10
4.756435628653217
 20
9.879379136844928
 30
0.0
 10
4.756435628653217
 20
9.879379136844928
 30
0.0
 10
4.756435628653217
 20
9.879379136844928
 30
0.0
 10
4.756435628653217
 20
1.958466999510405
 30
0.0
 10
4.756435628653217
 20
1.958466999510405
 30
0.0
 10
4.756435628653217
 20
1.958466999510405
 30
0.0
 10
5.108592508557836
 20
0.4771813332140609
 30
0.0
 10
5.108592508557836
 20
0.4771813332140609
 30
0.0
 10
5.12681700809289
 20
0.4258133610046368
 30
0.0
 10
5.150590832045692
 20
0.3928109999017906
 30
0.0
 10
5.177839256791204
 20
0.3740679165731235
 30
0.0
 10
5.177839256791204
 20
0.3740679165731235
 30
0.0
 10
5.365323002008095
 20
0.2657545554891116
 30
0.0
 10
5.365323002008095
 20
0.2657545554891116
 30
0.0
 10
5.447248583251333
 20
0.2091862860588444
 30
0.0
 10
5.559901108155105
 20
0.2807063360409196
 30
0.0
 10
5.648060272572644
 20
0.3688679721299849
 30
0.0
 10
6.146739870961379
 20
0.8677169164497394
 30
0.0
 10
6.484185917907968
 20
0.7208872775975735
 30
0.0
 10
6.586745470847012
 20
0.6622168053900275
 30
0.0
 10
6.689513331660947
 20
0.6035463331824172
 30
0.0
 10
6.821427353748667
 20
0.5448758609748712
 30
0.0
 10
6.880270685580782
 20
0.7503759720346471
 30
0.0
 10
6.880270685580782
 20
0.7503759720346471
 30
0.0
 10
7.261605814741
 20
2.466343527161176
 30
0.0
 10
7.261605814741
 20
2.466343527161176
 30
0.0
 10
7.261605814741
 20
2.466343527161176
 30
0.0
 10
7.261605814741
 20
6.073185706171235
 30
0.0
 10
7.261605814741
 20
6.073185706171235
 30
0.0
  0
SPLINE
  5
1B8
330
1A1
100
AcDbEntity
  8
Layer 1
 62
     7
420
 16777215
370
    20
100
AcDbSpline
210
0.0
220
0.0
230
1.0
 70
     8
 71
     3
 72
    26
 73
    22
 74
     0
 42
0.0000000001
 43
0.0000000001
 12
1.0
 22
0.0
 32
0.0
 13
1.0
 23
0.0
 33
0.0
 40
0.0
 40
0.0
 40
0.0
 40
0.0
 40
1.0
 40
1.0
 40
1.0
 40
2.0
 40
2.0
 40
2.0
 40
3.0
 40
3.0
 40
3.0
 40
4.0
 40
4.0
 40
4.0
 40
5.0
 40
5.0
 40
5.0
 40
6.0
 40
6.0
 40
6.0
 40
7.0
 40
7.0
 40
7.0
 40
7.0
 10
6.979556460825568
 20
5.926701942962776
 30
0.0
 10
6.979556460825568
 20
5.926701942962776
 30
0.0
 10
6.980075044145671
 20
5.926320793251405
 30
0.0
 10
6.980075044145671
 20
5.926320793251405
 30
0.0
 10
7.037881387129411
 20
5.658329633421761
 30
0.0
 10
6.981278016337203
 20
5.322982614199399
 30
0.0
 10
6.802342076457795
 20
5.012993260996775
 30
0.0
 10
6.495450276153901
 20
4.481519441222469
 30
0.0
 10
5.945236737213262
 20
4.224961808878911
 30
0.0
 10
5.57326785781409
 20
4.43986697006289
 30
0.0
 10
5.57326785781409
 20
4.43986697006289
 30
0.0
 10
5.484039776757156
 20
4.491231413196918
 30
0.0
 10
5.484039776757156
 20
4.491231413196918
 30
0.0
 10
5.112074425135671
 20
4.706104824381708
 30
0.0
 10
5.059295343148844
 20
5.310854114508823
 30
0.0
 10
5.366010918657211
 20
5.842331462060818
 30
0.0
 10
5.454723944171731
 20
5.996121402581753
 30
0.0
 10
5.563898080275356
 20
6.126652704807178
 30
0.0
 10
5.68330629945122
 20
6.229730841066325
 30
0.0
 10
5.68330629945122
 20
6.229730841066325
 30
0.0
 10
5.681754077268599
 20
6.228697202203806
 30
0.0
 10
5.681754077268599
 20
6.228697202203806
 30
0.0
  0
SPLINE
  5
1B9
330
1A1
100
AcDbEntity
  8
Layer 1
 62
     7
420
 16777215
370
     9
100
AcDbSpline
210
0.0
220
0.0
230
1.0
 70
     8
 71
     3
 72
    17
 73
    13
 74
     0
 42
0.0000000001
 43
0.0000000001
 12
1.0
 22
0.0
 32
0.0
 13
1.0
 23
0.0
 33
0.0
 40
0.0
 40
0.0
 40
0.0
 40
0.0
 40
1.0
 40
1.0
 40
1.0
 40
2.0
 40
2.0
 40
2.0
 40
3.0
 40
3.0
 40
3.0
 40
4.0
 40
4.0
 40
4.0
 40
4.0
 10
5.973176736500454
 20
6.062782289769982
 30
0.0
 10
5.84732694298262
 20
5.968696458836978
 30
0.0
 10
5.731742687104394
 20
5.839540989909786
 30
0.0
 10
5.640793050535824
 20
5.682304410587892
 30
0.0
 10
5.377828973911263
 20
5.226829505541359
 30
0.0
 10
5.423132694977691
 20
4.708203852105934
 30
0.0
 10
5.741973242398947
 20
4.524202023466879
 30
0.0
 10
6.060817317597889
 20
4.340235472604701
 30
0.0
 10
6.53241769445525
 20
4.560308828101273
 30
0.0
 10
6.795381942745599
 20
5.015783733147806
 30
0.0
 10
6.976078072025421
 20
5.328909280714864
 30
0.0
 10
7.011320571126309
 20
5.671523521974047
 30
0.0
 10
6.912031268103835
 20
5.915229460201035
 30
0.0
  0
SPLINE
  5
1BA
330
1A1
100
AcDbEntity
  8
Layer 1
 62
     7
420
 16777215
370
     9
100
AcDbSpline
210
0.0
220
0.0
230
1.0
 70
     8
 71
     3
 72
    11
 73
     7
 74
     0
 42
0.0000000001
 43
0.0000000001
 12
1.0
 22
0.0
 32
0.0
 13
1.0
 23
0.0
 33
0.0
 40
0.0
 40
0.0
 40
0.0
 40
0.0
 40
1.0
 40
1.0
 40
1.0
 40
2.0
 40
2.0
 40
2.0
 40
2.0
 10
5.981685736283372
 20
4.935583235193892
 30
0.0
 10
6.141194204436194
 20
4.843596431985115
 30
0.0
 10
6.376906198422679
 20
4.953634998761579
 30
0.0
 10
6.50847466728831
 20
5.181353054260202
 30
0.0
 10
6.63987027504724
 20
5.409074500891901
 30
0.0
 10
6.617303081178533
 20
5.668422605386491
 30
0.0
 10
6.457967474132412
 20
5.760405880817579
 30
0.0
  0
SPLINE
  5
1BB
330
1A1
100
AcDbEntity
  8
Layer 1
 62
     7
420
 16777215
370
    20
100
AcDbSpline
210
0.0
220
0.0
230
1.0
 70
     8
 71
     3
 72
    11
 73
     7
 74
     0
 42
0.0000000001
 43
0.0000000001
 12
1.0
 22
0.0
 32
0.0
 13
1.0
 23
0.0
 33
0.0
 40
0.0
 40
0.0
 40
0.0
 40
0.0
 40
1.0
 40
1.0
 40
1.0
 40
2.0
 40
2.0
 40
2.0
 40
2.0
 10
6.457967474132412
 20
5.760405880817579
 30
0.0
 10
6.298462533757277
 20
5.852389156248669
 30
0.0
 10
6.062747011993103
 20
5.742354242389227
 30
0.0
 10
5.931178543127473
 20
5.514632664865554
 30
0.0
 10
5.799782935368543
 20
5.286879337342693
 30
0.0
 10
5.822350276322178
 20
5.027566510624981
 30
0.0
 10
5.981685736283372
 20
4.935583235193892
 30
0.0
  0
SPLINE
  5
1BC
330
1A1
100
AcDbEntity
  8
Layer 1
 62
     7
420
 16777215
370
     9
100
AcDbSpline
210
0.0
220
0.0
230
1.0
 70
     8
 71
     3
 72
    11
 73
     7
 74
     0
 42
0.0000000001
 43
0.0000000001
 12
1.0
 22
0.0
 32
0.0
 13
1.0
 23
0.0
 33
0.0
 40
0.0
 40
0.0
 40
0.0
 40
0.0
 40
1.0
 40
1.0
 40
1.0
 40
2.0
 40
2.0
 40
2.0
 40
2.0
 10
5.772703713837169
 20
6.178366397932296
 30
0.0
 10
5.653263887475572
 20
6.075252983896272
 30
0.0
 10
5.544262469665191
 20
5.944376109625031
 30
0.0
 10
5.455411860820847
 20
5.790621296713387
 30
0.0
 10
5.14852342420578
 20
5.259454393597917
 30
0.0
 10
5.201475367299308
 20
4.654391131256589
 30
0.0
 10
5.57326785781409
 20
4.43986697006289
 30
0.0
  0
SPLINE
  5
1BD
330
1A1
100
AcDbEntity
  8
Layer 1
 62
     7
420
 16777215
370
    20
100
AcDbSpline
210
0.0
220
0.0
230
1.0
 70
     8
 71
     3
 72
    11
 73
     7
 74
     0
 42
0.0000000001
 43
0.0000000001
 12
1.0
 22
0.0
 32
0.0
 13
1.0
 23
0.0
 33
0.0
 40
0.0
 40
0.0
 40
0.0
 40
0.0
 40
1.0
 40
1.0
 40
1.0
 40
2.0
 40
2.0
 40
2.0
 40
2.0
 10
5.885705488732031
 20
5.133812591247751
 30
0.0
 10
5.982027930719085
 20
5.177874534568081
 30
0.0
 10
6.074529789470278
 20
5.262932782398065
 30
0.0
 10
6.141021343329492
 20
5.377483251697861
 30
0.0
 10
6.207855091624421
 20
5.493444832072768
 30
0.0
 10
6.234761452049094
 20
5.617365078911299
 30
0.0
 10
6.224149896764262
 20
5.723611159534069
 30
0.0
  0
ENDBLK
  5
1A4
330
1A1
100
AcDbEntity
  8
0
100
AcDbBlockEnd
  0
BLOCK
  5
1B0
330
1AE
100
AcDbEntity
  8
0
100
AcDbBlockBegin
  2
block 40
 70
     0
 10
0.0
 20
0.0
 30
0.0
  3
block 40
  1

  0
SPLINE
  5
1B2
330
1AE
100
AcDbEntity
  8
Layer 1
 62
     7
420
 16777215
370
    20
100
AcDbSpline
210
0.0
220
0.0
230
1.0
 70
     8
 71
     3
 72
    17
 73
    13
 74
     0
 42
0.0000000001
 43
0.0000000001
 12
1.0
 22
0.0
 32
0.0
 13
1.0
 23
0.0
 33
0.0
 40
0.0
 40
0.0
 40
0.0
 40
0.0
 40
1.0
 40
1.0
 40
1.0
 40
2.0
 40
2.0
 40
2.0
 40
3.0
 40
3.0
 40
3.0
 40
4.0
 40
4.0
 40
4.0
 40
4.0
 10
7.006462821250241
 20
6.403329253304126
 30
0.0
 10
6.987892776030816
 20
6.414766308567899
 30
0.0
 10
6.966877627815699
 20
6.425896447172835
 30
0.0
 10
6.94310746175546
 20
6.435954141360686
 30
0.0
 10
6.846954353097419
 20
6.476572973657746
 30
0.0
 10
6.711734634324939
 20
6.500170278611284
 30
0.0
 10
6.575654137796642
 20
6.500170278611284
 30
0.0
 10
6.439573641268344
 20
6.500170278611284
 30
0.0
 10
6.304181061389164
 20
6.476572973657746
 30
0.0
 10
6.208027952731123
 20
6.435954141360686
 30
0.0
 10
6.183876942898449
 20
6.425550724959432
 30
0.0
 10
6.162209176122279
 20
6.414424114132184
 30
0.0
 10
6.143430815490244
 20
6.402606058878132
 30
0.0
  0
ENDBLK
  5
1B1
330
1AE
100
AcDbEntity
  8
0
100
AcDbBlockEnd
  0
BLOCK
  5
1C0
330
1BE
100
AcDbEntity
  8
0
100
AcDbBlockBegin
  2
block 41
 70
     0
 10
0.0
 20
0.0
 30
0.0
  3
block 41
  1

  0
INSERT
  5
1C3
330
1BE
100
AcDbEntity
  8
Layer 1
100
AcDbBlockReference
  2
block 42
 10
0.0
 20
0.0
 30
0.0
  0
SPLINE
  5
1FE
330
1BE
100
AcDbEntity
  8
Layer 1
370
     0
100
AcDbSpline
210
0.0
220
0.0
230
1.0
 70
    11
 71
     3
 72
    32
 73
    28
 74
     0
 42
0.0000000001
 43
0.0000000001
 12
1.0
 22
0.0
 32
0.0
 13
1.0
 23
0.0
 33
0.0
 40
0.0
 40
0.0
 40
0.0
 40
0.0
 40
1.0
 40
1.0
 40
1.0
 40
2.0
 40
2.0
 40
2.0
 40
3.0
 40
3.0
 40
3.0
 40
4.0
 40
4.0
 40
4.0
 40
5.0
 40
5.0
 40
5.0
 40
6.0
 40
6.0
 40
6.0
 40
7.0
 40
7.0
 40
7.0
 40
8.0
 40
8.0
 40
8.0
 40
9.0
 40
9.0
 40
9.0
 40
9.0
 10
5.687299743793783
 20
6.131168260247533
 30
0.0
 10
6.009452874463862
 20
5.942308681732408
 30
0.0
 10
6.420484998394864
 20
5.764575714044532
 30
0.0
 10
7.109195235295985
 20
5.942308681732408
 30
0.0
 10
7.109195235295985
 20
5.942308681732408
 30
0.0
 10
7.409158644309948
 20
5.475738915857817
 30
0.0
 10
7.409158644309948
 20
5.475738915857817
 30
0.0
 10
7.409158644309948
 20
5.475738915857817
 30
0.0
 10
7.520230724809596
 20
4.62035513212492
 30
0.0
 10
7.520230724809596
 20
4.62035513212492
 30
0.0
 10
7.520230724809596
 20
4.62035513212492
 30
0.0
 10
7.08697376364068
 20
4.309332140059777
 30
0.0
 10
7.08697376364068
 20
4.309332140059777
 30
0.0
 10
7.08697376364068
 20
4.309332140059777
 30
0.0
 10
6.398266892322167
 20
4.176042221178219
 30
0.0
 10
6.398266892322167
 20
4.176042221178219
 30
0.0
 10
6.398266892322167
 20
4.176042221178219
 30
0.0
 10
5.698394604621841
 20
4.431530831386674
 30
0.0
 10
5.698394604621841
 20
4.431530831386674
 30
0.0
 10
5.698394604621841
 20
4.431530831386674
 30
0.0
 10
5.254046310402555
 20
5.031390621638531
 30
0.0
 10
5.254046310402555
 20
5.031390621638531
 30
0.0
 10
5.254046310402555
 20
5.031390621638531
 30
0.0
 10
5.309615864540413
 20
5.542399803046044
 30
0.0
 10
5.309615864540413
 20
5.542399803046044
 30
0.0
 10
5.309615864540413
 20
5.542399803046044
 30
0.0
 10
5.687299743793783
 20
6.131168260247533
 30
0.0
 10
5.687299743793783
 20
6.131168260247533
 30
0.0
  0
ENDBLK
  5
1C1
330
1BE
100
AcDbEntity
  8
0
100
AcDbBlockEnd
  0
BLOCK
  5
1C4
330
1C2
100
AcDbEntity
  8
0
100
AcDbBlockBegin
  2
block 42
 70
     0
 10
0.0
 20
0.0
 30
0.0
  3
block 42
  1

  0
INSERT
  5
1C7
330
1C2
100
AcDbEntity
  8
Layer 1
100
AcDbBlockReference
  2
block 43
 10
0.0
 20
0.0
 30
0.0
  0
INSERT
  5
1E3
330
1C2
100
AcDbEntity
  8
Layer 1
100
AcDbBlockReference
  2
block 48
 10
0.0
 20
0.0
 30
0.0
  0
ENDBLK
  5
1C5
330
1C2
100
AcDbEntity
  8
0
100
AcDbBlockEnd
  0
BLOCK
  5
1C8
330
1C6
100
AcDbEntity
  8
0
100
AcDbBlockBegin
  2
block 43
 70
     0
 10
0.0
 20
0.0
 30
0.0
  3
block 43
  1

  0
INSERT
  5
1CB
330
1C6
100
AcDbEntity
  8
Layer 1
100
AcDbBlockReference
  2
block 44
 10
0.0
 20
0.0
 30
0.0
  0
INSERT
  5
1D7
330
1C6
100
AcDbEntity
  8
Layer 1
100
AcDbBlockReference
  2
block 46
 10
0.0
 20
0.0
 30
0.0
  0
ENDBLK
  5
1C9
330
1C6
100
AcDbEntity
  8
0
100
AcDbBlockEnd
  0
BLOCK
  5
1CC
330
1CA
100
AcDbEntity
  8
0
100
AcDbBlockBegin
  2
block 44
 70
     0
 10
0.0
 20
0.0
 30
0.0
  3
block 44
  1

  0
INSERT
  5
1CF
330
1CA
100
AcDbEntity
  8
Layer 1
100
AcDbBlockReference
  2
block 45
 10
0.0
 20
0.0
 30
0.0
  0
ENDBLK
  5
1CD
330
1CA
100
AcDbEntity
  8
0
100
AcDbBlockEnd
  0
BLOCK
  5
1D0
330
1CE
100
AcDbEntity
  8
0
100
AcDbBlockBegin
  2
block 45
 70
     0
 10
0.0
 20
0.0
 30
0.0
  3
block 45
  1

  0
SPLINE
  5
1D2
330
1CE
100
AcDbEntity
  8
Layer 1
370
     0
100
AcDbSpline
210
0.0
220
0.0
230
1.0
 70
    11
 71
     3
 72
    23
 73
    19
 74
     0
 42
0.0000000001
 43
0.0000000001
 12
1.0
 22
0.0
 32
0.0
 13
1.0
 23
0.0
 33
0.0
 40
0.0
 40
0.0
 40
0.0
 40
0.0
 40
1.0
 40
1.0
 40
1.0
 40
2.0
 40
2.0
 40
2.0
 40
3.0
 40
3.0
 40
3.0
 40
4.0
 40
4.0
 40
4.0
 40
5.0
 40
5.0
 40
5.0
 40
6.0
 40
6.0
 40
6.0
 40
6.0
 10
6.126621109579443
 20
4.488786663259289
 30
0.0
 10
6.126621109579443
 20
4.654736853469991
 30
0.0
 10
5.937930709621877
 20
4.997040650292649
 30
0.0
 10
5.861554322681513
 20
5.137255832049004
 30
0.0
 10
5.861554322681513
 20
5.137255832049004
 30
0.0
 10
5.562141387498334
 20
5.302517975832607
 30
0.0
 10
5.562141387498334
 20
5.302517975832607
 30
0.0
 10
5.562141387498334
 20
5.302517975832607
 30
0.0
 10
5.47466999921842
 20
5.337933336040197
 30
0.0
 10
5.47466999921842
 20
5.337933336040197
 30
0.0
 10
5.47466999921842
 20
5.337933336040197
 30
0.0
 10
5.685715771611972
 20
4.660282519995176
 30
0.0
 10
5.685715771611972
 20
4.660282519995176
 30
0.0
 10
5.685715771611972
 20
4.660282519995176
 30
0.0
 10
6.130064065831258
 20
4.427015275946319
 30
0.0
 10
6.130064065831258
 20
4.427015275946319
 30
0.0
 10
6.130064065831258
 20
4.427015275946319
 30
0.0
 10
6.126621109579443
 20
4.488786663259289
 30
0.0
 10
6.126621109579443
 20
4.488786663259289
 30
0.0
  0
HATCH
  5
1D3
330
1CE
100
AcDbEntity
  8
Layer 1
 62
    52
420
 14334976
100
AcDbHatch
 10
0.0
 20
0.0
 30
0.0
210
0.0
220
0.0
230
1.0
  2
SOLID
 70
     1
 71
     0
 91
        1
 92
        1
 93
        1
 72
     4
 94
        3
 73
     0
 74
     1
 95
       23
 96
       19
 40
0.0
 40
0.0
 40
0.0
 40
0.0
 40
1.0
 40
1.0
 40
1.0
 40
2.0
 40
2.0
 40
2.0
 40
3.0
 40
3.0
 40
3.0
 40
4.0
 40
4.0
 40
4.0
 40
5.0
 40
5.0
 40
5.0
 40
6.0
 40
6.0
 40
6.0
 40
6.0
 10
6.126621109579443
 20
4.488786663259289
 10
6.126621109579443
 20
4.654736853469991
 10
5.937930709621877
 20
4.997040650292649
 10
5.861554322681513
 20
5.137255832049004
 10
5.861554322681513
 20
5.137255832049004
 10
5.562141387498334
 20
5.302517975832607
 10
5.562141387498334
 20
5.302517975832607
 10
5.562141387498334
 20
5.302517975832607
 10
5.47466999921842
 20
5.337933336040197
 10
5.47466999921842
 20
5.337933336040197
 10
5.47466999921842
 20
5.337933336040197
 10
5.685715771611972
 20
4.660282519995176
 10
5.685715771611972
 20
4.660282519995176
 10
5.685715771611972
 20
4.660282519995176
 10
6.130064065831258
 20
4.427015275946319
 10
6.130064065831258
 20
4.427015275946319
 10
6.130064065831258
 20
4.427015275946319
 10
6.126621109579443
 20
4.488786663259289
 10
6.126621109579443
 20
4.488786663259289
 97
        0
 97
        0
 75
     2
 76
     1
 98
        0
  0
SPLINE
  5
1D4
330
1CE
100
AcDbEntity
  8
Layer 1
370
     0
100
AcDbSpline
210
0.0
220
0.0
230
1.0
 70
    11
 71
     3
 72
    29
 73
    25
 74
     0
 42
0.0000000001
 43
0.0000000001
 12
1.0
 22
0.0
 32
0.0
 13
1.0
 23
0.0
 33
0.0
 40
0.0
 40
0.0
 40
0.0
 40
0.0
 40
1.0
 40
1.0
 40
1.0
 40
2.0
 40
2.0
 40
2.0
 40
3.0
 40
3.0
 40
3.0
 40
4.0
 40
4.0
 40
4.0
 40
5.0
 40
5.0
 40
5.0
 40
6.0
 40
6.0
 40
6.0
 40
7.0
 40
7.0
 40
7.0
 40
8.0
 40
8.0
 40
8.0
 40
8.0
 10
7.161113539526995
 20
5.286187892915889
 30
0.0
 10
7.199456955215439
 20
5.617365078911299
 30
0.0
 10
7.08735476363096
 20
5.762818880756019
 30
0.0
 10
6.921746942714019
 20
5.890217516394697
 30
0.0
 10
6.921746942714019
 20
5.890217516394697
 30
0.0
 10
6.546991109474389
 20
6.106844233090312
 30
0.0
 10
6.546991109474389
 20
6.106844233090312
 30
0.0
 10
6.546991109474389
 20
6.106844233090312
 30
0.0
 10
5.942788609625425
 20
6.00063343024442
 30
0.0
 10
5.942788609625425
 20
6.00063343024442
 30
0.0
 10
5.942788609625425
 20
6.00063343024442
 30
0.0
 10
5.540607691980655
 20
5.304239531344241
 30
0.0
 10
5.540607691980655
 20
5.304239531344241
 30
0.0
 10
5.540607691980655
 20
5.304239531344241
 30
0.0
 10
5.769913241686138
 20
4.692907408051735
 30
0.0
 10
5.769913241686138
 20
4.692907408051735
 30
0.0
 10
5.769913241686138
 20
4.692907408051735
 30
0.0
 10
6.165306564932147
 20
4.464497913878946
 30
0.0
 10
6.165306564932147
 20
4.464497913878946
 30
0.0
 10
6.488697945570634
 20
4.399939582192633
 30
0.0
 10
6.648897858150261
 20
4.476315969132998
 30
0.0
 10
6.801823493137691
 20
4.603714721071286
 30
0.0
 10
6.801823493137691
 20
4.603714721071286
 30
0.0
 10
7.161113539526995
 20
5.286187892915889
 30
0.0
 10
7.161113539526995
 20
5.286187892915889
 30
0.0
  0
HATCH
  5
1D5
330
1CE
100
AcDbEntity
  8
Layer 1
 62
    40
420
 16768256
100
AcDbHatch
 10
0.0
 20
0.0
 30
0.0
210
0.0
220
0.0
230
1.0
  2
SOLID
 70
     1
 71
     0
 91
        1
 92
        1
 93
        1
 72
     4
 94
        3
 73
     0
 74
     1
 95
       29
 96
       25
 40
0.0
 40
0.0
 40
0.0
 40
0.0
 40
1.0
 40
1.0
 40
1.0
 40
2.0
 40
2.0
 40
2.0
 40
3.0
 40
3.0
 40
3.0
 40
4.0
 40
4.0
 40
4.0
 40
5.0
 40
5.0
 40
5.0
 40
6.0
 40
6.0
 40
6.0
 40
7.0
 40
7.0
 40
7.0
 40
8.0
 40
8.0
 40
8.0
 40
8.0
 10
7.161113539526995
 20
5.286187892915889
 10
7.199456955215439
 20
5.617365078911299
 10
7.08735476363096
 20
5.762818880756019
 10
6.921746942714019
 20
5.890217516394697
 10
6.921746942714019
 20
5.890217516394697
 10
6.546991109474389
 20
6.106844233090312
 10
6.546991109474389
 20
6.106844233090312
 10
6.546991109474389
 20
6.106844233090312
 10
5.942788609625425
 20
6.00063343024442
 10
5.942788609625425
 20
6.00063343024442
 10
5.942788609625425
 20
6.00063343024442
 10
5.540607691980655
 20
5.304239531344241
 10
5.540607691980655
 20
5.304239531344241
 10
5.540607691980655
 20
5.304239531344241
 10
5.769913241686138
 20
4.692907408051735
 10
5.769913241686138
 20
4.692907408051735
 10
5.769913241686138
 20
4.692907408051735
 10
6.165306564932147
 20
4.464497913878946
 10
6.165306564932147
 20
4.464497913878946
 10
6.488697945570634
 20
4.399939582192633
 10
6.648897858150261
 20
4.476315969132998
 10
6.801823493137691
 20
4.603714721071286
 10
6.801823493137691
 20
4.603714721071286
 10
7.161113539526995
 20
5.286187892915889
 10
7.161113539526995
 20
5.286187892915889
 97
        0
 97
        0
 75
     2
 76
     1
 98
        0
  0
ENDBLK
  5
1D1
330
1CE
100
AcDbEntity
  8
0
100
AcDbBlockEnd
  0
BLOCK
  5
1D8
330
1D6
100
AcDbEntity
  8
0
100
AcDbBlockBegin
  2
block 46
 70
     0
 10
0.0
 20
0.0
 30
0.0
  3
block 46
  1

  0
INSERT
  5
1DB
330
1D6
100
AcDbEntity
  8
Layer 1
100
AcDbBlockReference
  2
block 47
 10
0.0
 20
0.0
 30
0.0
  0
ENDBLK
  5
1D9
330
1D6
100
AcDbEntity
  8
0
100
AcDbBlockEnd
  0
BLOCK
  5
1DC
330
1DA
100
AcDbEntity
  8
0
100
AcDbBlockBegin
  2
block 47
 70
     0
 10
0.0
 20
0.0
 30
0.0
  3
block 47
  1

  0
SPLINE
  5
1DE
330
1DA
100
AcDbEntity
  8
Layer 1
370
     0
100
AcDbSpline
210
0.0
220
0.0
230
1.0
 70
    11
 71
     3
 72
    17
 73
    13
 74
     0
 42
0.0000000001
 43
0.0000000001
 12
1.0
 22
0.0
 32
0.0
 13
1.0
 23
0.0
 33
0.0
 40
0.0
 40
0.0
 40
0.0
 40
0.0
 40
1.0
 40
1.0
 40
1.0
 40
2.0
 40
2.0
 40
2.0
 40
3.0
 40
3.0
 40
3.0
 40
4.0
 40
4.0
 40
4.0
 40
4.0
 10
6.252262757158154
 20
5.293493920507274
 30
0.0
 10
6.252262757158154
 20
5.293493920507274
 30
0.0
 10
6.687756329381121
 20
5.042171510252376
 30
0.0
 10
6.687756329381121
 20
5.042171510252376
 30
0.0
 10
6.621645775512186
 20
4.92758929095339
 30
0.0
 10
6.674389579722135
 20
4.626969715289501
 30
0.0
 10
6.752180605515298
 20
4.571435554412722
 30
0.0
 10
6.752180605515298
 20
4.571435554412722
 30
0.0
 10
6.174507009141869
 20
4.882458430993663
 30
0.0
 10
6.174507009141869
 20
4.882458430993663
 30
0.0
 10
6.174507009141869
 20
4.882458430993663
 30
0.0
 10
6.252262757158154
 20
5.293493920507274
 30
0.0
 10
6.252262757158154
 20
5.293493920507274
 30
0.0
  0
HATCH
  5
1DF
330
1DA
100
AcDbEntity
  8
Layer 1
 62
    52
420
 14334976
100
AcDbHatch
 10
0.0
 20
0.0
 30
0.0
210
0.0
220
0.0
230
1.0
  2
SOLID
 70
     1
 71
     0
 91
        1
 92
        1
 93
        1
 72
     4
 94
        3
 73
     0
 74
     1
 95
       17
 96
       13
 40
0.0
 40
0.0
 40
0.0
 40
0.0
 40
1.0
 40
1.0
 40
1.0
 40
2.0
 40
2.0
 40
2.0
 40
3.0
 40
3.0
 40
3.0
 40
4.0
 40
4.0
 40
4.0
 40
4.0
 10
6.252262757158154
 20
5.293493920507274
 10
6.252262757158154
 20
5.293493920507274
 10
6.687756329381121
 20
5.042171510252376
 10
6.687756329381121
 20
5.042171510252376
 10
6.621645775512186
 20
4.92758929095339
 10
6.674389579722135
 20
4.626969715289501
 10
6.752180605515298
 20
4.571435554412722
 10
6.752180605515298
 20
4.571435554412722
 10
6.174507009141869
 20
4.882458430993663
 10
6.174507009141869
 20
4.882458430993663
 10
6.174507009141869
 20
4.882458430993663
 10
6.252262757158154
 20
5.293493920507274
 10
6.252262757158154
 20
5.293493920507274
 97
        0
 97
        0
 75
     2
 76
     1
 98
        0
  0
SPLINE
  5
1E0
330
1DA
100
AcDbEntity
  8
Layer 1
370
     0
100
AcDbSpline
210
0.0
220
0.0
230
1.0
 70
    11
 71
     3
 72
    35
 73
    31
 74
     0
 42
0.0000000001
 43
0.0000000001
 12
1.0
 22
0.0
 32
0.0
 13
1.0
 23
0.0
 33
0.0
 40
0.0
 40
0.0
 40
0.0
 40
0.0
 40
1.0
 40
1.0
 40
1.0
 40
2.0
 40
2.0
 40
2.0
 40
3.0
 40
3.0
 40
3.0
 40
4.0
 40
4.0
 40
4.0
 40
5.0
 40
5.0
 40
5.0
 40
6.0
 40
6.0
 40
6.0
 40
7.0
 40
7.0
 40
7.0
 40
8.0
 40
8.0
 40
8.0
 40
9.0
 40
9.0
 40
9.0
 40
10.0
 40
10.0
 40
10.0
 40
10.0
 10
6.404327776176726
 20
4.828299987930915
 30
0.0
 10
6.337148143881437
 20
4.867197264716341
 30
0.0
 10
6.291156665093889
 20
4.941816943209009
 30
0.0
 10
6.279514998430135
 20
5.031390621638531
 30
0.0
 10
6.267732220655277
 20
5.12096089713118
 30
0.0
 10
6.290295728410075
 20
5.224420033380607
 30
0.0
 10
6.341145276192484
 20
5.312233609783071
 30
0.0
 10
6.391821642486599
 20
5.400050445566569
 30
0.0
 10
6.469923112716287
 20
5.471223360417462
 30
0.0
 10
6.553432666141337
 20
5.505950803975936
 30
0.0
 10
6.636734080682807
 20
5.540642969757532
 30
0.0
 10
6.724586328441509
 20
5.538233497596781
 30
0.0
 10
6.791903382279664
 20
5.499336220811355
 30
0.0
 10
6.791903382279664
 20
5.499336220811355
 30
0.0
 10
7.151570900881558
 20
5.291768837217951
 30
0.0
 10
7.151570900881558
 20
5.291768837217951
 30
0.0
 10
7.218923232496591
 20
5.252875088210214
 30
0.0
 10
7.264914870212135
 20
5.177874534568081
 30
0.0
 10
7.276524786582608
 20
5.088336009074622
 30
0.0
 10
7.288339314058972
 20
4.998765733581972
 30
0.0
 10
7.265602786861252
 20
4.895652319545948
 30
0.0
 10
7.215099121483041
 20
4.807838877341811
 30
0.0
 10
7.16421445611455
 20
4.719986629583109
 30
0.0
 10
7.086112985884863
 20
4.64850327029569
 30
0.0
 10
7.002638887138229
 20
4.61411802117293
 30
0.0
 10
6.919302017918342
 20
4.579394105392145
 30
0.0
 10
6.831485047936518
 20
4.581838855329774
 30
0.0
 10
6.764136244099173
 20
4.620732604337512
 30
0.0
 10
6.764136244099173
 20
4.620732604337512
 30
0.0
 10
6.404327776176726
 20
4.828299987930915
 30
0.0
 10
6.404327776176726
 20
4.828299987930915
 30
0.0
  0
HATCH
  5
1E1
330
1DA
100
AcDbEntity
  8
Layer 1
 62
    40
420
 16768256
100
AcDbHatch
 10
0.0
 20
0.0
 30
0.0
210
0.0
220
0.0
230
1.0
  2
SOLID
 70
     1
 71
     0
 91
        1
 92
        1
 93
        1
 72
     4
 94
        3
 73
     0
 74
     1
 95
       35
 96
       31
 40
0.0
 40
0.0
 40
0.0
 40
0.0
 40
1.0
 40
1.0
 40
1.0
 40
2.0
 40
2.0
 40
2.0
 40
3.0
 40
3.0
 40
3.0
 40
4.0
 40
4.0
 40
4.0
 40
5.0
 40
5.0
 40
5.0
 40
6.0
 40
6.0
 40
6.0
 40
7.0
 40
7.0
 40
7.0
 40
8.0
 40
8.0
 40
8.0
 40
9.0
 40
9.0
 40
9.0
 40
10.0
 40
10.0
 40
10.0
 40
10.0
 10
6.404327776176726
 20
4.828299987930915
 10
6.337148143881437
 20
4.867197264716341
 10
6.291156665093889
 20
4.941816943209009
 10
6.279514998430135
 20
5.031390621638531
 10
6.267732220655277
 20
5.12096089713118
 10
6.290295728410075
 20
5.224420033380607
 10
6.341145276192484
 20
5.312233609783071
 10
6.391821642486599
 20
5.400050445566569
 10
6.469923112716287
 20
5.471223360417462
 10
6.553432666141337
 20
5.505950803975936
 10
6.636734080682807
 20
5.540642969757532
 10
6.724586328441509
 20
5.538233497596781
 10
6.791903382279664
 20
5.499336220811355
 10
6.791903382279664
 20
5.499336220811355
 10
7.151570900881558
 20
5.291768837217951
 10
7.151570900881558
 20
5.291768837217951
 10
7.218923232496591
 20
5.252875088210214
 10
7.264914870212135
 20
5.177874534568081
 10
7.276524786582608
 20
5.088336009074622
 10
7.288339314058972
 20
4.998765733581972
 10
7.265602786861252
 20
4.895652319545948
 10
7.215099121483041
 20
4.807838877341811
 10
7.16421445611455
 20
4.719986629583109
 10
7.086112985884863
 20
4.64850327029569
 10
7.002638887138229
 20
4.61411802117293
 10
6.919302017918342
 20
4.579394105392145
 10
6.831485047936518
 20
4.581838855329774
 10
6.764136244099173
 20
4.620732604337512
 10
6.764136244099173
 20
4.620732604337512
 10
6.404327776176726
 20
4.828299987930915
 10
6.404327776176726
 20
4.828299987930915
 97
        0
 97
        0
 75
     2
 76
     1
 98
        0
  0
ENDBLK
  5
1DD
330
1DA
100
AcDbEntity
  8
0
100
AcDbBlockEnd
  0
BLOCK
  5
1E4
330
1E2
100
AcDbEntity
  8
0
100
AcDbBlockBegin
  2
block 48
 70
     0
 10
0.0
 20
0.0
 30
0.0
  3
block 48
  1

  0
SPLINE
  5
1E6
330
1E2
100
AcDbEntity
  8
Layer 1
 62
     7
420
 16777215
370
     9
100
AcDbSpline
210
0.0
220
0.0
230
1.0
 70
     8
 71
     3
 72
    17
 73
    13
 74
     0
 42
0.0000000001
 43
0.0000000001
 12
1.0
 22
0.0
 32
0.0
 13
1.0
 23
0.0
 33
0.0
 40
0.0
 40
0.0
 40
0.0
 40
0.0
 40
1.0
 40
1.0
 40
1.0
 40
2.0
 40
2.0
 40
2.0
 40
3.0
 40
3.0
 40
3.0
 40
4.0
 40
4.0
 40
4.0
 40
4.0
 10
7.038054070444281
 20
5.357018613331069
 30
0.0
 10
6.970701738829248
 20
5.395915890116494
 30
0.0
 10
6.883025879954936
 20
5.398325362277245
 30
0.0
 10
6.799551604306764
 20
5.363943640932174
 30
0.0
 10
6.716077498320995
 20
5.329251475150579
 30
0.0
 10
6.638113609451564
 20
5.257732838086282
 30
0.0
 10
6.587264054167115
 20
5.169915868104457
 30
0.0
 10
6.536756861011216
 20
5.082067148123443
 30
0.0
 10
6.513847472706795
 20
4.978989011864296
 30
0.0
 10
6.525665527960846
 20
4.889418736371646
 30
0.0
 10
6.53744830543802
 20
4.799844933101309
 30
0.0
 10
6.583267082046864
 20
4.724879657236055
 30
0.0
 10
6.650792274768597
 20
4.686328102664032
 30
0.0
  0
SPLINE
  5
1E7
330
1E2
100
AcDbEntity
  8
Layer 1
 62
     7
420
 16777215
370
     9
100
AcDbSpline
210
0.0
220
0.0
230
1.0
 70
     8
 71
     3
 72
    17
 73
    13
 74
     0
 42
0.0000000001
 43
0.0000000001
 12
1.0
 22
0.0
 32
0.0
 13
1.0
 23
0.0
 33
0.0
 40
0.0
 40
0.0
 40
0.0
 40
0.0
 40
1.0
 40
1.0
 40
1.0
 40
2.0
 40
2.0
 40
2.0
 40
3.0
 40
3.0
 40
3.0
 40
4.0
 40
4.0
 40
4.0
 40
4.0
 10
6.914994601361568
 20
5.428195055959651
 30
0.0
 10
6.847642269746535
 20
5.467057054968198
 30
0.0
 10
6.75979354976552
 20
5.469501943077042
 30
0.0
 10
6.67649213522405
 20
5.434774361347354
 30
0.0
 10
6.593017859575879
 20
5.400392776427691
 30
0.0
 10
6.514881111569313
 20
5.328909280714864
 30
0.0
 10
6.464204585084401
 20
5.241057032956162
 30
0.0
 10
6.413528058599489
 20
5.153243590752025
 30
0.0
 10
6.390791531401769
 20
5.050130176716
 30
0.0
 10
6.402606058878132
 20
4.960591651222541
 30
0.0
 10
6.414388836355307
 20
4.871021375729891
 30
0.0
 10
6.460380474070851
 20
4.796020822087759
 30
0.0
 10
6.527559944579182
 20
4.757158823079211
 30
0.0
  0
SPLINE
  5
1E8
330
1E2
100
AcDbEntity
  8
Layer 1
 62
     7
420
 16777215
370
    20
100
AcDbSpline
210
0.0
220
0.0
230
1.0
 70
     8
 71
     3
 72
    23
 73
    19
 74
     0
 42
0.0000000001
 43
0.0000000001
 12
1.0
 22
0.0
 32
0.0
 13
1.0
 23
0.0
 33
0.0
 40
0.0
 40
0.0
 40
0.0
 40
0.0
 40
1.0
 40
1.0
 40
1.0
 40
2.0
 40
2.0
 40
2.0
 40
3.0
 40
3.0
 40
3.0
 40
4.0
 40
4.0
 40
4.0
 40
5.0
 40
5.0
 40
5.0
 40
6.0
 40
6.0
 40
6.0
 40
6.0
 10
6.404327776176726
 20
4.828299987930915
 30
0.0
 10
6.404327776176726
 20
4.828299987930915
 30
0.0
 10
6.764136244099173
 20
4.620732604337512
 30
0.0
 10
6.764136244099173
 20
4.620732604337512
 30
0.0
 10
6.831485047936518
 20
4.581838855329774
 30
0.0
 10
6.919302017918342
 20
4.579394105392145
 30
0.0
 10
7.002638887138229
 20
4.61411802117293
 30
0.0
 10
7.086112985884863
 20
4.64850327029569
 30
0.0
 10
7.16421445611455
 20
4.719986629583109
 30
0.0
 10
7.215099121483041
 20
4.807838877341811
 30
0.0
 10
7.265602786861252
 20
4.895652319545948
 30
0.0
 10
7.288339314058972
 20
4.998765733581972
 30
0.0
 10
7.276524786582608
 20
5.088336009074622
 30
0.0
 10
7.264914870212135
 20
5.177874534568081
 30
0.0
 10
7.218923232496591
 20
5.252875088210214
 30
0.0
 10
7.151570900881558
 20
5.291768837217951
 30
0.0
 10
7.151570900881558
 20
5.291768837217951
 30
0.0
 10
6.791903382279664
 20
5.499336220811355
 30
0.0
 10
6.791903382279664
 20
5.499336220811355
 30
0.0
  0
SPLINE
  5
1E9
330
1E2
100
AcDbEntity
  8
Layer 1
 62
     7
420
 16777215
370
     9
100
AcDbSpline
210
0.0
220
0.0
230
1.0
 70
     8
 71
     3
 72
    17
 73
    13
 74
     0
 42
0.0000000001
 43
0.0000000001
 12
1.0
 22
0.0
 32
0.0
 13
1.0
 23
0.0
 33
0.0
 40
0.0
 40
0.0
 40
0.0
 40
0.0
 40
1.0
 40
1.0
 40
1.0
 40
2.0
 40
2.0
 40
2.0
 40
3.0
 40
3.0
 40
3.0
 40
4.0
 40
4.0
 40
4.0
 40
4.0
 10
6.791903382279664
 20
5.499336220811355
 30
0.0
 10
6.724586328441509
 20
5.538233497596781
 30
0.0
 10
6.636734080682807
 20
5.540642969757532
 30
0.0
 10
6.553432666141337
 20
5.505950803975936
 30
0.0
 10
6.469923112716287
 20
5.471223360417462
 30
0.0
 10
6.391821642486599
 20
5.400050445566569
 30
0.0
 10
6.341145276192484
 20
5.312233609783071
 30
0.0
 10
6.290295728410075
 20
5.224420033380607
 30
0.0
 10
6.267732220655277
 20
5.12096089713118
 30
0.0
 10
6.279514998430135
 20
5.031390621638531
 30
0.0
 10
6.291156665093889
 20
4.941816943209009
 30
0.0
 10
6.337148143881437
 20
4.867197264716341
 30
0.0
 10
6.404327776176726
 20
4.828299987930915
 30
0.0
  0
SPLINE
  5
1EA
330
1E2
100
AcDbEntity
  8
Layer 1
 62
     7
420
 16777215
370
     9
100
AcDbSpline
210
0.0
220
0.0
230
1.0
 70
     8
 71
     3
 72
    14
 73
    10
 74
     0
 42
0.0000000001
 43
0.0000000001
 12
1.0
 22
0.0
 32
0.0
 13
1.0
 23
0.0
 33
0.0
 40
0.0
 40
0.0
 40
0.0
 40
0.0
 40
1.0
 40
1.0
 40
1.0
 40
2.0
 40
2.0
 40
2.0
 40
3.0
 40
3.0
 40
3.0
 40
3.0
 10
7.100513374406367
 20
5.172328868042896
 30
0.0
 10
7.071885458470059
 20
5.172674720929067
 30
0.0
 10
7.041670042574252
 20
5.166091757090907
 30
0.0
 10
7.011493609358245
 20
5.153585785187739
 30
0.0
 10
6.951270739324975
 20
5.128609119158281
 30
0.0
 10
6.894671074102286
 20
5.076863676033972
 30
0.0
 10
6.858049213925477
 20
5.013338983210177
 30
0.0
 10
6.839651853283721
 20
4.981744206238449
 30
0.0
 10
6.826285276071213
 20
4.947052040456854
 30
0.0
 10
6.818636881597635
 20
4.912328124676068
 30
0.0
  0
SPLINE
  5
1EB
330
1E2
100
AcDbEntity
  8
Layer 1
 62
     7
420
 16777215
370
     9
100
AcDbSpline
210
0.0
220
0.0
230
1.0
 70
     8
 71
     3
 72
     8
 73
     4
 74
     0
 42
0.0000000001
 43
0.0000000001
 12
1.0
 22
0.0
 32
0.0
 13
1.0
 23
0.0
 33
0.0
 40
0.0
 40
0.0
 40
0.0
 40
0.0
 40
1.0
 40
1.0
 40
1.0
 40
1.0
 10
6.813260548401463
 20
4.810248349502563
 30
0.0
 10
6.818636881597635
 20
4.769629517205502
 30
0.0
 10
6.83217666495861
 20
4.73424943477479
 30
0.0
 10
6.853706519591824
 20
4.706104824381708
 30
0.0
  0
SPLINE
  5
1EC
330
1E2
100
AcDbEntity
  8
Layer 1
 62
     7
420
 16777215
370
    20
100
AcDbSpline
210
0.0
220
0.0
230
1.0
 70
     8
 71
     3
 72
    26
 73
    22
 74
     0
 42
0.0000000001
 43
0.0000000001
 12
1.0
 22
0.0
 32
0.0
 13
1.0
 23
0.0
 33
0.0
 40
0.0
 40
0.0
 40
0.0
 40
0.0
 40
1.0
 40
1.0
 40
1.0
 40
2.0
 40
2.0
 40
2.0
 40
3.0
 40
3.0
 40
3.0
 40
4.0
 40
4.0
 40
4.0
 40
5.0
 40
5.0
 40
5.0
 40
6.0
 40
6.0
 40
6.0
 40
7.0
 40
7.0
 40
7.0
 40
7.0
 10
6.801823493137691
 20
4.603714721071286
 30
0.0
 10
6.648897858150261
 20
4.476315969132998
 30
0.0
 10
6.488697945570634
 20
4.399939582192633
 30
0.0
 10
6.165306564932147
 20
4.464497913878946
 30
0.0
 10
6.165306564932147
 20
4.464497913878946
 30
0.0
 10
5.769913241686138
 20
4.692907408051735
 30
0.0
 10
5.769913241686138
 20
4.692907408051735
 30
0.0
 10
5.769913241686138
 20
4.692907408051735
 30
0.0
 10
5.542195191940154
 20
5.310511920073108
 30
0.0
 10
5.542195191940154
 20
5.310511920073108
 30
0.0
 10
5.542195191940154
 20
5.310511920073108
 30
0.0
 10
5.939860554070583
 20
5.994018847079839
 30
0.0
 10
5.939860554070583
 20
5.994018847079839
 30
0.0
 10
5.939860554070583
 20
5.994018847079839
 30
0.0
 10
6.546991109474389
 20
6.106844233090312
 30
0.0
 10
6.546991109474389
 20
6.106844233090312
 30
0.0
 10
6.546991109474389
 20
6.106844233090312
 30
0.0
 10
6.921746942714019
 20
5.890217516394697
 30
0.0
 10
6.921746942714019
 20
5.890217516394697
 30
0.0
 10
7.08735476363096
 20
5.762818880756019
 30
0.0
 10
7.199456955215439
 20
5.617365078911299
 30
0.0
 10
7.161113539526995
 20
5.286187892915889
 30
0.0
  0
SPLINE
  5
1ED
330
1E2
100
AcDbEntity
  8
Layer 1
 62
     7
420
 16777215
370
     9
100
AcDbSpline
210
0.0
220
0.0
230
1.0
 70
     8
 71
     3
 72
    17
 73
    13
 74
     0
 42
0.0000000001
 43
0.0000000001
 12
1.0
 22
0.0
 32
0.0
 13
1.0
 23
0.0
 33
0.0
 40
0.0
 40
0.0
 40
0.0
 40
0.0
 40
1.0
 40
1.0
 40
1.0
 40
2.0
 40
2.0
 40
2.0
 40
3.0
 40
3.0
 40
3.0
 40
4.0
 40
4.0
 40
4.0
 40
4.0
 10
7.161113539526995
 20
5.286187892915889
 30
0.0
 10
7.093934069018664
 20
5.325085169701314
 30
0.0
 10
7.00628996014354
 20
5.327494641862065
 30
0.0
 10
6.92260754561179
 20
5.29280247608047
 30
0.0
 10
6.839306131070319
 20
5.258078560299684
 30
0.0
 10
6.761208188618319
 20
5.186902117671102
 30
0.0
 10
6.710496384356529
 20
5.09908527650298
 30
0.0
 10
6.659643468987229
 20
5.01127170548514
 30
0.0
 10
6.637079802896209
 20
4.907812569235714
 30
0.0
 10
6.648724997043559
 20
4.818242293743064
 30
0.0
 10
6.660334913414033
 20
4.728668609928917
 30
0.0
 10
6.706531162235469
 20
4.654048936820875
 30
0.0
 10
6.773678882744609
 20
4.615151660035449
 30
0.0
  0
SPLINE
  5
1EE
330
1E2
100
AcDbEntity
  8
Layer 1
 62
     7
420
 16777215
370
     9
100
AcDbSpline
210
0.0
220
0.0
230
1.0
 70
     8
 71
     3
 72
    14
 73
    10
 74
     0
 42
0.0000000001
 43
0.0000000001
 12
1.0
 22
0.0
 32
0.0
 13
1.0
 23
0.0
 33
0.0
 40
0.0
 40
0.0
 40
0.0
 40
0.0
 40
1.0
 40
1.0
 40
1.0
 40
2.0
 40
2.0
 40
2.0
 40
3.0
 40
3.0
 40
3.0
 40
3.0
 10
6.126621109579443
 20
4.488786663259289
 30
0.0
 10
6.126621109579443
 20
4.654736853469991
 30
0.0
 10
5.948337653800818
 20
4.99842001136857
 30
0.0
 10
5.871820155752943
 20
5.138670341123819
 30
0.0
 10
5.986370625052738
 20
5.189692589822133
 30
0.0
 10
6.317720831753872
 20
5.635416717339652
 30
0.0
 10
6.266698423456536
 20
5.80102471311464
 30
0.0
 10
6.470473609493523
 20
5.737496492513158
 30
0.0
 10
6.878168130078866
 20
5.80102471311464
 30
0.0
 10
6.92922212877637
 20
5.864552933716123
 30
0.0
  0
INSERT
  5
1F0
330
1E2
100
AcDbEntity
  8
Layer 1
100
AcDbBlockReference
  2
block 49
 10
0.0
 20
0.0
 30
0.0
  0
POLYLINE
  5
1F6
330
1E2
100
AcDbEntity
  8
Layer 1
 62
     7
420
 16777215
370
     9
100
AcDb2dPolyline
 66
     1
 10
0.0
 20
0.0
 30
0.0
  0
VERTEX
  5
1F7
330
1F6
100
AcDbEntity
  8
Layer 1
 62
     7
420
 16777215
370
     9
100
AcDbVertex
100
AcDb2dVertex
 10
5.851150906280259
 20
5.135879998716056
 30
0.0
  0
VERTEX
  5
1F8
330
1F6
100
AcDbEntity
  8
Layer 1
 62
     7
420
 16777215
370
     9
100
AcDbVertex
100
AcDb2dVertex
 10
5.557456358217475
 20
5.305308447983638
 30
0.0
  0
SEQEND
  5
1F9
330
1F6
100
AcDbEntity
  8
Layer 1
 62
     7
420
 16777215
370
     9
  0
POLYLINE
  5
1FA
330
1E2
100
AcDbEntity
  8
Layer 1
 62
     7
420
 16777215
370
     9
100
AcDb2dPolyline
 66
     1
 10
0.0
 20
0.0
 30
0.0
  0
VERTEX
  5
1FB
330
1FA
100
AcDbEntity
  8
Layer 1
 62
     7
420
 16777215
370
     9
100
AcDbVertex
100
AcDb2dVertex
 10
6.244822674014634
 20
5.817319518254481
 30
0.0
  0
VERTEX
  5
1FC
330
1FA
100
AcDbEntity
  8
Layer 1
 62
     7
420
 16777215
370
     9
100
AcDbVertex
100
AcDb2dVertex
 10
5.967112486655166
 20
5.977724041939998
 30
0.0
  0
SEQEND
  5
1FD
330
1FA
100
AcDbEntity
  8
Layer 1
 62
     7
420
 16777215
370
     9
  0
ENDBLK
  5
1E5
330
1E2
100
AcDbEntity
  8
0
100
AcDbBlockEnd
  0
BLOCK
  5
1F1
330
1EF
100
AcDbEntity
  8
0
100
AcDbBlockBegin
  2
block 49
 70
     0
 10
0.0
 20
0.0
 30
0.0
  3
block 49
  1

  0
SPLINE
  5
1F3
330
1EF
100
AcDbEntity
  8
Layer 1
 62
     7
420
 16777215
370
     9
100
AcDbSpline
210
0.0
220
0.0
230
1.0
 70
     8
 71
     3
 72
    11
 73
     7
 74
     0
 42
0.0000000001
 43
0.0000000001
 12
1.0
 22
0.0
 32
0.0
 13
1.0
 23
0.0
 33
0.0
 40
0.0
 40
0.0
 40
0.0
 40
0.0
 40
1.0
 40
1.0
 40
1.0
 40
2.0
 40
2.0
 40
2.0
 40
2.0
 10
6.26945361783069
 20
4.546077772908782
 30
0.0
 10
6.386794720625511
 20
4.478383246858035
 30
0.0
 10
6.539720194268948
 20
4.474213413631084
 30
0.0
 10
6.68517416499538
 20
4.534298523209296
 30
0.0
 10
6.72299882848201
 20
4.550247606135734
 30
0.0
 10
6.760312133085623
 20
4.570020800075723
 30
0.0
 10
6.796069687728928
 20
4.59399910501954
 30
0.0
  0
SPLINE
  5
1F4
330
1EF
100
AcDbEntity
  8
Layer 1
 62
     7
420
 16777215
370
     9
100
AcDbSpline
210
0.0
220
0.0
230
1.0
 70
     8
 71
     3
 72
    11
 73
     7
 74
     0
 42
0.0000000001
 43
0.0000000001
 12
1.0
 22
0.0
 32
0.0
 13
1.0
 23
0.0
 33
0.0
 40
0.0
 40
0.0
 40
0.0
 40
0.0
 40
1.0
 40
1.0
 40
1.0
 40
2.0
 40
2.0
 40
2.0
 40
2.0
 10
7.167692844914698
 20
5.264312143473985
 30
0.0
 10
7.168380761563815
 20
5.297318031520824
 30
0.0
 10
7.166832067158881
 20
5.329943054223039
 30
0.0
 10
7.162662233931928
 20
5.361534168771422
 30
0.0
 10
7.142201123342824
 20
5.51773358145311
 30
0.0
 10
7.061997097611221
 20
5.64792268924282
 30
0.0
 10
6.944829017267095
 20
5.715620743071255
 30
0.0
  0
SPLINE
  5
1F5
330
1EF
100
AcDbEntity
  8
Layer 1
 62
     7
420
 16777215
370
     9
100
AcDbSpline
210
0.0
220
0.0
230
1.0
 70
     8
 71
     3
 72
    17
 73
    13
 74
     0
 42
0.0000000001
 43
0.0000000001
 12
1.0
 22
0.0
 32
0.0
 13
1.0
 23
0.0
 33
0.0
 40
0.0
 40
0.0
 40
0.0
 40
0.0
 40
1.0
 40
1.0
 40
1.0
 40
2.0
 40
2.0
 40
2.0
 40
3.0
 40
3.0
 40
3.0
 40
4.0
 40
4.0
 40
4.0
 40
4.0
 10
6.944829017267095
 20
5.715620743071255
 30
0.0
 10
6.827491603593955
 20
5.783315269122001
 30
0.0
 10
6.674597718605714
 20
5.787485102348954
 30
0.0
 10
6.529108638984116
 20
5.727435270547619
 30
0.0
 10
6.383485503810383
 20
5.667007966533692
 30
0.0
 10
6.247577868388786
 20
5.542745525259447
 30
0.0
 10
6.159072981757846
 20
5.389643501387627
 30
0.0
 10
6.070705831815675
 20
5.236545005293495
 30
0.0
 10
6.031155762799064
 20
5.056402565444867
 30
0.0
 10
6.051620554042631
 20
4.900164347208614
 30
0.0
 10
6.071947456202825
 20
4.743964934526926
 30
0.0
 10
6.152285537486564
 20
4.613775826737216
 30
0.0
 10
6.26945361783069
 20
4.546077772908782
 30
0.0
  0
ENDBLK
  5
1F2
330
1EF
100
AcDbEntity
  8
0
100
AcDbBlockEnd
  0
BLOCK
  5
201
330
1FF
100
AcDbEntity
  8
0
100
AcDbBlockBegin
  2
block 50
 70
     0
 10
0.0
 20
0.0
 30
0.0
  3
block 50
  1

  0
INSERT
  5
204
330
1FF
100
AcDbEntity
  8
Layer 1
100
AcDbBlockReference
  2
block 51
 10
0.0
 20
0.0
 30
0.0
  0
INSERT
  5
229
330
1FF
100
AcDbEntity
  8
Layer 1
100
AcDbBlockReference
  2
block 57
 10
0.0
 20
0.0
 30
0.0
  0
ENDBLK
  5
202
330
1FF
100
AcDbEntity
  8
0
100
AcDbBlockEnd
  0
BLOCK
  5
205
330
203
100
AcDbEntity
  8
0
100
AcDbBlockBegin
  2
block 51
 70
     0
 10
0.0
 20
0.0
 30
0.0
  3
block 51
  1

  0
INSERT
  5
208
330
203
100
AcDbEntity
  8
Layer 1
100
AcDbBlockReference
  2
block 52
 10
0.0
 20
0.0
 30
0.0
  0
ENDBLK
  5
206
330
203
100
AcDbEntity
  8
0
100
AcDbBlockEnd
  0
BLOCK
  5
209
330
207
100
AcDbEntity
  8
0
100
AcDbBlockBegin
  2
block 52
 70
     0
 10
0.0
 20
0.0
 30
0.0
  3
block 52
  1

  0
SPLINE
  5
20B
330
207
100
AcDbEntity
  8
Layer 1
370
     0
100
AcDbSpline
210
0.0
220
0.0
230
1.0
 70
    11
 71
     3
 72
    29
 73
    25
 74
     0
 42
0.0000000001
 43
0.0000000001
 12
1.0
 22
0.0
 32
0.0
 13
1.0
 23
0.0
 33
0.0
 40
0.0
 40
0.0
 40
0.0
 40
0.0
 40
1.0
 40
1.0
 40
1.0
 40
2.0
 40
2.0
 40
2.0
 40
3.0
 40
3.0
 40
3.0
 40
4.0
 40
4.0
 40
4.0
 40
5.0
 40
5.0
 40
5.0
 40
6.0
 40
6.0
 40
6.0
 40
7.0
 40
7.0
 40
7.0
 40
8.0
 40
8.0
 40
8.0
 40
8.0
 10
5.931178543127473
 20
11.40891418115657
 30
0.0
 10
5.687299743793783
 20
11.54968309423192
 30
0.0
 10
5.520661636933965
 20
11.82062347620855
 30
0.0
 10
5.478321387519282
 20
12.14520019015013
 30
0.0
 10
5.435603389103981
 20
12.46997093186454
 30
0.0
 10
5.517871164782933
 20
12.8441940612062
 30
0.0
 10
5.701700276352338
 20
13.16251955308504
 30
0.0
 10
5.701700276352338
 20
13.16251955308504
 30
0.0
 10
4.910571291387555
 20
13.61937416326181
 30
0.0
 10
4.910571291387555
 20
13.61937416326181
 30
0.0
 10
4.910571291387555
 20
13.61937416326181
 30
0.0
 10
4.57346743887668
 20
12.51248418077993
 30
0.0
 10
4.57346743887668
 20
12.51248418077993
 30
0.0
 10
4.57346743887668
 20
12.51248418077993
 30
0.0
 10
4.939372068430564
 20
12.01034383247949
 30
0.0
 10
4.939372068430564
 20
12.01034383247949
 30
0.0
 10
4.939372068430564
 20
12.01034383247949
 30
0.0
 10
5.284603920734077
 20
11.57102614924297
 30
0.0
 10
5.284603920734077
 20
11.57102614924297
 30
0.0
 10
5.284603920734077
 20
11.57102614924297
 30
0.0
 10
5.891424165193818
 20
11.33045287760273
 30
0.0
 10
5.891424165193818
 20
11.33045287760273
 30
0.0
 10
5.891424165193818
 20
11.33045287760273
 30
0.0
 10
5.931178543127473
 20
11.40891418115657
 30
0.0
 10
5.931178543127473
 20
11.40891418115657
 30
0.0
  0
SPLINE
  5
20C
330
207
100
AcDbEntity
  8
Layer 1
370
     0
100
AcDbSpline
210
0.0
220
0.0
230
1.0
 70
    11
 71
     3
 72
    26
 73
    22
 74
     0
 42
0.0000000001
 43
0.0000000001
 12
1.0
 22
0.0
 32
0.0
 13
1.0
 23
0.0
 33
0.0
 40
0.0
 40
0.0
 40
0.0
 40
0.0
 40
1.0
 40
1.0
 40
1.0
 40
2.0
 40
2.0
 40
2.0
 40
3.0
 40
3.0
 40
3.0
 40
4.0
 40
4.0
 40
4.0
 40
5.0
 40
5.0
 40
5.0
 40
6.0
 40
6.0
 40
6.0
 40
7.0
 40
7.0
 40
7.0
 40
7.0
 10
7.363135256595213
 20
13.07711558304165
 30
0.0
 10
7.361928756625994
 20
13.11582235983194
 30
0.0
 10
7.359138284474962
 20
13.15418341440882
 30
0.0
 10
7.354107673492193
 20
13.19151083012319
 30
0.0
 10
7.326513396418403
 20
13.40240138029847
 30
0.0
 10
7.238008509787463
 20
13.58673129226249
 30
0.0
 10
7.105579442668037
 20
13.71638805212645
 30
0.0
 10
7.105579442668037
 20
13.71638805212645
 30
0.0
 10
7.234357259880614
 20
13.66796895685662
 30
0.0
 10
7.234357259880614
 20
13.66796895685662
 30
0.0
 10
7.443335754549128
 20
13.54716726549408
 30
0.0
 10
7.586203886992318
 20
13.3149160214193
 30
0.0
 10
7.622652694418816
 20
13.03651791741072
 30
0.0
 10
7.659101693488925
 20
12.75810249681047
 30
0.0
 10
7.588616695287147
 20
12.43715554381284
 30
0.0
 10
7.431002643752661
 20
12.16430310632944
 30
0.0
 10
7.431002643752661
 20
12.16430310632944
 30
0.0
 10
7.28537598080124
 20
12.24831360418615
 30
0.0
 10
7.28537598080124
 20
12.24831360418615
 30
0.0
 10
7.28537598080124
 20
12.24831360418615
 30
0.0
 10
7.363135256595213
 20
13.07711558304165
 30
0.0
 10
7.363135256595213
 20
13.07711558304165
 30
0.0
  0
HATCH
  5
20D
330
207
100
AcDbEntity
  8
Layer 1
 62
     8
420
  7303022
100
AcDbHatch
 10
0.0
 20
0.0
 30
0.0
210
0.0
220
0.0
230
1.0
  2
SOLID
 70
     1
 71
     0
 91
        1
 92
        1
 93
        1
 72
     4
 94
        3
 73
     0
 74
     1
 95
       26
 96
       22
 40
0.0
 40
0.0
 40
0.0
 40
0.0
 40
1.0
 40
1.0
 40
1.0
 40
2.0
 40
2.0
 40
2.0
 40
3.0
 40
3.0
 40
3.0
 40
4.0
 40
4.0
 40
4.0
 40
5.0
 40
5.0
 40
5.0
 40
6.0
 40
6.0
 40
6.0
 40
7.0
 40
7.0
 40
7.0
 40
7.0
 10
7.363135256595213
 20
13.07711558304165
 10
7.361928756625994
 20
13.11582235983194
 10
7.359138284474962
 20
13.15418341440882
 10
7.354107673492193
 20
13.19151083012319
 10
7.326513396418403
 20
13.40240138029847
 10
7.238008509787463
 20
13.58673129226249
 10
7.105579442668037
 20
13.71638805212645
 10
7.105579442668037
 20
13.71638805212645
 10
7.234357259880614
 20
13.66796895685662
 10
7.234357259880614
 20
13.66796895685662
 10
7.443335754549128
 20
13.54716726549408
 10
7.586203886992318
 20
13.3149160214193
 10
7.622652694418816
 20
13.03651791741072
 10
7.659101693488925
 20
12.75810249681047
 10
7.588616695287147
 20
12.43715554381284
 10
7.431002643752661
 20
12.16430310632944
 10
7.431002643752661
 20
12.16430310632944
 10
7.28537598080124
 20
12.24831360418615
 10
7.28537598080124
 20
12.24831360418615
 10
7.28537598080124
 20
12.24831360418615
 10
7.363135256595213
 20
13.07711558304165
 10
7.363135256595213
 20
13.07711558304165
 97
        0
 97
        0
 75
     2
 76
     1
 98
        0
  0
INSERT
  5
20F
330
207
100
AcDbEntity
  8
Layer 1
100
AcDbBlockReference
  2
block 53
 10
0.0
 20
0.0
 30
0.0
  0
INSERT
  5
21B
330
207
100
AcDbEntity
  8
Layer 1
100
AcDbBlockReference
  2
block 55
 10
0.0
 20
0.0
 30
0.0
  0
SPLINE
  5
226
330
207
100
AcDbEntity
  8
Layer 1
370
     0
100
AcDbSpline
210
0.0
220
0.0
230
1.0
 70
    11
 71
     3
 72
    35
 73
    31
 74
     0
 42
0.0000000001
 43
0.0000000001
 12
1.0
 22
0.0
 32
0.0
 13
1.0
 23
0.0
 33
0.0
 40
0.0
 40
0.0
 40
0.0
 40
0.0
 40
1.0
 40
1.0
 40
1.0
 40
2.0
 40
2.0
 40
2.0
 40
3.0
 40
3.0
 40
3.0
 40
4.0
 40
4.0
 40
4.0
 40
5.0
 40
5.0
 40
5.0
 40
6.0
 40
6.0
 40
6.0
 40
7.0
 40
7.0
 40
7.0
 40
8.0
 40
8.0
 40
8.0
 40
9.0
 40
9.0
 40
9.0
 40
10.0
 40
10.0
 40
10.0
 40
10.0
 10
5.931178543127473
 20
11.40891418115657
 30
0.0
 10
6.175022220678497
 20
11.26797593475221
 30
0.0
 10
6.49300536212741
 20
11.25912474053357
 30
0.0
 10
6.795554632186513
 20
11.38461132066548
 30
0.0
 10
7.097931041138914
 20
11.51027076190408
 30
0.0
 10
7.381014033916865
 20
11.76872281086598
 30
0.0
 10
7.564670140342519
 20
12.08689308052655
 30
0.0
 10
7.748640218982384
 20
12.4053914335121
 30
0.0
 10
7.830907994661336
 20
12.77961456285376
 30
0.0
 10
7.78839474574594
 20
13.10436766567973
 30
0.0
 10
7.745885024608231
 20
13.42896554628743
 30
0.0
 10
7.579243389970724
 20
13.70007526159307
 30
0.0
 10
7.335364590637035
 20
13.84084417466842
 30
0.0
 10
7.335364590637035
 20
13.84084417466842
 30
0.0
 10
6.828729853562364
 20
14.13331458387355
 30
0.0
 10
6.828729853562364
 20
14.13331458387355
 30
0.0
 10
6.584851054228675
 20
14.27407996917121
 30
0.0
 10
6.266698423456536
 20
14.28293469116753
 30
0.0
 10
5.964322014504135
 20
14.15744811103563
 30
0.0
 10
5.661945605551733
 20
14.03177138538095
 30
0.0
 10
5.379035473880482
 20
13.77331898194669
 30
0.0
 10
5.195030117463739
 20
13.45516635117455
 30
0.0
 10
5.011236427708263
 20
13.13666447041132
 30
0.0
 10
4.928968652029311
 20
12.76244166347607
 30
0.0
 10
4.971651234273721
 20
12.43767444133504
 30
0.0
 10
5.013991622082417
 20
12.11309388541367
 30
0.0
 10
5.180629728942235
 20
11.84215350343705
 30
0.0
 10
5.424508528275924
 20
11.70138811813938
 30
0.0
 10
5.424508528275924
 20
11.70138811813938
 30
0.0
 10
5.931178543127473
 20
11.40891418115657
 30
0.0
 10
5.931178543127473
 20
11.40891418115657
 30
0.0
  0
HATCH
  5
227
330
207
100
AcDbEntity
  8
Layer 1
 62
   253
420
 10329244
100
AcDbHatch
 10
0.0
 20
0.0
 30
0.0
210
0.0
220
0.0
230
1.0
  2
SOLID
 70
     1
 71
     0
 91
        1
 92
        1
 93
        1
 72
     4
 94
        3
 73
     0
 74
     1
 95
       35
 96
       31
 40
0.0
 40
0.0
 40
0.0
 40
0.0
 40
1.0
 40
1.0
 40
1.0
 40
2.0
 40
2.0
 40
2.0
 40
3.0
 40
3.0
 40
3.0
 40
4.0
 40
4.0
 40
4.0
 40
5.0
 40
5.0
 40
5.0
 40
6.0
 40
6.0
 40
6.0
 40
7.0
 40
7.0
 40
7.0
 40
8.0
 40
8.0
 40
8.0
 40
9.0
 40
9.0
 40
9.0
 40
10.0
 40
10.0
 40
10.0
 40
10.0
 10
5.931178543127473
 20
11.40891418115657
 10
6.175022220678497
 20
11.26797593475221
 10
6.49300536212741
 20
11.25912474053357
 10
6.795554632186513
 20
11.38461132066548
 10
7.097931041138914
 20
11.51027076190408
 10
7.381014033916865
 20
11.76872281086598
 10
7.564670140342519
 20
12.08689308052655
 10
7.748640218982384
 20
12.4053914335121
 10
7.830907994661336
 20
12.77961456285376
 10
7.78839474574594
 20
13.10436766567973
 10
7.745885024608231
 20
13.42896554628743
 10
7.579243389970724
 20
13.70007526159307
 10
7.335364590637035
 20
13.84084417466842
 10
7.335364590637035
 20
13.84084417466842
 10
6.828729853562364
 20
14.13331458387355
 10
6.828729853562364
 20
14.13331458387355
 10
6.584851054228675
 20
14.27407996917121
 10
6.266698423456536
 20
14.28293469116753
 10
5.964322014504135
 20
14.15744811103563
 10
5.661945605551733
 20
14.03177138538095
 10
5.379035473880482
 20
13.77331898194669
 10
5.195030117463739
 20
13.45516635117455
 10
5.011236427708263
 20
13.13666447041132
 10
4.928968652029311
 20
12.76244166347607
 10
4.971651234273721
 20
12.43767444133504
 10
5.013991622082417
 20
12.11309388541367
 10
5.180629728942235
 20
11.84215350343705
 10
5.424508528275924
 20
11.70138811813938
 10
5.424508528275924
 20
11.70138811813938
 10
5.931178543127473
 20
11.40891418115657
 10
5.931178543127473
 20
11.40891418115657
 97
        0
 97
        0
 75
     2
 76
     1
 98
        0
  0
ENDBLK
  5
20A
330
207
100
AcDbEntity
  8
0
100
AcDbBlockEnd
  0
BLOCK
  5
210
330
20E
100
AcDbEntity
  8
0
100
AcDbBlockBegin
  2
block 53
 70
     0
 10
0.0
 20
0.0
 30
0.0
  3
block 53
  1

  0
INSERT
  5
213
330
20E
100
AcDbEntity
  8
Layer 1
100
AcDbBlockReference
  2
block 54
 10
0.0
 20
0.0
 30
0.0
  0
ENDBLK
  5
211
330
20E
100
AcDbEntity
  8
0
100
AcDbBlockEnd
  0
BLOCK
  5
214
330
212
100
AcDbEntity
  8
0
100
AcDbBlockBegin
  2
block 54
 70
     0
 10
0.0
 20
0.0
 30
0.0
  3
block 54
  1

  0
SPLINE
  5
216
330
212
100
AcDbEntity
  8
Layer 1
370
     0
100
AcDbSpline
210
0.0
220
0.0
230
1.0
 70
    11
 71
     3
 72
    29
 73
    25
 74
     0
 42
0.0000000001
 43
0.0000000001
 12
1.0
 22
0.0
 32
0.0
 13
1.0
 23
0.0
 33
0.0
 40
0.0
 40
0.0
 40
0.0
 40
0.0
 40
1.0
 40
1.0
 40
1.0
 40
2.0
 40
2.0
 40
2.0
 40
3.0
 40
3.0
 40
3.0
 40
4.0
 40
4.0
 40
4.0
 40
5.0
 40
5.0
 40
5.0
 40
6.0
 40
6.0
 40
6.0
 40
7.0
 40
7.0
 40
7.0
 40
8.0
 40
8.0
 40
8.0
 40
8.0
 10
6.3996427256204
 20
11.82878675377806
 30
0.0
 10
6.260426034727669
 20
11.90931533505694
 30
0.0
 10
6.165137231603134
 20
12.06398369222213
 30
0.0
 10
6.141021343329492
 20
12.24934724304867
 30
0.0
 10
6.11673259394915
 20
12.43490129387035
 30
0.0
 10
6.163585009420512
 20
12.64873753841493
 30
0.0
 10
6.268592840074873
 20
12.83048158933381
 30
0.0
 10
6.268592840074873
 20
12.83048158933381
 30
0.0
 10
6.005801624557012
 20
12.98218694119889
 30
0.0
 10
6.005801624557012
 20
12.98218694119889
 30
0.0
 10
6.005801624557012
 20
12.98218694119889
 30
0.0
 10
5.880847738855963
 20
12.61697342811419
 30
0.0
 10
5.880847738855963
 20
12.61697342811419
 30
0.0
 10
5.880847738855963
 20
12.61697342811419
 30
0.0
 10
5.901827432765171
 20
12.20909177185345
 30
0.0
 10
5.901827432765171
 20
12.20909177185345
 30
0.0
 10
5.901827432765171
 20
12.20909177185345
 30
0.0
 10
6.100575372139133
 20
11.94750352852712
 30
0.0
 10
6.100575372139133
 20
11.94750352852712
 30
0.0
 10
6.100575372139133
 20
11.94750352852712
 30
0.0
 10
6.341145276192484
 20
11.78017750501819
 30
0.0
 10
6.341145276192484
 20
11.78017750501819
 30
0.0
 10
6.341145276192484
 20
11.78017750501819
 30
0.0
 10
6.3996427256204
 20
11.82878675377806
 30
0.0
 10
6.3996427256204
 20
11.82878675377806
 30
0.0
  0
HATCH
  5
217
330
212
100
AcDbEntity
  8
Layer 1
 62
     8
420
  7303022
100
AcDbHatch
 10
0.0
 20
0.0
 30
0.0
210
0.0
220
0.0
230
1.0
  2
SOLID
 70
     1
 71
     0
 91
        1
 92
        1
 93
        1
 72
     4
 94
        3
 73
     0
 74
     1
 95
       29
 96
       25
 40
0.0
 40
0.0
 40
0.0
 40
0.0
 40
1.0
 40
1.0
 40
1.0
 40
2.0
 40
2.0
 40
2.0
 40
3.0
 40
3.0
 40
3.0
 40
4.0
 40
4.0
 40
4.0
 40
5.0
 40
5.0
 40
5.0
 40
6.0
 40
6.0
 40
6.0
 40
7.0
 40
7.0
 40
7.0
 40
8.0
 40
8.0
 40
8.0
 40
8.0
 10
6.3996427256204
 20
11.82878675377806
 10
6.260426034727669
 20
11.90931533505694
 10
6.165137231603134
 20
12.06398369222213
 10
6.141021343329492
 20
12.24934724304867
 10
6.11673259394915
 20
12.43490129387035
 10
6.163585009420512
 20
12.64873753841493
 10
6.268592840074873
 20
12.83048158933381
 10
6.268592840074873
 20
12.83048158933381
 10
6.005801624557012
 20
12.98218694119889
 10
6.005801624557012
 20
12.98218694119889
 10
6.005801624557012
 20
12.98218694119889
 10
5.880847738855963
 20
12.61697342811419
 10
5.880847738855963
 20
12.61697342811419
 10
5.880847738855963
 20
12.61697342811419
 10
5.901827432765171
 20
12.20909177185345
 10
5.901827432765171
 20
12.20909177185345
 10
5.901827432765171
 20
12.20909177185345
 10
6.100575372139133
 20
11.94750352852712
 10
6.100575372139133
 20
11.94750352852712
 10
6.100575372139133
 20
11.94750352852712
 10
6.341145276192484
 20
11.78017750501819
 10
6.341145276192484
 20
11.78017750501819
 10
6.341145276192484
 20
11.78017750501819
 10
6.3996427256204
 20
11.82878675377806
 10
6.3996427256204
 20
11.82878675377806
 97
        0
 97
        0
 75
     2
 76
     1
 98
        0
  0
SPLINE
  5
218
330
212
100
AcDbEntity
  8
Layer 1
370
     0
100
AcDbSpline
210
0.0
220
0.0
230
1.0
 70
    11
 71
     3
 72
    32
 73
    28
 74
     0
 42
0.0000000001
 43
0.0000000001
 12
1.0
 22
0.0
 32
0.0
 13
1.0
 23
0.0
 33
0.0
 40
0.0
 40
0.0
 40
0.0
 40
0.0
 40
1.0
 40
1.0
 40
1.0
 40
2.0
 40
2.0
 40
2.0
 40
3.0
 40
3.0
 40
3.0
 40
4.0
 40
4.0
 40
4.0
 40
5.0
 40
5.0
 40
5.0
 40
6.0
 40
6.0
 40
6.0
 40
7.0
 40
7.0
 40
7.0
 40
8.0
 40
8.0
 40
8.0
 40
9.0
 40
9.0
 40
9.0
 40
9.0
 10
7.460180893008261
 20
12.7973240068464
 30
0.0
 10
7.43603325473543
 20
12.98270519656137
 30
0.0
 10
7.340913784939908
 20
13.13735591483813
 30
0.0
 10
7.201559510717354
 20
13.21790213500544
 30
0.0
 10
7.201559510717354
 20
13.21790213500544
 30
0.0
 10
6.996747498250832
 20
13.33610385421209
 30
0.0
 10
6.996747498250832
 20
13.33610385421209
 30
0.0
 10
6.857530630605373
 20
13.41645957438427
 30
0.0
 10
6.675973551903946
 20
13.42149018536704
 30
0.0
 10
6.503098334092138
 20
13.34981279830679
 30
0.0
 10
6.330568838493733
 20
13.27812130013579
 30
0.0
 10
6.168788481509982
 20
13.13058610945528
 30
0.0
 10
6.063780650855622
 20
12.94868330854045
 30
0.0
 10
5.958945831843627
 20
12.76695336873233
 30
0.0
 10
5.91188865473071
 20
12.55309948529931
 30
0.0
 10
5.936036293003541
 20
12.36773593447277
 30
0.0
 10
5.960325042383884
 20
12.18235827253548
 30
0.0
 10
6.055444512179406
 20
12.02753499699312
 30
0.0
 10
6.194834064178838
 20
11.94716133409141
 30
0.0
 10
6.194834064178838
 20
11.94716133409141
 30
0.0
 10
6.3996427256204
 20
11.82878675377806
 30
0.0
 10
6.3996427256204
 20
11.82878675377806
 30
0.0
 10
6.538859416513131
 20
11.74841339471745
 30
0.0
 10
6.720589356321258
 20
11.74338278373468
 30
0.0
 10
6.893291713026366
 20
11.81507428190567
 30
0.0
 10
6.893291713026366
 20
11.81507428190567
 30
0.0
 10
7.460180893008261
 20
12.7973240068464
 30
0.0
 10
7.460180893008261
 20
12.7973240068464
 30
0.0
  0
HATCH
  5
219
330
212
100
AcDbEntity
  8
Layer 1
 62
   253
420
 10329244
100
AcDbHatch
 10
0.0
 20
0.0
 30
0.0
210
0.0
220
0.0
230
1.0
  2
SOLID
 70
     1
 71
     0
 91
        1
 92
        1
 93
        1
 72
     4
 94
        3
 73
     0
 74
     1
 95
       32
 96
       28
 40
0.0
 40
0.0
 40
0.0
 40
0.0
 40
1.0
 40
1.0
 40
1.0
 40
2.0
 40
2.0
 40
2.0
 40
3.0
 40
3.0
 40
3.0
 40
4.0
 40
4.0
 40
4.0
 40
5.0
 40
5.0
 40
5.0
 40
6.0
 40
6.0
 40
6.0
 40
7.0
 40
7.0
 40
7.0
 40
8.0
 40
8.0
 40
8.0
 40
9.0
 40
9.0
 40
9.0
 40
9.0
 10
7.460180893008261
 20
12.7973240068464
 10
7.43603325473543
 20
12.98270519656137
 10
7.340913784939908
 20
13.13735591483813
 10
7.201559510717354
 20
13.21790213500544
 10
7.201559510717354
 20
13.21790213500544
 10
6.996747498250832
 20
13.33610385421209
 10
6.996747498250832
 20
13.33610385421209
 10
6.857530630605373
 20
13.41645957438427
 10
6.675973551903946
 20
13.42149018536704
 10
6.503098334092138
 20
13.34981279830679
 10
6.330568838493733
 20
13.27812130013579
 10
6.168788481509982
 20
13.13058610945528
 10
6.063780650855622
 20
12.94868330854045
 10
5.958945831843627
 20
12.76695336873233
 10
5.91188865473071
 20
12.55309948529931
 10
5.936036293003541
 20
12.36773593447277
 10
5.960325042383884
 20
12.18235827253548
 10
6.055444512179406
 20
12.02753499699312
 10
6.194834064178838
 20
11.94716133409141
 10
6.194834064178838
 20
11.94716133409141
 10
6.3996427256204
 20
11.82878675377806
 10
6.3996427256204
 20
11.82878675377806
 10
6.538859416513131
 20
11.74841339471745
 10
6.720589356321258
 20
11.74338278373468
 10
6.893291713026366
 20
11.81507428190567
 10
6.893291713026366
 20
11.81507428190567
 10
7.460180893008261
 20
12.7973240068464
 10
7.460180893008261
 20
12.7973240068464
 97
        0
 97
        0
 75
     2
 76
     1
 98
        0
  0
ENDBLK
  5
215
330
212
100
AcDbEntity
  8
0
100
AcDbBlockEnd
  0
BLOCK
  5
21C
330
21A
100
AcDbEntity
  8
0
100
AcDbBlockBegin
  2
block 55
 70
     0
 10
0.0
 20
0.0
 30
0.0
  3
block 55
  1

  0
INSERT
  5
21F
330
21A
100
AcDbEntity
  8
Layer 1
100
AcDbBlockReference
  2
block 56
 10
0.0
 20
0.0
 30
0.0
  0
ENDBLK
  5
21D
330
21A
100
AcDbEntity
  8
0
100
AcDbBlockEnd
  0
BLOCK
  5
220
330
21E
100
AcDbEntity
  8
0
100
AcDbBlockBegin
  2
block 56
 70
     0
 10
0.0
 20
0.0
 30
0.0
  3
block 56
  1

  0
SPLINE
  5
222
330
21E
100
AcDbEntity
  8
Layer 1
370
     0
100
AcDbSpline
210
0.0
220
0.0
230
1.0
 70
    11
 71
     3
 72
    29
 73
    25
 74
     0
 42
0.0000000001
 43
0.0000000001
 12
1.0
 22
0.0
 32
0.0
 13
1.0
 23
0.0
 33
0.0
 40
0.0
 40
0.0
 40
0.0
 40
0.0
 40
1.0
 40
1.0
 40
1.0
 40
2.0
 40
2.0
 40
2.0
 40
3.0
 40
3.0
 40
3.0
 40
4.0
 40
4.0
 40
4.0
 40
5.0
 40
5.0
 40
5.0
 40
6.0
 40
6.0
 40
6.0
 40
7.0
 40
7.0
 40
7.0
 40
8.0
 40
8.0
 40
8.0
 40
8.0
 10
6.653064163599525
 20
11.87409047484449
 30
0.0
 10
6.541614610887285
 20
11.93847947320179
 30
0.0
 10
6.465411085053621
 20
12.06224449782206
 30
0.0
 10
6.446152946656047
 20
12.21046760515168
 30
0.0
 10
6.426549086045073
 20
12.35888474025414
 30
0.0
 10
6.464204585084401
 20
12.53001723588818
 30
0.0
 10
6.548229194051865
 20
12.6754710377329
 30
0.0
 10
6.548229194051865
 20
12.6754710377329
 30
0.0
 10
6.327605505236001
 20
12.80269681226488
 30
0.0
 10
6.327605505236001
 20
12.80269681226488
 30
0.0
 10
6.327605505236001
 20
12.80269681226488
 30
0.0
 10
6.23648300756073
 20
12.55432362415696
 30
0.0
 10
6.23648300756073
 20
12.55432362415696
 30
0.0
 10
6.23648300756073
 20
12.55432362415696
 30
0.0
 10
6.23648300756073
 20
12.2300891046511
 30
0.0
 10
6.23648300756073
 20
12.2300891046511
 30
0.0
 10
6.23648300756073
 20
12.2300891046511
 30
0.0
 10
6.361987226581072
 20
12.03116860810332
 30
0.0
 10
6.361987226581072
 20
12.03116860810332
 30
0.0
 10
6.361987226581072
 20
12.03116860810332
 30
0.0
 10
6.529281665034357
 20
11.90585458514523
 30
0.0
 10
6.529281665034357
 20
11.90585458514523
 30
0.0
 10
6.529281665034357
 20
11.90585458514523
 30
0.0
 10
6.653064163599525
 20
11.87409047484449
 30
0.0
 10
6.653064163599525
 20
11.87409047484449
 30
0.0
  0
HATCH
  5
223
330
21E
100
AcDbEntity
  8
Layer 1
 62
    52
420
 14334976
100
AcDbHatch
 10
0.0
 20
0.0
 30
0.0
210
0.0
220
0.0
230
1.0
  2
SOLID
 70
     1
 71
     0
 91
        1
 92
        1
 93
        1
 72
     4
 94
        3
 73
     0
 74
     1
 95
       29
 96
       25
 40
0.0
 40
0.0
 40
0.0
 40
0.0
 40
1.0
 40
1.0
 40
1.0
 40
2.0
 40
2.0
 40
2.0
 40
3.0
 40
3.0
 40
3.0
 40
4.0
 40
4.0
 40
4.0
 40
5.0
 40
5.0
 40
5.0
 40
6.0
 40
6.0
 40
6.0
 40
7.0
 40
7.0
 40
7.0
 40
8.0
 40
8.0
 40
8.0
 40
8.0
 10
6.653064163599525
 20
11.87409047484449
 10
6.541614610887285
 20
11.93847947320179
 10
6.465411085053621
 20
12.06224449782206
 10
6.446152946656047
 20
12.21046760515168
 10
6.426549086045073
 20
12.35888474025414
 10
6.464204585084401
 20
12.53001723588818
 10
6.548229194051865
 20
12.6754710377329
 10
6.548229194051865
 20
12.6754710377329
 10
6.327605505236001
 20
12.80269681226488
 10
6.327605505236001
 20
12.80269681226488
 10
6.327605505236001
 20
12.80269681226488
 10
6.23648300756073
 20
12.55432362415696
 10
6.23648300756073
 20
12.55432362415696
 10
6.23648300756073
 20
12.55432362415696
 10
6.23648300756073
 20
12.2300891046511
 10
6.23648300756073
 20
12.2300891046511
 10
6.23648300756073
 20
12.2300891046511
 10
6.361987226581072
 20
12.03116860810332
 10
6.361987226581072
 20
12.03116860810332
 10
6.361987226581072
 20
12.03116860810332
 10
6.529281665034357
 20
11.90585458514523
 10
6.529281665034357
 20
11.90585458514523
 10
6.529281665034357
 20
11.90585458514523
 10
6.653064163599525
 20
11.87409047484449
 10
6.653064163599525
 20
11.87409047484449
 97
        0
 97
        0
 75
     2
 76
     1
 98
        0
  0
SPLINE
  5
224
330
21E
100
AcDbEntity
  8
Layer 1
370
     0
100
AcDbSpline
210
0.0
220
0.0
230
1.0
 70
    11
 71
     3
 72
    35
 73
    31
 74
     0
 42
0.0000000001
 43
0.0000000001
 12
1.0
 22
0.0
 32
0.0
 13
1.0
 23
0.0
 33
0.0
 40
0.0
 40
0.0
 40
0.0
 40
0.0
 40
1.0
 40
1.0
 40
1.0
 40
2.0
 40
2.0
 40
2.0
 40
3.0
 40
3.0
 40
3.0
 40
4.0
 40
4.0
 40
4.0
 40
5.0
 40
5.0
 40
5.0
 40
6.0
 40
6.0
 40
6.0
 40
7.0
 40
7.0
 40
7.0
 40
8.0
 40
8.0
 40
8.0
 40
9.0
 40
9.0
 40
9.0
 40
10.0
 40
10.0
 40
10.0
 40
10.0
 10
6.653064163599525
 20
11.87409047484449
 30
0.0
 10
6.764478609419983
 20
11.80968383759875
 30
0.0
 10
6.909759379272907
 20
11.80570450436694
 30
0.0
 10
7.047942431303118
 20
11.862977975128
 30
0.0
 10
7.186090205556454
 20
11.92042783477344
 30
0.0
 10
7.315418535590346
 20
12.03845669287338
 30
0.0
 10
7.399411394558621
 20
12.18392460582885
 30
0.0
 10
7.483436003526085
 20
12.32937487989588
 30
0.0
 10
7.520918641458713
 20
12.50051090330762
 30
0.0
 10
7.50166050306114
 20
12.64873753841493
 30
0.0
 10
7.482229503556866
 20
12.7971511457397
 30
0.0
 10
7.406198838829903
 20
12.92089853147153
 30
0.0
 10
7.294576425010962
 20
12.98530516871726
 30
0.0
 10
7.294576425010962
 20
12.98530516871726
 30
0.0
 10
7.130728790302174
 20
13.07990638561892
 30
0.0
 10
7.130728790302174
 20
13.07990638561892
 30
0.0
 10
7.019314515366811
 20
13.14429505354998
 30
0.0
 10
6.873998296851915
 20
13.14829202567023
 30
0.0
 10
6.735850522598581
 20
13.09082805491404
 30
0.0
 10
6.597702748345246
 20
13.03355458415299
 30
0.0
 10
6.468374418311353
 20
12.91552572605304
 30
0.0
 10
6.384381559343078
 20
12.77007192420832
 30
0.0
 10
6.300356950375614
 20
12.62462165014129
 30
0.0
 10
6.262701451336286
 20
12.45346798784112
 30
0.0
 10
6.28230531194726
 20
12.30524488051149
 30
0.0
 10
6.301563609535734
 20
12.15684538429748
 30
0.0
 10
6.377766976178497
 20
12.03308035967721
 30
0.0
 10
6.489216528890737
 20
11.96869166367451
 30
0.0
 10
6.489216528890737
 20
11.96869166367451
 30
0.0
 10
6.653064163599525
 20
11.87409047484449
 30
0.0
 10
6.653064163599525
 20
11.87409047484449
 30
0.0
  0
HATCH
  5
225
330
21E
100
AcDbEntity
  8
Layer 1
 62
    40
420
 16768256
100
AcDbHatch
 10
0.0
 20
0.0
 30
0.0
210
0.0
220
0.0
230
1.0
  2
SOLID
 70
     1
 71
     0
 91
        1
 92
        1
 93
        1
 72
     4
 94
        3
 73
     0
 74
     1
 95
       35
 96
       31
 40
0.0
 40
0.0
 40
0.0
 40
0.0
 40
1.0
 40
1.0
 40
1.0
 40
2.0
 40
2.0
 40
2.0
 40
3.0
 40
3.0
 40
3.0
 40
4.0
 40
4.0
 40
4.0
 40
5.0
 40
5.0
 40
5.0
 40
6.0
 40
6.0
 40
6.0
 40
7.0
 40
7.0
 40
7.0
 40
8.0
 40
8.0
 40
8.0
 40
9.0
 40
9.0
 40
9.0
 40
10.0
 40
10.0
 40
10.0
 40
10.0
 10
6.653064163599525
 20
11.87409047484449
 10
6.764478609419983
 20
11.80968383759875
 10
6.909759379272907
 20
11.80570450436694
 10
7.047942431303118
 20
11.862977975128
 10
7.186090205556454
 20
11.92042783477344
 10
7.315418535590346
 20
12.03845669287338
 10
7.399411394558621
 20
12.18392460582885
 10
7.483436003526085
 20
12.32937487989588
 10
7.520918641458713
 20
12.50051090330762
 10
7.50166050306114
 20
12.64873753841493
 10
7.482229503556866
 20
12.7971511457397
 10
7.406198838829903
 20
12.92089853147153
 10
7.294576425010962
 20
12.98530516871726
 10
7.294576425010962
 20
12.98530516871726
 10
7.130728790302174
 20
13.07990638561892
 10
7.130728790302174
 20
13.07990638561892
 10
7.019314515366811
 20
13.14429505354998
 10
6.873998296851915
 20
13.14829202567023
 10
6.735850522598581
 20
13.09082805491404
 10
6.597702748345246
 20
13.03355458415299
 10
6.468374418311353
 20
12.91552572605304
 10
6.384381559343078
 20
12.77007192420832
 10
6.300356950375614
 20
12.62462165014129
 10
6.262701451336286
 20
12.45346798784112
 10
6.28230531194726
 20
12.30524488051149
 10
6.301563609535734
 20
12.15684538429748
 10
6.377766976178497
 20
12.03308035967721
 10
6.489216528890737
 20
11.96869166367451
 10
6.489216528890737
 20
11.96869166367451
 10
6.653064163599525
 20
11.87409047484449
 10
6.653064163599525
 20
11.87409047484449
 97
        0
 97
        0
 75
     2
 76
     1
 98
        0
  0
ENDBLK
  5
221
330
21E
100
AcDbEntity
  8
0
100
AcDbBlockEnd
  0
BLOCK
  5
22A
330
228
100
AcDbEntity
  8
0
100
AcDbBlockBegin
  2
block 57
 70
     0
 10
0.0
 20
0.0
 30
0.0
  3
block 57
  1

  0
INSERT
  5
22D
330
228
100
AcDbEntity
  8
Layer 1
100
AcDbBlockReference
  2
block 58
 10
0.0
 20
0.0
 30
0.0
  0
SPLINE
  5
254
330
228
100
AcDbEntity
  8
Layer 1
 62
     7
420
 16777215
370
     9
100
AcDbSpline
210
0.0
220
0.0
230
1.0
 70
     8
 71
     3
 72
    11
 73
     7
 74
     0
 42
0.0000000001
 43
0.0000000001
 12
1.0
 22
0.0
 32
0.0
 13
1.0
 23
0.0
 33
0.0
 40
0.0
 40
0.0
 40
0.0
 40
0.0
 40
1.0
 40
1.0
 40
1.0
 40
2.0
 40
2.0
 40
2.0
 40
2.0
 10
6.350860615753825
 20
11.66753909122517
 30
0.0
 10
6.401710003345437
 20
11.67968170202649
 30
0.0
 10
6.452594668713928
 20
11.69633986826818
 30
0.0
 10
6.502929165040903
 20
11.71718197884756
 30
0.0
 10
6.534520249957166
 20
11.73018889518239
 30
0.0
 10
6.565561165831912
 20
11.74494911702805
 30
0.0
 10
6.59663383170585
 20
11.76143471928188
 30
0.0
  0
SPLINE
  5
255
330
228
100
AcDbEntity
  8
Layer 1
 62
     7
420
 16777215
370
     9
100
AcDbSpline
210
0.0
220
0.0
230
1.0
 70
     8
 71
     3
 72
    11
 73
     7
 74
     0
 42
0.0000000001
 43
0.0000000001
 12
1.0
 22
0.0
 32
0.0
 13
1.0
 23
0.0
 33
0.0
 40
0.0
 40
0.0
 40
0.0
 40
0.0
 40
1.0
 40
1.0
 40
1.0
 40
2.0
 40
2.0
 40
2.0
 40
2.0
 10
7.363135256595213
 20
13.07711558304165
 30
0.0
 10
7.361928756625994
 20
13.11582235983194
 30
0.0
 10
7.359138284474962
 20
13.15418341440882
 30
0.0
 10
7.354107673492193
 20
13.19151083012319
 30
0.0
 10
7.326513396418403
 20
13.40240138029847
 30
0.0
 10
7.238008509787463
 20
13.58673129226249
 30
0.0
 10
7.105579442668037
 20
13.71638805212645
 30
0.0
  0
ENDBLK
  5
22B
330
228
100
AcDbEntity
  8
0
100
AcDbBlockEnd
  0
BLOCK
  5
22E
330
22C
100
AcDbEntity
  8
0
100
AcDbBlockBegin
  2
block 58
 70
     0
 10
0.0
 20
0.0
 30
0.0
  3
block 58
  1

  0
INSERT
  5
231
330
22C
100
AcDbEntity
  8
Layer 1
100
AcDbBlockReference
  2
block 59
 10
0.0
 20
0.0
 30
0.0
  0
ENDBLK
  5
22F
330
22C
100
AcDbEntity
  8
0
100
AcDbBlockEnd
  0
BLOCK
  5
232
330
230
100
AcDbEntity
  8
0
100
AcDbBlockBegin
  2
block 59
 70
     0
 10
0.0
 20
0.0
 30
0.0
  3
block 59
  1

  0
SPLINE
  5
234
330
230
100
AcDbEntity
  8
Layer 1
 62
     7
420
 16777215
370
     9
100
AcDbSpline
210
0.0
220
0.0
230
1.0
 70
     8
 71
     3
 72
    17
 73
    13
 74
     0
 42
0.0000000001
 43
0.0000000001
 12
1.0
 22
0.0
 32
0.0
 13
1.0
 23
0.0
 33
0.0
 40
0.0
 40
0.0
 40
0.0
 40
0.0
 40
1.0
 40
1.0
 40
1.0
 40
2.0
 40
2.0
 40
2.0
 40
3.0
 40
3.0
 40
3.0
 40
4.0
 40
4.0
 40
4.0
 40
4.0
 10
7.335364590637035
 20
13.84084417466842
 30
0.0
 10
7.091489319081034
 20
13.98160955996609
 30
0.0
 10
6.773506021637909
 20
13.99046428196241
 30
0.0
 10
6.470992029355683
 20
13.86497417405282
 30
0.0
 10
6.168615620403282
 20
13.73929709392577
 30
0.0
 10
5.885705488732031
 20
13.48084857274157
 30
0.0
 10
5.701700276352338
 20
13.16251955308504
 30
0.0
 10
5.517871164782933
 20
12.8441940612062
 30
0.0
 10
5.435603389103981
 20
12.46997093186454
 30
0.0
 10
5.478321387519282
 20
12.14520019015013
 30
0.0
 10
5.520661636933965
 20
11.82062347620855
 30
0.0
 10
5.687299743793783
 20
11.54968309423192
 30
0.0
 10
5.931178543127473
 20
11.40891418115657
 30
0.0
  0
SPLINE
  5
235
330
230
100
AcDbEntity
  8
Layer 1
 62
     7
420
 16777215
370
     9
100
AcDbSpline
210
0.0
220
0.0
230
1.0
 70
     8
 71
     3
 72
    17
 73
    13
 74
     0
 42
0.0000000001
 43
0.0000000001
 12
1.0
 22
0.0
 32
0.0
 13
1.0
 23
0.0
 33
0.0
 40
0.0
 40
0.0
 40
0.0
 40
0.0
 40
1.0
 40
1.0
 40
1.0
 40
2.0
 40
2.0
 40
2.0
 40
3.0
 40
3.0
 40
3.0
 40
4.0
 40
4.0
 40
4.0
 40
4.0
 10
6.03043256837307
 20
11.58282333043764
 30
0.0
 10
6.239619201925163
 20
11.46202134646836
 30
0.0
 10
6.512298778301861
 20
11.4543907633297
 30
0.0
 10
6.771438743912872
 20
11.56217142724665
 30
0.0
 10
7.030751570630583
 20
11.66979686894534
 30
0.0
 10
7.273423869995052
 20
11.89126369662859
 30
0.0
 10
7.431002643752661
 20
12.16430310632944
 30
0.0
 10
7.588616695287147
 20
12.43715554381284
 30
0.0
 10
7.659101693488925
 20
12.75810249681047
 30
0.0
 10
7.622652694418816
 20
13.03651791741072
 30
0.0
 10
7.586203886992318
 20
13.3149160214193
 30
0.0
 10
7.443335754549128
 20
13.54716726549408
 30
0.0
 10
7.234357259880614
 20
13.66796895685662
 30
0.0
  0
SPLINE
  5
236
330
230
100
AcDbEntity
  8
Layer 1
 62
     7
420
 16777215
370
    20
100
AcDbSpline
210
0.0
220
0.0
230
1.0
 70
     8
 71
     3
 72
    17
 73
    13
 74
     0
 42
0.0000000001
 43
0.0000000001
 12
1.0
 22
0.0
 32
0.0
 13
1.0
 23
0.0
 33
0.0
 40
0.0
 40
0.0
 40
0.0
 40
0.0
 40
1.0
 40
1.0
 40
1.0
 40
2.0
 40
2.0
 40
2.0
 40
3.0
 40
3.0
 40
3.0
 40
4.0
 40
4.0
 40
4.0
 40
4.0
 10
7.234357259880614
 20
13.66796895685662
 30
0.0
 10
7.02520237632771
 20
13.78859778711245
 30
0.0
 10
6.752526327728701
 20
13.79624600913955
 30
0.0
 10
6.493213501010988
 20
13.68862056744086
 30
0.0
 10
6.2340382576231
 20
13.5808434313016
 30
0.0
 10
5.991401387391007
 20
13.35935543695222
 30
0.0
 10
5.833787184501023
 20
13.08650652724651
 30
0.0
 10
5.676173132966536
 20
12.81346358976798
 30
0.0
 10
5.605719884763948
 20
12.49253459795556
 30
0.0
 10
5.641999550505044
 20
12.21412238283622
 30
0.0
 10
5.678448549575152
 20
11.93587597326821
 30
0.0
 10
5.821281212597854
 20
11.70347333040748
 30
0.0
 10
6.03043256837307
 20
11.58282333043764
 30
0.0
  0
SPLINE
  5
237
330
230
100
AcDbEntity
  8
Layer 1
 62
     7
420
 16777215
370
    20
100
AcDbSpline
210
0.0
220
0.0
230
1.0
 70
    11
 71
     3
 72
    35
 73
    31
 74
     0
 42
0.0000000001
 43
0.0000000001
 12
1.0
 22
0.0
 32
0.0
 13
1.0
 23
0.0
 33
0.0
 40
0.0
 40
0.0
 40
0.0
 40
0.0
 40
1.0
 40
1.0
 40
1.0
 40
2.0
 40
2.0
 40
2.0
 40
3.0
 40
3.0
 40
3.0
 40
4.0
 40
4.0
 40
4.0
 40
5.0
 40
5.0
 40
5.0
 40
6.0
 40
6.0
 40
6.0
 40
7.0
 40
7.0
 40
7.0
 40
8.0
 40
8.0
 40
8.0
 40
9.0
 40
9.0
 40
9.0
 40
10.0
 40
10.0
 40
10.0
 40
10.0
 10
5.931178543127473
 20
11.40891418115657
 30
0.0
 10
6.175022220678497
 20
11.26797593475221
 30
0.0
 10
6.49300536212741
 20
11.25912474053357
 30
0.0
 10
6.795554632186513
 20
11.38461132066548
 30
0.0
 10
7.097931041138914
 20
11.51027076190408
 30
0.0
 10
7.381014033916865
 20
11.76872281086598
 30
0.0
 10
7.564670140342519
 20
12.08689308052655
 30
0.0
 10
7.748640218982384
 20
12.4053914335121
 30
0.0
 10
7.830907994661336
 20
12.77961456285376
 30
0.0
 10
7.78839474574594
 20
13.10436766567973
 30
0.0
 10
7.745885024608231
 20
13.42896554628743
 30
0.0
 10
7.579243389970724
 20
13.70007526159307
 30
0.0
 10
7.335364590637035
 20
13.84084417466842
 30
0.0
 10
7.335364590637035
 20
13.84084417466842
 30
0.0
 10
6.828729853562364
 20
14.13331458387355
 30
0.0
 10
6.828729853562364
 20
14.13331458387355
 30
0.0
 10
6.584851054228675
 20
14.27407996917121
 30
0.0
 10
6.266698423456536
 20
14.28293469116753
 30
0.0
 10
5.964322014504135
 20
14.15744811103563
 30
0.0
 10
5.661945605551733
 20
14.03177138538095
 30
0.0
 10
5.379035473880482
 20
13.77331898194669
 30
0.0
 10
5.195030117463739
 20
13.45516635117455
 30
0.0
 10
5.011236427708263
 20
13.13666447041132
 30
0.0
 10
4.928968652029311
 20
12.76244166347607
 30
0.0
 10
4.971651234273721
 20
12.43767444133504
 30
0.0
 10
5.013991622082417
 20
12.11309388541367
 30
0.0
 10
5.180629728942235
 20
11.84215350343705
 30
0.0
 10
5.424508528275924
 20
11.70138811813938
 30
0.0
 10
5.424508528275924
 20
11.70138811813938
 30
0.0
 10
5.931178543127473
 20
11.40891418115657
 30
0.0
 10
5.931178543127473
 20
11.40891418115657
 30
0.0
  0
SPLINE
  5
238
330
230
100
AcDbEntity
  8
Layer 1
 62
     7
420
 16777215
370
    20
100
AcDbSpline
210
0.0
220
0.0
230
1.0
 70
     8
 71
     3
 72
    29
 73
    25
 74
     0
 42
0.0000000001
 43
0.0000000001
 12
1.0
 22
0.0
 32
0.0
 13
1.0
 23
0.0
 33
0.0
 40
0.0
 40
0.0
 40
0.0
 40
0.0
 40
1.0
 40
1.0
 40
1.0
 40
2.0
 40
2.0
 40
2.0
 40
3.0
 40
3.0
 40
3.0
 40
4.0
 40
4.0
 40
4.0
 40
5.0
 40
5.0
 40
5.0
 40
6.0
 40
6.0
 40
6.0
 40
7.0
 40
7.0
 40
7.0
 40
8.0
 40
8.0
 40
8.0
 40
8.0
 10
7.460180893008261
 20
12.7973240068464
 30
0.0
 10
7.43603325473543
 20
12.98270519656137
 30
0.0
 10
7.340913784939908
 20
13.13735591483813
 30
0.0
 10
7.201559510717354
 20
13.21790213500544
 30
0.0
 10
7.201559510717354
 20
13.21790213500544
 30
0.0
 10
6.996747498250832
 20
13.33610385421209
 30
0.0
 10
6.996747498250832
 20
13.33610385421209
 30
0.0
 10
6.857530630605373
 20
13.41645957438427
 30
0.0
 10
6.675973551903946
 20
13.42149018536704
 30
0.0
 10
6.503098334092138
 20
13.34981279830679
 30
0.0
 10
6.330568838493733
 20
13.27812130013579
 30
0.0
 10
6.168788481509982
 20
13.13058610945528
 30
0.0
 10
6.063780650855622
 20
12.94868330854045
 30
0.0
 10
5.958945831843627
 20
12.76695336873233
 30
0.0
 10
5.91188865473071
 20
12.55309948529931
 30
0.0
 10
5.936036293003541
 20
12.36773593447277
 30
0.0
 10
5.960325042383884
 20
12.18235827253548
 30
0.0
 10
6.055444512179406
 20
12.02753499699312
 30
0.0
 10
6.194834064178838
 20
11.94716133409141
 30
0.0
 10
6.194834064178838
 20
11.94716133409141
 30
0.0
 10
6.3996427256204
 20
11.82878675377806
 30
0.0
 10
6.3996427256204
 20
11.82878675377806
 30
0.0
 10
6.538859416513131
 20
11.74841339471745
 30
0.0
 10
6.720589356321258
 20
11.74338278373468
 30
0.0
 10
6.893291713026366
 20
11.81507428190567
 30
0.0
  0
SPLINE
  5
239
330
230
100
AcDbEntity
  8
Layer 1
 62
     7
420
 16777215
370
     9
100
AcDbSpline
210
0.0
220
0.0
230
1.0
 70
     8
 71
     3
 72
    17
 73
    13
 74
     0
 42
0.0000000001
 43
0.0000000001
 12
1.0
 22
0.0
 32
0.0
 13
1.0
 23
0.0
 33
0.0
 40
0.0
 40
0.0
 40
0.0
 40
0.0
 40
1.0
 40
1.0
 40
1.0
 40
2.0
 40
2.0
 40
2.0
 40
3.0
 40
3.0
 40
3.0
 40
4.0
 40
4.0
 40
4.0
 40
4.0
 10
7.201559510717354
 20
13.21790213500544
 30
0.0
 10
7.062342819824623
 20
13.29825785517762
 30
0.0
 10
6.880785741123197
 20
13.30328846616039
 30
0.0
 10
6.707910523311389
 20
13.23161107910014
 30
0.0
 10
6.535208331699531
 20
13.15991958092915
 30
0.0
 10
6.373597142951545
 20
13.01221152914194
 30
0.0
 10
6.268592840074873
 20
12.83048158933381
 30
0.0
 10
6.163585009420512
 20
12.64873753841493
 30
0.0
 10
6.11673259394915
 20
12.43490129387035
 30
0.0
 10
6.141021343329492
 20
12.24934724304867
 30
0.0
 10
6.165137231603134
 20
12.06398369222213
 30
0.0
 10
6.260426034727669
 20
11.90931533505694
 30
0.0
 10
6.3996427256204
 20
11.82878675377806
 30
0.0
  0
POLYLINE
  5
23A
330
230
100
AcDbEntity
  8
Layer 1
 62
     7
420
 16777215
370
    20
100
AcDb2dPolyline
 66
     1
 10
0.0
 20
0.0
 30
0.0
  0
VERTEX
  5
23B
330
23A
100
AcDbEntity
  8
Layer 1
 62
     7
420
 16777215
370
    20
100
AcDbVertex
100
AcDb2dVertex
 10
6.93042862874559
 20
13.36889807559766
 30
0.0
  0
VERTEX
  5
23C
330
23A
100
AcDbEntity
  8
Layer 1
 62
     7
420
 16777215
370
    20
100
AcDbVertex
100
AcDb2dVertex
 10
6.920371109381006
 20
13.74346692715272
 30
0.0
  0
SEQEND
  5
23D
330
23A
100
AcDbEntity
  8
Layer 1
 62
     7
420
 16777215
370
    20
  0
POLYLINE
  5
23E
330
230
100
AcDbEntity
  8
Layer 1
 62
     7
420
 16777215
370
     9
100
AcDb2dPolyline
 66
     1
 10
0.0
 20
0.0
 30
0.0
  0
VERTEX
  5
23F
330
23E
100
AcDbEntity
  8
Layer 1
 62
     7
420
 16777215
370
     9
100
AcDbVertex
100
AcDb2dVertex
 10
6.285095784098291
 20
13.22413571817975
 30
0.0
  0
VERTEX
  5
240
330
23E
100
AcDbEntity
  8
Layer 1
 62
     7
420
 16777215
370
     9
100
AcDbVertex
100
AcDb2dVertex
 10
6.274999442875687
 20
13.56730416327484
 30
0.0
  0
SEQEND
  5
241
330
23E
100
AcDbEntity
  8
Layer 1
 62
     7
420
 16777215
370
     9
  0
POLYLINE
  5
242
330
230
100
AcDbEntity
  8
Layer 1
 62
     7
420
 16777215
370
    20
100
AcDb2dPolyline
 66
     1
 10
0.0
 20
0.0
 30
0.0
  0
VERTEX
  5
243
330
242
100
AcDbEntity
  8
Layer 1
 62
     7
420
 16777215
370
    20
100
AcDbVertex
100
AcDb2dVertex
 10
6.138230871178461
 20
13.0670578888538
 30
0.0
  0
VERTEX
  5
244
330
242
100
AcDbEntity
  8
Layer 1
 62
     7
420
 16777215
370
    20
100
AcDbVertex
100
AcDb2dVertex
 10
6.128169649212922
 20
13.42062587983353
 30
0.0
  0
SEQEND
  5
245
330
242
100
AcDbEntity
  8
Layer 1
 62
     7
420
 16777215
370
    20
  0
POLYLINE
  5
246
330
230
100
AcDbEntity
  8
Layer 1
 62
     7
420
 16777215
370
    20
100
AcDb2dPolyline
 66
     1
 10
0.0
 20
0.0
 30
0.0
  0
VERTEX
  5
247
330
246
100
AcDbEntity
  8
Layer 1
 62
     7
420
 16777215
370
    20
100
AcDbVertex
100
AcDb2dVertex
 10
6.454834807545666
 20
11.7994532823042
 30
0.0
  0
VERTEX
  5
248
330
246
100
AcDbEntity
  8
Layer 1
 62
     7
420
 16777215
370
    20
100
AcDbVertex
100
AcDb2dVertex
 10
6.20158638733848
 20
11.51392201181093
 30
0.0
  0
SEQEND
  5
249
330
246
100
AcDbEntity
  8
Layer 1
 62
     7
420
 16777215
370
    20
  0
POLYLINE
  5
24A
330
230
100
AcDbEntity
  8
Layer 1
 62
     7
420
 16777215
370
     9
100
AcDb2dPolyline
 66
     1
 10
0.0
 20
0.0
 30
0.0
  0
VERTEX
  5
24B
330
24A
100
AcDbEntity
  8
Layer 1
 62
     7
420
 16777215
370
     9
100
AcDbVertex
100
AcDb2dVertex
 10
6.014652818775645
 20
12.1660458285072
 30
0.0
  0
VERTEX
  5
24C
330
24A
100
AcDbEntity
  8
Layer 1
 62
     7
420
 16777215
370
     9
100
AcDbVertex
100
AcDb2dVertex
 10
5.761404241903221
 20
11.88051455801393
 30
0.0
  0
SEQEND
  5
24D
330
24A
100
AcDbEntity
  8
Layer 1
 62
     7
420
 16777215
370
     9
  0
POLYLINE
  5
24E
330
230
100
AcDbEntity
  8
Layer 1
 62
     7
420
 16777215
370
    20
100
AcDb2dPolyline
 66
     1
 10
0.0
 20
0.0
 30
0.0
  0
VERTEX
  5
24F
330
24E
100
AcDbEntity
  8
Layer 1
 62
     7
420
 16777215
370
    20
100
AcDbVertex
100
AcDb2dVertex
 10
5.926839376571508
 20
12.35679982364066
 30
0.0
  0
VERTEX
  5
250
330
24E
100
AcDbEntity
  8
Layer 1
 62
     7
420
 16777215
370
    20
100
AcDbVertex
100
AcDb2dVertex
 10
5.673417938592382
 20
12.07126855314739
 30
0.0
  0
SEQEND
  5
251
330
24E
100
AcDbEntity
  8
Layer 1
 62
     7
420
 16777215
370
    20
  0
SPLINE
  5
252
330
230
100
AcDbEntity
  8
Layer 1
 62
     7
420
 16777215
370
    20
100
AcDbSpline
210
0.0
220
0.0
230
1.0
 70
    11
 71
     3
 72
    35
 73
    31
 74
     0
 42
0.0000000001
 43
0.0000000001
 12
1.0
 22
0.0
 32
0.0
 13
1.0
 23
0.0
 33
0.0
 40
0.0
 40
0.0
 40
0.0
 40
0.0
 40
1.0
 40
1.0
 40
1.0
 40
2.0
 40
2.0
 40
2.0
 40
3.0
 40
3.0
 40
3.0
 40
4.0
 40
4.0
 40
4.0
 40
5.0
 40
5.0
 40
5.0
 40
6.0
 40
6.0
 40
6.0
 40
7.0
 40
7.0
 40
7.0
 40
8.0
 40
8.0
 40
8.0
 40
9.0
 40
9.0
 40
9.0
 40
10.0
 40
10.0
 40
10.0
 40
10.0
 10
6.653064163599525
 20
11.87409047484449
 30
0.0
 10
6.764478609419983
 20
11.80968383759875
 30
0.0
 10
6.909759379272907
 20
11.80570450436694
 30
0.0
 10
7.047942431303118
 20
11.862977975128
 30
0.0
 10
7.186090205556454
 20
11.92042783477344
 30
0.0
 10
7.315418535590346
 20
12.03845669287338
 30
0.0
 10
7.399411394558621
 20
12.18392460582885
 30
0.0
 10
7.483436003526085
 20
12.32937487989588
 30
0.0
 10
7.520918641458713
 20
12.50051090330762
 30
0.0
 10
7.50166050306114
 20
12.64873753841493
 30
0.0
 10
7.482229503556866
 20
12.7971511457397
 30
0.0
 10
7.406198838829903
 20
12.92089853147153
 30
0.0
 10
7.294576425010962
 20
12.98530516871726
 30
0.0
 10
7.294576425010962
 20
12.98530516871726
 30
0.0
 10
7.130728790302174
 20
13.07990638561892
 30
0.0
 10
7.130728790302174
 20
13.07990638561892
 30
0.0
 10
7.019314515366811
 20
13.14429505354998
 30
0.0
 10
6.873998296851915
 20
13.14829202567023
 30
0.0
 10
6.735850522598581
 20
13.09082805491404
 30
0.0
 10
6.597702748345246
 20
13.03355458415299
 30
0.0
 10
6.468374418311353
 20
12.91552572605304
 30
0.0
 10
6.384381559343078
 20
12.77007192420832
 30
0.0
 10
6.300356950375614
 20
12.62462165014129
 30
0.0
 10
6.262701451336286
 20
12.45346798784112
 30
0.0
 10
6.28230531194726
 20
12.30524488051149
 30
0.0
 10
6.301563609535734
 20
12.15684538429748
 30
0.0
 10
6.377766976178497
 20
12.03308035967721
 30
0.0
 10
6.489216528890737
 20
11.96869166367451
 30
0.0
 10
6.489216528890737
 20
11.96869166367451
 30
0.0
 10
6.653064163599525
 20
11.87409047484449
 30
0.0
 10
6.653064163599525
 20
11.87409047484449
 30
0.0
  0
SPLINE
  5
253
330
230
100
AcDbEntity
  8
Layer 1
 62
     7
420
 16777215
370
     9
100
AcDbSpline
210
0.0
220
0.0
230
1.0
 70
     8
 71
     3
 72
    17
 73
    13
 74
     0
 42
0.0000000001
 43
0.0000000001
 12
1.0
 22
0.0
 32
0.0
 13
1.0
 23
0.0
 33
0.0
 40
0.0
 40
0.0
 40
0.0
 40
0.0
 40
1.0
 40
1.0
 40
1.0
 40
2.0
 40
2.0
 40
2.0
 40
3.0
 40
3.0
 40
3.0
 40
4.0
 40
4.0
 40
4.0
 40
4.0
 10
7.294576425010962
 20
12.98530516871726
 30
0.0
 10
7.183162150075598
 20
13.04952130596786
 30
0.0
 10
7.037881387129411
 20
13.05369113919481
 30
0.0
 10
6.89969833160842
 20
12.99624480732706
 30
0.0
 10
6.761550553865141
 20
12.93895016989988
 30
0.0
 10
6.632222220564167
 20
12.82075197847092
 30
0.0
 10
6.548229194051865
 20
12.6754710377329
 30
0.0
 10
6.464204585084401
 20
12.53001723588818
 30
0.0
 10
6.426549086045073
 20
12.35888474025414
 30
0.0
 10
6.446152946656047
 20
12.21046760515168
 30
0.0
 10
6.465411085053621
 20
12.06224449782206
 30
0.0
 10
6.541614610887285
 20
11.93847947320179
 30
0.0
 10
6.653064163599525
 20
11.87409047484449
 30
0.0
  0
ENDBLK
  5
233
330
230
100
AcDbEntity
  8
0
100
AcDbBlockEnd
  0
ENDSEC
  0
SECTION
  2
ENTITIES
  0
INSERT
  5
42
330
1F
100
AcDbEntity
  8
Layer 1
100
AcDbBlockReference
  2
block 2
 10
0.0
 20
0.0
 30
0.0
  0
ENDSEC
  0
SECTION
  2
OBJECTS
  0
DICTIONARY
  5
C
330
0
100
AcDbDictionary
281
     1
  3
ACAD_GROUP
350
D
  3
ACAD_LAYOUT
350
1A
  3
ACAD_MATERIAL
350
3B
  3
ACAD_MLEADERSTYLE
350
258
  3
ACAD_MLINESTYLE
350
17
  3
ACAD_PLOTSETTINGS
350
19
  3
ACAD_PLOTSTYLENAME
350
E
  3
ACAD_TABLESTYLE
350
257
  3
ACAD_VISUALSTYLE
350
2A
  0
SUN
  5
3F
330
29
100
AcDbSun
 90
        1
290
     0
 63
     7
421
 16777215
 40
1.0
291
     1
 91
  2455826
 92
 54000000
292
     0
 70
     2
 71
   256
280
     1
  0
DICTIONARY
  5
D
102
{ACAD_REACTORS
330
C
102
}
330
C
100
AcDbDictionary
281
     1
  0
DICTIONARY
  5
1A
102
{ACAD_REACTORS
330
C
102
}
330
C
100
AcDbDictionary
281
     1
  3
Layout1
350
1E
  3
Layout2
350
26
  3
Model
350
22
  0
DICTIONARY
  5
3B
102
{ACAD_REACTORS
330
C
102
}
330
C
100
AcDbDictionary
281
     1
  3
ByBlock
350
3D
  3
ByLayer
350
3C
  3
Global
350
3E
  0
DICTIONARY
  5
258
102
{ACAD_REACTORS
330
C
102
}
330
C
100
AcDbDictionary
281
     1
  0
DICTIONARY
  5
17
102
{ACAD_REACTORS
330
C
102
}
330
C
100
AcDbDictionary
281
     1
  3
Standard
350
18
  0
DICTIONARY
  5
19
102
{ACAD_REACTORS
330
C
102
}
330
C
100
AcDbDictionary
281
     1
  0
ACDBDICTIONARYWDFLT
  5
E
102
{ACAD_REACTORS
330
C
102
}
330
C
100
AcDbDictionary
281
     1
  3
Normal
350
F
100
AcDbDictionaryWithDefault
340
F
  0
DICTIONARY
  5
257
102
{ACAD_REACTORS
330
C
102
}
330
C
100
AcDbDictionary
281
     1
  0
DICTIONARY
  5
2A
102
{ACAD_REACTORS
330
C
102
}
330
C
100
AcDbDictionary
281
     1
  3
2dWireframe
350
2F
  3
3D Hidden
350
31
  3
3dWireframe
350
30
  3
Basic
350
32
  3
Brighten
350
36
  3
ColorChange
350
3A
  3
Conceptual
350
34
  3
Dim
350
35
  3
Facepattern
350
39
  3
Flat
350
2B
  3
FlatWithEdges
350
2C
  3
Gouraud
350
2D
  3
GouraudWithEdges
350
2E
  3
Linepattern
350
38
  3
Realistic
350
33
  3
Thicken
350
37
  0
LAYOUT
  5
1E
102
{ACAD_REACTORS
330
1A
102
}
330
1A
100
AcDbPlotSettings
  1

  2
none_device
  4

  6

 40
0.0
 41
0.0
 42
0.0
 43
0.0
 44
0.0
 45
0.0
 46
0.0
 47
0.0
 48
0.0
 49
0.0
140
0.0
141
0.0
142
1.0
143
1.0
 70
   688
 72
     0
 73
     0
 74
     5
  7

 75
    16
 76
     0
 77
     2
 78
   300
147
1.0
148
0.0
149
0.0
100
AcDbLayout
  1
Layout1
 70
     1
 71
     1
 10
0.0
 20
0.0
 11
12.0
 21
9.0
 12
0.0
 22
0.0
 32
0.0
 14
1.000000000000000E+20
 24
1.000000000000000E+20
 34
1.000000000000000E+20
 15
-1.000000000000000E+20
 25
-1.000000000000000E+20
 35
-1.000000000000000E+20
146
0.0
 13
0.0
 23
0.0
 33
0.0
 16
1.0
 26
0.0
 36
0.0
 17
0.0
 27
1.0
 37
0.0
 76
     0
330
1B
  0
LAYOUT
  5
26
102
{ACAD_REACTORS
330
1A
102
}
330
1A
100
AcDbPlotSettings
  1

  2
none_device
  4

  6

 40
0.0
 41
0.0
 42
0.0
 43
0.0
 44
0.0
 45
0.0
 46
0.0
 47
0.0
 48
0.0
 49
0.0
140
0.0
141
0.0
142
1.0
143
1.0
 70
   688
 72
     0
 73
     0
 74
     5
  7

 75
    16
 76
     0
 77
     2
 78
   300
147
1.0
148
0.0
149
0.0
100
AcDbLayout
  1
Layout2
 70
     1
 71
     2
 10
0.0
 20
0.0
 11
0.0
 21
0.0
 12
0.0
 22
0.0
 32
0.0
 14
0.0
 24
0.0
 34
0.0
 15
0.0
 25
0.0
 35
0.0
146
0.0
 13
0.0
 23
0.0
 33
0.0
 16
1.0
 26
0.0
 36
0.0
 17
0.0
 27
1.0
 37
0.0
 76
     0
330
23
  0
LAYOUT
  5
22
102
{ACAD_REACTORS
330
1A
102
}
330
1A
100
AcDbPlotSettings
  1

  2
none_device
  4

  6

 40
0.0
 41
0.0
 42
0.0
 43
0.0
 44
0.0
 45
0.0
 46
0.0
 47
0.0
 48
0.0
 49
0.0
140
0.0
141
0.0
142
1.0
143
1.0
 70
  1712
 72
     0
 73
     0
 74
     0
  7

 75
     0
 76
     0
 77
     2
 78
   300
147
1.0
148
0.0
149
0.0
100
AcDbLayout
  1
Model
 70
     1
 71
     0
 10
0.0
 20
0.0
 11
12.0
 21
9.0
 12
0.0
 22
0.0
 32
0.0
 14
1.000000000000000E+20
 24
1.000000000000000E+20
 34
1.000000000000000E+20
 15
-1.000000000000000E+20
 25
-1.000000000000000E+20
 35
-1.000000000000000E+20
146
0.0
 13
0.0
 23
0.0
 33
0.0
 16
1.0
 26
0.0
 36
0.0
 17
0.0
 27
1.0
 37
0.0
 76
     0
330
1F
331
29
  0
MATERIAL
  5
3D
102
{ACAD_REACTORS
330
3B
102
}
330
3B
100
AcDbMaterial
  1
ByBlock
 72
     1
 94
      127
  0
MATERIAL
  5
3C
102
{ACAD_REACTORS
330
3B
102
}
330
3B
100
AcDbMaterial
  1
ByLayer
 72
     1
 94
      127
  0
MATERIAL
  5
3E
102
{ACAD_REACTORS
330
3B
102
}
330
3B
100
AcDbMaterial
  1
Global
 72
     1
 94
      127
  0
MLINESTYLE
  5
18
102
{ACAD_REACTORS
330
17
102
}
330
17
100
AcDbMlineStyle
  2
Standard
 70
     0
  3

 62
   256
 51
90.0
 52
90.0
 71
     2
 49
0.5
 62
   256
  6
BYLAYER
 49
-0.5
 62
   256
  6
BYLAYER
  0
ACDBPLACEHOLDER
  5
F
102
{ACAD_REACTORS
330
E
102
}
330
E
  0
VISUALSTYLE
  5
2F
102
{ACAD_REACTORS
330
2A
102
}
330
2A
100
AcDbVisualStyle
  2
2dWireframe
 70
     4
177
     2
291
     0
 71
     0
176
     1
 72
     2
176
     1
 73
     0
176
     1
 90
        0
176
     1
 40
-0.6
176
     1
 41
-30.0
176
     1
 62
     5
 63
     7
421
 16777215
176
     1
 74
     1
176
     1
 91
        4
176
     1
 64
     7
176
     1
 65
   257
176
     1
 75
     1
176
     1
175
     1
176
     1
 42
1.0
176
     1
 92
        0
176
     1
 66
   257
176
     1
 43
1.0
176
     1
 76
     1
176
     1
 77
     6
176
     1
 78
     2
176
     1
 67
     7
176
     1
 79
     5
176
     1
170
     0
176
     1
171
     0
176
     1
290
     0
176
     1
 93
        1
176
     1
 44
0.0
176
     1
173
     0
176
     1
  0
VISUALSTYLE
  5
31
102
{ACAD_REACTORS
330
2A
102
}
330
2A
100
AcDbVisualStyle
  2
3D Hidden
 70
     6
177
     2
291
     0
 71
     1
176
     1
 72
     2
176
     1
 73
     2
176
     1
 90
        0
176
     1
 40
-0.6
176
     1
 41
-30.0
176
     1
 62
     5
 63
     7
421
 16777215
176
     1
 74
     2
176
     1
 91
        2
176
     1
 64
     7
176
     1
 65
   257
176
     1
 75
     2
176
     1
175
     1
176
     1
 42
40.0
176
     1
 92
        0
176
     1
 66
   257
176
     1
 43
1.0
176
     1
 76
     1
176
     1
 77
     6
176
     1
 78
     2
176
     1
 67
     7
176
     1
 79
     3
176
     1
170
     0
176
     1
171
     0
176
     1
290
     0
176
     1
 93
        1
176
     1
 44
0.0
176
     1
173
     0
176
     1
  0
VISUALSTYLE
  5
30
102
{ACAD_REACTORS
330
2A
102
}
330
2A
100
AcDbVisualStyle
  2
3dWireframe
 70
     5
177
     2
291
     0
 71
     0
176
     1
 72
     2
176
     1
 73
     0
176
     1
 90
        0
176
     1
 40
-0.6
176
     1
 41
-30.0
176
     1
 62
     5
 63
     7
421
 16777215
176
     1
 74
     1
176
     1
 91
        4
176
     1
 64
     7
176
     1
 65
   257
176
     1
 75
     1
176
     1
175
     1
176
     1
 42
1.0
176
     1
 92
        0
176
     1
 66
   257
176
     1
 43
1.0
176
     1
 76
     1
176
     1
 77
     6
176
     1
 78
     2
176
     1
 67
     7
176
     1
 79
     5
176
     1
170
     0
176
     1
171
     0
176
     1
290
     0
176
     1
 93
        1
176
     1
 44
0.0
176
     1
173
     0
176
     1
  0
VISUALSTYLE
  5
32
102
{ACAD_REACTORS
330
2A
102
}
330
2A
100
AcDbVisualStyle
  2
Basic
 70
     7
177
     2
291
     1
 71
     1
176
     1
 72
     0
176
     1
 73
     1
176
     1
 90
        0
176
     1
 40
-0.6
176
     1
 41
-30.0
176
     1
 62
     5
 63
     7
421
 16777215
176
     1
 74
     0
176
     1
 91
        4
176
     1
 64
     7
176
     1
 65
   257
176
     1
 75
     1
176
     1
175
     1
176
     1
 42
1.0
176
     1
 92
        8
176
     1
 66
     7
176
     1
 43
1.0
176
     1
 76
     1
176
     1
 77
     6
176
     1
 78
     2
176
     1
 67
     7
176
     1
 79
     5
176
     1
170
     0
176
     1
171
     0
176
     1
290
     0
176
     1
 93
        1
176
     1
 44
0.0
176
     1
173
     0
176
     1
  0
VISUALSTYLE
  5
36
102
{ACAD_REACTORS
330
2A
102
}
330
2A
100
AcDbVisualStyle
  2
Brighten
 70
    12
177
     2
291
     1
 71
     2
176
     1
 72
     2
176
     1
 73
     0
176
     1
 90
        0
176
     1
 40
-0.6
176
     1
 41
-30.0
176
     1
 62
     5
 63
     7
421
 16777215
176
     1
 74
     1
176
     1
 91
        4
176
     1
 64
     7
176
     1
 65
   257
176
     1
 75
     1
176
     1
175
     1
176
     1
 42
1.0
176
     1
 92
        8
176
     1
 66
     7
176
     1
 43
1.0
176
     1
 76
     1
176
     1
 77
     6
176
     1
 78
     2
176
     1
 67
     7
176
     1
 79
     5
176
     1
170
     0
176
     1
171
     0
176
     1
290
     0
176
     1
 93
        1
176
     1
 44
50.0
176
     1
173
     0
176
     1
  0
VISUALSTYLE
  5
3A
102
{ACAD_REACTORS
330
2A
102
}
330
2A
100
AcDbVisualStyle
  2
ColorChange
 70
    16
177
     2
291
     1
 71
     2
176
     1
 72
     2
176
     1
 73
     3
176
     1
 90
        0
176
     1
 40
-0.6
176
     1
 41
-30.0
176
     1
 62
     5
 63
     8
421
  8421504
176
     1
 74
     1
176
     1
 91
        4
176
     1
 64
     7
176
     1
 65
   257
176
     1
 75
     1
176
     1
175
     1
176
     1
 42
1.0
176
     1
 92
        8
176
     1
 66
     8
424
  8421504
176
     1
 43
1.0
176
     1
 76
     1
176
     1
 77
     6
176
     1
 78
     2
176
     1
 67
     7
176
     1
 79
     5
176
     1
170
     0
176
     1
171
     0
176
     1
290
     0
176
     1
 93
        1
176
     1
 44
0.0
176
     1
173
     0
176
     1
  0
VISUALSTYLE
  5
34
102
{ACAD_REACTORS
330
2A
102
}
330
2A
100
AcDbVisualStyle
  2
Conceptual
 70
     9
177
     2
291
     0
 71
     3
176
     1
 72
     2
176
     1
 73
     0
176
     1
 90
        0
176
     1
 40
-0.6
176
     1
 41
-30.0
176
     1
 62
     5
 63
     7
421
 16777215
176
     1
 74
     2
176
     1
 91
        2
176
     1
 64
     7
176
     1
 65
   257
176
     1
 75
     1
176
     1
175
     1
176
     1
 42
40.0
176
     1
 92
        8
176
     1
 66
     7
176
     1
 43
1.0
176
     1
 76
     1
176
     1
 77
     6
176
     1
 78
     2
176
     1
 67
     7
176
     1
 79
     3
176
     1
170
     0
176
     1
171
     0
176
     1
290
     0
176
     1
 93
        1
176
     1
 44
0.0
176
     1
173
     0
176
     1
  0
VISUALSTYLE
  5
35
102
{ACAD_REACTORS
330
2A
102
}
330
2A
100
AcDbVisualStyle
  2
Dim
 70
    11
177
     2
291
     1
 71
     2
176
     1
 72
     2
176
     1
 73
     0
176
     1
 90
        0
176
     1
 40
-0.6
176
     1
 41
-30.0
176
     1
 62
     5
 63
     7
421
 16777215
176
     1
 74
     1
176
     1
 91
        4
176
     1
 64
     7
176
     1
 65
   257
176
     1
 75
     1
176
     1
175
     1
176
     1
 42
1.0
176
     1
 92
        8
176
     1
 66
     7
176
     1
 43
1.0
176
     1
 76
     1
176
     1
 77
     6
176
     1
 78
     2
176
     1
 67
     7
176
     1
 79
     5
176
     1
170
     0
176
     1
171
     0
176
     1
290
     0
176
     1
 93
        1
176
     1
 44
-50.0
176
     1
173
     0
176
     1
  0
VISUALSTYLE
  5
39
102
{ACAD_REACTORS
330
2A
102
}
330
2A
100
AcDbVisualStyle
  2
Facepattern
 70
    15
177
     2
291
     1
 71
     2
176
     1
 72
     2
176
     1
 73
     0
176
     1
 90
        0
176
     1
 40
-0.6
176
     1
 41
-30.0
176
     1
 62
     5
 63
     7
421
 16777215
176
     1
 74
     1
176
     1
 91
        4
176
     1
 64
     7
176
     1
 65
   257
176
     1
 75
     1
176
     1
175
     1
176
     1
 42
1.0
176
     1
 92
        8
176
     1
 66
     7
176
     1
 43
1.0
176
     1
 76
     1
176
     1
 77
     6
176
     1
 78
     2
176
     1
 67
     7
176
     1
 79
     5
176
     1
170
     0
176
     1
171
     0
176
     1
290
     0
176
     1
 93
        1
176
     1
 44
0.0
176
     1
173
     0
176
     1
  0
VISUALSTYLE
  5
2B
102
{ACAD_REACTORS
330
2A
102
}
330
2A
100
AcDbVisualStyle
  2
Flat
 70
     0
177
     2
291
     1
 71
     2
176
     1
 72
     1
176
     1
 73
     1
176
     1
 90
        2
176
     1
 40
-0.6
176
     1
 41
30.0
176
     1
 62
     5
 63
     7
421
 16777215
176
     1
 74
     0
176
     1
 91
        4
176
     1
 64
     7
176
     1
 65
   257
176
     1
 75
     1
176
     1
175
     1
176
     1
 42
1.0
176
     1
 92
        8
176
     1
 66
     7
176
     1
 43
1.0
176
     1
 76
     1
176
     1
 77
     6
176
     1
 78
     2
176
     1
 67
     7
176
     1
 79
     5
176
     1
170
     0
176
     1
171
     0
176
     1
290
     0
176
     1
 93
       13
176
     1
 44
0.0
176
     1
173
     0
176
     1
  0
VISUALSTYLE
  5
2C
102
{ACAD_REACTORS
330
2A
102
}
330
2A
100
AcDbVisualStyle
  2
FlatWithEdges
 70
     1
177
     2
291
     1
 71
     2
176
     1
 72
     1
176
     1
 73
     1
176
     1
 90
        2
176
     1
 40
-0.6
176
     1
 41
30.0
176
     1
 62
     5
 63
     7
421
 16777215
176
     1
 74
     1
176
     1
 91
        4
176
     1
 64
     7
176
     1
 65
   257
176
     1
 75
     1
176
     1
175
     1
176
     1
 42
1.0
176
     1
 92
        0
176
     1
 66
   257
176
     1
 43
1.0
176
     1
 76
     1
176
     1
 77
     6
176
     1
 78
     2
176
     1
 67
     7
176
     1
 79
     5
176
     1
170
     0
176
     1
171
     0
176
     1
290
     0
176
     1
 93
       13
176
     1
 44
0.0
176
     1
173
     0
176
     1
  0
VISUALSTYLE
  5
2D
102
{ACAD_REACTORS
330
2A
102
}
330
2A
100
AcDbVisualStyle
  2
Gouraud
 70
     2
177
     2
291
     1
 71
     2
176
     1
 72
     2
176
     1
 73
     1
176
     1
 90
        2
176
     1
 40
-0.6
176
     1
 41
30.0
176
     1
 62
     5
 63
     7
421
 16777215
176
     1
 74
     0
176
     1
 91
        4
176
     1
 64
     7
176
     1
 65
   257
176
     1
 75
     1
176
     1
175
     1
176
     1
 42
1.0
176
     1
 92
        0
176
     1
 66
     7
176
     1
 43
1.0
176
     1
 76
     1
176
     1
 77
     6
176
     1
 78
     2
176
     1
 67
     7
176
     1
 79
     5
176
     1
170
     0
176
     1
171
     0
176
     1
290
     0
176
     1
 93
       13
176
     1
 44
0.0
176
     1
173
     0
176
     1
  0
VISUALSTYLE
  5
2E
102
{ACAD_REACTORS
330
2A
102
}
330
2A
100
AcDbVisualStyle
  2
GouraudWithEdges
 70
     3
177
     2
291
     1
 71
     2
176
     1
 72
     2
176
     1
 73
     1
176
     1
 90
        2
176
     1
 40
-0.6
176
     1
 41
30.0
176
     1
 62
     5
 63
     7
421
 16777215
176
     1
 74
     1
176
     1
 91
        4
176
     1
 64
     7
176
     1
 65
   257
176
     1
 75
     1
176
     1
175
     1
176
     1
 42
1.0
176
     1
 92
        0
176
     1
 66
   257
176
     1
 43
1.0
176
     1
 76
     1
176
     1
 77
     6
176
     1
 78
     2
176
     1
 67
     7
176
     1
 79
     5
176
     1
170
     0
176
     1
171
     0
176
     1
290
     0
176
     1
 93
       13
176
     1
 44
0.0
176
     1
173
     0
176
     1
  0
VISUALSTYLE
  5
38
102
{ACAD_REACTORS
330
2A
102
}
330
2A
100
AcDbVisualStyle
  2
Linepattern
 70
    14
177
     2
291
     1
 71
     2
176
     1
 72
     2
176
     1
 73
     0
176
     1
 90
        0
176
     1
 40
-0.6
176
     1
 41
-30.0
176
     1
 62
     5
 63
     7
421
 16777215
176
     1
 74
     1
176
     1
 91
        4
176
     1
 64
     7
176
     1
 65
   257
176
     1
 75
     7
176
     1
175
     7
176
     1
 42
1.0
176
     1
 92
        8
176
     1
 66
     7
176
     1
 43
1.0
176
     1
 76
     1
176
     1
 77
     6
176
     1
 78
     2
176
     1
 67
     7
176
     1
 79
     5
176
     1
170
     0
176
     1
171
     0
176
     1
290
     0
176
     1
 93
        1
176
     1
 44
0.0
176
     1
173
     0
176
     1
  0
VISUALSTYLE
  5
33
102
{ACAD_REACTORS
330
2A
102
}
330
2A
100
AcDbVisualStyle
  2
Realistic
 70
     8
177
     2
291
     0
 71
     2
176
     1
 72
     2
176
     1
 73
     0
176
     1
 90
        0
176
     1
 40
-0.6
176
     1
 41
-30.0
176
     1
 62
     5
 63
     7
421
 16777215
176
     1
 74
     1
176
     1
 91
        0
176
     1
 64
     7
176
     1
 65
   257
176
     1
 75
     1
176
     1
175
     1
176
     1
 42
1.0
176
     1
 92
        8
176
     1
 66
     8
424
  7895160
176
     1
 43
1.0
176
     1
 76
     1
176
     1
 77
     6
176
     1
 78
     2
176
     1
 67
     7
176
     1
 79
     5
176
     1
170
     0
176
     1
171
     0
176
     1
290
     0
176
     1
 93
       13
176
     1
 44
0.0
176
     1
173
     0
176
     1
  0
VISUALSTYLE
  5
37
102
{ACAD_REACTORS
330
2A
102
}
330
2A
100
AcDbVisualStyle
  2
Thicken
 70
    13
177
     2
291
     1
 71
     2
176
     1
 72
     2
176
     1
 73
     0
176
     1
 90
        0
176
     1
 40
-0.6
176
     1
 41
-30.0
176
     1
 62
     5
 63
     7
421
 16777215
176
     1
 74
     1
176
     1
 91
        4
176
     1
 64
     7
176
     1
 65
   257
176
     1
 75
     1
176
     1
175
     1
176
     1
 42
1.0
176
     1
 92
       12
176
     1
 66
     7
176
     1
 43
1.0
176
     1
 76
     1
176
     1
 77
     6
176
     1
 78
     2
176
     1
 67
     7
176
     1
 79
     5
176
     1
170
     0
176
     1
171
     0
176
     1
290
     0
176
     1
 93
        1
176
     1
 44
0.0
176
     1
173
     0
176
     1
  0
ENDSEC
  0
EOF
