  0
SECTION
  2
HEADER
  9
$ACADVER
  1
AC1006
  9
$EXTMIN
 10
-2.585000
 20
-3.976055
  9
$EXTMAX
 10
2.596000
 20
3.984248
  9
$LTSCALE
 40
0.000394
  9
$PDMODE
 70
    35
  9
$PDSIZE
 40
0.000315
  0
ENDSEC
  0
SECTION
  2
TABLES
  0
TABLE
  2
LTYPE
 70
     9
  0
LTYPE
  2
CONTINUOUS
 70
    64
  3
Solid line
 72
    65
 73
     0
 40
0.000000
  0
LTYPE
  2
DASHED
 70
    64
  3
__ __ __ __ __ __ __ __ __ __ __ __ __ __ __
 72
    65
 73
     2
 40
0.000003
 49
0.000002
 49
-0.000001
  0
LTYPE
  2
HIDDEN
 70
    64
  3
 _ _ _ _ _ _ _ _ _ _ _ _ _ _ _ _ _ _ _ _ _ _
 72
    65
 73
     2
 40
0.000001
 49
0.000001
 49
-0.000000
  0
LTYPE
  2
CENTER
 70
    64
  3
____ _ ____ _ ____ _ ____ _ ____ _ ____ _ ____
 72
    65
 73
     4
 40
0.000008
 49
0.000005
 49
-0.000001
 49
0.000001
 49
-0.000001
  0
LTYPE
  2
PHANTOM
 70
    64
  3
_____ _ _ _____ _ _ _____ _ _ _____ _ _ ____
 72
    65
 73
     6
 40
0.000010
 49
0.000005
 49
-0.000001
 49
0.000001
 49
-0.000001
 49
0.000001
 49
-0.000001
  0
LTYPE
  2
DOT
 70
    64
  3
...............................................
 72
    65
 73
     2
 40
0.000001
 49
0.000000
 49
-0.000001
  0
LTYPE
  2
DASHDOT
 70
    64
  3
__ . __ . __ . __ . __ . __ . __ . __ . __ . __
 72
    65
 73
     4
 40
0.000004
 49
0.000002
 49
-0.000001
 49
0.000000
 49
-0.000001
  0
LTYPE
  2
BORDER
 70
    64
  3
__ __ . __ __ . __ __ . __ __ . __ __ . __ __
 72
    65
 73
     6
 40
0.000007
 49
0.000002
 49
-0.000001
 49
0.000002
 49
-0.000001
 49
0.000000
 49
-0.000001
  0
LTYPE
  2
DIVIDE
 70
    64
  3
__ . . __ . . __ . . __ . . __ . . __ . . __
 72
    65
 73
     6
 40
0.000005
 49
0.000002
 49
-0.000001
 49
0.000000
 49
-0.000001
 49
0.000000
 49
-0.000001
  0
LTYPE
  2
DOTDOT
 70
    64
  3
 . .  . .  . .  . .  . .  . . 
 72
    65
 73
     5
 40
0.000002
 49
-0.000001
 49
0.000000
 49
-0.000001
 49
0.000000
 49
-0.000001
  0
ENDTAB
  0
TABLE
  2
STYLE
 70
     0
  0
ENDTAB
  0
TABLE
  2
LAYER
 70
     3
  0
LAYER
  2
FOREGROUND
 70
    64
 62
     7
  6
CONTINUOUS
  0
LAYER
  2
BACKGROUND
 70
    65
 62
    -7
  6
CONTINUOUS
  0
LAYER
  2
PLAN_1
 70
    64
 62
     7
  6
CONTINUOUS
  0
ENDTAB
  0
ENDSEC
  0
SECTION
  2
ENTITIES
  0
POLYLINE
  8
PLAN_1
  6
CONTINUOUS
 66
     1
 40
0.003000
 41
0.003000
  0
VERTEX
  8
PLAN_1
  6
CONTINUOUS
 10
0.781606
 20
-3.970583
  0
VERTEX
  8
PLAN_1
  6
CONTINUOUS
 10
0.624890
 20
-3.970583
  0
VERTEX
  8
PLAN_1
  6
CONTINUOUS
 10
0.624890
 20
-3.948193
  0
VERTEX
  8
PLAN_1
  6
CONTINUOUS
 10
0.747276
 20
-3.795461
  0
VERTEX
  8
PLAN_1
  6
CONTINUOUS
 10
0.634343
 20
-3.795461
  0
VERTEX
  8
PLAN_1
  6
CONTINUOUS
 10
0.634343
 20
-3.771579
  0
VERTEX
  8
PLAN_1
  6
CONTINUOUS
 10
0.781606
 20
-3.771579
  0
VERTEX
  8
PLAN_1
  6
CONTINUOUS
 10
0.781606
 20
-3.794961
  0
VERTEX
  8
PLAN_1
  6
CONTINUOUS
 10
0.659220
 20
-3.946701
  0
VERTEX
  8
PLAN_1
  6
CONTINUOUS
 10
0.781606
 20
-3.946701
  0
VERTEX
  8
PLAN_1
  6
CONTINUOUS
 10
0.781606
 20
-3.970583
  0
SEQEND
  8
0
  0
POLYLINE
  8
PLAN_1
  6
CONTINUOUS
 66
     1
 40
0.003000
 41
0.003000
  0
VERTEX
  8
PLAN_1
  6
CONTINUOUS
 10
0.949264
 20
-3.831280
  0
VERTEX
  8
PLAN_1
  6
CONTINUOUS
 10
0.947772
 20
-3.825311
  0
VERTEX
  8
PLAN_1
  6
CONTINUOUS
 10
0.945283
 20
-3.819839
  0
VERTEX
  8
PLAN_1
  6
CONTINUOUS
 10
0.942795
 20
-3.814862
  0
VERTEX
  8
PLAN_1
  6
CONTINUOUS
 10
0.939811
 20
-3.810386
  0
VERTEX
  8
PLAN_1
  6
CONTINUOUS
 10
0.936827
 20
-3.806406
  0
VERTEX
  8
PLAN_1
  6
CONTINUOUS
 10
0.933343
 20
-3.802921
  0
VERTEX
  8
PLAN_1
  6
CONTINUOUS
 10
0.929362
 20
-3.799937
  0
VERTEX
  8
PLAN_1
  6
CONTINUOUS
 10
0.925882
 20
-3.797449
  0
VERTEX
  8
PLAN_1
  6
CONTINUOUS
 10
0.921406
 20
-3.795461
  0
VERTEX
  8
PLAN_1
  6
CONTINUOUS
 10
0.917425
 20
-3.793969
  0
VERTEX
  8
PLAN_1
  6
CONTINUOUS
 10
0.913445
 20
-3.792476
  0
VERTEX
  8
PLAN_1
  6
CONTINUOUS
 10
0.908965
 20
-3.791480
  0
VERTEX
  8
PLAN_1
  6
CONTINUOUS
 10
0.901008
 20
-3.790484
  0
VERTEX
  8
PLAN_1
  6
CONTINUOUS
 10
0.893543
 20
-3.789988
  0
VERTEX
  8
PLAN_1
  6
CONTINUOUS
 10
0.886579
 20
-3.790484
  0
VERTEX
  8
PLAN_1
  6
CONTINUOUS
 10
0.880110
 20
-3.791480
  0
VERTEX
  8
PLAN_1
  6
CONTINUOUS
 10
0.874142
 20
-3.792972
  0
VERTEX
  8
PLAN_1
  6
CONTINUOUS
 10
0.868169
 20
-3.794961
  0
VERTEX
  8
PLAN_1
  6
CONTINUOUS
 10
0.862201
 20
-3.797949
  0
VERTEX
  8
PLAN_1
  6
CONTINUOUS
 10
0.856728
 20
-3.801429
  0
VERTEX
  8
PLAN_1
  6
CONTINUOUS
 10
0.851752
 20
-3.805409
  0
VERTEX
  8
PLAN_1
  6
CONTINUOUS
 10
0.847276
 20
-3.809886
  0
VERTEX
  8
PLAN_1
  6
CONTINUOUS
 10
0.843295
 20
-3.815358
  0
VERTEX
  8
PLAN_1
  6
CONTINUOUS
 10
0.839315
 20
-3.821331
  0
VERTEX
  8
PLAN_1
  6
CONTINUOUS
 10
0.835835
 20
-3.827799
  0
VERTEX
  8
PLAN_1
  6
CONTINUOUS
 10
0.833346
 20
-3.834764
  0
VERTEX
  8
PLAN_1
  6
CONTINUOUS
 10
0.831354
 20
-3.842224
  0
VERTEX
  8
PLAN_1
  6
CONTINUOUS
 10
0.829366
 20
-3.850681
  0
VERTEX
  8
PLAN_1
  6
CONTINUOUS
 10
0.828370
 20
-3.859638
  0
VERTEX
  8
PLAN_1
  6
CONTINUOUS
 10
0.828370
 20
-3.869091
  0
VERTEX
  8
PLAN_1
  6
CONTINUOUS
 10
0.828370
 20
-3.878047
  0
VERTEX
  8
PLAN_1
  6
CONTINUOUS
 10
0.828866
 20
-3.886004
  0
VERTEX
  8
PLAN_1
  6
CONTINUOUS
 10
0.829862
 20
-3.894465
  0
VERTEX
  8
PLAN_1
  6
CONTINUOUS
 10
0.831354
 20
-3.901925
  0
VERTEX
  8
PLAN_1
  6
CONTINUOUS
 10
0.833346
 20
-3.909390
  0
VERTEX
  8
PLAN_1
  6
CONTINUOUS
 10
0.835835
 20
-3.915854
  0
VERTEX
  8
PLAN_1
  6
CONTINUOUS
 10
0.839315
 20
-3.922323
  0
VERTEX
  8
PLAN_1
  6
CONTINUOUS
 10
0.842799
 20
-3.928295
  0
VERTEX
  8
PLAN_1
  6
CONTINUOUS
 10
0.846780
 20
-3.933768
  0
VERTEX
  8
PLAN_1
  6
CONTINUOUS
 10
0.851752
 20
-3.938244
  0
VERTEX
  8
PLAN_1
  6
CONTINUOUS
 10
0.857224
 20
-3.942224
  0
VERTEX
  8
PLAN_1
  6
CONTINUOUS
 10
0.863197
 20
-3.945705
  0
VERTEX
  8
PLAN_1
  6
CONTINUOUS
 10
0.869661
 20
-3.948693
  0
VERTEX
  8
PLAN_1
  6
CONTINUOUS
 10
0.877126
 20
-3.950681
  0
VERTEX
  8
PLAN_1
  6
CONTINUOUS
 10
0.885583
 20
-3.951677
  0
VERTEX
  8
PLAN_1
  6
CONTINUOUS
 10
0.894039
 20
-3.952173
  0
VERTEX
  8
PLAN_1
  6
CONTINUOUS
 10
0.897524
 20
-3.952173
  0
VERTEX
  8
PLAN_1
  6
CONTINUOUS
 10
0.901504
 20
-3.951677
  0
VERTEX
  8
PLAN_1
  6
CONTINUOUS
 10
0.904984
 20
-3.951177
  0
VERTEX
  8
PLAN_1
  6
CONTINUOUS
 10
0.909465
 20
-3.950185
  0
VERTEX
  8
PLAN_1
  6
CONTINUOUS
 10
0.913445
 20
-3.948693
  0
VERTEX
  8
PLAN_1
  6
CONTINUOUS
 10
0.917425
 20
-3.947197
  0
VERTEX
  8
PLAN_1
  6
CONTINUOUS
 10
0.921902
 20
-3.944713
  0
VERTEX
  8
PLAN_1
  6
CONTINUOUS
 10
0.925882
 20
-3.942224
  0
VERTEX
  8
PLAN_1
  6
CONTINUOUS
 10
0.929862
 20
-3.939240
  0
VERTEX
  8
PLAN_1
  6
CONTINUOUS
 10
0.933843
 20
-3.935260
  0
VERTEX
  8
PLAN_1
  6
CONTINUOUS
 10
0.937323
 20
-3.930780
  0
VERTEX
  8
PLAN_1
  6
CONTINUOUS
 10
0.940807
 20
-3.925807
  0
VERTEX
  8
PLAN_1
  6
CONTINUOUS
 10
0.943791
 20
-3.919835
  0
VERTEX
  8
PLAN_1
  6
CONTINUOUS
 10
0.946776
 20
-3.913370
  0
VERTEX
  8
PLAN_1
  6
CONTINUOUS
 10
0.949264
 20
-3.905906
  0
VERTEX
  8
PLAN_1
  6
CONTINUOUS
 10
0.951252
 20
-3.897449
  0
VERTEX
  8
PLAN_1
  6
CONTINUOUS
 10
0.977126
 20
-3.897449
  0
VERTEX
  8
PLAN_1
  6
CONTINUOUS
 10
0.976130
 20
-3.904413
  0
VERTEX
  8
PLAN_1
  6
CONTINUOUS
 10
0.974638
 20
-3.910882
  0
VERTEX
  8
PLAN_1
  6
CONTINUOUS
 10
0.972646
 20
-3.916850
  0
VERTEX
  8
PLAN_1
  6
CONTINUOUS
 10
0.971154
 20
-3.922323
  0
VERTEX
  8
PLAN_1
  6
CONTINUOUS
 10
0.968665
 20
-3.927795
  0
VERTEX
  8
PLAN_1
  6
CONTINUOUS
 10
0.966177
 20
-3.932772
  0
VERTEX
  8
PLAN_1
  6
CONTINUOUS
 10
0.963693
 20
-3.937248
  0
VERTEX
  8
PLAN_1
  6
CONTINUOUS
 10
0.961205
 20
-3.941724
  0
VERTEX
  8
PLAN_1
  6
CONTINUOUS
 10
0.958220
 20
-3.945209
  0
VERTEX
  8
PLAN_1
  6
CONTINUOUS
 10
0.955232
 20
-3.949189
  0
VERTEX
  8
PLAN_1
  6
CONTINUOUS
 10
0.951752
 20
-3.952173
  0
VERTEX
  8
PLAN_1
  6
CONTINUOUS
 10
0.948768
 20
-3.955657
  0
VERTEX
  8
PLAN_1
  6
CONTINUOUS
 10
0.941803
 20
-3.960630
  0
VERTEX
  8
PLAN_1
  6
CONTINUOUS
 10
0.935335
 20
-3.965110
  0
VERTEX
  8
PLAN_1
  6
CONTINUOUS
 10
0.928370
 20
-3.968591
  0
VERTEX
  8
PLAN_1
  6
CONTINUOUS
 10
0.921406
 20
-3.971079
  0
VERTEX
  8
PLAN_1
  6
CONTINUOUS
 10
0.914937
 20
-3.973067
  0
VERTEX
  8
PLAN_1
  6
CONTINUOUS
 10
0.908469
 20
-3.974563
  0
VERTEX
  8
PLAN_1
  6
CONTINUOUS
 10
0.897524
 20
-3.975555
  0
VERTEX
  8
PLAN_1
  6
CONTINUOUS
 10
0.890059
 20
-3.976055
  0
VERTEX
  8
PLAN_1
  6
CONTINUOUS
 10
0.881602
 20
-3.975555
  0
VERTEX
  8
PLAN_1
  6
CONTINUOUS
 10
0.873146
 20
-3.974563
  0
VERTEX
  8
PLAN_1
  6
CONTINUOUS
 10
0.865185
 20
-3.973067
  0
VERTEX
  8
PLAN_1
  6
CONTINUOUS
 10
0.857224
 20
-3.970083
  0
VERTEX
  8
PLAN_1
  6
CONTINUOUS
 10
0.849264
 20
-3.967098
  0
VERTEX
  8
PLAN_1
  6
CONTINUOUS
 10
0.841803
 20
-3.962622
  0
VERTEX
  8
PLAN_1
  6
CONTINUOUS
 10
0.834839
 20
-3.957646
  0
VERTEX
  8
PLAN_1
  6
CONTINUOUS
 10
0.828370
 20
-3.951677
  0
VERTEX
  8
PLAN_1
  6
CONTINUOUS
 10
0.825386
 20
-3.948693
  0
VERTEX
  8
PLAN_1
  6
CONTINUOUS
 10
0.822402
 20
-3.945209
  0
VERTEX
  8
PLAN_1
  6
CONTINUOUS
 10
0.819417
 20
-3.941228
  0
VERTEX
  8
PLAN_1
  6
CONTINUOUS
 10
0.816929
 20
-3.937248
  0
VERTEX
  8
PLAN_1
  6
CONTINUOUS
 10
0.814441
 20
-3.933268
  0
VERTEX
  8
PLAN_1
  6
CONTINUOUS
 10
0.811953
 20
-3.928791
  0
VERTEX
  8
PLAN_1
  6
CONTINUOUS
 10
0.809965
 20
-3.923815
  0
VERTEX
  8
PLAN_1
  6
CONTINUOUS
 10
0.807972
 20
-3.918843
  0
VERTEX
  8
PLAN_1
  6
CONTINUOUS
 10
0.806480
 20
-3.913866
  0
VERTEX
  8
PLAN_1
  6
CONTINUOUS
 10
0.804988
 20
-3.908394
  0
VERTEX
  8
PLAN_1
  6
CONTINUOUS
 10
0.803496
 20
-3.902425
  0
VERTEX
  8
PLAN_1
  6
CONTINUOUS
 10
0.802500
 20
-3.896453
  0
VERTEX
  8
PLAN_1
  6
CONTINUOUS
 10
0.801504
 20
-3.890484
  0
VERTEX
  8
PLAN_1
  6
CONTINUOUS
 10
0.801008
 20
-3.884016
  0
VERTEX
  8
PLAN_1
  6
CONTINUOUS
 10
0.800512
 20
-3.877051
  0
VERTEX
  8
PLAN_1
  6
CONTINUOUS
 10
0.800512
 20
-3.870087
  0
VERTEX
  8
PLAN_1
  6
CONTINUOUS
 10
0.801008
 20
-3.858642
  0
VERTEX
  8
PLAN_1
  6
CONTINUOUS
 10
0.802004
 20
-3.848197
  0
VERTEX
  8
PLAN_1
  6
CONTINUOUS
 10
0.803992
 20
-3.837748
  0
VERTEX
  8
PLAN_1
  6
CONTINUOUS
 10
0.806976
 20
-3.827799
  0
VERTEX
  8
PLAN_1
  6
CONTINUOUS
 10
0.810461
 20
-3.818843
  0
VERTEX
  8
PLAN_1
  6
CONTINUOUS
 10
0.814441
 20
-3.810386
  0
VERTEX
  8
PLAN_1
  6
CONTINUOUS
 10
0.819417
 20
-3.802425
  0
VERTEX
  8
PLAN_1
  6
CONTINUOUS
 10
0.825386
 20
-3.794961
  0
VERTEX
  8
PLAN_1
  6
CONTINUOUS
 10
0.828370
 20
-3.791976
  0
VERTEX
  8
PLAN_1
  6
CONTINUOUS
 10
0.831354
 20
-3.788496
  0
VERTEX
  8
PLAN_1
  6
CONTINUOUS
 10
0.834839
 20
-3.785512
  0
VERTEX
  8
PLAN_1
  6
CONTINUOUS
 10
0.838319
 20
-3.783024
  0
VERTEX
  8
PLAN_1
  6
CONTINUOUS
 10
0.842299
 20
-3.780535
  0
VERTEX
  8
PLAN_1
  6
CONTINUOUS
 10
0.846280
 20
-3.778047
  0
VERTEX
  8
PLAN_1
  6
CONTINUOUS
 10
0.850260
 20
-3.775559
  0
VERTEX
  8
PLAN_1
  6
CONTINUOUS
 10
0.854240
 20
-3.774067
  0
VERTEX
  8
PLAN_1
  6
CONTINUOUS
 10
0.858717
 20
-3.772079
  0
VERTEX
  8
PLAN_1
  6
CONTINUOUS
 10
0.863197
 20
-3.770587
  0
VERTEX
  8
PLAN_1
  6
CONTINUOUS
 10
0.868169
 20
-3.769091
  0
VERTEX
  8
PLAN_1
  6
CONTINUOUS
 10
0.872650
 20
-3.768098
  0
VERTEX
  8
PLAN_1
  6
CONTINUOUS
 10
0.877622
 20
-3.767102
  0
VERTEX
  8
PLAN_1
  6
CONTINUOUS
 10
0.882598
 20
-3.766606
  0
VERTEX
  8
PLAN_1
  6
CONTINUOUS
 10
0.888071
 20
-3.766106
  0
VERTEX
  8
PLAN_1
  6
CONTINUOUS
 10
0.893543
 20
-3.766106
  0
VERTEX
  8
PLAN_1
  6
CONTINUOUS
 10
0.902996
 20
-3.766606
  0
VERTEX
  8
PLAN_1
  6
CONTINUOUS
 10
0.911453
 20
-3.767598
  0
VERTEX
  8
PLAN_1
  6
CONTINUOUS
 10
0.919909
 20
-3.769591
  0
VERTEX
  8
PLAN_1
  6
CONTINUOUS
 10
0.927374
 20
-3.771579
  0
VERTEX
  8
PLAN_1
  6
CONTINUOUS
 10
0.934339
 20
-3.774563
  0
VERTEX
  8
PLAN_1
  6
CONTINUOUS
 10
0.940807
 20
-3.778047
  0
VERTEX
  8
PLAN_1
  6
CONTINUOUS
 10
0.946776
 20
-3.782028
  0
VERTEX
  8
PLAN_1
  6
CONTINUOUS
 10
0.952248
 20
-3.786504
  0
VERTEX
  8
PLAN_1
  6
CONTINUOUS
 10
0.956728
 20
-3.790984
  0
VERTEX
  8
PLAN_1
  6
CONTINUOUS
 10
0.961205
 20
-3.795957
  0
VERTEX
  8
PLAN_1
  6
CONTINUOUS
 10
0.964685
 20
-3.801429
  0
VERTEX
  8
PLAN_1
  6
CONTINUOUS
 10
0.968169
 20
-3.807402
  0
VERTEX
  8
PLAN_1
  6
CONTINUOUS
 10
0.970657
 20
-3.812874
  0
VERTEX
  8
PLAN_1
  6
CONTINUOUS
 10
0.972646
 20
-3.818843
  0
VERTEX
  8
PLAN_1
  6
CONTINUOUS
 10
0.974138
 20
-3.825311
  0
VERTEX
  8
PLAN_1
  6
CONTINUOUS
 10
0.975134
 20
-3.831280
  0
VERTEX
  8
PLAN_1
  6
CONTINUOUS
 10
0.949264
 20
-3.831280
  0
SEQEND
  8
0
  0
POLYLINE
  8
PLAN_1
  6
CONTINUOUS
 66
     1
 40
0.003000
 41
0.003000
  0
VERTEX
  8
PLAN_1
  6
CONTINUOUS
 10
1.036823
 20
-3.970583
  0
VERTEX
  8
PLAN_1
  6
CONTINUOUS
 10
1.009961
 20
-3.970583
  0
VERTEX
  8
PLAN_1
  6
CONTINUOUS
 10
1.009961
 20
-3.771579
  0
VERTEX
  8
PLAN_1
  6
CONTINUOUS
 10
1.036823
 20
-3.771579
  0
VERTEX
  8
PLAN_1
  6
CONTINUOUS
 10
1.036823
 20
-3.868094
  0
VERTEX
  8
PLAN_1
  6
CONTINUOUS
 10
1.133339
 20
-3.771579
  0
VERTEX
  8
PLAN_1
  6
CONTINUOUS
 10
1.170654
 20
-3.771579
  0
VERTEX
  8
PLAN_1
  6
CONTINUOUS
 10
1.087571
 20
-3.852177
  0
VERTEX
  8
PLAN_1
  6
CONTINUOUS
 10
1.172642
 20
-3.970583
  0
VERTEX
  8
PLAN_1
  6
CONTINUOUS
 10
1.137819
 20
-3.970583
  0
VERTEX
  8
PLAN_1
  6
CONTINUOUS
 10
1.068165
 20
-3.871079
  0
VERTEX
  8
PLAN_1
  6
CONTINUOUS
 10
1.036823
 20
-3.900929
  0
VERTEX
  8
PLAN_1
  6
CONTINUOUS
 10
1.036823
 20
-3.970583
  0
SEQEND
  8
0
  0
POLYLINE
  8
PLAN_1
  6
CONTINUOUS
 66
     1
 40
0.003000
 41
0.003000
  0
VERTEX
  8
PLAN_1
  6
CONTINUOUS
 10
1.203984
 20
-3.906902
  0
VERTEX
  8
PLAN_1
  6
CONTINUOUS
 10
1.203984
 20
-3.920335
  0
VERTEX
  8
PLAN_1
  6
CONTINUOUS
 10
1.203984
 20
-3.924811
  0
VERTEX
  8
PLAN_1
  6
CONTINUOUS
 10
1.204484
 20
-3.928791
  0
VERTEX
  8
PLAN_1
  6
CONTINUOUS
 10
1.204980
 20
-3.932272
  0
VERTEX
  8
PLAN_1
  6
CONTINUOUS
 10
1.205976
 20
-3.935756
  0
VERTEX
  8
PLAN_1
  6
CONTINUOUS
 10
1.206972
 20
-3.938740
  0
VERTEX
  8
PLAN_1
  6
CONTINUOUS
 10
1.208465
 20
-3.941228
  0
VERTEX
  8
PLAN_1
  6
CONTINUOUS
 10
1.209957
 20
-3.943717
  0
VERTEX
  8
PLAN_1
  6
CONTINUOUS
 10
1.211945
 20
-3.945705
  0
VERTEX
  8
PLAN_1
  6
CONTINUOUS
 10
1.213937
 20
-3.947697
  0
VERTEX
  8
PLAN_1
  6
CONTINUOUS
 10
1.216421
 20
-3.949189
  0
VERTEX
  8
PLAN_1
  6
CONTINUOUS
 10
1.218909
 20
-3.950185
  0
VERTEX
  8
PLAN_1
  6
CONTINUOUS
 10
1.221398
 20
-3.951177
  0
VERTEX
  8
PLAN_1
  6
CONTINUOUS
 10
1.227370
 20
-3.952669
  0
VERTEX
  8
PLAN_1
  6
CONTINUOUS
 10
1.233835
 20
-3.953169
  0
VERTEX
  8
PLAN_1
  6
CONTINUOUS
 10
1.238315
 20
-3.952669
  0
VERTEX
  8
PLAN_1
  6
CONTINUOUS
 10
1.242295
 20
-3.952173
  0
VERTEX
  8
PLAN_1
  6
CONTINUOUS
 10
1.246272
 20
-3.951677
  0
VERTEX
  8
PLAN_1
  6
CONTINUOUS
 10
1.249260
 20
-3.950185
  0
VERTEX
  8
PLAN_1
  6
CONTINUOUS
 10
1.252244
 20
-3.949189
  0
VERTEX
  8
PLAN_1
  6
CONTINUOUS
 10
1.254732
 20
-3.947197
  0
VERTEX
  8
PLAN_1
  6
CONTINUOUS
 10
1.257217
 20
-3.945209
  0
VERTEX
  8
PLAN_1
  6
CONTINUOUS
 10
1.259209
 20
-3.943220
  0
VERTEX
  8
PLAN_1
  6
CONTINUOUS
 10
1.260701
 20
-3.940732
  0
VERTEX
  8
PLAN_1
  6
CONTINUOUS
 10
1.262193
 20
-3.938244
  0
VERTEX
  8
PLAN_1
  6
CONTINUOUS
 10
1.263189
 20
-3.935260
  0
VERTEX
  8
PLAN_1
  6
CONTINUOUS
 10
1.264185
 20
-3.932272
  0
VERTEX
  8
PLAN_1
  6
CONTINUOUS
 10
1.265677
 20
-3.925807
  0
VERTEX
  8
PLAN_1
  6
CONTINUOUS
 10
1.265677
 20
-3.918843
  0
VERTEX
  8
PLAN_1
  6
CONTINUOUS
 10
1.265677
 20
-3.771579
  0
VERTEX
  8
PLAN_1
  6
CONTINUOUS
 10
1.292539
 20
-3.771579
  0
VERTEX
  8
PLAN_1
  6
CONTINUOUS
 10
1.292539
 20
-3.916850
  0
VERTEX
  8
PLAN_1
  6
CONTINUOUS
 10
1.292539
 20
-3.925307
  0
VERTEX
  8
PLAN_1
  6
CONTINUOUS
 10
1.291547
 20
-3.932772
  0
VERTEX
  8
PLAN_1
  6
CONTINUOUS
 10
1.289555
 20
-3.939736
  0
VERTEX
  8
PLAN_1
  6
CONTINUOUS
 10
1.287567
 20
-3.945705
  0
VERTEX
  8
PLAN_1
  6
CONTINUOUS
 10
1.284583
 20
-3.951177
  0
VERTEX
  8
PLAN_1
  6
CONTINUOUS
 10
1.281594
 20
-3.956154
  0
VERTEX
  8
PLAN_1
  6
CONTINUOUS
 10
1.278114
 20
-3.960134
  0
VERTEX
  8
PLAN_1
  6
CONTINUOUS
 10
1.274134
 20
-3.964114
  0
VERTEX
  8
PLAN_1
  6
CONTINUOUS
 10
1.269657
 20
-3.967098
  0
VERTEX
  8
PLAN_1
  6
CONTINUOUS
 10
1.265177
 20
-3.969587
  0
VERTEX
  8
PLAN_1
  6
CONTINUOUS
 10
1.260701
 20
-3.971575
  0
VERTEX
  8
PLAN_1
  6
CONTINUOUS
 10
1.255724
 20
-3.973567
  0
VERTEX
  8
PLAN_1
  6
CONTINUOUS
 10
1.250752
 20
-3.974563
  0
VERTEX
  8
PLAN_1
  6
CONTINUOUS
 10
1.245280
 20
-3.975555
  0
VERTEX
  8
PLAN_1
  6
CONTINUOUS
 10
1.240303
 20
-3.976055
  0
VERTEX
  8
PLAN_1
  6
CONTINUOUS
 10
1.235327
 20
-3.976055
  0
VERTEX
  8
PLAN_1
  6
CONTINUOUS
 10
1.226870
 20
-3.975555
  0
VERTEX
  8
PLAN_1
  6
CONTINUOUS
 10
1.219409
 20
-3.974563
  0
VERTEX
  8
PLAN_1
  6
CONTINUOUS
 10
1.212941
 20
-3.973067
  0
VERTEX
  8
PLAN_1
  6
CONTINUOUS
 10
1.206972
 20
-3.971079
  0
VERTEX
  8
PLAN_1
  6
CONTINUOUS
 10
1.201500
 20
-3.968094
  0
VERTEX
  8
PLAN_1
  6
CONTINUOUS
 10
1.197020
 20
-3.965110
  0
VERTEX
  8
PLAN_1
  6
CONTINUOUS
 10
1.193039
 20
-3.961626
  0
VERTEX
  8
PLAN_1
  6
CONTINUOUS
 10
1.189559
 20
-3.958142
  0
VERTEX
  8
PLAN_1
  6
CONTINUOUS
 10
1.186575
 20
-3.954165
  0
VERTEX
  8
PLAN_1
  6
CONTINUOUS
 10
1.184087
 20
-3.950185
  0
VERTEX
  8
PLAN_1
  6
CONTINUOUS
 10
1.182594
 20
-3.946205
  0
VERTEX
  8
PLAN_1
  6
CONTINUOUS
 10
1.181102
 20
-3.942224
  0
VERTEX
  8
PLAN_1
  6
CONTINUOUS
 10
1.180106
 20
-3.937744
  0
VERTEX
  8
PLAN_1
  6
CONTINUOUS
 10
1.179110
 20
-3.933768
  0
VERTEX
  8
PLAN_1
  6
CONTINUOUS
 10
1.178614
 20
-3.929787
  0
VERTEX
  8
PLAN_1
  6
CONTINUOUS
 10
1.178614
 20
-3.926303
  0
VERTEX
  8
PLAN_1
  6
CONTINUOUS
 10
1.178614
 20
-3.906902
  0
VERTEX
  8
PLAN_1
  6
CONTINUOUS
 10
1.203984
 20
-3.906902
  0
SEQEND
  8
0
  0
POLYLINE
  8
PLAN_1
  6
CONTINUOUS
 66
     1
 40
0.003000
 41
0.003000
  0
VERTEX
  8
PLAN_1
  6
CONTINUOUS
 10
1.429354
 20
-3.923319
  0
VERTEX
  8
PLAN_1
  6
CONTINUOUS
 10
1.429354
 20
-3.970583
  0
VERTEX
  8
PLAN_1
  6
CONTINUOUS
 10
1.404976
 20
-3.970583
  0
VERTEX
  8
PLAN_1
  6
CONTINUOUS
 10
1.404976
 20
-3.923319
  0
VERTEX
  8
PLAN_1
  6
CONTINUOUS
 10
1.319906
 20
-3.923319
  0
VERTEX
  8
PLAN_1
  6
CONTINUOUS
 10
1.319906
 20
-3.899437
  0
VERTEX
  8
PLAN_1
  6
CONTINUOUS
 10
1.408957
 20
-3.775559
  0
VERTEX
  8
PLAN_1
  6
CONTINUOUS
 10
1.429354
 20
-3.775559
  0
VERTEX
  8
PLAN_1
  6
CONTINUOUS
 10
1.429354
 20
-3.902425
  0
VERTEX
  8
PLAN_1
  6
CONTINUOUS
 10
1.457713
 20
-3.902425
  0
VERTEX
  8
PLAN_1
  6
CONTINUOUS
 10
1.457713
 20
-3.923319
  0
VERTEX
  8
PLAN_1
  6
CONTINUOUS
 10
1.429354
 20
-3.923319
  0
SEQEND
  8
0
  0
SOLID
  8
PLAN_1
 10
1.342291
 20
-3.902425
 11
1.404976
 21
-3.902425
 12
1.404480
 22
-3.813866
 13
1.404976
 23
-3.813866
  0
POLYLINE
  8
PLAN_1
  6
CONTINUOUS
 66
     1
 40
0.003000
 41
0.003000
  0
VERTEX
  8
PLAN_1
  6
CONTINUOUS
 10
1.342291
 20
-3.902425
  0
VERTEX
  8
PLAN_1
  6
CONTINUOUS
 10
1.404976
 20
-3.902425
  0
VERTEX
  8
PLAN_1
  6
CONTINUOUS
 10
1.404976
 20
-3.813866
  0
VERTEX
  8
PLAN_1
  6
CONTINUOUS
 10
1.404480
 20
-3.813866
  0
VERTEX
  8
PLAN_1
  6
CONTINUOUS
 10
1.342291
 20
-3.902425
  0
SEQEND
  8
0
  0
POLYLINE
  8
PLAN_1
  6
CONTINUOUS
 66
     1
 40
0.003000
 41
0.003000
  0
VERTEX
  8
PLAN_1
  6
CONTINUOUS
 10
1.544280
 20
-3.976055
  0
VERTEX
  8
PLAN_1
  6
CONTINUOUS
 10
1.539303
 20
-3.976055
  0
VERTEX
  8
PLAN_1
  6
CONTINUOUS
 10
1.534327
 20
-3.975555
  0
VERTEX
  8
PLAN_1
  6
CONTINUOUS
 10
1.529850
 20
-3.974563
  0
VERTEX
  8
PLAN_1
  6
CONTINUOUS
 10
1.525374
 20
-3.973567
  0
VERTEX
  8
PLAN_1
  6
CONTINUOUS
 10
1.521394
 20
-3.972075
  0
VERTEX
  8
PLAN_1
  6
CONTINUOUS
 10
1.517413
 20
-3.970083
  0
VERTEX
  8
PLAN_1
  6
CONTINUOUS
 10
1.513433
 20
-3.968094
  0
VERTEX
  8
PLAN_1
  6
CONTINUOUS
 10
1.509949
 20
-3.966102
  0
VERTEX
  8
PLAN_1
  6
CONTINUOUS
 10
1.506965
 20
-3.963618
  0
VERTEX
  8
PLAN_1
  6
CONTINUOUS
 10
1.503980
 20
-3.961130
  0
VERTEX
  8
PLAN_1
  6
CONTINUOUS
 10
1.500996
 20
-3.958142
  0
VERTEX
  8
PLAN_1
  6
CONTINUOUS
 10
1.498508
 20
-3.955157
  0
VERTEX
  8
PLAN_1
  6
CONTINUOUS
 10
1.494031
 20
-3.948193
  0
VERTEX
  8
PLAN_1
  6
CONTINUOUS
 10
1.490051
 20
-3.941228
  0
VERTEX
  8
PLAN_1
  6
CONTINUOUS
 10
1.486567
 20
-3.933268
  0
VERTEX
  8
PLAN_1
  6
CONTINUOUS
 10
1.483583
 20
-3.925307
  0
VERTEX
  8
PLAN_1
  6
CONTINUOUS
 10
1.481591
 20
-3.916850
  0
VERTEX
  8
PLAN_1
  6
CONTINUOUS
 10
1.480098
 20
-3.908394
  0
VERTEX
  8
PLAN_1
  6
CONTINUOUS
 10
1.478606
 20
-3.899937
  0
VERTEX
  8
PLAN_1
  6
CONTINUOUS
 10
1.478110
 20
-3.891976
  0
VERTEX
  8
PLAN_1
  6
CONTINUOUS
 10
1.477614
 20
-3.883520
  0
VERTEX
  8
PLAN_1
  6
CONTINUOUS
 10
1.477614
 20
-3.876055
  0
VERTEX
  8
PLAN_1
  6
CONTINUOUS
 10
1.477614
 20
-3.868094
  0
VERTEX
  8
PLAN_1
  6
CONTINUOUS
 10
1.478110
 20
-3.860134
  0
VERTEX
  8
PLAN_1
  6
CONTINUOUS
 10
1.478606
 20
-3.851677
  0
VERTEX
  8
PLAN_1
  6
CONTINUOUS
 10
1.480098
 20
-3.843220
  0
VERTEX
  8
PLAN_1
  6
CONTINUOUS
 10
1.481591
 20
-3.834764
  0
VERTEX
  8
PLAN_1
  6
CONTINUOUS
 10
1.483583
 20
-3.826307
  0
VERTEX
  8
PLAN_1
  6
CONTINUOUS
 10
1.486567
 20
-3.818346
  0
VERTEX
  8
PLAN_1
  6
CONTINUOUS
 10
1.490051
 20
-3.810386
  0
VERTEX
  8
PLAN_1
  6
CONTINUOUS
 10
1.494031
 20
-3.803421
  0
VERTEX
  8
PLAN_1
  6
CONTINUOUS
 10
1.498508
 20
-3.796457
  0
VERTEX
  8
PLAN_1
  6
CONTINUOUS
 10
1.500996
 20
-3.793469
  0
VERTEX
  8
PLAN_1
  6
CONTINUOUS
 10
1.503980
 20
-3.790984
  0
VERTEX
  8
PLAN_1
  6
CONTINUOUS
 10
1.506965
 20
-3.787996
  0
VERTEX
  8
PLAN_1
  6
CONTINUOUS
 10
1.509949
 20
-3.785512
  0
VERTEX
  8
PLAN_1
  6
CONTINUOUS
 10
1.513433
 20
-3.783520
  0
VERTEX
  8
PLAN_1
  6
CONTINUOUS
 10
1.517413
 20
-3.781531
  0
VERTEX
  8
PLAN_1
  6
CONTINUOUS
 10
1.521394
 20
-3.779539
  0
VERTEX
  8
PLAN_1
  6
CONTINUOUS
 10
1.525374
 20
-3.778543
  0
VERTEX
  8
PLAN_1
  6
CONTINUOUS
 10
1.529850
 20
-3.777051
  0
VERTEX
  8
PLAN_1
  6
CONTINUOUS
 10
1.534327
 20
-3.776555
  0
VERTEX
  8
PLAN_1
  6
CONTINUOUS
 10
1.539303
 20
-3.776059
  0
VERTEX
  8
PLAN_1
  6
CONTINUOUS
 10
1.544280
 20
-3.775559
  0
VERTEX
  8
PLAN_1
  6
CONTINUOUS
 10
1.549252
 20
-3.776059
  0
VERTEX
  8
PLAN_1
  6
CONTINUOUS
 10
1.554228
 20
-3.776555
  0
VERTEX
  8
PLAN_1
  6
CONTINUOUS
 10
1.558705
 20
-3.777051
  0
VERTEX
  8
PLAN_1
  6
CONTINUOUS
 10
1.563181
 20
-3.778543
  0
VERTEX
  8
PLAN_1
  6
CONTINUOUS
 10
1.567161
 20
-3.779539
  0
VERTEX
  8
PLAN_1
  6
CONTINUOUS
 10
1.571142
 20
-3.781531
  0
VERTEX
  8
PLAN_1
  6
CONTINUOUS
 10
1.575122
 20
-3.783520
  0
VERTEX
  8
PLAN_1
  6
CONTINUOUS
 10
1.578606
 20
-3.785512
  0
VERTEX
  8
PLAN_1
  6
CONTINUOUS
 10
1.581591
 20
-3.787996
  0
VERTEX
  8
PLAN_1
  6
CONTINUOUS
 10
1.584575
 20
-3.790984
  0
VERTEX
  8
PLAN_1
  6
CONTINUOUS
 10
1.587559
 20
-3.793469
  0
VERTEX
  8
PLAN_1
  6
CONTINUOUS
 10
1.590047
 20
-3.796457
  0
VERTEX
  8
PLAN_1
  6
CONTINUOUS
 10
1.594528
 20
-3.803421
  0
VERTEX
  8
PLAN_1
  6
CONTINUOUS
 10
1.599004
 20
-3.810386
  0
VERTEX
  8
PLAN_1
  6
CONTINUOUS
 10
1.601988
 20
-3.818346
  0
VERTEX
  8
PLAN_1
  6
CONTINUOUS
 10
1.604972
 20
-3.826307
  0
VERTEX
  8
PLAN_1
  6
CONTINUOUS
 10
1.606965
 20
-3.834764
  0
VERTEX
  8
PLAN_1
  6
CONTINUOUS
 10
1.608457
 20
-3.843220
  0
VERTEX
  8
PLAN_1
  6
CONTINUOUS
 10
1.609949
 20
-3.851677
  0
VERTEX
  8
PLAN_1
  6
CONTINUOUS
 10
1.610445
 20
-3.860134
  0
VERTEX
  8
PLAN_1
  6
CONTINUOUS
 10
1.610945
 20
-3.868094
  0
VERTEX
  8
PLAN_1
  6
CONTINUOUS
 10
1.610945
 20
-3.876055
  0
VERTEX
  8
PLAN_1
  6
CONTINUOUS
 10
1.610945
 20
-3.883520
  0
VERTEX
  8
PLAN_1
  6
CONTINUOUS
 10
1.610445
 20
-3.891976
  0
VERTEX
  8
PLAN_1
  6
CONTINUOUS
 10
1.609949
 20
-3.899937
  0
VERTEX
  8
PLAN_1
  6
CONTINUOUS
 10
1.608457
 20
-3.908394
  0
VERTEX
  8
PLAN_1
  6
CONTINUOUS
 10
1.606965
 20
-3.916850
  0
VERTEX
  8
PLAN_1
  6
CONTINUOUS
 10
1.604972
 20
-3.925307
  0
VERTEX
  8
PLAN_1
  6
CONTINUOUS
 10
1.601988
 20
-3.933268
  0
VERTEX
  8
PLAN_1
  6
CONTINUOUS
 10
1.599004
 20
-3.941228
  0
VERTEX
  8
PLAN_1
  6
CONTINUOUS
 10
1.594528
 20
-3.948193
  0
VERTEX
  8
PLAN_1
  6
CONTINUOUS
 10
1.590047
 20
-3.955157
  0
VERTEX
  8
PLAN_1
  6
CONTINUOUS
 10
1.587559
 20
-3.958142
  0
VERTEX
  8
PLAN_1
  6
CONTINUOUS
 10
1.584575
 20
-3.961130
  0
VERTEX
  8
PLAN_1
  6
CONTINUOUS
 10
1.581591
 20
-3.963618
  0
VERTEX
  8
PLAN_1
  6
CONTINUOUS
 10
1.578606
 20
-3.966102
  0
VERTEX
  8
PLAN_1
  6
CONTINUOUS
 10
1.575122
 20
-3.968094
  0
VERTEX
  8
PLAN_1
  6
CONTINUOUS
 10
1.571142
 20
-3.970083
  0
VERTEX
  8
PLAN_1
  6
CONTINUOUS
 10
1.567161
 20
-3.972075
  0
VERTEX
  8
PLAN_1
  6
CONTINUOUS
 10
1.563181
 20
-3.973567
  0
VERTEX
  8
PLAN_1
  6
CONTINUOUS
 10
1.558705
 20
-3.974563
  0
VERTEX
  8
PLAN_1
  6
CONTINUOUS
 10
1.554228
 20
-3.975555
  0
VERTEX
  8
PLAN_1
  6
CONTINUOUS
 10
1.549252
 20
-3.976055
  0
VERTEX
  8
PLAN_1
  6
CONTINUOUS
 10
1.544280
 20
-3.976055
  0
SEQEND
  8
0
  0
POLYLINE
  8
PLAN_1
  6
CONTINUOUS
 66
     1
 40
0.003000
 41
0.003000
  0
VERTEX
  8
PLAN_1
  6
CONTINUOUS
 10
1.544280
 20
-3.797449
  0
VERTEX
  8
PLAN_1
  6
CONTINUOUS
 10
1.539303
 20
-3.797949
  0
VERTEX
  8
PLAN_1
  6
CONTINUOUS
 10
1.534327
 20
-3.798941
  0
VERTEX
  8
PLAN_1
  6
CONTINUOUS
 10
1.530346
 20
-3.800437
  0
VERTEX
  8
PLAN_1
  6
CONTINUOUS
 10
1.525870
 20
-3.802921
  0
VERTEX
  8
PLAN_1
  6
CONTINUOUS
 10
1.522386
 20
-3.805909
  0
VERTEX
  8
PLAN_1
  6
CONTINUOUS
 10
1.518906
 20
-3.809390
  0
VERTEX
  8
PLAN_1
  6
CONTINUOUS
 10
1.515921
 20
-3.813866
  0
VERTEX
  8
PLAN_1
  6
CONTINUOUS
 10
1.513433
 20
-3.818346
  0
VERTEX
  8
PLAN_1
  6
CONTINUOUS
 10
1.510945
 20
-3.823819
  0
VERTEX
  8
PLAN_1
  6
CONTINUOUS
 10
1.508957
 20
-3.829787
  0
VERTEX
  8
PLAN_1
  6
CONTINUOUS
 10
1.507465
 20
-3.836256
  0
VERTEX
  8
PLAN_1
  6
CONTINUOUS
 10
1.505969
 20
-3.843220
  0
VERTEX
  8
PLAN_1
  6
CONTINUOUS
 10
1.504976
 20
-3.850681
  0
VERTEX
  8
PLAN_1
  6
CONTINUOUS
 10
1.503980
 20
-3.858642
  0
VERTEX
  8
PLAN_1
  6
CONTINUOUS
 10
1.503484
 20
-3.867102
  0
VERTEX
  8
PLAN_1
  6
CONTINUOUS
 10
1.503484
 20
-3.876055
  0
VERTEX
  8
PLAN_1
  6
CONTINUOUS
 10
1.503484
 20
-3.885012
  0
VERTEX
  8
PLAN_1
  6
CONTINUOUS
 10
1.503980
 20
-3.893469
  0
VERTEX
  8
PLAN_1
  6
CONTINUOUS
 10
1.504976
 20
-3.901429
  0
VERTEX
  8
PLAN_1
  6
CONTINUOUS
 10
1.505969
 20
-3.908890
  0
VERTEX
  8
PLAN_1
  6
CONTINUOUS
 10
1.507465
 20
-3.915854
  0
VERTEX
  8
PLAN_1
  6
CONTINUOUS
 10
1.508957
 20
-3.922323
  0
VERTEX
  8
PLAN_1
  6
CONTINUOUS
 10
1.510945
 20
-3.927795
  0
VERTEX
  8
PLAN_1
  6
CONTINUOUS
 10
1.513433
 20
-3.933268
  0
VERTEX
  8
PLAN_1
  6
CONTINUOUS
 10
1.515921
 20
-3.938244
  0
VERTEX
  8
PLAN_1
  6
CONTINUOUS
 10
1.518906
 20
-3.942224
  0
VERTEX
  8
PLAN_1
  6
CONTINUOUS
 10
1.522386
 20
-3.945705
  0
VERTEX
  8
PLAN_1
  6
CONTINUOUS
 10
1.525870
 20
-3.948693
  0
VERTEX
  8
PLAN_1
  6
CONTINUOUS
 10
1.530346
 20
-3.951177
  0
VERTEX
  8
PLAN_1
  6
CONTINUOUS
 10
1.534327
 20
-3.952669
  0
VERTEX
  8
PLAN_1
  6
CONTINUOUS
 10
1.539303
 20
-3.953665
  0
VERTEX
  8
PLAN_1
  6
CONTINUOUS
 10
1.544280
 20
-3.954165
  0
VERTEX
  8
PLAN_1
  6
CONTINUOUS
 10
1.549252
 20
-3.953665
  0
VERTEX
  8
PLAN_1
  6
CONTINUOUS
 10
1.554228
 20
-3.952669
  0
VERTEX
  8
PLAN_1
  6
CONTINUOUS
 10
1.558705
 20
-3.951177
  0
VERTEX
  8
PLAN_1
  6
CONTINUOUS
 10
1.562685
 20
-3.948693
  0
VERTEX
  8
PLAN_1
  6
CONTINUOUS
 10
1.566169
 20
-3.945705
  0
VERTEX
  8
PLAN_1
  6
CONTINUOUS
 10
1.569650
 20
-3.942224
  0
VERTEX
  8
PLAN_1
  6
CONTINUOUS
 10
1.572634
 20
-3.938244
  0
VERTEX
  8
PLAN_1
  6
CONTINUOUS
 10
1.575122
 20
-3.933268
  0
VERTEX
  8
PLAN_1
  6
CONTINUOUS
 10
1.577610
 20
-3.927795
  0
VERTEX
  8
PLAN_1
  6
CONTINUOUS
 10
1.579602
 20
-3.922323
  0
VERTEX
  8
PLAN_1
  6
CONTINUOUS
 10
1.581094
 20
-3.915854
  0
VERTEX
  8
PLAN_1
  6
CONTINUOUS
 10
1.582587
 20
-3.908890
  0
VERTEX
  8
PLAN_1
  6
CONTINUOUS
 10
1.583579
 20
-3.901429
  0
VERTEX
  8
PLAN_1
  6
CONTINUOUS
 10
1.584575
 20
-3.893469
  0
VERTEX
  8
PLAN_1
  6
CONTINUOUS
 10
1.585075
 20
-3.885012
  0
VERTEX
  8
PLAN_1
  6
CONTINUOUS
 10
1.585075
 20
-3.876055
  0
VERTEX
  8
PLAN_1
  6
CONTINUOUS
 10
1.585075
 20
-3.867102
  0
VERTEX
  8
PLAN_1
  6
CONTINUOUS
 10
1.584575
 20
-3.858642
  0
VERTEX
  8
PLAN_1
  6
CONTINUOUS
 10
1.583579
 20
-3.850681
  0
VERTEX
  8
PLAN_1
  6
CONTINUOUS
 10
1.582587
 20
-3.843220
  0
VERTEX
  8
PLAN_1
  6
CONTINUOUS
 10
1.581094
 20
-3.836256
  0
VERTEX
  8
PLAN_1
  6
CONTINUOUS
 10
1.579602
 20
-3.829787
  0
VERTEX
  8
PLAN_1
  6
CONTINUOUS
 10
1.577610
 20
-3.823819
  0
VERTEX
  8
PLAN_1
  6
CONTINUOUS
 10
1.575122
 20
-3.818346
  0
VERTEX
  8
PLAN_1
  6
CONTINUOUS
 10
1.572634
 20
-3.813866
  0
VERTEX
  8
PLAN_1
  6
CONTINUOUS
 10
1.569650
 20
-3.809390
  0
VERTEX
  8
PLAN_1
  6
CONTINUOUS
 10
1.566169
 20
-3.805909
  0
VERTEX
  8
PLAN_1
  6
CONTINUOUS
 10
1.562685
 20
-3.802921
  0
VERTEX
  8
PLAN_1
  6
CONTINUOUS
 10
1.558705
 20
-3.800437
  0
VERTEX
  8
PLAN_1
  6
CONTINUOUS
 10
1.554228
 20
-3.798941
  0
VERTEX
  8
PLAN_1
  6
CONTINUOUS
 10
1.549252
 20
-3.797949
  0
VERTEX
  8
PLAN_1
  6
CONTINUOUS
 10
1.544280
 20
-3.797449
  0
SEQEND
  8
0
  0
POLYLINE
  8
PLAN_1
  6
CONTINUOUS
 66
     1
 40
0.003000
 41
0.003000
  0
VERTEX
  8
PLAN_1
  6
CONTINUOUS
 10
1.738303
 20
-3.923319
  0
VERTEX
  8
PLAN_1
  6
CONTINUOUS
 10
1.738303
 20
-3.970583
  0
VERTEX
  8
PLAN_1
  6
CONTINUOUS
 10
1.713429
 20
-3.970583
  0
VERTEX
  8
PLAN_1
  6
CONTINUOUS
 10
1.713429
 20
-3.923319
  0
VERTEX
  8
PLAN_1
  6
CONTINUOUS
 10
1.628354
 20
-3.923319
  0
VERTEX
  8
PLAN_1
  6
CONTINUOUS
 10
1.628354
 20
-3.899437
  0
VERTEX
  8
PLAN_1
  6
CONTINUOUS
 10
1.717906
 20
-3.775559
  0
VERTEX
  8
PLAN_1
  6
CONTINUOUS
 10
1.738303
 20
-3.775559
  0
VERTEX
  8
PLAN_1
  6
CONTINUOUS
 10
1.738303
 20
-3.902425
  0
VERTEX
  8
PLAN_1
  6
CONTINUOUS
 10
1.766661
 20
-3.902425
  0
VERTEX
  8
PLAN_1
  6
CONTINUOUS
 10
1.766661
 20
-3.923319
  0
VERTEX
  8
PLAN_1
  6
CONTINUOUS
 10
1.738303
 20
-3.923319
  0
SEQEND
  8
0
  0
SOLID
  8
PLAN_1
 10
1.650744
 20
-3.902425
 11
1.713429
 21
-3.902425
 12
1.712933
 22
-3.813866
 13
1.713429
 23
-3.813866
  0
POLYLINE
  8
PLAN_1
  6
CONTINUOUS
 66
     1
 40
0.003000
 41
0.003000
  0
VERTEX
  8
PLAN_1
  6
CONTINUOUS
 10
1.650744
 20
-3.902425
  0
VERTEX
  8
PLAN_1
  6
CONTINUOUS
 10
1.713429
 20
-3.902425
  0
VERTEX
  8
PLAN_1
  6
CONTINUOUS
 10
1.713429
 20
-3.813866
  0
VERTEX
  8
PLAN_1
  6
CONTINUOUS
 10
1.712933
 20
-3.813866
  0
VERTEX
  8
PLAN_1
  6
CONTINUOUS
 10
1.650744
 20
-3.902425
  0
SEQEND
  8
0
  0
POLYLINE
  8
PLAN_1
  6
CONTINUOUS
 66
     1
 40
0.003000
 41
0.003000
  0
VERTEX
  8
PLAN_1
  6
CONTINUOUS
 10
1.827358
 20
-3.970583
  0
VERTEX
  8
PLAN_1
  6
CONTINUOUS
 10
1.800492
 20
-3.970583
  0
VERTEX
  8
PLAN_1
  6
CONTINUOUS
 10
1.800492
 20
-3.771579
  0
VERTEX
  8
PLAN_1
  6
CONTINUOUS
 10
1.892531
 20
-3.771579
  0
VERTEX
  8
PLAN_1
  6
CONTINUOUS
 10
1.898500
 20
-3.771579
  0
VERTEX
  8
PLAN_1
  6
CONTINUOUS
 10
1.904469
 20
-3.772079
  0
VERTEX
  8
PLAN_1
  6
CONTINUOUS
 10
1.910441
 20
-3.773071
  0
VERTEX
  8
PLAN_1
  6
CONTINUOUS
 10
1.916409
 20
-3.774067
  0
VERTEX
  8
PLAN_1
  6
CONTINUOUS
 10
1.922382
 20
-3.775559
  0
VERTEX
  8
PLAN_1
  6
CONTINUOUS
 10
1.927354
 20
-3.777551
  0
VERTEX
  8
PLAN_1
  6
CONTINUOUS
 10
1.932827
 20
-3.779539
  0
VERTEX
  8
PLAN_1
  6
CONTINUOUS
 10
1.937307
 20
-3.782524
  0
VERTEX
  8
PLAN_1
  6
CONTINUOUS
 10
1.941783
 20
-3.786008
  0
VERTEX
  8
PLAN_1
  6
CONTINUOUS
 10
1.945764
 20
-3.789488
  0
VERTEX
  8
PLAN_1
  6
CONTINUOUS
 10
1.949244
 20
-3.793969
  0
VERTEX
  8
PLAN_1
  6
CONTINUOUS
 10
1.952232
 20
-3.798941
  0
VERTEX
  8
PLAN_1
  6
CONTINUOUS
 10
1.954717
 20
-3.804413
  0
VERTEX
  8
PLAN_1
  6
CONTINUOUS
 10
1.956709
 20
-3.810882
  0
VERTEX
  8
PLAN_1
  6
CONTINUOUS
 10
1.957705
 20
-3.817350
  0
VERTEX
  8
PLAN_1
  6
CONTINUOUS
 10
1.957705
 20
-3.825311
  0
VERTEX
  8
PLAN_1
  6
CONTINUOUS
 10
1.957705
 20
-3.830283
  0
VERTEX
  8
PLAN_1
  6
CONTINUOUS
 10
1.957205
 20
-3.835260
  0
VERTEX
  8
PLAN_1
  6
CONTINUOUS
 10
1.956709
 20
-3.839736
  0
VERTEX
  8
PLAN_1
  6
CONTINUOUS
 10
1.955217
 20
-3.843717
  0
VERTEX
  8
PLAN_1
  6
CONTINUOUS
 10
1.954220
 20
-3.847697
  0
VERTEX
  8
PLAN_1
  6
CONTINUOUS
 10
1.952728
 20
-3.851181
  0
VERTEX
  8
PLAN_1
  6
CONTINUOUS
 10
1.950736
 20
-3.854165
  0
VERTEX
  8
PLAN_1
  6
CONTINUOUS
 10
1.948748
 20
-3.857150
  0
VERTEX
  8
PLAN_1
  6
CONTINUOUS
 10
1.944768
 20
-3.862126
  0
VERTEX
  8
PLAN_1
  6
CONTINUOUS
 10
1.939791
 20
-3.866106
  0
VERTEX
  8
PLAN_1
  6
CONTINUOUS
 10
1.934819
 20
-3.869587
  0
VERTEX
  8
PLAN_1
  6
CONTINUOUS
 10
1.930339
 20
-3.872575
  0
VERTEX
  8
PLAN_1
  6
CONTINUOUS
 10
1.934319
 20
-3.874563
  0
VERTEX
  8
PLAN_1
  6
CONTINUOUS
 10
1.938799
 20
-3.876551
  0
VERTEX
  8
PLAN_1
  6
CONTINUOUS
 10
1.942280
 20
-3.879539
  0
VERTEX
  8
PLAN_1
  6
CONTINUOUS
 10
1.945764
 20
-3.883020
  0
VERTEX
  8
PLAN_1
  6
CONTINUOUS
 10
1.947752
 20
-3.885012
  0
VERTEX
  8
PLAN_1
  6
CONTINUOUS
 10
1.949244
 20
-3.887500
  0
VERTEX
  8
PLAN_1
  6
CONTINUOUS
 10
1.950240
 20
-3.890484
  0
VERTEX
  8
PLAN_1
  6
CONTINUOUS
 10
1.951236
 20
-3.893469
  0
VERTEX
  8
PLAN_1
  6
CONTINUOUS
 10
1.952232
 20
-3.896949
  0
VERTEX
  8
PLAN_1
  6
CONTINUOUS
 10
1.953224
 20
-3.900929
  0
VERTEX
  8
PLAN_1
  6
CONTINUOUS
 10
1.953724
 20
-3.905409
  0
VERTEX
  8
PLAN_1
  6
CONTINUOUS
 10
1.954220
 20
-3.910382
  0
VERTEX
  8
PLAN_1
  6
CONTINUOUS
 10
1.955713
 20
-3.946205
  0
VERTEX
  8
PLAN_1
  6
CONTINUOUS
 10
1.955713
 20
-3.950185
  0
VERTEX
  8
PLAN_1
  6
CONTINUOUS
 10
1.956213
 20
-3.953665
  0
VERTEX
  8
PLAN_1
  6
CONTINUOUS
 10
1.956709
 20
-3.956154
  0
VERTEX
  8
PLAN_1
  6
CONTINUOUS
 10
1.957705
 20
-3.958642
  0
VERTEX
  8
PLAN_1
  6
CONTINUOUS
 10
1.959197
 20
-3.960630
  0
VERTEX
  8
PLAN_1
  6
CONTINUOUS
 10
1.960689
 20
-3.962622
  0
VERTEX
  8
PLAN_1
  6
CONTINUOUS
 10
1.962677
 20
-3.964610
  0
VERTEX
  8
PLAN_1
  6
CONTINUOUS
 10
1.965661
 20
-3.966102
  0
VERTEX
  8
PLAN_1
  6
CONTINUOUS
 10
1.965661
 20
-3.970583
  0
VERTEX
  8
PLAN_1
  6
CONTINUOUS
 10
1.932827
 20
-3.970583
  0
VERTEX
  8
PLAN_1
  6
CONTINUOUS
 10
1.931335
 20
-3.965606
  0
VERTEX
  8
PLAN_1
  6
CONTINUOUS
 10
1.930339
 20
-3.958642
  0
VERTEX
  8
PLAN_1
  6
CONTINUOUS
 10
1.929346
 20
-3.951677
  0
VERTEX
  8
PLAN_1
  6
CONTINUOUS
 10
1.928846
 20
-3.944213
  0
VERTEX
  8
PLAN_1
  6
CONTINUOUS
 10
1.928350
 20
-3.936752
  0
VERTEX
  8
PLAN_1
  6
CONTINUOUS
 10
1.928350
 20
-3.930283
  0
VERTEX
  8
PLAN_1
  6
CONTINUOUS
 10
1.927854
 20
-3.924811
  0
VERTEX
  8
PLAN_1
  6
CONTINUOUS
 10
1.927854
 20
-3.920831
  0
VERTEX
  8
PLAN_1
  6
CONTINUOUS
 10
1.927854
 20
-3.914362
  0
VERTEX
  8
PLAN_1
  6
CONTINUOUS
 10
1.926858
 20
-3.908394
  0
VERTEX
  8
PLAN_1
  6
CONTINUOUS
 10
1.926362
 20
-3.905409
  0
VERTEX
  8
PLAN_1
  6
CONTINUOUS
 10
1.925366
 20
-3.902425
  0
VERTEX
  8
PLAN_1
  6
CONTINUOUS
 10
1.923874
 20
-3.899437
  0
VERTEX
  8
PLAN_1
  6
CONTINUOUS
 10
1.922382
 20
-3.896949
  0
VERTEX
  8
PLAN_1
  6
CONTINUOUS
 10
1.920390
 20
-3.894465
  0
VERTEX
  8
PLAN_1
  6
CONTINUOUS
 10
1.917902
 20
-3.891976
  0
VERTEX
  8
PLAN_1
  6
CONTINUOUS
 10
1.914917
 20
-3.890484
  0
VERTEX
  8
PLAN_1
  6
CONTINUOUS
 10
1.911437
 20
-3.888492
  0
VERTEX
  8
PLAN_1
  6
CONTINUOUS
 10
1.907457
 20
-3.887000
  0
VERTEX
  8
PLAN_1
  6
CONTINUOUS
 10
1.902976
 20
-3.886004
  0
VERTEX
  8
PLAN_1
  6
CONTINUOUS
 10
1.898004
 20
-3.885508
  0
VERTEX
  8
PLAN_1
  6
CONTINUOUS
 10
1.892531
 20
-3.885508
  0
VERTEX
  8
PLAN_1
  6
CONTINUOUS
 10
1.827358
 20
-3.885508
  0
VERTEX
  8
PLAN_1
  6
CONTINUOUS
 10
1.827358
 20
-3.970583
  0
SEQEND
  8
0
  0
POLYLINE
  8
PLAN_1
  6
CONTINUOUS
 66
     1
 40
0.003000
 41
0.003000
  0
VERTEX
  8
PLAN_1
  6
CONTINUOUS
 10
1.827358
 20
-3.862126
  0
VERTEX
  8
PLAN_1
  6
CONTINUOUS
 10
1.889543
 20
-3.862126
  0
VERTEX
  8
PLAN_1
  6
CONTINUOUS
 10
1.897008
 20
-3.862126
  0
VERTEX
  8
PLAN_1
  6
CONTINUOUS
 10
1.904469
 20
-3.861130
  0
VERTEX
  8
PLAN_1
  6
CONTINUOUS
 10
1.907953
 20
-3.860134
  0
VERTEX
  8
PLAN_1
  6
CONTINUOUS
 10
1.910937
 20
-3.859142
  0
VERTEX
  8
PLAN_1
  6
CONTINUOUS
 10
1.914421
 20
-3.857650
  0
VERTEX
  8
PLAN_1
  6
CONTINUOUS
 10
1.917406
 20
-3.856154
  0
VERTEX
  8
PLAN_1
  6
CONTINUOUS
 10
1.919894
 20
-3.854165
  0
VERTEX
  8
PLAN_1
  6
CONTINUOUS
 10
1.922382
 20
-3.851677
  0
VERTEX
  8
PLAN_1
  6
CONTINUOUS
 10
1.924866
 20
-3.848693
  0
VERTEX
  8
PLAN_1
  6
CONTINUOUS
 10
1.926858
 20
-3.845709
  0
VERTEX
  8
PLAN_1
  6
CONTINUOUS
 10
1.928350
 20
-3.841728
  0
VERTEX
  8
PLAN_1
  6
CONTINUOUS
 10
1.929346
 20
-3.837748
  0
VERTEX
  8
PLAN_1
  6
CONTINUOUS
 10
1.929843
 20
-3.833272
  0
VERTEX
  8
PLAN_1
  6
CONTINUOUS
 10
1.930339
 20
-3.827799
  0
VERTEX
  8
PLAN_1
  6
CONTINUOUS
 10
1.929843
 20
-3.822327
  0
VERTEX
  8
PLAN_1
  6
CONTINUOUS
 10
1.929346
 20
-3.817350
  0
VERTEX
  8
PLAN_1
  6
CONTINUOUS
 10
1.927854
 20
-3.813370
  0
VERTEX
  8
PLAN_1
  6
CONTINUOUS
 10
1.926362
 20
-3.809886
  0
VERTEX
  8
PLAN_1
  6
CONTINUOUS
 10
1.924370
 20
-3.806406
  0
VERTEX
  8
PLAN_1
  6
CONTINUOUS
 10
1.922382
 20
-3.803917
  0
VERTEX
  8
PLAN_1
  6
CONTINUOUS
 10
1.919894
 20
-3.801429
  0
VERTEX
  8
PLAN_1
  6
CONTINUOUS
 10
1.917406
 20
-3.799441
  0
VERTEX
  8
PLAN_1
  6
CONTINUOUS
 10
1.914421
 20
-3.797949
  0
VERTEX
  8
PLAN_1
  6
CONTINUOUS
 10
1.911437
 20
-3.796953
  0
VERTEX
  8
PLAN_1
  6
CONTINUOUS
 10
1.908449
 20
-3.795957
  0
VERTEX
  8
PLAN_1
  6
CONTINUOUS
 10
1.905465
 20
-3.795461
  0
VERTEX
  8
PLAN_1
  6
CONTINUOUS
 10
1.899496
 20
-3.794465
  0
VERTEX
  8
PLAN_1
  6
CONTINUOUS
 10
1.894520
 20
-3.794465
  0
VERTEX
  8
PLAN_1
  6
CONTINUOUS
 10
1.827358
 20
-3.794465
  0
VERTEX
  8
PLAN_1
  6
CONTINUOUS
 10
1.827358
 20
-3.862126
  0
SEQEND
  8
0
  0
SOLID
  8
PLAN_1
 10
2.029343
 20
-3.970583
 11
2.000488
 21
-3.970583
 12
2.029343
 22
-3.941228
 13
2.000488
 23
-3.941228
  0
POLYLINE
  8
PLAN_1
  6
CONTINUOUS
 66
     1
 40
0.003000
 41
0.003000
  0
VERTEX
  8
PLAN_1
  6
CONTINUOUS
 10
2.029343
 20
-3.970583
  0
VERTEX
  8
PLAN_1
  6
CONTINUOUS
 10
2.000488
 20
-3.970583
  0
VERTEX
  8
PLAN_1
  6
CONTINUOUS
 10
2.000488
 20
-3.941228
  0
VERTEX
  8
PLAN_1
  6
CONTINUOUS
 10
2.029343
 20
-3.941228
  0
VERTEX
  8
PLAN_1
  6
CONTINUOUS
 10
2.029343
 20
-3.970583
  0
SEQEND
  8
0
  0
POLYLINE
  8
PLAN_1
  6
CONTINUOUS
 66
     1
 40
0.003000
 41
0.003000
  0
VERTEX
  8
PLAN_1
  6
CONTINUOUS
 10
2.224366
 20
-3.970583
  0
VERTEX
  8
PLAN_1
  6
CONTINUOUS
 10
2.077602
 20
-3.970583
  0
VERTEX
  8
PLAN_1
  6
CONTINUOUS
 10
2.077602
 20
-3.771579
  0
VERTEX
  8
PLAN_1
  6
CONTINUOUS
 10
2.222374
 20
-3.771579
  0
VERTEX
  8
PLAN_1
  6
CONTINUOUS
 10
2.222374
 20
-3.795461
  0
VERTEX
  8
PLAN_1
  6
CONTINUOUS
 10
2.104469
 20
-3.795461
  0
VERTEX
  8
PLAN_1
  6
CONTINUOUS
 10
2.104469
 20
-3.856654
  0
VERTEX
  8
PLAN_1
  6
CONTINUOUS
 10
2.213421
 20
-3.856654
  0
VERTEX
  8
PLAN_1
  6
CONTINUOUS
 10
2.213421
 20
-3.880531
  0
VERTEX
  8
PLAN_1
  6
CONTINUOUS
 10
2.104469
 20
-3.880531
  0
VERTEX
  8
PLAN_1
  6
CONTINUOUS
 10
2.104469
 20
-3.946701
  0
VERTEX
  8
PLAN_1
  6
CONTINUOUS
 10
2.224366
 20
-3.946701
  0
VERTEX
  8
PLAN_1
  6
CONTINUOUS
 10
2.224366
 20
-3.970583
  0
SEQEND
  8
0
  0
POLYLINE
  8
PLAN_1
  6
CONTINUOUS
 66
     1
 40
0.003000
 41
0.003000
  0
VERTEX
  8
PLAN_1
  6
CONTINUOUS
 10
2.289539
 20
-3.970583
  0
VERTEX
  8
PLAN_1
  6
CONTINUOUS
 10
2.262673
 20
-3.970583
  0
VERTEX
  8
PLAN_1
  6
CONTINUOUS
 10
2.262673
 20
-3.771579
  0
VERTEX
  8
PLAN_1
  6
CONTINUOUS
 10
2.352224
 20
-3.771579
  0
VERTEX
  8
PLAN_1
  6
CONTINUOUS
 10
2.359189
 20
-3.771579
  0
VERTEX
  8
PLAN_1
  6
CONTINUOUS
 10
2.365157
 20
-3.772575
  0
VERTEX
  8
PLAN_1
  6
CONTINUOUS
 10
2.371626
 20
-3.774067
  0
VERTEX
  8
PLAN_1
  6
CONTINUOUS
 10
2.377098
 20
-3.775559
  0
VERTEX
  8
PLAN_1
  6
CONTINUOUS
 10
2.382075
 20
-3.778047
  0
VERTEX
  8
PLAN_1
  6
CONTINUOUS
 10
2.387047
 20
-3.780535
  0
VERTEX
  8
PLAN_1
  6
CONTINUOUS
 10
2.391528
 20
-3.784016
  0
VERTEX
  8
PLAN_1
  6
CONTINUOUS
 10
2.395508
 20
-3.787500
  0
VERTEX
  8
PLAN_1
  6
CONTINUOUS
 10
2.398988
 20
-3.791480
  0
VERTEX
  8
PLAN_1
  6
CONTINUOUS
 10
2.402472
 20
-3.795461
  0
VERTEX
  8
PLAN_1
  6
CONTINUOUS
 10
2.404961
 20
-3.800437
  0
VERTEX
  8
PLAN_1
  6
CONTINUOUS
 10
2.407445
 20
-3.805409
  0
VERTEX
  8
PLAN_1
  6
CONTINUOUS
 10
2.408937
 20
-3.810386
  0
VERTEX
  8
PLAN_1
  6
CONTINUOUS
 10
2.410433
 20
-3.815858
  0
VERTEX
  8
PLAN_1
  6
CONTINUOUS
 10
2.410929
 20
-3.821827
  0
VERTEX
  8
PLAN_1
  6
CONTINUOUS
 10
2.411425
 20
-3.827799
  0
VERTEX
  8
PLAN_1
  6
CONTINUOUS
 10
2.410929
 20
-3.832772
  0
VERTEX
  8
PLAN_1
  6
CONTINUOUS
 10
2.410433
 20
-3.838244
  0
VERTEX
  8
PLAN_1
  6
CONTINUOUS
 10
2.409437
 20
-3.843220
  0
VERTEX
  8
PLAN_1
  6
CONTINUOUS
 10
2.407945
 20
-3.848693
  0
VERTEX
  8
PLAN_1
  6
CONTINUOUS
 10
2.406453
 20
-3.853669
  0
VERTEX
  8
PLAN_1
  6
CONTINUOUS
 10
2.403965
 20
-3.858642
  0
VERTEX
  8
PLAN_1
  6
CONTINUOUS
 10
2.401476
 20
-3.863122
  0
VERTEX
  8
PLAN_1
  6
CONTINUOUS
 10
2.397992
 20
-3.867598
  0
VERTEX
  8
PLAN_1
  6
CONTINUOUS
 10
2.394012
 20
-3.871579
  0
VERTEX
  8
PLAN_1
  6
CONTINUOUS
 10
2.390035
 20
-3.875059
  0
VERTEX
  8
PLAN_1
  6
CONTINUOUS
 10
2.385059
 20
-3.878543
  0
VERTEX
  8
PLAN_1
  6
CONTINUOUS
 10
2.379587
 20
-3.881528
  0
VERTEX
  8
PLAN_1
  6
CONTINUOUS
 10
2.373614
 20
-3.883520
  0
VERTEX
  8
PLAN_1
  6
CONTINUOUS
 10
2.367150
 20
-3.885508
  0
VERTEX
  8
PLAN_1
  6
CONTINUOUS
 10
2.360185
 20
-3.886504
  0
VERTEX
  8
PLAN_1
  6
CONTINUOUS
 10
2.352224
 20
-3.886504
  0
VERTEX
  8
PLAN_1
  6
CONTINUOUS
 10
2.289539
 20
-3.886504
  0
VERTEX
  8
PLAN_1
  6
CONTINUOUS
 10
2.289539
 20
-3.970583
  0
SEQEND
  8
0
  0
POLYLINE
  8
PLAN_1
  6
CONTINUOUS
 66
     1
 40
0.003000
 41
0.003000
  0
VERTEX
  8
PLAN_1
  6
CONTINUOUS
 10
2.289539
 20
-3.863618
  0
VERTEX
  8
PLAN_1
  6
CONTINUOUS
 10
2.343268
 20
-3.863618
  0
VERTEX
  8
PLAN_1
  6
CONTINUOUS
 10
2.347248
 20
-3.863618
  0
VERTEX
  8
PLAN_1
  6
CONTINUOUS
 10
2.351724
 20
-3.863122
  0
VERTEX
  8
PLAN_1
  6
CONTINUOUS
 10
2.355705
 20
-3.862622
  0
VERTEX
  8
PLAN_1
  6
CONTINUOUS
 10
2.359685
 20
-3.861630
  0
VERTEX
  8
PLAN_1
  6
CONTINUOUS
 10
2.363169
 20
-3.860634
  0
VERTEX
  8
PLAN_1
  6
CONTINUOUS
 10
2.366650
 20
-3.859638
  0
VERTEX
  8
PLAN_1
  6
CONTINUOUS
 10
2.369638
 20
-3.857650
  0
VERTEX
  8
PLAN_1
  6
CONTINUOUS
 10
2.372622
 20
-3.855657
  0
VERTEX
  8
PLAN_1
  6
CONTINUOUS
 10
2.375110
 20
-3.853669
  0
VERTEX
  8
PLAN_1
  6
CONTINUOUS
 10
2.377098
 20
-3.851181
  0
VERTEX
  8
PLAN_1
  6
CONTINUOUS
 10
2.379087
 20
-3.848197
  0
VERTEX
  8
PLAN_1
  6
CONTINUOUS
 10
2.380583
 20
-3.844713
  0
VERTEX
  8
PLAN_1
  6
CONTINUOUS
 10
2.382075
 20
-3.841232
  0
VERTEX
  8
PLAN_1
  6
CONTINUOUS
 10
2.383067
 20
-3.837252
  0
VERTEX
  8
PLAN_1
  6
CONTINUOUS
 10
2.383567
 20
-3.832772
  0
VERTEX
  8
PLAN_1
  6
CONTINUOUS
 10
2.383567
 20
-3.827799
  0
VERTEX
  8
PLAN_1
  6
CONTINUOUS
 10
2.383567
 20
-3.823319
  0
VERTEX
  8
PLAN_1
  6
CONTINUOUS
 10
2.382571
 20
-3.819339
  0
VERTEX
  8
PLAN_1
  6
CONTINUOUS
 10
2.382075
 20
-3.815358
  0
VERTEX
  8
PLAN_1
  6
CONTINUOUS
 10
2.380583
 20
-3.811878
  0
VERTEX
  8
PLAN_1
  6
CONTINUOUS
 10
2.379087
 20
-3.808894
  0
VERTEX
  8
PLAN_1
  6
CONTINUOUS
 10
2.377098
 20
-3.806406
  0
VERTEX
  8
PLAN_1
  6
CONTINUOUS
 10
2.374610
 20
-3.803917
  0
VERTEX
  8
PLAN_1
  6
CONTINUOUS
 10
2.372122
 20
-3.801929
  0
VERTEX
  8
PLAN_1
  6
CONTINUOUS
 10
2.369638
 20
-3.799937
  0
VERTEX
  8
PLAN_1
  6
CONTINUOUS
 10
2.366154
 20
-3.798445
  0
VERTEX
  8
PLAN_1
  6
CONTINUOUS
 10
2.363169
 20
-3.796953
  0
VERTEX
  8
PLAN_1
  6
CONTINUOUS
 10
2.359685
 20
-3.795957
  0
VERTEX
  8
PLAN_1
  6
CONTINUOUS
 10
2.352224
 20
-3.794961
  0
VERTEX
  8
PLAN_1
  6
CONTINUOUS
 10
2.344264
 20
-3.794465
  0
VERTEX
  8
PLAN_1
  6
CONTINUOUS
 10
2.289539
 20
-3.794465
  0
VERTEX
  8
PLAN_1
  6
CONTINUOUS
 10
2.289539
 20
-3.863618
  0
SEQEND
  8
0
  0
POLYLINE
  8
PLAN_1
  6
CONTINUOUS
 66
     1
 40
0.003000
 41
0.003000
  0
VERTEX
  8
PLAN_1
  6
CONTINUOUS
 10
2.565154
 20
-3.829787
  0
VERTEX
  8
PLAN_1
  6
CONTINUOUS
 10
2.564657
 20
-3.824315
  0
VERTEX
  8
PLAN_1
  6
CONTINUOUS
 10
2.563661
 20
-3.819339
  0
VERTEX
  8
PLAN_1
  6
CONTINUOUS
 10
2.562169
 20
-3.814862
  0
VERTEX
  8
PLAN_1
  6
CONTINUOUS
 10
2.560181
 20
-3.810386
  0
VERTEX
  8
PLAN_1
  6
CONTINUOUS
 10
2.557693
 20
-3.806902
  0
VERTEX
  8
PLAN_1
  6
CONTINUOUS
 10
2.554709
 20
-3.803421
  0
VERTEX
  8
PLAN_1
  6
CONTINUOUS
 10
2.551720
 20
-3.800437
  0
VERTEX
  8
PLAN_1
  6
CONTINUOUS
 10
2.548240
 20
-3.797949
  0
VERTEX
  8
PLAN_1
  6
CONTINUOUS
 10
2.544756
 20
-3.795957
  0
VERTEX
  8
PLAN_1
  6
CONTINUOUS
 10
2.540776
 20
-3.793969
  0
VERTEX
  8
PLAN_1
  6
CONTINUOUS
 10
2.536795
 20
-3.792476
  0
VERTEX
  8
PLAN_1
  6
CONTINUOUS
 10
2.532819
 20
-3.791480
  0
VERTEX
  8
PLAN_1
  6
CONTINUOUS
 10
2.528339
 20
-3.790484
  0
VERTEX
  8
PLAN_1
  6
CONTINUOUS
 10
2.524358
 20
-3.789988
  0
VERTEX
  8
PLAN_1
  6
CONTINUOUS
 10
2.519882
 20
-3.789488
  0
VERTEX
  8
PLAN_1
  6
CONTINUOUS
 10
2.515902
 20
-3.789488
  0
VERTEX
  8
PLAN_1
  6
CONTINUOUS
 10
2.508937
 20
-3.789488
  0
VERTEX
  8
PLAN_1
  6
CONTINUOUS
 10
2.501472
 20
-3.790484
  0
VERTEX
  8
PLAN_1
  6
CONTINUOUS
 10
2.497496
 20
-3.791480
  0
VERTEX
  8
PLAN_1
  6
CONTINUOUS
 10
2.494012
 20
-3.792476
  0
VERTEX
  8
PLAN_1
  6
CONTINUOUS
 10
2.490031
 20
-3.793969
  0
VERTEX
  8
PLAN_1
  6
CONTINUOUS
 10
2.486551
 20
-3.795461
  0
VERTEX
  8
PLAN_1
  6
CONTINUOUS
 10
2.483563
 20
-3.797449
  0
VERTEX
  8
PLAN_1
  6
CONTINUOUS
 10
2.480083
 20
-3.799937
  0
VERTEX
  8
PLAN_1
  6
CONTINUOUS
 10
2.477594
 20
-3.802921
  0
VERTEX
  8
PLAN_1
  6
CONTINUOUS
 10
2.475106
 20
-3.805909
  0
VERTEX
  8
PLAN_1
  6
CONTINUOUS
 10
2.473118
 20
-3.809886
  0
VERTEX
  8
PLAN_1
  6
CONTINUOUS
 10
2.471626
 20
-3.813866
  0
VERTEX
  8
PLAN_1
  6
CONTINUOUS
 10
2.470630
 20
-3.818843
  0
VERTEX
  8
PLAN_1
  6
CONTINUOUS
 10
2.470130
 20
-3.824315
  0
VERTEX
  8
PLAN_1
  6
CONTINUOUS
 10
2.470630
 20
-3.827299
  0
VERTEX
  8
PLAN_1
  6
CONTINUOUS
 10
2.470630
 20
-3.830283
  0
VERTEX
  8
PLAN_1
  6
CONTINUOUS
 10
2.471626
 20
-3.832772
  0
VERTEX
  8
PLAN_1
  6
CONTINUOUS
 10
2.472122
 20
-3.834764
  0
VERTEX
  8
PLAN_1
  6
CONTINUOUS
 10
2.473614
 20
-3.837252
  0
VERTEX
  8
PLAN_1
  6
CONTINUOUS
 10
2.474610
 20
-3.838744
  0
VERTEX
  8
PLAN_1
  6
CONTINUOUS
 10
2.476102
 20
-3.840732
  0
VERTEX
  8
PLAN_1
  6
CONTINUOUS
 10
2.477594
 20
-3.842224
  0
VERTEX
  8
PLAN_1
  6
CONTINUOUS
 10
2.481075
 20
-3.844713
  0
VERTEX
  8
PLAN_1
  6
CONTINUOUS
 10
2.485055
 20
-3.846705
  0
VERTEX
  8
PLAN_1
  6
CONTINUOUS
 10
2.489535
 20
-3.848197
  0
VERTEX
  8
PLAN_1
  6
CONTINUOUS
 10
2.494012
 20
-3.849689
  0
VERTEX
  8
PLAN_1
  6
CONTINUOUS
 10
2.550728
 20
-3.862622
  0
VERTEX
  8
PLAN_1
  6
CONTINUOUS
 10
2.555701
 20
-3.863618
  0
VERTEX
  8
PLAN_1
  6
CONTINUOUS
 10
2.560181
 20
-3.865110
  0
VERTEX
  8
PLAN_1
  6
CONTINUOUS
 10
2.564657
 20
-3.867102
  0
VERTEX
  8
PLAN_1
  6
CONTINUOUS
 10
2.568638
 20
-3.869091
  0
VERTEX
  8
PLAN_1
  6
CONTINUOUS
 10
2.572618
 20
-3.871079
  0
VERTEX
  8
PLAN_1
  6
CONTINUOUS
 10
2.576598
 20
-3.873567
  0
VERTEX
  8
PLAN_1
  6
CONTINUOUS
 10
2.580079
 20
-3.876551
  0
VERTEX
  8
PLAN_1
  6
CONTINUOUS
 10
2.583063
 20
-3.879539
  0
VERTEX
  8
PLAN_1
  6
CONTINUOUS
 10
2.586051
 20
-3.883020
  0
VERTEX
  8
PLAN_1
  6
CONTINUOUS
 10
2.588539
 20
-3.886504
  0
VERTEX
  8
PLAN_1
  6
CONTINUOUS
 10
2.590528
 20
-3.890484
  0
VERTEX
  8
PLAN_1
  6
CONTINUOUS
 10
2.592516
 20
-3.894961
  0
VERTEX
  8
PLAN_1
  6
CONTINUOUS
 10
2.594012
 20
-3.899437
  0
VERTEX
  8
PLAN_1
  6
CONTINUOUS
 10
2.595004
 20
-3.904909
  0
VERTEX
  8
PLAN_1
  6
CONTINUOUS
 10
2.596000
 20
-3.909886
  0
VERTEX
  8
PLAN_1
  6
CONTINUOUS
 10
2.596000
 20
-3.915854
  0
VERTEX
  8
PLAN_1
  6
CONTINUOUS
 10
2.596000
 20
-3.920335
  0
VERTEX
  8
PLAN_1
  6
CONTINUOUS
 10
2.595504
 20
-3.924315
  0
VERTEX
  8
PLAN_1
  6
CONTINUOUS
 10
2.595004
 20
-3.928295
  0
VERTEX
  8
PLAN_1
  6
CONTINUOUS
 10
2.594012
 20
-3.931776
  0
VERTEX
  8
PLAN_1
  6
CONTINUOUS
 10
2.593016
 20
-3.935756
  0
VERTEX
  8
PLAN_1
  6
CONTINUOUS
 10
2.591524
 20
-3.938740
  0
VERTEX
  8
PLAN_1
  6
CONTINUOUS
 10
2.590031
 20
-3.942224
  0
VERTEX
  8
PLAN_1
  6
CONTINUOUS
 10
2.588539
 20
-3.945209
  0
VERTEX
  8
PLAN_1
  6
CONTINUOUS
 10
2.584559
 20
-3.950681
  0
VERTEX
  8
PLAN_1
  6
CONTINUOUS
 10
2.580079
 20
-3.955657
  0
VERTEX
  8
PLAN_1
  6
CONTINUOUS
 10
2.575106
 20
-3.960134
  0
VERTEX
  8
PLAN_1
  6
CONTINUOUS
 10
2.569634
 20
-3.963618
  0
VERTEX
  8
PLAN_1
  6
CONTINUOUS
 10
2.563661
 20
-3.966602
  0
VERTEX
  8
PLAN_1
  6
CONTINUOUS
 10
2.557693
 20
-3.969587
  0
VERTEX
  8
PLAN_1
  6
CONTINUOUS
 10
2.551224
 20
-3.971575
  0
VERTEX
  8
PLAN_1
  6
CONTINUOUS
 10
2.544756
 20
-3.973067
  0
VERTEX
  8
PLAN_1
  6
CONTINUOUS
 10
2.537791
 20
-3.974563
  0
VERTEX
  8
PLAN_1
  6
CONTINUOUS
 10
2.531323
 20
-3.975555
  0
VERTEX
  8
PLAN_1
  6
CONTINUOUS
 10
2.524358
 20
-3.976055
  0
VERTEX
  8
PLAN_1
  6
CONTINUOUS
 10
2.517894
 20
-3.976055
  0
VERTEX
  8
PLAN_1
  6
CONTINUOUS
 10
2.511425
 20
-3.976055
  0
VERTEX
  8
PLAN_1
  6
CONTINUOUS
 10
2.504957
 20
-3.975555
  0
VERTEX
  8
PLAN_1
  6
CONTINUOUS
 10
2.499484
 20
-3.975059
  0
VERTEX
  8
PLAN_1
  6
CONTINUOUS
 10
2.494508
 20
-3.974063
  0
VERTEX
  8
PLAN_1
  6
CONTINUOUS
 10
2.485055
 20
-3.972075
  0
VERTEX
  8
PLAN_1
  6
CONTINUOUS
 10
2.477594
 20
-3.969587
  0
VERTEX
  8
PLAN_1
  6
CONTINUOUS
 10
2.471126
 20
-3.966602
  0
VERTEX
  8
PLAN_1
  6
CONTINUOUS
 10
2.465654
 20
-3.963118
  0
VERTEX
  8
PLAN_1
  6
CONTINUOUS
 10
2.461177
 20
-3.960134
  0
VERTEX
  8
PLAN_1
  6
CONTINUOUS
 10
2.457693
 20
-3.957150
  0
VERTEX
  8
PLAN_1
  6
CONTINUOUS
 10
2.452220
 20
-3.951177
  0
VERTEX
  8
PLAN_1
  6
CONTINUOUS
 10
2.447248
 20
-3.945209
  0
VERTEX
  8
PLAN_1
  6
CONTINUOUS
 10
2.443764
 20
-3.939240
  0
VERTEX
  8
PLAN_1
  6
CONTINUOUS
 10
2.441276
 20
-3.932772
  0
VERTEX
  8
PLAN_1
  6
CONTINUOUS
 10
2.439287
 20
-3.926303
  0
VERTEX
  8
PLAN_1
  6
CONTINUOUS
 10
2.438291
 20
-3.919835
  0
VERTEX
  8
PLAN_1
  6
CONTINUOUS
 10
2.437795
 20
-3.913370
  0
VERTEX
  8
PLAN_1
  6
CONTINUOUS
 10
2.437295
 20
-3.906402
  0
VERTEX
  8
PLAN_1
  6
CONTINUOUS
 10
2.462669
 20
-3.906402
  0
VERTEX
  8
PLAN_1
  6
CONTINUOUS
 10
2.463165
 20
-3.912870
  0
VERTEX
  8
PLAN_1
  6
CONTINUOUS
 10
2.464161
 20
-3.918843
  0
VERTEX
  8
PLAN_1
  6
CONTINUOUS
 10
2.465654
 20
-3.924315
  0
VERTEX
  8
PLAN_1
  6
CONTINUOUS
 10
2.467646
 20
-3.928791
  0
VERTEX
  8
PLAN_1
  6
CONTINUOUS
 10
2.470130
 20
-3.933268
  0
VERTEX
  8
PLAN_1
  6
CONTINUOUS
 10
2.473614
 20
-3.937248
  0
VERTEX
  8
PLAN_1
  6
CONTINUOUS
 10
2.477098
 20
-3.940232
  0
VERTEX
  8
PLAN_1
  6
CONTINUOUS
 10
2.480579
 20
-3.943220
  0
VERTEX
  8
PLAN_1
  6
CONTINUOUS
 10
2.484559
 20
-3.945705
  0
VERTEX
  8
PLAN_1
  6
CONTINUOUS
 10
2.489035
 20
-3.947697
  0
VERTEX
  8
PLAN_1
  6
CONTINUOUS
 10
2.493516
 20
-3.949685
  0
VERTEX
  8
PLAN_1
  6
CONTINUOUS
 10
2.498488
 20
-3.950681
  0
VERTEX
  8
PLAN_1
  6
CONTINUOUS
 10
2.502969
 20
-3.951677
  0
VERTEX
  8
PLAN_1
  6
CONTINUOUS
 10
2.507941
 20
-3.952669
  0
VERTEX
  8
PLAN_1
  6
CONTINUOUS
 10
2.512917
 20
-3.952669
  0
VERTEX
  8
PLAN_1
  6
CONTINUOUS
 10
2.517894
 20
-3.953169
  0
VERTEX
  8
PLAN_1
  6
CONTINUOUS
 10
2.525354
 20
-3.952669
  0
VERTEX
  8
PLAN_1
  6
CONTINUOUS
 10
2.534311
 20
-3.951677
  0
VERTEX
  8
PLAN_1
  6
CONTINUOUS
 10
2.538291
 20
-3.951177
  0
VERTEX
  8
PLAN_1
  6
CONTINUOUS
 10
2.542768
 20
-3.950185
  0
VERTEX
  8
PLAN_1
  6
CONTINUOUS
 10
2.547244
 20
-3.948693
  0
VERTEX
  8
PLAN_1
  6
CONTINUOUS
 10
2.551224
 20
-3.946701
  0
VERTEX
  8
PLAN_1
  6
CONTINUOUS
 10
2.555205
 20
-3.945209
  0
VERTEX
  8
PLAN_1
  6
CONTINUOUS
 10
2.558689
 20
-3.942720
  0
VERTEX
  8
PLAN_1
  6
CONTINUOUS
 10
2.561673
 20
-3.939736
  0
VERTEX
  8
PLAN_1
  6
CONTINUOUS
 10
2.564657
 20
-3.936752
  0
VERTEX
  8
PLAN_1
  6
CONTINUOUS
 10
2.566646
 20
-3.933268
  0
VERTEX
  8
PLAN_1
  6
CONTINUOUS
 10
2.568638
 20
-3.929287
  0
VERTEX
  8
PLAN_1
  6
CONTINUOUS
 10
2.569634
 20
-3.924315
  0
VERTEX
  8
PLAN_1
  6
CONTINUOUS
 10
2.570130
 20
-3.919339
  0
VERTEX
  8
PLAN_1
  6
CONTINUOUS
 10
2.569634
 20
-3.915854
  0
VERTEX
  8
PLAN_1
  6
CONTINUOUS
 10
2.569634
 20
-3.912374
  0
VERTEX
  8
PLAN_1
  6
CONTINUOUS
 10
2.568638
 20
-3.908890
  0
VERTEX
  8
PLAN_1
  6
CONTINUOUS
 10
2.567642
 20
-3.906402
  0
VERTEX
  8
PLAN_1
  6
CONTINUOUS
 10
2.566646
 20
-3.903417
  0
VERTEX
  8
PLAN_1
  6
CONTINUOUS
 10
2.565154
 20
-3.901429
  0
VERTEX
  8
PLAN_1
  6
CONTINUOUS
 10
2.563165
 20
-3.898941
  0
VERTEX
  8
PLAN_1
  6
CONTINUOUS
 10
2.561173
 20
-3.896949
  0
VERTEX
  8
PLAN_1
  6
CONTINUOUS
 10
2.558189
 20
-3.894961
  0
VERTEX
  8
PLAN_1
  6
CONTINUOUS
 10
2.555205
 20
-3.893469
  0
VERTEX
  8
PLAN_1
  6
CONTINUOUS
 10
2.551720
 20
-3.891476
  0
VERTEX
  8
PLAN_1
  6
CONTINUOUS
 10
2.547744
 20
-3.889984
  0
VERTEX
  8
PLAN_1
  6
CONTINUOUS
 10
2.538787
 20
-3.887000
  0
VERTEX
  8
PLAN_1
  6
CONTINUOUS
 10
2.527346
 20
-3.884016
  0
VERTEX
  8
PLAN_1
  6
CONTINUOUS
 10
2.486551
 20
-3.874563
  0
VERTEX
  8
PLAN_1
  6
CONTINUOUS
 10
2.481075
 20
-3.873071
  0
VERTEX
  8
PLAN_1
  6
CONTINUOUS
 10
2.474610
 20
-3.871079
  0
VERTEX
  8
PLAN_1
  6
CONTINUOUS
 10
2.471126
 20
-3.869587
  0
VERTEX
  8
PLAN_1
  6
CONTINUOUS
 10
2.467646
 20
-3.867598
  0
VERTEX
  8
PLAN_1
  6
CONTINUOUS
 10
2.464161
 20
-3.865606
  0
VERTEX
  8
PLAN_1
  6
CONTINUOUS
 10
2.460677
 20
-3.863122
  0
VERTEX
  8
PLAN_1
  6
CONTINUOUS
 10
2.457197
 20
-3.860134
  0
VERTEX
  8
PLAN_1
  6
CONTINUOUS
 10
2.454213
 20
-3.857150
  0
VERTEX
  8
PLAN_1
  6
CONTINUOUS
 10
2.451228
 20
-3.853669
  0
VERTEX
  8
PLAN_1
  6
CONTINUOUS
 10
2.448740
 20
-3.849189
  0
VERTEX
  8
PLAN_1
  6
CONTINUOUS
 10
2.446748
 20
-3.844713
  0
VERTEX
  8
PLAN_1
  6
CONTINUOUS
 10
2.445256
 20
-3.839736
  0
VERTEX
  8
PLAN_1
  6
CONTINUOUS
 10
2.444760
 20
-3.834264
  0
VERTEX
  8
PLAN_1
  6
CONTINUOUS
 10
2.444260
 20
-3.827799
  0
VERTEX
  8
PLAN_1
  6
CONTINUOUS
 10
2.444260
 20
-3.821827
  0
VERTEX
  8
PLAN_1
  6
CONTINUOUS
 10
2.445256
 20
-3.816354
  0
VERTEX
  8
PLAN_1
  6
CONTINUOUS
 10
2.446252
 20
-3.810386
  0
VERTEX
  8
PLAN_1
  6
CONTINUOUS
 10
2.448240
 20
-3.804913
  0
VERTEX
  8
PLAN_1
  6
CONTINUOUS
 10
2.450232
 20
-3.799937
  0
VERTEX
  8
PLAN_1
  6
CONTINUOUS
 10
2.453217
 20
-3.794465
  0
VERTEX
  8
PLAN_1
  6
CONTINUOUS
 10
2.456701
 20
-3.789988
  0
VERTEX
  8
PLAN_1
  6
CONTINUOUS
 10
2.460181
 20
-3.785512
  0
VERTEX
  8
PLAN_1
  6
CONTINUOUS
 10
2.464657
 20
-3.781031
  0
VERTEX
  8
PLAN_1
  6
CONTINUOUS
 10
2.469634
 20
-3.777551
  0
VERTEX
  8
PLAN_1
  6
CONTINUOUS
 10
2.475602
 20
-3.774067
  0
VERTEX
  8
PLAN_1
  6
CONTINUOUS
 10
2.481575
 20
-3.771579
  0
VERTEX
  8
PLAN_1
  6
CONTINUOUS
 10
2.488539
 20
-3.769091
  0
VERTEX
  8
PLAN_1
  6
CONTINUOUS
 10
2.496000
 20
-3.767598
  0
VERTEX
  8
PLAN_1
  6
CONTINUOUS
 10
2.503961
 20
-3.766606
  0
VERTEX
  8
PLAN_1
  6
CONTINUOUS
 10
2.512917
 20
-3.766106
  0
VERTEX
  8
PLAN_1
  6
CONTINUOUS
 10
2.524858
 20
-3.766606
  0
VERTEX
  8
PLAN_1
  6
CONTINUOUS
 10
2.535803
 20
-3.768098
  0
VERTEX
  8
PLAN_1
  6
CONTINUOUS
 10
2.540776
 20
-3.769091
  0
VERTEX
  8
PLAN_1
  6
CONTINUOUS
 10
2.545752
 20
-3.770087
  0
VERTEX
  8
PLAN_1
  6
CONTINUOUS
 10
2.550228
 20
-3.771579
  0
VERTEX
  8
PLAN_1
  6
CONTINUOUS
 10
2.554209
 20
-3.773071
  0
VERTEX
  8
PLAN_1
  6
CONTINUOUS
 10
2.561173
 20
-3.776555
  0
VERTEX
  8
PLAN_1
  6
CONTINUOUS
 10
2.567642
 20
-3.780535
  0
VERTEX
  8
PLAN_1
  6
CONTINUOUS
 10
2.573114
 20
-3.785012
  0
VERTEX
  8
PLAN_1
  6
CONTINUOUS
 10
2.577094
 20
-3.789988
  0
VERTEX
  8
PLAN_1
  6
CONTINUOUS
 10
2.581075
 20
-3.794961
  0
VERTEX
  8
PLAN_1
  6
CONTINUOUS
 10
2.583563
 20
-3.799937
  0
VERTEX
  8
PLAN_1
  6
CONTINUOUS
 10
2.586051
 20
-3.805409
  0
VERTEX
  8
PLAN_1
  6
CONTINUOUS
 10
2.587543
 20
-3.810386
  0
VERTEX
  8
PLAN_1
  6
CONTINUOUS
 10
2.589035
 20
-3.815858
  0
VERTEX
  8
PLAN_1
  6
CONTINUOUS
 10
2.589531
 20
-3.820835
  0
VERTEX
  8
PLAN_1
  6
CONTINUOUS
 10
2.590031
 20
-3.825311
  0
VERTEX
  8
PLAN_1
  6
CONTINUOUS
 10
2.590528
 20
-3.829787
  0
VERTEX
  8
PLAN_1
  6
CONTINUOUS
 10
2.565154
 20
-3.829787
  0
SEQEND
  8
0
  0
POLYLINE
  8
PLAN_1
  6
CONTINUOUS
 66
     1
 40
0.008457
 41
0.008457
  0
VERTEX
  8
PLAN_1
  6
CONTINUOUS
 10
-0.030819
 20
2.678055
  0
VERTEX
  8
PLAN_1
  6
CONTINUOUS
 10
-0.030819
 20
2.973571
  0
VERTEX
  8
PLAN_1
  6
CONTINUOUS
 10
-0.055693
 20
2.973571
  0
VERTEX
  8
PLAN_1
  6
CONTINUOUS
 10
-0.055693
 20
2.678055
  0
VERTEX
  8
PLAN_1
  6
CONTINUOUS
 10
-0.030819
 20
2.678055
  0
SEQEND
  8
0
  0
POLYLINE
  8
PLAN_1
  6
CONTINUOUS
 66
     1
 40
0.008457
 41
0.008457
  0
VERTEX
  8
PLAN_1
  6
CONTINUOUS
 10
-0.030819
 20
-0.001000
  0
VERTEX
  8
PLAN_1
  6
CONTINUOUS
 10
-0.030819
 20
0.295012
  0
VERTEX
  8
PLAN_1
  6
CONTINUOUS
 10
-0.055693
 20
0.295012
  0
VERTEX
  8
PLAN_1
  6
CONTINUOUS
 10
-0.055693
 20
-0.001000
  0
VERTEX
  8
PLAN_1
  6
CONTINUOUS
 10
-0.030819
 20
-0.001000
  0
SEQEND
  8
0
  0
POLYLINE
  8
PLAN_1
  6
CONTINUOUS
 66
     1
 40
0.008457
 41
0.008457
  0
VERTEX
  8
PLAN_1
  6
CONTINUOUS
 10
-1.676559
 20
0.055713
  0
VERTEX
  8
PLAN_1
  6
CONTINUOUS
 10
-1.676559
 20
0.307449
  0
VERTEX
  8
PLAN_1
  6
CONTINUOUS
 10
-1.772579
 20
0.307449
  0
VERTEX
  8
PLAN_1
  6
CONTINUOUS
 10
-1.772579
 20
0.055713
  0
VERTEX
  8
PLAN_1
  6
CONTINUOUS
 10
-1.676559
 20
0.055713
  0
SEQEND
  8
0
  0
POLYLINE
  8
PLAN_1
  6
CONTINUOUS
 66
     1
 40
0.008457
 41
0.008457
  0
VERTEX
  8
PLAN_1
  6
CONTINUOUS
 10
-1.720839
 20
0.078102
  0
VERTEX
  8
PLAN_1
  6
CONTINUOUS
 10
-1.720839
 20
0.100488
  0
VERTEX
  8
PLAN_1
  6
CONTINUOUS
 10
-1.772579
 20
0.100488
  0
VERTEX
  8
PLAN_1
  6
CONTINUOUS
 10
-1.772579
 20
0.078102
  0
VERTEX
  8
PLAN_1
  6
CONTINUOUS
 10
-1.720839
 20
0.078102
  0
SEQEND
  8
0
  0
POLYLINE
  8
PLAN_1
  6
CONTINUOUS
 66
     1
 40
0.008457
 41
0.008457
  0
VERTEX
  8
PLAN_1
  6
CONTINUOUS
 10
-1.676559
 20
2.923819
  0
VERTEX
  8
PLAN_1
  6
CONTINUOUS
 10
-1.676559
 20
2.672583
  0
VERTEX
  8
PLAN_1
  6
CONTINUOUS
 10
-1.772579
 20
2.672583
  0
VERTEX
  8
PLAN_1
  6
CONTINUOUS
 10
-1.772579
 20
2.923819
  0
VERTEX
  8
PLAN_1
  6
CONTINUOUS
 10
-1.676559
 20
2.923819
  0
SEQEND
  8
0
  0
POLYLINE
  8
PLAN_1
  6
CONTINUOUS
 66
     1
 40
0.008457
 41
0.008457
  0
VERTEX
  8
PLAN_1
  6
CONTINUOUS
 10
-1.720839
 20
2.901929
  0
VERTEX
  8
PLAN_1
  6
CONTINUOUS
 10
-1.720839
 20
2.879543
  0
VERTEX
  8
PLAN_1
  6
CONTINUOUS
 10
-1.772579
 20
2.879543
  0
VERTEX
  8
PLAN_1
  6
CONTINUOUS
 10
-1.772579
 20
2.901929
  0
VERTEX
  8
PLAN_1
  6
CONTINUOUS
 10
-1.720839
 20
2.901929
  0
SEQEND
  8
0
  0
POLYLINE
  8
PLAN_1
  6
CONTINUOUS
 66
     1
 40
0.008457
 41
0.008457
  0
VERTEX
  8
PLAN_1
  6
CONTINUOUS
 10
-2.259634
 20
3.432268
  0
VERTEX
  8
PLAN_1
  6
CONTINUOUS
 10
-2.280528
 20
3.446201
  0
VERTEX
  8
PLAN_1
  6
CONTINUOUS
 10
-2.280528
 20
3.667587
  0
VERTEX
  8
PLAN_1
  6
CONTINUOUS
 10
-2.259634
 20
3.683012
  0
VERTEX
  8
PLAN_1
  6
CONTINUOUS
 10
-1.780039
 20
3.684004
  0
VERTEX
  8
PLAN_1
  6
CONTINUOUS
 10
-1.780039
 20
3.432268
  0
VERTEX
  8
PLAN_1
  6
CONTINUOUS
 10
-2.259634
 20
3.432268
  0
SEQEND
  8
0
  0
POLYLINE
  8
PLAN_1
  6
CONTINUOUS
 66
     1
 40
0.008457
 41
0.008457
  0
VERTEX
  8
PLAN_1
  6
CONTINUOUS
 10
-2.279531
 20
3.668583
  0
VERTEX
  8
PLAN_1
  6
CONTINUOUS
 10
-1.782528
 20
3.668583
  0
SEQEND
  8
0
  0
POLYLINE
  8
PLAN_1
  6
CONTINUOUS
 66
     1
 40
0.006965
 41
0.006965
  0
VERTEX
  8
PLAN_1
  6
CONTINUOUS
 10
-2.259634
 20
3.684004
  0
VERTEX
  8
PLAN_1
  6
CONTINUOUS
 10
-2.259634
 20
3.432268
  0
SEQEND
  8
0
  0
POLYLINE
  8
PLAN_1
  6
CONTINUOUS
 66
     1
 40
0.008457
 41
0.008457
  0
VERTEX
  8
PLAN_1
  6
CONTINUOUS
 10
-0.055693
 20
3.980020
  0
VERTEX
  8
PLAN_1
  6
CONTINUOUS
 10
-1.471091
 20
3.980020
  0
VERTEX
  8
PLAN_1
  6
CONTINUOUS
 10
-1.719843
 20
3.940717
  0
VERTEX
  8
PLAN_1
  6
CONTINUOUS
 10
-1.719843
 20
3.888480
  0
VERTEX
  8
PLAN_1
  6
CONTINUOUS
 10
-1.779043
 20
3.886988
  0
VERTEX
  8
PLAN_1
  6
CONTINUOUS
 10
-1.779043
 20
3.239236
  0
VERTEX
  8
PLAN_1
  6
CONTINUOUS
 10
-1.719843
 20
3.238740
  0
VERTEX
  8
PLAN_1
  6
CONTINUOUS
 10
-1.719843
 20
3.192969
  0
VERTEX
  8
PLAN_1
  6
CONTINUOUS
 10
-1.471091
 20
3.155657
  0
VERTEX
  8
PLAN_1
  6
CONTINUOUS
 10
-1.363630
 20
3.155657
  0
VERTEX
  8
PLAN_1
  6
CONTINUOUS
 10
-1.363630
 20
3.006406
  0
VERTEX
  8
PLAN_1
  6
CONTINUOUS
 10
-1.676559
 20
3.006406
  0
VERTEX
  8
PLAN_1
  6
CONTINUOUS
 10
-1.676559
 20
-0.029358
  0
VERTEX
  8
PLAN_1
  6
CONTINUOUS
 10
-0.055693
 20
-0.029358
  0
VERTEX
  8
PLAN_1
  6
CONTINUOUS
 10
-0.055693
 20
3.980020
  0
SEQEND
  8
0
  0
POLYLINE
  8
PLAN_1
  6
CONTINUOUS
 66
     1
 40
0.008457
 41
0.008457
  0
VERTEX
  8
PLAN_1
  6
CONTINUOUS
 10
-1.363630
 20
3.980020
  0
VERTEX
  8
PLAN_1
  6
CONTINUOUS
 10
-1.363630
 20
3.155157
  0
SEQEND
  8
0
  0
POLYLINE
  8
PLAN_1
  6
CONTINUOUS
 66
     1
 40
0.008457
 41
0.008457
  0
VERTEX
  8
PLAN_1
  6
CONTINUOUS
 10
-1.476563
 20
3.980020
  0
VERTEX
  8
PLAN_1
  6
CONTINUOUS
 10
-1.476563
 20
3.156654
  0
SEQEND
  8
0
  0
POLYLINE
  8
PLAN_1
  6
CONTINUOUS
 66
     1
 40
0.008457
 41
0.008457
  0
VERTEX
  8
PLAN_1
  6
CONTINUOUS
 10
-1.719843
 20
3.888480
  0
VERTEX
  8
PLAN_1
  6
CONTINUOUS
 10
-1.719843
 20
3.238740
  0
SEQEND
  8
0
  0
POLYLINE
  8
PLAN_1
  6
CONTINUOUS
 66
     1
 40
0.008457
 41
0.008457
  0
VERTEX
  8
PLAN_1
  6
CONTINUOUS
 10
-2.278539
 20
3.446697
  0
VERTEX
  8
PLAN_1
  6
CONTINUOUS
 10
-1.779543
 20
3.446697
  0
SEQEND
  8
0
  0
POLYLINE
  8
PLAN_1
  6
CONTINUOUS
 66
     1
 40
0.008457
 41
0.008457
  0
VERTEX
  8
PLAN_1
  6
CONTINUOUS
 10
-1.779043
 20
3.338240
  0
VERTEX
  8
PLAN_1
  6
CONTINUOUS
 10
-1.779043
 20
3.782512
  0
VERTEX
  8
PLAN_1
  6
CONTINUOUS
 10
-1.884020
 20
3.782512
  0
VERTEX
  8
PLAN_1
  6
CONTINUOUS
 10
-1.884020
 20
3.338240
  0
VERTEX
  8
PLAN_1
  6
CONTINUOUS
 10
-1.779043
 20
3.338240
  0
SEQEND
  8
0
  0
POLYLINE
  8
PLAN_1
  6
CONTINUOUS
 66
     1
 40
0.006965
 41
0.006965
  0
VERTEX
  8
PLAN_1
  6
CONTINUOUS
 10
-1.883520
 20
3.669079
  0
VERTEX
  8
PLAN_1
  6
CONTINUOUS
 10
-1.782031
 20
3.669079
  0
SEQEND
  8
0
  0
POLYLINE
  8
PLAN_1
  6
CONTINUOUS
 66
     1
 40
0.006965
 41
0.006965
  0
VERTEX
  8
PLAN_1
  6
CONTINUOUS
 10
-1.883520
 20
3.451173
  0
VERTEX
  8
PLAN_1
  6
CONTINUOUS
 10
-1.782031
 20
3.451173
  0
SEQEND
  8
0
  0
POLYLINE
  8
PLAN_1
  6
CONTINUOUS
 66
     1
 40
0.006965
 41
0.006965
  0
VERTEX
  8
PLAN_1
  6
CONTINUOUS
 10
-1.871579
 20
3.782012
  0
VERTEX
  8
PLAN_1
  6
CONTINUOUS
 10
-1.872575
 20
3.779528
  0
VERTEX
  8
PLAN_1
  6
CONTINUOUS
 10
-1.875559
 20
3.772063
  0
VERTEX
  8
PLAN_1
  6
CONTINUOUS
 10
-1.877551
 20
3.767087
  0
VERTEX
  8
PLAN_1
  6
CONTINUOUS
 10
-1.879043
 20
3.761118
  0
VERTEX
  8
PLAN_1
  6
CONTINUOUS
 10
-1.881031
 20
3.754154
  0
VERTEX
  8
PLAN_1
  6
CONTINUOUS
 10
-1.882524
 20
3.746193
  0
VERTEX
  8
PLAN_1
  6
CONTINUOUS
 10
-1.883520
 20
3.738232
  0
VERTEX
  8
PLAN_1
  6
CONTINUOUS
 10
-1.884020
 20
3.729280
  0
VERTEX
  8
PLAN_1
  6
CONTINUOUS
 10
-1.884020
 20
3.719827
  0
VERTEX
  8
PLAN_1
  6
CONTINUOUS
 10
-1.883024
 20
3.709874
  0
VERTEX
  8
PLAN_1
  6
CONTINUOUS
 10
-1.881531
 20
3.699925
  0
VERTEX
  8
PLAN_1
  6
CONTINUOUS
 10
-1.878543
 20
3.689476
  0
VERTEX
  8
PLAN_1
  6
CONTINUOUS
 10
-1.876555
 20
3.684504
  0
VERTEX
  8
PLAN_1
  6
CONTINUOUS
 10
-1.874567
 20
3.679031
  0
VERTEX
  8
PLAN_1
  6
CONTINUOUS
 10
-1.872079
 20
3.674055
  0
VERTEX
  8
PLAN_1
  6
CONTINUOUS
 10
-1.869094
 20
3.668583
  0
VERTEX
  8
PLAN_1
  6
CONTINUOUS
 10
-1.870587
 20
3.664602
  0
VERTEX
  8
PLAN_1
  6
CONTINUOUS
 10
-1.873571
 20
3.653161
  0
VERTEX
  8
PLAN_1
  6
CONTINUOUS
 10
-1.875559
 20
3.644205
  0
VERTEX
  8
PLAN_1
  6
CONTINUOUS
 10
-1.877551
 20
3.634256
  0
VERTEX
  8
PLAN_1
  6
CONTINUOUS
 10
-1.879539
 20
3.622315
  0
VERTEX
  8
PLAN_1
  6
CONTINUOUS
 10
-1.881531
 20
3.608882
  0
VERTEX
  8
PLAN_1
  6
CONTINUOUS
 10
-1.883024
 20
3.593461
  0
VERTEX
  8
PLAN_1
  6
CONTINUOUS
 10
-1.884020
 20
3.577043
  0
VERTEX
  8
PLAN_1
  6
CONTINUOUS
 10
-1.884020
 20
3.559134
  0
VERTEX
  8
PLAN_1
  6
CONTINUOUS
 10
-1.883520
 20
3.540228
  0
VERTEX
  8
PLAN_1
  6
CONTINUOUS
 10
-1.882524
 20
3.519331
  0
VERTEX
  8
PLAN_1
  6
CONTINUOUS
 10
-1.880039
 20
3.497941
  0
VERTEX
  8
PLAN_1
  6
CONTINUOUS
 10
-1.878543
 20
3.486496
  0
VERTEX
  8
PLAN_1
  6
CONTINUOUS
 10
-1.876555
 20
3.475055
  0
VERTEX
  8
PLAN_1
  6
CONTINUOUS
 10
-1.874567
 20
3.463114
  0
VERTEX
  8
PLAN_1
  6
CONTINUOUS
 10
-1.871579
 20
3.451173
  0
VERTEX
  8
PLAN_1
  6
CONTINUOUS
 10
-1.873071
 20
3.448685
  0
VERTEX
  8
PLAN_1
  6
CONTINUOUS
 10
-1.876059
 20
3.441720
  0
VERTEX
  8
PLAN_1
  6
CONTINUOUS
 10
-1.877551
 20
3.436748
  0
VERTEX
  8
PLAN_1
  6
CONTINUOUS
 10
-1.879539
 20
3.430776
  0
VERTEX
  8
PLAN_1
  6
CONTINUOUS
 10
-1.881531
 20
3.423811
  0
VERTEX
  8
PLAN_1
  6
CONTINUOUS
 10
-1.882524
 20
3.416350
  0
VERTEX
  8
PLAN_1
  6
CONTINUOUS
 10
-1.884020
 20
3.407890
  0
VERTEX
  8
PLAN_1
  6
CONTINUOUS
 10
-1.884516
 20
3.399433
  0
VERTEX
  8
PLAN_1
  6
CONTINUOUS
 10
-1.884516
 20
3.389980
  0
VERTEX
  8
PLAN_1
  6
CONTINUOUS
 10
-1.883520
 20
3.380528
  0
VERTEX
  8
PLAN_1
  6
CONTINUOUS
 10
-1.881531
 20
3.370579
  0
VERTEX
  8
PLAN_1
  6
CONTINUOUS
 10
-1.879043
 20
3.360130
  0
VERTEX
  8
PLAN_1
  6
CONTINUOUS
 10
-1.877051
 20
3.355157
  0
VERTEX
  8
PLAN_1
  6
CONTINUOUS
 10
-1.874567
 20
3.349685
  0
VERTEX
  8
PLAN_1
  6
CONTINUOUS
 10
-1.872079
 20
3.344709
  0
VERTEX
  8
PLAN_1
  6
CONTINUOUS
 10
-1.869591
 20
3.339236
  0
SEQEND
  8
0
  0
POLYLINE
  8
PLAN_1
  6
CONTINUOUS
 66
     1
 40
0.008457
 41
0.008457
  0
VERTEX
  8
PLAN_1
  6
CONTINUOUS
 10
-1.602429
 20
3.006406
  0
VERTEX
  8
PLAN_1
  6
CONTINUOUS
 10
-1.602429
 20
-0.029358
  0
SEQEND
  8
0
  0
POLYLINE
  8
PLAN_1
  6
CONTINUOUS
 66
     1
 40
0.008457
 41
0.008457
  0
VERTEX
  8
PLAN_1
  6
CONTINUOUS
 10
-1.521339
 20
3.006406
  0
VERTEX
  8
PLAN_1
  6
CONTINUOUS
 10
-1.521339
 20
-0.029358
  0
SEQEND
  8
0
  0
POLYLINE
  8
PLAN_1
  6
CONTINUOUS
 66
     1
 40
0.008457
 41
0.008457
  0
VERTEX
  8
PLAN_1
  6
CONTINUOUS
 10
-1.517358
 20
0.509437
  0
VERTEX
  8
PLAN_1
  6
CONTINUOUS
 10
-1.362138
 20
0.509437
  0
VERTEX
  8
PLAN_1
  6
CONTINUOUS
 10
-1.362138
 20
-0.030354
  0
SEQEND
  8
0
  0
POLYLINE
  8
PLAN_1
  6
CONTINUOUS
 66
     1
 40
0.008457
 41
0.008457
  0
VERTEX
  8
PLAN_1
  6
CONTINUOUS
 10
-0.055693
 20
3.202921
  0
VERTEX
  8
PLAN_1
  6
CONTINUOUS
 10
-0.367626
 20
3.202921
  0
VERTEX
  8
PLAN_1
  6
CONTINUOUS
 10
-0.367626
 20
3.006406
  0
SEQEND
  8
0
  0
POLYLINE
  8
PLAN_1
  6
CONTINUOUS
 66
     1
 40
0.008457
 41
0.008457
  0
VERTEX
  8
PLAN_1
  6
CONTINUOUS
 10
-1.055177
 20
3.006406
  0
VERTEX
  8
PLAN_1
  6
CONTINUOUS
 10
-1.055177
 20
3.202921
  0
VERTEX
  8
PLAN_1
  6
CONTINUOUS
 10
-1.363630
 20
3.202921
  0
SEQEND
  8
0
  0
POLYLINE
  8
PLAN_1
  6
CONTINUOUS
 66
     1
 40
0.008457
 41
0.008457
  0
VERTEX
  8
PLAN_1
  6
CONTINUOUS
 10
-1.521339
 20
2.433780
  0
VERTEX
  8
PLAN_1
  6
CONTINUOUS
 10
-1.363630
 20
2.433780
  0
VERTEX
  8
PLAN_1
  6
CONTINUOUS
 10
-1.363630
 20
3.006406
  0
VERTEX
  8
PLAN_1
  6
CONTINUOUS
 10
-0.055693
 20
3.006406
  0
SEQEND
  8
0
  0
POLYLINE
  8
PLAN_1
 62
     2
  6
CONTINUOUS
 66
     1
 40
0.003976
 41
0.003976
  0
VERTEX
  8
PLAN_1
 62
     2
  6
CONTINUOUS
 10
-1.332783
 20
-0.265177
  0
VERTEX
  8
PLAN_1
 62
     2
  6
CONTINUOUS
 10
-0.060669
 20
-0.265177
  0
SEQEND
  8
0
  0
SOLID
  8
PLAN_1
 62
     2
 10
-0.030819
 20
-0.265177
 11
-0.090020
 21
-0.249752
 12
-0.030819
 22
-0.265177
 13
-0.090020
 23
-0.281094
  0
POLYLINE
  8
PLAN_1
 62
     2
  6
CONTINUOUS
 66
     1
 40
0.003000
 41
0.003000
  0
VERTEX
  8
PLAN_1
 62
     2
  6
CONTINUOUS
 10
-0.030819
 20
-0.265177
  0
VERTEX
  8
PLAN_1
 62
     2
  6
CONTINUOUS
 10
-0.090020
 20
-0.249752
  0
VERTEX
  8
PLAN_1
 62
     2
  6
CONTINUOUS
 10
-0.090020
 20
-0.281094
  0
VERTEX
  8
PLAN_1
 62
     2
  6
CONTINUOUS
 10
-0.030819
 20
-0.265177
  0
SEQEND
  8
0
  0
SOLID
  8
PLAN_1
 62
     2
 10
-1.362138
 20
-0.265177
 11
-1.303433
 21
-0.249752
 12
-1.362138
 22
-0.265177
 13
-1.303433
 23
-0.281094
  0
POLYLINE
  8
PLAN_1
 62
     2
  6
CONTINUOUS
 66
     1
 40
0.003000
 41
0.003000
  0
VERTEX
  8
PLAN_1
 62
     2
  6
CONTINUOUS
 10
-1.362138
 20
-0.265177
  0
VERTEX
  8
PLAN_1
 62
     2
  6
CONTINUOUS
 10
-1.303433
 20
-0.249752
  0
VERTEX
  8
PLAN_1
 62
     2
  6
CONTINUOUS
 10
-1.303433
 20
-0.281094
  0
VERTEX
  8
PLAN_1
 62
     2
  6
CONTINUOUS
 10
-1.362138
 20
-0.265177
  0
SEQEND
  8
0
  0
POLYLINE
  8
PLAN_1
 62
     2
  6
CONTINUOUS
 66
     1
 40
0.003000
 41
0.003000
  0
VERTEX
  8
PLAN_1
 62
     2
  6
CONTINUOUS
 10
-0.774587
 20
-0.200004
  0
VERTEX
  8
PLAN_1
 62
     2
  6
CONTINUOUS
 10
-0.774087
 20
-0.200004
  0
VERTEX
  8
PLAN_1
 62
     2
  6
CONTINUOUS
 10
-0.773591
 20
-0.200004
  0
VERTEX
  8
PLAN_1
 62
     2
  6
CONTINUOUS
 10
-0.772594
 20
-0.200004
  0
VERTEX
  8
PLAN_1
 62
     2
  6
CONTINUOUS
 10
-0.772098
 20
-0.200500
  0
VERTEX
  8
PLAN_1
 62
     2
  6
CONTINUOUS
 10
-0.771598
 20
-0.200500
  0
VERTEX
  8
PLAN_1
 62
     2
  6
CONTINUOUS
 10
-0.771102
 20
-0.200500
  0
VERTEX
  8
PLAN_1
 62
     2
  6
CONTINUOUS
 10
-0.770606
 20
-0.200500
  0
VERTEX
  8
PLAN_1
 62
     2
  6
CONTINUOUS
 10
-0.769610
 20
-0.200500
  0
VERTEX
  8
PLAN_1
 62
     2
  6
CONTINUOUS
 10
-0.767122
 20
-0.200004
  0
VERTEX
  8
PLAN_1
 62
     2
  6
CONTINUOUS
 10
-0.764634
 20
-0.199504
  0
VERTEX
  8
PLAN_1
 62
     2
  6
CONTINUOUS
 10
-0.762150
 20
-0.199008
  0
VERTEX
  8
PLAN_1
 62
     2
  6
CONTINUOUS
 10
-0.760157
 20
-0.198012
  0
VERTEX
  8
PLAN_1
 62
     2
  6
CONTINUOUS
 10
-0.758169
 20
-0.196024
  0
VERTEX
  8
PLAN_1
 62
     2
  6
CONTINUOUS
 10
-0.757173
 20
-0.194031
  0
VERTEX
  8
PLAN_1
 62
     2
  6
CONTINUOUS
 10
-0.756177
 20
-0.191547
  0
VERTEX
  8
PLAN_1
 62
     2
  6
CONTINUOUS
 10
-0.755681
 20
-0.188559
  0
VERTEX
  8
PLAN_1
 62
     2
  6
CONTINUOUS
 10
-0.756177
 20
-0.186571
  0
VERTEX
  8
PLAN_1
 62
     2
  6
CONTINUOUS
 10
-0.756673
 20
-0.184579
  0
VERTEX
  8
PLAN_1
 62
     2
  6
CONTINUOUS
 10
-0.757173
 20
-0.182591
  0
VERTEX
  8
PLAN_1
 62
     2
  6
CONTINUOUS
 10
-0.758665
 20
-0.181098
  0
VERTEX
  8
PLAN_1
 62
     2
  6
CONTINUOUS
 10
-0.760157
 20
-0.179106
  0
VERTEX
  8
PLAN_1
 62
     2
  6
CONTINUOUS
 10
-0.762646
 20
-0.178114
  0
VERTEX
  8
PLAN_1
 62
     2
  6
CONTINUOUS
 10
-0.765630
 20
-0.177118
  0
VERTEX
  8
PLAN_1
 62
     2
  6
CONTINUOUS
 10
-0.769610
 20
-0.176622
  0
VERTEX
  8
PLAN_1
 62
     2
  6
CONTINUOUS
 10
-0.771598
 20
-0.177118
  0
VERTEX
  8
PLAN_1
 62
     2
  6
CONTINUOUS
 10
-0.773591
 20
-0.177118
  0
VERTEX
  8
PLAN_1
 62
     2
  6
CONTINUOUS
 10
-0.775579
 20
-0.177614
  0
VERTEX
  8
PLAN_1
 62
     2
  6
CONTINUOUS
 10
-0.777071
 20
-0.178610
  0
VERTEX
  8
PLAN_1
 62
     2
  6
CONTINUOUS
 10
-0.779559
 20
-0.180602
  0
VERTEX
  8
PLAN_1
 62
     2
  6
CONTINUOUS
 10
-0.781051
 20
-0.182591
  0
VERTEX
  8
PLAN_1
 62
     2
  6
CONTINUOUS
 10
-0.782547
 20
-0.185079
  0
VERTEX
  8
PLAN_1
 62
     2
  6
CONTINUOUS
 10
-0.783043
 20
-0.188063
  0
VERTEX
  8
PLAN_1
 62
     2
  6
CONTINUOUS
 10
-0.783539
 20
-0.190551
  0
VERTEX
  8
PLAN_1
 62
     2
  6
CONTINUOUS
 10
-0.783539
 20
-0.192539
  0
VERTEX
  8
PLAN_1
 62
     2
  6
CONTINUOUS
 10
-0.792496
 20
-0.192539
  0
VERTEX
  8
PLAN_1
 62
     2
  6
CONTINUOUS
 10
-0.792496
 20
-0.188559
  0
VERTEX
  8
PLAN_1
 62
     2
  6
CONTINUOUS
 10
-0.791500
 20
-0.184083
  0
VERTEX
  8
PLAN_1
 62
     2
  6
CONTINUOUS
 10
-0.790008
 20
-0.180102
  0
VERTEX
  8
PLAN_1
 62
     2
  6
CONTINUOUS
 10
-0.788020
 20
-0.176622
  0
VERTEX
  8
PLAN_1
 62
     2
  6
CONTINUOUS
 10
-0.786524
 20
-0.174630
  0
VERTEX
  8
PLAN_1
 62
     2
  6
CONTINUOUS
 10
-0.785031
 20
-0.173138
  0
VERTEX
  8
PLAN_1
 62
     2
  6
CONTINUOUS
 10
-0.783043
 20
-0.172142
  0
VERTEX
  8
PLAN_1
 62
     2
  6
CONTINUOUS
 10
-0.780555
 20
-0.170650
  0
VERTEX
  8
PLAN_1
 62
     2
  6
CONTINUOUS
 10
-0.778067
 20
-0.169657
  0
VERTEX
  8
PLAN_1
 62
     2
  6
CONTINUOUS
 10
-0.775579
 20
-0.169157
  0
VERTEX
  8
PLAN_1
 62
     2
  6
CONTINUOUS
 10
-0.772594
 20
-0.168661
  0
VERTEX
  8
PLAN_1
 62
     2
  6
CONTINUOUS
 10
-0.769114
 20
-0.168661
  0
VERTEX
  8
PLAN_1
 62
     2
  6
CONTINUOUS
 10
-0.764138
 20
-0.169157
  0
VERTEX
  8
PLAN_1
 62
     2
  6
CONTINUOUS
 10
-0.759661
 20
-0.170154
  0
VERTEX
  8
PLAN_1
 62
     2
  6
CONTINUOUS
 10
-0.755681
 20
-0.171646
  0
VERTEX
  8
PLAN_1
 62
     2
  6
CONTINUOUS
 10
-0.752197
 20
-0.174134
  0
VERTEX
  8
PLAN_1
 62
     2
  6
CONTINUOUS
 10
-0.749709
 20
-0.176622
  0
VERTEX
  8
PLAN_1
 62
     2
  6
CONTINUOUS
 10
-0.747720
 20
-0.180102
  0
VERTEX
  8
PLAN_1
 62
     2
  6
CONTINUOUS
 10
-0.746724
 20
-0.183587
  0
VERTEX
  8
PLAN_1
 62
     2
  6
CONTINUOUS
 10
-0.746228
 20
-0.188063
  0
VERTEX
  8
PLAN_1
 62
     2
  6
CONTINUOUS
 10
-0.746724
 20
-0.191047
  0
VERTEX
  8
PLAN_1
 62
     2
  6
CONTINUOUS
 10
-0.747224
 20
-0.194031
  0
VERTEX
  8
PLAN_1
 62
     2
  6
CONTINUOUS
 10
-0.748217
 20
-0.196520
  0
VERTEX
  8
PLAN_1
 62
     2
  6
CONTINUOUS
 10
-0.749709
 20
-0.198512
  0
VERTEX
  8
PLAN_1
 62
     2
  6
CONTINUOUS
 10
-0.751201
 20
-0.200004
  0
VERTEX
  8
PLAN_1
 62
     2
  6
CONTINUOUS
 10
-0.752697
 20
-0.201496
  0
VERTEX
  8
PLAN_1
 62
     2
  6
CONTINUOUS
 10
-0.754189
 20
-0.202492
  0
VERTEX
  8
PLAN_1
 62
     2
  6
CONTINUOUS
 10
-0.755681
 20
-0.202988
  0
VERTEX
  8
PLAN_1
 62
     2
  6
CONTINUOUS
 10
-0.753193
 20
-0.203984
  0
VERTEX
  8
PLAN_1
 62
     2
  6
CONTINUOUS
 10
-0.750705
 20
-0.205476
  0
VERTEX
  8
PLAN_1
 62
     2
  6
CONTINUOUS
 10
-0.748717
 20
-0.206969
  0
VERTEX
  8
PLAN_1
 62
     2
  6
CONTINUOUS
 10
-0.747224
 20
-0.208957
  0
VERTEX
  8
PLAN_1
 62
     2
  6
CONTINUOUS
 10
-0.745728
 20
-0.210949
  0
VERTEX
  8
PLAN_1
 62
     2
  6
CONTINUOUS
 10
-0.744736
 20
-0.213933
  0
VERTEX
  8
PLAN_1
 62
     2
  6
CONTINUOUS
 10
-0.743740
 20
-0.216917
  0
VERTEX
  8
PLAN_1
 62
     2
  6
CONTINUOUS
 10
-0.743740
 20
-0.220402
  0
VERTEX
  8
PLAN_1
 62
     2
  6
CONTINUOUS
 10
-0.743740
 20
-0.224878
  0
VERTEX
  8
PLAN_1
 62
     2
  6
CONTINUOUS
 10
-0.745232
 20
-0.228858
  0
VERTEX
  8
PLAN_1
 62
     2
  6
CONTINUOUS
 10
-0.747224
 20
-0.232839
  0
VERTEX
  8
PLAN_1
 62
     2
  6
CONTINUOUS
 10
-0.749709
 20
-0.236323
  0
VERTEX
  8
PLAN_1
 62
     2
  6
CONTINUOUS
 10
-0.751701
 20
-0.237815
  0
VERTEX
  8
PLAN_1
 62
     2
  6
CONTINUOUS
 10
-0.753193
 20
-0.239307
  0
VERTEX
  8
PLAN_1
 62
     2
  6
CONTINUOUS
 10
-0.755681
 20
-0.240799
  0
VERTEX
  8
PLAN_1
 62
     2
  6
CONTINUOUS
 10
-0.758169
 20
-0.241795
  0
VERTEX
  8
PLAN_1
 62
     2
  6
CONTINUOUS
 10
-0.760654
 20
-0.242787
  0
VERTEX
  8
PLAN_1
 62
     2
  6
CONTINUOUS
 10
-0.763642
 20
-0.243287
  0
VERTEX
  8
PLAN_1
 62
     2
  6
CONTINUOUS
 10
-0.766626
 20
-0.243783
  0
VERTEX
  8
PLAN_1
 62
     2
  6
CONTINUOUS
 10
-0.770106
 20
-0.243783
  0
VERTEX
  8
PLAN_1
 62
     2
  6
CONTINUOUS
 10
-0.772098
 20
-0.243783
  0
VERTEX
  8
PLAN_1
 62
     2
  6
CONTINUOUS
 10
-0.773591
 20
-0.243287
  0
VERTEX
  8
PLAN_1
 62
     2
  6
CONTINUOUS
 10
-0.775579
 20
-0.243287
  0
VERTEX
  8
PLAN_1
 62
     2
  6
CONTINUOUS
 10
-0.777571
 20
-0.242787
  0
VERTEX
  8
PLAN_1
 62
     2
  6
CONTINUOUS
 10
-0.779063
 20
-0.242291
  0
VERTEX
  8
PLAN_1
 62
     2
  6
CONTINUOUS
 10
-0.780555
 20
-0.241795
  0
VERTEX
  8
PLAN_1
 62
     2
  6
CONTINUOUS
 10
-0.782047
 20
-0.241295
  0
VERTEX
  8
PLAN_1
 62
     2
  6
CONTINUOUS
 10
-0.783539
 20
-0.240299
  0
VERTEX
  8
PLAN_1
 62
     2
  6
CONTINUOUS
 10
-0.786028
 20
-0.238807
  0
VERTEX
  8
PLAN_1
 62
     2
  6
CONTINUOUS
 10
-0.788516
 20
-0.236323
  0
VERTEX
  8
PLAN_1
 62
     2
  6
CONTINUOUS
 10
-0.790504
 20
-0.234331
  0
VERTEX
  8
PLAN_1
 62
     2
  6
CONTINUOUS
 10
-0.791500
 20
-0.231346
  0
VERTEX
  8
PLAN_1
 62
     2
  6
CONTINUOUS
 10
-0.792992
 20
-0.228858
  0
VERTEX
  8
PLAN_1
 62
     2
  6
CONTINUOUS
 10
-0.793492
 20
-0.225374
  0
VERTEX
  8
PLAN_1
 62
     2
  6
CONTINUOUS
 10
-0.793988
 20
-0.222390
  0
VERTEX
  8
PLAN_1
 62
     2
  6
CONTINUOUS
 10
-0.794484
 20
-0.219406
  0
VERTEX
  8
PLAN_1
 62
     2
  6
CONTINUOUS
 10
-0.785031
 20
-0.219406
  0
VERTEX
  8
PLAN_1
 62
     2
  6
CONTINUOUS
 10
-0.784535
 20
-0.221894
  0
VERTEX
  8
PLAN_1
 62
     2
  6
CONTINUOUS
 10
-0.784039
 20
-0.224878
  0
VERTEX
  8
PLAN_1
 62
     2
  6
CONTINUOUS
 10
-0.783539
 20
-0.227366
  0
VERTEX
  8
PLAN_1
 62
     2
  6
CONTINUOUS
 10
-0.782047
 20
-0.229854
  0
VERTEX
  8
PLAN_1
 62
     2
  6
CONTINUOUS
 10
-0.780059
 20
-0.232343
  0
VERTEX
  8
PLAN_1
 62
     2
  6
CONTINUOUS
 10
-0.777571
 20
-0.233835
  0
VERTEX
  8
PLAN_1
 62
     2
  6
CONTINUOUS
 10
-0.774087
 20
-0.235327
  0
VERTEX
  8
PLAN_1
 62
     2
  6
CONTINUOUS
 10
-0.769114
 20
-0.235327
  0
VERTEX
  8
PLAN_1
 62
     2
  6
CONTINUOUS
 10
-0.766126
 20
-0.235327
  0
VERTEX
  8
PLAN_1
 62
     2
  6
CONTINUOUS
 10
-0.762646
 20
-0.234331
  0
VERTEX
  8
PLAN_1
 62
     2
  6
CONTINUOUS
 10
-0.760157
 20
-0.233335
  0
VERTEX
  8
PLAN_1
 62
     2
  6
CONTINUOUS
 10
-0.757669
 20
-0.231346
  0
VERTEX
  8
PLAN_1
 62
     2
  6
CONTINUOUS
 10
-0.756177
 20
-0.229354
  0
VERTEX
  8
PLAN_1
 62
     2
  6
CONTINUOUS
 10
-0.754685
 20
-0.226870
  0
VERTEX
  8
PLAN_1
 62
     2
  6
CONTINUOUS
 10
-0.753689
 20
-0.224382
  0
VERTEX
  8
PLAN_1
 62
     2
  6
CONTINUOUS
 10
-0.753193
 20
-0.221398
  0
VERTEX
  8
PLAN_1
 62
     2
  6
CONTINUOUS
 10
-0.753689
 20
-0.219406
  0
VERTEX
  8
PLAN_1
 62
     2
  6
CONTINUOUS
 10
-0.753689
 20
-0.217417
  0
VERTEX
  8
PLAN_1
 62
     2
  6
CONTINUOUS
 10
-0.754189
 20
-0.215425
  0
VERTEX
  8
PLAN_1
 62
     2
  6
CONTINUOUS
 10
-0.755181
 20
-0.213933
  0
VERTEX
  8
PLAN_1
 62
     2
  6
CONTINUOUS
 10
-0.757173
 20
-0.211945
  0
VERTEX
  8
PLAN_1
 62
     2
  6
CONTINUOUS
 10
-0.759661
 20
-0.209953
  0
VERTEX
  8
PLAN_1
 62
     2
  6
CONTINUOUS
 10
-0.762150
 20
-0.208957
  0
VERTEX
  8
PLAN_1
 62
     2
  6
CONTINUOUS
 10
-0.765134
 20
-0.208461
  0
VERTEX
  8
PLAN_1
 62
     2
  6
CONTINUOUS
 10
-0.768118
 20
-0.207965
  0
VERTEX
  8
PLAN_1
 62
     2
  6
CONTINUOUS
 10
-0.770606
 20
-0.207965
  0
VERTEX
  8
PLAN_1
 62
     2
  6
CONTINUOUS
 10
-0.771102
 20
-0.207965
  0
VERTEX
  8
PLAN_1
 62
     2
  6
CONTINUOUS
 10
-0.771598
 20
-0.207965
  0
VERTEX
  8
PLAN_1
 62
     2
  6
CONTINUOUS
 10
-0.772098
 20
-0.207965
  0
VERTEX
  8
PLAN_1
 62
     2
  6
CONTINUOUS
 10
-0.772594
 20
-0.207965
  0
VERTEX
  8
PLAN_1
 62
     2
  6
CONTINUOUS
 10
-0.773094
 20
-0.207965
  0
VERTEX
  8
PLAN_1
 62
     2
  6
CONTINUOUS
 10
-0.773591
 20
-0.207965
  0
VERTEX
  8
PLAN_1
 62
     2
  6
CONTINUOUS
 10
-0.774087
 20
-0.207965
  0
VERTEX
  8
PLAN_1
 62
     2
  6
CONTINUOUS
 10
-0.774587
 20
-0.207965
  0
VERTEX
  8
PLAN_1
 62
     2
  6
CONTINUOUS
 10
-0.774587
 20
-0.200004
  0
SEQEND
  8
0
  0
POLYLINE
  8
PLAN_1
 62
     2
  6
CONTINUOUS
 66
     1
 40
0.003000
 41
0.003000
  0
VERTEX
  8
PLAN_1
 62
     2
  6
CONTINUOUS
 10
-0.716874
 20
-0.200004
  0
VERTEX
  8
PLAN_1
 62
     2
  6
CONTINUOUS
 10
-0.715878
 20
-0.200004
  0
VERTEX
  8
PLAN_1
 62
     2
  6
CONTINUOUS
 10
-0.715382
 20
-0.200004
  0
VERTEX
  8
PLAN_1
 62
     2
  6
CONTINUOUS
 10
-0.714886
 20
-0.200004
  0
VERTEX
  8
PLAN_1
 62
     2
  6
CONTINUOUS
 10
-0.714386
 20
-0.200500
  0
VERTEX
  8
PLAN_1
 62
     2
  6
CONTINUOUS
 10
-0.713890
 20
-0.200500
  0
VERTEX
  8
PLAN_1
 62
     2
  6
CONTINUOUS
 10
-0.712894
 20
-0.200500
  0
VERTEX
  8
PLAN_1
 62
     2
  6
CONTINUOUS
 10
-0.712398
 20
-0.200500
  0
VERTEX
  8
PLAN_1
 62
     2
  6
CONTINUOUS
 10
-0.711902
 20
-0.200500
  0
VERTEX
  8
PLAN_1
 62
     2
  6
CONTINUOUS
 10
-0.709413
 20
-0.200004
  0
VERTEX
  8
PLAN_1
 62
     2
  6
CONTINUOUS
 10
-0.706925
 20
-0.199504
  0
VERTEX
  8
PLAN_1
 62
     2
  6
CONTINUOUS
 10
-0.704437
 20
-0.199008
  0
VERTEX
  8
PLAN_1
 62
     2
  6
CONTINUOUS
 10
-0.702449
 20
-0.198012
  0
VERTEX
  8
PLAN_1
 62
     2
  6
CONTINUOUS
 10
-0.700457
 20
-0.196024
  0
VERTEX
  8
PLAN_1
 62
     2
  6
CONTINUOUS
 10
-0.698965
 20
-0.194031
  0
VERTEX
  8
PLAN_1
 62
     2
  6
CONTINUOUS
 10
-0.698469
 20
-0.191547
  0
VERTEX
  8
PLAN_1
 62
     2
  6
CONTINUOUS
 10
-0.697969
 20
-0.188559
  0
VERTEX
  8
PLAN_1
 62
     2
  6
CONTINUOUS
 10
-0.697969
 20
-0.186571
  0
VERTEX
  8
PLAN_1
 62
     2
  6
CONTINUOUS
 10
-0.698469
 20
-0.184579
  0
VERTEX
  8
PLAN_1
 62
     2
  6
CONTINUOUS
 10
-0.699461
 20
-0.182591
  0
VERTEX
  8
PLAN_1
 62
     2
  6
CONTINUOUS
 10
-0.700457
 20
-0.181098
  0
VERTEX
  8
PLAN_1
 62
     2
  6
CONTINUOUS
 10
-0.702449
 20
-0.179106
  0
VERTEX
  8
PLAN_1
 62
     2
  6
CONTINUOUS
 10
-0.704933
 20
-0.178114
  0
VERTEX
  8
PLAN_1
 62
     2
  6
CONTINUOUS
 10
-0.707921
 20
-0.177118
  0
VERTEX
  8
PLAN_1
 62
     2
  6
CONTINUOUS
 10
-0.711402
 20
-0.176622
  0
VERTEX
  8
PLAN_1
 62
     2
  6
CONTINUOUS
 10
-0.713890
 20
-0.177118
  0
VERTEX
  8
PLAN_1
 62
     2
  6
CONTINUOUS
 10
-0.715878
 20
-0.177118
  0
VERTEX
  8
PLAN_1
 62
     2
  6
CONTINUOUS
 10
-0.717374
 20
-0.177614
  0
VERTEX
  8
PLAN_1
 62
     2
  6
CONTINUOUS
 10
-0.719362
 20
-0.178610
  0
VERTEX
  8
PLAN_1
 62
     2
  6
CONTINUOUS
 10
-0.721850
 20
-0.180602
  0
VERTEX
  8
PLAN_1
 62
     2
  6
CONTINUOUS
 10
-0.723343
 20
-0.182591
  0
VERTEX
  8
PLAN_1
 62
     2
  6
CONTINUOUS
 10
-0.724339
 20
-0.185079
  0
VERTEX
  8
PLAN_1
 62
     2
  6
CONTINUOUS
 10
-0.725331
 20
-0.188063
  0
VERTEX
  8
PLAN_1
 62
     2
  6
CONTINUOUS
 10
-0.725331
 20
-0.190551
  0
VERTEX
  8
PLAN_1
 62
     2
  6
CONTINUOUS
 10
-0.725831
 20
-0.192539
  0
VERTEX
  8
PLAN_1
 62
     2
  6
CONTINUOUS
 10
-0.734783
 20
-0.192539
  0
VERTEX
  8
PLAN_1
 62
     2
  6
CONTINUOUS
 10
-0.734287
 20
-0.188559
  0
VERTEX
  8
PLAN_1
 62
     2
  6
CONTINUOUS
 10
-0.733791
 20
-0.184083
  0
VERTEX
  8
PLAN_1
 62
     2
  6
CONTINUOUS
 10
-0.732299
 20
-0.180102
  0
VERTEX
  8
PLAN_1
 62
     2
  6
CONTINUOUS
 10
-0.730307
 20
-0.176622
  0
VERTEX
  8
PLAN_1
 62
     2
  6
CONTINUOUS
 10
-0.728815
 20
-0.174630
  0
VERTEX
  8
PLAN_1
 62
     2
  6
CONTINUOUS
 10
-0.726827
 20
-0.173138
  0
VERTEX
  8
PLAN_1
 62
     2
  6
CONTINUOUS
 10
-0.725331
 20
-0.172142
  0
VERTEX
  8
PLAN_1
 62
     2
  6
CONTINUOUS
 10
-0.722846
 20
-0.170650
  0
VERTEX
  8
PLAN_1
 62
     2
  6
CONTINUOUS
 10
-0.720358
 20
-0.169657
  0
VERTEX
  8
PLAN_1
 62
     2
  6
CONTINUOUS
 10
-0.717870
 20
-0.169157
  0
VERTEX
  8
PLAN_1
 62
     2
  6
CONTINUOUS
 10
-0.714386
 20
-0.168661
  0
VERTEX
  8
PLAN_1
 62
     2
  6
CONTINUOUS
 10
-0.710906
 20
-0.168661
  0
VERTEX
  8
PLAN_1
 62
     2
  6
CONTINUOUS
 10
-0.705929
 20
-0.169157
  0
VERTEX
  8
PLAN_1
 62
     2
  6
CONTINUOUS
 10
-0.701453
 20
-0.170154
  0
VERTEX
  8
PLAN_1
 62
     2
  6
CONTINUOUS
 10
-0.697969
 20
-0.171646
  0
VERTEX
  8
PLAN_1
 62
     2
  6
CONTINUOUS
 10
-0.694488
 20
-0.174134
  0
VERTEX
  8
PLAN_1
 62
     2
  6
CONTINUOUS
 10
-0.692000
 20
-0.176622
  0
VERTEX
  8
PLAN_1
 62
     2
  6
CONTINUOUS
 10
-0.690008
 20
-0.180102
  0
VERTEX
  8
PLAN_1
 62
     2
  6
CONTINUOUS
 10
-0.689016
 20
-0.183587
  0
VERTEX
  8
PLAN_1
 62
     2
  6
CONTINUOUS
 10
-0.688516
 20
-0.188063
  0
VERTEX
  8
PLAN_1
 62
     2
  6
CONTINUOUS
 10
-0.688516
 20
-0.191047
  0
VERTEX
  8
PLAN_1
 62
     2
  6
CONTINUOUS
 10
-0.689512
 20
-0.194031
  0
VERTEX
  8
PLAN_1
 62
     2
  6
CONTINUOUS
 10
-0.690508
 20
-0.196520
  0
VERTEX
  8
PLAN_1
 62
     2
  6
CONTINUOUS
 10
-0.691504
 20
-0.198512
  0
VERTEX
  8
PLAN_1
 62
     2
  6
CONTINUOUS
 10
-0.692996
 20
-0.200004
  0
VERTEX
  8
PLAN_1
 62
     2
  6
CONTINUOUS
 10
-0.694984
 20
-0.201496
  0
VERTEX
  8
PLAN_1
 62
     2
  6
CONTINUOUS
 10
-0.696476
 20
-0.202492
  0
VERTEX
  8
PLAN_1
 62
     2
  6
CONTINUOUS
 10
-0.697969
 20
-0.202988
  0
VERTEX
  8
PLAN_1
 62
     2
  6
CONTINUOUS
 10
-0.695480
 20
-0.203984
  0
VERTEX
  8
PLAN_1
 62
     2
  6
CONTINUOUS
 10
-0.692996
 20
-0.205476
  0
VERTEX
  8
PLAN_1
 62
     2
  6
CONTINUOUS
 10
-0.691004
 20
-0.206969
  0
VERTEX
  8
PLAN_1
 62
     2
  6
CONTINUOUS
 10
-0.689016
 20
-0.208957
  0
VERTEX
  8
PLAN_1
 62
     2
  6
CONTINUOUS
 10
-0.687524
 20
-0.210949
  0
VERTEX
  8
PLAN_1
 62
     2
  6
CONTINUOUS
 10
-0.686528
 20
-0.213933
  0
VERTEX
  8
PLAN_1
 62
     2
  6
CONTINUOUS
 10
-0.686031
 20
-0.216917
  0
VERTEX
  8
PLAN_1
 62
     2
  6
CONTINUOUS
 10
-0.685531
 20
-0.220402
  0
VERTEX
  8
PLAN_1
 62
     2
  6
CONTINUOUS
 10
-0.686031
 20
-0.224878
  0
VERTEX
  8
PLAN_1
 62
     2
  6
CONTINUOUS
 10
-0.687024
 20
-0.228858
  0
VERTEX
  8
PLAN_1
 62
     2
  6
CONTINUOUS
 10
-0.689016
 20
-0.232839
  0
VERTEX
  8
PLAN_1
 62
     2
  6
CONTINUOUS
 10
-0.692000
 20
-0.236323
  0
VERTEX
  8
PLAN_1
 62
     2
  6
CONTINUOUS
 10
-0.693492
 20
-0.237815
  0
VERTEX
  8
PLAN_1
 62
     2
  6
CONTINUOUS
 10
-0.695480
 20
-0.239307
  0
VERTEX
  8
PLAN_1
 62
     2
  6
CONTINUOUS
 10
-0.697472
 20
-0.240799
  0
VERTEX
  8
PLAN_1
 62
     2
  6
CONTINUOUS
 10
-0.699961
 20
-0.241795
  0
VERTEX
  8
PLAN_1
 62
     2
  6
CONTINUOUS
 10
-0.702449
 20
-0.242787
  0
VERTEX
  8
PLAN_1
 62
     2
  6
CONTINUOUS
 10
-0.705433
 20
-0.243287
  0
VERTEX
  8
PLAN_1
 62
     2
  6
CONTINUOUS
 10
-0.708417
 20
-0.243783
  0
VERTEX
  8
PLAN_1
 62
     2
  6
CONTINUOUS
 10
-0.711902
 20
-0.243783
  0
VERTEX
  8
PLAN_1
 62
     2
  6
CONTINUOUS
 10
-0.713890
 20
-0.243783
  0
VERTEX
  8
PLAN_1
 62
     2
  6
CONTINUOUS
 10
-0.715878
 20
-0.243287
  0
VERTEX
  8
PLAN_1
 62
     2
  6
CONTINUOUS
 10
-0.717870
 20
-0.243287
  0
VERTEX
  8
PLAN_1
 62
     2
  6
CONTINUOUS
 10
-0.719362
 20
-0.242787
  0
VERTEX
  8
PLAN_1
 62
     2
  6
CONTINUOUS
 10
-0.721354
 20
-0.242291
  0
VERTEX
  8
PLAN_1
 62
     2
  6
CONTINUOUS
 10
-0.722846
 20
-0.241795
  0
VERTEX
  8
PLAN_1
 62
     2
  6
CONTINUOUS
 10
-0.724339
 20
-0.241295
  0
VERTEX
  8
PLAN_1
 62
     2
  6
CONTINUOUS
 10
-0.725331
 20
-0.240299
  0
VERTEX
  8
PLAN_1
 62
     2
  6
CONTINUOUS
 10
-0.728319
 20
-0.238807
  0
VERTEX
  8
PLAN_1
 62
     2
  6
CONTINUOUS
 10
-0.730803
 20
-0.236323
  0
VERTEX
  8
PLAN_1
 62
     2
  6
CONTINUOUS
 10
-0.732299
 20
-0.234331
  0
VERTEX
  8
PLAN_1
 62
     2
  6
CONTINUOUS
 10
-0.733791
 20
-0.231346
  0
VERTEX
  8
PLAN_1
 62
     2
  6
CONTINUOUS
 10
-0.734783
 20
-0.228858
  0
VERTEX
  8
PLAN_1
 62
     2
  6
CONTINUOUS
 10
-0.735780
 20
-0.225374
  0
VERTEX
  8
PLAN_1
 62
     2
  6
CONTINUOUS
 10
-0.736276
 20
-0.222390
  0
VERTEX
  8
PLAN_1
 62
     2
  6
CONTINUOUS
 10
-0.736276
 20
-0.219406
  0
VERTEX
  8
PLAN_1
 62
     2
  6
CONTINUOUS
 10
-0.726827
 20
-0.219406
  0
VERTEX
  8
PLAN_1
 62
     2
  6
CONTINUOUS
 10
-0.726827
 20
-0.221894
  0
VERTEX
  8
PLAN_1
 62
     2
  6
CONTINUOUS
 10
-0.726327
 20
-0.224878
  0
VERTEX
  8
PLAN_1
 62
     2
  6
CONTINUOUS
 10
-0.725331
 20
-0.227366
  0
VERTEX
  8
PLAN_1
 62
     2
  6
CONTINUOUS
 10
-0.724339
 20
-0.229854
  0
VERTEX
  8
PLAN_1
 62
     2
  6
CONTINUOUS
 10
-0.722346
 20
-0.232343
  0
VERTEX
  8
PLAN_1
 62
     2
  6
CONTINUOUS
 10
-0.719362
 20
-0.233835
  0
VERTEX
  8
PLAN_1
 62
     2
  6
CONTINUOUS
 10
-0.715878
 20
-0.235327
  0
VERTEX
  8
PLAN_1
 62
     2
  6
CONTINUOUS
 10
-0.711402
 20
-0.235327
  0
VERTEX
  8
PLAN_1
 62
     2
  6
CONTINUOUS
 10
-0.707921
 20
-0.235327
  0
VERTEX
  8
PLAN_1
 62
     2
  6
CONTINUOUS
 10
-0.704933
 20
-0.234331
  0
VERTEX
  8
PLAN_1
 62
     2
  6
CONTINUOUS
 10
-0.702449
 20
-0.233335
  0
VERTEX
  8
PLAN_1
 62
     2
  6
CONTINUOUS
 10
-0.699961
 20
-0.231346
  0
VERTEX
  8
PLAN_1
 62
     2
  6
CONTINUOUS
 10
-0.697969
 20
-0.229354
  0
VERTEX
  8
PLAN_1
 62
     2
  6
CONTINUOUS
 10
-0.696476
 20
-0.226870
  0
VERTEX
  8
PLAN_1
 62
     2
  6
CONTINUOUS
 10
-0.695980
 20
-0.224382
  0
VERTEX
  8
PLAN_1
 62
     2
  6
CONTINUOUS
 10
-0.695480
 20
-0.221398
  0
VERTEX
  8
PLAN_1
 62
     2
  6
CONTINUOUS
 10
-0.695480
 20
-0.219406
  0
VERTEX
  8
PLAN_1
 62
     2
  6
CONTINUOUS
 10
-0.695980
 20
-0.217417
  0
VERTEX
  8
PLAN_1
 62
     2
  6
CONTINUOUS
 10
-0.696476
 20
-0.215425
  0
VERTEX
  8
PLAN_1
 62
     2
  6
CONTINUOUS
 10
-0.697472
 20
-0.213933
  0
VERTEX
  8
PLAN_1
 62
     2
  6
CONTINUOUS
 10
-0.699461
 20
-0.211945
  0
VERTEX
  8
PLAN_1
 62
     2
  6
CONTINUOUS
 10
-0.701453
 20
-0.209953
  0
VERTEX
  8
PLAN_1
 62
     2
  6
CONTINUOUS
 10
-0.704437
 20
-0.208957
  0
VERTEX
  8
PLAN_1
 62
     2
  6
CONTINUOUS
 10
-0.707421
 20
-0.208461
  0
VERTEX
  8
PLAN_1
 62
     2
  6
CONTINUOUS
 10
-0.709909
 20
-0.207965
  0
VERTEX
  8
PLAN_1
 62
     2
  6
CONTINUOUS
 10
-0.712398
 20
-0.207965
  0
VERTEX
  8
PLAN_1
 62
     2
  6
CONTINUOUS
 10
-0.712894
 20
-0.207965
  0
VERTEX
  8
PLAN_1
 62
     2
  6
CONTINUOUS
 10
-0.713394
 20
-0.207965
  0
VERTEX
  8
PLAN_1
 62
     2
  6
CONTINUOUS
 10
-0.713890
 20
-0.207965
  0
VERTEX
  8
PLAN_1
 62
     2
  6
CONTINUOUS
 10
-0.714386
 20
-0.207965
  0
VERTEX
  8
PLAN_1
 62
     2
  6
CONTINUOUS
 10
-0.715382
 20
-0.207965
  0
VERTEX
  8
PLAN_1
 62
     2
  6
CONTINUOUS
 10
-0.715878
 20
-0.207965
  0
VERTEX
  8
PLAN_1
 62
     2
  6
CONTINUOUS
 10
-0.716378
 20
-0.207965
  0
VERTEX
  8
PLAN_1
 62
     2
  6
CONTINUOUS
 10
-0.716874
 20
-0.207965
  0
VERTEX
  8
PLAN_1
 62
     2
  6
CONTINUOUS
 10
-0.716874
 20
-0.200004
  0
SEQEND
  8
0
  0
POLYLINE
  8
PLAN_1
 62
     2
  6
CONTINUOUS
 66
     1
 40
0.003000
 41
0.003000
  0
VERTEX
  8
PLAN_1
 62
     2
  6
CONTINUOUS
 10
-0.673094
 20
-0.230850
  0
VERTEX
  8
PLAN_1
 62
     2
  6
CONTINUOUS
 10
-0.662150
 20
-0.230850
  0
VERTEX
  8
PLAN_1
 62
     2
  6
CONTINUOUS
 10
-0.662150
 20
-0.240799
  0
VERTEX
  8
PLAN_1
 62
     2
  6
CONTINUOUS
 10
-0.662646
 20
-0.245772
  0
VERTEX
  8
PLAN_1
 62
     2
  6
CONTINUOUS
 10
-0.663642
 20
-0.249256
  0
VERTEX
  8
PLAN_1
 62
     2
  6
CONTINUOUS
 10
-0.665134
 20
-0.252240
  0
VERTEX
  8
PLAN_1
 62
     2
  6
CONTINUOUS
 10
-0.666626
 20
-0.254232
  0
VERTEX
  8
PLAN_1
 62
     2
  6
CONTINUOUS
 10
-0.668618
 20
-0.255724
  0
VERTEX
  8
PLAN_1
 62
     2
  6
CONTINUOUS
 10
-0.670606
 20
-0.256220
  0
VERTEX
  8
PLAN_1
 62
     2
  6
CONTINUOUS
 10
-0.672098
 20
-0.256720
  0
VERTEX
  8
PLAN_1
 62
     2
  6
CONTINUOUS
 10
-0.673094
 20
-0.257217
  0
VERTEX
  8
PLAN_1
 62
     2
  6
CONTINUOUS
 10
-0.673094
 20
-0.252240
  0
VERTEX
  8
PLAN_1
 62
     2
  6
CONTINUOUS
 10
-0.671602
 20
-0.251744
  0
VERTEX
  8
PLAN_1
 62
     2
  6
CONTINUOUS
 10
-0.670110
 20
-0.251248
  0
VERTEX
  8
PLAN_1
 62
     2
  6
CONTINUOUS
 10
-0.669610
 20
-0.250252
  0
VERTEX
  8
PLAN_1
 62
     2
  6
CONTINUOUS
 10
-0.668618
 20
-0.248760
  0
VERTEX
  8
PLAN_1
 62
     2
  6
CONTINUOUS
 10
-0.668118
 20
-0.247268
  0
VERTEX
  8
PLAN_1
 62
     2
  6
CONTINUOUS
 10
-0.667622
 20
-0.245276
  0
VERTEX
  8
PLAN_1
 62
     2
  6
CONTINUOUS
 10
-0.667622
 20
-0.243783
  0
VERTEX
  8
PLAN_1
 62
     2
  6
CONTINUOUS
 10
-0.667622
 20
-0.241795
  0
VERTEX
  8
PLAN_1
 62
     2
  6
CONTINUOUS
 10
-0.673094
 20
-0.241795
  0
VERTEX
  8
PLAN_1
 62
     2
  6
CONTINUOUS
 10
-0.673094
 20
-0.230850
  0
SEQEND
  8
0
  0
POLYLINE
  8
PLAN_1
 62
     2
  6
CONTINUOUS
 66
     1
 40
0.003000
 41
0.003000
  0
VERTEX
  8
PLAN_1
 62
     2
  6
CONTINUOUS
 10
-0.637772
 20
-0.199008
  0
VERTEX
  8
PLAN_1
 62
     2
  6
CONTINUOUS
 10
-0.636776
 20
-0.198512
  0
VERTEX
  8
PLAN_1
 62
     2
  6
CONTINUOUS
 10
-0.635283
 20
-0.197516
  0
VERTEX
  8
PLAN_1
 62
     2
  6
CONTINUOUS
 10
-0.633791
 20
-0.196520
  0
VERTEX
  8
PLAN_1
 62
     2
  6
CONTINUOUS
 10
-0.632299
 20
-0.196024
  0
VERTEX
  8
PLAN_1
 62
     2
  6
CONTINUOUS
 10
-0.630311
 20
-0.195528
  0
VERTEX
  8
PLAN_1
 62
     2
  6
CONTINUOUS
 10
-0.628319
 20
-0.195028
  0
VERTEX
  8
PLAN_1
 62
     2
  6
CONTINUOUS
 10
-0.626331
 20
-0.194531
  0
VERTEX
  8
PLAN_1
 62
     2
  6
CONTINUOUS
 10
-0.623843
 20
-0.194531
  0
VERTEX
  8
PLAN_1
 62
     2
  6
CONTINUOUS
 10
-0.619366
 20
-0.195028
  0
VERTEX
  8
PLAN_1
 62
     2
  6
CONTINUOUS
 10
-0.614886
 20
-0.196024
  0
VERTEX
  8
PLAN_1
 62
     2
  6
CONTINUOUS
 10
-0.610906
 20
-0.198012
  0
VERTEX
  8
PLAN_1
 62
     2
  6
CONTINUOUS
 10
-0.607425
 20
-0.200500
  0
VERTEX
  8
PLAN_1
 62
     2
  6
CONTINUOUS
 10
-0.603941
 20
-0.203984
  0
VERTEX
  8
PLAN_1
 62
     2
  6
CONTINUOUS
 10
-0.601953
 20
-0.207965
  0
VERTEX
  8
PLAN_1
 62
     2
  6
CONTINUOUS
 10
-0.600957
 20
-0.210453
  0
VERTEX
  8
PLAN_1
 62
     2
  6
CONTINUOUS
 10
-0.600461
 20
-0.212441
  0
VERTEX
  8
PLAN_1
 62
     2
  6
CONTINUOUS
 10
-0.599961
 20
-0.215425
  0
VERTEX
  8
PLAN_1
 62
     2
  6
CONTINUOUS
 10
-0.599465
 20
-0.217913
  0
VERTEX
  8
PLAN_1
 62
     2
  6
CONTINUOUS
 10
-0.599961
 20
-0.221398
  0
VERTEX
  8
PLAN_1
 62
     2
  6
CONTINUOUS
 10
-0.600461
 20
-0.225374
  0
VERTEX
  8
PLAN_1
 62
     2
  6
CONTINUOUS
 10
-0.601953
 20
-0.229854
  0
VERTEX
  8
PLAN_1
 62
     2
  6
CONTINUOUS
 10
-0.604441
 20
-0.233835
  0
VERTEX
  8
PLAN_1
 62
     2
  6
CONTINUOUS
 10
-0.605933
 20
-0.235823
  0
VERTEX
  8
PLAN_1
 62
     2
  6
CONTINUOUS
 10
-0.607921
 20
-0.237815
  0
VERTEX
  8
PLAN_1
 62
     2
  6
CONTINUOUS
 10
-0.609913
 20
-0.239307
  0
VERTEX
  8
PLAN_1
 62
     2
  6
CONTINUOUS
 10
-0.612398
 20
-0.240799
  0
VERTEX
  8
PLAN_1
 62
     2
  6
CONTINUOUS
 10
-0.615386
 20
-0.241795
  0
VERTEX
  8
PLAN_1
 62
     2
  6
CONTINUOUS
 10
-0.618370
 20
-0.242787
  0
VERTEX
  8
PLAN_1
 62
     2
  6
CONTINUOUS
 10
-0.622350
 20
-0.243287
  0
VERTEX
  8
PLAN_1
 62
     2
  6
CONTINUOUS
 10
-0.626331
 20
-0.243783
  0
VERTEX
  8
PLAN_1
 62
     2
  6
CONTINUOUS
 10
-0.629811
 20
-0.243287
  0
VERTEX
  8
PLAN_1
 62
     2
  6
CONTINUOUS
 10
-0.633791
 20
-0.242787
  0
VERTEX
  8
PLAN_1
 62
     2
  6
CONTINUOUS
 10
-0.637276
 20
-0.241795
  0
VERTEX
  8
PLAN_1
 62
     2
  6
CONTINUOUS
 10
-0.640756
 20
-0.239803
  0
VERTEX
  8
PLAN_1
 62
     2
  6
CONTINUOUS
 10
-0.644240
 20
-0.237315
  0
VERTEX
  8
PLAN_1
 62
     2
  6
CONTINUOUS
 10
-0.646728
 20
-0.233335
  0
VERTEX
  8
PLAN_1
 62
     2
  6
CONTINUOUS
 10
-0.647720
 20
-0.231346
  0
VERTEX
  8
PLAN_1
 62
     2
  6
CONTINUOUS
 10
-0.648717
 20
-0.228858
  0
VERTEX
  8
PLAN_1
 62
     2
  6
CONTINUOUS
 10
-0.649213
 20
-0.226370
  0
VERTEX
  8
PLAN_1
 62
     2
  6
CONTINUOUS
 10
-0.649713
 20
-0.223386
  0
VERTEX
  8
PLAN_1
 62
     2
  6
CONTINUOUS
 10
-0.640260
 20
-0.223386
  0
VERTEX
  8
PLAN_1
 62
     2
  6
CONTINUOUS
 10
-0.639764
 20
-0.226370
  0
VERTEX
  8
PLAN_1
 62
     2
  6
CONTINUOUS
 10
-0.638768
 20
-0.228858
  0
VERTEX
  8
PLAN_1
 62
     2
  6
CONTINUOUS
 10
-0.637276
 20
-0.231346
  0
VERTEX
  8
PLAN_1
 62
     2
  6
CONTINUOUS
 10
-0.635283
 20
-0.232839
  0
VERTEX
  8
PLAN_1
 62
     2
  6
CONTINUOUS
 10
-0.633295
 20
-0.234331
  0
VERTEX
  8
PLAN_1
 62
     2
  6
CONTINUOUS
 10
-0.630807
 20
-0.235327
  0
VERTEX
  8
PLAN_1
 62
     2
  6
CONTINUOUS
 10
-0.627823
 20
-0.235823
  0
VERTEX
  8
PLAN_1
 62
     2
  6
CONTINUOUS
 10
-0.624839
 20
-0.235823
  0
VERTEX
  8
PLAN_1
 62
     2
  6
CONTINUOUS
 10
-0.621354
 20
-0.235327
  0
VERTEX
  8
PLAN_1
 62
     2
  6
CONTINUOUS
 10
-0.618370
 20
-0.234331
  0
VERTEX
  8
PLAN_1
 62
     2
  6
CONTINUOUS
 10
-0.615882
 20
-0.232839
  0
VERTEX
  8
PLAN_1
 62
     2
  6
CONTINUOUS
 10
-0.613394
 20
-0.230850
  0
VERTEX
  8
PLAN_1
 62
     2
  6
CONTINUOUS
 10
-0.611902
 20
-0.228362
  0
VERTEX
  8
PLAN_1
 62
     2
  6
CONTINUOUS
 10
-0.610409
 20
-0.225374
  0
VERTEX
  8
PLAN_1
 62
     2
  6
CONTINUOUS
 10
-0.609913
 20
-0.222390
  0
VERTEX
  8
PLAN_1
 62
     2
  6
CONTINUOUS
 10
-0.609413
 20
-0.218909
  0
VERTEX
  8
PLAN_1
 62
     2
  6
CONTINUOUS
 10
-0.609913
 20
-0.215425
  0
VERTEX
  8
PLAN_1
 62
     2
  6
CONTINUOUS
 10
-0.610906
 20
-0.211945
  0
VERTEX
  8
PLAN_1
 62
     2
  6
CONTINUOUS
 10
-0.612398
 20
-0.209457
  0
VERTEX
  8
PLAN_1
 62
     2
  6
CONTINUOUS
 10
-0.614390
 20
-0.206969
  0
VERTEX
  8
PLAN_1
 62
     2
  6
CONTINUOUS
 10
-0.616378
 20
-0.204976
  0
VERTEX
  8
PLAN_1
 62
     2
  6
CONTINUOUS
 10
-0.619366
 20
-0.203984
  0
VERTEX
  8
PLAN_1
 62
     2
  6
CONTINUOUS
 10
-0.622350
 20
-0.202988
  0
VERTEX
  8
PLAN_1
 62
     2
  6
CONTINUOUS
 10
-0.625831
 20
-0.202988
  0
VERTEX
  8
PLAN_1
 62
     2
  6
CONTINUOUS
 10
-0.627823
 20
-0.202988
  0
VERTEX
  8
PLAN_1
 62
     2
  6
CONTINUOUS
 10
-0.629811
 20
-0.203484
  0
VERTEX
  8
PLAN_1
 62
     2
  6
CONTINUOUS
 10
-0.631303
 20
-0.203984
  0
VERTEX
  8
PLAN_1
 62
     2
  6
CONTINUOUS
 10
-0.633295
 20
-0.204480
  0
VERTEX
  8
PLAN_1
 62
     2
  6
CONTINUOUS
 10
-0.634787
 20
-0.205476
  0
VERTEX
  8
PLAN_1
 62
     2
  6
CONTINUOUS
 10
-0.636280
 20
-0.206969
  0
VERTEX
  8
PLAN_1
 62
     2
  6
CONTINUOUS
 10
-0.637772
 20
-0.208461
  0
VERTEX
  8
PLAN_1
 62
     2
  6
CONTINUOUS
 10
-0.639264
 20
-0.209953
  0
VERTEX
  8
PLAN_1
 62
     2
  6
CONTINUOUS
 10
-0.647224
 20
-0.209457
  0
VERTEX
  8
PLAN_1
 62
     2
  6
CONTINUOUS
 10
-0.641752
 20
-0.170154
  0
VERTEX
  8
PLAN_1
 62
     2
  6
CONTINUOUS
 10
-0.603941
 20
-0.170154
  0
VERTEX
  8
PLAN_1
 62
     2
  6
CONTINUOUS
 10
-0.603941
 20
-0.179106
  0
VERTEX
  8
PLAN_1
 62
     2
  6
CONTINUOUS
 10
-0.634787
 20
-0.179106
  0
VERTEX
  8
PLAN_1
 62
     2
  6
CONTINUOUS
 10
-0.637772
 20
-0.199008
  0
SEQEND
  8
0
  0
POLYLINE
  8
PLAN_1
 62
     2
  6
CONTINUOUS
 66
     1
 40
0.003976
 41
0.003976
  0
VERTEX
  8
PLAN_1
 62
     2
  6
CONTINUOUS
 10
-1.743224
 20
-0.422886
  0
VERTEX
  8
PLAN_1
 62
     2
  6
CONTINUOUS
 10
-0.060669
 20
-0.422886
  0
SEQEND
  8
0
  0
SOLID
  8
PLAN_1
 62
     2
 10
-0.030819
 20
-0.422886
 11
-0.090020
 21
-0.406965
 12
-0.030819
 22
-0.422886
 13
-0.090020
 23
-0.438307
  0
POLYLINE
  8
PLAN_1
 62
     2
  6
CONTINUOUS
 66
     1
 40
0.003000
 41
0.003000
  0
VERTEX
  8
PLAN_1
 62
     2
  6
CONTINUOUS
 10
-0.030819
 20
-0.422886
  0
VERTEX
  8
PLAN_1
 62
     2
  6
CONTINUOUS
 10
-0.090020
 20
-0.406965
  0
VERTEX
  8
PLAN_1
 62
     2
  6
CONTINUOUS
 10
-0.090020
 20
-0.438307
  0
VERTEX
  8
PLAN_1
 62
     2
  6
CONTINUOUS
 10
-0.030819
 20
-0.422886
  0
SEQEND
  8
0
  0
SOLID
  8
PLAN_1
 62
     2
 10
-1.772579
 20
-0.422886
 11
-1.713870
 21
-0.406965
 12
-1.772579
 22
-0.422886
 13
-1.713870
 23
-0.438307
  0
POLYLINE
  8
PLAN_1
 62
     2
  6
CONTINUOUS
 66
     1
 40
0.003000
 41
0.003000
  0
VERTEX
  8
PLAN_1
 62
     2
  6
CONTINUOUS
 10
-1.772579
 20
-0.422886
  0
VERTEX
  8
PLAN_1
 62
     2
  6
CONTINUOUS
 10
-1.713870
 20
-0.406965
  0
VERTEX
  8
PLAN_1
 62
     2
  6
CONTINUOUS
 10
-1.713870
 20
-0.438307
  0
VERTEX
  8
PLAN_1
 62
     2
  6
CONTINUOUS
 10
-1.772579
 20
-0.422886
  0
SEQEND
  8
0
  0
POLYLINE
  8
PLAN_1
 62
     2
  6
CONTINUOUS
 66
     1
 40
0.003000
 41
0.003000
  0
VERTEX
  8
PLAN_1
 62
     2
  6
CONTINUOUS
 10
-0.915878
 20
-0.381591
  0
VERTEX
  8
PLAN_1
 62
     2
  6
CONTINUOUS
 10
-0.915878
 20
-0.399004
  0
VERTEX
  8
PLAN_1
 62
     2
  6
CONTINUOUS
 10
-0.925331
 20
-0.399004
  0
VERTEX
  8
PLAN_1
 62
     2
  6
CONTINUOUS
 10
-0.925331
 20
-0.381591
  0
VERTEX
  8
PLAN_1
 62
     2
  6
CONTINUOUS
 10
-0.957169
 20
-0.381591
  0
VERTEX
  8
PLAN_1
 62
     2
  6
CONTINUOUS
 10
-0.957169
 20
-0.372638
  0
VERTEX
  8
PLAN_1
 62
     2
  6
CONTINUOUS
 10
-0.923835
 20
-0.325870
  0
VERTEX
  8
PLAN_1
 62
     2
  6
CONTINUOUS
 10
-0.915878
 20
-0.325870
  0
VERTEX
  8
PLAN_1
 62
     2
  6
CONTINUOUS
 10
-0.915878
 20
-0.373634
  0
VERTEX
  8
PLAN_1
 62
     2
  6
CONTINUOUS
 10
-0.905429
 20
-0.373634
  0
VERTEX
  8
PLAN_1
 62
     2
  6
CONTINUOUS
 10
-0.905429
 20
-0.381591
  0
VERTEX
  8
PLAN_1
 62
     2
  6
CONTINUOUS
 10
-0.915878
 20
-0.381591
  0
SEQEND
  8
0
  0
SOLID
  8
PLAN_1
 62
     2
 10
-0.948713
 20
-0.373634
 11
-0.925331
 21
-0.373634
 12
-0.948713
 22
-0.373634
 13
-0.925331
 23
-0.340299
  0
POLYLINE
  8
PLAN_1
 62
     2
  6
CONTINUOUS
 66
     1
 40
0.003000
 41
0.003000
  0
VERTEX
  8
PLAN_1
 62
     2
  6
CONTINUOUS
 10
-0.948713
 20
-0.373634
  0
VERTEX
  8
PLAN_1
 62
     2
  6
CONTINUOUS
 10
-0.925331
 20
-0.373634
  0
VERTEX
  8
PLAN_1
 62
     2
  6
CONTINUOUS
 10
-0.925331
 20
-0.340299
  0
VERTEX
  8
PLAN_1
 62
     2
  6
CONTINUOUS
 10
-0.948713
 20
-0.373634
  0
SEQEND
  8
0
  0
POLYLINE
  8
PLAN_1
 62
     2
  6
CONTINUOUS
 66
     1
 40
0.003000
 41
0.003000
  0
VERTEX
  8
PLAN_1
 62
     2
  6
CONTINUOUS
 10
-0.858165
 20
-0.381591
  0
VERTEX
  8
PLAN_1
 62
     2
  6
CONTINUOUS
 10
-0.858165
 20
-0.399004
  0
VERTEX
  8
PLAN_1
 62
     2
  6
CONTINUOUS
 10
-0.867122
 20
-0.399004
  0
VERTEX
  8
PLAN_1
 62
     2
  6
CONTINUOUS
 10
-0.867122
 20
-0.381591
  0
VERTEX
  8
PLAN_1
 62
     2
  6
CONTINUOUS
 10
-0.899457
 20
-0.381591
  0
VERTEX
  8
PLAN_1
 62
     2
  6
CONTINUOUS
 10
-0.899457
 20
-0.372638
  0
VERTEX
  8
PLAN_1
 62
     2
  6
CONTINUOUS
 10
-0.865630
 20
-0.325870
  0
VERTEX
  8
PLAN_1
 62
     2
  6
CONTINUOUS
 10
-0.858165
 20
-0.325870
  0
VERTEX
  8
PLAN_1
 62
     2
  6
CONTINUOUS
 10
-0.858165
 20
-0.373634
  0
VERTEX
  8
PLAN_1
 62
     2
  6
CONTINUOUS
 10
-0.847220
 20
-0.373634
  0
VERTEX
  8
PLAN_1
 62
     2
  6
CONTINUOUS
 10
-0.847220
 20
-0.381591
  0
VERTEX
  8
PLAN_1
 62
     2
  6
CONTINUOUS
 10
-0.858165
 20
-0.381591
  0
SEQEND
  8
0
  0
SOLID
  8
PLAN_1
 62
     2
 10
-0.891000
 20
-0.373634
 11
-0.867122
 21
-0.373634
 12
-0.867618
 22
-0.340299
 13
-0.867122
 23
-0.340299
  0
POLYLINE
  8
PLAN_1
 62
     2
  6
CONTINUOUS
 66
     1
 40
0.003000
 41
0.003000
  0
VERTEX
  8
PLAN_1
 62
     2
  6
CONTINUOUS
 10
-0.891000
 20
-0.373634
  0
VERTEX
  8
PLAN_1
 62
     2
  6
CONTINUOUS
 10
-0.867122
 20
-0.373634
  0
VERTEX
  8
PLAN_1
 62
     2
  6
CONTINUOUS
 10
-0.867122
 20
-0.340299
  0
VERTEX
  8
PLAN_1
 62
     2
  6
CONTINUOUS
 10
-0.867618
 20
-0.340299
  0
VERTEX
  8
PLAN_1
 62
     2
  6
CONTINUOUS
 10
-0.891000
 20
-0.373634
  0
SEQEND
  8
0
  0
POLYLINE
  8
PLAN_1
 62
     2
  6
CONTINUOUS
 66
     1
 40
0.003976
 41
0.003976
  0
VERTEX
  8
PLAN_1
 62
     2
  6
CONTINUOUS
 10
-2.248689
 20
-0.580094
  0
VERTEX
  8
PLAN_1
 62
     2
  6
CONTINUOUS
 10
-0.060669
 20
-0.580094
  0
SEQEND
  8
0
  0
SOLID
  8
PLAN_1
 62
     2
 10
-0.030819
 20
-0.580094
 11
-0.090020
 21
-0.564673
 12
-0.030819
 22
-0.580094
 13
-0.090020
 23
-0.596016
  0
POLYLINE
  8
PLAN_1
 62
     2
  6
CONTINUOUS
 66
     1
 40
0.003000
 41
0.003000
  0
VERTEX
  8
PLAN_1
 62
     2
  6
CONTINUOUS
 10
-0.030819
 20
-0.580094
  0
VERTEX
  8
PLAN_1
 62
     2
  6
CONTINUOUS
 10
-0.090020
 20
-0.564673
  0
VERTEX
  8
PLAN_1
 62
     2
  6
CONTINUOUS
 10
-0.090020
 20
-0.596016
  0
VERTEX
  8
PLAN_1
 62
     2
  6
CONTINUOUS
 10
-0.030819
 20
-0.580094
  0
SEQEND
  8
0
  0
SOLID
  8
PLAN_1
 62
     2
 10
-2.278539
 20
-0.580094
 11
-2.219335
 21
-0.564673
 12
-2.278539
 22
-0.580094
 13
-2.219335
 23
-0.596016
  0
POLYLINE
  8
PLAN_1
 62
     2
  6
CONTINUOUS
 66
     1
 40
0.003000
 41
0.003000
  0
VERTEX
  8
PLAN_1
 62
     2
  6
CONTINUOUS
 10
-2.278539
 20
-0.580094
  0
VERTEX
  8
PLAN_1
 62
     2
  6
CONTINUOUS
 10
-2.219335
 20
-0.564673
  0
VERTEX
  8
PLAN_1
 62
     2
  6
CONTINUOUS
 10
-2.219335
 20
-0.596016
  0
VERTEX
  8
PLAN_1
 62
     2
  6
CONTINUOUS
 10
-2.278539
 20
-0.580094
  0
SEQEND
  8
0
  0
POLYLINE
  8
PLAN_1
 62
     2
  6
CONTINUOUS
 66
     1
 40
0.003000
 41
0.003000
  0
VERTEX
  8
PLAN_1
 62
     2
  6
CONTINUOUS
 10
-1.169106
 20
-0.502984
  0
VERTEX
  8
PLAN_1
 62
     2
  6
CONTINUOUS
 10
-1.169602
 20
-0.500496
  0
VERTEX
  8
PLAN_1
 62
     2
  6
CONTINUOUS
 10
-1.170598
 20
-0.498504
  0
VERTEX
  8
PLAN_1
 62
     2
  6
CONTINUOUS
 10
-1.171594
 20
-0.496516
  0
VERTEX
  8
PLAN_1
 62
     2
  6
CONTINUOUS
 10
-1.173087
 20
-0.495024
  0
VERTEX
  8
PLAN_1
 62
     2
  6
CONTINUOUS
 10
-1.174579
 20
-0.493531
  0
VERTEX
  8
PLAN_1
 62
     2
  6
CONTINUOUS
 10
-1.176567
 20
-0.492535
  0
VERTEX
  8
PLAN_1
 62
     2
  6
CONTINUOUS
 10
-1.179055
 20
-0.492039
  0
VERTEX
  8
PLAN_1
 62
     2
  6
CONTINUOUS
 10
-1.181543
 20
-0.491539
  0
VERTEX
  8
PLAN_1
 62
     2
  6
CONTINUOUS
 10
-1.184528
 20
-0.492039
  0
VERTEX
  8
PLAN_1
 62
     2
  6
CONTINUOUS
 10
-1.186520
 20
-0.492535
  0
VERTEX
  8
PLAN_1
 62
     2
  6
CONTINUOUS
 10
-1.188508
 20
-0.493531
  0
VERTEX
  8
PLAN_1
 62
     2
  6
CONTINUOUS
 10
-1.190500
 20
-0.495024
  0
VERTEX
  8
PLAN_1
 62
     2
  6
CONTINUOUS
 10
-1.191992
 20
-0.496516
  0
VERTEX
  8
PLAN_1
 62
     2
  6
CONTINUOUS
 10
-1.193484
 20
-0.498008
  0
VERTEX
  8
PLAN_1
 62
     2
  6
CONTINUOUS
 10
-1.194976
 20
-0.499996
  0
VERTEX
  8
PLAN_1
 62
     2
  6
CONTINUOUS
 10
-1.195972
 20
-0.502484
  0
VERTEX
  8
PLAN_1
 62
     2
  6
CONTINUOUS
 10
-1.197465
 20
-0.506965
  0
VERTEX
  8
PLAN_1
 62
     2
  6
CONTINUOUS
 10
-1.198457
 20
-0.511441
  0
VERTEX
  8
PLAN_1
 62
     2
  6
CONTINUOUS
 10
-1.198957
 20
-0.515421
  0
VERTEX
  8
PLAN_1
 62
     2
  6
CONTINUOUS
 10
-1.198957
 20
-0.518902
  0
VERTEX
  8
PLAN_1
 62
     2
  6
CONTINUOUS
 10
-1.197961
 20
-0.517409
  0
VERTEX
  8
PLAN_1
 62
     2
  6
CONTINUOUS
 10
-1.196469
 20
-0.515917
  0
VERTEX
  8
PLAN_1
 62
     2
  6
CONTINUOUS
 10
-1.194976
 20
-0.514425
  0
VERTEX
  8
PLAN_1
 62
     2
  6
CONTINUOUS
 10
-1.192984
 20
-0.512933
  0
VERTEX
  8
PLAN_1
 62
     2
  6
CONTINUOUS
 10
-1.190996
 20
-0.511937
  0
VERTEX
  8
PLAN_1
 62
     2
  6
CONTINUOUS
 10
-1.188012
 20
-0.510941
  0
VERTEX
  8
PLAN_1
 62
     2
  6
CONTINUOUS
 10
-1.185024
 20
-0.510445
  0
VERTEX
  8
PLAN_1
 62
     2
  6
CONTINUOUS
 10
-1.181543
 20
-0.509949
  0
VERTEX
  8
PLAN_1
 62
     2
  6
CONTINUOUS
 10
-1.178059
 20
-0.510445
  0
VERTEX
  8
PLAN_1
 62
     2
  6
CONTINUOUS
 10
-1.174079
 20
-0.510941
  0
VERTEX
  8
PLAN_1
 62
     2
  6
CONTINUOUS
 10
-1.170598
 20
-0.512933
  0
VERTEX
  8
PLAN_1
 62
     2
  6
CONTINUOUS
 10
-1.166618
 20
-0.514921
  0
VERTEX
  8
PLAN_1
 62
     2
  6
CONTINUOUS
 10
-1.165126
 20
-0.516417
  0
VERTEX
  8
PLAN_1
 62
     2
  6
CONTINUOUS
 10
-1.163634
 20
-0.518406
  0
VERTEX
  8
PLAN_1
 62
     2
  6
CONTINUOUS
 10
-1.162142
 20
-0.519898
  0
VERTEX
  8
PLAN_1
 62
     2
  6
CONTINUOUS
 10
-1.161146
 20
-0.522386
  0
VERTEX
  8
PLAN_1
 62
     2
  6
CONTINUOUS
 10
-1.160150
 20
-0.524374
  0
VERTEX
  8
PLAN_1
 62
     2
  6
CONTINUOUS
 10
-1.159154
 20
-0.527362
  0
VERTEX
  8
PLAN_1
 62
     2
  6
CONTINUOUS
 10
-1.158657
 20
-0.529846
  0
VERTEX
  8
PLAN_1
 62
     2
  6
CONTINUOUS
 10
-1.158657
 20
-0.533331
  0
VERTEX
  8
PLAN_1
 62
     2
  6
CONTINUOUS
 10
-1.158657
 20
-0.535819
  0
VERTEX
  8
PLAN_1
 62
     2
  6
CONTINUOUS
 10
-1.159154
 20
-0.538307
  0
VERTEX
  8
PLAN_1
 62
     2
  6
CONTINUOUS
 10
-1.159654
 20
-0.540791
  0
VERTEX
  8
PLAN_1
 62
     2
  6
CONTINUOUS
 10
-1.160150
 20
-0.543280
  0
VERTEX
  8
PLAN_1
 62
     2
  6
CONTINUOUS
 10
-1.161146
 20
-0.545272
  0
VERTEX
  8
PLAN_1
 62
     2
  6
CONTINUOUS
 10
-1.162638
 20
-0.547260
  0
VERTEX
  8
PLAN_1
 62
     2
  6
CONTINUOUS
 10
-1.164130
 20
-0.549252
  0
VERTEX
  8
PLAN_1
 62
     2
  6
CONTINUOUS
 10
-1.165622
 20
-0.551736
  0
VERTEX
  8
PLAN_1
 62
     2
  6
CONTINUOUS
 10
-1.167114
 20
-0.553232
  0
VERTEX
  8
PLAN_1
 62
     2
  6
CONTINUOUS
 10
-1.168606
 20
-0.554224
  0
VERTEX
  8
PLAN_1
 62
     2
  6
CONTINUOUS
 10
-1.170598
 20
-0.555717
  0
VERTEX
  8
PLAN_1
 62
     2
  6
CONTINUOUS
 10
-1.172587
 20
-0.556713
  0
VERTEX
  8
PLAN_1
 62
     2
  6
CONTINUOUS
 10
-1.174579
 20
-0.557709
  0
VERTEX
  8
PLAN_1
 62
     2
  6
CONTINUOUS
 10
-1.177563
 20
-0.558205
  0
VERTEX
  8
PLAN_1
 62
     2
  6
CONTINUOUS
 10
-1.180547
 20
-0.558205
  0
VERTEX
  8
PLAN_1
 62
     2
  6
CONTINUOUS
 10
-1.184031
 20
-0.558705
  0
VERTEX
  8
PLAN_1
 62
     2
  6
CONTINUOUS
 10
-1.186520
 20
-0.558705
  0
VERTEX
  8
PLAN_1
 62
     2
  6
CONTINUOUS
 10
-1.189004
 20
-0.558205
  0
VERTEX
  8
PLAN_1
 62
     2
  6
CONTINUOUS
 10
-1.190996
 20
-0.557213
  0
VERTEX
  8
PLAN_1
 62
     2
  6
CONTINUOUS
 10
-1.193980
 20
-0.556217
  0
VERTEX
  8
PLAN_1
 62
     2
  6
CONTINUOUS
 10
-1.196469
 20
-0.554724
  0
VERTEX
  8
PLAN_1
 62
     2
  6
CONTINUOUS
 10
-1.198457
 20
-0.553232
  0
VERTEX
  8
PLAN_1
 62
     2
  6
CONTINUOUS
 10
-1.200945
 20
-0.550744
  0
VERTEX
  8
PLAN_1
 62
     2
  6
CONTINUOUS
 10
-1.202937
 20
-0.547760
  0
VERTEX
  8
PLAN_1
 62
     2
  6
CONTINUOUS
 10
-1.204429
 20
-0.545272
  0
VERTEX
  8
PLAN_1
 62
     2
  6
CONTINUOUS
 10
-1.205921
 20
-0.542287
  0
VERTEX
  8
PLAN_1
 62
     2
  6
CONTINUOUS
 10
-1.206917
 20
-0.539299
  0
VERTEX
  8
PLAN_1
 62
     2
  6
CONTINUOUS
 10
-1.207413
 20
-0.536315
  0
VERTEX
  8
PLAN_1
 62
     2
  6
CONTINUOUS
 10
-1.207909
 20
-0.532835
  0
VERTEX
  8
PLAN_1
 62
     2
  6
CONTINUOUS
 10
-1.208409
 20
-0.529846
  0
VERTEX
  8
PLAN_1
 62
     2
  6
CONTINUOUS
 10
-1.208409
 20
-0.526366
  0
VERTEX
  8
PLAN_1
 62
     2
  6
CONTINUOUS
 10
-1.208409
 20
-0.522386
  0
VERTEX
  8
PLAN_1
 62
     2
  6
CONTINUOUS
 10
-1.208409
 20
-0.516417
  0
VERTEX
  8
PLAN_1
 62
     2
  6
CONTINUOUS
 10
-1.207413
 20
-0.509949
  0
VERTEX
  8
PLAN_1
 62
     2
  6
CONTINUOUS
 10
-1.205921
 20
-0.502984
  0
VERTEX
  8
PLAN_1
 62
     2
  6
CONTINUOUS
 10
-1.203433
 20
-0.497012
  0
VERTEX
  8
PLAN_1
 62
     2
  6
CONTINUOUS
 10
-1.201445
 20
-0.494028
  0
VERTEX
  8
PLAN_1
 62
     2
  6
CONTINUOUS
 10
-1.199949
 20
-0.491539
  0
VERTEX
  8
PLAN_1
 62
     2
  6
CONTINUOUS
 10
-1.197465
 20
-0.489551
  0
VERTEX
  8
PLAN_1
 62
     2
  6
CONTINUOUS
 10
-1.194976
 20
-0.487559
  0
VERTEX
  8
PLAN_1
 62
     2
  6
CONTINUOUS
 10
-1.191992
 20
-0.485571
  0
VERTEX
  8
PLAN_1
 62
     2
  6
CONTINUOUS
 10
-1.189004
 20
-0.484575
  0
VERTEX
  8
PLAN_1
 62
     2
  6
CONTINUOUS
 10
-1.185524
 20
-0.483579
  0
VERTEX
  8
PLAN_1
 62
     2
  6
CONTINUOUS
 10
-1.181543
 20
-0.483579
  0
VERTEX
  8
PLAN_1
 62
     2
  6
CONTINUOUS
 10
-1.178059
 20
-0.483579
  0
VERTEX
  8
PLAN_1
 62
     2
  6
CONTINUOUS
 10
-1.175075
 20
-0.484575
  0
VERTEX
  8
PLAN_1
 62
     2
  6
CONTINUOUS
 10
-1.171594
 20
-0.485571
  0
VERTEX
  8
PLAN_1
 62
     2
  6
CONTINUOUS
 10
-1.168110
 20
-0.487559
  0
VERTEX
  8
PLAN_1
 62
     2
  6
CONTINUOUS
 10
-1.165126
 20
-0.490047
  0
VERTEX
  8
PLAN_1
 62
     2
  6
CONTINUOUS
 10
-1.162638
 20
-0.493531
  0
VERTEX
  8
PLAN_1
 62
     2
  6
CONTINUOUS
 10
-1.161642
 20
-0.495520
  0
VERTEX
  8
PLAN_1
 62
     2
  6
CONTINUOUS
 10
-1.161146
 20
-0.498008
  0
VERTEX
  8
PLAN_1
 62
     2
  6
CONTINUOUS
 10
-1.160650
 20
-0.500496
  0
VERTEX
  8
PLAN_1
 62
     2
  6
CONTINUOUS
 10
-1.160150
 20
-0.502984
  0
VERTEX
  8
PLAN_1
 62
     2
  6
CONTINUOUS
 10
-1.169106
 20
-0.502984
  0
SEQEND
  8
0
  0
POLYLINE
  8
PLAN_1
 62
     2
  6
CONTINUOUS
 66
     1
 40
0.003000
 41
0.003000
  0
VERTEX
  8
PLAN_1
 62
     2
  6
CONTINUOUS
 10
-1.182539
 20
-0.550244
  0
VERTEX
  8
PLAN_1
 62
     2
  6
CONTINUOUS
 10
-1.179551
 20
-0.550244
  0
VERTEX
  8
PLAN_1
 62
     2
  6
CONTINUOUS
 10
-1.176567
 20
-0.549252
  0
VERTEX
  8
PLAN_1
 62
     2
  6
CONTINUOUS
 10
-1.174079
 20
-0.547760
  0
VERTEX
  8
PLAN_1
 62
     2
  6
CONTINUOUS
 10
-1.172091
 20
-0.545768
  0
VERTEX
  8
PLAN_1
 62
     2
  6
CONTINUOUS
 10
-1.170598
 20
-0.543280
  0
VERTEX
  8
PLAN_1
 62
     2
  6
CONTINUOUS
 10
-1.169106
 20
-0.540295
  0
VERTEX
  8
PLAN_1
 62
     2
  6
CONTINUOUS
 10
-1.168606
 20
-0.537311
  0
VERTEX
  8
PLAN_1
 62
     2
  6
CONTINUOUS
 10
-1.168110
 20
-0.533827
  0
VERTEX
  8
PLAN_1
 62
     2
  6
CONTINUOUS
 10
-1.168110
 20
-0.531339
  0
VERTEX
  8
PLAN_1
 62
     2
  6
CONTINUOUS
 10
-1.169106
 20
-0.528354
  0
VERTEX
  8
PLAN_1
 62
     2
  6
CONTINUOUS
 10
-1.169602
 20
-0.525866
  0
VERTEX
  8
PLAN_1
 62
     2
  6
CONTINUOUS
 10
-1.171094
 20
-0.523382
  0
VERTEX
  8
PLAN_1
 62
     2
  6
CONTINUOUS
 10
-1.173087
 20
-0.521390
  0
VERTEX
  8
PLAN_1
 62
     2
  6
CONTINUOUS
 10
-1.176071
 20
-0.519898
  0
VERTEX
  8
PLAN_1
 62
     2
  6
CONTINUOUS
 10
-1.179055
 20
-0.518406
  0
VERTEX
  8
PLAN_1
 62
     2
  6
CONTINUOUS
 10
-1.183035
 20
-0.518406
  0
VERTEX
  8
PLAN_1
 62
     2
  6
CONTINUOUS
 10
-1.186520
 20
-0.518406
  0
VERTEX
  8
PLAN_1
 62
     2
  6
CONTINUOUS
 10
-1.189504
 20
-0.519402
  0
VERTEX
  8
PLAN_1
 62
     2
  6
CONTINUOUS
 10
-1.191992
 20
-0.520894
  0
VERTEX
  8
PLAN_1
 62
     2
  6
CONTINUOUS
 10
-1.193980
 20
-0.522882
  0
VERTEX
  8
PLAN_1
 62
     2
  6
CONTINUOUS
 10
-1.195972
 20
-0.525370
  0
VERTEX
  8
PLAN_1
 62
     2
  6
CONTINUOUS
 10
-1.196965
 20
-0.527858
  0
VERTEX
  8
PLAN_1
 62
     2
  6
CONTINUOUS
 10
-1.197465
 20
-0.530843
  0
VERTEX
  8
PLAN_1
 62
     2
  6
CONTINUOUS
 10
-1.197961
 20
-0.534327
  0
VERTEX
  8
PLAN_1
 62
     2
  6
CONTINUOUS
 10
-1.197465
 20
-0.537311
  0
VERTEX
  8
PLAN_1
 62
     2
  6
CONTINUOUS
 10
-1.196965
 20
-0.539799
  0
VERTEX
  8
PLAN_1
 62
     2
  6
CONTINUOUS
 10
-1.195972
 20
-0.542783
  0
VERTEX
  8
PLAN_1
 62
     2
  6
CONTINUOUS
 10
-1.194476
 20
-0.545272
  0
VERTEX
  8
PLAN_1
 62
     2
  6
CONTINUOUS
 10
-1.191992
 20
-0.547260
  0
VERTEX
  8
PLAN_1
 62
     2
  6
CONTINUOUS
 10
-1.189504
 20
-0.548752
  0
VERTEX
  8
PLAN_1
 62
     2
  6
CONTINUOUS
 10
-1.186020
 20
-0.549748
  0
VERTEX
  8
PLAN_1
 62
     2
  6
CONTINUOUS
 10
-1.182539
 20
-0.550244
  0
SEQEND
  8
0
  0
POLYLINE
  8
PLAN_1
 62
     2
  6
CONTINUOUS
 66
     1
 40
0.003000
 41
0.003000
  0
VERTEX
  8
PLAN_1
 62
     2
  6
CONTINUOUS
 10
-1.125823
 20
-0.558705
  0
VERTEX
  8
PLAN_1
 62
     2
  6
CONTINUOUS
 10
-1.129307
 20
-0.558205
  0
VERTEX
  8
PLAN_1
 62
     2
  6
CONTINUOUS
 10
-1.132787
 20
-0.557709
  0
VERTEX
  8
PLAN_1
 62
     2
  6
CONTINUOUS
 10
-1.135772
 20
-0.556217
  0
VERTEX
  8
PLAN_1
 62
     2
  6
CONTINUOUS
 10
-1.138756
 20
-0.554724
  0
VERTEX
  8
PLAN_1
 62
     2
  6
CONTINUOUS
 10
-1.140748
 20
-0.552732
  0
VERTEX
  8
PLAN_1
 62
     2
  6
CONTINUOUS
 10
-1.142736
 20
-0.550744
  0
VERTEX
  8
PLAN_1
 62
     2
  6
CONTINUOUS
 10
-1.144728
 20
-0.548256
  0
VERTEX
  8
PLAN_1
 62
     2
  6
CONTINUOUS
 10
-1.146220
 20
-0.545272
  0
VERTEX
  8
PLAN_1
 62
     2
  6
CONTINUOUS
 10
-1.148209
 20
-0.539799
  0
VERTEX
  8
PLAN_1
 62
     2
  6
CONTINUOUS
 10
-1.149705
 20
-0.533331
  0
VERTEX
  8
PLAN_1
 62
     2
  6
CONTINUOUS
 10
-1.150697
 20
-0.526862
  0
VERTEX
  8
PLAN_1
 62
     2
  6
CONTINUOUS
 10
-1.150697
 20
-0.520894
  0
VERTEX
  8
PLAN_1
 62
     2
  6
CONTINUOUS
 10
-1.150697
 20
-0.514921
  0
VERTEX
  8
PLAN_1
 62
     2
  6
CONTINUOUS
 10
-1.149705
 20
-0.508953
  0
VERTEX
  8
PLAN_1
 62
     2
  6
CONTINUOUS
 10
-1.148209
 20
-0.502484
  0
VERTEX
  8
PLAN_1
 62
     2
  6
CONTINUOUS
 10
-1.146220
 20
-0.496516
  0
VERTEX
  8
PLAN_1
 62
     2
  6
CONTINUOUS
 10
-1.144728
 20
-0.494028
  0
VERTEX
  8
PLAN_1
 62
     2
  6
CONTINUOUS
 10
-1.142736
 20
-0.491539
  0
VERTEX
  8
PLAN_1
 62
     2
  6
CONTINUOUS
 10
-1.140748
 20
-0.489051
  0
VERTEX
  8
PLAN_1
 62
     2
  6
CONTINUOUS
 10
-1.138756
 20
-0.487063
  0
VERTEX
  8
PLAN_1
 62
     2
  6
CONTINUOUS
 10
-1.135772
 20
-0.485571
  0
VERTEX
  8
PLAN_1
 62
     2
  6
CONTINUOUS
 10
-1.132787
 20
-0.484575
  0
VERTEX
  8
PLAN_1
 62
     2
  6
CONTINUOUS
 10
-1.129307
 20
-0.483579
  0
VERTEX
  8
PLAN_1
 62
     2
  6
CONTINUOUS
 10
-1.125823
 20
-0.483579
  0
VERTEX
  8
PLAN_1
 62
     2
  6
CONTINUOUS
 10
-1.121843
 20
-0.483579
  0
VERTEX
  8
PLAN_1
 62
     2
  6
CONTINUOUS
 10
-1.118858
 20
-0.484575
  0
VERTEX
  8
PLAN_1
 62
     2
  6
CONTINUOUS
 10
-1.115874
 20
-0.485571
  0
VERTEX
  8
PLAN_1
 62
     2
  6
CONTINUOUS
 10
-1.112886
 20
-0.487063
  0
VERTEX
  8
PLAN_1
 62
     2
  6
CONTINUOUS
 10
-1.110898
 20
-0.489051
  0
VERTEX
  8
PLAN_1
 62
     2
  6
CONTINUOUS
 10
-1.108409
 20
-0.491539
  0
VERTEX
  8
PLAN_1
 62
     2
  6
CONTINUOUS
 10
-1.106917
 20
-0.494028
  0
VERTEX
  8
PLAN_1
 62
     2
  6
CONTINUOUS
 10
-1.105425
 20
-0.496516
  0
VERTEX
  8
PLAN_1
 62
     2
  6
CONTINUOUS
 10
-1.102937
 20
-0.502484
  0
VERTEX
  8
PLAN_1
 62
     2
  6
CONTINUOUS
 10
-1.101445
 20
-0.508953
  0
VERTEX
  8
PLAN_1
 62
     2
  6
CONTINUOUS
 10
-1.100949
 20
-0.514921
  0
VERTEX
  8
PLAN_1
 62
     2
  6
CONTINUOUS
 10
-1.100949
 20
-0.520894
  0
VERTEX
  8
PLAN_1
 62
     2
  6
CONTINUOUS
 10
-1.100949
 20
-0.526862
  0
VERTEX
  8
PLAN_1
 62
     2
  6
CONTINUOUS
 10
-1.101445
 20
-0.533331
  0
VERTEX
  8
PLAN_1
 62
     2
  6
CONTINUOUS
 10
-1.102937
 20
-0.539799
  0
VERTEX
  8
PLAN_1
 62
     2
  6
CONTINUOUS
 10
-1.105425
 20
-0.545272
  0
VERTEX
  8
PLAN_1
 62
     2
  6
CONTINUOUS
 10
-1.106917
 20
-0.548256
  0
VERTEX
  8
PLAN_1
 62
     2
  6
CONTINUOUS
 10
-1.108409
 20
-0.550744
  0
VERTEX
  8
PLAN_1
 62
     2
  6
CONTINUOUS
 10
-1.110898
 20
-0.552732
  0
VERTEX
  8
PLAN_1
 62
     2
  6
CONTINUOUS
 10
-1.112886
 20
-0.554724
  0
VERTEX
  8
PLAN_1
 62
     2
  6
CONTINUOUS
 10
-1.115874
 20
-0.556217
  0
VERTEX
  8
PLAN_1
 62
     2
  6
CONTINUOUS
 10
-1.118858
 20
-0.557709
  0
VERTEX
  8
PLAN_1
 62
     2
  6
CONTINUOUS
 10
-1.121843
 20
-0.558205
  0
VERTEX
  8
PLAN_1
 62
     2
  6
CONTINUOUS
 10
-1.125823
 20
-0.558705
  0
SEQEND
  8
0
  0
POLYLINE
  8
PLAN_1
 62
     2
  6
CONTINUOUS
 66
     1
 40
0.003000
 41
0.003000
  0
VERTEX
  8
PLAN_1
 62
     2
  6
CONTINUOUS
 10
-1.125823
 20
-0.491539
  0
VERTEX
  8
PLAN_1
 62
     2
  6
CONTINUOUS
 10
-1.127811
 20
-0.492039
  0
VERTEX
  8
PLAN_1
 62
     2
  6
CONTINUOUS
 10
-1.129307
 20
-0.492039
  0
VERTEX
  8
PLAN_1
 62
     2
  6
CONTINUOUS
 10
-1.131295
 20
-0.493031
  0
VERTEX
  8
PLAN_1
 62
     2
  6
CONTINUOUS
 10
-1.132787
 20
-0.493531
  0
VERTEX
  8
PLAN_1
 62
     2
  6
CONTINUOUS
 10
-1.135276
 20
-0.496020
  0
VERTEX
  8
PLAN_1
 62
     2
  6
CONTINUOUS
 10
-1.137264
 20
-0.499500
  0
VERTEX
  8
PLAN_1
 62
     2
  6
CONTINUOUS
 10
-1.138756
 20
-0.503480
  0
VERTEX
  8
PLAN_1
 62
     2
  6
CONTINUOUS
 10
-1.140252
 20
-0.508953
  0
VERTEX
  8
PLAN_1
 62
     2
  6
CONTINUOUS
 10
-1.140748
 20
-0.514425
  0
VERTEX
  8
PLAN_1
 62
     2
  6
CONTINUOUS
 10
-1.141244
 20
-0.520894
  0
VERTEX
  8
PLAN_1
 62
     2
  6
CONTINUOUS
 10
-1.140748
 20
-0.527362
  0
VERTEX
  8
PLAN_1
 62
     2
  6
CONTINUOUS
 10
-1.140252
 20
-0.533331
  0
VERTEX
  8
PLAN_1
 62
     2
  6
CONTINUOUS
 10
-1.138756
 20
-0.538307
  0
VERTEX
  8
PLAN_1
 62
     2
  6
CONTINUOUS
 10
-1.137264
 20
-0.542783
  0
VERTEX
  8
PLAN_1
 62
     2
  6
CONTINUOUS
 10
-1.135276
 20
-0.545768
  0
VERTEX
  8
PLAN_1
 62
     2
  6
CONTINUOUS
 10
-1.132787
 20
-0.548256
  0
VERTEX
  8
PLAN_1
 62
     2
  6
CONTINUOUS
 10
-1.131295
 20
-0.549252
  0
VERTEX
  8
PLAN_1
 62
     2
  6
CONTINUOUS
 10
-1.129307
 20
-0.549748
  0
VERTEX
  8
PLAN_1
 62
     2
  6
CONTINUOUS
 10
-1.127811
 20
-0.550244
  0
VERTEX
  8
PLAN_1
 62
     2
  6
CONTINUOUS
 10
-1.125823
 20
-0.550244
  0
VERTEX
  8
PLAN_1
 62
     2
  6
CONTINUOUS
 10
-1.123831
 20
-0.550244
  0
VERTEX
  8
PLAN_1
 62
     2
  6
CONTINUOUS
 10
-1.122339
 20
-0.549748
  0
VERTEX
  8
PLAN_1
 62
     2
  6
CONTINUOUS
 10
-1.120350
 20
-0.549252
  0
VERTEX
  8
PLAN_1
 62
     2
  6
CONTINUOUS
 10
-1.118858
 20
-0.548256
  0
VERTEX
  8
PLAN_1
 62
     2
  6
CONTINUOUS
 10
-1.116370
 20
-0.545768
  0
VERTEX
  8
PLAN_1
 62
     2
  6
CONTINUOUS
 10
-1.114382
 20
-0.542783
  0
VERTEX
  8
PLAN_1
 62
     2
  6
CONTINUOUS
 10
-1.112390
 20
-0.538307
  0
VERTEX
  8
PLAN_1
 62
     2
  6
CONTINUOUS
 10
-1.111394
 20
-0.533331
  0
VERTEX
  8
PLAN_1
 62
     2
  6
CONTINUOUS
 10
-1.110898
 20
-0.527362
  0
VERTEX
  8
PLAN_1
 62
     2
  6
CONTINUOUS
 10
-1.110402
 20
-0.520894
  0
VERTEX
  8
PLAN_1
 62
     2
  6
CONTINUOUS
 10
-1.110898
 20
-0.514425
  0
VERTEX
  8
PLAN_1
 62
     2
  6
CONTINUOUS
 10
-1.111394
 20
-0.508953
  0
VERTEX
  8
PLAN_1
 62
     2
  6
CONTINUOUS
 10
-1.112390
 20
-0.503480
  0
VERTEX
  8
PLAN_1
 62
     2
  6
CONTINUOUS
 10
-1.114382
 20
-0.499500
  0
VERTEX
  8
PLAN_1
 62
     2
  6
CONTINUOUS
 10
-1.116370
 20
-0.496020
  0
VERTEX
  8
PLAN_1
 62
     2
  6
CONTINUOUS
 10
-1.118858
 20
-0.493531
  0
VERTEX
  8
PLAN_1
 62
     2
  6
CONTINUOUS
 10
-1.120350
 20
-0.493031
  0
VERTEX
  8
PLAN_1
 62
     2
  6
CONTINUOUS
 10
-1.122339
 20
-0.492039
  0
VERTEX
  8
PLAN_1
 62
     2
  6
CONTINUOUS
 10
-1.123831
 20
-0.492039
  0
VERTEX
  8
PLAN_1
 62
     2
  6
CONTINUOUS
 10
-1.125823
 20
-0.491539
  0
SEQEND
  8
0
  0
POLYLINE
  8
PLAN_1
 62
     2
  6
CONTINUOUS
 66
     1
 40
0.003000
 41
0.003000
  0
VERTEX
  8
PLAN_1
 62
     2
  6
CONTINUOUS
 10
0.129874
 20
-0.220402
  0
VERTEX
  8
PLAN_1
 62
     2
  6
CONTINUOUS
 10
0.120425
 20
-0.220402
  0
VERTEX
  8
PLAN_1
 62
     2
  6
CONTINUOUS
 10
0.120425
 20
-0.168661
  0
VERTEX
  8
PLAN_1
 62
     2
  6
CONTINUOUS
 10
0.103012
 20
-0.168661
  0
VERTEX
  8
PLAN_1
 62
     2
  6
CONTINUOUS
 10
0.103012
 20
-0.161197
  0
VERTEX
  8
PLAN_1
 62
     2
  6
CONTINUOUS
 10
0.107488
 20
-0.160701
  0
VERTEX
  8
PLAN_1
 62
     2
  6
CONTINUOUS
 10
0.110972
 20
-0.160205
  0
VERTEX
  8
PLAN_1
 62
     2
  6
CONTINUOUS
 10
0.113957
 20
-0.159705
  0
VERTEX
  8
PLAN_1
 62
     2
  6
CONTINUOUS
 10
0.116445
 20
-0.158213
  0
VERTEX
  8
PLAN_1
 62
     2
  6
CONTINUOUS
 10
0.118433
 20
-0.156720
  0
VERTEX
  8
PLAN_1
 62
     2
  6
CONTINUOUS
 10
0.120425
 20
-0.154232
  0
VERTEX
  8
PLAN_1
 62
     2
  6
CONTINUOUS
 10
0.121417
 20
-0.151248
  0
VERTEX
  8
PLAN_1
 62
     2
  6
CONTINUOUS
 10
0.122909
 20
-0.147268
  0
VERTEX
  8
PLAN_1
 62
     2
  6
CONTINUOUS
 10
0.129874
 20
-0.147268
  0
VERTEX
  8
PLAN_1
 62
     2
  6
CONTINUOUS
 10
0.129874
 20
-0.220402
  0
SEQEND
  8
0
  0
POLYLINE
  8
PLAN_1
 62
     2
  6
CONTINUOUS
 66
     1
 40
0.003000
 41
0.003000
  0
VERTEX
  8
PLAN_1
 62
     2
  6
CONTINUOUS
 10
0.197535
 20
-0.173634
  0
VERTEX
  8
PLAN_1
 62
     2
  6
CONTINUOUS
 10
0.197535
 20
-0.208957
  0
VERTEX
  8
PLAN_1
 62
     2
  6
CONTINUOUS
 10
0.197535
 20
-0.210453
  0
VERTEX
  8
PLAN_1
 62
     2
  6
CONTINUOUS
 10
0.198035
 20
-0.211445
  0
VERTEX
  8
PLAN_1
 62
     2
  6
CONTINUOUS
 10
0.198531
 20
-0.211945
  0
VERTEX
  8
PLAN_1
 62
     2
  6
CONTINUOUS
 10
0.199528
 20
-0.212441
  0
VERTEX
  8
PLAN_1
 62
     2
  6
CONTINUOUS
 10
0.200520
 20
-0.212937
  0
VERTEX
  8
PLAN_1
 62
     2
  6
CONTINUOUS
 10
0.201516
 20
-0.212937
  0
VERTEX
  8
PLAN_1
 62
     2
  6
CONTINUOUS
 10
0.202016
 20
-0.212937
  0
VERTEX
  8
PLAN_1
 62
     2
  6
CONTINUOUS
 10
0.203008
 20
-0.212937
  0
VERTEX
  8
PLAN_1
 62
     2
  6
CONTINUOUS
 10
0.205992
 20
-0.212937
  0
VERTEX
  8
PLAN_1
 62
     2
  6
CONTINUOUS
 10
0.205992
 20
-0.220402
  0
VERTEX
  8
PLAN_1
 62
     2
  6
CONTINUOUS
 10
0.205000
 20
-0.220402
  0
VERTEX
  8
PLAN_1
 62
     2
  6
CONTINUOUS
 10
0.204004
 20
-0.220402
  0
VERTEX
  8
PLAN_1
 62
     2
  6
CONTINUOUS
 10
0.203008
 20
-0.220898
  0
VERTEX
  8
PLAN_1
 62
     2
  6
CONTINUOUS
 10
0.202016
 20
-0.220898
  0
VERTEX
  8
PLAN_1
 62
     2
  6
CONTINUOUS
 10
0.201020
 20
-0.220898
  0
VERTEX
  8
PLAN_1
 62
     2
  6
CONTINUOUS
 10
0.200520
 20
-0.220898
  0
VERTEX
  8
PLAN_1
 62
     2
  6
CONTINUOUS
 10
0.200024
 20
-0.220898
  0
VERTEX
  8
PLAN_1
 62
     2
  6
CONTINUOUS
 10
0.199528
 20
-0.220898
  0
VERTEX
  8
PLAN_1
 62
     2
  6
CONTINUOUS
 10
0.196539
 20
-0.220898
  0
VERTEX
  8
PLAN_1
 62
     2
  6
CONTINUOUS
 10
0.194055
 20
-0.220402
  0
VERTEX
  8
PLAN_1
 62
     2
  6
CONTINUOUS
 10
0.192063
 20
-0.218909
  0
VERTEX
  8
PLAN_1
 62
     2
  6
CONTINUOUS
 10
0.190571
 20
-0.217913
  0
VERTEX
  8
PLAN_1
 62
     2
  6
CONTINUOUS
 10
0.189575
 20
-0.215925
  0
VERTEX
  8
PLAN_1
 62
     2
  6
CONTINUOUS
 10
0.188583
 20
-0.213933
  0
VERTEX
  8
PLAN_1
 62
     2
  6
CONTINUOUS
 10
0.188583
 20
-0.211945
  0
VERTEX
  8
PLAN_1
 62
     2
  6
CONTINUOUS
 10
0.188583
 20
-0.209457
  0
VERTEX
  8
PLAN_1
 62
     2
  6
CONTINUOUS
 10
0.188583
 20
-0.173634
  0
VERTEX
  8
PLAN_1
 62
     2
  6
CONTINUOUS
 10
0.181118
 20
-0.173634
  0
VERTEX
  8
PLAN_1
 62
     2
  6
CONTINUOUS
 10
0.181118
 20
-0.166173
  0
VERTEX
  8
PLAN_1
 62
     2
  6
CONTINUOUS
 10
0.188583
 20
-0.166173
  0
VERTEX
  8
PLAN_1
 62
     2
  6
CONTINUOUS
 10
0.188583
 20
-0.150752
  0
VERTEX
  8
PLAN_1
 62
     2
  6
CONTINUOUS
 10
0.197535
 20
-0.150752
  0
VERTEX
  8
PLAN_1
 62
     2
  6
CONTINUOUS
 10
0.197535
 20
-0.166173
  0
VERTEX
  8
PLAN_1
 62
     2
  6
CONTINUOUS
 10
0.205992
 20
-0.166173
  0
VERTEX
  8
PLAN_1
 62
     2
  6
CONTINUOUS
 10
0.205992
 20
-0.173634
  0
VERTEX
  8
PLAN_1
 62
     2
  6
CONTINUOUS
 10
0.197535
 20
-0.173634
  0
SEQEND
  8
0
  0
POLYLINE
  8
PLAN_1
 62
     2
  6
CONTINUOUS
 66
     1
 40
0.003000
 41
0.003000
  0
VERTEX
  8
PLAN_1
 62
     2
  6
CONTINUOUS
 10
0.225398
 20
-0.220402
  0
VERTEX
  8
PLAN_1
 62
     2
  6
CONTINUOUS
 10
0.216441
 20
-0.220402
  0
VERTEX
  8
PLAN_1
 62
     2
  6
CONTINUOUS
 10
0.216441
 20
-0.166173
  0
VERTEX
  8
PLAN_1
 62
     2
  6
CONTINUOUS
 10
0.224898
 20
-0.166173
  0
VERTEX
  8
PLAN_1
 62
     2
  6
CONTINUOUS
 10
0.224898
 20
-0.175130
  0
VERTEX
  8
PLAN_1
 62
     2
  6
CONTINUOUS
 10
0.225398
 20
-0.175130
  0
VERTEX
  8
PLAN_1
 62
     2
  6
CONTINUOUS
 10
0.226890
 20
-0.172642
  0
VERTEX
  8
PLAN_1
 62
     2
  6
CONTINUOUS
 10
0.228382
 20
-0.170650
  0
VERTEX
  8
PLAN_1
 62
     2
  6
CONTINUOUS
 10
0.229874
 20
-0.168661
  0
VERTEX
  8
PLAN_1
 62
     2
  6
CONTINUOUS
 10
0.231862
 20
-0.167169
  0
VERTEX
  8
PLAN_1
 62
     2
  6
CONTINUOUS
 10
0.233854
 20
-0.166173
  0
VERTEX
  8
PLAN_1
 62
     2
  6
CONTINUOUS
 10
0.235843
 20
-0.165177
  0
VERTEX
  8
PLAN_1
 62
     2
  6
CONTINUOUS
 10
0.238331
 20
-0.164681
  0
VERTEX
  8
PLAN_1
 62
     2
  6
CONTINUOUS
 10
0.240819
 20
-0.164181
  0
VERTEX
  8
PLAN_1
 62
     2
  6
CONTINUOUS
 10
0.241315
 20
-0.164181
  0
VERTEX
  8
PLAN_1
 62
     2
  6
CONTINUOUS
 10
0.241815
 20
-0.164681
  0
VERTEX
  8
PLAN_1
 62
     2
  6
CONTINUOUS
 10
0.242311
 20
-0.164681
  0
VERTEX
  8
PLAN_1
 62
     2
  6
CONTINUOUS
 10
0.242811
 20
-0.164681
  0
VERTEX
  8
PLAN_1
 62
     2
  6
CONTINUOUS
 10
0.242811
 20
-0.174134
  0
VERTEX
  8
PLAN_1
 62
     2
  6
CONTINUOUS
 10
0.239327
 20
-0.174134
  0
VERTEX
  8
PLAN_1
 62
     2
  6
CONTINUOUS
 10
0.236343
 20
-0.174630
  0
VERTEX
  8
PLAN_1
 62
     2
  6
CONTINUOUS
 10
0.233854
 20
-0.175130
  0
VERTEX
  8
PLAN_1
 62
     2
  6
CONTINUOUS
 10
0.231366
 20
-0.176622
  0
VERTEX
  8
PLAN_1
 62
     2
  6
CONTINUOUS
 10
0.229378
 20
-0.178610
  0
VERTEX
  8
PLAN_1
 62
     2
  6
CONTINUOUS
 10
0.227886
 20
-0.180602
  0
VERTEX
  8
PLAN_1
 62
     2
  6
CONTINUOUS
 10
0.226390
 20
-0.183087
  0
VERTEX
  8
PLAN_1
 62
     2
  6
CONTINUOUS
 10
0.225894
 20
-0.186075
  0
VERTEX
  8
PLAN_1
 62
     2
  6
CONTINUOUS
 10
0.225398
 20
-0.188559
  0
VERTEX
  8
PLAN_1
 62
     2
  6
CONTINUOUS
 10
0.225398
 20
-0.220402
  0
SEQEND
  8
0
  0
POLYLINE
  8
PLAN_1
 62
     2
  6
CONTINUOUS
 66
     1
 40
0.003000
 41
0.003000
  0
VERTEX
  8
PLAN_1
 62
     2
  6
CONTINUOUS
 10
0.272161
 20
-0.164181
  0
VERTEX
  8
PLAN_1
 62
     2
  6
CONTINUOUS
 10
0.275146
 20
-0.164681
  0
VERTEX
  8
PLAN_1
 62
     2
  6
CONTINUOUS
 10
0.278130
 20
-0.165177
  0
VERTEX
  8
PLAN_1
 62
     2
  6
CONTINUOUS
 10
0.280618
 20
-0.165677
  0
VERTEX
  8
PLAN_1
 62
     2
  6
CONTINUOUS
 10
0.283106
 20
-0.166669
  0
VERTEX
  8
PLAN_1
 62
     2
  6
CONTINUOUS
 10
0.285594
 20
-0.168161
  0
VERTEX
  8
PLAN_1
 62
     2
  6
CONTINUOUS
 10
0.287583
 20
-0.169657
  0
VERTEX
  8
PLAN_1
 62
     2
  6
CONTINUOUS
 10
0.289575
 20
-0.171646
  0
VERTEX
  8
PLAN_1
 62
     2
  6
CONTINUOUS
 10
0.291067
 20
-0.173634
  0
VERTEX
  8
PLAN_1
 62
     2
  6
CONTINUOUS
 10
0.294051
 20
-0.177614
  0
VERTEX
  8
PLAN_1
 62
     2
  6
CONTINUOUS
 10
0.295543
 20
-0.182591
  0
VERTEX
  8
PLAN_1
 62
     2
  6
CONTINUOUS
 10
0.297035
 20
-0.188063
  0
VERTEX
  8
PLAN_1
 62
     2
  6
CONTINUOUS
 10
0.297535
 20
-0.193039
  0
VERTEX
  8
PLAN_1
 62
     2
  6
CONTINUOUS
 10
0.297035
 20
-0.198512
  0
VERTEX
  8
PLAN_1
 62
     2
  6
CONTINUOUS
 10
0.295543
 20
-0.203484
  0
VERTEX
  8
PLAN_1
 62
     2
  6
CONTINUOUS
 10
0.294051
 20
-0.208461
  0
VERTEX
  8
PLAN_1
 62
     2
  6
CONTINUOUS
 10
0.291067
 20
-0.212937
  0
VERTEX
  8
PLAN_1
 62
     2
  6
CONTINUOUS
 10
0.289575
 20
-0.214429
  0
VERTEX
  8
PLAN_1
 62
     2
  6
CONTINUOUS
 10
0.287583
 20
-0.216421
  0
VERTEX
  8
PLAN_1
 62
     2
  6
CONTINUOUS
 10
0.285594
 20
-0.217913
  0
VERTEX
  8
PLAN_1
 62
     2
  6
CONTINUOUS
 10
0.283106
 20
-0.219406
  0
VERTEX
  8
PLAN_1
 62
     2
  6
CONTINUOUS
 10
0.280618
 20
-0.220402
  0
VERTEX
  8
PLAN_1
 62
     2
  6
CONTINUOUS
 10
0.278130
 20
-0.221398
  0
VERTEX
  8
PLAN_1
 62
     2
  6
CONTINUOUS
 10
0.275146
 20
-0.221398
  0
VERTEX
  8
PLAN_1
 62
     2
  6
CONTINUOUS
 10
0.272161
 20
-0.221894
  0
VERTEX
  8
PLAN_1
 62
     2
  6
CONTINUOUS
 10
0.268681
 20
-0.221398
  0
VERTEX
  8
PLAN_1
 62
     2
  6
CONTINUOUS
 10
0.265693
 20
-0.221398
  0
VERTEX
  8
PLAN_1
 62
     2
  6
CONTINUOUS
 10
0.263209
 20
-0.220402
  0
VERTEX
  8
PLAN_1
 62
     2
  6
CONTINUOUS
 10
0.260720
 20
-0.219406
  0
VERTEX
  8
PLAN_1
 62
     2
  6
CONTINUOUS
 10
0.258232
 20
-0.217913
  0
VERTEX
  8
PLAN_1
 62
     2
  6
CONTINUOUS
 10
0.256240
 20
-0.216421
  0
VERTEX
  8
PLAN_1
 62
     2
  6
CONTINUOUS
 10
0.254748
 20
-0.214429
  0
VERTEX
  8
PLAN_1
 62
     2
  6
CONTINUOUS
 10
0.252760
 20
-0.212937
  0
VERTEX
  8
PLAN_1
 62
     2
  6
CONTINUOUS
 10
0.250272
 20
-0.208461
  0
VERTEX
  8
PLAN_1
 62
     2
  6
CONTINUOUS
 10
0.248283
 20
-0.203484
  0
VERTEX
  8
PLAN_1
 62
     2
  6
CONTINUOUS
 10
0.247287
 20
-0.198512
  0
VERTEX
  8
PLAN_1
 62
     2
  6
CONTINUOUS
 10
0.246787
 20
-0.193039
  0
VERTEX
  8
PLAN_1
 62
     2
  6
CONTINUOUS
 10
0.247287
 20
-0.188063
  0
VERTEX
  8
PLAN_1
 62
     2
  6
CONTINUOUS
 10
0.248283
 20
-0.182591
  0
VERTEX
  8
PLAN_1
 62
     2
  6
CONTINUOUS
 10
0.250272
 20
-0.177614
  0
VERTEX
  8
PLAN_1
 62
     2
  6
CONTINUOUS
 10
0.252760
 20
-0.173634
  0
VERTEX
  8
PLAN_1
 62
     2
  6
CONTINUOUS
 10
0.254748
 20
-0.171646
  0
VERTEX
  8
PLAN_1
 62
     2
  6
CONTINUOUS
 10
0.256240
 20
-0.169657
  0
VERTEX
  8
PLAN_1
 62
     2
  6
CONTINUOUS
 10
0.258232
 20
-0.168161
  0
VERTEX
  8
PLAN_1
 62
     2
  6
CONTINUOUS
 10
0.260720
 20
-0.166669
  0
VERTEX
  8
PLAN_1
 62
     2
  6
CONTINUOUS
 10
0.263209
 20
-0.165677
  0
VERTEX
  8
PLAN_1
 62
     2
  6
CONTINUOUS
 10
0.265693
 20
-0.165177
  0
VERTEX
  8
PLAN_1
 62
     2
  6
CONTINUOUS
 10
0.268681
 20
-0.164681
  0
VERTEX
  8
PLAN_1
 62
     2
  6
CONTINUOUS
 10
0.272161
 20
-0.164181
  0
SEQEND
  8
0
  0
POLYLINE
  8
PLAN_1
 62
     2
  6
CONTINUOUS
 66
     1
 40
0.003000
 41
0.003000
  0
VERTEX
  8
PLAN_1
 62
     2
  6
CONTINUOUS
 10
0.272161
 20
-0.213933
  0
VERTEX
  8
PLAN_1
 62
     2
  6
CONTINUOUS
 10
0.274154
 20
-0.213933
  0
VERTEX
  8
PLAN_1
 62
     2
  6
CONTINUOUS
 10
0.276638
 20
-0.213437
  0
VERTEX
  8
PLAN_1
 62
     2
  6
CONTINUOUS
 10
0.278130
 20
-0.212441
  0
VERTEX
  8
PLAN_1
 62
     2
  6
CONTINUOUS
 10
0.280122
 20
-0.211445
  0
VERTEX
  8
PLAN_1
 62
     2
  6
CONTINUOUS
 10
0.282610
 20
-0.209457
  0
VERTEX
  8
PLAN_1
 62
     2
  6
CONTINUOUS
 10
0.284598
 20
-0.206472
  0
VERTEX
  8
PLAN_1
 62
     2
  6
CONTINUOUS
 10
0.286091
 20
-0.202988
  0
VERTEX
  8
PLAN_1
 62
     2
  6
CONTINUOUS
 10
0.287087
 20
-0.199504
  0
VERTEX
  8
PLAN_1
 62
     2
  6
CONTINUOUS
 10
0.287583
 20
-0.196024
  0
VERTEX
  8
PLAN_1
 62
     2
  6
CONTINUOUS
 10
0.287583
 20
-0.193039
  0
VERTEX
  8
PLAN_1
 62
     2
  6
CONTINUOUS
 10
0.287583
 20
-0.190055
  0
VERTEX
  8
PLAN_1
 62
     2
  6
CONTINUOUS
 10
0.287087
 20
-0.186571
  0
VERTEX
  8
PLAN_1
 62
     2
  6
CONTINUOUS
 10
0.286091
 20
-0.183087
  0
VERTEX
  8
PLAN_1
 62
     2
  6
CONTINUOUS
 10
0.284598
 20
-0.180102
  0
VERTEX
  8
PLAN_1
 62
     2
  6
CONTINUOUS
 10
0.282610
 20
-0.177118
  0
VERTEX
  8
PLAN_1
 62
     2
  6
CONTINUOUS
 10
0.280122
 20
-0.174630
  0
VERTEX
  8
PLAN_1
 62
     2
  6
CONTINUOUS
 10
0.278130
 20
-0.173634
  0
VERTEX
  8
PLAN_1
 62
     2
  6
CONTINUOUS
 10
0.276638
 20
-0.172642
  0
VERTEX
  8
PLAN_1
 62
     2
  6
CONTINUOUS
 10
0.274154
 20
-0.172642
  0
VERTEX
  8
PLAN_1
 62
     2
  6
CONTINUOUS
 10
0.272161
 20
-0.172142
  0
VERTEX
  8
PLAN_1
 62
     2
  6
CONTINUOUS
 10
0.269673
 20
-0.172642
  0
VERTEX
  8
PLAN_1
 62
     2
  6
CONTINUOUS
 10
0.267685
 20
-0.172642
  0
VERTEX
  8
PLAN_1
 62
     2
  6
CONTINUOUS
 10
0.265693
 20
-0.173634
  0
VERTEX
  8
PLAN_1
 62
     2
  6
CONTINUOUS
 10
0.264201
 20
-0.174630
  0
VERTEX
  8
PLAN_1
 62
     2
  6
CONTINUOUS
 10
0.261217
 20
-0.177118
  0
VERTEX
  8
PLAN_1
 62
     2
  6
CONTINUOUS
 10
0.259228
 20
-0.180102
  0
VERTEX
  8
PLAN_1
 62
     2
  6
CONTINUOUS
 10
0.257732
 20
-0.183087
  0
VERTEX
  8
PLAN_1
 62
     2
  6
CONTINUOUS
 10
0.256740
 20
-0.186571
  0
VERTEX
  8
PLAN_1
 62
     2
  6
CONTINUOUS
 10
0.256240
 20
-0.190055
  0
VERTEX
  8
PLAN_1
 62
     2
  6
CONTINUOUS
 10
0.256240
 20
-0.193039
  0
VERTEX
  8
PLAN_1
 62
     2
  6
CONTINUOUS
 10
0.256240
 20
-0.196024
  0
VERTEX
  8
PLAN_1
 62
     2
  6
CONTINUOUS
 10
0.256740
 20
-0.199504
  0
VERTEX
  8
PLAN_1
 62
     2
  6
CONTINUOUS
 10
0.257732
 20
-0.202988
  0
VERTEX
  8
PLAN_1
 62
     2
  6
CONTINUOUS
 10
0.259228
 20
-0.206472
  0
VERTEX
  8
PLAN_1
 62
     2
  6
CONTINUOUS
 10
0.261217
 20
-0.209457
  0
VERTEX
  8
PLAN_1
 62
     2
  6
CONTINUOUS
 10
0.264201
 20
-0.211445
  0
VERTEX
  8
PLAN_1
 62
     2
  6
CONTINUOUS
 10
0.265693
 20
-0.212441
  0
VERTEX
  8
PLAN_1
 62
     2
  6
CONTINUOUS
 10
0.267685
 20
-0.213437
  0
VERTEX
  8
PLAN_1
 62
     2
  6
CONTINUOUS
 10
0.269673
 20
-0.213933
  0
VERTEX
  8
PLAN_1
 62
     2
  6
CONTINUOUS
 10
0.272161
 20
-0.213933
  0
SEQEND
  8
0
  0
POLYLINE
  8
PLAN_1
 62
     2
  6
CONTINUOUS
 66
     1
 40
0.003000
 41
0.003000
  0
VERTEX
  8
PLAN_1
 62
     2
  6
CONTINUOUS
 10
0.343303
 20
-0.220402
  0
VERTEX
  8
PLAN_1
 62
     2
  6
CONTINUOUS
 10
0.343303
 20
-0.212441
  0
VERTEX
  8
PLAN_1
 62
     2
  6
CONTINUOUS
 10
0.342807
 20
-0.212441
  0
VERTEX
  8
PLAN_1
 62
     2
  6
CONTINUOUS
 10
0.341315
 20
-0.214429
  0
VERTEX
  8
PLAN_1
 62
     2
  6
CONTINUOUS
 10
0.339823
 20
-0.216421
  0
VERTEX
  8
PLAN_1
 62
     2
  6
CONTINUOUS
 10
0.338331
 20
-0.217913
  0
VERTEX
  8
PLAN_1
 62
     2
  6
CONTINUOUS
 10
0.336339
 20
-0.219406
  0
VERTEX
  8
PLAN_1
 62
     2
  6
CONTINUOUS
 10
0.333850
 20
-0.220402
  0
VERTEX
  8
PLAN_1
 62
     2
  6
CONTINUOUS
 10
0.331366
 20
-0.221398
  0
VERTEX
  8
PLAN_1
 62
     2
  6
CONTINUOUS
 10
0.328878
 20
-0.221894
  0
VERTEX
  8
PLAN_1
 62
     2
  6
CONTINUOUS
 10
0.325894
 20
-0.221894
  0
VERTEX
  8
PLAN_1
 62
     2
  6
CONTINUOUS
 10
0.322906
 20
-0.221894
  0
VERTEX
  8
PLAN_1
 62
     2
  6
CONTINUOUS
 10
0.319425
 20
-0.220898
  0
VERTEX
  8
PLAN_1
 62
     2
  6
CONTINUOUS
 10
0.316441
 20
-0.219902
  0
VERTEX
  8
PLAN_1
 62
     2
  6
CONTINUOUS
 10
0.313953
 20
-0.218409
  0
VERTEX
  8
PLAN_1
 62
     2
  6
CONTINUOUS
 10
0.311465
 20
-0.215925
  0
VERTEX
  8
PLAN_1
 62
     2
  6
CONTINUOUS
 10
0.309476
 20
-0.212937
  0
VERTEX
  8
PLAN_1
 62
     2
  6
CONTINUOUS
 10
0.308480
 20
-0.209457
  0
VERTEX
  8
PLAN_1
 62
     2
  6
CONTINUOUS
 10
0.307980
 20
-0.204976
  0
VERTEX
  8
PLAN_1
 62
     2
  6
CONTINUOUS
 10
0.307980
 20
-0.166173
  0
VERTEX
  8
PLAN_1
 62
     2
  6
CONTINUOUS
 10
0.317433
 20
-0.166173
  0
VERTEX
  8
PLAN_1
 62
     2
  6
CONTINUOUS
 10
0.317433
 20
-0.201992
  0
VERTEX
  8
PLAN_1
 62
     2
  6
CONTINUOUS
 10
0.317433
 20
-0.204976
  0
VERTEX
  8
PLAN_1
 62
     2
  6
CONTINUOUS
 10
0.317933
 20
-0.207465
  0
VERTEX
  8
PLAN_1
 62
     2
  6
CONTINUOUS
 10
0.318925
 20
-0.209953
  0
VERTEX
  8
PLAN_1
 62
     2
  6
CONTINUOUS
 10
0.320421
 20
-0.211445
  0
VERTEX
  8
PLAN_1
 62
     2
  6
CONTINUOUS
 10
0.321913
 20
-0.212441
  0
VERTEX
  8
PLAN_1
 62
     2
  6
CONTINUOUS
 10
0.323406
 20
-0.213437
  0
VERTEX
  8
PLAN_1
 62
     2
  6
CONTINUOUS
 10
0.325394
 20
-0.213933
  0
VERTEX
  8
PLAN_1
 62
     2
  6
CONTINUOUS
 10
0.327882
 20
-0.213933
  0
VERTEX
  8
PLAN_1
 62
     2
  6
CONTINUOUS
 10
0.331862
 20
-0.213437
  0
VERTEX
  8
PLAN_1
 62
     2
  6
CONTINUOUS
 10
0.334846
 20
-0.212441
  0
VERTEX
  8
PLAN_1
 62
     2
  6
CONTINUOUS
 10
0.337335
 20
-0.210453
  0
VERTEX
  8
PLAN_1
 62
     2
  6
CONTINUOUS
 10
0.339323
 20
-0.207965
  0
VERTEX
  8
PLAN_1
 62
     2
  6
CONTINUOUS
 10
0.340819
 20
-0.204976
  0
VERTEX
  8
PLAN_1
 62
     2
  6
CONTINUOUS
 10
0.341811
 20
-0.201992
  0
VERTEX
  8
PLAN_1
 62
     2
  6
CONTINUOUS
 10
0.342311
 20
-0.199008
  0
VERTEX
  8
PLAN_1
 62
     2
  6
CONTINUOUS
 10
0.342807
 20
-0.196024
  0
VERTEX
  8
PLAN_1
 62
     2
  6
CONTINUOUS
 10
0.342807
 20
-0.166173
  0
VERTEX
  8
PLAN_1
 62
     2
  6
CONTINUOUS
 10
0.351764
 20
-0.166173
  0
VERTEX
  8
PLAN_1
 62
     2
  6
CONTINUOUS
 10
0.351764
 20
-0.220402
  0
VERTEX
  8
PLAN_1
 62
     2
  6
CONTINUOUS
 10
0.343303
 20
-0.220402
  0
SEQEND
  8
0
  0
POLYLINE
  8
PLAN_1
 62
     2
  6
CONTINUOUS
 66
     1
 40
0.003000
 41
0.003000
  0
VERTEX
  8
PLAN_1
 62
     2
  6
CONTINUOUS
 10
0.405992
 20
-0.173634
  0
VERTEX
  8
PLAN_1
 62
     2
  6
CONTINUOUS
 10
0.405992
 20
-0.208957
  0
VERTEX
  8
PLAN_1
 62
     2
  6
CONTINUOUS
 10
0.405992
 20
-0.210453
  0
VERTEX
  8
PLAN_1
 62
     2
  6
CONTINUOUS
 10
0.406488
 20
-0.211445
  0
VERTEX
  8
PLAN_1
 62
     2
  6
CONTINUOUS
 10
0.406984
 20
-0.211945
  0
VERTEX
  8
PLAN_1
 62
     2
  6
CONTINUOUS
 10
0.407980
 20
-0.212441
  0
VERTEX
  8
PLAN_1
 62
     2
  6
CONTINUOUS
 10
0.408976
 20
-0.212937
  0
VERTEX
  8
PLAN_1
 62
     2
  6
CONTINUOUS
 10
0.409472
 20
-0.212937
  0
VERTEX
  8
PLAN_1
 62
     2
  6
CONTINUOUS
 10
0.410469
 20
-0.212937
  0
VERTEX
  8
PLAN_1
 62
     2
  6
CONTINUOUS
 10
0.411465
 20
-0.212937
  0
VERTEX
  8
PLAN_1
 62
     2
  6
CONTINUOUS
 10
0.414449
 20
-0.212937
  0
VERTEX
  8
PLAN_1
 62
     2
  6
CONTINUOUS
 10
0.414449
 20
-0.220402
  0
VERTEX
  8
PLAN_1
 62
     2
  6
CONTINUOUS
 10
0.413453
 20
-0.220402
  0
VERTEX
  8
PLAN_1
 62
     2
  6
CONTINUOUS
 10
0.411961
 20
-0.220402
  0
VERTEX
  8
PLAN_1
 62
     2
  6
CONTINUOUS
 10
0.410965
 20
-0.220898
  0
VERTEX
  8
PLAN_1
 62
     2
  6
CONTINUOUS
 10
0.409969
 20
-0.220898
  0
VERTEX
  8
PLAN_1
 62
     2
  6
CONTINUOUS
 10
0.409472
 20
-0.220898
  0
VERTEX
  8
PLAN_1
 62
     2
  6
CONTINUOUS
 10
0.408476
 20
-0.220898
  0
VERTEX
  8
PLAN_1
 62
     2
  6
CONTINUOUS
 10
0.407980
 20
-0.220898
  0
VERTEX
  8
PLAN_1
 62
     2
  6
CONTINUOUS
 10
0.407484
 20
-0.220898
  0
VERTEX
  8
PLAN_1
 62
     2
  6
CONTINUOUS
 10
0.404496
 20
-0.220898
  0
VERTEX
  8
PLAN_1
 62
     2
  6
CONTINUOUS
 10
0.402012
 20
-0.220402
  0
VERTEX
  8
PLAN_1
 62
     2
  6
CONTINUOUS
 10
0.400020
 20
-0.218909
  0
VERTEX
  8
PLAN_1
 62
     2
  6
CONTINUOUS
 10
0.398528
 20
-0.217913
  0
VERTEX
  8
PLAN_1
 62
     2
  6
CONTINUOUS
 10
0.397531
 20
-0.215925
  0
VERTEX
  8
PLAN_1
 62
     2
  6
CONTINUOUS
 10
0.397035
 20
-0.213933
  0
VERTEX
  8
PLAN_1
 62
     2
  6
CONTINUOUS
 10
0.396539
 20
-0.211945
  0
VERTEX
  8
PLAN_1
 62
     2
  6
CONTINUOUS
 10
0.396539
 20
-0.209457
  0
VERTEX
  8
PLAN_1
 62
     2
  6
CONTINUOUS
 10
0.396539
 20
-0.173634
  0
VERTEX
  8
PLAN_1
 62
     2
  6
CONTINUOUS
 10
0.389075
 20
-0.173634
  0
VERTEX
  8
PLAN_1
 62
     2
  6
CONTINUOUS
 10
0.389075
 20
-0.166173
  0
VERTEX
  8
PLAN_1
 62
     2
  6
CONTINUOUS
 10
0.396539
 20
-0.166173
  0
VERTEX
  8
PLAN_1
 62
     2
  6
CONTINUOUS
 10
0.396539
 20
-0.150752
  0
VERTEX
  8
PLAN_1
 62
     2
  6
CONTINUOUS
 10
0.405992
 20
-0.150752
  0
VERTEX
  8
PLAN_1
 62
     2
  6
CONTINUOUS
 10
0.405992
 20
-0.166173
  0
VERTEX
  8
PLAN_1
 62
     2
  6
CONTINUOUS
 10
0.414449
 20
-0.166173
  0
VERTEX
  8
PLAN_1
 62
     2
  6
CONTINUOUS
 10
0.414449
 20
-0.173634
  0
VERTEX
  8
PLAN_1
 62
     2
  6
CONTINUOUS
 10
0.405992
 20
-0.173634
  0
SEQEND
  8
0
  0
POLYLINE
  8
PLAN_1
 62
     2
  6
CONTINUOUS
 66
     1
 40
0.003000
 41
0.003000
  0
VERTEX
  8
PLAN_1
 62
     2
  6
CONTINUOUS
 10
0.423402
 20
-0.182591
  0
VERTEX
  8
PLAN_1
 62
     2
  6
CONTINUOUS
 10
0.423902
 20
-0.178114
  0
VERTEX
  8
PLAN_1
 62
     2
  6
CONTINUOUS
 10
0.424894
 20
-0.174134
  0
VERTEX
  8
PLAN_1
 62
     2
  6
CONTINUOUS
 10
0.426886
 20
-0.171150
  0
VERTEX
  8
PLAN_1
 62
     2
  6
CONTINUOUS
 10
0.429374
 20
-0.168661
  0
VERTEX
  8
PLAN_1
 62
     2
  6
CONTINUOUS
 10
0.432854
 20
-0.166669
  0
VERTEX
  8
PLAN_1
 62
     2
  6
CONTINUOUS
 10
0.436339
 20
-0.165177
  0
VERTEX
  8
PLAN_1
 62
     2
  6
CONTINUOUS
 10
0.440815
 20
-0.164681
  0
VERTEX
  8
PLAN_1
 62
     2
  6
CONTINUOUS
 10
0.445791
 20
-0.164181
  0
VERTEX
  8
PLAN_1
 62
     2
  6
CONTINUOUS
 10
0.447780
 20
-0.164681
  0
VERTEX
  8
PLAN_1
 62
     2
  6
CONTINUOUS
 10
0.450764
 20
-0.164681
  0
VERTEX
  8
PLAN_1
 62
     2
  6
CONTINUOUS
 10
0.453752
 20
-0.165677
  0
VERTEX
  8
PLAN_1
 62
     2
  6
CONTINUOUS
 10
0.457232
 20
-0.166669
  0
VERTEX
  8
PLAN_1
 62
     2
  6
CONTINUOUS
 10
0.460717
 20
-0.168661
  0
VERTEX
  8
PLAN_1
 62
     2
  6
CONTINUOUS
 10
0.463205
 20
-0.171150
  0
VERTEX
  8
PLAN_1
 62
     2
  6
CONTINUOUS
 10
0.464197
 20
-0.173138
  0
VERTEX
  8
PLAN_1
 62
     2
  6
CONTINUOUS
 10
0.465193
 20
-0.175130
  0
VERTEX
  8
PLAN_1
 62
     2
  6
CONTINUOUS
 10
0.465689
 20
-0.177118
  0
VERTEX
  8
PLAN_1
 62
     2
  6
CONTINUOUS
 10
0.465689
 20
-0.179606
  0
VERTEX
  8
PLAN_1
 62
     2
  6
CONTINUOUS
 10
0.465689
 20
-0.210949
  0
VERTEX
  8
PLAN_1
 62
     2
  6
CONTINUOUS
 10
0.465689
 20
-0.211445
  0
VERTEX
  8
PLAN_1
 62
     2
  6
CONTINUOUS
 10
0.466189
 20
-0.212441
  0
VERTEX
  8
PLAN_1
 62
     2
  6
CONTINUOUS
 10
0.466189
 20
-0.212937
  0
VERTEX
  8
PLAN_1
 62
     2
  6
CONTINUOUS
 10
0.466685
 20
-0.213437
  0
VERTEX
  8
PLAN_1
 62
     2
  6
CONTINUOUS
 10
0.467185
 20
-0.213933
  0
VERTEX
  8
PLAN_1
 62
     2
  6
CONTINUOUS
 10
0.467681
 20
-0.213933
  0
VERTEX
  8
PLAN_1
 62
     2
  6
CONTINUOUS
 10
0.468177
 20
-0.213933
  0
VERTEX
  8
PLAN_1
 62
     2
  6
CONTINUOUS
 10
0.468677
 20
-0.213933
  0
VERTEX
  8
PLAN_1
 62
     2
  6
CONTINUOUS
 10
0.469173
 20
-0.213933
  0
VERTEX
  8
PLAN_1
 62
     2
  6
CONTINUOUS
 10
0.469669
 20
-0.213933
  0
VERTEX
  8
PLAN_1
 62
     2
  6
CONTINUOUS
 10
0.470169
 20
-0.213933
  0
VERTEX
  8
PLAN_1
 62
     2
  6
CONTINUOUS
 10
0.470665
 20
-0.213933
  0
VERTEX
  8
PLAN_1
 62
     2
  6
CONTINUOUS
 10
0.471161
 20
-0.213933
  0
VERTEX
  8
PLAN_1
 62
     2
  6
CONTINUOUS
 10
0.471661
 20
-0.213933
  0
VERTEX
  8
PLAN_1
 62
     2
  6
CONTINUOUS
 10
0.471661
 20
-0.220402
  0
VERTEX
  8
PLAN_1
 62
     2
  6
CONTINUOUS
 10
0.471161
 20
-0.220402
  0
VERTEX
  8
PLAN_1
 62
     2
  6
CONTINUOUS
 10
0.470665
 20
-0.220898
  0
VERTEX
  8
PLAN_1
 62
     2
  6
CONTINUOUS
 10
0.470169
 20
-0.220898
  0
VERTEX
  8
PLAN_1
 62
     2
  6
CONTINUOUS
 10
0.469669
 20
-0.220898
  0
VERTEX
  8
PLAN_1
 62
     2
  6
CONTINUOUS
 10
0.469173
 20
-0.221398
  0
VERTEX
  8
PLAN_1
 62
     2
  6
CONTINUOUS
 10
0.468177
 20
-0.221398
  0
VERTEX
  8
PLAN_1
 62
     2
  6
CONTINUOUS
 10
0.467681
 20
-0.221398
  0
VERTEX
  8
PLAN_1
 62
     2
  6
CONTINUOUS
 10
0.466685
 20
-0.221398
  0
VERTEX
  8
PLAN_1
 62
     2
  6
CONTINUOUS
 10
0.464197
 20
-0.221398
  0
VERTEX
  8
PLAN_1
 62
     2
  6
CONTINUOUS
 10
0.462209
 20
-0.220898
  0
VERTEX
  8
PLAN_1
 62
     2
  6
CONTINUOUS
 10
0.460217
 20
-0.219902
  0
VERTEX
  8
PLAN_1
 62
     2
  6
CONTINUOUS
 10
0.459224
 20
-0.218909
  0
VERTEX
  8
PLAN_1
 62
     2
  6
CONTINUOUS
 10
0.458228
 20
-0.217417
  0
VERTEX
  8
PLAN_1
 62
     2
  6
CONTINUOUS
 10
0.457732
 20
-0.215925
  0
VERTEX
  8
PLAN_1
 62
     2
  6
CONTINUOUS
 10
0.457232
 20
-0.214429
  0
VERTEX
  8
PLAN_1
 62
     2
  6
CONTINUOUS
 10
0.457232
 20
-0.212937
  0
VERTEX
  8
PLAN_1
 62
     2
  6
CONTINUOUS
 10
0.455740
 20
-0.214429
  0
VERTEX
  8
PLAN_1
 62
     2
  6
CONTINUOUS
 10
0.454248
 20
-0.215925
  0
VERTEX
  8
PLAN_1
 62
     2
  6
CONTINUOUS
 10
0.452260
 20
-0.217417
  0
VERTEX
  8
PLAN_1
 62
     2
  6
CONTINUOUS
 10
0.450268
 20
-0.218909
  0
VERTEX
  8
PLAN_1
 62
     2
  6
CONTINUOUS
 10
0.447283
 20
-0.219902
  0
VERTEX
  8
PLAN_1
 62
     2
  6
CONTINUOUS
 10
0.444795
 20
-0.220898
  0
VERTEX
  8
PLAN_1
 62
     2
  6
CONTINUOUS
 10
0.441311
 20
-0.221894
  0
VERTEX
  8
PLAN_1
 62
     2
  6
CONTINUOUS
 10
0.437335
 20
-0.221894
  0
VERTEX
  8
PLAN_1
 62
     2
  6
CONTINUOUS
 10
0.433850
 20
-0.221398
  0
VERTEX
  8
PLAN_1
 62
     2
  6
CONTINUOUS
 10
0.430866
 20
-0.220898
  0
VERTEX
  8
PLAN_1
 62
     2
  6
CONTINUOUS
 10
0.427882
 20
-0.219406
  0
VERTEX
  8
PLAN_1
 62
     2
  6
CONTINUOUS
 10
0.425394
 20
-0.217417
  0
VERTEX
  8
PLAN_1
 62
     2
  6
CONTINUOUS
 10
0.423402
 20
-0.215425
  0
VERTEX
  8
PLAN_1
 62
     2
  6
CONTINUOUS
 10
0.421909
 20
-0.212441
  0
VERTEX
  8
PLAN_1
 62
     2
  6
CONTINUOUS
 10
0.420913
 20
-0.209457
  0
VERTEX
  8
PLAN_1
 62
     2
  6
CONTINUOUS
 10
0.420417
 20
-0.205972
  0
VERTEX
  8
PLAN_1
 62
     2
  6
CONTINUOUS
 10
0.420417
 20
-0.204480
  0
VERTEX
  8
PLAN_1
 62
     2
  6
CONTINUOUS
 10
0.420913
 20
-0.201992
  0
VERTEX
  8
PLAN_1
 62
     2
  6
CONTINUOUS
 10
0.421909
 20
-0.199504
  0
VERTEX
  8
PLAN_1
 62
     2
  6
CONTINUOUS
 10
0.422906
 20
-0.196520
  0
VERTEX
  8
PLAN_1
 62
     2
  6
CONTINUOUS
 10
0.424894
 20
-0.194031
  0
VERTEX
  8
PLAN_1
 62
     2
  6
CONTINUOUS
 10
0.427882
 20
-0.192043
  0
VERTEX
  8
PLAN_1
 62
     2
  6
CONTINUOUS
 10
0.431862
 20
-0.190055
  0
VERTEX
  8
PLAN_1
 62
     2
  6
CONTINUOUS
 10
0.436835
 20
-0.189059
  0
VERTEX
  8
PLAN_1
 62
     2
  6
CONTINUOUS
 10
0.452260
 20
-0.187067
  0
VERTEX
  8
PLAN_1
 62
     2
  6
CONTINUOUS
 10
0.452756
 20
-0.187067
  0
VERTEX
  8
PLAN_1
 62
     2
  6
CONTINUOUS
 10
0.453752
 20
-0.187067
  0
VERTEX
  8
PLAN_1
 62
     2
  6
CONTINUOUS
 10
0.454744
 20
-0.186571
  0
VERTEX
  8
PLAN_1
 62
     2
  6
CONTINUOUS
 10
0.455244
 20
-0.186075
  0
VERTEX
  8
PLAN_1
 62
     2
  6
CONTINUOUS
 10
0.455740
 20
-0.185079
  0
VERTEX
  8
PLAN_1
 62
     2
  6
CONTINUOUS
 10
0.456236
 20
-0.184083
  0
VERTEX
  8
PLAN_1
 62
     2
  6
CONTINUOUS
 10
0.456736
 20
-0.182591
  0
VERTEX
  8
PLAN_1
 62
     2
  6
CONTINUOUS
 10
0.456736
 20
-0.180602
  0
VERTEX
  8
PLAN_1
 62
     2
  6
CONTINUOUS
 10
0.456736
 20
-0.178610
  0
VERTEX
  8
PLAN_1
 62
     2
  6
CONTINUOUS
 10
0.456236
 20
-0.177118
  0
VERTEX
  8
PLAN_1
 62
     2
  6
CONTINUOUS
 10
0.455244
 20
-0.175626
  0
VERTEX
  8
PLAN_1
 62
     2
  6
CONTINUOUS
 10
0.453752
 20
-0.174134
  0
VERTEX
  8
PLAN_1
 62
     2
  6
CONTINUOUS
 10
0.451760
 20
-0.173138
  0
VERTEX
  8
PLAN_1
 62
     2
  6
CONTINUOUS
 10
0.449772
 20
-0.172642
  0
VERTEX
  8
PLAN_1
 62
     2
  6
CONTINUOUS
 10
0.447283
 20
-0.172142
  0
VERTEX
  8
PLAN_1
 62
     2
  6
CONTINUOUS
 10
0.444299
 20
-0.172142
  0
VERTEX
  8
PLAN_1
 62
     2
  6
CONTINUOUS
 10
0.440815
 20
-0.172142
  0
VERTEX
  8
PLAN_1
 62
     2
  6
CONTINUOUS
 10
0.437831
 20
-0.173138
  0
VERTEX
  8
PLAN_1
 62
     2
  6
CONTINUOUS
 10
0.435839
 20
-0.174134
  0
VERTEX
  8
PLAN_1
 62
     2
  6
CONTINUOUS
 10
0.434346
 20
-0.175626
  0
VERTEX
  8
PLAN_1
 62
     2
  6
CONTINUOUS
 10
0.432854
 20
-0.177118
  0
VERTEX
  8
PLAN_1
 62
     2
  6
CONTINUOUS
 10
0.432358
 20
-0.179106
  0
VERTEX
  8
PLAN_1
 62
     2
  6
CONTINUOUS
 10
0.431862
 20
-0.180602
  0
VERTEX
  8
PLAN_1
 62
     2
  6
CONTINUOUS
 10
0.431362
 20
-0.182591
  0
VERTEX
  8
PLAN_1
 62
     2
  6
CONTINUOUS
 10
0.423402
 20
-0.182591
  0
SEQEND
  8
0
  0
POLYLINE
  8
PLAN_1
 62
     2
  6
CONTINUOUS
 66
     1
 40
0.003000
 41
0.003000
  0
VERTEX
  8
PLAN_1
 62
     2
  6
CONTINUOUS
 10
0.456736
 20
-0.192539
  0
VERTEX
  8
PLAN_1
 62
     2
  6
CONTINUOUS
 10
0.456236
 20
-0.193039
  0
VERTEX
  8
PLAN_1
 62
     2
  6
CONTINUOUS
 10
0.455244
 20
-0.193535
  0
VERTEX
  8
PLAN_1
 62
     2
  6
CONTINUOUS
 10
0.454248
 20
-0.193535
  0
VERTEX
  8
PLAN_1
 62
     2
  6
CONTINUOUS
 10
0.452756
 20
-0.194031
  0
VERTEX
  8
PLAN_1
 62
     2
  6
CONTINUOUS
 10
0.450764
 20
-0.194531
  0
VERTEX
  8
PLAN_1
 62
     2
  6
CONTINUOUS
 10
0.448280
 20
-0.195028
  0
VERTEX
  8
PLAN_1
 62
     2
  6
CONTINUOUS
 10
0.445291
 20
-0.195528
  0
VERTEX
  8
PLAN_1
 62
     2
  6
CONTINUOUS
 10
0.441811
 20
-0.196024
  0
VERTEX
  8
PLAN_1
 62
     2
  6
CONTINUOUS
 10
0.439819
 20
-0.196520
  0
VERTEX
  8
PLAN_1
 62
     2
  6
CONTINUOUS
 10
0.437831
 20
-0.196520
  0
VERTEX
  8
PLAN_1
 62
     2
  6
CONTINUOUS
 10
0.435839
 20
-0.197516
  0
VERTEX
  8
PLAN_1
 62
     2
  6
CONTINUOUS
 10
0.433850
 20
-0.198012
  0
VERTEX
  8
PLAN_1
 62
     2
  6
CONTINUOUS
 10
0.432358
 20
-0.199008
  0
VERTEX
  8
PLAN_1
 62
     2
  6
CONTINUOUS
 10
0.431362
 20
-0.200500
  0
VERTEX
  8
PLAN_1
 62
     2
  6
CONTINUOUS
 10
0.430366
 20
-0.202492
  0
VERTEX
  8
PLAN_1
 62
     2
  6
CONTINUOUS
 10
0.429870
 20
-0.204976
  0
VERTEX
  8
PLAN_1
 62
     2
  6
CONTINUOUS
 10
0.429870
 20
-0.206969
  0
VERTEX
  8
PLAN_1
 62
     2
  6
CONTINUOUS
 10
0.430366
 20
-0.208957
  0
VERTEX
  8
PLAN_1
 62
     2
  6
CONTINUOUS
 10
0.431362
 20
-0.210453
  0
VERTEX
  8
PLAN_1
 62
     2
  6
CONTINUOUS
 10
0.432358
 20
-0.211945
  0
VERTEX
  8
PLAN_1
 62
     2
  6
CONTINUOUS
 10
0.433850
 20
-0.212937
  0
VERTEX
  8
PLAN_1
 62
     2
  6
CONTINUOUS
 10
0.435343
 20
-0.213437
  0
VERTEX
  8
PLAN_1
 62
     2
  6
CONTINUOUS
 10
0.437335
 20
-0.213933
  0
VERTEX
  8
PLAN_1
 62
     2
  6
CONTINUOUS
 10
0.439819
 20
-0.214429
  0
VERTEX
  8
PLAN_1
 62
     2
  6
CONTINUOUS
 10
0.442807
 20
-0.213933
  0
VERTEX
  8
PLAN_1
 62
     2
  6
CONTINUOUS
 10
0.446287
 20
-0.213437
  0
VERTEX
  8
PLAN_1
 62
     2
  6
CONTINUOUS
 10
0.448776
 20
-0.211945
  0
VERTEX
  8
PLAN_1
 62
     2
  6
CONTINUOUS
 10
0.451264
 20
-0.210453
  0
VERTEX
  8
PLAN_1
 62
     2
  6
CONTINUOUS
 10
0.453752
 20
-0.208957
  0
VERTEX
  8
PLAN_1
 62
     2
  6
CONTINUOUS
 10
0.455244
 20
-0.206472
  0
VERTEX
  8
PLAN_1
 62
     2
  6
CONTINUOUS
 10
0.456236
 20
-0.203984
  0
VERTEX
  8
PLAN_1
 62
     2
  6
CONTINUOUS
 10
0.456736
 20
-0.201496
  0
VERTEX
  8
PLAN_1
 62
     2
  6
CONTINUOUS
 10
0.456736
 20
-0.192539
  0
SEQEND
  8
0
  0
POLYLINE
  8
PLAN_1
 62
     2
  6
CONTINUOUS
 66
     1
 40
0.003000
 41
0.003000
  0
VERTEX
  8
PLAN_1
 62
     2
  6
CONTINUOUS
 10
0.491559
 20
-0.220402
  0
VERTEX
  8
PLAN_1
 62
     2
  6
CONTINUOUS
 10
0.482606
 20
-0.220402
  0
VERTEX
  8
PLAN_1
 62
     2
  6
CONTINUOUS
 10
0.482606
 20
-0.166173
  0
VERTEX
  8
PLAN_1
 62
     2
  6
CONTINUOUS
 10
0.491063
 20
-0.166173
  0
VERTEX
  8
PLAN_1
 62
     2
  6
CONTINUOUS
 10
0.491063
 20
-0.175130
  0
VERTEX
  8
PLAN_1
 62
     2
  6
CONTINUOUS
 10
0.491559
 20
-0.175130
  0
VERTEX
  8
PLAN_1
 62
     2
  6
CONTINUOUS
 10
0.493055
 20
-0.172642
  0
VERTEX
  8
PLAN_1
 62
     2
  6
CONTINUOUS
 10
0.494547
 20
-0.170650
  0
VERTEX
  8
PLAN_1
 62
     2
  6
CONTINUOUS
 10
0.496039
 20
-0.168661
  0
VERTEX
  8
PLAN_1
 62
     2
  6
CONTINUOUS
 10
0.498028
 20
-0.167169
  0
VERTEX
  8
PLAN_1
 62
     2
  6
CONTINUOUS
 10
0.500020
 20
-0.166173
  0
VERTEX
  8
PLAN_1
 62
     2
  6
CONTINUOUS
 10
0.502008
 20
-0.165177
  0
VERTEX
  8
PLAN_1
 62
     2
  6
CONTINUOUS
 10
0.504496
 20
-0.164681
  0
VERTEX
  8
PLAN_1
 62
     2
  6
CONTINUOUS
 10
0.506984
 20
-0.164181
  0
VERTEX
  8
PLAN_1
 62
     2
  6
CONTINUOUS
 10
0.507480
 20
-0.164181
  0
VERTEX
  8
PLAN_1
 62
     2
  6
CONTINUOUS
 10
0.507980
 20
-0.164681
  0
VERTEX
  8
PLAN_1
 62
     2
  6
CONTINUOUS
 10
0.508476
 20
-0.164681
  0
VERTEX
  8
PLAN_1
 62
     2
  6
CONTINUOUS
 10
0.508972
 20
-0.164681
  0
VERTEX
  8
PLAN_1
 62
     2
  6
CONTINUOUS
 10
0.508972
 20
-0.174134
  0
VERTEX
  8
PLAN_1
 62
     2
  6
CONTINUOUS
 10
0.505492
 20
-0.174134
  0
VERTEX
  8
PLAN_1
 62
     2
  6
CONTINUOUS
 10
0.502504
 20
-0.174630
  0
VERTEX
  8
PLAN_1
 62
     2
  6
CONTINUOUS
 10
0.500020
 20
-0.175130
  0
VERTEX
  8
PLAN_1
 62
     2
  6
CONTINUOUS
 10
0.497531
 20
-0.176622
  0
VERTEX
  8
PLAN_1
 62
     2
  6
CONTINUOUS
 10
0.495539
 20
-0.178610
  0
VERTEX
  8
PLAN_1
 62
     2
  6
CONTINUOUS
 10
0.494047
 20
-0.180602
  0
VERTEX
  8
PLAN_1
 62
     2
  6
CONTINUOUS
 10
0.492555
 20
-0.183087
  0
VERTEX
  8
PLAN_1
 62
     2
  6
CONTINUOUS
 10
0.492059
 20
-0.186075
  0
VERTEX
  8
PLAN_1
 62
     2
  6
CONTINUOUS
 10
0.491559
 20
-0.188559
  0
VERTEX
  8
PLAN_1
 62
     2
  6
CONTINUOUS
 10
0.491559
 20
-0.220402
  0
SEQEND
  8
0
  0
POLYLINE
  8
PLAN_1
 62
     2
  6
CONTINUOUS
 66
     1
 40
0.003000
 41
0.003000
  0
VERTEX
  8
PLAN_1
 62
     2
  6
CONTINUOUS
 10
0.514945
 20
-0.182591
  0
VERTEX
  8
PLAN_1
 62
     2
  6
CONTINUOUS
 10
0.515441
 20
-0.178114
  0
VERTEX
  8
PLAN_1
 62
     2
  6
CONTINUOUS
 10
0.516437
 20
-0.174134
  0
VERTEX
  8
PLAN_1
 62
     2
  6
CONTINUOUS
 10
0.518425
 20
-0.171150
  0
VERTEX
  8
PLAN_1
 62
     2
  6
CONTINUOUS
 10
0.520913
 20
-0.168661
  0
VERTEX
  8
PLAN_1
 62
     2
  6
CONTINUOUS
 10
0.524398
 20
-0.166669
  0
VERTEX
  8
PLAN_1
 62
     2
  6
CONTINUOUS
 10
0.527878
 20
-0.165177
  0
VERTEX
  8
PLAN_1
 62
     2
  6
CONTINUOUS
 10
0.532354
 20
-0.164681
  0
VERTEX
  8
PLAN_1
 62
     2
  6
CONTINUOUS
 10
0.537331
 20
-0.164181
  0
VERTEX
  8
PLAN_1
 62
     2
  6
CONTINUOUS
 10
0.539323
 20
-0.164681
  0
VERTEX
  8
PLAN_1
 62
     2
  6
CONTINUOUS
 10
0.542307
 20
-0.164681
  0
VERTEX
  8
PLAN_1
 62
     2
  6
CONTINUOUS
 10
0.545291
 20
-0.165677
  0
VERTEX
  8
PLAN_1
 62
     2
  6
CONTINUOUS
 10
0.548776
 20
-0.166669
  0
VERTEX
  8
PLAN_1
 62
     2
  6
CONTINUOUS
 10
0.552256
 20
-0.168661
  0
VERTEX
  8
PLAN_1
 62
     2
  6
CONTINUOUS
 10
0.554744
 20
-0.171150
  0
VERTEX
  8
PLAN_1
 62
     2
  6
CONTINUOUS
 10
0.555740
 20
-0.173138
  0
VERTEX
  8
PLAN_1
 62
     2
  6
CONTINUOUS
 10
0.556732
 20
-0.175130
  0
VERTEX
  8
PLAN_1
 62
     2
  6
CONTINUOUS
 10
0.557232
 20
-0.177118
  0
VERTEX
  8
PLAN_1
 62
     2
  6
CONTINUOUS
 10
0.557232
 20
-0.179606
  0
VERTEX
  8
PLAN_1
 62
     2
  6
CONTINUOUS
 10
0.557232
 20
-0.210949
  0
VERTEX
  8
PLAN_1
 62
     2
  6
CONTINUOUS
 10
0.557232
 20
-0.211445
  0
VERTEX
  8
PLAN_1
 62
     2
  6
CONTINUOUS
 10
0.557728
 20
-0.212441
  0
VERTEX
  8
PLAN_1
 62
     2
  6
CONTINUOUS
 10
0.557728
 20
-0.212937
  0
VERTEX
  8
PLAN_1
 62
     2
  6
CONTINUOUS
 10
0.558224
 20
-0.213437
  0
VERTEX
  8
PLAN_1
 62
     2
  6
CONTINUOUS
 10
0.558724
 20
-0.213933
  0
VERTEX
  8
PLAN_1
 62
     2
  6
CONTINUOUS
 10
0.559220
 20
-0.213933
  0
VERTEX
  8
PLAN_1
 62
     2
  6
CONTINUOUS
 10
0.559720
 20
-0.213933
  0
VERTEX
  8
PLAN_1
 62
     2
  6
CONTINUOUS
 10
0.560217
 20
-0.213933
  0
VERTEX
  8
PLAN_1
 62
     2
  6
CONTINUOUS
 10
0.560713
 20
-0.213933
  0
VERTEX
  8
PLAN_1
 62
     2
  6
CONTINUOUS
 10
0.561213
 20
-0.213933
  0
VERTEX
  8
PLAN_1
 62
     2
  6
CONTINUOUS
 10
0.561709
 20
-0.213933
  0
VERTEX
  8
PLAN_1
 62
     2
  6
CONTINUOUS
 10
0.562205
 20
-0.213933
  0
VERTEX
  8
PLAN_1
 62
     2
  6
CONTINUOUS
 10
0.562705
 20
-0.213933
  0
VERTEX
  8
PLAN_1
 62
     2
  6
CONTINUOUS
 10
0.563201
 20
-0.213933
  0
VERTEX
  8
PLAN_1
 62
     2
  6
CONTINUOUS
 10
0.563201
 20
-0.220402
  0
VERTEX
  8
PLAN_1
 62
     2
  6
CONTINUOUS
 10
0.562705
 20
-0.220402
  0
VERTEX
  8
PLAN_1
 62
     2
  6
CONTINUOUS
 10
0.562205
 20
-0.220898
  0
VERTEX
  8
PLAN_1
 62
     2
  6
CONTINUOUS
 10
0.561709
 20
-0.220898
  0
VERTEX
  8
PLAN_1
 62
     2
  6
CONTINUOUS
 10
0.561213
 20
-0.220898
  0
VERTEX
  8
PLAN_1
 62
     2
  6
CONTINUOUS
 10
0.560713
 20
-0.221398
  0
VERTEX
  8
PLAN_1
 62
     2
  6
CONTINUOUS
 10
0.559720
 20
-0.221398
  0
VERTEX
  8
PLAN_1
 62
     2
  6
CONTINUOUS
 10
0.559220
 20
-0.221398
  0
VERTEX
  8
PLAN_1
 62
     2
  6
CONTINUOUS
 10
0.558224
 20
-0.221398
  0
VERTEX
  8
PLAN_1
 62
     2
  6
CONTINUOUS
 10
0.555740
 20
-0.221398
  0
VERTEX
  8
PLAN_1
 62
     2
  6
CONTINUOUS
 10
0.553252
 20
-0.220898
  0
VERTEX
  8
PLAN_1
 62
     2
  6
CONTINUOUS
 10
0.551760
 20
-0.219902
  0
VERTEX
  8
PLAN_1
 62
     2
  6
CONTINUOUS
 10
0.550764
 20
-0.218909
  0
VERTEX
  8
PLAN_1
 62
     2
  6
CONTINUOUS
 10
0.549768
 20
-0.217417
  0
VERTEX
  8
PLAN_1
 62
     2
  6
CONTINUOUS
 10
0.549272
 20
-0.215925
  0
VERTEX
  8
PLAN_1
 62
     2
  6
CONTINUOUS
 10
0.548776
 20
-0.214429
  0
VERTEX
  8
PLAN_1
 62
     2
  6
CONTINUOUS
 10
0.548776
 20
-0.212937
  0
VERTEX
  8
PLAN_1
 62
     2
  6
CONTINUOUS
 10
0.547280
 20
-0.214429
  0
VERTEX
  8
PLAN_1
 62
     2
  6
CONTINUOUS
 10
0.545787
 20
-0.215925
  0
VERTEX
  8
PLAN_1
 62
     2
  6
CONTINUOUS
 10
0.543799
 20
-0.217417
  0
VERTEX
  8
PLAN_1
 62
     2
  6
CONTINUOUS
 10
0.541311
 20
-0.218909
  0
VERTEX
  8
PLAN_1
 62
     2
  6
CONTINUOUS
 10
0.538823
 20
-0.219902
  0
VERTEX
  8
PLAN_1
 62
     2
  6
CONTINUOUS
 10
0.536335
 20
-0.220898
  0
VERTEX
  8
PLAN_1
 62
     2
  6
CONTINUOUS
 10
0.532854
 20
-0.221894
  0
VERTEX
  8
PLAN_1
 62
     2
  6
CONTINUOUS
 10
0.528874
 20
-0.221894
  0
VERTEX
  8
PLAN_1
 62
     2
  6
CONTINUOUS
 10
0.525390
 20
-0.221398
  0
VERTEX
  8
PLAN_1
 62
     2
  6
CONTINUOUS
 10
0.522406
 20
-0.220898
  0
VERTEX
  8
PLAN_1
 62
     2
  6
CONTINUOUS
 10
0.519421
 20
-0.219406
  0
VERTEX
  8
PLAN_1
 62
     2
  6
CONTINUOUS
 10
0.516933
 20
-0.217417
  0
VERTEX
  8
PLAN_1
 62
     2
  6
CONTINUOUS
 10
0.514945
 20
-0.215425
  0
VERTEX
  8
PLAN_1
 62
     2
  6
CONTINUOUS
 10
0.513453
 20
-0.212441
  0
VERTEX
  8
PLAN_1
 62
     2
  6
CONTINUOUS
 10
0.512457
 20
-0.209457
  0
VERTEX
  8
PLAN_1
 62
     2
  6
CONTINUOUS
 10
0.511957
 20
-0.205972
  0
VERTEX
  8
PLAN_1
 62
     2
  6
CONTINUOUS
 10
0.511957
 20
-0.204480
  0
VERTEX
  8
PLAN_1
 62
     2
  6
CONTINUOUS
 10
0.512457
 20
-0.201992
  0
VERTEX
  8
PLAN_1
 62
     2
  6
CONTINUOUS
 10
0.513453
 20
-0.199504
  0
VERTEX
  8
PLAN_1
 62
     2
  6
CONTINUOUS
 10
0.514445
 20
-0.196520
  0
VERTEX
  8
PLAN_1
 62
     2
  6
CONTINUOUS
 10
0.516437
 20
-0.194031
  0
VERTEX
  8
PLAN_1
 62
     2
  6
CONTINUOUS
 10
0.519421
 20
-0.192043
  0
VERTEX
  8
PLAN_1
 62
     2
  6
CONTINUOUS
 10
0.523402
 20
-0.190055
  0
VERTEX
  8
PLAN_1
 62
     2
  6
CONTINUOUS
 10
0.528378
 20
-0.189059
  0
VERTEX
  8
PLAN_1
 62
     2
  6
CONTINUOUS
 10
0.543799
 20
-0.187067
  0
VERTEX
  8
PLAN_1
 62
     2
  6
CONTINUOUS
 10
0.544295
 20
-0.187067
  0
VERTEX
  8
PLAN_1
 62
     2
  6
CONTINUOUS
 10
0.545291
 20
-0.187067
  0
VERTEX
  8
PLAN_1
 62
     2
  6
CONTINUOUS
 10
0.546287
 20
-0.186571
  0
VERTEX
  8
PLAN_1
 62
     2
  6
CONTINUOUS
 10
0.546783
 20
-0.186075
  0
VERTEX
  8
PLAN_1
 62
     2
  6
CONTINUOUS
 10
0.547280
 20
-0.185079
  0
VERTEX
  8
PLAN_1
 62
     2
  6
CONTINUOUS
 10
0.547780
 20
-0.184083
  0
VERTEX
  8
PLAN_1
 62
     2
  6
CONTINUOUS
 10
0.548276
 20
-0.182591
  0
VERTEX
  8
PLAN_1
 62
     2
  6
CONTINUOUS
 10
0.548276
 20
-0.180602
  0
VERTEX
  8
PLAN_1
 62
     2
  6
CONTINUOUS
 10
0.548276
 20
-0.178610
  0
VERTEX
  8
PLAN_1
 62
     2
  6
CONTINUOUS
 10
0.547780
 20
-0.177118
  0
VERTEX
  8
PLAN_1
 62
     2
  6
CONTINUOUS
 10
0.546783
 20
-0.175626
  0
VERTEX
  8
PLAN_1
 62
     2
  6
CONTINUOUS
 10
0.545291
 20
-0.174134
  0
VERTEX
  8
PLAN_1
 62
     2
  6
CONTINUOUS
 10
0.543299
 20
-0.173138
  0
VERTEX
  8
PLAN_1
 62
     2
  6
CONTINUOUS
 10
0.541311
 20
-0.172642
  0
VERTEX
  8
PLAN_1
 62
     2
  6
CONTINUOUS
 10
0.538823
 20
-0.172142
  0
VERTEX
  8
PLAN_1
 62
     2
  6
CONTINUOUS
 10
0.535839
 20
-0.172142
  0
VERTEX
  8
PLAN_1
 62
     2
  6
CONTINUOUS
 10
0.532354
 20
-0.172142
  0
VERTEX
  8
PLAN_1
 62
     2
  6
CONTINUOUS
 10
0.529370
 20
-0.173138
  0
VERTEX
  8
PLAN_1
 62
     2
  6
CONTINUOUS
 10
0.527382
 20
-0.174134
  0
VERTEX
  8
PLAN_1
 62
     2
  6
CONTINUOUS
 10
0.525890
 20
-0.175626
  0
VERTEX
  8
PLAN_1
 62
     2
  6
CONTINUOUS
 10
0.524398
 20
-0.177118
  0
VERTEX
  8
PLAN_1
 62
     2
  6
CONTINUOUS
 10
0.523898
 20
-0.179106
  0
VERTEX
  8
PLAN_1
 62
     2
  6
CONTINUOUS
 10
0.523402
 20
-0.180602
  0
VERTEX
  8
PLAN_1
 62
     2
  6
CONTINUOUS
 10
0.522902
 20
-0.182591
  0
VERTEX
  8
PLAN_1
 62
     2
  6
CONTINUOUS
 10
0.514945
 20
-0.182591
  0
SEQEND
  8
0
  0
POLYLINE
  8
PLAN_1
 62
     2
  6
CONTINUOUS
 66
     1
 40
0.003000
 41
0.003000
  0
VERTEX
  8
PLAN_1
 62
     2
  6
CONTINUOUS
 10
0.548276
 20
-0.192539
  0
VERTEX
  8
PLAN_1
 62
     2
  6
CONTINUOUS
 10
0.547780
 20
-0.193039
  0
VERTEX
  8
PLAN_1
 62
     2
  6
CONTINUOUS
 10
0.546783
 20
-0.193535
  0
VERTEX
  8
PLAN_1
 62
     2
  6
CONTINUOUS
 10
0.545787
 20
-0.193535
  0
VERTEX
  8
PLAN_1
 62
     2
  6
CONTINUOUS
 10
0.544295
 20
-0.194031
  0
VERTEX
  8
PLAN_1
 62
     2
  6
CONTINUOUS
 10
0.542307
 20
-0.194531
  0
VERTEX
  8
PLAN_1
 62
     2
  6
CONTINUOUS
 10
0.539819
 20
-0.195028
  0
VERTEX
  8
PLAN_1
 62
     2
  6
CONTINUOUS
 10
0.536835
 20
-0.195528
  0
VERTEX
  8
PLAN_1
 62
     2
  6
CONTINUOUS
 10
0.533350
 20
-0.196024
  0
VERTEX
  8
PLAN_1
 62
     2
  6
CONTINUOUS
 10
0.531362
 20
-0.196520
  0
VERTEX
  8
PLAN_1
 62
     2
  6
CONTINUOUS
 10
0.529370
 20
-0.196520
  0
VERTEX
  8
PLAN_1
 62
     2
  6
CONTINUOUS
 10
0.527382
 20
-0.197516
  0
VERTEX
  8
PLAN_1
 62
     2
  6
CONTINUOUS
 10
0.525390
 20
-0.198012
  0
VERTEX
  8
PLAN_1
 62
     2
  6
CONTINUOUS
 10
0.523898
 20
-0.199008
  0
VERTEX
  8
PLAN_1
 62
     2
  6
CONTINUOUS
 10
0.522902
 20
-0.200500
  0
VERTEX
  8
PLAN_1
 62
     2
  6
CONTINUOUS
 10
0.521909
 20
-0.202492
  0
VERTEX
  8
PLAN_1
 62
     2
  6
CONTINUOUS
 10
0.521409
 20
-0.204976
  0
VERTEX
  8
PLAN_1
 62
     2
  6
CONTINUOUS
 10
0.521409
 20
-0.206969
  0
VERTEX
  8
PLAN_1
 62
     2
  6
CONTINUOUS
 10
0.521909
 20
-0.208957
  0
VERTEX
  8
PLAN_1
 62
     2
  6
CONTINUOUS
 10
0.522902
 20
-0.210453
  0
VERTEX
  8
PLAN_1
 62
     2
  6
CONTINUOUS
 10
0.523898
 20
-0.211945
  0
VERTEX
  8
PLAN_1
 62
     2
  6
CONTINUOUS
 10
0.525390
 20
-0.212937
  0
VERTEX
  8
PLAN_1
 62
     2
  6
CONTINUOUS
 10
0.526882
 20
-0.213437
  0
VERTEX
  8
PLAN_1
 62
     2
  6
CONTINUOUS
 10
0.528874
 20
-0.213933
  0
VERTEX
  8
PLAN_1
 62
     2
  6
CONTINUOUS
 10
0.531362
 20
-0.214429
  0
VERTEX
  8
PLAN_1
 62
     2
  6
CONTINUOUS
 10
0.534346
 20
-0.213933
  0
VERTEX
  8
PLAN_1
 62
     2
  6
CONTINUOUS
 10
0.537331
 20
-0.213437
  0
VERTEX
  8
PLAN_1
 62
     2
  6
CONTINUOUS
 10
0.540315
 20
-0.211945
  0
VERTEX
  8
PLAN_1
 62
     2
  6
CONTINUOUS
 10
0.542803
 20
-0.210453
  0
VERTEX
  8
PLAN_1
 62
     2
  6
CONTINUOUS
 10
0.545291
 20
-0.208957
  0
VERTEX
  8
PLAN_1
 62
     2
  6
CONTINUOUS
 10
0.546783
 20
-0.206472
  0
VERTEX
  8
PLAN_1
 62
     2
  6
CONTINUOUS
 10
0.547780
 20
-0.203984
  0
VERTEX
  8
PLAN_1
 62
     2
  6
CONTINUOUS
 10
0.548276
 20
-0.201496
  0
VERTEX
  8
PLAN_1
 62
     2
  6
CONTINUOUS
 10
0.548276
 20
-0.192539
  0
SEQEND
  8
0
  0
POLYLINE
  8
PLAN_1
 62
     2
  6
CONTINUOUS
 66
     1
 40
0.003000
 41
0.003000
  0
VERTEX
  8
PLAN_1
 62
     2
  6
CONTINUOUS
 10
0.608472
 20
-0.220402
  0
VERTEX
  8
PLAN_1
 62
     2
  6
CONTINUOUS
 10
0.608472
 20
-0.212441
  0
VERTEX
  8
PLAN_1
 62
     2
  6
CONTINUOUS
 10
0.607976
 20
-0.212441
  0
VERTEX
  8
PLAN_1
 62
     2
  6
CONTINUOUS
 10
0.606484
 20
-0.214429
  0
VERTEX
  8
PLAN_1
 62
     2
  6
CONTINUOUS
 10
0.604992
 20
-0.216421
  0
VERTEX
  8
PLAN_1
 62
     2
  6
CONTINUOUS
 10
0.603500
 20
-0.217913
  0
VERTEX
  8
PLAN_1
 62
     2
  6
CONTINUOUS
 10
0.601508
 20
-0.219406
  0
VERTEX
  8
PLAN_1
 62
     2
  6
CONTINUOUS
 10
0.599020
 20
-0.220402
  0
VERTEX
  8
PLAN_1
 62
     2
  6
CONTINUOUS
 10
0.596535
 20
-0.221398
  0
VERTEX
  8
PLAN_1
 62
     2
  6
CONTINUOUS
 10
0.594047
 20
-0.221894
  0
VERTEX
  8
PLAN_1
 62
     2
  6
CONTINUOUS
 10
0.591063
 20
-0.221894
  0
VERTEX
  8
PLAN_1
 62
     2
  6
CONTINUOUS
 10
0.588075
 20
-0.221894
  0
VERTEX
  8
PLAN_1
 62
     2
  6
CONTINUOUS
 10
0.584594
 20
-0.220898
  0
VERTEX
  8
PLAN_1
 62
     2
  6
CONTINUOUS
 10
0.581610
 20
-0.219902
  0
VERTEX
  8
PLAN_1
 62
     2
  6
CONTINUOUS
 10
0.579122
 20
-0.218409
  0
VERTEX
  8
PLAN_1
 62
     2
  6
CONTINUOUS
 10
0.576634
 20
-0.215925
  0
VERTEX
  8
PLAN_1
 62
     2
  6
CONTINUOUS
 10
0.574646
 20
-0.212937
  0
VERTEX
  8
PLAN_1
 62
     2
  6
CONTINUOUS
 10
0.573650
 20
-0.209457
  0
VERTEX
  8
PLAN_1
 62
     2
  6
CONTINUOUS
 10
0.573150
 20
-0.204976
  0
VERTEX
  8
PLAN_1
 62
     2
  6
CONTINUOUS
 10
0.573150
 20
-0.166173
  0
VERTEX
  8
PLAN_1
 62
     2
  6
CONTINUOUS
 10
0.582602
 20
-0.166173
  0
VERTEX
  8
PLAN_1
 62
     2
  6
CONTINUOUS
 10
0.582602
 20
-0.201992
  0
VERTEX
  8
PLAN_1
 62
     2
  6
CONTINUOUS
 10
0.582602
 20
-0.204976
  0
VERTEX
  8
PLAN_1
 62
     2
  6
CONTINUOUS
 10
0.583102
 20
-0.207465
  0
VERTEX
  8
PLAN_1
 62
     2
  6
CONTINUOUS
 10
0.584094
 20
-0.209953
  0
VERTEX
  8
PLAN_1
 62
     2
  6
CONTINUOUS
 10
0.585591
 20
-0.211445
  0
VERTEX
  8
PLAN_1
 62
     2
  6
CONTINUOUS
 10
0.587083
 20
-0.212441
  0
VERTEX
  8
PLAN_1
 62
     2
  6
CONTINUOUS
 10
0.588575
 20
-0.213437
  0
VERTEX
  8
PLAN_1
 62
     2
  6
CONTINUOUS
 10
0.590563
 20
-0.213933
  0
VERTEX
  8
PLAN_1
 62
     2
  6
CONTINUOUS
 10
0.593051
 20
-0.213933
  0
VERTEX
  8
PLAN_1
 62
     2
  6
CONTINUOUS
 10
0.597031
 20
-0.213437
  0
VERTEX
  8
PLAN_1
 62
     2
  6
CONTINUOUS
 10
0.600016
 20
-0.212441
  0
VERTEX
  8
PLAN_1
 62
     2
  6
CONTINUOUS
 10
0.602504
 20
-0.210453
  0
VERTEX
  8
PLAN_1
 62
     2
  6
CONTINUOUS
 10
0.604492
 20
-0.207965
  0
VERTEX
  8
PLAN_1
 62
     2
  6
CONTINUOUS
 10
0.605988
 20
-0.204976
  0
VERTEX
  8
PLAN_1
 62
     2
  6
CONTINUOUS
 10
0.606980
 20
-0.201992
  0
VERTEX
  8
PLAN_1
 62
     2
  6
CONTINUOUS
 10
0.607480
 20
-0.199008
  0
VERTEX
  8
PLAN_1
 62
     2
  6
CONTINUOUS
 10
0.607976
 20
-0.196024
  0
VERTEX
  8
PLAN_1
 62
     2
  6
CONTINUOUS
 10
0.607976
 20
-0.166173
  0
VERTEX
  8
PLAN_1
 62
     2
  6
CONTINUOUS
 10
0.616933
 20
-0.166173
  0
VERTEX
  8
PLAN_1
 62
     2
  6
CONTINUOUS
 10
0.616933
 20
-0.220402
  0
VERTEX
  8
PLAN_1
 62
     2
  6
CONTINUOUS
 10
0.608472
 20
-0.220402
  0
SEQEND
  8
0
  0
POLYLINE
  8
PLAN_1
 62
     2
  6
CONTINUOUS
 66
     1
 40
0.003000
 41
0.003000
  0
VERTEX
  8
PLAN_1
 62
     2
  6
CONTINUOUS
 10
0.676134
 20
-0.220402
  0
VERTEX
  8
PLAN_1
 62
     2
  6
CONTINUOUS
 10
0.667181
 20
-0.220402
  0
VERTEX
  8
PLAN_1
 62
     2
  6
CONTINUOUS
 10
0.667181
 20
-0.212937
  0
VERTEX
  8
PLAN_1
 62
     2
  6
CONTINUOUS
 10
0.665685
 20
-0.215425
  0
VERTEX
  8
PLAN_1
 62
     2
  6
CONTINUOUS
 10
0.663697
 20
-0.217417
  0
VERTEX
  8
PLAN_1
 62
     2
  6
CONTINUOUS
 10
0.661709
 20
-0.218909
  0
VERTEX
  8
PLAN_1
 62
     2
  6
CONTINUOUS
 10
0.659717
 20
-0.220402
  0
VERTEX
  8
PLAN_1
 62
     2
  6
CONTINUOUS
 10
0.657728
 20
-0.220898
  0
VERTEX
  8
PLAN_1
 62
     2
  6
CONTINUOUS
 10
0.655736
 20
-0.221398
  0
VERTEX
  8
PLAN_1
 62
     2
  6
CONTINUOUS
 10
0.653748
 20
-0.221894
  0
VERTEX
  8
PLAN_1
 62
     2
  6
CONTINUOUS
 10
0.651756
 20
-0.221894
  0
VERTEX
  8
PLAN_1
 62
     2
  6
CONTINUOUS
 10
0.648276
 20
-0.221894
  0
VERTEX
  8
PLAN_1
 62
     2
  6
CONTINUOUS
 10
0.645287
 20
-0.220898
  0
VERTEX
  8
PLAN_1
 62
     2
  6
CONTINUOUS
 10
0.642303
 20
-0.220402
  0
VERTEX
  8
PLAN_1
 62
     2
  6
CONTINUOUS
 10
0.639815
 20
-0.218909
  0
VERTEX
  8
PLAN_1
 62
     2
  6
CONTINUOUS
 10
0.637827
 20
-0.217417
  0
VERTEX
  8
PLAN_1
 62
     2
  6
CONTINUOUS
 10
0.635839
 20
-0.215925
  0
VERTEX
  8
PLAN_1
 62
     2
  6
CONTINUOUS
 10
0.634343
 20
-0.213933
  0
VERTEX
  8
PLAN_1
 62
     2
  6
CONTINUOUS
 10
0.632850
 20
-0.211445
  0
VERTEX
  8
PLAN_1
 62
     2
  6
CONTINUOUS
 10
0.630366
 20
-0.206969
  0
VERTEX
  8
PLAN_1
 62
     2
  6
CONTINUOUS
 10
0.628870
 20
-0.201992
  0
VERTEX
  8
PLAN_1
 62
     2
  6
CONTINUOUS
 10
0.627878
 20
-0.196520
  0
VERTEX
  8
PLAN_1
 62
     2
  6
CONTINUOUS
 10
0.627878
 20
-0.191547
  0
VERTEX
  8
PLAN_1
 62
     2
  6
CONTINUOUS
 10
0.627878
 20
-0.186075
  0
VERTEX
  8
PLAN_1
 62
     2
  6
CONTINUOUS
 10
0.629370
 20
-0.180602
  0
VERTEX
  8
PLAN_1
 62
     2
  6
CONTINUOUS
 10
0.630862
 20
-0.176122
  0
VERTEX
  8
PLAN_1
 62
     2
  6
CONTINUOUS
 10
0.633350
 20
-0.172142
  0
VERTEX
  8
PLAN_1
 62
     2
  6
CONTINUOUS
 10
0.635339
 20
-0.170650
  0
VERTEX
  8
PLAN_1
 62
     2
  6
CONTINUOUS
 10
0.636831
 20
-0.169157
  0
VERTEX
  8
PLAN_1
 62
     2
  6
CONTINUOUS
 10
0.638823
 20
-0.167665
  0
VERTEX
  8
PLAN_1
 62
     2
  6
CONTINUOUS
 10
0.640811
 20
-0.166669
  0
VERTEX
  8
PLAN_1
 62
     2
  6
CONTINUOUS
 10
0.642803
 20
-0.165677
  0
VERTEX
  8
PLAN_1
 62
     2
  6
CONTINUOUS
 10
0.645287
 20
-0.164681
  0
VERTEX
  8
PLAN_1
 62
     2
  6
CONTINUOUS
 10
0.647776
 20
-0.164681
  0
VERTEX
  8
PLAN_1
 62
     2
  6
CONTINUOUS
 10
0.650264
 20
-0.164181
  0
VERTEX
  8
PLAN_1
 62
     2
  6
CONTINUOUS
 10
0.653748
 20
-0.164681
  0
VERTEX
  8
PLAN_1
 62
     2
  6
CONTINUOUS
 10
0.656732
 20
-0.165177
  0
VERTEX
  8
PLAN_1
 62
     2
  6
CONTINUOUS
 10
0.659220
 20
-0.166669
  0
VERTEX
  8
PLAN_1
 62
     2
  6
CONTINUOUS
 10
0.661209
 20
-0.167665
  0
VERTEX
  8
PLAN_1
 62
     2
  6
CONTINUOUS
 10
0.663201
 20
-0.169157
  0
VERTEX
  8
PLAN_1
 62
     2
  6
CONTINUOUS
 10
0.664693
 20
-0.170650
  0
VERTEX
  8
PLAN_1
 62
     2
  6
CONTINUOUS
 10
0.665685
 20
-0.172142
  0
VERTEX
  8
PLAN_1
 62
     2
  6
CONTINUOUS
 10
0.666681
 20
-0.173634
  0
VERTEX
  8
PLAN_1
 62
     2
  6
CONTINUOUS
 10
0.666681
 20
-0.173138
  0
VERTEX
  8
PLAN_1
 62
     2
  6
CONTINUOUS
 10
0.666681
 20
-0.145776
  0
VERTEX
  8
PLAN_1
 62
     2
  6
CONTINUOUS
 10
0.676134
 20
-0.145776
  0
VERTEX
  8
PLAN_1
 62
     2
  6
CONTINUOUS
 10
0.676134
 20
-0.220402
  0
SEQEND
  8
0
  0
POLYLINE
  8
PLAN_1
 62
     2
  6
CONTINUOUS
 66
     1
 40
0.003000
 41
0.003000
  0
VERTEX
  8
PLAN_1
 62
     2
  6
CONTINUOUS
 10
0.651756
 20
-0.213933
  0
VERTEX
  8
PLAN_1
 62
     2
  6
CONTINUOUS
 10
0.654244
 20
-0.213933
  0
VERTEX
  8
PLAN_1
 62
     2
  6
CONTINUOUS
 10
0.656732
 20
-0.212937
  0
VERTEX
  8
PLAN_1
 62
     2
  6
CONTINUOUS
 10
0.659220
 20
-0.211945
  0
VERTEX
  8
PLAN_1
 62
     2
  6
CONTINUOUS
 10
0.661209
 20
-0.210453
  0
VERTEX
  8
PLAN_1
 62
     2
  6
CONTINUOUS
 10
0.663697
 20
-0.207965
  0
VERTEX
  8
PLAN_1
 62
     2
  6
CONTINUOUS
 10
0.665189
 20
-0.204480
  0
VERTEX
  8
PLAN_1
 62
     2
  6
CONTINUOUS
 10
0.666185
 20
-0.200500
  0
VERTEX
  8
PLAN_1
 62
     2
  6
CONTINUOUS
 10
0.666681
 20
-0.195528
  0
VERTEX
  8
PLAN_1
 62
     2
  6
CONTINUOUS
 10
0.666681
 20
-0.192043
  0
VERTEX
  8
PLAN_1
 62
     2
  6
CONTINUOUS
 10
0.666185
 20
-0.188559
  0
VERTEX
  8
PLAN_1
 62
     2
  6
CONTINUOUS
 10
0.665685
 20
-0.184579
  0
VERTEX
  8
PLAN_1
 62
     2
  6
CONTINUOUS
 10
0.664193
 20
-0.180602
  0
VERTEX
  8
PLAN_1
 62
     2
  6
CONTINUOUS
 10
0.662701
 20
-0.177614
  0
VERTEX
  8
PLAN_1
 62
     2
  6
CONTINUOUS
 10
0.659717
 20
-0.175130
  0
VERTEX
  8
PLAN_1
 62
     2
  6
CONTINUOUS
 10
0.658224
 20
-0.174134
  0
VERTEX
  8
PLAN_1
 62
     2
  6
CONTINUOUS
 10
0.656236
 20
-0.173138
  0
VERTEX
  8
PLAN_1
 62
     2
  6
CONTINUOUS
 10
0.654244
 20
-0.172642
  0
VERTEX
  8
PLAN_1
 62
     2
  6
CONTINUOUS
 10
0.652256
 20
-0.172642
  0
VERTEX
  8
PLAN_1
 62
     2
  6
CONTINUOUS
 10
0.649268
 20
-0.172642
  0
VERTEX
  8
PLAN_1
 62
     2
  6
CONTINUOUS
 10
0.647280
 20
-0.173138
  0
VERTEX
  8
PLAN_1
 62
     2
  6
CONTINUOUS
 10
0.645287
 20
-0.174134
  0
VERTEX
  8
PLAN_1
 62
     2
  6
CONTINUOUS
 10
0.643795
 20
-0.174630
  0
VERTEX
  8
PLAN_1
 62
     2
  6
CONTINUOUS
 10
0.641311
 20
-0.177118
  0
VERTEX
  8
PLAN_1
 62
     2
  6
CONTINUOUS
 10
0.639319
 20
-0.180102
  0
VERTEX
  8
PLAN_1
 62
     2
  6
CONTINUOUS
 10
0.638323
 20
-0.183587
  0
VERTEX
  8
PLAN_1
 62
     2
  6
CONTINUOUS
 10
0.637331
 20
-0.187067
  0
VERTEX
  8
PLAN_1
 62
     2
  6
CONTINUOUS
 10
0.637331
 20
-0.190055
  0
VERTEX
  8
PLAN_1
 62
     2
  6
CONTINUOUS
 10
0.637331
 20
-0.193039
  0
VERTEX
  8
PLAN_1
 62
     2
  6
CONTINUOUS
 10
0.637331
 20
-0.197516
  0
VERTEX
  8
PLAN_1
 62
     2
  6
CONTINUOUS
 10
0.637827
 20
-0.201496
  0
VERTEX
  8
PLAN_1
 62
     2
  6
CONTINUOUS
 10
0.639319
 20
-0.204976
  0
VERTEX
  8
PLAN_1
 62
     2
  6
CONTINUOUS
 10
0.640811
 20
-0.207965
  0
VERTEX
  8
PLAN_1
 62
     2
  6
CONTINUOUS
 10
0.642803
 20
-0.210453
  0
VERTEX
  8
PLAN_1
 62
     2
  6
CONTINUOUS
 10
0.645287
 20
-0.212441
  0
VERTEX
  8
PLAN_1
 62
     2
  6
CONTINUOUS
 10
0.648276
 20
-0.213437
  0
VERTEX
  8
PLAN_1
 62
     2
  6
CONTINUOUS
 10
0.651756
 20
-0.213933
  0
SEQEND
  8
0
  0
SOLID
  8
PLAN_1
 62
     2
 10
0.713449
 20
-0.158709
 11
0.706480
 21
-0.158709
 12
0.726878
 22
-0.143783
 13
0.715437
 23
-0.143783
  0
POLYLINE
  8
PLAN_1
 62
     2
  6
CONTINUOUS
 66
     1
 40
0.003000
 41
0.003000
  0
VERTEX
  8
PLAN_1
 62
     2
  6
CONTINUOUS
 10
0.713449
 20
-0.158709
  0
VERTEX
  8
PLAN_1
 62
     2
  6
CONTINUOUS
 10
0.706480
 20
-0.158709
  0
VERTEX
  8
PLAN_1
 62
     2
  6
CONTINUOUS
 10
0.715437
 20
-0.143783
  0
VERTEX
  8
PLAN_1
 62
     2
  6
CONTINUOUS
 10
0.726878
 20
-0.143783
  0
VERTEX
  8
PLAN_1
 62
     2
  6
CONTINUOUS
 10
0.713449
 20
-0.158709
  0
SEQEND
  8
0
  0
POLYLINE
  8
PLAN_1
 62
     2
  6
CONTINUOUS
 66
     1
 40
0.003000
 41
0.003000
  0
VERTEX
  8
PLAN_1
 62
     2
  6
CONTINUOUS
 10
0.734839
 20
-0.203484
  0
VERTEX
  8
PLAN_1
 62
     2
  6
CONTINUOUS
 10
0.734839
 20
-0.204480
  0
VERTEX
  8
PLAN_1
 62
     2
  6
CONTINUOUS
 10
0.734343
 20
-0.205972
  0
VERTEX
  8
PLAN_1
 62
     2
  6
CONTINUOUS
 10
0.733346
 20
-0.207965
  0
VERTEX
  8
PLAN_1
 62
     2
  6
CONTINUOUS
 10
0.732354
 20
-0.209953
  0
VERTEX
  8
PLAN_1
 62
     2
  6
CONTINUOUS
 10
0.731358
 20
-0.211945
  0
VERTEX
  8
PLAN_1
 62
     2
  6
CONTINUOUS
 10
0.729366
 20
-0.214429
  0
VERTEX
  8
PLAN_1
 62
     2
  6
CONTINUOUS
 10
0.727378
 20
-0.216421
  0
VERTEX
  8
PLAN_1
 62
     2
  6
CONTINUOUS
 10
0.725386
 20
-0.218409
  0
VERTEX
  8
PLAN_1
 62
     2
  6
CONTINUOUS
 10
0.724394
 20
-0.218909
  0
VERTEX
  8
PLAN_1
 62
     2
  6
CONTINUOUS
 10
0.722902
 20
-0.219406
  0
VERTEX
  8
PLAN_1
 62
     2
  6
CONTINUOUS
 10
0.721906
 20
-0.219902
  0
VERTEX
  8
PLAN_1
 62
     2
  6
CONTINUOUS
 10
0.719913
 20
-0.220898
  0
VERTEX
  8
PLAN_1
 62
     2
  6
CONTINUOUS
 10
0.718421
 20
-0.221398
  0
VERTEX
  8
PLAN_1
 62
     2
  6
CONTINUOUS
 10
0.715933
 20
-0.221398
  0
VERTEX
  8
PLAN_1
 62
     2
  6
CONTINUOUS
 10
0.713449
 20
-0.221894
  0
VERTEX
  8
PLAN_1
 62
     2
  6
CONTINUOUS
 10
0.710461
 20
-0.221894
  0
VERTEX
  8
PLAN_1
 62
     2
  6
CONTINUOUS
 10
0.707476
 20
-0.221894
  0
VERTEX
  8
PLAN_1
 62
     2
  6
CONTINUOUS
 10
0.704988
 20
-0.221398
  0
VERTEX
  8
PLAN_1
 62
     2
  6
CONTINUOUS
 10
0.702504
 20
-0.220898
  0
VERTEX
  8
PLAN_1
 62
     2
  6
CONTINUOUS
 10
0.700016
 20
-0.219902
  0
VERTEX
  8
PLAN_1
 62
     2
  6
CONTINUOUS
 10
0.698024
 20
-0.218909
  0
VERTEX
  8
PLAN_1
 62
     2
  6
CONTINUOUS
 10
0.696035
 20
-0.217417
  0
VERTEX
  8
PLAN_1
 62
     2
  6
CONTINUOUS
 10
0.694043
 20
-0.215925
  0
VERTEX
  8
PLAN_1
 62
     2
  6
CONTINUOUS
 10
0.692551
 20
-0.213933
  0
VERTEX
  8
PLAN_1
 62
     2
  6
CONTINUOUS
 10
0.689567
 20
-0.209953
  0
VERTEX
  8
PLAN_1
 62
     2
  6
CONTINUOUS
 10
0.687579
 20
-0.205476
  0
VERTEX
  8
PLAN_1
 62
     2
  6
CONTINUOUS
 10
0.686583
 20
-0.200500
  0
VERTEX
  8
PLAN_1
 62
     2
  6
CONTINUOUS
 10
0.686083
 20
-0.194531
  0
VERTEX
  8
PLAN_1
 62
     2
  6
CONTINUOUS
 10
0.686583
 20
-0.188559
  0
VERTEX
  8
PLAN_1
 62
     2
  6
CONTINUOUS
 10
0.687579
 20
-0.182591
  0
VERTEX
  8
PLAN_1
 62
     2
  6
CONTINUOUS
 10
0.688571
 20
-0.180102
  0
VERTEX
  8
PLAN_1
 62
     2
  6
CONTINUOUS
 10
0.689567
 20
-0.177614
  0
VERTEX
  8
PLAN_1
 62
     2
  6
CONTINUOUS
 10
0.691059
 20
-0.175130
  0
VERTEX
  8
PLAN_1
 62
     2
  6
CONTINUOUS
 10
0.692551
 20
-0.173138
  0
VERTEX
  8
PLAN_1
 62
     2
  6
CONTINUOUS
 10
0.694043
 20
-0.171150
  0
VERTEX
  8
PLAN_1
 62
     2
  6
CONTINUOUS
 10
0.696035
 20
-0.169657
  0
VERTEX
  8
PLAN_1
 62
     2
  6
CONTINUOUS
 10
0.698024
 20
-0.168161
  0
VERTEX
  8
PLAN_1
 62
     2
  6
CONTINUOUS
 10
0.700512
 20
-0.166669
  0
VERTEX
  8
PLAN_1
 62
     2
  6
CONTINUOUS
 10
0.703000
 20
-0.165677
  0
VERTEX
  8
PLAN_1
 62
     2
  6
CONTINUOUS
 10
0.705984
 20
-0.165177
  0
VERTEX
  8
PLAN_1
 62
     2
  6
CONTINUOUS
 10
0.708969
 20
-0.164681
  0
VERTEX
  8
PLAN_1
 62
     2
  6
CONTINUOUS
 10
0.711957
 20
-0.164181
  0
VERTEX
  8
PLAN_1
 62
     2
  6
CONTINUOUS
 10
0.714941
 20
-0.164681
  0
VERTEX
  8
PLAN_1
 62
     2
  6
CONTINUOUS
 10
0.717925
 20
-0.165177
  0
VERTEX
  8
PLAN_1
 62
     2
  6
CONTINUOUS
 10
0.720413
 20
-0.165677
  0
VERTEX
  8
PLAN_1
 62
     2
  6
CONTINUOUS
 10
0.722402
 20
-0.166669
  0
VERTEX
  8
PLAN_1
 62
     2
  6
CONTINUOUS
 10
0.724394
 20
-0.167665
  0
VERTEX
  8
PLAN_1
 62
     2
  6
CONTINUOUS
 10
0.726382
 20
-0.169157
  0
VERTEX
  8
PLAN_1
 62
     2
  6
CONTINUOUS
 10
0.728374
 20
-0.171150
  0
VERTEX
  8
PLAN_1
 62
     2
  6
CONTINUOUS
 10
0.729866
 20
-0.173138
  0
VERTEX
  8
PLAN_1
 62
     2
  6
CONTINUOUS
 10
0.731358
 20
-0.175130
  0
VERTEX
  8
PLAN_1
 62
     2
  6
CONTINUOUS
 10
0.732354
 20
-0.177614
  0
VERTEX
  8
PLAN_1
 62
     2
  6
CONTINUOUS
 10
0.733346
 20
-0.180102
  0
VERTEX
  8
PLAN_1
 62
     2
  6
CONTINUOUS
 10
0.734343
 20
-0.183087
  0
VERTEX
  8
PLAN_1
 62
     2
  6
CONTINUOUS
 10
0.735339
 20
-0.189059
  0
VERTEX
  8
PLAN_1
 62
     2
  6
CONTINUOUS
 10
0.735835
 20
-0.196024
  0
VERTEX
  8
PLAN_1
 62
     2
  6
CONTINUOUS
 10
0.696035
 20
-0.196024
  0
VERTEX
  8
PLAN_1
 62
     2
  6
CONTINUOUS
 10
0.696035
 20
-0.200004
  0
VERTEX
  8
PLAN_1
 62
     2
  6
CONTINUOUS
 10
0.697031
 20
-0.203484
  0
VERTEX
  8
PLAN_1
 62
     2
  6
CONTINUOUS
 10
0.698024
 20
-0.206969
  0
VERTEX
  8
PLAN_1
 62
     2
  6
CONTINUOUS
 10
0.700016
 20
-0.209457
  0
VERTEX
  8
PLAN_1
 62
     2
  6
CONTINUOUS
 10
0.702004
 20
-0.211445
  0
VERTEX
  8
PLAN_1
 62
     2
  6
CONTINUOUS
 10
0.704988
 20
-0.212937
  0
VERTEX
  8
PLAN_1
 62
     2
  6
CONTINUOUS
 10
0.707976
 20
-0.213933
  0
VERTEX
  8
PLAN_1
 62
     2
  6
CONTINUOUS
 10
0.711457
 20
-0.213933
  0
VERTEX
  8
PLAN_1
 62
     2
  6
CONTINUOUS
 10
0.714941
 20
-0.213933
  0
VERTEX
  8
PLAN_1
 62
     2
  6
CONTINUOUS
 10
0.717429
 20
-0.212937
  0
VERTEX
  8
PLAN_1
 62
     2
  6
CONTINUOUS
 10
0.719913
 20
-0.211445
  0
VERTEX
  8
PLAN_1
 62
     2
  6
CONTINUOUS
 10
0.721906
 20
-0.209953
  0
VERTEX
  8
PLAN_1
 62
     2
  6
CONTINUOUS
 10
0.723398
 20
-0.208461
  0
VERTEX
  8
PLAN_1
 62
     2
  6
CONTINUOUS
 10
0.724394
 20
-0.206472
  0
VERTEX
  8
PLAN_1
 62
     2
  6
CONTINUOUS
 10
0.725386
 20
-0.204976
  0
VERTEX
  8
PLAN_1
 62
     2
  6
CONTINUOUS
 10
0.725886
 20
-0.203484
  0
VERTEX
  8
PLAN_1
 62
     2
  6
CONTINUOUS
 10
0.734839
 20
-0.203484
  0
SEQEND
  8
0
  0
POLYLINE
  8
PLAN_1
 62
     2
  6
CONTINUOUS
 66
     1
 40
0.003000
 41
0.003000
  0
VERTEX
  8
PLAN_1
 62
     2
  6
CONTINUOUS
 10
0.726382
 20
-0.189059
  0
VERTEX
  8
PLAN_1
 62
     2
  6
CONTINUOUS
 10
0.725886
 20
-0.185575
  0
VERTEX
  8
PLAN_1
 62
     2
  6
CONTINUOUS
 10
0.724890
 20
-0.182591
  0
VERTEX
  8
PLAN_1
 62
     2
  6
CONTINUOUS
 10
0.723894
 20
-0.180102
  0
VERTEX
  8
PLAN_1
 62
     2
  6
CONTINUOUS
 10
0.722402
 20
-0.177614
  0
VERTEX
  8
PLAN_1
 62
     2
  6
CONTINUOUS
 10
0.720413
 20
-0.175626
  0
VERTEX
  8
PLAN_1
 62
     2
  6
CONTINUOUS
 10
0.717925
 20
-0.174134
  0
VERTEX
  8
PLAN_1
 62
     2
  6
CONTINUOUS
 10
0.714941
 20
-0.173138
  0
VERTEX
  8
PLAN_1
 62
     2
  6
CONTINUOUS
 10
0.710961
 20
-0.172642
  0
VERTEX
  8
PLAN_1
 62
     2
  6
CONTINUOUS
 10
0.707976
 20
-0.173138
  0
VERTEX
  8
PLAN_1
 62
     2
  6
CONTINUOUS
 10
0.704988
 20
-0.174134
  0
VERTEX
  8
PLAN_1
 62
     2
  6
CONTINUOUS
 10
0.702504
 20
-0.175626
  0
VERTEX
  8
PLAN_1
 62
     2
  6
CONTINUOUS
 10
0.700016
 20
-0.177614
  0
VERTEX
  8
PLAN_1
 62
     2
  6
CONTINUOUS
 10
0.698524
 20
-0.180102
  0
VERTEX
  8
PLAN_1
 62
     2
  6
CONTINUOUS
 10
0.697031
 20
-0.182591
  0
VERTEX
  8
PLAN_1
 62
     2
  6
CONTINUOUS
 10
0.696035
 20
-0.185575
  0
VERTEX
  8
PLAN_1
 62
     2
  6
CONTINUOUS
 10
0.696035
 20
-0.189059
  0
VERTEX
  8
PLAN_1
 62
     2
  6
CONTINUOUS
 10
0.726382
 20
-0.189059
  0
SEQEND
  8
0
  0
POLYLINE
  8
PLAN_1
 62
     2
  6
CONTINUOUS
 66
     1
 40
0.003000
 41
0.003000
  0
VERTEX
  8
PLAN_1
 62
     2
  6
CONTINUOUS
 10
0.774642
 20
-0.166173
  0
VERTEX
  8
PLAN_1
 62
     2
  6
CONTINUOUS
 10
0.783594
 20
-0.166173
  0
VERTEX
  8
PLAN_1
 62
     2
  6
CONTINUOUS
 10
0.783594
 20
-0.173634
  0
VERTEX
  8
PLAN_1
 62
     2
  6
CONTINUOUS
 10
0.784591
 20
-0.172142
  0
VERTEX
  8
PLAN_1
 62
     2
  6
CONTINUOUS
 10
0.785587
 20
-0.170650
  0
VERTEX
  8
PLAN_1
 62
     2
  6
CONTINUOUS
 10
0.787079
 20
-0.169157
  0
VERTEX
  8
PLAN_1
 62
     2
  6
CONTINUOUS
 10
0.789067
 20
-0.167665
  0
VERTEX
  8
PLAN_1
 62
     2
  6
CONTINUOUS
 10
0.791059
 20
-0.166669
  0
VERTEX
  8
PLAN_1
 62
     2
  6
CONTINUOUS
 10
0.793547
 20
-0.165177
  0
VERTEX
  8
PLAN_1
 62
     2
  6
CONTINUOUS
 10
0.796531
 20
-0.164681
  0
VERTEX
  8
PLAN_1
 62
     2
  6
CONTINUOUS
 10
0.800012
 20
-0.164181
  0
VERTEX
  8
PLAN_1
 62
     2
  6
CONTINUOUS
 10
0.802500
 20
-0.164681
  0
VERTEX
  8
PLAN_1
 62
     2
  6
CONTINUOUS
 10
0.804988
 20
-0.164681
  0
VERTEX
  8
PLAN_1
 62
     2
  6
CONTINUOUS
 10
0.807476
 20
-0.165677
  0
VERTEX
  8
PLAN_1
 62
     2
  6
CONTINUOUS
 10
0.809465
 20
-0.166669
  0
VERTEX
  8
PLAN_1
 62
     2
  6
CONTINUOUS
 10
0.811457
 20
-0.167665
  0
VERTEX
  8
PLAN_1
 62
     2
  6
CONTINUOUS
 10
0.813445
 20
-0.169157
  0
VERTEX
  8
PLAN_1
 62
     2
  6
CONTINUOUS
 10
0.814937
 20
-0.170650
  0
VERTEX
  8
PLAN_1
 62
     2
  6
CONTINUOUS
 10
0.816429
 20
-0.172142
  0
VERTEX
  8
PLAN_1
 62
     2
  6
CONTINUOUS
 10
0.818917
 20
-0.176122
  0
VERTEX
  8
PLAN_1
 62
     2
  6
CONTINUOUS
 10
0.820909
 20
-0.180602
  0
VERTEX
  8
PLAN_1
 62
     2
  6
CONTINUOUS
 10
0.821902
 20
-0.186075
  0
VERTEX
  8
PLAN_1
 62
     2
  6
CONTINUOUS
 10
0.822402
 20
-0.191547
  0
VERTEX
  8
PLAN_1
 62
     2
  6
CONTINUOUS
 10
0.822402
 20
-0.196520
  0
VERTEX
  8
PLAN_1
 62
     2
  6
CONTINUOUS
 10
0.821406
 20
-0.201992
  0
VERTEX
  8
PLAN_1
 62
     2
  6
CONTINUOUS
 10
0.819913
 20
-0.206969
  0
VERTEX
  8
PLAN_1
 62
     2
  6
CONTINUOUS
 10
0.817425
 20
-0.211445
  0
VERTEX
  8
PLAN_1
 62
     2
  6
CONTINUOUS
 10
0.815933
 20
-0.213933
  0
VERTEX
  8
PLAN_1
 62
     2
  6
CONTINUOUS
 10
0.814441
 20
-0.215925
  0
VERTEX
  8
PLAN_1
 62
     2
  6
CONTINUOUS
 10
0.812449
 20
-0.217417
  0
VERTEX
  8
PLAN_1
 62
     2
  6
CONTINUOUS
 10
0.809965
 20
-0.218909
  0
VERTEX
  8
PLAN_1
 62
     2
  6
CONTINUOUS
 10
0.807476
 20
-0.220402
  0
VERTEX
  8
PLAN_1
 62
     2
  6
CONTINUOUS
 10
0.804988
 20
-0.220898
  0
VERTEX
  8
PLAN_1
 62
     2
  6
CONTINUOUS
 10
0.802004
 20
-0.221894
  0
VERTEX
  8
PLAN_1
 62
     2
  6
CONTINUOUS
 10
0.798520
 20
-0.221894
  0
VERTEX
  8
PLAN_1
 62
     2
  6
CONTINUOUS
 10
0.796031
 20
-0.221894
  0
VERTEX
  8
PLAN_1
 62
     2
  6
CONTINUOUS
 10
0.793547
 20
-0.221398
  0
VERTEX
  8
PLAN_1
 62
     2
  6
CONTINUOUS
 10
0.791555
 20
-0.220402
  0
VERTEX
  8
PLAN_1
 62
     2
  6
CONTINUOUS
 10
0.789567
 20
-0.219902
  0
VERTEX
  8
PLAN_1
 62
     2
  6
CONTINUOUS
 10
0.788071
 20
-0.218409
  0
VERTEX
  8
PLAN_1
 62
     2
  6
CONTINUOUS
 10
0.786579
 20
-0.217417
  0
VERTEX
  8
PLAN_1
 62
     2
  6
CONTINUOUS
 10
0.785087
 20
-0.215925
  0
VERTEX
  8
PLAN_1
 62
     2
  6
CONTINUOUS
 10
0.784094
 20
-0.214429
  0
VERTEX
  8
PLAN_1
 62
     2
  6
CONTINUOUS
 10
0.784094
 20
-0.241795
  0
VERTEX
  8
PLAN_1
 62
     2
  6
CONTINUOUS
 10
0.774642
 20
-0.241795
  0
VERTEX
  8
PLAN_1
 62
     2
  6
CONTINUOUS
 10
0.774642
 20
-0.166173
  0
SEQEND
  8
0
  0
POLYLINE
  8
PLAN_1
 62
     2
  6
CONTINUOUS
 66
     1
 40
0.003000
 41
0.003000
  0
VERTEX
  8
PLAN_1
 62
     2
  6
CONTINUOUS
 10
0.798520
 20
-0.213933
  0
VERTEX
  8
PLAN_1
 62
     2
  6
CONTINUOUS
 10
0.802004
 20
-0.213437
  0
VERTEX
  8
PLAN_1
 62
     2
  6
CONTINUOUS
 10
0.804988
 20
-0.212441
  0
VERTEX
  8
PLAN_1
 62
     2
  6
CONTINUOUS
 10
0.807476
 20
-0.210453
  0
VERTEX
  8
PLAN_1
 62
     2
  6
CONTINUOUS
 10
0.809465
 20
-0.207965
  0
VERTEX
  8
PLAN_1
 62
     2
  6
CONTINUOUS
 10
0.810957
 20
-0.204976
  0
VERTEX
  8
PLAN_1
 62
     2
  6
CONTINUOUS
 10
0.811953
 20
-0.201496
  0
VERTEX
  8
PLAN_1
 62
     2
  6
CONTINUOUS
 10
0.812949
 20
-0.197516
  0
VERTEX
  8
PLAN_1
 62
     2
  6
CONTINUOUS
 10
0.812949
 20
-0.193039
  0
VERTEX
  8
PLAN_1
 62
     2
  6
CONTINUOUS
 10
0.812949
 20
-0.190055
  0
VERTEX
  8
PLAN_1
 62
     2
  6
CONTINUOUS
 10
0.812949
 20
-0.187067
  0
VERTEX
  8
PLAN_1
 62
     2
  6
CONTINUOUS
 10
0.811953
 20
-0.183587
  0
VERTEX
  8
PLAN_1
 62
     2
  6
CONTINUOUS
 10
0.810957
 20
-0.180102
  0
VERTEX
  8
PLAN_1
 62
     2
  6
CONTINUOUS
 10
0.808969
 20
-0.177118
  0
VERTEX
  8
PLAN_1
 62
     2
  6
CONTINUOUS
 10
0.806480
 20
-0.174630
  0
VERTEX
  8
PLAN_1
 62
     2
  6
CONTINUOUS
 10
0.804988
 20
-0.174134
  0
VERTEX
  8
PLAN_1
 62
     2
  6
CONTINUOUS
 10
0.802996
 20
-0.173138
  0
VERTEX
  8
PLAN_1
 62
     2
  6
CONTINUOUS
 10
0.800512
 20
-0.172642
  0
VERTEX
  8
PLAN_1
 62
     2
  6
CONTINUOUS
 10
0.798024
 20
-0.172642
  0
VERTEX
  8
PLAN_1
 62
     2
  6
CONTINUOUS
 10
0.796031
 20
-0.172642
  0
VERTEX
  8
PLAN_1
 62
     2
  6
CONTINUOUS
 10
0.793547
 20
-0.173138
  0
VERTEX
  8
PLAN_1
 62
     2
  6
CONTINUOUS
 10
0.792051
 20
-0.174134
  0
VERTEX
  8
PLAN_1
 62
     2
  6
CONTINUOUS
 10
0.790063
 20
-0.175130
  0
VERTEX
  8
PLAN_1
 62
     2
  6
CONTINUOUS
 10
0.787575
 20
-0.177614
  0
VERTEX
  8
PLAN_1
 62
     2
  6
CONTINUOUS
 10
0.786083
 20
-0.180602
  0
VERTEX
  8
PLAN_1
 62
     2
  6
CONTINUOUS
 10
0.784591
 20
-0.184579
  0
VERTEX
  8
PLAN_1
 62
     2
  6
CONTINUOUS
 10
0.784094
 20
-0.188559
  0
VERTEX
  8
PLAN_1
 62
     2
  6
CONTINUOUS
 10
0.783594
 20
-0.192043
  0
VERTEX
  8
PLAN_1
 62
     2
  6
CONTINUOUS
 10
0.783594
 20
-0.195528
  0
VERTEX
  8
PLAN_1
 62
     2
  6
CONTINUOUS
 10
0.784094
 20
-0.200500
  0
VERTEX
  8
PLAN_1
 62
     2
  6
CONTINUOUS
 10
0.785087
 20
-0.204480
  0
VERTEX
  8
PLAN_1
 62
     2
  6
CONTINUOUS
 10
0.786579
 20
-0.207965
  0
VERTEX
  8
PLAN_1
 62
     2
  6
CONTINUOUS
 10
0.788571
 20
-0.210453
  0
VERTEX
  8
PLAN_1
 62
     2
  6
CONTINUOUS
 10
0.791059
 20
-0.211945
  0
VERTEX
  8
PLAN_1
 62
     2
  6
CONTINUOUS
 10
0.793547
 20
-0.212937
  0
VERTEX
  8
PLAN_1
 62
     2
  6
CONTINUOUS
 10
0.796031
 20
-0.213933
  0
VERTEX
  8
PLAN_1
 62
     2
  6
CONTINUOUS
 10
0.798520
 20
-0.213933
  0
SEQEND
  8
0
  0
POLYLINE
  8
PLAN_1
 62
     2
  6
CONTINUOUS
 66
     1
 40
0.003000
 41
0.003000
  0
VERTEX
  8
PLAN_1
 62
     2
  6
CONTINUOUS
 10
0.855732
 20
-0.164181
  0
VERTEX
  8
PLAN_1
 62
     2
  6
CONTINUOUS
 10
0.858717
 20
-0.164681
  0
VERTEX
  8
PLAN_1
 62
     2
  6
CONTINUOUS
 10
0.861705
 20
-0.165177
  0
VERTEX
  8
PLAN_1
 62
     2
  6
CONTINUOUS
 10
0.864189
 20
-0.165677
  0
VERTEX
  8
PLAN_1
 62
     2
  6
CONTINUOUS
 10
0.866677
 20
-0.166669
  0
VERTEX
  8
PLAN_1
 62
     2
  6
CONTINUOUS
 10
0.869165
 20
-0.168161
  0
VERTEX
  8
PLAN_1
 62
     2
  6
CONTINUOUS
 10
0.871157
 20
-0.169657
  0
VERTEX
  8
PLAN_1
 62
     2
  6
CONTINUOUS
 10
0.873146
 20
-0.171646
  0
VERTEX
  8
PLAN_1
 62
     2
  6
CONTINUOUS
 10
0.874638
 20
-0.173634
  0
VERTEX
  8
PLAN_1
 62
     2
  6
CONTINUOUS
 10
0.877622
 20
-0.177614
  0
VERTEX
  8
PLAN_1
 62
     2
  6
CONTINUOUS
 10
0.879114
 20
-0.182591
  0
VERTEX
  8
PLAN_1
 62
     2
  6
CONTINUOUS
 10
0.880610
 20
-0.188063
  0
VERTEX
  8
PLAN_1
 62
     2
  6
CONTINUOUS
 10
0.880610
 20
-0.193039
  0
VERTEX
  8
PLAN_1
 62
     2
  6
CONTINUOUS
 10
0.880610
 20
-0.198512
  0
VERTEX
  8
PLAN_1
 62
     2
  6
CONTINUOUS
 10
0.879114
 20
-0.203484
  0
VERTEX
  8
PLAN_1
 62
     2
  6
CONTINUOUS
 10
0.877622
 20
-0.208461
  0
VERTEX
  8
PLAN_1
 62
     2
  6
CONTINUOUS
 10
0.874638
 20
-0.212937
  0
VERTEX
  8
PLAN_1
 62
     2
  6
CONTINUOUS
 10
0.873146
 20
-0.214429
  0
VERTEX
  8
PLAN_1
 62
     2
  6
CONTINUOUS
 10
0.871157
 20
-0.216421
  0
VERTEX
  8
PLAN_1
 62
     2
  6
CONTINUOUS
 10
0.869165
 20
-0.217913
  0
VERTEX
  8
PLAN_1
 62
     2
  6
CONTINUOUS
 10
0.866677
 20
-0.219406
  0
VERTEX
  8
PLAN_1
 62
     2
  6
CONTINUOUS
 10
0.864189
 20
-0.220402
  0
VERTEX
  8
PLAN_1
 62
     2
  6
CONTINUOUS
 10
0.861705
 20
-0.221398
  0
VERTEX
  8
PLAN_1
 62
     2
  6
CONTINUOUS
 10
0.858717
 20
-0.221398
  0
VERTEX
  8
PLAN_1
 62
     2
  6
CONTINUOUS
 10
0.855732
 20
-0.221894
  0
VERTEX
  8
PLAN_1
 62
     2
  6
CONTINUOUS
 10
0.852252
 20
-0.221398
  0
VERTEX
  8
PLAN_1
 62
     2
  6
CONTINUOUS
 10
0.849264
 20
-0.221398
  0
VERTEX
  8
PLAN_1
 62
     2
  6
CONTINUOUS
 10
0.846780
 20
-0.220402
  0
VERTEX
  8
PLAN_1
 62
     2
  6
CONTINUOUS
 10
0.844291
 20
-0.219406
  0
VERTEX
  8
PLAN_1
 62
     2
  6
CONTINUOUS
 10
0.841803
 20
-0.217913
  0
VERTEX
  8
PLAN_1
 62
     2
  6
CONTINUOUS
 10
0.839815
 20
-0.216421
  0
VERTEX
  8
PLAN_1
 62
     2
  6
CONTINUOUS
 10
0.837823
 20
-0.214429
  0
VERTEX
  8
PLAN_1
 62
     2
  6
CONTINUOUS
 10
0.836331
 20
-0.212937
  0
VERTEX
  8
PLAN_1
 62
     2
  6
CONTINUOUS
 10
0.833843
 20
-0.208461
  0
VERTEX
  8
PLAN_1
 62
     2
  6
CONTINUOUS
 10
0.831854
 20
-0.203484
  0
VERTEX
  8
PLAN_1
 62
     2
  6
CONTINUOUS
 10
0.830858
 20
-0.198512
  0
VERTEX
  8
PLAN_1
 62
     2
  6
CONTINUOUS
 10
0.830362
 20
-0.193039
  0
VERTEX
  8
PLAN_1
 62
     2
  6
CONTINUOUS
 10
0.830858
 20
-0.188063
  0
VERTEX
  8
PLAN_1
 62
     2
  6
CONTINUOUS
 10
0.831854
 20
-0.182591
  0
VERTEX
  8
PLAN_1
 62
     2
  6
CONTINUOUS
 10
0.833843
 20
-0.177614
  0
VERTEX
  8
PLAN_1
 62
     2
  6
CONTINUOUS
 10
0.836331
 20
-0.173634
  0
VERTEX
  8
PLAN_1
 62
     2
  6
CONTINUOUS
 10
0.837823
 20
-0.171646
  0
VERTEX
  8
PLAN_1
 62
     2
  6
CONTINUOUS
 10
0.839815
 20
-0.169657
  0
VERTEX
  8
PLAN_1
 62
     2
  6
CONTINUOUS
 10
0.841803
 20
-0.168161
  0
VERTEX
  8
PLAN_1
 62
     2
  6
CONTINUOUS
 10
0.844291
 20
-0.166669
  0
VERTEX
  8
PLAN_1
 62
     2
  6
CONTINUOUS
 10
0.846780
 20
-0.165677
  0
VERTEX
  8
PLAN_1
 62
     2
  6
CONTINUOUS
 10
0.849264
 20
-0.165177
  0
VERTEX
  8
PLAN_1
 62
     2
  6
CONTINUOUS
 10
0.852252
 20
-0.164681
  0
VERTEX
  8
PLAN_1
 62
     2
  6
CONTINUOUS
 10
0.855732
 20
-0.164181
  0
SEQEND
  8
0
  0
POLYLINE
  8
PLAN_1
 62
     2
  6
CONTINUOUS
 66
     1
 40
0.003000
 41
0.003000
  0
VERTEX
  8
PLAN_1
 62
     2
  6
CONTINUOUS
 10
0.855732
 20
-0.213933
  0
VERTEX
  8
PLAN_1
 62
     2
  6
CONTINUOUS
 10
0.857724
 20
-0.213933
  0
VERTEX
  8
PLAN_1
 62
     2
  6
CONTINUOUS
 10
0.860213
 20
-0.213437
  0
VERTEX
  8
PLAN_1
 62
     2
  6
CONTINUOUS
 10
0.861705
 20
-0.212441
  0
VERTEX
  8
PLAN_1
 62
     2
  6
CONTINUOUS
 10
0.863693
 20
-0.211445
  0
VERTEX
  8
PLAN_1
 62
     2
  6
CONTINUOUS
 10
0.866181
 20
-0.209457
  0
VERTEX
  8
PLAN_1
 62
     2
  6
CONTINUOUS
 10
0.868169
 20
-0.206472
  0
VERTEX
  8
PLAN_1
 62
     2
  6
CONTINUOUS
 10
0.869661
 20
-0.202988
  0
VERTEX
  8
PLAN_1
 62
     2
  6
CONTINUOUS
 10
0.870657
 20
-0.199504
  0
VERTEX
  8
PLAN_1
 62
     2
  6
CONTINUOUS
 10
0.871157
 20
-0.196024
  0
VERTEX
  8
PLAN_1
 62
     2
  6
CONTINUOUS
 10
0.871157
 20
-0.193039
  0
VERTEX
  8
PLAN_1
 62
     2
  6
CONTINUOUS
 10
0.871157
 20
-0.190055
  0
VERTEX
  8
PLAN_1
 62
     2
  6
CONTINUOUS
 10
0.870657
 20
-0.186571
  0
VERTEX
  8
PLAN_1
 62
     2
  6
CONTINUOUS
 10
0.869661
 20
-0.183087
  0
VERTEX
  8
PLAN_1
 62
     2
  6
CONTINUOUS
 10
0.868169
 20
-0.180102
  0
VERTEX
  8
PLAN_1
 62
     2
  6
CONTINUOUS
 10
0.866181
 20
-0.177118
  0
VERTEX
  8
PLAN_1
 62
     2
  6
CONTINUOUS
 10
0.863693
 20
-0.174630
  0
VERTEX
  8
PLAN_1
 62
     2
  6
CONTINUOUS
 10
0.861705
 20
-0.173634
  0
VERTEX
  8
PLAN_1
 62
     2
  6
CONTINUOUS
 10
0.860213
 20
-0.172642
  0
VERTEX
  8
PLAN_1
 62
     2
  6
CONTINUOUS
 10
0.857724
 20
-0.172642
  0
VERTEX
  8
PLAN_1
 62
     2
  6
CONTINUOUS
 10
0.855732
 20
-0.172142
  0
VERTEX
  8
PLAN_1
 62
     2
  6
CONTINUOUS
 10
0.853244
 20
-0.172642
  0
VERTEX
  8
PLAN_1
 62
     2
  6
CONTINUOUS
 10
0.851256
 20
-0.172642
  0
VERTEX
  8
PLAN_1
 62
     2
  6
CONTINUOUS
 10
0.849264
 20
-0.173634
  0
VERTEX
  8
PLAN_1
 62
     2
  6
CONTINUOUS
 10
0.847772
 20
-0.174630
  0
VERTEX
  8
PLAN_1
 62
     2
  6
CONTINUOUS
 10
0.844787
 20
-0.177118
  0
VERTEX
  8
PLAN_1
 62
     2
  6
CONTINUOUS
 10
0.842799
 20
-0.180102
  0
VERTEX
  8
PLAN_1
 62
     2
  6
CONTINUOUS
 10
0.841307
 20
-0.183087
  0
VERTEX
  8
PLAN_1
 62
     2
  6
CONTINUOUS
 10
0.840311
 20
-0.186571
  0
VERTEX
  8
PLAN_1
 62
     2
  6
CONTINUOUS
 10
0.839815
 20
-0.190055
  0
VERTEX
  8
PLAN_1
 62
     2
  6
CONTINUOUS
 10
0.839815
 20
-0.193039
  0
VERTEX
  8
PLAN_1
 62
     2
  6
CONTINUOUS
 10
0.839815
 20
-0.196024
  0
VERTEX
  8
PLAN_1
 62
     2
  6
CONTINUOUS
 10
0.840311
 20
-0.199504
  0
VERTEX
  8
PLAN_1
 62
     2
  6
CONTINUOUS
 10
0.841307
 20
-0.202988
  0
VERTEX
  8
PLAN_1
 62
     2
  6
CONTINUOUS
 10
0.842799
 20
-0.206472
  0
VERTEX
  8
PLAN_1
 62
     2
  6
CONTINUOUS
 10
0.844787
 20
-0.209457
  0
VERTEX
  8
PLAN_1
 62
     2
  6
CONTINUOUS
 10
0.847772
 20
-0.211445
  0
VERTEX
  8
PLAN_1
 62
     2
  6
CONTINUOUS
 10
0.849264
 20
-0.212441
  0
VERTEX
  8
PLAN_1
 62
     2
  6
CONTINUOUS
 10
0.851256
 20
-0.213437
  0
VERTEX
  8
PLAN_1
 62
     2
  6
CONTINUOUS
 10
0.853244
 20
-0.213933
  0
VERTEX
  8
PLAN_1
 62
     2
  6
CONTINUOUS
 10
0.855732
 20
-0.213933
  0
SEQEND
  8
0
  0
POLYLINE
  8
PLAN_1
 62
     2
  6
CONTINUOUS
 66
     1
 40
0.003000
 41
0.003000
  0
VERTEX
  8
PLAN_1
 62
     2
  6
CONTINUOUS
 10
0.926878
 20
-0.220402
  0
VERTEX
  8
PLAN_1
 62
     2
  6
CONTINUOUS
 10
0.926878
 20
-0.212441
  0
VERTEX
  8
PLAN_1
 62
     2
  6
CONTINUOUS
 10
0.926378
 20
-0.212441
  0
VERTEX
  8
PLAN_1
 62
     2
  6
CONTINUOUS
 10
0.924886
 20
-0.214429
  0
VERTEX
  8
PLAN_1
 62
     2
  6
CONTINUOUS
 10
0.923394
 20
-0.216421
  0
VERTEX
  8
PLAN_1
 62
     2
  6
CONTINUOUS
 10
0.921902
 20
-0.217913
  0
VERTEX
  8
PLAN_1
 62
     2
  6
CONTINUOUS
 10
0.919909
 20
-0.219406
  0
VERTEX
  8
PLAN_1
 62
     2
  6
CONTINUOUS
 10
0.917425
 20
-0.220402
  0
VERTEX
  8
PLAN_1
 62
     2
  6
CONTINUOUS
 10
0.914937
 20
-0.221398
  0
VERTEX
  8
PLAN_1
 62
     2
  6
CONTINUOUS
 10
0.912449
 20
-0.221894
  0
VERTEX
  8
PLAN_1
 62
     2
  6
CONTINUOUS
 10
0.909465
 20
-0.221894
  0
VERTEX
  8
PLAN_1
 62
     2
  6
CONTINUOUS
 10
0.905980
 20
-0.221894
  0
VERTEX
  8
PLAN_1
 62
     2
  6
CONTINUOUS
 10
0.902996
 20
-0.220898
  0
VERTEX
  8
PLAN_1
 62
     2
  6
CONTINUOUS
 10
0.900012
 20
-0.219902
  0
VERTEX
  8
PLAN_1
 62
     2
  6
CONTINUOUS
 10
0.897524
 20
-0.218409
  0
VERTEX
  8
PLAN_1
 62
     2
  6
CONTINUOUS
 10
0.895035
 20
-0.215925
  0
VERTEX
  8
PLAN_1
 62
     2
  6
CONTINUOUS
 10
0.893047
 20
-0.212937
  0
VERTEX
  8
PLAN_1
 62
     2
  6
CONTINUOUS
 10
0.892051
 20
-0.209457
  0
VERTEX
  8
PLAN_1
 62
     2
  6
CONTINUOUS
 10
0.891555
 20
-0.204976
  0
VERTEX
  8
PLAN_1
 62
     2
  6
CONTINUOUS
 10
0.891555
 20
-0.166173
  0
VERTEX
  8
PLAN_1
 62
     2
  6
CONTINUOUS
 10
0.900508
 20
-0.166173
  0
VERTEX
  8
PLAN_1
 62
     2
  6
CONTINUOUS
 10
0.900508
 20
-0.201992
  0
VERTEX
  8
PLAN_1
 62
     2
  6
CONTINUOUS
 10
0.901008
 20
-0.204976
  0
VERTEX
  8
PLAN_1
 62
     2
  6
CONTINUOUS
 10
0.901504
 20
-0.207465
  0
VERTEX
  8
PLAN_1
 62
     2
  6
CONTINUOUS
 10
0.902500
 20
-0.209953
  0
VERTEX
  8
PLAN_1
 62
     2
  6
CONTINUOUS
 10
0.903992
 20
-0.211445
  0
VERTEX
  8
PLAN_1
 62
     2
  6
CONTINUOUS
 10
0.905484
 20
-0.212441
  0
VERTEX
  8
PLAN_1
 62
     2
  6
CONTINUOUS
 10
0.906976
 20
-0.213437
  0
VERTEX
  8
PLAN_1
 62
     2
  6
CONTINUOUS
 10
0.908965
 20
-0.213933
  0
VERTEX
  8
PLAN_1
 62
     2
  6
CONTINUOUS
 10
0.911453
 20
-0.213933
  0
VERTEX
  8
PLAN_1
 62
     2
  6
CONTINUOUS
 10
0.915433
 20
-0.213437
  0
VERTEX
  8
PLAN_1
 62
     2
  6
CONTINUOUS
 10
0.918417
 20
-0.212441
  0
VERTEX
  8
PLAN_1
 62
     2
  6
CONTINUOUS
 10
0.920906
 20
-0.210453
  0
VERTEX
  8
PLAN_1
 62
     2
  6
CONTINUOUS
 10
0.922898
 20
-0.207965
  0
VERTEX
  8
PLAN_1
 62
     2
  6
CONTINUOUS
 10
0.924390
 20
-0.204976
  0
VERTEX
  8
PLAN_1
 62
     2
  6
CONTINUOUS
 10
0.925382
 20
-0.201992
  0
VERTEX
  8
PLAN_1
 62
     2
  6
CONTINUOUS
 10
0.925882
 20
-0.199008
  0
VERTEX
  8
PLAN_1
 62
     2
  6
CONTINUOUS
 10
0.926378
 20
-0.196024
  0
VERTEX
  8
PLAN_1
 62
     2
  6
CONTINUOUS
 10
0.926378
 20
-0.166173
  0
VERTEX
  8
PLAN_1
 62
     2
  6
CONTINUOUS
 10
0.935335
 20
-0.166173
  0
VERTEX
  8
PLAN_1
 62
     2
  6
CONTINUOUS
 10
0.935335
 20
-0.220402
  0
VERTEX
  8
PLAN_1
 62
     2
  6
CONTINUOUS
 10
0.926878
 20
-0.220402
  0
SEQEND
  8
0
  0
POLYLINE
  8
PLAN_1
 62
     2
  6
CONTINUOUS
 66
     1
 40
0.003000
 41
0.003000
  0
VERTEX
  8
PLAN_1
 62
     2
  6
CONTINUOUS
 10
0.959713
 20
-0.220402
  0
VERTEX
  8
PLAN_1
 62
     2
  6
CONTINUOUS
 10
0.950260
 20
-0.220402
  0
VERTEX
  8
PLAN_1
 62
     2
  6
CONTINUOUS
 10
0.950260
 20
-0.166173
  0
VERTEX
  8
PLAN_1
 62
     2
  6
CONTINUOUS
 10
0.959213
 20
-0.166173
  0
VERTEX
  8
PLAN_1
 62
     2
  6
CONTINUOUS
 10
0.959213
 20
-0.175130
  0
VERTEX
  8
PLAN_1
 62
     2
  6
CONTINUOUS
 10
0.960705
 20
-0.172642
  0
VERTEX
  8
PLAN_1
 62
     2
  6
CONTINUOUS
 10
0.962201
 20
-0.170650
  0
VERTEX
  8
PLAN_1
 62
     2
  6
CONTINUOUS
 10
0.963693
 20
-0.168661
  0
VERTEX
  8
PLAN_1
 62
     2
  6
CONTINUOUS
 10
0.965681
 20
-0.167169
  0
VERTEX
  8
PLAN_1
 62
     2
  6
CONTINUOUS
 10
0.967673
 20
-0.166173
  0
VERTEX
  8
PLAN_1
 62
     2
  6
CONTINUOUS
 10
0.969661
 20
-0.165177
  0
VERTEX
  8
PLAN_1
 62
     2
  6
CONTINUOUS
 10
0.972150
 20
-0.164681
  0
VERTEX
  8
PLAN_1
 62
     2
  6
CONTINUOUS
 10
0.974638
 20
-0.164181
  0
VERTEX
  8
PLAN_1
 62
     2
  6
CONTINUOUS
 10
0.975134
 20
-0.164181
  0
VERTEX
  8
PLAN_1
 62
     2
  6
CONTINUOUS
 10
0.975630
 20
-0.164681
  0
VERTEX
  8
PLAN_1
 62
     2
  6
CONTINUOUS
 10
0.976130
 20
-0.164681
  0
VERTEX
  8
PLAN_1
 62
     2
  6
CONTINUOUS
 10
0.976626
 20
-0.164681
  0
VERTEX
  8
PLAN_1
 62
     2
  6
CONTINUOUS
 10
0.977126
 20
-0.164681
  0
VERTEX
  8
PLAN_1
 62
     2
  6
CONTINUOUS
 10
0.977126
 20
-0.174134
  0
VERTEX
  8
PLAN_1
 62
     2
  6
CONTINUOUS
 10
0.973642
 20
-0.174134
  0
VERTEX
  8
PLAN_1
 62
     2
  6
CONTINUOUS
 10
0.970657
 20
-0.174630
  0
VERTEX
  8
PLAN_1
 62
     2
  6
CONTINUOUS
 10
0.967673
 20
-0.175130
  0
VERTEX
  8
PLAN_1
 62
     2
  6
CONTINUOUS
 10
0.965185
 20
-0.176622
  0
VERTEX
  8
PLAN_1
 62
     2
  6
CONTINUOUS
 10
0.963193
 20
-0.178610
  0
VERTEX
  8
PLAN_1
 62
     2
  6
CONTINUOUS
 10
0.961701
 20
-0.180602
  0
VERTEX
  8
PLAN_1
 62
     2
  6
CONTINUOUS
 10
0.960705
 20
-0.183087
  0
VERTEX
  8
PLAN_1
 62
     2
  6
CONTINUOUS
 10
0.959713
 20
-0.186075
  0
VERTEX
  8
PLAN_1
 62
     2
  6
CONTINUOUS
 10
0.959713
 20
-0.188559
  0
VERTEX
  8
PLAN_1
 62
     2
  6
CONTINUOUS
 10
0.959713
 20
-0.220402
  0
SEQEND
  8
0
  0
POLYLINE
  8
PLAN_1
 62
     2
  6
CONTINUOUS
 66
     1
 40
0.003000
 41
0.003000
  0
VERTEX
  8
PLAN_1
 62
     2
  6
CONTINUOUS
 10
0.098531
 20
-0.291047
  0
VERTEX
  8
PLAN_1
 62
     2
  6
CONTINUOUS
 10
0.107488
 20
-0.291047
  0
VERTEX
  8
PLAN_1
 62
     2
  6
CONTINUOUS
 10
0.107488
 20
-0.298508
  0
VERTEX
  8
PLAN_1
 62
     2
  6
CONTINUOUS
 10
0.108484
 20
-0.297516
  0
VERTEX
  8
PLAN_1
 62
     2
  6
CONTINUOUS
 10
0.109476
 20
-0.296020
  0
VERTEX
  8
PLAN_1
 62
     2
  6
CONTINUOUS
 10
0.110972
 20
-0.294528
  0
VERTEX
  8
PLAN_1
 62
     2
  6
CONTINUOUS
 10
0.112961
 20
-0.293035
  0
VERTEX
  8
PLAN_1
 62
     2
  6
CONTINUOUS
 10
0.114949
 20
-0.291543
  0
VERTEX
  8
PLAN_1
 62
     2
  6
CONTINUOUS
 10
0.117437
 20
-0.290547
  0
VERTEX
  8
PLAN_1
 62
     2
  6
CONTINUOUS
 10
0.120425
 20
-0.289555
  0
VERTEX
  8
PLAN_1
 62
     2
  6
CONTINUOUS
 10
0.123906
 20
-0.289555
  0
VERTEX
  8
PLAN_1
 62
     2
  6
CONTINUOUS
 10
0.126394
 20
-0.289555
  0
VERTEX
  8
PLAN_1
 62
     2
  6
CONTINUOUS
 10
0.128882
 20
-0.290051
  0
VERTEX
  8
PLAN_1
 62
     2
  6
CONTINUOUS
 10
0.131370
 20
-0.290547
  0
VERTEX
  8
PLAN_1
 62
     2
  6
CONTINUOUS
 10
0.133358
 20
-0.291543
  0
VERTEX
  8
PLAN_1
 62
     2
  6
CONTINUOUS
 10
0.135346
 20
-0.292539
  0
VERTEX
  8
PLAN_1
 62
     2
  6
CONTINUOUS
 10
0.137339
 20
-0.294031
  0
VERTEX
  8
PLAN_1
 62
     2
  6
CONTINUOUS
 10
0.138831
 20
-0.295524
  0
VERTEX
  8
PLAN_1
 62
     2
  6
CONTINUOUS
 10
0.140323
 20
-0.297016
  0
VERTEX
  8
PLAN_1
 62
     2
  6
CONTINUOUS
 10
0.143307
 20
-0.300996
  0
VERTEX
  8
PLAN_1
 62
     2
  6
CONTINUOUS
 10
0.144799
 20
-0.305972
  0
VERTEX
  8
PLAN_1
 62
     2
  6
CONTINUOUS
 10
0.146295
 20
-0.310945
  0
VERTEX
  8
PLAN_1
 62
     2
  6
CONTINUOUS
 10
0.146295
 20
-0.316417
  0
VERTEX
  8
PLAN_1
 62
     2
  6
CONTINUOUS
 10
0.146295
 20
-0.321394
  0
VERTEX
  8
PLAN_1
 62
     2
  6
CONTINUOUS
 10
0.145299
 20
-0.326866
  0
VERTEX
  8
PLAN_1
 62
     2
  6
CONTINUOUS
 10
0.143807
 20
-0.331843
  0
VERTEX
  8
PLAN_1
 62
     2
  6
CONTINUOUS
 10
0.141319
 20
-0.336319
  0
VERTEX
  8
PLAN_1
 62
     2
  6
CONTINUOUS
 10
0.139827
 20
-0.338807
  0
VERTEX
  8
PLAN_1
 62
     2
  6
CONTINUOUS
 10
0.138335
 20
-0.340795
  0
VERTEX
  8
PLAN_1
 62
     2
  6
CONTINUOUS
 10
0.136343
 20
-0.342287
  0
VERTEX
  8
PLAN_1
 62
     2
  6
CONTINUOUS
 10
0.133854
 20
-0.343783
  0
VERTEX
  8
PLAN_1
 62
     2
  6
CONTINUOUS
 10
0.131866
 20
-0.345276
  0
VERTEX
  8
PLAN_1
 62
     2
  6
CONTINUOUS
 10
0.128882
 20
-0.346268
  0
VERTEX
  8
PLAN_1
 62
     2
  6
CONTINUOUS
 10
0.125898
 20
-0.346768
  0
VERTEX
  8
PLAN_1
 62
     2
  6
CONTINUOUS
 10
0.122413
 20
-0.346768
  0
VERTEX
  8
PLAN_1
 62
     2
  6
CONTINUOUS
 10
0.119925
 20
-0.346768
  0
VERTEX
  8
PLAN_1
 62
     2
  6
CONTINUOUS
 10
0.117437
 20
-0.346268
  0
VERTEX
  8
PLAN_1
 62
     2
  6
CONTINUOUS
 10
0.115449
 20
-0.345772
  0
VERTEX
  8
PLAN_1
 62
     2
  6
CONTINUOUS
 10
0.113457
 20
-0.344776
  0
VERTEX
  8
PLAN_1
 62
     2
  6
CONTINUOUS
 10
0.111965
 20
-0.343783
  0
VERTEX
  8
PLAN_1
 62
     2
  6
CONTINUOUS
 10
0.110472
 20
-0.342287
  0
VERTEX
  8
PLAN_1
 62
     2
  6
CONTINUOUS
 10
0.108980
 20
-0.340795
  0
VERTEX
  8
PLAN_1
 62
     2
  6
CONTINUOUS
 10
0.107984
 20
-0.339803
  0
VERTEX
  8
PLAN_1
 62
     2
  6
CONTINUOUS
 10
0.107984
 20
-0.366665
  0
VERTEX
  8
PLAN_1
 62
     2
  6
CONTINUOUS
 10
0.098531
 20
-0.366665
  0
VERTEX
  8
PLAN_1
 62
     2
  6
CONTINUOUS
 10
0.098531
 20
-0.291047
  0
SEQEND
  8
0
  0
POLYLINE
  8
PLAN_1
 62
     2
  6
CONTINUOUS
 66
     1
 40
0.003000
 41
0.003000
  0
VERTEX
  8
PLAN_1
 62
     2
  6
CONTINUOUS
 10
0.122413
 20
-0.338807
  0
VERTEX
  8
PLAN_1
 62
     2
  6
CONTINUOUS
 10
0.125898
 20
-0.338807
  0
VERTEX
  8
PLAN_1
 62
     2
  6
CONTINUOUS
 10
0.128882
 20
-0.337315
  0
VERTEX
  8
PLAN_1
 62
     2
  6
CONTINUOUS
 10
0.131370
 20
-0.335323
  0
VERTEX
  8
PLAN_1
 62
     2
  6
CONTINUOUS
 10
0.133358
 20
-0.332839
  0
VERTEX
  8
PLAN_1
 62
     2
  6
CONTINUOUS
 10
0.134850
 20
-0.329850
  0
VERTEX
  8
PLAN_1
 62
     2
  6
CONTINUOUS
 10
0.136343
 20
-0.326370
  0
VERTEX
  8
PLAN_1
 62
     2
  6
CONTINUOUS
 10
0.136843
 20
-0.322390
  0
VERTEX
  8
PLAN_1
 62
     2
  6
CONTINUOUS
 10
0.136843
 20
-0.317913
  0
VERTEX
  8
PLAN_1
 62
     2
  6
CONTINUOUS
 10
0.136843
 20
-0.314925
  0
VERTEX
  8
PLAN_1
 62
     2
  6
CONTINUOUS
 10
0.136843
 20
-0.311941
  0
VERTEX
  8
PLAN_1
 62
     2
  6
CONTINUOUS
 10
0.135846
 20
-0.308461
  0
VERTEX
  8
PLAN_1
 62
     2
  6
CONTINUOUS
 10
0.134850
 20
-0.304976
  0
VERTEX
  8
PLAN_1
 62
     2
  6
CONTINUOUS
 10
0.132862
 20
-0.301992
  0
VERTEX
  8
PLAN_1
 62
     2
  6
CONTINUOUS
 10
0.130374
 20
-0.300000
  0
VERTEX
  8
PLAN_1
 62
     2
  6
CONTINUOUS
 10
0.128882
 20
-0.299008
  0
VERTEX
  8
PLAN_1
 62
     2
  6
CONTINUOUS
 10
0.126890
 20
-0.298012
  0
VERTEX
  8
PLAN_1
 62
     2
  6
CONTINUOUS
 10
0.124402
 20
-0.297516
  0
VERTEX
  8
PLAN_1
 62
     2
  6
CONTINUOUS
 10
0.121917
 20
-0.297516
  0
VERTEX
  8
PLAN_1
 62
     2
  6
CONTINUOUS
 10
0.119925
 20
-0.297516
  0
VERTEX
  8
PLAN_1
 62
     2
  6
CONTINUOUS
 10
0.117937
 20
-0.298012
  0
VERTEX
  8
PLAN_1
 62
     2
  6
CONTINUOUS
 10
0.115945
 20
-0.299008
  0
VERTEX
  8
PLAN_1
 62
     2
  6
CONTINUOUS
 10
0.114453
 20
-0.300000
  0
VERTEX
  8
PLAN_1
 62
     2
  6
CONTINUOUS
 10
0.111469
 20
-0.302488
  0
VERTEX
  8
PLAN_1
 62
     2
  6
CONTINUOUS
 10
0.109976
 20
-0.305972
  0
VERTEX
  8
PLAN_1
 62
     2
  6
CONTINUOUS
 10
0.108484
 20
-0.309453
  0
VERTEX
  8
PLAN_1
 62
     2
  6
CONTINUOUS
 10
0.107984
 20
-0.313433
  0
VERTEX
  8
PLAN_1
 62
     2
  6
CONTINUOUS
 10
0.107488
 20
-0.316917
  0
VERTEX
  8
PLAN_1
 62
     2
  6
CONTINUOUS
 10
0.107488
 20
-0.320898
  0
VERTEX
  8
PLAN_1
 62
     2
  6
CONTINUOUS
 10
0.107984
 20
-0.325374
  0
VERTEX
  8
PLAN_1
 62
     2
  6
CONTINUOUS
 10
0.108980
 20
-0.329850
  0
VERTEX
  8
PLAN_1
 62
     2
  6
CONTINUOUS
 10
0.110472
 20
-0.332839
  0
VERTEX
  8
PLAN_1
 62
     2
  6
CONTINUOUS
 10
0.112465
 20
-0.335323
  0
VERTEX
  8
PLAN_1
 62
     2
  6
CONTINUOUS
 10
0.114949
 20
-0.336815
  0
VERTEX
  8
PLAN_1
 62
     2
  6
CONTINUOUS
 10
0.117437
 20
-0.338311
  0
VERTEX
  8
PLAN_1
 62
     2
  6
CONTINUOUS
 10
0.119925
 20
-0.338807
  0
VERTEX
  8
PLAN_1
 62
     2
  6
CONTINUOUS
 10
0.122413
 20
-0.338807
  0
SEQEND
  8
0
  0
POLYLINE
  8
PLAN_1
 62
     2
  6
CONTINUOUS
 66
     1
 40
0.003000
 41
0.003000
  0
VERTEX
  8
PLAN_1
 62
     2
  6
CONTINUOUS
 10
0.167685
 20
-0.345276
  0
VERTEX
  8
PLAN_1
 62
     2
  6
CONTINUOUS
 10
0.158732
 20
-0.345276
  0
VERTEX
  8
PLAN_1
 62
     2
  6
CONTINUOUS
 10
0.158732
 20
-0.291047
  0
VERTEX
  8
PLAN_1
 62
     2
  6
CONTINUOUS
 10
0.167189
 20
-0.291047
  0
VERTEX
  8
PLAN_1
 62
     2
  6
CONTINUOUS
 10
0.167189
 20
-0.300000
  0
VERTEX
  8
PLAN_1
 62
     2
  6
CONTINUOUS
 10
0.168681
 20
-0.297516
  0
VERTEX
  8
PLAN_1
 62
     2
  6
CONTINUOUS
 10
0.170173
 20
-0.295524
  0
VERTEX
  8
PLAN_1
 62
     2
  6
CONTINUOUS
 10
0.172165
 20
-0.294031
  0
VERTEX
  8
PLAN_1
 62
     2
  6
CONTINUOUS
 10
0.173657
 20
-0.292043
  0
VERTEX
  8
PLAN_1
 62
     2
  6
CONTINUOUS
 10
0.175646
 20
-0.291047
  0
VERTEX
  8
PLAN_1
 62
     2
  6
CONTINUOUS
 10
0.178134
 20
-0.290051
  0
VERTEX
  8
PLAN_1
 62
     2
  6
CONTINUOUS
 10
0.180122
 20
-0.289555
  0
VERTEX
  8
PLAN_1
 62
     2
  6
CONTINUOUS
 10
0.182610
 20
-0.289555
  0
VERTEX
  8
PLAN_1
 62
     2
  6
CONTINUOUS
 10
0.183110
 20
-0.289555
  0
VERTEX
  8
PLAN_1
 62
     2
  6
CONTINUOUS
 10
0.183606
 20
-0.289555
  0
VERTEX
  8
PLAN_1
 62
     2
  6
CONTINUOUS
 10
0.184102
 20
-0.289555
  0
VERTEX
  8
PLAN_1
 62
     2
  6
CONTINUOUS
 10
0.184602
 20
-0.289555
  0
VERTEX
  8
PLAN_1
 62
     2
  6
CONTINUOUS
 10
0.185098
 20
-0.289555
  0
VERTEX
  8
PLAN_1
 62
     2
  6
CONTINUOUS
 10
0.185098
 20
-0.299008
  0
VERTEX
  8
PLAN_1
 62
     2
  6
CONTINUOUS
 10
0.181618
 20
-0.299008
  0
VERTEX
  8
PLAN_1
 62
     2
  6
CONTINUOUS
 10
0.178630
 20
-0.299504
  0
VERTEX
  8
PLAN_1
 62
     2
  6
CONTINUOUS
 10
0.176142
 20
-0.300500
  0
VERTEX
  8
PLAN_1
 62
     2
  6
CONTINUOUS
 10
0.173657
 20
-0.301492
  0
VERTEX
  8
PLAN_1
 62
     2
  6
CONTINUOUS
 10
0.171665
 20
-0.303484
  0
VERTEX
  8
PLAN_1
 62
     2
  6
CONTINUOUS
 10
0.169677
 20
-0.305472
  0
VERTEX
  8
PLAN_1
 62
     2
  6
CONTINUOUS
 10
0.168681
 20
-0.307961
  0
VERTEX
  8
PLAN_1
 62
     2
  6
CONTINUOUS
 10
0.168185
 20
-0.310945
  0
VERTEX
  8
PLAN_1
 62
     2
  6
CONTINUOUS
 10
0.167685
 20
-0.313933
  0
VERTEX
  8
PLAN_1
 62
     2
  6
CONTINUOUS
 10
0.167685
 20
-0.345276
  0
SEQEND
  8
0
  0
POLYLINE
  8
PLAN_1
 62
     2
  6
CONTINUOUS
 66
     1
 40
0.003000
 41
0.003000
  0
VERTEX
  8
PLAN_1
 62
     2
  6
CONTINUOUS
 10
0.238331
 20
-0.328358
  0
VERTEX
  8
PLAN_1
 62
     2
  6
CONTINUOUS
 10
0.237835
 20
-0.329354
  0
VERTEX
  8
PLAN_1
 62
     2
  6
CONTINUOUS
 10
0.237335
 20
-0.330846
  0
VERTEX
  8
PLAN_1
 62
     2
  6
CONTINUOUS
 10
0.236839
 20
-0.332839
  0
VERTEX
  8
PLAN_1
 62
     2
  6
CONTINUOUS
 10
0.235843
 20
-0.334827
  0
VERTEX
  8
PLAN_1
 62
     2
  6
CONTINUOUS
 10
0.234350
 20
-0.337315
  0
VERTEX
  8
PLAN_1
 62
     2
  6
CONTINUOUS
 10
0.232858
 20
-0.339303
  0
VERTEX
  8
PLAN_1
 62
     2
  6
CONTINUOUS
 10
0.230870
 20
-0.341295
  0
VERTEX
  8
PLAN_1
 62
     2
  6
CONTINUOUS
 10
0.228382
 20
-0.343283
  0
VERTEX
  8
PLAN_1
 62
     2
  6
CONTINUOUS
 10
0.227386
 20
-0.343783
  0
VERTEX
  8
PLAN_1
 62
     2
  6
CONTINUOUS
 10
0.226390
 20
-0.344280
  0
VERTEX
  8
PLAN_1
 62
     2
  6
CONTINUOUS
 10
0.224898
 20
-0.345276
  0
VERTEX
  8
PLAN_1
 62
     2
  6
CONTINUOUS
 10
0.223406
 20
-0.345772
  0
VERTEX
  8
PLAN_1
 62
     2
  6
CONTINUOUS
 10
0.221417
 20
-0.346268
  0
VERTEX
  8
PLAN_1
 62
     2
  6
CONTINUOUS
 10
0.219425
 20
-0.346768
  0
VERTEX
  8
PLAN_1
 62
     2
  6
CONTINUOUS
 10
0.216937
 20
-0.346768
  0
VERTEX
  8
PLAN_1
 62
     2
  6
CONTINUOUS
 10
0.213953
 20
-0.346768
  0
VERTEX
  8
PLAN_1
 62
     2
  6
CONTINUOUS
 10
0.210969
 20
-0.346768
  0
VERTEX
  8
PLAN_1
 62
     2
  6
CONTINUOUS
 10
0.208480
 20
-0.346268
  0
VERTEX
  8
PLAN_1
 62
     2
  6
CONTINUOUS
 10
0.205992
 20
-0.345772
  0
VERTEX
  8
PLAN_1
 62
     2
  6
CONTINUOUS
 10
0.203508
 20
-0.344776
  0
VERTEX
  8
PLAN_1
 62
     2
  6
CONTINUOUS
 10
0.201516
 20
-0.343783
  0
VERTEX
  8
PLAN_1
 62
     2
  6
CONTINUOUS
 10
0.199528
 20
-0.342287
  0
VERTEX
  8
PLAN_1
 62
     2
  6
CONTINUOUS
 10
0.197535
 20
-0.340795
  0
VERTEX
  8
PLAN_1
 62
     2
  6
CONTINUOUS
 10
0.196043
 20
-0.339303
  0
VERTEX
  8
PLAN_1
 62
     2
  6
CONTINUOUS
 10
0.193059
 20
-0.335323
  0
VERTEX
  8
PLAN_1
 62
     2
  6
CONTINUOUS
 10
0.191067
 20
-0.330350
  0
VERTEX
  8
PLAN_1
 62
     2
  6
CONTINUOUS
 10
0.189575
 20
-0.325374
  0
VERTEX
  8
PLAN_1
 62
     2
  6
CONTINUOUS
 10
0.189575
 20
-0.319406
  0
VERTEX
  8
PLAN_1
 62
     2
  6
CONTINUOUS
 10
0.189575
 20
-0.313433
  0
VERTEX
  8
PLAN_1
 62
     2
  6
CONTINUOUS
 10
0.191067
 20
-0.307961
  0
VERTEX
  8
PLAN_1
 62
     2
  6
CONTINUOUS
 10
0.191567
 20
-0.304976
  0
VERTEX
  8
PLAN_1
 62
     2
  6
CONTINUOUS
 10
0.193059
 20
-0.302488
  0
VERTEX
  8
PLAN_1
 62
     2
  6
CONTINUOUS
 10
0.194055
 20
-0.300500
  0
VERTEX
  8
PLAN_1
 62
     2
  6
CONTINUOUS
 10
0.195547
 20
-0.298012
  0
VERTEX
  8
PLAN_1
 62
     2
  6
CONTINUOUS
 10
0.197535
 20
-0.296020
  0
VERTEX
  8
PLAN_1
 62
     2
  6
CONTINUOUS
 10
0.199528
 20
-0.294528
  0
VERTEX
  8
PLAN_1
 62
     2
  6
CONTINUOUS
 10
0.201516
 20
-0.293035
  0
VERTEX
  8
PLAN_1
 62
     2
  6
CONTINUOUS
 10
0.204004
 20
-0.291543
  0
VERTEX
  8
PLAN_1
 62
     2
  6
CONTINUOUS
 10
0.206492
 20
-0.290547
  0
VERTEX
  8
PLAN_1
 62
     2
  6
CONTINUOUS
 10
0.208980
 20
-0.290051
  0
VERTEX
  8
PLAN_1
 62
     2
  6
CONTINUOUS
 10
0.212461
 20
-0.289555
  0
VERTEX
  8
PLAN_1
 62
     2
  6
CONTINUOUS
 10
0.215445
 20
-0.289555
  0
VERTEX
  8
PLAN_1
 62
     2
  6
CONTINUOUS
 10
0.218433
 20
-0.289555
  0
VERTEX
  8
PLAN_1
 62
     2
  6
CONTINUOUS
 10
0.220917
 20
-0.290051
  0
VERTEX
  8
PLAN_1
 62
     2
  6
CONTINUOUS
 10
0.223406
 20
-0.290547
  0
VERTEX
  8
PLAN_1
 62
     2
  6
CONTINUOUS
 10
0.225894
 20
-0.291543
  0
VERTEX
  8
PLAN_1
 62
     2
  6
CONTINUOUS
 10
0.227886
 20
-0.293035
  0
VERTEX
  8
PLAN_1
 62
     2
  6
CONTINUOUS
 10
0.229874
 20
-0.294528
  0
VERTEX
  8
PLAN_1
 62
     2
  6
CONTINUOUS
 10
0.231366
 20
-0.296020
  0
VERTEX
  8
PLAN_1
 62
     2
  6
CONTINUOUS
 10
0.232858
 20
-0.298012
  0
VERTEX
  8
PLAN_1
 62
     2
  6
CONTINUOUS
 10
0.234350
 20
-0.300000
  0
VERTEX
  8
PLAN_1
 62
     2
  6
CONTINUOUS
 10
0.235843
 20
-0.302488
  0
VERTEX
  8
PLAN_1
 62
     2
  6
CONTINUOUS
 10
0.236839
 20
-0.304976
  0
VERTEX
  8
PLAN_1
 62
     2
  6
CONTINUOUS
 10
0.237335
 20
-0.307961
  0
VERTEX
  8
PLAN_1
 62
     2
  6
CONTINUOUS
 10
0.238331
 20
-0.314429
  0
VERTEX
  8
PLAN_1
 62
     2
  6
CONTINUOUS
 10
0.238831
 20
-0.320898
  0
VERTEX
  8
PLAN_1
 62
     2
  6
CONTINUOUS
 10
0.199028
 20
-0.320898
  0
VERTEX
  8
PLAN_1
 62
     2
  6
CONTINUOUS
 10
0.199528
 20
-0.324878
  0
VERTEX
  8
PLAN_1
 62
     2
  6
CONTINUOUS
 10
0.200024
 20
-0.328858
  0
VERTEX
  8
PLAN_1
 62
     2
  6
CONTINUOUS
 10
0.201516
 20
-0.331843
  0
VERTEX
  8
PLAN_1
 62
     2
  6
CONTINUOUS
 10
0.203008
 20
-0.334331
  0
VERTEX
  8
PLAN_1
 62
     2
  6
CONTINUOUS
 10
0.205496
 20
-0.336319
  0
VERTEX
  8
PLAN_1
 62
     2
  6
CONTINUOUS
 10
0.207984
 20
-0.337811
  0
VERTEX
  8
PLAN_1
 62
     2
  6
CONTINUOUS
 10
0.211465
 20
-0.338807
  0
VERTEX
  8
PLAN_1
 62
     2
  6
CONTINUOUS
 10
0.214949
 20
-0.338807
  0
VERTEX
  8
PLAN_1
 62
     2
  6
CONTINUOUS
 10
0.217933
 20
-0.338807
  0
VERTEX
  8
PLAN_1
 62
     2
  6
CONTINUOUS
 10
0.220917
 20
-0.337811
  0
VERTEX
  8
PLAN_1
 62
     2
  6
CONTINUOUS
 10
0.222909
 20
-0.336815
  0
VERTEX
  8
PLAN_1
 62
     2
  6
CONTINUOUS
 10
0.224898
 20
-0.335323
  0
VERTEX
  8
PLAN_1
 62
     2
  6
CONTINUOUS
 10
0.226890
 20
-0.333335
  0
VERTEX
  8
PLAN_1
 62
     2
  6
CONTINUOUS
 10
0.227886
 20
-0.331843
  0
VERTEX
  8
PLAN_1
 62
     2
  6
CONTINUOUS
 10
0.228878
 20
-0.329850
  0
VERTEX
  8
PLAN_1
 62
     2
  6
CONTINUOUS
 10
0.228878
 20
-0.328358
  0
VERTEX
  8
PLAN_1
 62
     2
  6
CONTINUOUS
 10
0.238331
 20
-0.328358
  0
SEQEND
  8
0
  0
POLYLINE
  8
PLAN_1
 62
     2
  6
CONTINUOUS
 66
     1
 40
0.003000
 41
0.003000
  0
VERTEX
  8
PLAN_1
 62
     2
  6
CONTINUOUS
 10
0.229378
 20
-0.313933
  0
VERTEX
  8
PLAN_1
 62
     2
  6
CONTINUOUS
 10
0.228878
 20
-0.310449
  0
VERTEX
  8
PLAN_1
 62
     2
  6
CONTINUOUS
 10
0.228382
 20
-0.307465
  0
VERTEX
  8
PLAN_1
 62
     2
  6
CONTINUOUS
 10
0.227386
 20
-0.304976
  0
VERTEX
  8
PLAN_1
 62
     2
  6
CONTINUOUS
 10
0.225894
 20
-0.302488
  0
VERTEX
  8
PLAN_1
 62
     2
  6
CONTINUOUS
 10
0.223906
 20
-0.300500
  0
VERTEX
  8
PLAN_1
 62
     2
  6
CONTINUOUS
 10
0.221417
 20
-0.299008
  0
VERTEX
  8
PLAN_1
 62
     2
  6
CONTINUOUS
 10
0.217933
 20
-0.298012
  0
VERTEX
  8
PLAN_1
 62
     2
  6
CONTINUOUS
 10
0.214453
 20
-0.297516
  0
VERTEX
  8
PLAN_1
 62
     2
  6
CONTINUOUS
 10
0.210969
 20
-0.298012
  0
VERTEX
  8
PLAN_1
 62
     2
  6
CONTINUOUS
 10
0.208480
 20
-0.299008
  0
VERTEX
  8
PLAN_1
 62
     2
  6
CONTINUOUS
 10
0.205992
 20
-0.300500
  0
VERTEX
  8
PLAN_1
 62
     2
  6
CONTINUOUS
 10
0.203508
 20
-0.302488
  0
VERTEX
  8
PLAN_1
 62
     2
  6
CONTINUOUS
 10
0.201516
 20
-0.304976
  0
VERTEX
  8
PLAN_1
 62
     2
  6
CONTINUOUS
 10
0.200520
 20
-0.307465
  0
VERTEX
  8
PLAN_1
 62
     2
  6
CONTINUOUS
 10
0.199528
 20
-0.310449
  0
VERTEX
  8
PLAN_1
 62
     2
  6
CONTINUOUS
 10
0.199028
 20
-0.313933
  0
VERTEX
  8
PLAN_1
 62
     2
  6
CONTINUOUS
 10
0.229378
 20
-0.313933
  0
SEQEND
  8
0
  0
POLYLINE
  8
PLAN_1
 62
     2
  6
CONTINUOUS
 66
     1
 40
0.003000
 41
0.003000
  0
VERTEX
  8
PLAN_1
 62
     2
  6
CONTINUOUS
 10
0.280618
 20
-0.306469
  0
VERTEX
  8
PLAN_1
 62
     2
  6
CONTINUOUS
 10
0.280618
 20
-0.304976
  0
VERTEX
  8
PLAN_1
 62
     2
  6
CONTINUOUS
 10
0.280122
 20
-0.303484
  0
VERTEX
  8
PLAN_1
 62
     2
  6
CONTINUOUS
 10
0.279626
 20
-0.301992
  0
VERTEX
  8
PLAN_1
 62
     2
  6
CONTINUOUS
 10
0.278630
 20
-0.300500
  0
VERTEX
  8
PLAN_1
 62
     2
  6
CONTINUOUS
 10
0.277138
 20
-0.299008
  0
VERTEX
  8
PLAN_1
 62
     2
  6
CONTINUOUS
 10
0.274650
 20
-0.298012
  0
VERTEX
  8
PLAN_1
 62
     2
  6
CONTINUOUS
 10
0.271665
 20
-0.297516
  0
VERTEX
  8
PLAN_1
 62
     2
  6
CONTINUOUS
 10
0.267685
 20
-0.297016
  0
VERTEX
  8
PLAN_1
 62
     2
  6
CONTINUOUS
 10
0.266689
 20
-0.297516
  0
VERTEX
  8
PLAN_1
 62
     2
  6
CONTINUOUS
 10
0.265197
 20
-0.297516
  0
VERTEX
  8
PLAN_1
 62
     2
  6
CONTINUOUS
 10
0.263209
 20
-0.298012
  0
VERTEX
  8
PLAN_1
 62
     2
  6
CONTINUOUS
 10
0.261217
 20
-0.298508
  0
VERTEX
  8
PLAN_1
 62
     2
  6
CONTINUOUS
 10
0.259724
 20
-0.299504
  0
VERTEX
  8
PLAN_1
 62
     2
  6
CONTINUOUS
 10
0.258232
 20
-0.300996
  0
VERTEX
  8
PLAN_1
 62
     2
  6
CONTINUOUS
 10
0.257236
 20
-0.302488
  0
VERTEX
  8
PLAN_1
 62
     2
  6
CONTINUOUS
 10
0.257236
 20
-0.304976
  0
VERTEX
  8
PLAN_1
 62
     2
  6
CONTINUOUS
 10
0.257236
 20
-0.306469
  0
VERTEX
  8
PLAN_1
 62
     2
  6
CONTINUOUS
 10
0.257732
 20
-0.307961
  0
VERTEX
  8
PLAN_1
 62
     2
  6
CONTINUOUS
 10
0.258232
 20
-0.308957
  0
VERTEX
  8
PLAN_1
 62
     2
  6
CONTINUOUS
 10
0.259228
 20
-0.309453
  0
VERTEX
  8
PLAN_1
 62
     2
  6
CONTINUOUS
 10
0.260720
 20
-0.310449
  0
VERTEX
  8
PLAN_1
 62
     2
  6
CONTINUOUS
 10
0.262213
 20
-0.310945
  0
VERTEX
  8
PLAN_1
 62
     2
  6
CONTINUOUS
 10
0.264701
 20
-0.311445
  0
VERTEX
  8
PLAN_1
 62
     2
  6
CONTINUOUS
 10
0.266689
 20
-0.312441
  0
VERTEX
  8
PLAN_1
 62
     2
  6
CONTINUOUS
 10
0.276142
 20
-0.314429
  0
VERTEX
  8
PLAN_1
 62
     2
  6
CONTINUOUS
 10
0.280122
 20
-0.315425
  0
VERTEX
  8
PLAN_1
 62
     2
  6
CONTINUOUS
 10
0.283106
 20
-0.316917
  0
VERTEX
  8
PLAN_1
 62
     2
  6
CONTINUOUS
 10
0.286091
 20
-0.318409
  0
VERTEX
  8
PLAN_1
 62
     2
  6
CONTINUOUS
 10
0.288083
 20
-0.319902
  0
VERTEX
  8
PLAN_1
 62
     2
  6
CONTINUOUS
 10
0.289575
 20
-0.321890
  0
VERTEX
  8
PLAN_1
 62
     2
  6
CONTINUOUS
 10
0.290571
 20
-0.323882
  0
VERTEX
  8
PLAN_1
 62
     2
  6
CONTINUOUS
 10
0.291067
 20
-0.326370
  0
VERTEX
  8
PLAN_1
 62
     2
  6
CONTINUOUS
 10
0.291563
 20
-0.328858
  0
VERTEX
  8
PLAN_1
 62
     2
  6
CONTINUOUS
 10
0.291067
 20
-0.332839
  0
VERTEX
  8
PLAN_1
 62
     2
  6
CONTINUOUS
 10
0.289575
 20
-0.336319
  0
VERTEX
  8
PLAN_1
 62
     2
  6
CONTINUOUS
 10
0.287583
 20
-0.339303
  0
VERTEX
  8
PLAN_1
 62
     2
  6
CONTINUOUS
 10
0.285098
 20
-0.342287
  0
VERTEX
  8
PLAN_1
 62
     2
  6
CONTINUOUS
 10
0.282110
 20
-0.344280
  0
VERTEX
  8
PLAN_1
 62
     2
  6
CONTINUOUS
 10
0.278630
 20
-0.345772
  0
VERTEX
  8
PLAN_1
 62
     2
  6
CONTINUOUS
 10
0.274154
 20
-0.346768
  0
VERTEX
  8
PLAN_1
 62
     2
  6
CONTINUOUS
 10
0.269673
 20
-0.346768
  0
VERTEX
  8
PLAN_1
 62
     2
  6
CONTINUOUS
 10
0.266193
 20
-0.346768
  0
VERTEX
  8
PLAN_1
 62
     2
  6
CONTINUOUS
 10
0.262709
 20
-0.346268
  0
VERTEX
  8
PLAN_1
 62
     2
  6
CONTINUOUS
 10
0.259724
 20
-0.345772
  0
VERTEX
  8
PLAN_1
 62
     2
  6
CONTINUOUS
 10
0.257236
 20
-0.344776
  0
VERTEX
  8
PLAN_1
 62
     2
  6
CONTINUOUS
 10
0.254748
 20
-0.343783
  0
VERTEX
  8
PLAN_1
 62
     2
  6
CONTINUOUS
 10
0.253256
 20
-0.342787
  0
VERTEX
  8
PLAN_1
 62
     2
  6
CONTINUOUS
 10
0.251268
 20
-0.341295
  0
VERTEX
  8
PLAN_1
 62
     2
  6
CONTINUOUS
 10
0.250272
 20
-0.339803
  0
VERTEX
  8
PLAN_1
 62
     2
  6
CONTINUOUS
 10
0.248283
 20
-0.336815
  0
VERTEX
  8
PLAN_1
 62
     2
  6
CONTINUOUS
 10
0.247287
 20
-0.333335
  0
VERTEX
  8
PLAN_1
 62
     2
  6
CONTINUOUS
 10
0.246787
 20
-0.330350
  0
VERTEX
  8
PLAN_1
 62
     2
  6
CONTINUOUS
 10
0.246291
 20
-0.327862
  0
VERTEX
  8
PLAN_1
 62
     2
  6
CONTINUOUS
 10
0.255248
 20
-0.327862
  0
VERTEX
  8
PLAN_1
 62
     2
  6
CONTINUOUS
 10
0.255248
 20
-0.329354
  0
VERTEX
  8
PLAN_1
 62
     2
  6
CONTINUOUS
 10
0.255744
 20
-0.331343
  0
VERTEX
  8
PLAN_1
 62
     2
  6
CONTINUOUS
 10
0.256740
 20
-0.333335
  0
VERTEX
  8
PLAN_1
 62
     2
  6
CONTINUOUS
 10
0.257732
 20
-0.334827
  0
VERTEX
  8
PLAN_1
 62
     2
  6
CONTINUOUS
 10
0.259724
 20
-0.336815
  0
VERTEX
  8
PLAN_1
 62
     2
  6
CONTINUOUS
 10
0.262213
 20
-0.337811
  0
VERTEX
  8
PLAN_1
 62
     2
  6
CONTINUOUS
 10
0.265197
 20
-0.338807
  0
VERTEX
  8
PLAN_1
 62
     2
  6
CONTINUOUS
 10
0.269673
 20
-0.338807
  0
VERTEX
  8
PLAN_1
 62
     2
  6
CONTINUOUS
 10
0.272161
 20
-0.338807
  0
VERTEX
  8
PLAN_1
 62
     2
  6
CONTINUOUS
 10
0.274650
 20
-0.338311
  0
VERTEX
  8
PLAN_1
 62
     2
  6
CONTINUOUS
 10
0.276638
 20
-0.337811
  0
VERTEX
  8
PLAN_1
 62
     2
  6
CONTINUOUS
 10
0.278630
 20
-0.336815
  0
VERTEX
  8
PLAN_1
 62
     2
  6
CONTINUOUS
 10
0.280122
 20
-0.335823
  0
VERTEX
  8
PLAN_1
 62
     2
  6
CONTINUOUS
 10
0.281118
 20
-0.334331
  0
VERTEX
  8
PLAN_1
 62
     2
  6
CONTINUOUS
 10
0.282110
 20
-0.332339
  0
VERTEX
  8
PLAN_1
 62
     2
  6
CONTINUOUS
 10
0.282110
 20
-0.330350
  0
VERTEX
  8
PLAN_1
 62
     2
  6
CONTINUOUS
 10
0.282110
 20
-0.328858
  0
VERTEX
  8
PLAN_1
 62
     2
  6
CONTINUOUS
 10
0.281614
 20
-0.327362
  0
VERTEX
  8
PLAN_1
 62
     2
  6
CONTINUOUS
 10
0.280618
 20
-0.326370
  0
VERTEX
  8
PLAN_1
 62
     2
  6
CONTINUOUS
 10
0.279626
 20
-0.325374
  0
VERTEX
  8
PLAN_1
 62
     2
  6
CONTINUOUS
 10
0.278130
 20
-0.324878
  0
VERTEX
  8
PLAN_1
 62
     2
  6
CONTINUOUS
 10
0.276142
 20
-0.323882
  0
VERTEX
  8
PLAN_1
 62
     2
  6
CONTINUOUS
 10
0.274154
 20
-0.323386
  0
VERTEX
  8
PLAN_1
 62
     2
  6
CONTINUOUS
 10
0.271165
 20
-0.322390
  0
VERTEX
  8
PLAN_1
 62
     2
  6
CONTINUOUS
 10
0.260720
 20
-0.319902
  0
VERTEX
  8
PLAN_1
 62
     2
  6
CONTINUOUS
 10
0.258232
 20
-0.318906
  0
VERTEX
  8
PLAN_1
 62
     2
  6
CONTINUOUS
 10
0.255744
 20
-0.317913
  0
VERTEX
  8
PLAN_1
 62
     2
  6
CONTINUOUS
 10
0.253256
 20
-0.316917
  0
VERTEX
  8
PLAN_1
 62
     2
  6
CONTINUOUS
 10
0.251764
 20
-0.315425
  0
VERTEX
  8
PLAN_1
 62
     2
  6
CONTINUOUS
 10
0.250272
 20
-0.313933
  0
VERTEX
  8
PLAN_1
 62
     2
  6
CONTINUOUS
 10
0.249276
 20
-0.311445
  0
VERTEX
  8
PLAN_1
 62
     2
  6
CONTINUOUS
 10
0.248283
 20
-0.309453
  0
VERTEX
  8
PLAN_1
 62
     2
  6
CONTINUOUS
 10
0.248283
 20
-0.306965
  0
VERTEX
  8
PLAN_1
 62
     2
  6
CONTINUOUS
 10
0.248780
 20
-0.302488
  0
VERTEX
  8
PLAN_1
 62
     2
  6
CONTINUOUS
 10
0.249776
 20
-0.299008
  0
VERTEX
  8
PLAN_1
 62
     2
  6
CONTINUOUS
 10
0.251764
 20
-0.296020
  0
VERTEX
  8
PLAN_1
 62
     2
  6
CONTINUOUS
 10
0.254252
 20
-0.293535
  0
VERTEX
  8
PLAN_1
 62
     2
  6
CONTINUOUS
 10
0.257732
 20
-0.291543
  0
VERTEX
  8
PLAN_1
 62
     2
  6
CONTINUOUS
 10
0.261217
 20
-0.290547
  0
VERTEX
  8
PLAN_1
 62
     2
  6
CONTINUOUS
 10
0.264701
 20
-0.289555
  0
VERTEX
  8
PLAN_1
 62
     2
  6
CONTINUOUS
 10
0.268681
 20
-0.289555
  0
VERTEX
  8
PLAN_1
 62
     2
  6
CONTINUOUS
 10
0.272161
 20
-0.289555
  0
VERTEX
  8
PLAN_1
 62
     2
  6
CONTINUOUS
 10
0.275146
 20
-0.290051
  0
VERTEX
  8
PLAN_1
 62
     2
  6
CONTINUOUS
 10
0.278130
 20
-0.290547
  0
VERTEX
  8
PLAN_1
 62
     2
  6
CONTINUOUS
 10
0.280122
 20
-0.291543
  0
VERTEX
  8
PLAN_1
 62
     2
  6
CONTINUOUS
 10
0.282110
 20
-0.292539
  0
VERTEX
  8
PLAN_1
 62
     2
  6
CONTINUOUS
 10
0.284102
 20
-0.294031
  0
VERTEX
  8
PLAN_1
 62
     2
  6
CONTINUOUS
 10
0.285098
 20
-0.295524
  0
VERTEX
  8
PLAN_1
 62
     2
  6
CONTINUOUS
 10
0.286591
 20
-0.297016
  0
VERTEX
  8
PLAN_1
 62
     2
  6
CONTINUOUS
 10
0.288083
 20
-0.300000
  0
VERTEX
  8
PLAN_1
 62
     2
  6
CONTINUOUS
 10
0.289079
 20
-0.302488
  0
VERTEX
  8
PLAN_1
 62
     2
  6
CONTINUOUS
 10
0.289575
 20
-0.304976
  0
VERTEX
  8
PLAN_1
 62
     2
  6
CONTINUOUS
 10
0.289575
 20
-0.306469
  0
VERTEX
  8
PLAN_1
 62
     2
  6
CONTINUOUS
 10
0.280618
 20
-0.306469
  0
SEQEND
  8
0
  0
POLYLINE
  8
PLAN_1
 62
     2
  6
CONTINUOUS
 66
     1
 40
0.003000
 41
0.003000
  0
VERTEX
  8
PLAN_1
 62
     2
  6
CONTINUOUS
 10
0.332858
 20
-0.306469
  0
VERTEX
  8
PLAN_1
 62
     2
  6
CONTINUOUS
 10
0.332858
 20
-0.304976
  0
VERTEX
  8
PLAN_1
 62
     2
  6
CONTINUOUS
 10
0.332358
 20
-0.303484
  0
VERTEX
  8
PLAN_1
 62
     2
  6
CONTINUOUS
 10
0.331862
 20
-0.301992
  0
VERTEX
  8
PLAN_1
 62
     2
  6
CONTINUOUS
 10
0.330866
 20
-0.300500
  0
VERTEX
  8
PLAN_1
 62
     2
  6
CONTINUOUS
 10
0.328878
 20
-0.299008
  0
VERTEX
  8
PLAN_1
 62
     2
  6
CONTINUOUS
 10
0.326886
 20
-0.298012
  0
VERTEX
  8
PLAN_1
 62
     2
  6
CONTINUOUS
 10
0.323902
 20
-0.297516
  0
VERTEX
  8
PLAN_1
 62
     2
  6
CONTINUOUS
 10
0.319921
 20
-0.297016
  0
VERTEX
  8
PLAN_1
 62
     2
  6
CONTINUOUS
 10
0.318429
 20
-0.297516
  0
VERTEX
  8
PLAN_1
 62
     2
  6
CONTINUOUS
 10
0.316937
 20
-0.297516
  0
VERTEX
  8
PLAN_1
 62
     2
  6
CONTINUOUS
 10
0.315445
 20
-0.298012
  0
VERTEX
  8
PLAN_1
 62
     2
  6
CONTINUOUS
 10
0.313453
 20
-0.298508
  0
VERTEX
  8
PLAN_1
 62
     2
  6
CONTINUOUS
 10
0.311961
 20
-0.299504
  0
VERTEX
  8
PLAN_1
 62
     2
  6
CONTINUOUS
 10
0.310469
 20
-0.300996
  0
VERTEX
  8
PLAN_1
 62
     2
  6
CONTINUOUS
 10
0.309476
 20
-0.302488
  0
VERTEX
  8
PLAN_1
 62
     2
  6
CONTINUOUS
 10
0.308976
 20
-0.304976
  0
VERTEX
  8
PLAN_1
 62
     2
  6
CONTINUOUS
 10
0.309476
 20
-0.306469
  0
VERTEX
  8
PLAN_1
 62
     2
  6
CONTINUOUS
 10
0.309476
 20
-0.307961
  0
VERTEX
  8
PLAN_1
 62
     2
  6
CONTINUOUS
 10
0.310469
 20
-0.308957
  0
VERTEX
  8
PLAN_1
 62
     2
  6
CONTINUOUS
 10
0.311465
 20
-0.309453
  0
VERTEX
  8
PLAN_1
 62
     2
  6
CONTINUOUS
 10
0.312957
 20
-0.310449
  0
VERTEX
  8
PLAN_1
 62
     2
  6
CONTINUOUS
 10
0.314449
 20
-0.310945
  0
VERTEX
  8
PLAN_1
 62
     2
  6
CONTINUOUS
 10
0.316441
 20
-0.311445
  0
VERTEX
  8
PLAN_1
 62
     2
  6
CONTINUOUS
 10
0.318925
 20
-0.312441
  0
VERTEX
  8
PLAN_1
 62
     2
  6
CONTINUOUS
 10
0.328378
 20
-0.314429
  0
VERTEX
  8
PLAN_1
 62
     2
  6
CONTINUOUS
 10
0.331862
 20
-0.315425
  0
VERTEX
  8
PLAN_1
 62
     2
  6
CONTINUOUS
 10
0.335346
 20
-0.316917
  0
VERTEX
  8
PLAN_1
 62
     2
  6
CONTINUOUS
 10
0.337831
 20
-0.318409
  0
VERTEX
  8
PLAN_1
 62
     2
  6
CONTINUOUS
 10
0.339823
 20
-0.319902
  0
VERTEX
  8
PLAN_1
 62
     2
  6
CONTINUOUS
 10
0.341811
 20
-0.321890
  0
VERTEX
  8
PLAN_1
 62
     2
  6
CONTINUOUS
 10
0.342807
 20
-0.323882
  0
VERTEX
  8
PLAN_1
 62
     2
  6
CONTINUOUS
 10
0.343303
 20
-0.326370
  0
VERTEX
  8
PLAN_1
 62
     2
  6
CONTINUOUS
 10
0.343303
 20
-0.328858
  0
VERTEX
  8
PLAN_1
 62
     2
  6
CONTINUOUS
 10
0.342807
 20
-0.332839
  0
VERTEX
  8
PLAN_1
 62
     2
  6
CONTINUOUS
 10
0.341811
 20
-0.336319
  0
VERTEX
  8
PLAN_1
 62
     2
  6
CONTINUOUS
 10
0.339823
 20
-0.339303
  0
VERTEX
  8
PLAN_1
 62
     2
  6
CONTINUOUS
 10
0.337335
 20
-0.342287
  0
VERTEX
  8
PLAN_1
 62
     2
  6
CONTINUOUS
 10
0.334350
 20
-0.344280
  0
VERTEX
  8
PLAN_1
 62
     2
  6
CONTINUOUS
 10
0.330370
 20
-0.345772
  0
VERTEX
  8
PLAN_1
 62
     2
  6
CONTINUOUS
 10
0.326390
 20
-0.346768
  0
VERTEX
  8
PLAN_1
 62
     2
  6
CONTINUOUS
 10
0.321913
 20
-0.346768
  0
VERTEX
  8
PLAN_1
 62
     2
  6
CONTINUOUS
 10
0.317933
 20
-0.346768
  0
VERTEX
  8
PLAN_1
 62
     2
  6
CONTINUOUS
 10
0.314949
 20
-0.346268
  0
VERTEX
  8
PLAN_1
 62
     2
  6
CONTINUOUS
 10
0.311961
 20
-0.345772
  0
VERTEX
  8
PLAN_1
 62
     2
  6
CONTINUOUS
 10
0.308976
 20
-0.344776
  0
VERTEX
  8
PLAN_1
 62
     2
  6
CONTINUOUS
 10
0.306988
 20
-0.343783
  0
VERTEX
  8
PLAN_1
 62
     2
  6
CONTINUOUS
 10
0.304996
 20
-0.342787
  0
VERTEX
  8
PLAN_1
 62
     2
  6
CONTINUOUS
 10
0.303504
 20
-0.341295
  0
VERTEX
  8
PLAN_1
 62
     2
  6
CONTINUOUS
 10
0.302012
 20
-0.339803
  0
VERTEX
  8
PLAN_1
 62
     2
  6
CONTINUOUS
 10
0.300520
 20
-0.336815
  0
VERTEX
  8
PLAN_1
 62
     2
  6
CONTINUOUS
 10
0.299028
 20
-0.333335
  0
VERTEX
  8
PLAN_1
 62
     2
  6
CONTINUOUS
 10
0.298528
 20
-0.330350
  0
VERTEX
  8
PLAN_1
 62
     2
  6
CONTINUOUS
 10
0.298528
 20
-0.327862
  0
VERTEX
  8
PLAN_1
 62
     2
  6
CONTINUOUS
 10
0.307484
 20
-0.327862
  0
VERTEX
  8
PLAN_1
 62
     2
  6
CONTINUOUS
 10
0.307484
 20
-0.329354
  0
VERTEX
  8
PLAN_1
 62
     2
  6
CONTINUOUS
 10
0.307980
 20
-0.331343
  0
VERTEX
  8
PLAN_1
 62
     2
  6
CONTINUOUS
 10
0.308480
 20
-0.333335
  0
VERTEX
  8
PLAN_1
 62
     2
  6
CONTINUOUS
 10
0.309972
 20
-0.334827
  0
VERTEX
  8
PLAN_1
 62
     2
  6
CONTINUOUS
 10
0.311465
 20
-0.336815
  0
VERTEX
  8
PLAN_1
 62
     2
  6
CONTINUOUS
 10
0.313953
 20
-0.337811
  0
VERTEX
  8
PLAN_1
 62
     2
  6
CONTINUOUS
 10
0.317433
 20
-0.338807
  0
VERTEX
  8
PLAN_1
 62
     2
  6
CONTINUOUS
 10
0.321913
 20
-0.338807
  0
VERTEX
  8
PLAN_1
 62
     2
  6
CONTINUOUS
 10
0.324402
 20
-0.338807
  0
VERTEX
  8
PLAN_1
 62
     2
  6
CONTINUOUS
 10
0.326390
 20
-0.338311
  0
VERTEX
  8
PLAN_1
 62
     2
  6
CONTINUOUS
 10
0.328878
 20
-0.337811
  0
VERTEX
  8
PLAN_1
 62
     2
  6
CONTINUOUS
 10
0.330370
 20
-0.336815
  0
VERTEX
  8
PLAN_1
 62
     2
  6
CONTINUOUS
 10
0.331862
 20
-0.335823
  0
VERTEX
  8
PLAN_1
 62
     2
  6
CONTINUOUS
 10
0.333354
 20
-0.334331
  0
VERTEX
  8
PLAN_1
 62
     2
  6
CONTINUOUS
 10
0.333850
 20
-0.332339
  0
VERTEX
  8
PLAN_1
 62
     2
  6
CONTINUOUS
 10
0.334350
 20
-0.330350
  0
VERTEX
  8
PLAN_1
 62
     2
  6
CONTINUOUS
 10
0.334350
 20
-0.328858
  0
VERTEX
  8
PLAN_1
 62
     2
  6
CONTINUOUS
 10
0.333850
 20
-0.327362
  0
VERTEX
  8
PLAN_1
 62
     2
  6
CONTINUOUS
 10
0.332858
 20
-0.326370
  0
VERTEX
  8
PLAN_1
 62
     2
  6
CONTINUOUS
 10
0.331862
 20
-0.325374
  0
VERTEX
  8
PLAN_1
 62
     2
  6
CONTINUOUS
 10
0.330370
 20
-0.324878
  0
VERTEX
  8
PLAN_1
 62
     2
  6
CONTINUOUS
 10
0.328378
 20
-0.323882
  0
VERTEX
  8
PLAN_1
 62
     2
  6
CONTINUOUS
 10
0.326390
 20
-0.323386
  0
VERTEX
  8
PLAN_1
 62
     2
  6
CONTINUOUS
 10
0.323406
 20
-0.322390
  0
VERTEX
  8
PLAN_1
 62
     2
  6
CONTINUOUS
 10
0.312957
 20
-0.319902
  0
VERTEX
  8
PLAN_1
 62
     2
  6
CONTINUOUS
 10
0.309972
 20
-0.318906
  0
VERTEX
  8
PLAN_1
 62
     2
  6
CONTINUOUS
 10
0.307484
 20
-0.317913
  0
VERTEX
  8
PLAN_1
 62
     2
  6
CONTINUOUS
 10
0.305496
 20
-0.316917
  0
VERTEX
  8
PLAN_1
 62
     2
  6
CONTINUOUS
 10
0.303504
 20
-0.315425
  0
VERTEX
  8
PLAN_1
 62
     2
  6
CONTINUOUS
 10
0.302012
 20
-0.313933
  0
VERTEX
  8
PLAN_1
 62
     2
  6
CONTINUOUS
 10
0.301016
 20
-0.311445
  0
VERTEX
  8
PLAN_1
 62
     2
  6
CONTINUOUS
 10
0.300520
 20
-0.309453
  0
VERTEX
  8
PLAN_1
 62
     2
  6
CONTINUOUS
 10
0.300520
 20
-0.306965
  0
VERTEX
  8
PLAN_1
 62
     2
  6
CONTINUOUS
 10
0.300520
 20
-0.302488
  0
VERTEX
  8
PLAN_1
 62
     2
  6
CONTINUOUS
 10
0.302012
 20
-0.299008
  0
VERTEX
  8
PLAN_1
 62
     2
  6
CONTINUOUS
 10
0.304004
 20
-0.296020
  0
VERTEX
  8
PLAN_1
 62
     2
  6
CONTINUOUS
 10
0.306488
 20
-0.293535
  0
VERTEX
  8
PLAN_1
 62
     2
  6
CONTINUOUS
 10
0.309476
 20
-0.291543
  0
VERTEX
  8
PLAN_1
 62
     2
  6
CONTINUOUS
 10
0.312957
 20
-0.290547
  0
VERTEX
  8
PLAN_1
 62
     2
  6
CONTINUOUS
 10
0.316937
 20
-0.289555
  0
VERTEX
  8
PLAN_1
 62
     2
  6
CONTINUOUS
 10
0.320917
 20
-0.289555
  0
VERTEX
  8
PLAN_1
 62
     2
  6
CONTINUOUS
 10
0.324402
 20
-0.289555
  0
VERTEX
  8
PLAN_1
 62
     2
  6
CONTINUOUS
 10
0.327386
 20
-0.290051
  0
VERTEX
  8
PLAN_1
 62
     2
  6
CONTINUOUS
 10
0.329874
 20
-0.290547
  0
VERTEX
  8
PLAN_1
 62
     2
  6
CONTINUOUS
 10
0.332358
 20
-0.291543
  0
VERTEX
  8
PLAN_1
 62
     2
  6
CONTINUOUS
 10
0.334350
 20
-0.292539
  0
VERTEX
  8
PLAN_1
 62
     2
  6
CONTINUOUS
 10
0.335843
 20
-0.294031
  0
VERTEX
  8
PLAN_1
 62
     2
  6
CONTINUOUS
 10
0.337335
 20
-0.295524
  0
VERTEX
  8
PLAN_1
 62
     2
  6
CONTINUOUS
 10
0.338331
 20
-0.297016
  0
VERTEX
  8
PLAN_1
 62
     2
  6
CONTINUOUS
 10
0.340319
 20
-0.300000
  0
VERTEX
  8
PLAN_1
 62
     2
  6
CONTINUOUS
 10
0.341315
 20
-0.302488
  0
VERTEX
  8
PLAN_1
 62
     2
  6
CONTINUOUS
 10
0.341811
 20
-0.304976
  0
VERTEX
  8
PLAN_1
 62
     2
  6
CONTINUOUS
 10
0.341811
 20
-0.306469
  0
VERTEX
  8
PLAN_1
 62
     2
  6
CONTINUOUS
 10
0.332858
 20
-0.306469
  0
SEQEND
  8
0
  0
POLYLINE
  8
PLAN_1
 62
     2
  6
CONTINUOUS
 66
     1
 40
0.003000
 41
0.003000
  0
VERTEX
  8
PLAN_1
 62
     2
  6
CONTINUOUS
 10
0.400020
 20
-0.328358
  0
VERTEX
  8
PLAN_1
 62
     2
  6
CONTINUOUS
 10
0.400020
 20
-0.329354
  0
VERTEX
  8
PLAN_1
 62
     2
  6
CONTINUOUS
 10
0.399524
 20
-0.330846
  0
VERTEX
  8
PLAN_1
 62
     2
  6
CONTINUOUS
 10
0.399024
 20
-0.332839
  0
VERTEX
  8
PLAN_1
 62
     2
  6
CONTINUOUS
 10
0.398031
 20
-0.334827
  0
VERTEX
  8
PLAN_1
 62
     2
  6
CONTINUOUS
 10
0.396539
 20
-0.337315
  0
VERTEX
  8
PLAN_1
 62
     2
  6
CONTINUOUS
 10
0.395043
 20
-0.339303
  0
VERTEX
  8
PLAN_1
 62
     2
  6
CONTINUOUS
 10
0.393055
 20
-0.341295
  0
VERTEX
  8
PLAN_1
 62
     2
  6
CONTINUOUS
 10
0.390567
 20
-0.343283
  0
VERTEX
  8
PLAN_1
 62
     2
  6
CONTINUOUS
 10
0.389571
 20
-0.343783
  0
VERTEX
  8
PLAN_1
 62
     2
  6
CONTINUOUS
 10
0.388579
 20
-0.344280
  0
VERTEX
  8
PLAN_1
 62
     2
  6
CONTINUOUS
 10
0.387087
 20
-0.345276
  0
VERTEX
  8
PLAN_1
 62
     2
  6
CONTINUOUS
 10
0.385594
 20
-0.345772
  0
VERTEX
  8
PLAN_1
 62
     2
  6
CONTINUOUS
 10
0.383602
 20
-0.346268
  0
VERTEX
  8
PLAN_1
 62
     2
  6
CONTINUOUS
 10
0.381614
 20
-0.346768
  0
VERTEX
  8
PLAN_1
 62
     2
  6
CONTINUOUS
 10
0.378626
 20
-0.346768
  0
VERTEX
  8
PLAN_1
 62
     2
  6
CONTINUOUS
 10
0.375642
 20
-0.346768
  0
VERTEX
  8
PLAN_1
 62
     2
  6
CONTINUOUS
 10
0.373154
 20
-0.346768
  0
VERTEX
  8
PLAN_1
 62
     2
  6
CONTINUOUS
 10
0.370169
 20
-0.346268
  0
VERTEX
  8
PLAN_1
 62
     2
  6
CONTINUOUS
 10
0.367681
 20
-0.345772
  0
VERTEX
  8
PLAN_1
 62
     2
  6
CONTINUOUS
 10
0.365693
 20
-0.344776
  0
VERTEX
  8
PLAN_1
 62
     2
  6
CONTINUOUS
 10
0.363205
 20
-0.343783
  0
VERTEX
  8
PLAN_1
 62
     2
  6
CONTINUOUS
 10
0.361217
 20
-0.342287
  0
VERTEX
  8
PLAN_1
 62
     2
  6
CONTINUOUS
 10
0.359720
 20
-0.340795
  0
VERTEX
  8
PLAN_1
 62
     2
  6
CONTINUOUS
 10
0.357732
 20
-0.339303
  0
VERTEX
  8
PLAN_1
 62
     2
  6
CONTINUOUS
 10
0.355244
 20
-0.335323
  0
VERTEX
  8
PLAN_1
 62
     2
  6
CONTINUOUS
 10
0.353256
 20
-0.330350
  0
VERTEX
  8
PLAN_1
 62
     2
  6
CONTINUOUS
 10
0.351764
 20
-0.325374
  0
VERTEX
  8
PLAN_1
 62
     2
  6
CONTINUOUS
 10
0.351264
 20
-0.319406
  0
VERTEX
  8
PLAN_1
 62
     2
  6
CONTINUOUS
 10
0.351764
 20
-0.313433
  0
VERTEX
  8
PLAN_1
 62
     2
  6
CONTINUOUS
 10
0.352756
 20
-0.307961
  0
VERTEX
  8
PLAN_1
 62
     2
  6
CONTINUOUS
 10
0.353752
 20
-0.304976
  0
VERTEX
  8
PLAN_1
 62
     2
  6
CONTINUOUS
 10
0.354748
 20
-0.302488
  0
VERTEX
  8
PLAN_1
 62
     2
  6
CONTINUOUS
 10
0.356240
 20
-0.300500
  0
VERTEX
  8
PLAN_1
 62
     2
  6
CONTINUOUS
 10
0.357732
 20
-0.298012
  0
VERTEX
  8
PLAN_1
 62
     2
  6
CONTINUOUS
 10
0.359224
 20
-0.296020
  0
VERTEX
  8
PLAN_1
 62
     2
  6
CONTINUOUS
 10
0.361217
 20
-0.294528
  0
VERTEX
  8
PLAN_1
 62
     2
  6
CONTINUOUS
 10
0.363701
 20
-0.293035
  0
VERTEX
  8
PLAN_1
 62
     2
  6
CONTINUOUS
 10
0.365693
 20
-0.291543
  0
VERTEX
  8
PLAN_1
 62
     2
  6
CONTINUOUS
 10
0.368181
 20
-0.290547
  0
VERTEX
  8
PLAN_1
 62
     2
  6
CONTINUOUS
 10
0.371165
 20
-0.290051
  0
VERTEX
  8
PLAN_1
 62
     2
  6
CONTINUOUS
 10
0.374150
 20
-0.289555
  0
VERTEX
  8
PLAN_1
 62
     2
  6
CONTINUOUS
 10
0.377634
 20
-0.289555
  0
VERTEX
  8
PLAN_1
 62
     2
  6
CONTINUOUS
 10
0.380118
 20
-0.289555
  0
VERTEX
  8
PLAN_1
 62
     2
  6
CONTINUOUS
 10
0.383106
 20
-0.290051
  0
VERTEX
  8
PLAN_1
 62
     2
  6
CONTINUOUS
 10
0.385594
 20
-0.290547
  0
VERTEX
  8
PLAN_1
 62
     2
  6
CONTINUOUS
 10
0.387583
 20
-0.291543
  0
VERTEX
  8
PLAN_1
 62
     2
  6
CONTINUOUS
 10
0.390071
 20
-0.293035
  0
VERTEX
  8
PLAN_1
 62
     2
  6
CONTINUOUS
 10
0.392059
 20
-0.294528
  0
VERTEX
  8
PLAN_1
 62
     2
  6
CONTINUOUS
 10
0.393551
 20
-0.296020
  0
VERTEX
  8
PLAN_1
 62
     2
  6
CONTINUOUS
 10
0.395043
 20
-0.298012
  0
VERTEX
  8
PLAN_1
 62
     2
  6
CONTINUOUS
 10
0.396539
 20
-0.300000
  0
VERTEX
  8
PLAN_1
 62
     2
  6
CONTINUOUS
 10
0.397531
 20
-0.302488
  0
VERTEX
  8
PLAN_1
 62
     2
  6
CONTINUOUS
 10
0.398528
 20
-0.304976
  0
VERTEX
  8
PLAN_1
 62
     2
  6
CONTINUOUS
 10
0.399524
 20
-0.307961
  0
VERTEX
  8
PLAN_1
 62
     2
  6
CONTINUOUS
 10
0.400516
 20
-0.314429
  0
VERTEX
  8
PLAN_1
 62
     2
  6
CONTINUOUS
 10
0.401016
 20
-0.320898
  0
VERTEX
  8
PLAN_1
 62
     2
  6
CONTINUOUS
 10
0.361217
 20
-0.320898
  0
VERTEX
  8
PLAN_1
 62
     2
  6
CONTINUOUS
 10
0.361217
 20
-0.324878
  0
VERTEX
  8
PLAN_1
 62
     2
  6
CONTINUOUS
 10
0.362209
 20
-0.328858
  0
VERTEX
  8
PLAN_1
 62
     2
  6
CONTINUOUS
 10
0.363205
 20
-0.331843
  0
VERTEX
  8
PLAN_1
 62
     2
  6
CONTINUOUS
 10
0.365197
 20
-0.334331
  0
VERTEX
  8
PLAN_1
 62
     2
  6
CONTINUOUS
 10
0.367185
 20
-0.336319
  0
VERTEX
  8
PLAN_1
 62
     2
  6
CONTINUOUS
 10
0.370169
 20
-0.337811
  0
VERTEX
  8
PLAN_1
 62
     2
  6
CONTINUOUS
 10
0.373154
 20
-0.338807
  0
VERTEX
  8
PLAN_1
 62
     2
  6
CONTINUOUS
 10
0.377134
 20
-0.338807
  0
VERTEX
  8
PLAN_1
 62
     2
  6
CONTINUOUS
 10
0.380118
 20
-0.338807
  0
VERTEX
  8
PLAN_1
 62
     2
  6
CONTINUOUS
 10
0.382606
 20
-0.337811
  0
VERTEX
  8
PLAN_1
 62
     2
  6
CONTINUOUS
 10
0.385094
 20
-0.336815
  0
VERTEX
  8
PLAN_1
 62
     2
  6
CONTINUOUS
 10
0.387087
 20
-0.335323
  0
VERTEX
  8
PLAN_1
 62
     2
  6
CONTINUOUS
 10
0.388579
 20
-0.333335
  0
VERTEX
  8
PLAN_1
 62
     2
  6
CONTINUOUS
 10
0.390071
 20
-0.331843
  0
VERTEX
  8
PLAN_1
 62
     2
  6
CONTINUOUS
 10
0.390567
 20
-0.329850
  0
VERTEX
  8
PLAN_1
 62
     2
  6
CONTINUOUS
 10
0.391067
 20
-0.328358
  0
VERTEX
  8
PLAN_1
 62
     2
  6
CONTINUOUS
 10
0.400020
 20
-0.328358
  0
SEQEND
  8
0
  0
POLYLINE
  8
PLAN_1
 62
     2
  6
CONTINUOUS
 66
     1
 40
0.003000
 41
0.003000
  0
VERTEX
  8
PLAN_1
 62
     2
  6
CONTINUOUS
 10
0.391563
 20
-0.313933
  0
VERTEX
  8
PLAN_1
 62
     2
  6
CONTINUOUS
 10
0.391067
 20
-0.310449
  0
VERTEX
  8
PLAN_1
 62
     2
  6
CONTINUOUS
 10
0.390567
 20
-0.307465
  0
VERTEX
  8
PLAN_1
 62
     2
  6
CONTINUOUS
 10
0.389571
 20
-0.304976
  0
VERTEX
  8
PLAN_1
 62
     2
  6
CONTINUOUS
 10
0.388079
 20
-0.302488
  0
VERTEX
  8
PLAN_1
 62
     2
  6
CONTINUOUS
 10
0.385594
 20
-0.300500
  0
VERTEX
  8
PLAN_1
 62
     2
  6
CONTINUOUS
 10
0.383106
 20
-0.299008
  0
VERTEX
  8
PLAN_1
 62
     2
  6
CONTINUOUS
 10
0.380118
 20
-0.298012
  0
VERTEX
  8
PLAN_1
 62
     2
  6
CONTINUOUS
 10
0.376142
 20
-0.297516
  0
VERTEX
  8
PLAN_1
 62
     2
  6
CONTINUOUS
 10
0.373154
 20
-0.298012
  0
VERTEX
  8
PLAN_1
 62
     2
  6
CONTINUOUS
 10
0.370169
 20
-0.299008
  0
VERTEX
  8
PLAN_1
 62
     2
  6
CONTINUOUS
 10
0.367681
 20
-0.300500
  0
VERTEX
  8
PLAN_1
 62
     2
  6
CONTINUOUS
 10
0.365693
 20
-0.302488
  0
VERTEX
  8
PLAN_1
 62
     2
  6
CONTINUOUS
 10
0.363701
 20
-0.304976
  0
VERTEX
  8
PLAN_1
 62
     2
  6
CONTINUOUS
 10
0.362209
 20
-0.307465
  0
VERTEX
  8
PLAN_1
 62
     2
  6
CONTINUOUS
 10
0.361713
 20
-0.310449
  0
VERTEX
  8
PLAN_1
 62
     2
  6
CONTINUOUS
 10
0.361217
 20
-0.313933
  0
VERTEX
  8
PLAN_1
 62
     2
  6
CONTINUOUS
 10
0.391563
 20
-0.313933
  0
SEQEND
  8
0
  0
SOLID
  8
PLAN_1
 62
     2
 10
0.435343
 20
-0.321394
 11
0.409472
 21
-0.321394
 12
0.435343
 22
-0.311941
 13
0.409472
 23
-0.311941
  0
POLYLINE
  8
PLAN_1
 62
     2
  6
CONTINUOUS
 66
     1
 40
0.003000
 41
0.003000
  0
VERTEX
  8
PLAN_1
 62
     2
  6
CONTINUOUS
 10
0.435343
 20
-0.321394
  0
VERTEX
  8
PLAN_1
 62
     2
  6
CONTINUOUS
 10
0.409472
 20
-0.321394
  0
VERTEX
  8
PLAN_1
 62
     2
  6
CONTINUOUS
 10
0.409472
 20
-0.311941
  0
VERTEX
  8
PLAN_1
 62
     2
  6
CONTINUOUS
 10
0.435343
 20
-0.311941
  0
VERTEX
  8
PLAN_1
 62
     2
  6
CONTINUOUS
 10
0.435343
 20
-0.321394
  0
SEQEND
  8
0
  0
SOLID
  8
PLAN_1
 62
     2
 10
0.471161
 20
-0.283583
 11
0.464197
 21
-0.283583
 12
0.484594
 22
-0.269157
 13
0.473154
 23
-0.269157
  0
POLYLINE
  8
PLAN_1
 62
     2
  6
CONTINUOUS
 66
     1
 40
0.003000
 41
0.003000
  0
VERTEX
  8
PLAN_1
 62
     2
  6
CONTINUOUS
 10
0.471161
 20
-0.283583
  0
VERTEX
  8
PLAN_1
 62
     2
  6
CONTINUOUS
 10
0.464197
 20
-0.283583
  0
VERTEX
  8
PLAN_1
 62
     2
  6
CONTINUOUS
 10
0.473154
 20
-0.269157
  0
VERTEX
  8
PLAN_1
 62
     2
  6
CONTINUOUS
 10
0.484594
 20
-0.269157
  0
VERTEX
  8
PLAN_1
 62
     2
  6
CONTINUOUS
 10
0.471161
 20
-0.283583
  0
SEQEND
  8
0
  0
POLYLINE
  8
PLAN_1
 62
     2
  6
CONTINUOUS
 66
     1
 40
0.003000
 41
0.003000
  0
VERTEX
  8
PLAN_1
 62
     2
  6
CONTINUOUS
 10
0.492555
 20
-0.328358
  0
VERTEX
  8
PLAN_1
 62
     2
  6
CONTINUOUS
 10
0.492555
 20
-0.329354
  0
VERTEX
  8
PLAN_1
 62
     2
  6
CONTINUOUS
 10
0.492059
 20
-0.330846
  0
VERTEX
  8
PLAN_1
 62
     2
  6
CONTINUOUS
 10
0.491559
 20
-0.332839
  0
VERTEX
  8
PLAN_1
 62
     2
  6
CONTINUOUS
 10
0.490567
 20
-0.334827
  0
VERTEX
  8
PLAN_1
 62
     2
  6
CONTINUOUS
 10
0.489075
 20
-0.337315
  0
VERTEX
  8
PLAN_1
 62
     2
  6
CONTINUOUS
 10
0.487583
 20
-0.339303
  0
VERTEX
  8
PLAN_1
 62
     2
  6
CONTINUOUS
 10
0.485591
 20
-0.341295
  0
VERTEX
  8
PLAN_1
 62
     2
  6
CONTINUOUS
 10
0.483102
 20
-0.343283
  0
VERTEX
  8
PLAN_1
 62
     2
  6
CONTINUOUS
 10
0.482106
 20
-0.343783
  0
VERTEX
  8
PLAN_1
 62
     2
  6
CONTINUOUS
 10
0.481114
 20
-0.344280
  0
VERTEX
  8
PLAN_1
 62
     2
  6
CONTINUOUS
 10
0.479622
 20
-0.345276
  0
VERTEX
  8
PLAN_1
 62
     2
  6
CONTINUOUS
 10
0.478130
 20
-0.345772
  0
VERTEX
  8
PLAN_1
 62
     2
  6
CONTINUOUS
 10
0.476138
 20
-0.346268
  0
VERTEX
  8
PLAN_1
 62
     2
  6
CONTINUOUS
 10
0.474150
 20
-0.346768
  0
VERTEX
  8
PLAN_1
 62
     2
  6
CONTINUOUS
 10
0.471161
 20
-0.346768
  0
VERTEX
  8
PLAN_1
 62
     2
  6
CONTINUOUS
 10
0.468177
 20
-0.346768
  0
VERTEX
  8
PLAN_1
 62
     2
  6
CONTINUOUS
 10
0.465689
 20
-0.346768
  0
VERTEX
  8
PLAN_1
 62
     2
  6
CONTINUOUS
 10
0.462705
 20
-0.346268
  0
VERTEX
  8
PLAN_1
 62
     2
  6
CONTINUOUS
 10
0.460217
 20
-0.345772
  0
VERTEX
  8
PLAN_1
 62
     2
  6
CONTINUOUS
 10
0.458228
 20
-0.344776
  0
VERTEX
  8
PLAN_1
 62
     2
  6
CONTINUOUS
 10
0.455740
 20
-0.343783
  0
VERTEX
  8
PLAN_1
 62
     2
  6
CONTINUOUS
 10
0.453752
 20
-0.342287
  0
VERTEX
  8
PLAN_1
 62
     2
  6
CONTINUOUS
 10
0.452260
 20
-0.340795
  0
VERTEX
  8
PLAN_1
 62
     2
  6
CONTINUOUS
 10
0.450268
 20
-0.339303
  0
VERTEX
  8
PLAN_1
 62
     2
  6
CONTINUOUS
 10
0.447780
 20
-0.335323
  0
VERTEX
  8
PLAN_1
 62
     2
  6
CONTINUOUS
 10
0.445791
 20
-0.330350
  0
VERTEX
  8
PLAN_1
 62
     2
  6
CONTINUOUS
 10
0.444299
 20
-0.325374
  0
VERTEX
  8
PLAN_1
 62
     2
  6
CONTINUOUS
 10
0.443799
 20
-0.319406
  0
VERTEX
  8
PLAN_1
 62
     2
  6
CONTINUOUS
 10
0.444299
 20
-0.313433
  0
VERTEX
  8
PLAN_1
 62
     2
  6
CONTINUOUS
 10
0.445291
 20
-0.307961
  0
VERTEX
  8
PLAN_1
 62
     2
  6
CONTINUOUS
 10
0.446287
 20
-0.304976
  0
VERTEX
  8
PLAN_1
 62
     2
  6
CONTINUOUS
 10
0.447283
 20
-0.302488
  0
VERTEX
  8
PLAN_1
 62
     2
  6
CONTINUOUS
 10
0.448776
 20
-0.300500
  0
VERTEX
  8
PLAN_1
 62
     2
  6
CONTINUOUS
 10
0.450268
 20
-0.298012
  0
VERTEX
  8
PLAN_1
 62
     2
  6
CONTINUOUS
 10
0.451760
 20
-0.296020
  0
VERTEX
  8
PLAN_1
 62
     2
  6
CONTINUOUS
 10
0.453752
 20
-0.294528
  0
VERTEX
  8
PLAN_1
 62
     2
  6
CONTINUOUS
 10
0.456236
 20
-0.293035
  0
VERTEX
  8
PLAN_1
 62
     2
  6
CONTINUOUS
 10
0.458228
 20
-0.291543
  0
VERTEX
  8
PLAN_1
 62
     2
  6
CONTINUOUS
 10
0.460717
 20
-0.290547
  0
VERTEX
  8
PLAN_1
 62
     2
  6
CONTINUOUS
 10
0.463701
 20
-0.290051
  0
VERTEX
  8
PLAN_1
 62
     2
  6
CONTINUOUS
 10
0.466685
 20
-0.289555
  0
VERTEX
  8
PLAN_1
 62
     2
  6
CONTINUOUS
 10
0.470169
 20
-0.289555
  0
VERTEX
  8
PLAN_1
 62
     2
  6
CONTINUOUS
 10
0.473154
 20
-0.289555
  0
VERTEX
  8
PLAN_1
 62
     2
  6
CONTINUOUS
 10
0.475642
 20
-0.290051
  0
VERTEX
  8
PLAN_1
 62
     2
  6
CONTINUOUS
 10
0.478130
 20
-0.290547
  0
VERTEX
  8
PLAN_1
 62
     2
  6
CONTINUOUS
 10
0.480118
 20
-0.291543
  0
VERTEX
  8
PLAN_1
 62
     2
  6
CONTINUOUS
 10
0.482606
 20
-0.293035
  0
VERTEX
  8
PLAN_1
 62
     2
  6
CONTINUOUS
 10
0.484594
 20
-0.294528
  0
VERTEX
  8
PLAN_1
 62
     2
  6
CONTINUOUS
 10
0.486087
 20
-0.296020
  0
VERTEX
  8
PLAN_1
 62
     2
  6
CONTINUOUS
 10
0.487583
 20
-0.298012
  0
VERTEX
  8
PLAN_1
 62
     2
  6
CONTINUOUS
 10
0.489075
 20
-0.300000
  0
VERTEX
  8
PLAN_1
 62
     2
  6
CONTINUOUS
 10
0.490067
 20
-0.302488
  0
VERTEX
  8
PLAN_1
 62
     2
  6
CONTINUOUS
 10
0.491063
 20
-0.304976
  0
VERTEX
  8
PLAN_1
 62
     2
  6
CONTINUOUS
 10
0.492059
 20
-0.307961
  0
VERTEX
  8
PLAN_1
 62
     2
  6
CONTINUOUS
 10
0.493055
 20
-0.314429
  0
VERTEX
  8
PLAN_1
 62
     2
  6
CONTINUOUS
 10
0.493551
 20
-0.320898
  0
VERTEX
  8
PLAN_1
 62
     2
  6
CONTINUOUS
 10
0.453752
 20
-0.320898
  0
VERTEX
  8
PLAN_1
 62
     2
  6
CONTINUOUS
 10
0.453752
 20
-0.324878
  0
VERTEX
  8
PLAN_1
 62
     2
  6
CONTINUOUS
 10
0.454744
 20
-0.328858
  0
VERTEX
  8
PLAN_1
 62
     2
  6
CONTINUOUS
 10
0.455740
 20
-0.331843
  0
VERTEX
  8
PLAN_1
 62
     2
  6
CONTINUOUS
 10
0.457732
 20
-0.334331
  0
VERTEX
  8
PLAN_1
 62
     2
  6
CONTINUOUS
 10
0.459720
 20
-0.336319
  0
VERTEX
  8
PLAN_1
 62
     2
  6
CONTINUOUS
 10
0.462705
 20
-0.337811
  0
VERTEX
  8
PLAN_1
 62
     2
  6
CONTINUOUS
 10
0.465689
 20
-0.338807
  0
VERTEX
  8
PLAN_1
 62
     2
  6
CONTINUOUS
 10
0.469669
 20
-0.338807
  0
VERTEX
  8
PLAN_1
 62
     2
  6
CONTINUOUS
 10
0.472657
 20
-0.338807
  0
VERTEX
  8
PLAN_1
 62
     2
  6
CONTINUOUS
 10
0.475142
 20
-0.337811
  0
VERTEX
  8
PLAN_1
 62
     2
  6
CONTINUOUS
 10
0.477630
 20
-0.336815
  0
VERTEX
  8
PLAN_1
 62
     2
  6
CONTINUOUS
 10
0.479622
 20
-0.335323
  0
VERTEX
  8
PLAN_1
 62
     2
  6
CONTINUOUS
 10
0.481114
 20
-0.333335
  0
VERTEX
  8
PLAN_1
 62
     2
  6
CONTINUOUS
 10
0.482606
 20
-0.331843
  0
VERTEX
  8
PLAN_1
 62
     2
  6
CONTINUOUS
 10
0.483102
 20
-0.329850
  0
VERTEX
  8
PLAN_1
 62
     2
  6
CONTINUOUS
 10
0.483602
 20
-0.328358
  0
VERTEX
  8
PLAN_1
 62
     2
  6
CONTINUOUS
 10
0.492555
 20
-0.328358
  0
SEQEND
  8
0
  0
POLYLINE
  8
PLAN_1
 62
     2
  6
CONTINUOUS
 66
     1
 40
0.003000
 41
0.003000
  0
VERTEX
  8
PLAN_1
 62
     2
  6
CONTINUOUS
 10
0.484098
 20
-0.313933
  0
VERTEX
  8
PLAN_1
 62
     2
  6
CONTINUOUS
 10
0.483602
 20
-0.310449
  0
VERTEX
  8
PLAN_1
 62
     2
  6
CONTINUOUS
 10
0.483102
 20
-0.307465
  0
VERTEX
  8
PLAN_1
 62
     2
  6
CONTINUOUS
 10
0.482106
 20
-0.304976
  0
VERTEX
  8
PLAN_1
 62
     2
  6
CONTINUOUS
 10
0.480614
 20
-0.302488
  0
VERTEX
  8
PLAN_1
 62
     2
  6
CONTINUOUS
 10
0.478130
 20
-0.300500
  0
VERTEX
  8
PLAN_1
 62
     2
  6
CONTINUOUS
 10
0.475642
 20
-0.299008
  0
VERTEX
  8
PLAN_1
 62
     2
  6
CONTINUOUS
 10
0.472657
 20
-0.298012
  0
VERTEX
  8
PLAN_1
 62
     2
  6
CONTINUOUS
 10
0.468677
 20
-0.297516
  0
VERTEX
  8
PLAN_1
 62
     2
  6
CONTINUOUS
 10
0.465689
 20
-0.298012
  0
VERTEX
  8
PLAN_1
 62
     2
  6
CONTINUOUS
 10
0.462705
 20
-0.299008
  0
VERTEX
  8
PLAN_1
 62
     2
  6
CONTINUOUS
 10
0.460217
 20
-0.300500
  0
VERTEX
  8
PLAN_1
 62
     2
  6
CONTINUOUS
 10
0.458228
 20
-0.302488
  0
VERTEX
  8
PLAN_1
 62
     2
  6
CONTINUOUS
 10
0.456236
 20
-0.304976
  0
VERTEX
  8
PLAN_1
 62
     2
  6
CONTINUOUS
 10
0.454744
 20
-0.307465
  0
VERTEX
  8
PLAN_1
 62
     2
  6
CONTINUOUS
 10
0.454248
 20
-0.310449
  0
VERTEX
  8
PLAN_1
 62
     2
  6
CONTINUOUS
 10
0.453752
 20
-0.313933
  0
VERTEX
  8
PLAN_1
 62
     2
  6
CONTINUOUS
 10
0.484098
 20
-0.313933
  0
SEQEND
  8
0
  0
POLYLINE
  8
PLAN_1
 62
     2
  6
CONTINUOUS
 66
     1
 40
0.003000
 41
0.003000
  0
VERTEX
  8
PLAN_1
 62
     2
  6
CONTINUOUS
 10
0.515441
 20
-0.298508
  0
VERTEX
  8
PLAN_1
 62
     2
  6
CONTINUOUS
 10
0.515441
 20
-0.333831
  0
VERTEX
  8
PLAN_1
 62
     2
  6
CONTINUOUS
 10
0.515937
 20
-0.335323
  0
VERTEX
  8
PLAN_1
 62
     2
  6
CONTINUOUS
 10
0.516437
 20
-0.336319
  0
VERTEX
  8
PLAN_1
 62
     2
  6
CONTINUOUS
 10
0.516933
 20
-0.337315
  0
VERTEX
  8
PLAN_1
 62
     2
  6
CONTINUOUS
 10
0.517929
 20
-0.337811
  0
VERTEX
  8
PLAN_1
 62
     2
  6
CONTINUOUS
 10
0.518425
 20
-0.337811
  0
VERTEX
  8
PLAN_1
 62
     2
  6
CONTINUOUS
 10
0.519421
 20
-0.338311
  0
VERTEX
  8
PLAN_1
 62
     2
  6
CONTINUOUS
 10
0.520417
 20
-0.338311
  0
VERTEX
  8
PLAN_1
 62
     2
  6
CONTINUOUS
 10
0.521409
 20
-0.338311
  0
VERTEX
  8
PLAN_1
 62
     2
  6
CONTINUOUS
 10
0.524398
 20
-0.338311
  0
VERTEX
  8
PLAN_1
 62
     2
  6
CONTINUOUS
 10
0.524398
 20
-0.345276
  0
VERTEX
  8
PLAN_1
 62
     2
  6
CONTINUOUS
 10
0.523402
 20
-0.345276
  0
VERTEX
  8
PLAN_1
 62
     2
  6
CONTINUOUS
 10
0.521909
 20
-0.345772
  0
VERTEX
  8
PLAN_1
 62
     2
  6
CONTINUOUS
 10
0.520913
 20
-0.345772
  0
VERTEX
  8
PLAN_1
 62
     2
  6
CONTINUOUS
 10
0.519917
 20
-0.345772
  0
VERTEX
  8
PLAN_1
 62
     2
  6
CONTINUOUS
 10
0.519421
 20
-0.345772
  0
VERTEX
  8
PLAN_1
 62
     2
  6
CONTINUOUS
 10
0.518425
 20
-0.345772
  0
VERTEX
  8
PLAN_1
 62
     2
  6
CONTINUOUS
 10
0.517929
 20
-0.346268
  0
VERTEX
  8
PLAN_1
 62
     2
  6
CONTINUOUS
 10
0.517429
 20
-0.346268
  0
VERTEX
  8
PLAN_1
 62
     2
  6
CONTINUOUS
 10
0.514445
 20
-0.345772
  0
VERTEX
  8
PLAN_1
 62
     2
  6
CONTINUOUS
 10
0.511957
 20
-0.345276
  0
VERTEX
  8
PLAN_1
 62
     2
  6
CONTINUOUS
 10
0.509969
 20
-0.344280
  0
VERTEX
  8
PLAN_1
 62
     2
  6
CONTINUOUS
 10
0.508476
 20
-0.342787
  0
VERTEX
  8
PLAN_1
 62
     2
  6
CONTINUOUS
 10
0.507480
 20
-0.340795
  0
VERTEX
  8
PLAN_1
 62
     2
  6
CONTINUOUS
 10
0.506984
 20
-0.338807
  0
VERTEX
  8
PLAN_1
 62
     2
  6
CONTINUOUS
 10
0.506484
 20
-0.336815
  0
VERTEX
  8
PLAN_1
 62
     2
  6
CONTINUOUS
 10
0.506484
 20
-0.334331
  0
VERTEX
  8
PLAN_1
 62
     2
  6
CONTINUOUS
 10
0.506484
 20
-0.298508
  0
VERTEX
  8
PLAN_1
 62
     2
  6
CONTINUOUS
 10
0.499024
 20
-0.298508
  0
VERTEX
  8
PLAN_1
 62
     2
  6
CONTINUOUS
 10
0.499024
 20
-0.291047
  0
VERTEX
  8
PLAN_1
 62
     2
  6
CONTINUOUS
 10
0.506484
 20
-0.291047
  0
VERTEX
  8
PLAN_1
 62
     2
  6
CONTINUOUS
 10
0.506484
 20
-0.275622
  0
VERTEX
  8
PLAN_1
 62
     2
  6
CONTINUOUS
 10
0.515441
 20
-0.275622
  0
VERTEX
  8
PLAN_1
 62
     2
  6
CONTINUOUS
 10
0.515441
 20
-0.291047
  0
VERTEX
  8
PLAN_1
 62
     2
  6
CONTINUOUS
 10
0.524398
 20
-0.291047
  0
VERTEX
  8
PLAN_1
 62
     2
  6
CONTINUOUS
 10
0.524398
 20
-0.298508
  0
VERTEX
  8
PLAN_1
 62
     2
  6
CONTINUOUS
 10
0.515441
 20
-0.298508
  0
SEQEND
  8
0
  0
POLYLINE
  8
PLAN_1
 62
     2
  6
CONTINUOUS
 66
     1
 40
0.003000
 41
0.003000
  0
VERTEX
  8
PLAN_1
 62
     2
  6
CONTINUOUS
 10
0.555740
 20
-0.289555
  0
VERTEX
  8
PLAN_1
 62
     2
  6
CONTINUOUS
 10
0.558724
 20
-0.289555
  0
VERTEX
  8
PLAN_1
 62
     2
  6
CONTINUOUS
 10
0.561709
 20
-0.290051
  0
VERTEX
  8
PLAN_1
 62
     2
  6
CONTINUOUS
 10
0.564197
 20
-0.291047
  0
VERTEX
  8
PLAN_1
 62
     2
  6
CONTINUOUS
 10
0.566685
 20
-0.292043
  0
VERTEX
  8
PLAN_1
 62
     2
  6
CONTINUOUS
 10
0.569173
 20
-0.293035
  0
VERTEX
  8
PLAN_1
 62
     2
  6
CONTINUOUS
 10
0.571161
 20
-0.294528
  0
VERTEX
  8
PLAN_1
 62
     2
  6
CONTINUOUS
 10
0.573150
 20
-0.296520
  0
VERTEX
  8
PLAN_1
 62
     2
  6
CONTINUOUS
 10
0.574646
 20
-0.298508
  0
VERTEX
  8
PLAN_1
 62
     2
  6
CONTINUOUS
 10
0.577630
 20
-0.302988
  0
VERTEX
  8
PLAN_1
 62
     2
  6
CONTINUOUS
 10
0.579122
 20
-0.307465
  0
VERTEX
  8
PLAN_1
 62
     2
  6
CONTINUOUS
 10
0.580614
 20
-0.312937
  0
VERTEX
  8
PLAN_1
 62
     2
  6
CONTINUOUS
 10
0.580614
 20
-0.317913
  0
VERTEX
  8
PLAN_1
 62
     2
  6
CONTINUOUS
 10
0.580614
 20
-0.323386
  0
VERTEX
  8
PLAN_1
 62
     2
  6
CONTINUOUS
 10
0.579122
 20
-0.328358
  0
VERTEX
  8
PLAN_1
 62
     2
  6
CONTINUOUS
 10
0.577630
 20
-0.333335
  0
VERTEX
  8
PLAN_1
 62
     2
  6
CONTINUOUS
 10
0.574646
 20
-0.337811
  0
VERTEX
  8
PLAN_1
 62
     2
  6
CONTINUOUS
 10
0.573150
 20
-0.339803
  0
VERTEX
  8
PLAN_1
 62
     2
  6
CONTINUOUS
 10
0.571161
 20
-0.341295
  0
VERTEX
  8
PLAN_1
 62
     2
  6
CONTINUOUS
 10
0.569173
 20
-0.342787
  0
VERTEX
  8
PLAN_1
 62
     2
  6
CONTINUOUS
 10
0.566685
 20
-0.344280
  0
VERTEX
  8
PLAN_1
 62
     2
  6
CONTINUOUS
 10
0.564197
 20
-0.345276
  0
VERTEX
  8
PLAN_1
 62
     2
  6
CONTINUOUS
 10
0.561709
 20
-0.346268
  0
VERTEX
  8
PLAN_1
 62
     2
  6
CONTINUOUS
 10
0.558724
 20
-0.346768
  0
VERTEX
  8
PLAN_1
 62
     2
  6
CONTINUOUS
 10
0.555740
 20
-0.346768
  0
VERTEX
  8
PLAN_1
 62
     2
  6
CONTINUOUS
 10
0.552256
 20
-0.346768
  0
VERTEX
  8
PLAN_1
 62
     2
  6
CONTINUOUS
 10
0.549272
 20
-0.346268
  0
VERTEX
  8
PLAN_1
 62
     2
  6
CONTINUOUS
 10
0.546783
 20
-0.345276
  0
VERTEX
  8
PLAN_1
 62
     2
  6
CONTINUOUS
 10
0.544295
 20
-0.344280
  0
VERTEX
  8
PLAN_1
 62
     2
  6
CONTINUOUS
 10
0.541807
 20
-0.342787
  0
VERTEX
  8
PLAN_1
 62
     2
  6
CONTINUOUS
 10
0.539819
 20
-0.341295
  0
VERTEX
  8
PLAN_1
 62
     2
  6
CONTINUOUS
 10
0.537827
 20
-0.339803
  0
VERTEX
  8
PLAN_1
 62
     2
  6
CONTINUOUS
 10
0.536335
 20
-0.337811
  0
VERTEX
  8
PLAN_1
 62
     2
  6
CONTINUOUS
 10
0.533850
 20
-0.333335
  0
VERTEX
  8
PLAN_1
 62
     2
  6
CONTINUOUS
 10
0.531858
 20
-0.328358
  0
VERTEX
  8
PLAN_1
 62
     2
  6
CONTINUOUS
 10
0.530862
 20
-0.323386
  0
VERTEX
  8
PLAN_1
 62
     2
  6
CONTINUOUS
 10
0.530366
 20
-0.317913
  0
VERTEX
  8
PLAN_1
 62
     2
  6
CONTINUOUS
 10
0.530862
 20
-0.312937
  0
VERTEX
  8
PLAN_1
 62
     2
  6
CONTINUOUS
 10
0.531858
 20
-0.307465
  0
VERTEX
  8
PLAN_1
 62
     2
  6
CONTINUOUS
 10
0.533850
 20
-0.302988
  0
VERTEX
  8
PLAN_1
 62
     2
  6
CONTINUOUS
 10
0.536335
 20
-0.298508
  0
VERTEX
  8
PLAN_1
 62
     2
  6
CONTINUOUS
 10
0.537827
 20
-0.296520
  0
VERTEX
  8
PLAN_1
 62
     2
  6
CONTINUOUS
 10
0.539819
 20
-0.294528
  0
VERTEX
  8
PLAN_1
 62
     2
  6
CONTINUOUS
 10
0.541807
 20
-0.293035
  0
VERTEX
  8
PLAN_1
 62
     2
  6
CONTINUOUS
 10
0.544295
 20
-0.292043
  0
VERTEX
  8
PLAN_1
 62
     2
  6
CONTINUOUS
 10
0.546783
 20
-0.291047
  0
VERTEX
  8
PLAN_1
 62
     2
  6
CONTINUOUS
 10
0.549272
 20
-0.290051
  0
VERTEX
  8
PLAN_1
 62
     2
  6
CONTINUOUS
 10
0.552256
 20
-0.289555
  0
VERTEX
  8
PLAN_1
 62
     2
  6
CONTINUOUS
 10
0.555740
 20
-0.289555
  0
SEQEND
  8
0
  0
POLYLINE
  8
PLAN_1
 62
     2
  6
CONTINUOUS
 66
     1
 40
0.003000
 41
0.003000
  0
VERTEX
  8
PLAN_1
 62
     2
  6
CONTINUOUS
 10
0.555740
 20
-0.338807
  0
VERTEX
  8
PLAN_1
 62
     2
  6
CONTINUOUS
 10
0.557728
 20
-0.338807
  0
VERTEX
  8
PLAN_1
 62
     2
  6
CONTINUOUS
 10
0.559720
 20
-0.338311
  0
VERTEX
  8
PLAN_1
 62
     2
  6
CONTINUOUS
 10
0.561709
 20
-0.337811
  0
VERTEX
  8
PLAN_1
 62
     2
  6
CONTINUOUS
 10
0.563697
 20
-0.336815
  0
VERTEX
  8
PLAN_1
 62
     2
  6
CONTINUOUS
 10
0.566185
 20
-0.334331
  0
VERTEX
  8
PLAN_1
 62
     2
  6
CONTINUOUS
 10
0.568177
 20
-0.331343
  0
VERTEX
  8
PLAN_1
 62
     2
  6
CONTINUOUS
 10
0.569669
 20
-0.327862
  0
VERTEX
  8
PLAN_1
 62
     2
  6
CONTINUOUS
 10
0.570665
 20
-0.324378
  0
VERTEX
  8
PLAN_1
 62
     2
  6
CONTINUOUS
 10
0.571161
 20
-0.320898
  0
VERTEX
  8
PLAN_1
 62
     2
  6
CONTINUOUS
 10
0.571161
 20
-0.317913
  0
VERTEX
  8
PLAN_1
 62
     2
  6
CONTINUOUS
 10
0.571161
 20
-0.314925
  0
VERTEX
  8
PLAN_1
 62
     2
  6
CONTINUOUS
 10
0.570665
 20
-0.311941
  0
VERTEX
  8
PLAN_1
 62
     2
  6
CONTINUOUS
 10
0.569669
 20
-0.308461
  0
VERTEX
  8
PLAN_1
 62
     2
  6
CONTINUOUS
 10
0.568177
 20
-0.304976
  0
VERTEX
  8
PLAN_1
 62
     2
  6
CONTINUOUS
 10
0.566185
 20
-0.301992
  0
VERTEX
  8
PLAN_1
 62
     2
  6
CONTINUOUS
 10
0.563697
 20
-0.299504
  0
VERTEX
  8
PLAN_1
 62
     2
  6
CONTINUOUS
 10
0.561709
 20
-0.298508
  0
VERTEX
  8
PLAN_1
 62
     2
  6
CONTINUOUS
 10
0.559720
 20
-0.298012
  0
VERTEX
  8
PLAN_1
 62
     2
  6
CONTINUOUS
 10
0.557728
 20
-0.297516
  0
VERTEX
  8
PLAN_1
 62
     2
  6
CONTINUOUS
 10
0.555740
 20
-0.297016
  0
VERTEX
  8
PLAN_1
 62
     2
  6
CONTINUOUS
 10
0.553252
 20
-0.297516
  0
VERTEX
  8
PLAN_1
 62
     2
  6
CONTINUOUS
 10
0.551260
 20
-0.298012
  0
VERTEX
  8
PLAN_1
 62
     2
  6
CONTINUOUS
 10
0.549272
 20
-0.298508
  0
VERTEX
  8
PLAN_1
 62
     2
  6
CONTINUOUS
 10
0.547280
 20
-0.299504
  0
VERTEX
  8
PLAN_1
 62
     2
  6
CONTINUOUS
 10
0.544795
 20
-0.301992
  0
VERTEX
  8
PLAN_1
 62
     2
  6
CONTINUOUS
 10
0.542803
 20
-0.304976
  0
VERTEX
  8
PLAN_1
 62
     2
  6
CONTINUOUS
 10
0.541311
 20
-0.308461
  0
VERTEX
  8
PLAN_1
 62
     2
  6
CONTINUOUS
 10
0.540315
 20
-0.311941
  0
VERTEX
  8
PLAN_1
 62
     2
  6
CONTINUOUS
 10
0.539819
 20
-0.314925
  0
VERTEX
  8
PLAN_1
 62
     2
  6
CONTINUOUS
 10
0.539819
 20
-0.317913
  0
VERTEX
  8
PLAN_1
 62
     2
  6
CONTINUOUS
 10
0.539819
 20
-0.320898
  0
VERTEX
  8
PLAN_1
 62
     2
  6
CONTINUOUS
 10
0.540315
 20
-0.324378
  0
VERTEX
  8
PLAN_1
 62
     2
  6
CONTINUOUS
 10
0.541311
 20
-0.327862
  0
VERTEX
  8
PLAN_1
 62
     2
  6
CONTINUOUS
 10
0.542803
 20
-0.331343
  0
VERTEX
  8
PLAN_1
 62
     2
  6
CONTINUOUS
 10
0.544795
 20
-0.334331
  0
VERTEX
  8
PLAN_1
 62
     2
  6
CONTINUOUS
 10
0.547280
 20
-0.336815
  0
VERTEX
  8
PLAN_1
 62
     2
  6
CONTINUOUS
 10
0.549272
 20
-0.337811
  0
VERTEX
  8
PLAN_1
 62
     2
  6
CONTINUOUS
 10
0.551260
 20
-0.338311
  0
VERTEX
  8
PLAN_1
 62
     2
  6
CONTINUOUS
 10
0.553252
 20
-0.338807
  0
VERTEX
  8
PLAN_1
 62
     2
  6
CONTINUOUS
 10
0.555740
 20
-0.338807
  0
SEQEND
  8
0
  0
POLYLINE
  8
PLAN_1
 62
     2
  6
CONTINUOUS
 66
     1
 40
0.003000
 41
0.003000
  0
VERTEX
  8
PLAN_1
 62
     2
  6
CONTINUOUS
 10
0.626882
 20
-0.345276
  0
VERTEX
  8
PLAN_1
 62
     2
  6
CONTINUOUS
 10
0.626882
 20
-0.337315
  0
VERTEX
  8
PLAN_1
 62
     2
  6
CONTINUOUS
 10
0.626386
 20
-0.337315
  0
VERTEX
  8
PLAN_1
 62
     2
  6
CONTINUOUS
 10
0.624890
 20
-0.339303
  0
VERTEX
  8
PLAN_1
 62
     2
  6
CONTINUOUS
 10
0.623398
 20
-0.341295
  0
VERTEX
  8
PLAN_1
 62
     2
  6
CONTINUOUS
 10
0.621906
 20
-0.343283
  0
VERTEX
  8
PLAN_1
 62
     2
  6
CONTINUOUS
 10
0.619917
 20
-0.344280
  0
VERTEX
  8
PLAN_1
 62
     2
  6
CONTINUOUS
 10
0.617429
 20
-0.345276
  0
VERTEX
  8
PLAN_1
 62
     2
  6
CONTINUOUS
 10
0.614941
 20
-0.346268
  0
VERTEX
  8
PLAN_1
 62
     2
  6
CONTINUOUS
 10
0.612453
 20
-0.346768
  0
VERTEX
  8
PLAN_1
 62
     2
  6
CONTINUOUS
 10
0.609469
 20
-0.346768
  0
VERTEX
  8
PLAN_1
 62
     2
  6
CONTINUOUS
 10
0.605988
 20
-0.346768
  0
VERTEX
  8
PLAN_1
 62
     2
  6
CONTINUOUS
 10
0.603000
 20
-0.346268
  0
VERTEX
  8
PLAN_1
 62
     2
  6
CONTINUOUS
 10
0.600016
 20
-0.344776
  0
VERTEX
  8
PLAN_1
 62
     2
  6
CONTINUOUS
 10
0.597528
 20
-0.343283
  0
VERTEX
  8
PLAN_1
 62
     2
  6
CONTINUOUS
 10
0.595043
 20
-0.341295
  0
VERTEX
  8
PLAN_1
 62
     2
  6
CONTINUOUS
 10
0.593051
 20
-0.338311
  0
VERTEX
  8
PLAN_1
 62
     2
  6
CONTINUOUS
 10
0.592055
 20
-0.334331
  0
VERTEX
  8
PLAN_1
 62
     2
  6
CONTINUOUS
 10
0.591559
 20
-0.329850
  0
VERTEX
  8
PLAN_1
 62
     2
  6
CONTINUOUS
 10
0.591559
 20
-0.291047
  0
VERTEX
  8
PLAN_1
 62
     2
  6
CONTINUOUS
 10
0.600516
 20
-0.291047
  0
VERTEX
  8
PLAN_1
 62
     2
  6
CONTINUOUS
 10
0.600516
 20
-0.326866
  0
VERTEX
  8
PLAN_1
 62
     2
  6
CONTINUOUS
 10
0.601012
 20
-0.329850
  0
VERTEX
  8
PLAN_1
 62
     2
  6
CONTINUOUS
 10
0.601508
 20
-0.332839
  0
VERTEX
  8
PLAN_1
 62
     2
  6
CONTINUOUS
 10
0.602504
 20
-0.334827
  0
VERTEX
  8
PLAN_1
 62
     2
  6
CONTINUOUS
 10
0.603996
 20
-0.336319
  0
VERTEX
  8
PLAN_1
 62
     2
  6
CONTINUOUS
 10
0.605488
 20
-0.337315
  0
VERTEX
  8
PLAN_1
 62
     2
  6
CONTINUOUS
 10
0.606980
 20
-0.338311
  0
VERTEX
  8
PLAN_1
 62
     2
  6
CONTINUOUS
 10
0.608972
 20
-0.338807
  0
VERTEX
  8
PLAN_1
 62
     2
  6
CONTINUOUS
 10
0.611461
 20
-0.338807
  0
VERTEX
  8
PLAN_1
 62
     2
  6
CONTINUOUS
 10
0.614941
 20
-0.338311
  0
VERTEX
  8
PLAN_1
 62
     2
  6
CONTINUOUS
 10
0.618425
 20
-0.337315
  0
VERTEX
  8
PLAN_1
 62
     2
  6
CONTINUOUS
 10
0.620913
 20
-0.335323
  0
VERTEX
  8
PLAN_1
 62
     2
  6
CONTINUOUS
 10
0.622902
 20
-0.332839
  0
VERTEX
  8
PLAN_1
 62
     2
  6
CONTINUOUS
 10
0.624394
 20
-0.329850
  0
VERTEX
  8
PLAN_1
 62
     2
  6
CONTINUOUS
 10
0.625390
 20
-0.326866
  0
VERTEX
  8
PLAN_1
 62
     2
  6
CONTINUOUS
 10
0.625886
 20
-0.323882
  0
VERTEX
  8
PLAN_1
 62
     2
  6
CONTINUOUS
 10
0.626386
 20
-0.320898
  0
VERTEX
  8
PLAN_1
 62
     2
  6
CONTINUOUS
 10
0.626386
 20
-0.291047
  0
VERTEX
  8
PLAN_1
 62
     2
  6
CONTINUOUS
 10
0.635339
 20
-0.291047
  0
VERTEX
  8
PLAN_1
 62
     2
  6
CONTINUOUS
 10
0.635339
 20
-0.345276
  0
VERTEX
  8
PLAN_1
 62
     2
  6
CONTINUOUS
 10
0.626882
 20
-0.345276
  0
SEQEND
  8
0
  0
POLYLINE
  8
PLAN_1
 62
     2
  6
CONTINUOUS
 66
     1
 40
0.003000
 41
0.003000
  0
VERTEX
  8
PLAN_1
 62
     2
  6
CONTINUOUS
 10
0.648276
 20
-0.291047
  0
VERTEX
  8
PLAN_1
 62
     2
  6
CONTINUOUS
 10
0.657228
 20
-0.291047
  0
VERTEX
  8
PLAN_1
 62
     2
  6
CONTINUOUS
 10
0.657228
 20
-0.298508
  0
VERTEX
  8
PLAN_1
 62
     2
  6
CONTINUOUS
 10
0.658224
 20
-0.297516
  0
VERTEX
  8
PLAN_1
 62
     2
  6
CONTINUOUS
 10
0.659220
 20
-0.296020
  0
VERTEX
  8
PLAN_1
 62
     2
  6
CONTINUOUS
 10
0.660713
 20
-0.294528
  0
VERTEX
  8
PLAN_1
 62
     2
  6
CONTINUOUS
 10
0.662701
 20
-0.293035
  0
VERTEX
  8
PLAN_1
 62
     2
  6
CONTINUOUS
 10
0.664693
 20
-0.291543
  0
VERTEX
  8
PLAN_1
 62
     2
  6
CONTINUOUS
 10
0.667181
 20
-0.290547
  0
VERTEX
  8
PLAN_1
 62
     2
  6
CONTINUOUS
 10
0.670165
 20
-0.289555
  0
VERTEX
  8
PLAN_1
 62
     2
  6
CONTINUOUS
 10
0.673646
 20
-0.289555
  0
VERTEX
  8
PLAN_1
 62
     2
  6
CONTINUOUS
 10
0.676134
 20
-0.289555
  0
VERTEX
  8
PLAN_1
 62
     2
  6
CONTINUOUS
 10
0.678622
 20
-0.290051
  0
VERTEX
  8
PLAN_1
 62
     2
  6
CONTINUOUS
 10
0.681110
 20
-0.290547
  0
VERTEX
  8
PLAN_1
 62
     2
  6
CONTINUOUS
 10
0.683098
 20
-0.291543
  0
VERTEX
  8
PLAN_1
 62
     2
  6
CONTINUOUS
 10
0.685091
 20
-0.292539
  0
VERTEX
  8
PLAN_1
 62
     2
  6
CONTINUOUS
 10
0.687079
 20
-0.294031
  0
VERTEX
  8
PLAN_1
 62
     2
  6
CONTINUOUS
 10
0.688571
 20
-0.295524
  0
VERTEX
  8
PLAN_1
 62
     2
  6
CONTINUOUS
 10
0.690063
 20
-0.297016
  0
VERTEX
  8
PLAN_1
 62
     2
  6
CONTINUOUS
 10
0.693051
 20
-0.300996
  0
VERTEX
  8
PLAN_1
 62
     2
  6
CONTINUOUS
 10
0.694543
 20
-0.305972
  0
VERTEX
  8
PLAN_1
 62
     2
  6
CONTINUOUS
 10
0.695535
 20
-0.310945
  0
VERTEX
  8
PLAN_1
 62
     2
  6
CONTINUOUS
 10
0.696035
 20
-0.316417
  0
VERTEX
  8
PLAN_1
 62
     2
  6
CONTINUOUS
 10
0.696035
 20
-0.321394
  0
VERTEX
  8
PLAN_1
 62
     2
  6
CONTINUOUS
 10
0.695039
 20
-0.326866
  0
VERTEX
  8
PLAN_1
 62
     2
  6
CONTINUOUS
 10
0.693547
 20
-0.331843
  0
VERTEX
  8
PLAN_1
 62
     2
  6
CONTINUOUS
 10
0.691059
 20
-0.336319
  0
VERTEX
  8
PLAN_1
 62
     2
  6
CONTINUOUS
 10
0.689567
 20
-0.338807
  0
VERTEX
  8
PLAN_1
 62
     2
  6
CONTINUOUS
 10
0.688075
 20
-0.340795
  0
VERTEX
  8
PLAN_1
 62
     2
  6
CONTINUOUS
 10
0.686083
 20
-0.342287
  0
VERTEX
  8
PLAN_1
 62
     2
  6
CONTINUOUS
 10
0.683598
 20
-0.343783
  0
VERTEX
  8
PLAN_1
 62
     2
  6
CONTINUOUS
 10
0.681110
 20
-0.345276
  0
VERTEX
  8
PLAN_1
 62
     2
  6
CONTINUOUS
 10
0.678622
 20
-0.346268
  0
VERTEX
  8
PLAN_1
 62
     2
  6
CONTINUOUS
 10
0.675638
 20
-0.346768
  0
VERTEX
  8
PLAN_1
 62
     2
  6
CONTINUOUS
 10
0.672154
 20
-0.346768
  0
VERTEX
  8
PLAN_1
 62
     2
  6
CONTINUOUS
 10
0.669665
 20
-0.346768
  0
VERTEX
  8
PLAN_1
 62
     2
  6
CONTINUOUS
 10
0.667181
 20
-0.346268
  0
VERTEX
  8
PLAN_1
 62
     2
  6
CONTINUOUS
 10
0.665189
 20
-0.345772
  0
VERTEX
  8
PLAN_1
 62
     2
  6
CONTINUOUS
 10
0.663201
 20
-0.344776
  0
VERTEX
  8
PLAN_1
 62
     2
  6
CONTINUOUS
 10
0.661709
 20
-0.343783
  0
VERTEX
  8
PLAN_1
 62
     2
  6
CONTINUOUS
 10
0.660213
 20
-0.342287
  0
VERTEX
  8
PLAN_1
 62
     2
  6
CONTINUOUS
 10
0.658720
 20
-0.340795
  0
VERTEX
  8
PLAN_1
 62
     2
  6
CONTINUOUS
 10
0.657728
 20
-0.339803
  0
VERTEX
  8
PLAN_1
 62
     2
  6
CONTINUOUS
 10
0.657728
 20
-0.366665
  0
VERTEX
  8
PLAN_1
 62
     2
  6
CONTINUOUS
 10
0.648276
 20
-0.366665
  0
VERTEX
  8
PLAN_1
 62
     2
  6
CONTINUOUS
 10
0.648276
 20
-0.291047
  0
SEQEND
  8
0
  0
POLYLINE
  8
PLAN_1
 62
     2
  6
CONTINUOUS
 66
     1
 40
0.003000
 41
0.003000
  0
VERTEX
  8
PLAN_1
 62
     2
  6
CONTINUOUS
 10
0.672154
 20
-0.338807
  0
VERTEX
  8
PLAN_1
 62
     2
  6
CONTINUOUS
 10
0.675638
 20
-0.338807
  0
VERTEX
  8
PLAN_1
 62
     2
  6
CONTINUOUS
 10
0.678622
 20
-0.337315
  0
VERTEX
  8
PLAN_1
 62
     2
  6
CONTINUOUS
 10
0.681110
 20
-0.335323
  0
VERTEX
  8
PLAN_1
 62
     2
  6
CONTINUOUS
 10
0.683098
 20
-0.332839
  0
VERTEX
  8
PLAN_1
 62
     2
  6
CONTINUOUS
 10
0.684591
 20
-0.329850
  0
VERTEX
  8
PLAN_1
 62
     2
  6
CONTINUOUS
 10
0.685587
 20
-0.326370
  0
VERTEX
  8
PLAN_1
 62
     2
  6
CONTINUOUS
 10
0.686583
 20
-0.322390
  0
VERTEX
  8
PLAN_1
 62
     2
  6
CONTINUOUS
 10
0.686583
 20
-0.317913
  0
VERTEX
  8
PLAN_1
 62
     2
  6
CONTINUOUS
 10
0.686583
 20
-0.314925
  0
VERTEX
  8
PLAN_1
 62
     2
  6
CONTINUOUS
 10
0.686583
 20
-0.311941
  0
VERTEX
  8
PLAN_1
 62
     2
  6
CONTINUOUS
 10
0.685587
 20
-0.308461
  0
VERTEX
  8
PLAN_1
 62
     2
  6
CONTINUOUS
 10
0.684591
 20
-0.304976
  0
VERTEX
  8
PLAN_1
 62
     2
  6
CONTINUOUS
 10
0.682602
 20
-0.301992
  0
VERTEX
  8
PLAN_1
 62
     2
  6
CONTINUOUS
 10
0.680114
 20
-0.300000
  0
VERTEX
  8
PLAN_1
 62
     2
  6
CONTINUOUS
 10
0.678622
 20
-0.299008
  0
VERTEX
  8
PLAN_1
 62
     2
  6
CONTINUOUS
 10
0.676634
 20
-0.298012
  0
VERTEX
  8
PLAN_1
 62
     2
  6
CONTINUOUS
 10
0.674146
 20
-0.297516
  0
VERTEX
  8
PLAN_1
 62
     2
  6
CONTINUOUS
 10
0.671657
 20
-0.297516
  0
VERTEX
  8
PLAN_1
 62
     2
  6
CONTINUOUS
 10
0.669665
 20
-0.297516
  0
VERTEX
  8
PLAN_1
 62
     2
  6
CONTINUOUS
 10
0.667181
 20
-0.298012
  0
VERTEX
  8
PLAN_1
 62
     2
  6
CONTINUOUS
 10
0.665685
 20
-0.299008
  0
VERTEX
  8
PLAN_1
 62
     2
  6
CONTINUOUS
 10
0.664193
 20
-0.300000
  0
VERTEX
  8
PLAN_1
 62
     2
  6
CONTINUOUS
 10
0.661209
 20
-0.302488
  0
VERTEX
  8
PLAN_1
 62
     2
  6
CONTINUOUS
 10
0.659717
 20
-0.305972
  0
VERTEX
  8
PLAN_1
 62
     2
  6
CONTINUOUS
 10
0.658224
 20
-0.309453
  0
VERTEX
  8
PLAN_1
 62
     2
  6
CONTINUOUS
 10
0.657728
 20
-0.313433
  0
VERTEX
  8
PLAN_1
 62
     2
  6
CONTINUOUS
 10
0.657228
 20
-0.316917
  0
VERTEX
  8
PLAN_1
 62
     2
  6
CONTINUOUS
 10
0.657228
 20
-0.320898
  0
VERTEX
  8
PLAN_1
 62
     2
  6
CONTINUOUS
 10
0.657728
 20
-0.325374
  0
VERTEX
  8
PLAN_1
 62
     2
  6
CONTINUOUS
 10
0.658720
 20
-0.329850
  0
VERTEX
  8
PLAN_1
 62
     2
  6
CONTINUOUS
 10
0.660213
 20
-0.332839
  0
VERTEX
  8
PLAN_1
 62
     2
  6
CONTINUOUS
 10
0.662205
 20
-0.335323
  0
VERTEX
  8
PLAN_1
 62
     2
  6
CONTINUOUS
 10
0.664693
 20
-0.336815
  0
VERTEX
  8
PLAN_1
 62
     2
  6
CONTINUOUS
 10
0.667181
 20
-0.338311
  0
VERTEX
  8
PLAN_1
 62
     2
  6
CONTINUOUS
 10
0.669665
 20
-0.338807
  0
VERTEX
  8
PLAN_1
 62
     2
  6
CONTINUOUS
 10
0.672154
 20
-0.338807
  0
SEQEND
  8
0
  0
POLYLINE
  8
PLAN_1
 62
     2
  6
CONTINUOUS
 66
     1
 40
0.003000
 41
0.003000
  0
VERTEX
  8
PLAN_1
 62
     2
  6
CONTINUOUS
 10
0.753248
 20
-0.328358
  0
VERTEX
  8
PLAN_1
 62
     2
  6
CONTINUOUS
 10
0.752752
 20
-0.329354
  0
VERTEX
  8
PLAN_1
 62
     2
  6
CONTINUOUS
 10
0.752752
 20
-0.330846
  0
VERTEX
  8
PLAN_1
 62
     2
  6
CONTINUOUS
 10
0.751756
 20
-0.332839
  0
VERTEX
  8
PLAN_1
 62
     2
  6
CONTINUOUS
 10
0.750760
 20
-0.334827
  0
VERTEX
  8
PLAN_1
 62
     2
  6
CONTINUOUS
 10
0.749764
 20
-0.337315
  0
VERTEX
  8
PLAN_1
 62
     2
  6
CONTINUOUS
 10
0.747776
 20
-0.339303
  0
VERTEX
  8
PLAN_1
 62
     2
  6
CONTINUOUS
 10
0.745783
 20
-0.341295
  0
VERTEX
  8
PLAN_1
 62
     2
  6
CONTINUOUS
 10
0.743795
 20
-0.343283
  0
VERTEX
  8
PLAN_1
 62
     2
  6
CONTINUOUS
 10
0.742799
 20
-0.343783
  0
VERTEX
  8
PLAN_1
 62
     2
  6
CONTINUOUS
 10
0.741307
 20
-0.344280
  0
VERTEX
  8
PLAN_1
 62
     2
  6
CONTINUOUS
 10
0.740311
 20
-0.345276
  0
VERTEX
  8
PLAN_1
 62
     2
  6
CONTINUOUS
 10
0.738323
 20
-0.345772
  0
VERTEX
  8
PLAN_1
 62
     2
  6
CONTINUOUS
 10
0.736831
 20
-0.346268
  0
VERTEX
  8
PLAN_1
 62
     2
  6
CONTINUOUS
 10
0.734343
 20
-0.346768
  0
VERTEX
  8
PLAN_1
 62
     2
  6
CONTINUOUS
 10
0.731854
 20
-0.346768
  0
VERTEX
  8
PLAN_1
 62
     2
  6
CONTINUOUS
 10
0.728870
 20
-0.346768
  0
VERTEX
  8
PLAN_1
 62
     2
  6
CONTINUOUS
 10
0.725886
 20
-0.346768
  0
VERTEX
  8
PLAN_1
 62
     2
  6
CONTINUOUS
 10
0.723398
 20
-0.346268
  0
VERTEX
  8
PLAN_1
 62
     2
  6
CONTINUOUS
 10
0.720909
 20
-0.345772
  0
VERTEX
  8
PLAN_1
 62
     2
  6
CONTINUOUS
 10
0.718421
 20
-0.344776
  0
VERTEX
  8
PLAN_1
 62
     2
  6
CONTINUOUS
 10
0.716433
 20
-0.343783
  0
VERTEX
  8
PLAN_1
 62
     2
  6
CONTINUOUS
 10
0.714441
 20
-0.342287
  0
VERTEX
  8
PLAN_1
 62
     2
  6
CONTINUOUS
 10
0.712453
 20
-0.340795
  0
VERTEX
  8
PLAN_1
 62
     2
  6
CONTINUOUS
 10
0.710961
 20
-0.339303
  0
VERTEX
  8
PLAN_1
 62
     2
  6
CONTINUOUS
 10
0.707976
 20
-0.335323
  0
VERTEX
  8
PLAN_1
 62
     2
  6
CONTINUOUS
 10
0.705984
 20
-0.330350
  0
VERTEX
  8
PLAN_1
 62
     2
  6
CONTINUOUS
 10
0.704988
 20
-0.325374
  0
VERTEX
  8
PLAN_1
 62
     2
  6
CONTINUOUS
 10
0.704492
 20
-0.319406
  0
VERTEX
  8
PLAN_1
 62
     2
  6
CONTINUOUS
 10
0.704988
 20
-0.313433
  0
VERTEX
  8
PLAN_1
 62
     2
  6
CONTINUOUS
 10
0.705984
 20
-0.307961
  0
VERTEX
  8
PLAN_1
 62
     2
  6
CONTINUOUS
 10
0.706980
 20
-0.304976
  0
VERTEX
  8
PLAN_1
 62
     2
  6
CONTINUOUS
 10
0.707976
 20
-0.302488
  0
VERTEX
  8
PLAN_1
 62
     2
  6
CONTINUOUS
 10
0.709469
 20
-0.300500
  0
VERTEX
  8
PLAN_1
 62
     2
  6
CONTINUOUS
 10
0.710961
 20
-0.298012
  0
VERTEX
  8
PLAN_1
 62
     2
  6
CONTINUOUS
 10
0.712453
 20
-0.296020
  0
VERTEX
  8
PLAN_1
 62
     2
  6
CONTINUOUS
 10
0.714441
 20
-0.294528
  0
VERTEX
  8
PLAN_1
 62
     2
  6
CONTINUOUS
 10
0.716433
 20
-0.293035
  0
VERTEX
  8
PLAN_1
 62
     2
  6
CONTINUOUS
 10
0.718921
 20
-0.291543
  0
VERTEX
  8
PLAN_1
 62
     2
  6
CONTINUOUS
 10
0.721406
 20
-0.290547
  0
VERTEX
  8
PLAN_1
 62
     2
  6
CONTINUOUS
 10
0.724394
 20
-0.290051
  0
VERTEX
  8
PLAN_1
 62
     2
  6
CONTINUOUS
 10
0.727378
 20
-0.289555
  0
VERTEX
  8
PLAN_1
 62
     2
  6
CONTINUOUS
 10
0.730362
 20
-0.289555
  0
VERTEX
  8
PLAN_1
 62
     2
  6
CONTINUOUS
 10
0.733346
 20
-0.289555
  0
VERTEX
  8
PLAN_1
 62
     2
  6
CONTINUOUS
 10
0.735835
 20
-0.290051
  0
VERTEX
  8
PLAN_1
 62
     2
  6
CONTINUOUS
 10
0.738323
 20
-0.290547
  0
VERTEX
  8
PLAN_1
 62
     2
  6
CONTINUOUS
 10
0.740811
 20
-0.291543
  0
VERTEX
  8
PLAN_1
 62
     2
  6
CONTINUOUS
 10
0.742799
 20
-0.293035
  0
VERTEX
  8
PLAN_1
 62
     2
  6
CONTINUOUS
 10
0.744791
 20
-0.294528
  0
VERTEX
  8
PLAN_1
 62
     2
  6
CONTINUOUS
 10
0.746780
 20
-0.296020
  0
VERTEX
  8
PLAN_1
 62
     2
  6
CONTINUOUS
 10
0.748272
 20
-0.298012
  0
VERTEX
  8
PLAN_1
 62
     2
  6
CONTINUOUS
 10
0.749268
 20
-0.300000
  0
VERTEX
  8
PLAN_1
 62
     2
  6
CONTINUOUS
 10
0.750760
 20
-0.302488
  0
VERTEX
  8
PLAN_1
 62
     2
  6
CONTINUOUS
 10
0.751756
 20
-0.304976
  0
VERTEX
  8
PLAN_1
 62
     2
  6
CONTINUOUS
 10
0.752252
 20
-0.307961
  0
VERTEX
  8
PLAN_1
 62
     2
  6
CONTINUOUS
 10
0.753744
 20
-0.314429
  0
VERTEX
  8
PLAN_1
 62
     2
  6
CONTINUOUS
 10
0.753744
 20
-0.320898
  0
VERTEX
  8
PLAN_1
 62
     2
  6
CONTINUOUS
 10
0.714441
 20
-0.320898
  0
VERTEX
  8
PLAN_1
 62
     2
  6
CONTINUOUS
 10
0.714441
 20
-0.324878
  0
VERTEX
  8
PLAN_1
 62
     2
  6
CONTINUOUS
 10
0.715437
 20
-0.328858
  0
VERTEX
  8
PLAN_1
 62
     2
  6
CONTINUOUS
 10
0.716433
 20
-0.331843
  0
VERTEX
  8
PLAN_1
 62
     2
  6
CONTINUOUS
 10
0.718421
 20
-0.334331
  0
VERTEX
  8
PLAN_1
 62
     2
  6
CONTINUOUS
 10
0.720413
 20
-0.336319
  0
VERTEX
  8
PLAN_1
 62
     2
  6
CONTINUOUS
 10
0.722902
 20
-0.337811
  0
VERTEX
  8
PLAN_1
 62
     2
  6
CONTINUOUS
 10
0.726382
 20
-0.338807
  0
VERTEX
  8
PLAN_1
 62
     2
  6
CONTINUOUS
 10
0.729866
 20
-0.338807
  0
VERTEX
  8
PLAN_1
 62
     2
  6
CONTINUOUS
 10
0.732850
 20
-0.338807
  0
VERTEX
  8
PLAN_1
 62
     2
  6
CONTINUOUS
 10
0.735835
 20
-0.337811
  0
VERTEX
  8
PLAN_1
 62
     2
  6
CONTINUOUS
 10
0.738323
 20
-0.336815
  0
VERTEX
  8
PLAN_1
 62
     2
  6
CONTINUOUS
 10
0.740311
 20
-0.335323
  0
VERTEX
  8
PLAN_1
 62
     2
  6
CONTINUOUS
 10
0.741803
 20
-0.333335
  0
VERTEX
  8
PLAN_1
 62
     2
  6
CONTINUOUS
 10
0.742799
 20
-0.331843
  0
VERTEX
  8
PLAN_1
 62
     2
  6
CONTINUOUS
 10
0.743795
 20
-0.329850
  0
VERTEX
  8
PLAN_1
 62
     2
  6
CONTINUOUS
 10
0.744291
 20
-0.328358
  0
VERTEX
  8
PLAN_1
 62
     2
  6
CONTINUOUS
 10
0.753248
 20
-0.328358
  0
SEQEND
  8
0
  0
POLYLINE
  8
PLAN_1
 62
     2
  6
CONTINUOUS
 66
     1
 40
0.003000
 41
0.003000
  0
VERTEX
  8
PLAN_1
 62
     2
  6
CONTINUOUS
 10
0.744291
 20
-0.313933
  0
VERTEX
  8
PLAN_1
 62
     2
  6
CONTINUOUS
 10
0.744291
 20
-0.310449
  0
VERTEX
  8
PLAN_1
 62
     2
  6
CONTINUOUS
 10
0.743299
 20
-0.307465
  0
VERTEX
  8
PLAN_1
 62
     2
  6
CONTINUOUS
 10
0.742303
 20
-0.304976
  0
VERTEX
  8
PLAN_1
 62
     2
  6
CONTINUOUS
 10
0.740811
 20
-0.302488
  0
VERTEX
  8
PLAN_1
 62
     2
  6
CONTINUOUS
 10
0.738819
 20
-0.300500
  0
VERTEX
  8
PLAN_1
 62
     2
  6
CONTINUOUS
 10
0.736331
 20
-0.299008
  0
VERTEX
  8
PLAN_1
 62
     2
  6
CONTINUOUS
 10
0.733346
 20
-0.298012
  0
VERTEX
  8
PLAN_1
 62
     2
  6
CONTINUOUS
 10
0.729366
 20
-0.297516
  0
VERTEX
  8
PLAN_1
 62
     2
  6
CONTINUOUS
 10
0.726382
 20
-0.298012
  0
VERTEX
  8
PLAN_1
 62
     2
  6
CONTINUOUS
 10
0.723398
 20
-0.299008
  0
VERTEX
  8
PLAN_1
 62
     2
  6
CONTINUOUS
 10
0.720909
 20
-0.300500
  0
VERTEX
  8
PLAN_1
 62
     2
  6
CONTINUOUS
 10
0.718421
 20
-0.302488
  0
VERTEX
  8
PLAN_1
 62
     2
  6
CONTINUOUS
 10
0.716929
 20
-0.304976
  0
VERTEX
  8
PLAN_1
 62
     2
  6
CONTINUOUS
 10
0.715437
 20
-0.307465
  0
VERTEX
  8
PLAN_1
 62
     2
  6
CONTINUOUS
 10
0.714441
 20
-0.310449
  0
VERTEX
  8
PLAN_1
 62
     2
  6
CONTINUOUS
 10
0.714441
 20
-0.313933
  0
VERTEX
  8
PLAN_1
 62
     2
  6
CONTINUOUS
 10
0.744291
 20
-0.313933
  0
SEQEND
  8
0
  0
POLYLINE
  8
PLAN_1
 62
     2
  6
CONTINUOUS
 66
     1
 40
0.003000
 41
0.003000
  0
VERTEX
  8
PLAN_1
 62
     2
  6
CONTINUOUS
 10
0.824390
 20
-0.345276
  0
VERTEX
  8
PLAN_1
 62
     2
  6
CONTINUOUS
 10
0.814441
 20
-0.345276
  0
VERTEX
  8
PLAN_1
 62
     2
  6
CONTINUOUS
 10
0.814441
 20
-0.293535
  0
VERTEX
  8
PLAN_1
 62
     2
  6
CONTINUOUS
 10
0.797524
 20
-0.293535
  0
VERTEX
  8
PLAN_1
 62
     2
  6
CONTINUOUS
 10
0.797524
 20
-0.286071
  0
VERTEX
  8
PLAN_1
 62
     2
  6
CONTINUOUS
 10
0.801504
 20
-0.285575
  0
VERTEX
  8
PLAN_1
 62
     2
  6
CONTINUOUS
 10
0.805484
 20
-0.285075
  0
VERTEX
  8
PLAN_1
 62
     2
  6
CONTINUOUS
 10
0.808469
 20
-0.284579
  0
VERTEX
  8
PLAN_1
 62
     2
  6
CONTINUOUS
 10
0.810957
 20
-0.283087
  0
VERTEX
  8
PLAN_1
 62
     2
  6
CONTINUOUS
 10
0.812949
 20
-0.281594
  0
VERTEX
  8
PLAN_1
 62
     2
  6
CONTINUOUS
 10
0.814441
 20
-0.279106
  0
VERTEX
  8
PLAN_1
 62
     2
  6
CONTINUOUS
 10
0.815933
 20
-0.276122
  0
VERTEX
  8
PLAN_1
 62
     2
  6
CONTINUOUS
 10
0.817425
 20
-0.272142
  0
VERTEX
  8
PLAN_1
 62
     2
  6
CONTINUOUS
 10
0.824390
 20
-0.272142
  0
VERTEX
  8
PLAN_1
 62
     2
  6
CONTINUOUS
 10
0.824390
 20
-0.345276
  0
SEQEND
  8
0
  0
POLYLINE
  8
PLAN_1
 62
     2
  6
CONTINUOUS
 66
     1
 40
0.003000
 41
0.003000
  0
VERTEX
  8
PLAN_1
 62
     2
  6
CONTINUOUS
 10
0.868169
 20
-0.303484
  0
VERTEX
  8
PLAN_1
 62
     2
  6
CONTINUOUS
 10
0.868669
 20
-0.303980
  0
VERTEX
  8
PLAN_1
 62
     2
  6
CONTINUOUS
 10
0.869661
 20
-0.303980
  0
VERTEX
  8
PLAN_1
 62
     2
  6
CONTINUOUS
 10
0.870161
 20
-0.303980
  0
VERTEX
  8
PLAN_1
 62
     2
  6
CONTINUOUS
 10
0.870657
 20
-0.303980
  0
VERTEX
  8
PLAN_1
 62
     2
  6
CONTINUOUS
 10
0.871157
 20
-0.303980
  0
VERTEX
  8
PLAN_1
 62
     2
  6
CONTINUOUS
 10
0.871654
 20
-0.303980
  0
VERTEX
  8
PLAN_1
 62
     2
  6
CONTINUOUS
 10
0.872650
 20
-0.303980
  0
VERTEX
  8
PLAN_1
 62
     2
  6
CONTINUOUS
 10
0.873146
 20
-0.303980
  0
VERTEX
  8
PLAN_1
 62
     2
  6
CONTINUOUS
 10
0.875634
 20
-0.303980
  0
VERTEX
  8
PLAN_1
 62
     2
  6
CONTINUOUS
 10
0.878122
 20
-0.303484
  0
VERTEX
  8
PLAN_1
 62
     2
  6
CONTINUOUS
 10
0.880610
 20
-0.302488
  0
VERTEX
  8
PLAN_1
 62
     2
  6
CONTINUOUS
 10
0.882598
 20
-0.301492
  0
VERTEX
  8
PLAN_1
 62
     2
  6
CONTINUOUS
 10
0.884587
 20
-0.300000
  0
VERTEX
  8
PLAN_1
 62
     2
  6
CONTINUOUS
 10
0.885583
 20
-0.297516
  0
VERTEX
  8
PLAN_1
 62
     2
  6
CONTINUOUS
 10
0.886579
 20
-0.295028
  0
VERTEX
  8
PLAN_1
 62
     2
  6
CONTINUOUS
 10
0.887075
 20
-0.292043
  0
VERTEX
  8
PLAN_1
 62
     2
  6
CONTINUOUS
 10
0.887075
 20
-0.290051
  0
VERTEX
  8
PLAN_1
 62
     2
  6
CONTINUOUS
 10
0.886579
 20
-0.288063
  0
VERTEX
  8
PLAN_1
 62
     2
  6
CONTINUOUS
 10
0.885583
 20
-0.286567
  0
VERTEX
  8
PLAN_1
 62
     2
  6
CONTINUOUS
 10
0.884587
 20
-0.284579
  0
VERTEX
  8
PLAN_1
 62
     2
  6
CONTINUOUS
 10
0.882598
 20
-0.283087
  0
VERTEX
  8
PLAN_1
 62
     2
  6
CONTINUOUS
 10
0.880110
 20
-0.281594
  0
VERTEX
  8
PLAN_1
 62
     2
  6
CONTINUOUS
 10
0.877126
 20
-0.280598
  0
VERTEX
  8
PLAN_1
 62
     2
  6
CONTINUOUS
 10
0.873642
 20
-0.280598
  0
VERTEX
  8
PLAN_1
 62
     2
  6
CONTINUOUS
 10
0.871157
 20
-0.280598
  0
VERTEX
  8
PLAN_1
 62
     2
  6
CONTINUOUS
 10
0.869165
 20
-0.281094
  0
VERTEX
  8
PLAN_1
 62
     2
  6
CONTINUOUS
 10
0.867177
 20
-0.281594
  0
VERTEX
  8
PLAN_1
 62
     2
  6
CONTINUOUS
 10
0.865685
 20
-0.282091
  0
VERTEX
  8
PLAN_1
 62
     2
  6
CONTINUOUS
 10
0.863197
 20
-0.284083
  0
VERTEX
  8
PLAN_1
 62
     2
  6
CONTINUOUS
 10
0.861705
 20
-0.286567
  0
VERTEX
  8
PLAN_1
 62
     2
  6
CONTINUOUS
 10
0.860709
 20
-0.289055
  0
VERTEX
  8
PLAN_1
 62
     2
  6
CONTINUOUS
 10
0.859713
 20
-0.291543
  0
VERTEX
  8
PLAN_1
 62
     2
  6
CONTINUOUS
 10
0.859217
 20
-0.294031
  0
VERTEX
  8
PLAN_1
 62
     2
  6
CONTINUOUS
 10
0.859217
 20
-0.296020
  0
VERTEX
  8
PLAN_1
 62
     2
  6
CONTINUOUS
 10
0.850260
 20
-0.296020
  0
VERTEX
  8
PLAN_1
 62
     2
  6
CONTINUOUS
 10
0.850760
 20
-0.292043
  0
VERTEX
  8
PLAN_1
 62
     2
  6
CONTINUOUS
 10
0.851256
 20
-0.288063
  0
VERTEX
  8
PLAN_1
 62
     2
  6
CONTINUOUS
 10
0.852748
 20
-0.284083
  0
VERTEX
  8
PLAN_1
 62
     2
  6
CONTINUOUS
 10
0.854740
 20
-0.280102
  0
VERTEX
  8
PLAN_1
 62
     2
  6
CONTINUOUS
 10
0.856232
 20
-0.278610
  0
VERTEX
  8
PLAN_1
 62
     2
  6
CONTINUOUS
 10
0.857724
 20
-0.277118
  0
VERTEX
  8
PLAN_1
 62
     2
  6
CONTINUOUS
 10
0.859713
 20
-0.275622
  0
VERTEX
  8
PLAN_1
 62
     2
  6
CONTINUOUS
 10
0.862201
 20
-0.274630
  0
VERTEX
  8
PLAN_1
 62
     2
  6
CONTINUOUS
 10
0.864689
 20
-0.273634
  0
VERTEX
  8
PLAN_1
 62
     2
  6
CONTINUOUS
 10
0.867177
 20
-0.272638
  0
VERTEX
  8
PLAN_1
 62
     2
  6
CONTINUOUS
 10
0.870657
 20
-0.272142
  0
VERTEX
  8
PLAN_1
 62
     2
  6
CONTINUOUS
 10
0.874142
 20
-0.272142
  0
VERTEX
  8
PLAN_1
 62
     2
  6
CONTINUOUS
 10
0.879114
 20
-0.272638
  0
VERTEX
  8
PLAN_1
 62
     2
  6
CONTINUOUS
 10
0.883594
 20
-0.273634
  0
VERTEX
  8
PLAN_1
 62
     2
  6
CONTINUOUS
 10
0.887075
 20
-0.275126
  0
VERTEX
  8
PLAN_1
 62
     2
  6
CONTINUOUS
 10
0.890559
 20
-0.277614
  0
VERTEX
  8
PLAN_1
 62
     2
  6
CONTINUOUS
 10
0.893047
 20
-0.280598
  0
VERTEX
  8
PLAN_1
 62
     2
  6
CONTINUOUS
 10
0.895035
 20
-0.283583
  0
VERTEX
  8
PLAN_1
 62
     2
  6
CONTINUOUS
 10
0.896031
 20
-0.287563
  0
VERTEX
  8
PLAN_1
 62
     2
  6
CONTINUOUS
 10
0.896528
 20
-0.291543
  0
VERTEX
  8
PLAN_1
 62
     2
  6
CONTINUOUS
 10
0.896031
 20
-0.294528
  0
VERTEX
  8
PLAN_1
 62
     2
  6
CONTINUOUS
 10
0.895535
 20
-0.297516
  0
VERTEX
  8
PLAN_1
 62
     2
  6
CONTINUOUS
 10
0.894539
 20
-0.300000
  0
VERTEX
  8
PLAN_1
 62
     2
  6
CONTINUOUS
 10
0.893047
 20
-0.301992
  0
VERTEX
  8
PLAN_1
 62
     2
  6
CONTINUOUS
 10
0.892051
 20
-0.303484
  0
VERTEX
  8
PLAN_1
 62
     2
  6
CONTINUOUS
 10
0.890059
 20
-0.304976
  0
VERTEX
  8
PLAN_1
 62
     2
  6
CONTINUOUS
 10
0.888567
 20
-0.305972
  0
VERTEX
  8
PLAN_1
 62
     2
  6
CONTINUOUS
 10
0.887075
 20
-0.306469
  0
VERTEX
  8
PLAN_1
 62
     2
  6
CONTINUOUS
 10
0.887075
 20
-0.306965
  0
VERTEX
  8
PLAN_1
 62
     2
  6
CONTINUOUS
 10
0.889563
 20
-0.307961
  0
VERTEX
  8
PLAN_1
 62
     2
  6
CONTINUOUS
 10
0.892051
 20
-0.308957
  0
VERTEX
  8
PLAN_1
 62
     2
  6
CONTINUOUS
 10
0.894039
 20
-0.310449
  0
VERTEX
  8
PLAN_1
 62
     2
  6
CONTINUOUS
 10
0.896031
 20
-0.312441
  0
VERTEX
  8
PLAN_1
 62
     2
  6
CONTINUOUS
 10
0.897524
 20
-0.314925
  0
VERTEX
  8
PLAN_1
 62
     2
  6
CONTINUOUS
 10
0.898520
 20
-0.317413
  0
VERTEX
  8
PLAN_1
 62
     2
  6
CONTINUOUS
 10
0.899016
 20
-0.320398
  0
VERTEX
  8
PLAN_1
 62
     2
  6
CONTINUOUS
 10
0.899512
 20
-0.323882
  0
VERTEX
  8
PLAN_1
 62
     2
  6
CONTINUOUS
 10
0.899016
 20
-0.328358
  0
VERTEX
  8
PLAN_1
 62
     2
  6
CONTINUOUS
 10
0.898020
 20
-0.332339
  0
VERTEX
  8
PLAN_1
 62
     2
  6
CONTINUOUS
 10
0.896031
 20
-0.336319
  0
VERTEX
  8
PLAN_1
 62
     2
  6
CONTINUOUS
 10
0.893047
 20
-0.339803
  0
VERTEX
  8
PLAN_1
 62
     2
  6
CONTINUOUS
 10
0.891555
 20
-0.341791
  0
VERTEX
  8
PLAN_1
 62
     2
  6
CONTINUOUS
 10
0.889563
 20
-0.342787
  0
VERTEX
  8
PLAN_1
 62
     2
  6
CONTINUOUS
 10
0.887075
 20
-0.344280
  0
VERTEX
  8
PLAN_1
 62
     2
  6
CONTINUOUS
 10
0.885087
 20
-0.345276
  0
VERTEX
  8
PLAN_1
 62
     2
  6
CONTINUOUS
 10
0.882102
 20
-0.346268
  0
VERTEX
  8
PLAN_1
 62
     2
  6
CONTINUOUS
 10
0.879614
 20
-0.346768
  0
VERTEX
  8
PLAN_1
 62
     2
  6
CONTINUOUS
 10
0.876130
 20
-0.347264
  0
VERTEX
  8
PLAN_1
 62
     2
  6
CONTINUOUS
 10
0.873146
 20
-0.347264
  0
VERTEX
  8
PLAN_1
 62
     2
  6
CONTINUOUS
 10
0.871157
 20
-0.347264
  0
VERTEX
  8
PLAN_1
 62
     2
  6
CONTINUOUS
 10
0.869165
 20
-0.347264
  0
VERTEX
  8
PLAN_1
 62
     2
  6
CONTINUOUS
 10
0.867177
 20
-0.346768
  0
VERTEX
  8
PLAN_1
 62
     2
  6
CONTINUOUS
 10
0.865685
 20
-0.346268
  0
VERTEX
  8
PLAN_1
 62
     2
  6
CONTINUOUS
 10
0.863693
 20
-0.345772
  0
VERTEX
  8
PLAN_1
 62
     2
  6
CONTINUOUS
 10
0.862201
 20
-0.345276
  0
VERTEX
  8
PLAN_1
 62
     2
  6
CONTINUOUS
 10
0.860709
 20
-0.344776
  0
VERTEX
  8
PLAN_1
 62
     2
  6
CONTINUOUS
 10
0.859217
 20
-0.344280
  0
VERTEX
  8
PLAN_1
 62
     2
  6
CONTINUOUS
 10
0.856728
 20
-0.342287
  0
VERTEX
  8
PLAN_1
 62
     2
  6
CONTINUOUS
 10
0.854240
 20
-0.340299
  0
VERTEX
  8
PLAN_1
 62
     2
  6
CONTINUOUS
 10
0.852748
 20
-0.337811
  0
VERTEX
  8
PLAN_1
 62
     2
  6
CONTINUOUS
 10
0.851256
 20
-0.334827
  0
VERTEX
  8
PLAN_1
 62
     2
  6
CONTINUOUS
 10
0.850260
 20
-0.332339
  0
VERTEX
  8
PLAN_1
 62
     2
  6
CONTINUOUS
 10
0.849264
 20
-0.329354
  0
VERTEX
  8
PLAN_1
 62
     2
  6
CONTINUOUS
 10
0.848768
 20
-0.325870
  0
VERTEX
  8
PLAN_1
 62
     2
  6
CONTINUOUS
 10
0.848768
 20
-0.322886
  0
VERTEX
  8
PLAN_1
 62
     2
  6
CONTINUOUS
 10
0.858220
 20
-0.322886
  0
VERTEX
  8
PLAN_1
 62
     2
  6
CONTINUOUS
 10
0.858220
 20
-0.325374
  0
VERTEX
  8
PLAN_1
 62
     2
  6
CONTINUOUS
 10
0.858717
 20
-0.328358
  0
VERTEX
  8
PLAN_1
 62
     2
  6
CONTINUOUS
 10
0.859217
 20
-0.330846
  0
VERTEX
  8
PLAN_1
 62
     2
  6
CONTINUOUS
 10
0.860709
 20
-0.333831
  0
VERTEX
  8
PLAN_1
 62
     2
  6
CONTINUOUS
 10
0.862697
 20
-0.335823
  0
VERTEX
  8
PLAN_1
 62
     2
  6
CONTINUOUS
 10
0.865685
 20
-0.337315
  0
VERTEX
  8
PLAN_1
 62
     2
  6
CONTINUOUS
 10
0.869165
 20
-0.338807
  0
VERTEX
  8
PLAN_1
 62
     2
  6
CONTINUOUS
 10
0.873642
 20
-0.339303
  0
VERTEX
  8
PLAN_1
 62
     2
  6
CONTINUOUS
 10
0.877126
 20
-0.338807
  0
VERTEX
  8
PLAN_1
 62
     2
  6
CONTINUOUS
 10
0.880110
 20
-0.337811
  0
VERTEX
  8
PLAN_1
 62
     2
  6
CONTINUOUS
 10
0.882598
 20
-0.336815
  0
VERTEX
  8
PLAN_1
 62
     2
  6
CONTINUOUS
 10
0.885087
 20
-0.335323
  0
VERTEX
  8
PLAN_1
 62
     2
  6
CONTINUOUS
 10
0.887075
 20
-0.333335
  0
VERTEX
  8
PLAN_1
 62
     2
  6
CONTINUOUS
 10
0.888567
 20
-0.330846
  0
VERTEX
  8
PLAN_1
 62
     2
  6
CONTINUOUS
 10
0.889067
 20
-0.327862
  0
VERTEX
  8
PLAN_1
 62
     2
  6
CONTINUOUS
 10
0.889563
 20
-0.324878
  0
VERTEX
  8
PLAN_1
 62
     2
  6
CONTINUOUS
 10
0.889563
 20
-0.322886
  0
VERTEX
  8
PLAN_1
 62
     2
  6
CONTINUOUS
 10
0.889067
 20
-0.320898
  0
VERTEX
  8
PLAN_1
 62
     2
  6
CONTINUOUS
 10
0.888567
 20
-0.318906
  0
VERTEX
  8
PLAN_1
 62
     2
  6
CONTINUOUS
 10
0.887575
 20
-0.317413
  0
VERTEX
  8
PLAN_1
 62
     2
  6
CONTINUOUS
 10
0.885583
 20
-0.315425
  0
VERTEX
  8
PLAN_1
 62
     2
  6
CONTINUOUS
 10
0.883094
 20
-0.313433
  0
VERTEX
  8
PLAN_1
 62
     2
  6
CONTINUOUS
 10
0.880610
 20
-0.312441
  0
VERTEX
  8
PLAN_1
 62
     2
  6
CONTINUOUS
 10
0.877622
 20
-0.311941
  0
VERTEX
  8
PLAN_1
 62
     2
  6
CONTINUOUS
 10
0.875138
 20
-0.311445
  0
VERTEX
  8
PLAN_1
 62
     2
  6
CONTINUOUS
 10
0.872650
 20
-0.311445
  0
VERTEX
  8
PLAN_1
 62
     2
  6
CONTINUOUS
 10
0.872150
 20
-0.311445
  0
VERTEX
  8
PLAN_1
 62
     2
  6
CONTINUOUS
 10
0.871654
 20
-0.311445
  0
VERTEX
  8
PLAN_1
 62
     2
  6
CONTINUOUS
 10
0.870657
 20
-0.311445
  0
VERTEX
  8
PLAN_1
 62
     2
  6
CONTINUOUS
 10
0.870161
 20
-0.311445
  0
VERTEX
  8
PLAN_1
 62
     2
  6
CONTINUOUS
 10
0.869661
 20
-0.311445
  0
VERTEX
  8
PLAN_1
 62
     2
  6
CONTINUOUS
 10
0.869165
 20
-0.311445
  0
VERTEX
  8
PLAN_1
 62
     2
  6
CONTINUOUS
 10
0.868669
 20
-0.311445
  0
VERTEX
  8
PLAN_1
 62
     2
  6
CONTINUOUS
 10
0.868169
 20
-0.311445
  0
VERTEX
  8
PLAN_1
 62
     2
  6
CONTINUOUS
 10
0.868169
 20
-0.303484
  0
SEQEND
  8
0
  0
SOLID
  8
PLAN_1
 62
     2
 10
-0.535287
 20
-0.035827
 11
-0.485535
 21
-0.071150
 12
-0.535287
 22
-0.035827
 13
-0.474591
 23
-0.041299
  0
POLYLINE
  8
PLAN_1
 62
     2
  6
CONTINUOUS
 66
     1
 40
0.003000
 41
0.003000
  0
VERTEX
  8
PLAN_1
 62
     2
  6
CONTINUOUS
 10
-0.535287
 20
-0.035827
  0
VERTEX
  8
PLAN_1
 62
     2
  6
CONTINUOUS
 10
-0.485535
 20
-0.071150
  0
VERTEX
  8
PLAN_1
 62
     2
  6
CONTINUOUS
 10
-0.474591
 20
-0.041299
  0
VERTEX
  8
PLAN_1
 62
     2
  6
CONTINUOUS
 10
-0.535287
 20
-0.035827
  0
SEQEND
  8
0
  0
POLYLINE
  8
PLAN_1
 62
     2
  6
CONTINUOUS
 66
     1
 40
0.003976
 41
0.003976
  0
VERTEX
  8
PLAN_1
 62
     2
  6
CONTINUOUS
 10
-0.500461
 20
-0.048764
  0
VERTEX
  8
PLAN_1
 62
     2
  6
CONTINUOUS
 10
0.041319
 20
-0.243783
  0
VERTEX
  8
PLAN_1
 62
     2
  6
CONTINUOUS
 10
1.000008
 20
-0.243783
  0
SEQEND
  8
0
  0
POLYLINE
  8
PLAN_1
 62
     2
  6
CONTINUOUS
 66
     1
 40
0.003976
 41
0.003976
  0
VERTEX
  8
PLAN_1
 62
     2
  6
CONTINUOUS
 10
-0.030819
 20
-0.024386
  0
VERTEX
  8
PLAN_1
 62
     2
  6
CONTINUOUS
 10
-0.030819
 20
-0.190055
  0
SEQEND
  8
0
  0
POLYLINE
  8
PLAN_1
 62
     2
  6
CONTINUOUS
 66
     1
 40
0.003976
 41
0.003976
  0
VERTEX
  8
PLAN_1
 62
     2
  6
CONTINUOUS
 10
-0.030819
 20
-0.237315
  0
VERTEX
  8
PLAN_1
 62
     2
  6
CONTINUOUS
 10
-0.030819
 20
-0.603976
  0
SEQEND
  8
0
  0
POLYLINE
  8
PLAN_1
 62
     2
  6
CONTINUOUS
 66
     1
 40
0.003976
 41
0.003976
  0
VERTEX
  8
PLAN_1
 62
     2
  6
CONTINUOUS
 10
0.126394
 20
-0.000008
  0
VERTEX
  8
PLAN_1
 62
     2
  6
CONTINUOUS
 10
0.126394
 20
3.949173
  0
SEQEND
  8
0
  0
SOLID
  8
PLAN_1
 62
     2
 10
0.126394
 20
3.978528
 11
0.110972
 21
3.919323
 12
0.126394
 22
3.978528
 13
0.142315
 23
3.919323
  0
POLYLINE
  8
PLAN_1
 62
     2
  6
CONTINUOUS
 66
     1
 40
0.003000
 41
0.003000
  0
VERTEX
  8
PLAN_1
 62
     2
  6
CONTINUOUS
 10
0.126394
 20
3.978528
  0
VERTEX
  8
PLAN_1
 62
     2
  6
CONTINUOUS
 10
0.110972
 20
3.919323
  0
VERTEX
  8
PLAN_1
 62
     2
  6
CONTINUOUS
 10
0.142315
 20
3.919323
  0
VERTEX
  8
PLAN_1
 62
     2
  6
CONTINUOUS
 10
0.126394
 20
3.978528
  0
SEQEND
  8
0
  0
SOLID
  8
PLAN_1
 62
     2
 10
0.126394
 20
-0.029358
 11
0.110972
 21
0.029346
 12
0.126394
 22
-0.029358
 13
0.142315
 23
0.029346
  0
POLYLINE
  8
PLAN_1
 62
     2
  6
CONTINUOUS
 66
     1
 40
0.003000
 41
0.003000
  0
VERTEX
  8
PLAN_1
 62
     2
  6
CONTINUOUS
 10
0.126394
 20
-0.029358
  0
VERTEX
  8
PLAN_1
 62
     2
  6
CONTINUOUS
 10
0.110972
 20
0.029346
  0
VERTEX
  8
PLAN_1
 62
     2
  6
CONTINUOUS
 10
0.142315
 20
0.029346
  0
VERTEX
  8
PLAN_1
 62
     2
  6
CONTINUOUS
 10
0.126394
 20
-0.029358
  0
SEQEND
  8
0
  0
POLYLINE
  8
PLAN_1
 62
     2
  6
CONTINUOUS
 66
     1
 40
0.003000
 41
0.003000
  0
VERTEX
  8
PLAN_1
 62
     2
  6
CONTINUOUS
 10
0.103012
 20
1.970106
  0
VERTEX
  8
PLAN_1
 62
     2
  6
CONTINUOUS
 10
0.103012
 20
1.960654
  0
VERTEX
  8
PLAN_1
 62
     2
  6
CONTINUOUS
 10
0.050772
 20
1.960654
  0
VERTEX
  8
PLAN_1
 62
     2
  6
CONTINUOUS
 10
0.050772
 20
1.943740
  0
VERTEX
  8
PLAN_1
 62
     2
  6
CONTINUOUS
 10
0.043807
 20
1.943740
  0
VERTEX
  8
PLAN_1
 62
     2
  6
CONTINUOUS
 10
0.043311
 20
1.947720
  0
VERTEX
  8
PLAN_1
 62
     2
  6
CONTINUOUS
 10
0.042811
 20
1.951201
  0
VERTEX
  8
PLAN_1
 62
     2
  6
CONTINUOUS
 10
0.041819
 20
1.954185
  0
VERTEX
  8
PLAN_1
 62
     2
  6
CONTINUOUS
 10
0.040823
 20
1.956673
  0
VERTEX
  8
PLAN_1
 62
     2
  6
CONTINUOUS
 10
0.039331
 20
1.958665
  0
VERTEX
  8
PLAN_1
 62
     2
  6
CONTINUOUS
 10
0.036843
 20
1.960654
  0
VERTEX
  8
PLAN_1
 62
     2
  6
CONTINUOUS
 10
0.033858
 20
1.962146
  0
VERTEX
  8
PLAN_1
 62
     2
  6
CONTINUOUS
 10
0.029878
 20
1.963142
  0
VERTEX
  8
PLAN_1
 62
     2
  6
CONTINUOUS
 10
0.029878
 20
1.970106
  0
VERTEX
  8
PLAN_1
 62
     2
  6
CONTINUOUS
 10
0.103012
 20
1.970106
  0
SEQEND
  8
0
  0
POLYLINE
  8
PLAN_1
 62
     2
  6
CONTINUOUS
 66
     1
 40
0.003000
 41
0.003000
  0
VERTEX
  8
PLAN_1
 62
     2
  6
CONTINUOUS
 10
0.105000
 20
2.019858
  0
VERTEX
  8
PLAN_1
 62
     2
  6
CONTINUOUS
 10
0.104504
 20
2.015878
  0
VERTEX
  8
PLAN_1
 62
     2
  6
CONTINUOUS
 10
0.104004
 20
2.012890
  0
VERTEX
  8
PLAN_1
 62
     2
  6
CONTINUOUS
 10
0.102512
 20
2.009906
  0
VERTEX
  8
PLAN_1
 62
     2
  6
CONTINUOUS
 10
0.101020
 20
2.006921
  0
VERTEX
  8
PLAN_1
 62
     2
  6
CONTINUOUS
 10
0.099031
 20
2.004433
  0
VERTEX
  8
PLAN_1
 62
     2
  6
CONTINUOUS
 10
0.097039
 20
2.002445
  0
VERTEX
  8
PLAN_1
 62
     2
  6
CONTINUOUS
 10
0.094551
 20
2.000953
  0
VERTEX
  8
PLAN_1
 62
     2
  6
CONTINUOUS
 10
0.091567
 20
1.999461
  0
VERTEX
  8
PLAN_1
 62
     2
  6
CONTINUOUS
 10
0.085598
 20
1.996972
  0
VERTEX
  8
PLAN_1
 62
     2
  6
CONTINUOUS
 10
0.079630
 20
1.995480
  0
VERTEX
  8
PLAN_1
 62
     2
  6
CONTINUOUS
 10
0.073161
 20
1.994980
  0
VERTEX
  8
PLAN_1
 62
     2
  6
CONTINUOUS
 10
0.067189
 20
1.994980
  0
VERTEX
  8
PLAN_1
 62
     2
  6
CONTINUOUS
 10
0.061220
 20
1.994980
  0
VERTEX
  8
PLAN_1
 62
     2
  6
CONTINUOUS
 10
0.054752
 20
1.995480
  0
VERTEX
  8
PLAN_1
 62
     2
  6
CONTINUOUS
 10
0.048783
 20
1.996972
  0
VERTEX
  8
PLAN_1
 62
     2
  6
CONTINUOUS
 10
0.042811
 20
1.999461
  0
VERTEX
  8
PLAN_1
 62
     2
  6
CONTINUOUS
 10
0.040327
 20
2.000953
  0
VERTEX
  8
PLAN_1
 62
     2
  6
CONTINUOUS
 10
0.037839
 20
2.002445
  0
VERTEX
  8
PLAN_1
 62
     2
  6
CONTINUOUS
 10
0.035350
 20
2.004433
  0
VERTEX
  8
PLAN_1
 62
     2
  6
CONTINUOUS
 10
0.033358
 20
2.006921
  0
VERTEX
  8
PLAN_1
 62
     2
  6
CONTINUOUS
 10
0.031866
 20
2.009906
  0
VERTEX
  8
PLAN_1
 62
     2
  6
CONTINUOUS
 10
0.030874
 20
2.012890
  0
VERTEX
  8
PLAN_1
 62
     2
  6
CONTINUOUS
 10
0.029878
 20
2.015878
  0
VERTEX
  8
PLAN_1
 62
     2
  6
CONTINUOUS
 10
0.029878
 20
2.019858
  0
VERTEX
  8
PLAN_1
 62
     2
  6
CONTINUOUS
 10
0.029878
 20
2.023339
  0
VERTEX
  8
PLAN_1
 62
     2
  6
CONTINUOUS
 10
0.030874
 20
2.026823
  0
VERTEX
  8
PLAN_1
 62
     2
  6
CONTINUOUS
 10
0.031866
 20
2.029807
  0
VERTEX
  8
PLAN_1
 62
     2
  6
CONTINUOUS
 10
0.033358
 20
2.032791
  0
VERTEX
  8
PLAN_1
 62
     2
  6
CONTINUOUS
 10
0.035350
 20
2.034783
  0
VERTEX
  8
PLAN_1
 62
     2
  6
CONTINUOUS
 10
0.037839
 20
2.036772
  0
VERTEX
  8
PLAN_1
 62
     2
  6
CONTINUOUS
 10
0.040327
 20
2.038764
  0
VERTEX
  8
PLAN_1
 62
     2
  6
CONTINUOUS
 10
0.042811
 20
2.040256
  0
VERTEX
  8
PLAN_1
 62
     2
  6
CONTINUOUS
 10
0.048783
 20
2.042244
  0
VERTEX
  8
PLAN_1
 62
     2
  6
CONTINUOUS
 10
0.054752
 20
2.043736
  0
VERTEX
  8
PLAN_1
 62
     2
  6
CONTINUOUS
 10
0.061220
 20
2.044732
  0
VERTEX
  8
PLAN_1
 62
     2
  6
CONTINUOUS
 10
0.067189
 20
2.044732
  0
VERTEX
  8
PLAN_1
 62
     2
  6
CONTINUOUS
 10
0.073161
 20
2.044732
  0
VERTEX
  8
PLAN_1
 62
     2
  6
CONTINUOUS
 10
0.079630
 20
2.043736
  0
VERTEX
  8
PLAN_1
 62
     2
  6
CONTINUOUS
 10
0.085598
 20
2.042244
  0
VERTEX
  8
PLAN_1
 62
     2
  6
CONTINUOUS
 10
0.091567
 20
2.040256
  0
VERTEX
  8
PLAN_1
 62
     2
  6
CONTINUOUS
 10
0.094551
 20
2.038764
  0
VERTEX
  8
PLAN_1
 62
     2
  6
CONTINUOUS
 10
0.097039
 20
2.036772
  0
VERTEX
  8
PLAN_1
 62
     2
  6
CONTINUOUS
 10
0.099031
 20
2.034783
  0
VERTEX
  8
PLAN_1
 62
     2
  6
CONTINUOUS
 10
0.101020
 20
2.032791
  0
VERTEX
  8
PLAN_1
 62
     2
  6
CONTINUOUS
 10
0.102512
 20
2.029807
  0
VERTEX
  8
PLAN_1
 62
     2
  6
CONTINUOUS
 10
0.104004
 20
2.026823
  0
VERTEX
  8
PLAN_1
 62
     2
  6
CONTINUOUS
 10
0.104504
 20
2.023339
  0
VERTEX
  8
PLAN_1
 62
     2
  6
CONTINUOUS
 10
0.105000
 20
2.019858
  0
SEQEND
  8
0
  0
POLYLINE
  8
PLAN_1
 62
     2
  6
CONTINUOUS
 66
     1
 40
0.003000
 41
0.003000
  0
VERTEX
  8
PLAN_1
 62
     2
  6
CONTINUOUS
 10
0.037839
 20
2.019858
  0
VERTEX
  8
PLAN_1
 62
     2
  6
CONTINUOUS
 10
0.037839
 20
2.017866
  0
VERTEX
  8
PLAN_1
 62
     2
  6
CONTINUOUS
 10
0.038335
 20
2.016374
  0
VERTEX
  8
PLAN_1
 62
     2
  6
CONTINUOUS
 10
0.038835
 20
2.014386
  0
VERTEX
  8
PLAN_1
 62
     2
  6
CONTINUOUS
 10
0.039827
 20
2.012890
  0
VERTEX
  8
PLAN_1
 62
     2
  6
CONTINUOUS
 10
0.042315
 20
2.010406
  0
VERTEX
  8
PLAN_1
 62
     2
  6
CONTINUOUS
 10
0.045799
 20
2.008413
  0
VERTEX
  8
PLAN_1
 62
     2
  6
CONTINUOUS
 10
0.049780
 20
2.006425
  0
VERTEX
  8
PLAN_1
 62
     2
  6
CONTINUOUS
 10
0.054752
 20
2.005429
  0
VERTEX
  8
PLAN_1
 62
     2
  6
CONTINUOUS
 10
0.060724
 20
2.004933
  0
VERTEX
  8
PLAN_1
 62
     2
  6
CONTINUOUS
 10
0.067189
 20
2.004433
  0
VERTEX
  8
PLAN_1
 62
     2
  6
CONTINUOUS
 10
0.073657
 20
2.004933
  0
VERTEX
  8
PLAN_1
 62
     2
  6
CONTINUOUS
 10
0.079630
 20
2.005429
  0
VERTEX
  8
PLAN_1
 62
     2
  6
CONTINUOUS
 10
0.084602
 20
2.006425
  0
VERTEX
  8
PLAN_1
 62
     2
  6
CONTINUOUS
 10
0.088583
 20
2.008413
  0
VERTEX
  8
PLAN_1
 62
     2
  6
CONTINUOUS
 10
0.092067
 20
2.010406
  0
VERTEX
  8
PLAN_1
 62
     2
  6
CONTINUOUS
 10
0.094551
 20
2.012890
  0
VERTEX
  8
PLAN_1
 62
     2
  6
CONTINUOUS
 10
0.095547
 20
2.014386
  0
VERTEX
  8
PLAN_1
 62
     2
  6
CONTINUOUS
 10
0.096047
 20
2.016374
  0
VERTEX
  8
PLAN_1
 62
     2
  6
CONTINUOUS
 10
0.096543
 20
2.017866
  0
VERTEX
  8
PLAN_1
 62
     2
  6
CONTINUOUS
 10
0.096543
 20
2.019858
  0
VERTEX
  8
PLAN_1
 62
     2
  6
CONTINUOUS
 10
0.096543
 20
2.021846
  0
VERTEX
  8
PLAN_1
 62
     2
  6
CONTINUOUS
 10
0.096047
 20
2.023339
  0
VERTEX
  8
PLAN_1
 62
     2
  6
CONTINUOUS
 10
0.095547
 20
2.025331
  0
VERTEX
  8
PLAN_1
 62
     2
  6
CONTINUOUS
 10
0.094551
 20
2.026823
  0
VERTEX
  8
PLAN_1
 62
     2
  6
CONTINUOUS
 10
0.092067
 20
2.029311
  0
VERTEX
  8
PLAN_1
 62
     2
  6
CONTINUOUS
 10
0.088583
 20
2.031299
  0
VERTEX
  8
PLAN_1
 62
     2
  6
CONTINUOUS
 10
0.084602
 20
2.032791
  0
VERTEX
  8
PLAN_1
 62
     2
  6
CONTINUOUS
 10
0.079630
 20
2.034283
  0
VERTEX
  8
PLAN_1
 62
     2
  6
CONTINUOUS
 10
0.073657
 20
2.034783
  0
VERTEX
  8
PLAN_1
 62
     2
  6
CONTINUOUS
 10
0.067189
 20
2.035280
  0
VERTEX
  8
PLAN_1
 62
     2
  6
CONTINUOUS
 10
0.060724
 20
2.034783
  0
VERTEX
  8
PLAN_1
 62
     2
  6
CONTINUOUS
 10
0.054752
 20
2.034283
  0
VERTEX
  8
PLAN_1
 62
     2
  6
CONTINUOUS
 10
0.049780
 20
2.032791
  0
VERTEX
  8
PLAN_1
 62
     2
  6
CONTINUOUS
 10
0.045799
 20
2.031299
  0
VERTEX
  8
PLAN_1
 62
     2
  6
CONTINUOUS
 10
0.042315
 20
2.029311
  0
VERTEX
  8
PLAN_1
 62
     2
  6
CONTINUOUS
 10
0.039827
 20
2.026823
  0
VERTEX
  8
PLAN_1
 62
     2
  6
CONTINUOUS
 10
0.038835
 20
2.025331
  0
VERTEX
  8
PLAN_1
 62
     2
  6
CONTINUOUS
 10
0.038335
 20
2.023339
  0
VERTEX
  8
PLAN_1
 62
     2
  6
CONTINUOUS
 10
0.037839
 20
2.021846
  0
VERTEX
  8
PLAN_1
 62
     2
  6
CONTINUOUS
 10
0.037839
 20
2.019858
  0
SEQEND
  8
0
  0
POLYLINE
  8
PLAN_1
 62
     2
  6
CONTINUOUS
 66
     1
 40
0.003000
 41
0.003000
  0
VERTEX
  8
PLAN_1
 62
     2
  6
CONTINUOUS
 10
0.055748
 20
2.053189
  0
VERTEX
  8
PLAN_1
 62
     2
  6
CONTINUOUS
 10
0.051768
 20
2.053685
  0
VERTEX
  8
PLAN_1
 62
     2
  6
CONTINUOUS
 10
0.047787
 20
2.054185
  0
VERTEX
  8
PLAN_1
 62
     2
  6
CONTINUOUS
 10
0.044803
 20
2.055181
  0
VERTEX
  8
PLAN_1
 62
     2
  6
CONTINUOUS
 10
0.041819
 20
2.056173
  0
VERTEX
  8
PLAN_1
 62
     2
  6
CONTINUOUS
 10
0.039331
 20
2.057665
  0
VERTEX
  8
PLAN_1
 62
     2
  6
CONTINUOUS
 10
0.037339
 20
2.059161
  0
VERTEX
  8
PLAN_1
 62
     2
  6
CONTINUOUS
 10
0.035350
 20
2.061150
  0
VERTEX
  8
PLAN_1
 62
     2
  6
CONTINUOUS
 10
0.033858
 20
2.063138
  0
VERTEX
  8
PLAN_1
 62
     2
  6
CONTINUOUS
 10
0.031866
 20
2.067118
  0
VERTEX
  8
PLAN_1
 62
     2
  6
CONTINUOUS
 10
0.030374
 20
2.071598
  0
VERTEX
  8
PLAN_1
 62
     2
  6
CONTINUOUS
 10
0.029878
 20
2.075079
  0
VERTEX
  8
PLAN_1
 62
     2
  6
CONTINUOUS
 10
0.029878
 20
2.078563
  0
VERTEX
  8
PLAN_1
 62
     2
  6
CONTINUOUS
 10
0.029878
 20
2.083039
  0
VERTEX
  8
PLAN_1
 62
     2
  6
CONTINUOUS
 10
0.031370
 20
2.087516
  0
VERTEX
  8
PLAN_1
 62
     2
  6
CONTINUOUS
 10
0.032862
 20
2.091496
  0
VERTEX
  8
PLAN_1
 62
     2
  6
CONTINUOUS
 10
0.035350
 20
2.094980
  0
VERTEX
  8
PLAN_1
 62
     2
  6
CONTINUOUS
 10
0.038835
 20
2.097469
  0
VERTEX
  8
PLAN_1
 62
     2
  6
CONTINUOUS
 10
0.042315
 20
2.099957
  0
VERTEX
  8
PLAN_1
 62
     2
  6
CONTINUOUS
 10
0.046791
 20
2.100949
  0
VERTEX
  8
PLAN_1
 62
     2
  6
CONTINUOUS
 10
0.051768
 20
2.101449
  0
VERTEX
  8
PLAN_1
 62
     2
  6
CONTINUOUS
 10
0.056244
 20
2.100949
  0
VERTEX
  8
PLAN_1
 62
     2
  6
CONTINUOUS
 10
0.060224
 20
2.099957
  0
VERTEX
  8
PLAN_1
 62
     2
  6
CONTINUOUS
 10
0.063709
 20
2.097965
  0
VERTEX
  8
PLAN_1
 62
     2
  6
CONTINUOUS
 10
0.066693
 20
2.095976
  0
VERTEX
  8
PLAN_1
 62
     2
  6
CONTINUOUS
 10
0.069181
 20
2.092988
  0
VERTEX
  8
PLAN_1
 62
     2
  6
CONTINUOUS
 10
0.071669
 20
2.089508
  0
VERTEX
  8
PLAN_1
 62
     2
  6
CONTINUOUS
 10
0.073657
 20
2.086024
  0
VERTEX
  8
PLAN_1
 62
     2
  6
CONTINUOUS
 10
0.076146
 20
2.082043
  0
VERTEX
  8
PLAN_1
 62
     2
  6
CONTINUOUS
 10
0.080126
 20
2.074583
  0
VERTEX
  8
PLAN_1
 62
     2
  6
CONTINUOUS
 10
0.082114
 20
2.071098
  0
VERTEX
  8
PLAN_1
 62
     2
  6
CONTINUOUS
 10
0.084106
 20
2.068114
  0
VERTEX
  8
PLAN_1
 62
     2
  6
CONTINUOUS
 10
0.086094
 20
2.066126
  0
VERTEX
  8
PLAN_1
 62
     2
  6
CONTINUOUS
 10
0.088087
 20
2.064634
  0
VERTEX
  8
PLAN_1
 62
     2
  6
CONTINUOUS
 10
0.090075
 20
2.063138
  0
VERTEX
  8
PLAN_1
 62
     2
  6
CONTINUOUS
 10
0.091567
 20
2.062642
  0
VERTEX
  8
PLAN_1
 62
     2
  6
CONTINUOUS
 10
0.093059
 20
2.062146
  0
VERTEX
  8
PLAN_1
 62
     2
  6
CONTINUOUS
 10
0.094055
 20
2.061646
  0
VERTEX
  8
PLAN_1
 62
     2
  6
CONTINUOUS
 10
0.094055
 20
2.101449
  0
VERTEX
  8
PLAN_1
 62
     2
  6
CONTINUOUS
 10
0.103012
 20
2.101449
  0
VERTEX
  8
PLAN_1
 62
     2
  6
CONTINUOUS
 10
0.103012
 20
2.051697
  0
VERTEX
  8
PLAN_1
 62
     2
  6
CONTINUOUS
 10
0.097539
 20
2.052193
  0
VERTEX
  8
PLAN_1
 62
     2
  6
CONTINUOUS
 10
0.092563
 20
2.053189
  0
VERTEX
  8
PLAN_1
 62
     2
  6
CONTINUOUS
 10
0.088583
 20
2.054681
  0
VERTEX
  8
PLAN_1
 62
     2
  6
CONTINUOUS
 10
0.084602
 20
2.056673
  0
VERTEX
  8
PLAN_1
 62
     2
  6
CONTINUOUS
 10
0.081618
 20
2.059161
  0
VERTEX
  8
PLAN_1
 62
     2
  6
CONTINUOUS
 10
0.078634
 20
2.062146
  0
VERTEX
  8
PLAN_1
 62
     2
  6
CONTINUOUS
 10
0.076146
 20
2.065130
  0
VERTEX
  8
PLAN_1
 62
     2
  6
CONTINUOUS
 10
0.073657
 20
2.068610
  0
VERTEX
  8
PLAN_1
 62
     2
  6
CONTINUOUS
 10
0.068185
 20
2.078563
  0
VERTEX
  8
PLAN_1
 62
     2
  6
CONTINUOUS
 10
0.066693
 20
2.081051
  0
VERTEX
  8
PLAN_1
 62
     2
  6
CONTINUOUS
 10
0.065201
 20
2.083535
  0
VERTEX
  8
PLAN_1
 62
     2
  6
CONTINUOUS
 10
0.063209
 20
2.086024
  0
VERTEX
  8
PLAN_1
 62
     2
  6
CONTINUOUS
 10
0.061717
 20
2.088016
  0
VERTEX
  8
PLAN_1
 62
     2
  6
CONTINUOUS
 10
0.059728
 20
2.089508
  0
VERTEX
  8
PLAN_1
 62
     2
  6
CONTINUOUS
 10
0.057240
 20
2.090504
  0
VERTEX
  8
PLAN_1
 62
     2
  6
CONTINUOUS
 10
0.054256
 20
2.091496
  0
VERTEX
  8
PLAN_1
 62
     2
  6
CONTINUOUS
 10
0.051272
 20
2.091496
  0
VERTEX
  8
PLAN_1
 62
     2
  6
CONTINUOUS
 10
0.048783
 20
2.091496
  0
VERTEX
  8
PLAN_1
 62
     2
  6
CONTINUOUS
 10
0.046791
 20
2.091000
  0
VERTEX
  8
PLAN_1
 62
     2
  6
CONTINUOUS
 10
0.044307
 20
2.090004
  0
VERTEX
  8
PLAN_1
 62
     2
  6
CONTINUOUS
 10
0.042315
 20
2.088512
  0
VERTEX
  8
PLAN_1
 62
     2
  6
CONTINUOUS
 10
0.040823
 20
2.086524
  0
VERTEX
  8
PLAN_1
 62
     2
  6
CONTINUOUS
 10
0.039331
 20
2.084035
  0
VERTEX
  8
PLAN_1
 62
     2
  6
CONTINUOUS
 10
0.038335
 20
2.081051
  0
VERTEX
  8
PLAN_1
 62
     2
  6
CONTINUOUS
 10
0.037839
 20
2.077071
  0
VERTEX
  8
PLAN_1
 62
     2
  6
CONTINUOUS
 10
0.037839
 20
2.075079
  0
VERTEX
  8
PLAN_1
 62
     2
  6
CONTINUOUS
 10
0.038335
 20
2.072591
  0
VERTEX
  8
PLAN_1
 62
     2
  6
CONTINUOUS
 10
0.039331
 20
2.070602
  0
VERTEX
  8
PLAN_1
 62
     2
  6
CONTINUOUS
 10
0.039827
 20
2.069110
  0
VERTEX
  8
PLAN_1
 62
     2
  6
CONTINUOUS
 10
0.042315
 20
2.066622
  0
VERTEX
  8
PLAN_1
 62
     2
  6
CONTINUOUS
 10
0.044803
 20
2.064634
  0
VERTEX
  8
PLAN_1
 62
     2
  6
CONTINUOUS
 10
0.047787
 20
2.063638
  0
VERTEX
  8
PLAN_1
 62
     2
  6
CONTINUOUS
 10
0.050772
 20
2.063138
  0
VERTEX
  8
PLAN_1
 62
     2
  6
CONTINUOUS
 10
0.053756
 20
2.062642
  0
VERTEX
  8
PLAN_1
 62
     2
  6
CONTINUOUS
 10
0.055748
 20
2.062642
  0
VERTEX
  8
PLAN_1
 62
     2
  6
CONTINUOUS
 10
0.055748
 20
2.053189
  0
SEQEND
  8
0
  0
SOLID
  8
PLAN_1
 62
     2
 10
-2.140728
 20
3.696941
 11
-2.171079
 21
3.750173
 12
-2.140728
 22
3.696941
 13
-2.193465
 23
3.727787
  0
POLYLINE
  8
PLAN_1
 62
     2
  6
CONTINUOUS
 66
     1
 40
0.003000
 41
0.003000
  0
VERTEX
  8
PLAN_1
 62
     2
  6
CONTINUOUS
 10
-2.140728
 20
3.696941
  0
VERTEX
  8
PLAN_1
 62
     2
  6
CONTINUOUS
 10
-2.171079
 20
3.750173
  0
VERTEX
  8
PLAN_1
 62
     2
  6
CONTINUOUS
 10
-2.193465
 20
3.727787
  0
VERTEX
  8
PLAN_1
 62
     2
  6
CONTINUOUS
 10
-2.140728
 20
3.696941
  0
SEQEND
  8
0
  0
POLYLINE
  8
PLAN_1
 62
     2
  6
CONTINUOUS
 66
     1
 40
0.003976
 41
0.003976
  0
VERTEX
  8
PLAN_1
 62
     2
  6
CONTINUOUS
 10
-2.167098
 20
3.723307
  0
VERTEX
  8
PLAN_1
 62
     2
  6
CONTINUOUS
 10
-2.296945
 20
3.848181
  0
VERTEX
  8
PLAN_1
 62
     2
  6
CONTINUOUS
 10
-2.585000
 20
3.848181
  0
SEQEND
  8
0
  0
POLYLINE
  8
PLAN_1
 62
     2
  6
CONTINUOUS
 66
     1
 40
0.003000
 41
0.003000
  0
VERTEX
  8
PLAN_1
 62
     2
  6
CONTINUOUS
 10
-2.463110
 20
3.871563
  0
VERTEX
  8
PLAN_1
 62
     2
  6
CONTINUOUS
 10
-2.463110
 20
3.915843
  0
VERTEX
  8
PLAN_1
 62
     2
  6
CONTINUOUS
 10
-2.463110
 20
3.916839
  0
VERTEX
  8
PLAN_1
 62
     2
  6
CONTINUOUS
 10
-2.463110
 20
3.918827
  0
VERTEX
  8
PLAN_1
 62
     2
  6
CONTINUOUS
 10
-2.463110
 20
3.920819
  0
VERTEX
  8
PLAN_1
 62
     2
  6
CONTINUOUS
 10
-2.462614
 20
3.923303
  0
VERTEX
  8
PLAN_1
 62
     2
  6
CONTINUOUS
 10
-2.462614
 20
3.926291
  0
VERTEX
  8
PLAN_1
 62
     2
  6
CONTINUOUS
 10
-2.462614
 20
3.928776
  0
VERTEX
  8
PLAN_1
 62
     2
  6
CONTINUOUS
 10
-2.462614
 20
3.931764
  0
VERTEX
  8
PLAN_1
 62
     2
  6
CONTINUOUS
 10
-2.462614
 20
3.934248
  0
VERTEX
  8
PLAN_1
 62
     2
  6
CONTINUOUS
 10
-2.463110
 20
3.934248
  0
VERTEX
  8
PLAN_1
 62
     2
  6
CONTINUOUS
 10
-2.484008
 20
3.871563
  0
VERTEX
  8
PLAN_1
 62
     2
  6
CONTINUOUS
 10
-2.493957
 20
3.871563
  0
VERTEX
  8
PLAN_1
 62
     2
  6
CONTINUOUS
 10
-2.514850
 20
3.934248
  0
VERTEX
  8
PLAN_1
 62
     2
  6
CONTINUOUS
 10
-2.515350
 20
3.934248
  0
VERTEX
  8
PLAN_1
 62
     2
  6
CONTINUOUS
 10
-2.515350
 20
3.931764
  0
VERTEX
  8
PLAN_1
 62
     2
  6
CONTINUOUS
 10
-2.515350
 20
3.928776
  0
VERTEX
  8
PLAN_1
 62
     2
  6
CONTINUOUS
 10
-2.515350
 20
3.926291
  0
VERTEX
  8
PLAN_1
 62
     2
  6
CONTINUOUS
 10
-2.514850
 20
3.923303
  0
VERTEX
  8
PLAN_1
 62
     2
  6
CONTINUOUS
 10
-2.514850
 20
3.920819
  0
VERTEX
  8
PLAN_1
 62
     2
  6
CONTINUOUS
 10
-2.514850
 20
3.918827
  0
VERTEX
  8
PLAN_1
 62
     2
  6
CONTINUOUS
 10
-2.514850
 20
3.916839
  0
VERTEX
  8
PLAN_1
 62
     2
  6
CONTINUOUS
 10
-2.514850
 20
3.915843
  0
VERTEX
  8
PLAN_1
 62
     2
  6
CONTINUOUS
 10
-2.514850
 20
3.871563
  0
VERTEX
  8
PLAN_1
 62
     2
  6
CONTINUOUS
 10
-2.524803
 20
3.871563
  0
VERTEX
  8
PLAN_1
 62
     2
  6
CONTINUOUS
 10
-2.524803
 20
3.946189
  0
VERTEX
  8
PLAN_1
 62
     2
  6
CONTINUOUS
 10
-2.510374
 20
3.946189
  0
VERTEX
  8
PLAN_1
 62
     2
  6
CONTINUOUS
 10
-2.488980
 20
3.883504
  0
VERTEX
  8
PLAN_1
 62
     2
  6
CONTINUOUS
 10
-2.467591
 20
3.946189
  0
VERTEX
  8
PLAN_1
 62
     2
  6
CONTINUOUS
 10
-2.453161
 20
3.946189
  0
VERTEX
  8
PLAN_1
 62
     2
  6
CONTINUOUS
 10
-2.453161
 20
3.871563
  0
VERTEX
  8
PLAN_1
 62
     2
  6
CONTINUOUS
 10
-2.463110
 20
3.871563
  0
SEQEND
  8
0
  0
POLYLINE
  8
PLAN_1
 62
     2
  6
CONTINUOUS
 66
     1
 40
0.003000
 41
0.003000
  0
VERTEX
  8
PLAN_1
 62
     2
  6
CONTINUOUS
 10
-2.402417
 20
3.925295
  0
VERTEX
  8
PLAN_1
 62
     2
  6
CONTINUOUS
 10
-2.402913
 20
3.927783
  0
VERTEX
  8
PLAN_1
 62
     2
  6
CONTINUOUS
 10
-2.403409
 20
3.929772
  0
VERTEX
  8
PLAN_1
 62
     2
  6
CONTINUOUS
 10
-2.404406
 20
3.931764
  0
VERTEX
  8
PLAN_1
 62
     2
  6
CONTINUOUS
 10
-2.405898
 20
3.933256
  0
VERTEX
  8
PLAN_1
 62
     2
  6
CONTINUOUS
 10
-2.407890
 20
3.934748
  0
VERTEX
  8
PLAN_1
 62
     2
  6
CONTINUOUS
 10
-2.409878
 20
3.935744
  0
VERTEX
  8
PLAN_1
 62
     2
  6
CONTINUOUS
 10
-2.411870
 20
3.936240
  0
VERTEX
  8
PLAN_1
 62
     2
  6
CONTINUOUS
 10
-2.414854
 20
3.936736
  0
VERTEX
  8
PLAN_1
 62
     2
  6
CONTINUOUS
 10
-2.417343
 20
3.936240
  0
VERTEX
  8
PLAN_1
 62
     2
  6
CONTINUOUS
 10
-2.419831
 20
3.935744
  0
VERTEX
  8
PLAN_1
 62
     2
  6
CONTINUOUS
 10
-2.421819
 20
3.934748
  0
VERTEX
  8
PLAN_1
 62
     2
  6
CONTINUOUS
 10
-2.423807
 20
3.933256
  0
VERTEX
  8
PLAN_1
 62
     2
  6
CONTINUOUS
 10
-2.425303
 20
3.931764
  0
VERTEX
  8
PLAN_1
 62
     2
  6
CONTINUOUS
 10
-2.426795
 20
3.930268
  0
VERTEX
  8
PLAN_1
 62
     2
  6
CONTINUOUS
 10
-2.427787
 20
3.928280
  0
VERTEX
  8
PLAN_1
 62
     2
  6
CONTINUOUS
 10
-2.428783
 20
3.925791
  0
VERTEX
  8
PLAN_1
 62
     2
  6
CONTINUOUS
 10
-2.430276
 20
3.921315
  0
VERTEX
  8
PLAN_1
 62
     2
  6
CONTINUOUS
 10
-2.431272
 20
3.916839
  0
VERTEX
  8
PLAN_1
 62
     2
  6
CONTINUOUS
 10
-2.432268
 20
3.912858
  0
VERTEX
  8
PLAN_1
 62
     2
  6
CONTINUOUS
 10
-2.432268
 20
3.909374
  0
VERTEX
  8
PLAN_1
 62
     2
  6
CONTINUOUS
 10
-2.431768
 20
3.909374
  0
VERTEX
  8
PLAN_1
 62
     2
  6
CONTINUOUS
 10
-2.430776
 20
3.910866
  0
VERTEX
  8
PLAN_1
 62
     2
  6
CONTINUOUS
 10
-2.429780
 20
3.912358
  0
VERTEX
  8
PLAN_1
 62
     2
  6
CONTINUOUS
 10
-2.428287
 20
3.913850
  0
VERTEX
  8
PLAN_1
 62
     2
  6
CONTINUOUS
 10
-2.426295
 20
3.915346
  0
VERTEX
  8
PLAN_1
 62
     2
  6
CONTINUOUS
 10
-2.423807
 20
3.916339
  0
VERTEX
  8
PLAN_1
 62
     2
  6
CONTINUOUS
 10
-2.421323
 20
3.917335
  0
VERTEX
  8
PLAN_1
 62
     2
  6
CONTINUOUS
 10
-2.418335
 20
3.918331
  0
VERTEX
  8
PLAN_1
 62
     2
  6
CONTINUOUS
 10
-2.414854
 20
3.918331
  0
VERTEX
  8
PLAN_1
 62
     2
  6
CONTINUOUS
 10
-2.410874
 20
3.917831
  0
VERTEX
  8
PLAN_1
 62
     2
  6
CONTINUOUS
 10
-2.407390
 20
3.917335
  0
VERTEX
  8
PLAN_1
 62
     2
  6
CONTINUOUS
 10
-2.403409
 20
3.915346
  0
VERTEX
  8
PLAN_1
 62
     2
  6
CONTINUOUS
 10
-2.399929
 20
3.913354
  0
VERTEX
  8
PLAN_1
 62
     2
  6
CONTINUOUS
 10
-2.397937
 20
3.911862
  0
VERTEX
  8
PLAN_1
 62
     2
  6
CONTINUOUS
 10
-2.396445
 20
3.910370
  0
VERTEX
  8
PLAN_1
 62
     2
  6
CONTINUOUS
 10
-2.395453
 20
3.908378
  0
VERTEX
  8
PLAN_1
 62
     2
  6
CONTINUOUS
 10
-2.393961
 20
3.905894
  0
VERTEX
  8
PLAN_1
 62
     2
  6
CONTINUOUS
 10
-2.392965
 20
3.903902
  0
VERTEX
  8
PLAN_1
 62
     2
  6
CONTINUOUS
 10
-2.392465
 20
3.900917
  0
VERTEX
  8
PLAN_1
 62
     2
  6
CONTINUOUS
 10
-2.391969
 20
3.898429
  0
VERTEX
  8
PLAN_1
 62
     2
  6
CONTINUOUS
 10
-2.391969
 20
3.894949
  0
VERTEX
  8
PLAN_1
 62
     2
  6
CONTINUOUS
 10
-2.391969
 20
3.892461
  0
VERTEX
  8
PLAN_1
 62
     2
  6
CONTINUOUS
 10
-2.391969
 20
3.889972
  0
VERTEX
  8
PLAN_1
 62
     2
  6
CONTINUOUS
 10
-2.392465
 20
3.887484
  0
VERTEX
  8
PLAN_1
 62
     2
  6
CONTINUOUS
 10
-2.393461
 20
3.884996
  0
VERTEX
  8
PLAN_1
 62
     2
  6
CONTINUOUS
 10
-2.394457
 20
3.883008
  0
VERTEX
  8
PLAN_1
 62
     2
  6
CONTINUOUS
 10
-2.395453
 20
3.881016
  0
VERTEX
  8
PLAN_1
 62
     2
  6
CONTINUOUS
 10
-2.396945
 20
3.879028
  0
VERTEX
  8
PLAN_1
 62
     2
  6
CONTINUOUS
 10
-2.398933
 20
3.877035
  0
VERTEX
  8
PLAN_1
 62
     2
  6
CONTINUOUS
 10
-2.400425
 20
3.875047
  0
VERTEX
  8
PLAN_1
 62
     2
  6
CONTINUOUS
 10
-2.401917
 20
3.874051
  0
VERTEX
  8
PLAN_1
 62
     2
  6
CONTINUOUS
 10
-2.403409
 20
3.872559
  0
VERTEX
  8
PLAN_1
 62
     2
  6
CONTINUOUS
 10
-2.405402
 20
3.871563
  0
VERTEX
  8
PLAN_1
 62
     2
  6
CONTINUOUS
 10
-2.407890
 20
3.871067
  0
VERTEX
  8
PLAN_1
 62
     2
  6
CONTINUOUS
 10
-2.410378
 20
3.870071
  0
VERTEX
  8
PLAN_1
 62
     2
  6
CONTINUOUS
 10
-2.413858
 20
3.870071
  0
VERTEX
  8
PLAN_1
 62
     2
  6
CONTINUOUS
 10
-2.417343
 20
3.869575
  0
VERTEX
  8
PLAN_1
 62
     2
  6
CONTINUOUS
 10
-2.419331
 20
3.870071
  0
VERTEX
  8
PLAN_1
 62
     2
  6
CONTINUOUS
 10
-2.421819
 20
3.870071
  0
VERTEX
  8
PLAN_1
 62
     2
  6
CONTINUOUS
 10
-2.424307
 20
3.871067
  0
VERTEX
  8
PLAN_1
 62
     2
  6
CONTINUOUS
 10
-2.426795
 20
3.872063
  0
VERTEX
  8
PLAN_1
 62
     2
  6
CONTINUOUS
 10
-2.429280
 20
3.873555
  0
VERTEX
  8
PLAN_1
 62
     2
  6
CONTINUOUS
 10
-2.431768
 20
3.875047
  0
VERTEX
  8
PLAN_1
 62
     2
  6
CONTINUOUS
 10
-2.433760
 20
3.877535
  0
VERTEX
  8
PLAN_1
 62
     2
  6
CONTINUOUS
 10
-2.436248
 20
3.880520
  0
VERTEX
  8
PLAN_1
 62
     2
  6
CONTINUOUS
 10
-2.437740
 20
3.883008
  0
VERTEX
  8
PLAN_1
 62
     2
  6
CONTINUOUS
 10
-2.438732
 20
3.885992
  0
VERTEX
  8
PLAN_1
 62
     2
  6
CONTINUOUS
 10
-2.439728
 20
3.888976
  0
VERTEX
  8
PLAN_1
 62
     2
  6
CONTINUOUS
 10
-2.440724
 20
3.891961
  0
VERTEX
  8
PLAN_1
 62
     2
  6
CONTINUOUS
 10
-2.441220
 20
3.895445
  0
VERTEX
  8
PLAN_1
 62
     2
  6
CONTINUOUS
 10
-2.441220
 20
3.898925
  0
VERTEX
  8
PLAN_1
 62
     2
  6
CONTINUOUS
 10
-2.441720
 20
3.902409
  0
VERTEX
  8
PLAN_1
 62
     2
  6
CONTINUOUS
 10
-2.441720
 20
3.905894
  0
VERTEX
  8
PLAN_1
 62
     2
  6
CONTINUOUS
 10
-2.441220
 20
3.911862
  0
VERTEX
  8
PLAN_1
 62
     2
  6
CONTINUOUS
 10
-2.440724
 20
3.918827
  0
VERTEX
  8
PLAN_1
 62
     2
  6
CONTINUOUS
 10
-2.438732
 20
3.925295
  0
VERTEX
  8
PLAN_1
 62
     2
  6
CONTINUOUS
 10
-2.436248
 20
3.931264
  0
VERTEX
  8
PLAN_1
 62
     2
  6
CONTINUOUS
 10
-2.434756
 20
3.934248
  0
VERTEX
  8
PLAN_1
 62
     2
  6
CONTINUOUS
 10
-2.432764
 20
3.936736
  0
VERTEX
  8
PLAN_1
 62
     2
  6
CONTINUOUS
 10
-2.430776
 20
3.939224
  0
VERTEX
  8
PLAN_1
 62
     2
  6
CONTINUOUS
 10
-2.428287
 20
3.941217
  0
VERTEX
  8
PLAN_1
 62
     2
  6
CONTINUOUS
 10
-2.425303
 20
3.942709
  0
VERTEX
  8
PLAN_1
 62
     2
  6
CONTINUOUS
 10
-2.421819
 20
3.943701
  0
VERTEX
  8
PLAN_1
 62
     2
  6
CONTINUOUS
 10
-2.418335
 20
3.944697
  0
VERTEX
  8
PLAN_1
 62
     2
  6
CONTINUOUS
 10
-2.414854
 20
3.944697
  0
VERTEX
  8
PLAN_1
 62
     2
  6
CONTINUOUS
 10
-2.411370
 20
3.944697
  0
VERTEX
  8
PLAN_1
 62
     2
  6
CONTINUOUS
 10
-2.407890
 20
3.943701
  0
VERTEX
  8
PLAN_1
 62
     2
  6
CONTINUOUS
 10
-2.404406
 20
3.942709
  0
VERTEX
  8
PLAN_1
 62
     2
  6
CONTINUOUS
 10
-2.400925
 20
3.940717
  0
VERTEX
  8
PLAN_1
 62
     2
  6
CONTINUOUS
 10
-2.398437
 20
3.938228
  0
VERTEX
  8
PLAN_1
 62
     2
  6
CONTINUOUS
 10
-2.395949
 20
3.934748
  0
VERTEX
  8
PLAN_1
 62
     2
  6
CONTINUOUS
 10
-2.394953
 20
3.932756
  0
VERTEX
  8
PLAN_1
 62
     2
  6
CONTINUOUS
 10
-2.393961
 20
3.930268
  0
VERTEX
  8
PLAN_1
 62
     2
  6
CONTINUOUS
 10
-2.393461
 20
3.928280
  0
VERTEX
  8
PLAN_1
 62
     2
  6
CONTINUOUS
 10
-2.393461
 20
3.925295
  0
VERTEX
  8
PLAN_1
 62
     2
  6
CONTINUOUS
 10
-2.402417
 20
3.925295
  0
SEQEND
  8
0
  0
POLYLINE
  8
PLAN_1
 62
     2
  6
CONTINUOUS
 66
     1
 40
0.003000
 41
0.003000
  0
VERTEX
  8
PLAN_1
 62
     2
  6
CONTINUOUS
 10
-2.415350
 20
3.878031
  0
VERTEX
  8
PLAN_1
 62
     2
  6
CONTINUOUS
 10
-2.412366
 20
3.878031
  0
VERTEX
  8
PLAN_1
 62
     2
  6
CONTINUOUS
 10
-2.409878
 20
3.879028
  0
VERTEX
  8
PLAN_1
 62
     2
  6
CONTINUOUS
 10
-2.407390
 20
3.880520
  0
VERTEX
  8
PLAN_1
 62
     2
  6
CONTINUOUS
 10
-2.404906
 20
3.882508
  0
VERTEX
  8
PLAN_1
 62
     2
  6
CONTINUOUS
 10
-2.403409
 20
3.884996
  0
VERTEX
  8
PLAN_1
 62
     2
  6
CONTINUOUS
 10
-2.402417
 20
3.887980
  0
VERTEX
  8
PLAN_1
 62
     2
  6
CONTINUOUS
 10
-2.401421
 20
3.890969
  0
VERTEX
  8
PLAN_1
 62
     2
  6
CONTINUOUS
 10
-2.401421
 20
3.894949
  0
VERTEX
  8
PLAN_1
 62
     2
  6
CONTINUOUS
 10
-2.401421
 20
3.897433
  0
VERTEX
  8
PLAN_1
 62
     2
  6
CONTINUOUS
 10
-2.401917
 20
3.899921
  0
VERTEX
  8
PLAN_1
 62
     2
  6
CONTINUOUS
 10
-2.402913
 20
3.902409
  0
VERTEX
  8
PLAN_1
 62
     2
  6
CONTINUOUS
 10
-2.404406
 20
3.904898
  0
VERTEX
  8
PLAN_1
 62
     2
  6
CONTINUOUS
 10
-2.406398
 20
3.906886
  0
VERTEX
  8
PLAN_1
 62
     2
  6
CONTINUOUS
 10
-2.408882
 20
3.908378
  0
VERTEX
  8
PLAN_1
 62
     2
  6
CONTINUOUS
 10
-2.411870
 20
3.909870
  0
VERTEX
  8
PLAN_1
 62
     2
  6
CONTINUOUS
 10
-2.415850
 20
3.909870
  0
VERTEX
  8
PLAN_1
 62
     2
  6
CONTINUOUS
 10
-2.419331
 20
3.909870
  0
VERTEX
  8
PLAN_1
 62
     2
  6
CONTINUOUS
 10
-2.422815
 20
3.908878
  0
VERTEX
  8
PLAN_1
 62
     2
  6
CONTINUOUS
 10
-2.425303
 20
3.907386
  0
VERTEX
  8
PLAN_1
 62
     2
  6
CONTINUOUS
 10
-2.427291
 20
3.905394
  0
VERTEX
  8
PLAN_1
 62
     2
  6
CONTINUOUS
 10
-2.428783
 20
3.902906
  0
VERTEX
  8
PLAN_1
 62
     2
  6
CONTINUOUS
 10
-2.430276
 20
3.900421
  0
VERTEX
  8
PLAN_1
 62
     2
  6
CONTINUOUS
 10
-2.430776
 20
3.897433
  0
VERTEX
  8
PLAN_1
 62
     2
  6
CONTINUOUS
 10
-2.430776
 20
3.893953
  0
VERTEX
  8
PLAN_1
 62
     2
  6
CONTINUOUS
 10
-2.430776
 20
3.891465
  0
VERTEX
  8
PLAN_1
 62
     2
  6
CONTINUOUS
 10
-2.430276
 20
3.888480
  0
VERTEX
  8
PLAN_1
 62
     2
  6
CONTINUOUS
 10
-2.428783
 20
3.885496
  0
VERTEX
  8
PLAN_1
 62
     2
  6
CONTINUOUS
 10
-2.427291
 20
3.883008
  0
VERTEX
  8
PLAN_1
 62
     2
  6
CONTINUOUS
 10
-2.425303
 20
3.881016
  0
VERTEX
  8
PLAN_1
 62
     2
  6
CONTINUOUS
 10
-2.422315
 20
3.879524
  0
VERTEX
  8
PLAN_1
 62
     2
  6
CONTINUOUS
 10
-2.419331
 20
3.878528
  0
VERTEX
  8
PLAN_1
 62
     2
  6
CONTINUOUS
 10
-2.415350
 20
3.878031
  0
SEQEND
  8
0
  0
POLYLINE
  8
PLAN_1
 62
     2
  6
CONTINUOUS
 66
     1
 40
0.003976
 41
0.003976
  0
VERTEX
  8
PLAN_1
 62
     2
  6
CONTINUOUS
 10
-1.362138
 20
-0.053736
  0
VERTEX
  8
PLAN_1
 62
     2
  6
CONTINUOUS
 10
-1.362138
 20
-0.289055
  0
SEQEND
  8
0
  0
POLYLINE
  8
PLAN_1
 62
     2
  6
CONTINUOUS
 66
     1
 40
0.003976
 41
0.003976
  0
VERTEX
  8
PLAN_1
 62
     2
  6
CONTINUOUS
 10
0.014953
 20
-0.029358
  0
VERTEX
  8
PLAN_1
 62
     2
  6
CONTINUOUS
 10
0.150272
 20
-0.029358
  0
SEQEND
  8
0
  0
POLYLINE
  8
PLAN_1
 62
     2
  6
CONTINUOUS
 66
     1
 40
0.003976
 41
0.003976
  0
VERTEX
  8
PLAN_1
 62
     2
  6
CONTINUOUS
 10
-1.772579
 20
0.008449
  0
VERTEX
  8
PLAN_1
 62
     2
  6
CONTINUOUS
 10
-1.772579
 20
-0.446268
  0
SEQEND
  8
0
  0
POLYLINE
  8
PLAN_1
 62
     2
  6
CONTINUOUS
 66
     1
 40
0.003976
 41
0.003976
  0
VERTEX
  8
PLAN_1
 62
     2
  6
CONTINUOUS
 10
-0.032311
 20
3.978528
  0
VERTEX
  8
PLAN_1
 62
     2
  6
CONTINUOUS
 10
0.150272
 20
3.978528
  0
SEQEND
  8
0
  0
POLYLINE
  8
PLAN_1
 62
     2
  6
CONTINUOUS
 66
     1
 40
0.003976
 41
0.003976
  0
VERTEX
  8
PLAN_1
 62
     2
  6
CONTINUOUS
 10
-2.278539
 20
3.422815
  0
VERTEX
  8
PLAN_1
 62
     2
  6
CONTINUOUS
 10
-2.278539
 20
-0.603976
  0
SEQEND
  8
0
  0
ENDSEC
  0
EOF
