  0
SECTION
  2
HEADER
  9
$ACADVER
  1
AC1006
  9
$EXTMIN
 10
-2.323000
 20
-4.109000
  9
$EXTMAX
 10
2.318933
 20
4.115000
  9
$LTSCALE
 40
0.000394
  9
$PDMODE
 70
    35
  9
$PDSIZE
 40
0.000315
  0
ENDSEC
  0
SECTION
  2
TABLES
  0
TABLE
  2
LTYPE
 70
     9
  0
LTYPE
  2
CONTINUOUS
 70
    64
  3
Solid line
 72
    65
 73
     0
 40
0.000000
  0
LTYPE
  2
DASHED
 70
    64
  3
__ __ __ __ __ __ __ __ __ __ __ __ __ __ __
 72
    65
 73
     2
 40
0.000003
 49
0.000002
 49
-0.000001
  0
LTYPE
  2
HIDDEN
 70
    64
  3
 _ _ _ _ _ _ _ _ _ _ _ _ _ _ _ _ _ _ _ _ _ _
 72
    65
 73
     2
 40
0.000001
 49
0.000001
 49
-0.000000
  0
LTYPE
  2
CENTER
 70
    64
  3
____ _ ____ _ ____ _ ____ _ ____ _ ____ _ ____
 72
    65
 73
     4
 40
0.000008
 49
0.000005
 49
-0.000001
 49
0.000001
 49
-0.000001
  0
LTYPE
  2
PHANTOM
 70
    64
  3
_____ _ _ _____ _ _ _____ _ _ _____ _ _ ____
 72
    65
 73
     6
 40
0.000010
 49
0.000005
 49
-0.000001
 49
0.000001
 49
-0.000001
 49
0.000001
 49
-0.000001
  0
LTYPE
  2
DOT
 70
    64
  3
...............................................
 72
    65
 73
     2
 40
0.000001
 49
0.000000
 49
-0.000001
  0
LTYPE
  2
DASHDOT
 70
    64
  3
__ . __ . __ . __ . __ . __ . __ . __ . __ . __
 72
    65
 73
     4
 40
0.000004
 49
0.000002
 49
-0.000001
 49
0.000000
 49
-0.000001
  0
LTYPE
  2
BORDER
 70
    64
  3
__ __ . __ __ . __ __ . __ __ . __ __ . __ __
 72
    65
 73
     6
 40
0.000007
 49
0.000002
 49
-0.000001
 49
0.000002
 49
-0.000001
 49
0.000000
 49
-0.000001
  0
LTYPE
  2
DIVIDE
 70
    64
  3
__ . . __ . . __ . . __ . . __ . . __ . . __
 72
    65
 73
     6
 40
0.000005
 49
0.000002
 49
-0.000001
 49
0.000000
 49
-0.000001
 49
0.000000
 49
-0.000001
  0
LTYPE
  2
DOTDOT
 70
    64
  3
 . .  . .  . .  . .  . .  . . 
 72
    65
 73
     5
 40
0.000002
 49
-0.000001
 49
0.000000
 49
-0.000001
 49
0.000000
 49
-0.000001
  0
ENDTAB
  0
TABLE
  2
STYLE
 70
     0
  0
ENDTAB
  0
TABLE
  2
LAYER
 70
     3
  0
LAYER
  2
FOREGROUND
 70
    64
 62
     7
  6
CONTINUOUS
  0
LAYER
  2
BACKGROUND
 70
    65
 62
    -7
  6
CONTINUOUS
  0
LAYER
  2
PLAN_1
 70
    64
 62
     7
  6
CONTINUOUS
  0
ENDTAB
  0
ENDSEC
  0
SECTION
  2
ENTITIES
  0
POLYLINE
  8
PLAN_1
  6
CONTINUOUS
 66
     1
 40
0.003000
 41
0.003000
  0
VERTEX
  8
PLAN_1
  6
CONTINUOUS
 10
0.347228
 20
-4.103858
  0
VERTEX
  8
PLAN_1
  6
CONTINUOUS
 10
0.313819
 20
-4.103858
  0
VERTEX
  8
PLAN_1
  6
CONTINUOUS
 10
0.260362
 20
-4.021618
  0
VERTEX
  8
PLAN_1
  6
CONTINUOUS
 10
0.204850
 20
-4.103858
  0
VERTEX
  8
PLAN_1
  6
CONTINUOUS
 10
0.172469
 20
-4.103858
  0
VERTEX
  8
PLAN_1
  6
CONTINUOUS
 10
0.243917
 20
-4.001575
  0
VERTEX
  8
PLAN_1
  6
CONTINUOUS
 10
0.177094
 20
-3.904429
  0
VERTEX
  8
PLAN_1
  6
CONTINUOUS
 10
0.211020
 20
-3.904429
  0
VERTEX
  8
PLAN_1
  6
CONTINUOUS
 10
0.261394
 20
-3.980500
  0
VERTEX
  8
PLAN_1
  6
CONTINUOUS
 10
0.311764
 20
-3.904429
  0
VERTEX
  8
PLAN_1
  6
CONTINUOUS
 10
0.344146
 20
-3.904429
  0
VERTEX
  8
PLAN_1
  6
CONTINUOUS
 10
0.277327
 20
-4.001575
  0
VERTEX
  8
PLAN_1
  6
CONTINUOUS
 10
0.347228
 20
-4.103858
  0
SEQEND
  8
0
  0
POLYLINE
  8
PLAN_1
  6
CONTINUOUS
 66
     1
 40
0.003000
 41
0.003000
  0
VERTEX
  8
PLAN_1
  6
CONTINUOUS
 10
0.513768
 20
-3.964567
  0
VERTEX
  8
PLAN_1
  6
CONTINUOUS
 10
0.511709
 20
-3.958398
  0
VERTEX
  8
PLAN_1
  6
CONTINUOUS
 10
0.509654
 20
-3.952744
  0
VERTEX
  8
PLAN_1
  6
CONTINUOUS
 10
0.507083
 20
-3.947602
  0
VERTEX
  8
PLAN_1
  6
CONTINUOUS
 10
0.504516
 20
-3.942976
  0
VERTEX
  8
PLAN_1
  6
CONTINUOUS
 10
0.500917
 20
-3.939382
  0
VERTEX
  8
PLAN_1
  6
CONTINUOUS
 10
0.497831
 20
-3.935783
  0
VERTEX
  8
PLAN_1
  6
CONTINUOUS
 10
0.493720
 20
-3.933213
  0
VERTEX
  8
PLAN_1
  6
CONTINUOUS
 10
0.490122
 20
-3.930642
  0
VERTEX
  8
PLAN_1
  6
CONTINUOUS
 10
0.486012
 20
-3.928587
  0
VERTEX
  8
PLAN_1
  6
CONTINUOUS
 10
0.481898
 20
-3.927043
  0
VERTEX
  8
PLAN_1
  6
CONTINUOUS
 10
0.477787
 20
-3.925504
  0
VERTEX
  8
PLAN_1
  6
CONTINUOUS
 10
0.473673
 20
-3.924472
  0
VERTEX
  8
PLAN_1
  6
CONTINUOUS
 10
0.465449
 20
-3.923445
  0
VERTEX
  8
PLAN_1
  6
CONTINUOUS
 10
0.457740
 20
-3.922933
  0
VERTEX
  8
PLAN_1
  6
CONTINUOUS
 10
0.451059
 20
-3.923445
  0
VERTEX
  8
PLAN_1
  6
CONTINUOUS
 10
0.444378
 20
-3.924472
  0
VERTEX
  8
PLAN_1
  6
CONTINUOUS
 10
0.438209
 20
-3.926016
  0
VERTEX
  8
PLAN_1
  6
CONTINUOUS
 10
0.432555
 20
-3.928071
  0
VERTEX
  8
PLAN_1
  6
CONTINUOUS
 10
0.426386
 20
-3.930642
  0
VERTEX
  8
PLAN_1
  6
CONTINUOUS
 10
0.421244
 20
-3.934240
  0
VERTEX
  8
PLAN_1
  6
CONTINUOUS
 10
0.416106
 20
-3.938350
  0
VERTEX
  8
PLAN_1
  6
CONTINUOUS
 10
0.411480
 20
-3.942976
  0
VERTEX
  8
PLAN_1
  6
CONTINUOUS
 10
0.407366
 20
-3.948118
  0
VERTEX
  8
PLAN_1
  6
CONTINUOUS
 10
0.403772
 20
-3.954287
  0
VERTEX
  8
PLAN_1
  6
CONTINUOUS
 10
0.400173
 20
-3.960453
  0
VERTEX
  8
PLAN_1
  6
CONTINUOUS
 10
0.397602
 20
-3.967650
  0
VERTEX
  8
PLAN_1
  6
CONTINUOUS
 10
0.395547
 20
-3.975358
  0
VERTEX
  8
PLAN_1
  6
CONTINUOUS
 10
0.394004
 20
-3.983583
  0
VERTEX
  8
PLAN_1
  6
CONTINUOUS
 10
0.392976
 20
-3.992835
  0
VERTEX
  8
PLAN_1
  6
CONTINUOUS
 10
0.392461
 20
-4.002087
  0
VERTEX
  8
PLAN_1
  6
CONTINUOUS
 10
0.392976
 20
-4.010827
  0
VERTEX
  8
PLAN_1
  6
CONTINUOUS
 10
0.393488
 20
-4.019051
  0
VERTEX
  8
PLAN_1
  6
CONTINUOUS
 10
0.394520
 20
-4.027276
  0
VERTEX
  8
PLAN_1
  6
CONTINUOUS
 10
0.396059
 20
-4.034984
  0
VERTEX
  8
PLAN_1
  6
CONTINUOUS
 10
0.398114
 20
-4.042181
  0
VERTEX
  8
PLAN_1
  6
CONTINUOUS
 10
0.400173
 20
-4.048862
  0
VERTEX
  8
PLAN_1
  6
CONTINUOUS
 10
0.403256
 20
-4.055543
  0
VERTEX
  8
PLAN_1
  6
CONTINUOUS
 10
0.406854
 20
-4.061197
  0
VERTEX
  8
PLAN_1
  6
CONTINUOUS
 10
0.410965
 20
-4.066339
  0
VERTEX
  8
PLAN_1
  6
CONTINUOUS
 10
0.416106
 20
-4.071476
  0
VERTEX
  8
PLAN_1
  6
CONTINUOUS
 10
0.421244
 20
-4.075075
  0
VERTEX
  8
PLAN_1
  6
CONTINUOUS
 10
0.427413
 20
-4.078673
  0
VERTEX
  8
PLAN_1
  6
CONTINUOUS
 10
0.434094
 20
-4.081244
  0
VERTEX
  8
PLAN_1
  6
CONTINUOUS
 10
0.441807
 20
-4.083299
  0
VERTEX
  8
PLAN_1
  6
CONTINUOUS
 10
0.449516
 20
-4.084843
  0
VERTEX
  8
PLAN_1
  6
CONTINUOUS
 10
0.458768
 20
-4.085354
  0
VERTEX
  8
PLAN_1
  6
CONTINUOUS
 10
0.465449
 20
-4.084843
  0
VERTEX
  8
PLAN_1
  6
CONTINUOUS
 10
0.473673
 20
-4.083299
  0
VERTEX
  8
PLAN_1
  6
CONTINUOUS
 10
0.477787
 20
-4.081760
  0
VERTEX
  8
PLAN_1
  6
CONTINUOUS
 10
0.481898
 20
-4.080217
  0
VERTEX
  8
PLAN_1
  6
CONTINUOUS
 10
0.486012
 20
-4.077646
  0
VERTEX
  8
PLAN_1
  6
CONTINUOUS
 10
0.490122
 20
-4.075075
  0
VERTEX
  8
PLAN_1
  6
CONTINUOUS
 10
0.494232
 20
-4.071992
  0
VERTEX
  8
PLAN_1
  6
CONTINUOUS
 10
0.497831
 20
-4.067882
  0
VERTEX
  8
PLAN_1
  6
CONTINUOUS
 10
0.501945
 20
-4.063768
  0
VERTEX
  8
PLAN_1
  6
CONTINUOUS
 10
0.505028
 20
-4.058630
  0
VERTEX
  8
PLAN_1
  6
CONTINUOUS
 10
0.508110
 20
-4.052461
  0
VERTEX
  8
PLAN_1
  6
CONTINUOUS
 10
0.511197
 20
-4.046291
  0
VERTEX
  8
PLAN_1
  6
CONTINUOUS
 10
0.513768
 20
-4.038583
  0
VERTEX
  8
PLAN_1
  6
CONTINUOUS
 10
0.515307
 20
-4.030358
  0
VERTEX
  8
PLAN_1
  6
CONTINUOUS
 10
0.541524
 20
-4.030358
  0
VERTEX
  8
PLAN_1
  6
CONTINUOUS
 10
0.540492
 20
-4.037039
  0
VERTEX
  8
PLAN_1
  6
CONTINUOUS
 10
0.538953
 20
-4.043720
  0
VERTEX
  8
PLAN_1
  6
CONTINUOUS
 10
0.537409
 20
-4.049890
  0
VERTEX
  8
PLAN_1
  6
CONTINUOUS
 10
0.535354
 20
-4.055543
  0
VERTEX
  8
PLAN_1
  6
CONTINUOUS
 10
0.533299
 20
-4.060685
  0
VERTEX
  8
PLAN_1
  6
CONTINUOUS
 10
0.530728
 20
-4.065823
  0
VERTEX
  8
PLAN_1
  6
CONTINUOUS
 10
0.528157
 20
-4.070449
  0
VERTEX
  8
PLAN_1
  6
CONTINUOUS
 10
0.525587
 20
-4.074563
  0
VERTEX
  8
PLAN_1
  6
CONTINUOUS
 10
0.522504
 20
-4.078161
  0
VERTEX
  8
PLAN_1
  6
CONTINUOUS
 10
0.519421
 20
-4.081760
  0
VERTEX
  8
PLAN_1
  6
CONTINUOUS
 10
0.516335
 20
-4.085354
  0
VERTEX
  8
PLAN_1
  6
CONTINUOUS
 10
0.513252
 20
-4.088441
  0
VERTEX
  8
PLAN_1
  6
CONTINUOUS
 10
0.506571
 20
-4.093579
  0
VERTEX
  8
PLAN_1
  6
CONTINUOUS
 10
0.499374
 20
-4.097693
  0
VERTEX
  8
PLAN_1
  6
CONTINUOUS
 10
0.492693
 20
-4.101291
  0
VERTEX
  8
PLAN_1
  6
CONTINUOUS
 10
0.485496
 20
-4.103858
  0
VERTEX
  8
PLAN_1
  6
CONTINUOUS
 10
0.478815
 20
-4.105917
  0
VERTEX
  8
PLAN_1
  6
CONTINUOUS
 10
0.472646
 20
-4.107457
  0
VERTEX
  8
PLAN_1
  6
CONTINUOUS
 10
0.461850
 20
-4.108484
  0
VERTEX
  8
PLAN_1
  6
CONTINUOUS
 10
0.454657
 20
-4.109000
  0
VERTEX
  8
PLAN_1
  6
CONTINUOUS
 10
0.445917
 20
-4.108484
  0
VERTEX
  8
PLAN_1
  6
CONTINUOUS
 10
0.437693
 20
-4.107457
  0
VERTEX
  8
PLAN_1
  6
CONTINUOUS
 10
0.429469
 20
-4.105917
  0
VERTEX
  8
PLAN_1
  6
CONTINUOUS
 10
0.421244
 20
-4.103346
  0
VERTEX
  8
PLAN_1
  6
CONTINUOUS
 10
0.413535
 20
-4.099748
  0
VERTEX
  8
PLAN_1
  6
CONTINUOUS
 10
0.406339
 20
-4.095638
  0
VERTEX
  8
PLAN_1
  6
CONTINUOUS
 10
0.399146
 20
-4.090496
  0
VERTEX
  8
PLAN_1
  6
CONTINUOUS
 10
0.392461
 20
-4.084843
  0
VERTEX
  8
PLAN_1
  6
CONTINUOUS
 10
0.389378
 20
-4.081244
  0
VERTEX
  8
PLAN_1
  6
CONTINUOUS
 10
0.386807
 20
-4.078161
  0
VERTEX
  8
PLAN_1
  6
CONTINUOUS
 10
0.383724
 20
-4.074047
  0
VERTEX
  8
PLAN_1
  6
CONTINUOUS
 10
0.381154
 20
-4.069937
  0
VERTEX
  8
PLAN_1
  6
CONTINUOUS
 10
0.378583
 20
-4.065823
  0
VERTEX
  8
PLAN_1
  6
CONTINUOUS
 10
0.376528
 20
-4.061713
  0
VERTEX
  8
PLAN_1
  6
CONTINUOUS
 10
0.374472
 20
-4.056571
  0
VERTEX
  8
PLAN_1
  6
CONTINUOUS
 10
0.372417
 20
-4.051945
  0
VERTEX
  8
PLAN_1
  6
CONTINUOUS
 10
0.370874
 20
-4.046807
  0
VERTEX
  8
PLAN_1
  6
CONTINUOUS
 10
0.369331
 20
-4.041154
  0
VERTEX
  8
PLAN_1
  6
CONTINUOUS
 10
0.367791
 20
-4.035496
  0
VERTEX
  8
PLAN_1
  6
CONTINUOUS
 10
0.366764
 20
-4.029331
  0
VERTEX
  8
PLAN_1
  6
CONTINUOUS
 10
0.365732
 20
-4.023161
  0
VERTEX
  8
PLAN_1
  6
CONTINUOUS
 10
0.365220
 20
-4.016992
  0
VERTEX
  8
PLAN_1
  6
CONTINUOUS
 10
0.364705
 20
-4.009799
  0
VERTEX
  8
PLAN_1
  6
CONTINUOUS
 10
0.364705
 20
-4.003114
  0
VERTEX
  8
PLAN_1
  6
CONTINUOUS
 10
0.365220
 20
-3.991807
  0
VERTEX
  8
PLAN_1
  6
CONTINUOUS
 10
0.366248
 20
-3.981016
  0
VERTEX
  8
PLAN_1
  6
CONTINUOUS
 10
0.368303
 20
-3.970732
  0
VERTEX
  8
PLAN_1
  6
CONTINUOUS
 10
0.371390
 20
-3.960969
  0
VERTEX
  8
PLAN_1
  6
CONTINUOUS
 10
0.374472
 20
-3.951717
  0
VERTEX
  8
PLAN_1
  6
CONTINUOUS
 10
0.379098
 20
-3.942976
  0
VERTEX
  8
PLAN_1
  6
CONTINUOUS
 10
0.383724
 20
-3.935268
  0
VERTEX
  8
PLAN_1
  6
CONTINUOUS
 10
0.389378
 20
-3.928071
  0
VERTEX
  8
PLAN_1
  6
CONTINUOUS
 10
0.396059
 20
-3.921390
  0
VERTEX
  8
PLAN_1
  6
CONTINUOUS
 10
0.402740
 20
-3.915736
  0
VERTEX
  8
PLAN_1
  6
CONTINUOUS
 10
0.410453
 20
-3.911110
  0
VERTEX
  8
PLAN_1
  6
CONTINUOUS
 10
0.418677
 20
-3.906996
  0
VERTEX
  8
PLAN_1
  6
CONTINUOUS
 10
0.427413
 20
-3.903402
  0
VERTEX
  8
PLAN_1
  6
CONTINUOUS
 10
0.437181
 20
-3.901343
  0
VERTEX
  8
PLAN_1
  6
CONTINUOUS
 10
0.446945
 20
-3.899803
  0
VERTEX
  8
PLAN_1
  6
CONTINUOUS
 10
0.457740
 20
-3.899287
  0
VERTEX
  8
PLAN_1
  6
CONTINUOUS
 10
0.466992
 20
-3.899287
  0
VERTEX
  8
PLAN_1
  6
CONTINUOUS
 10
0.475728
 20
-3.900831
  0
VERTEX
  8
PLAN_1
  6
CONTINUOUS
 10
0.483953
 20
-3.902370
  0
VERTEX
  8
PLAN_1
  6
CONTINUOUS
 10
0.491665
 20
-3.904429
  0
VERTEX
  8
PLAN_1
  6
CONTINUOUS
 10
0.498858
 20
-3.907512
  0
VERTEX
  8
PLAN_1
  6
CONTINUOUS
 10
0.505028
 20
-3.911110
  0
VERTEX
  8
PLAN_1
  6
CONTINUOUS
 10
0.511197
 20
-3.914709
  0
VERTEX
  8
PLAN_1
  6
CONTINUOUS
 10
0.516335
 20
-3.919335
  0
VERTEX
  8
PLAN_1
  6
CONTINUOUS
 10
0.521476
 20
-3.923961
  0
VERTEX
  8
PLAN_1
  6
CONTINUOUS
 10
0.525587
 20
-3.929098
  0
VERTEX
  8
PLAN_1
  6
CONTINUOUS
 10
0.529185
 20
-3.934240
  0
VERTEX
  8
PLAN_1
  6
CONTINUOUS
 10
0.532272
 20
-3.939894
  0
VERTEX
  8
PLAN_1
  6
CONTINUOUS
 10
0.534839
 20
-3.946063
  0
VERTEX
  8
PLAN_1
  6
CONTINUOUS
 10
0.536898
 20
-3.952228
  0
VERTEX
  8
PLAN_1
  6
CONTINUOUS
 10
0.538437
 20
-3.958398
  0
VERTEX
  8
PLAN_1
  6
CONTINUOUS
 10
0.539465
 20
-3.964567
  0
VERTEX
  8
PLAN_1
  6
CONTINUOUS
 10
0.513768
 20
-3.964567
  0
SEQEND
  8
0
  0
POLYLINE
  8
PLAN_1
  6
CONTINUOUS
 66
     1
 40
0.003000
 41
0.003000
  0
VERTEX
  8
PLAN_1
  6
CONTINUOUS
 10
0.601146
 20
-4.103858
  0
VERTEX
  8
PLAN_1
  6
CONTINUOUS
 10
0.573906
 20
-4.103858
  0
VERTEX
  8
PLAN_1
  6
CONTINUOUS
 10
0.573906
 20
-3.904429
  0
VERTEX
  8
PLAN_1
  6
CONTINUOUS
 10
0.601146
 20
-3.904429
  0
VERTEX
  8
PLAN_1
  6
CONTINUOUS
 10
0.601146
 20
-4.001059
  0
VERTEX
  8
PLAN_1
  6
CONTINUOUS
 10
0.697780
 20
-3.904429
  0
VERTEX
  8
PLAN_1
  6
CONTINUOUS
 10
0.734787
 20
-3.904429
  0
VERTEX
  8
PLAN_1
  6
CONTINUOUS
 10
0.652031
 20
-3.985126
  0
VERTEX
  8
PLAN_1
  6
CONTINUOUS
 10
0.737354
 20
-4.103858
  0
VERTEX
  8
PLAN_1
  6
CONTINUOUS
 10
0.701890
 20
-4.103858
  0
VERTEX
  8
PLAN_1
  6
CONTINUOUS
 10
0.632500
 20
-4.003630
  0
VERTEX
  8
PLAN_1
  6
CONTINUOUS
 10
0.601146
 20
-4.033957
  0
VERTEX
  8
PLAN_1
  6
CONTINUOUS
 10
0.601146
 20
-4.103858
  0
SEQEND
  8
0
  0
POLYLINE
  8
PLAN_1
  6
CONTINUOUS
 66
     1
 40
0.003000
 41
0.003000
  0
VERTEX
  8
PLAN_1
  6
CONTINUOUS
 10
0.768197
 20
-4.039610
  0
VERTEX
  8
PLAN_1
  6
CONTINUOUS
 10
0.768197
 20
-4.053488
  0
VERTEX
  8
PLAN_1
  6
CONTINUOUS
 10
0.768197
 20
-4.057598
  0
VERTEX
  8
PLAN_1
  6
CONTINUOUS
 10
0.768709
 20
-4.061713
  0
VERTEX
  8
PLAN_1
  6
CONTINUOUS
 10
0.769224
 20
-4.065311
  0
VERTEX
  8
PLAN_1
  6
CONTINUOUS
 10
0.770252
 20
-4.068394
  0
VERTEX
  8
PLAN_1
  6
CONTINUOUS
 10
0.771280
 20
-4.071476
  0
VERTEX
  8
PLAN_1
  6
CONTINUOUS
 10
0.772823
 20
-4.074047
  0
VERTEX
  8
PLAN_1
  6
CONTINUOUS
 10
0.774362
 20
-4.076618
  0
VERTEX
  8
PLAN_1
  6
CONTINUOUS
 10
0.776421
 20
-4.078673
  0
VERTEX
  8
PLAN_1
  6
CONTINUOUS
 10
0.778476
 20
-4.080217
  0
VERTEX
  8
PLAN_1
  6
CONTINUOUS
 10
0.780531
 20
-4.081760
  0
VERTEX
  8
PLAN_1
  6
CONTINUOUS
 10
0.783102
 20
-4.083299
  0
VERTEX
  8
PLAN_1
  6
CONTINUOUS
 10
0.785673
 20
-4.084327
  0
VERTEX
  8
PLAN_1
  6
CONTINUOUS
 10
0.791839
 20
-4.085354
  0
VERTEX
  8
PLAN_1
  6
CONTINUOUS
 10
0.798008
 20
-4.085870
  0
VERTEX
  8
PLAN_1
  6
CONTINUOUS
 10
0.802634
 20
-4.085870
  0
VERTEX
  8
PLAN_1
  6
CONTINUOUS
 10
0.806744
 20
-4.085354
  0
VERTEX
  8
PLAN_1
  6
CONTINUOUS
 10
0.810343
 20
-4.084327
  0
VERTEX
  8
PLAN_1
  6
CONTINUOUS
 10
0.813941
 20
-4.083299
  0
VERTEX
  8
PLAN_1
  6
CONTINUOUS
 10
0.816512
 20
-4.081760
  0
VERTEX
  8
PLAN_1
  6
CONTINUOUS
 10
0.819083
 20
-4.080217
  0
VERTEX
  8
PLAN_1
  6
CONTINUOUS
 10
0.821654
 20
-4.078161
  0
VERTEX
  8
PLAN_1
  6
CONTINUOUS
 10
0.823709
 20
-4.076102
  0
VERTEX
  8
PLAN_1
  6
CONTINUOUS
 10
0.825248
 20
-4.073535
  0
VERTEX
  8
PLAN_1
  6
CONTINUOUS
 10
0.826791
 20
-4.070965
  0
VERTEX
  8
PLAN_1
  6
CONTINUOUS
 10
0.827819
 20
-4.068394
  0
VERTEX
  8
PLAN_1
  6
CONTINUOUS
 10
0.828846
 20
-4.065311
  0
VERTEX
  8
PLAN_1
  6
CONTINUOUS
 10
0.829878
 20
-4.058630
  0
VERTEX
  8
PLAN_1
  6
CONTINUOUS
 10
0.830390
 20
-4.051433
  0
VERTEX
  8
PLAN_1
  6
CONTINUOUS
 10
0.830390
 20
-3.904429
  0
VERTEX
  8
PLAN_1
  6
CONTINUOUS
 10
0.857118
 20
-3.904429
  0
VERTEX
  8
PLAN_1
  6
CONTINUOUS
 10
0.857118
 20
-4.049890
  0
VERTEX
  8
PLAN_1
  6
CONTINUOUS
 10
0.856602
 20
-4.058114
  0
VERTEX
  8
PLAN_1
  6
CONTINUOUS
 10
0.855575
 20
-4.065823
  0
VERTEX
  8
PLAN_1
  6
CONTINUOUS
 10
0.854035
 20
-4.072508
  0
VERTEX
  8
PLAN_1
  6
CONTINUOUS
 10
0.851976
 20
-4.078673
  0
VERTEX
  8
PLAN_1
  6
CONTINUOUS
 10
0.849409
 20
-4.084327
  0
VERTEX
  8
PLAN_1
  6
CONTINUOUS
 10
0.845811
 20
-4.088953
  0
VERTEX
  8
PLAN_1
  6
CONTINUOUS
 10
0.842213
 20
-4.093067
  0
VERTEX
  8
PLAN_1
  6
CONTINUOUS
 10
0.838614
 20
-4.097177
  0
VERTEX
  8
PLAN_1
  6
CONTINUOUS
 10
0.833988
 20
-4.100264
  0
VERTEX
  8
PLAN_1
  6
CONTINUOUS
 10
0.829878
 20
-4.102831
  0
VERTEX
  8
PLAN_1
  6
CONTINUOUS
 10
0.824736
 20
-4.104890
  0
VERTEX
  8
PLAN_1
  6
CONTINUOUS
 10
0.820110
 20
-4.106429
  0
VERTEX
  8
PLAN_1
  6
CONTINUOUS
 10
0.814969
 20
-4.107457
  0
VERTEX
  8
PLAN_1
  6
CONTINUOUS
 10
0.809831
 20
-4.108484
  0
VERTEX
  8
PLAN_1
  6
CONTINUOUS
 10
0.804689
 20
-4.109000
  0
VERTEX
  8
PLAN_1
  6
CONTINUOUS
 10
0.799551
 20
-4.109000
  0
VERTEX
  8
PLAN_1
  6
CONTINUOUS
 10
0.791327
 20
-4.108484
  0
VERTEX
  8
PLAN_1
  6
CONTINUOUS
 10
0.784130
 20
-4.107457
  0
VERTEX
  8
PLAN_1
  6
CONTINUOUS
 10
0.777449
 20
-4.105917
  0
VERTEX
  8
PLAN_1
  6
CONTINUOUS
 10
0.771280
 20
-4.103858
  0
VERTEX
  8
PLAN_1
  6
CONTINUOUS
 10
0.766142
 20
-4.101291
  0
VERTEX
  8
PLAN_1
  6
CONTINUOUS
 10
0.761516
 20
-4.098205
  0
VERTEX
  8
PLAN_1
  6
CONTINUOUS
 10
0.757402
 20
-4.094606
  0
VERTEX
  8
PLAN_1
  6
CONTINUOUS
 10
0.753803
 20
-4.091012
  0
VERTEX
  8
PLAN_1
  6
CONTINUOUS
 10
0.751232
 20
-4.087413
  0
VERTEX
  8
PLAN_1
  6
CONTINUOUS
 10
0.748665
 20
-4.083299
  0
VERTEX
  8
PLAN_1
  6
CONTINUOUS
 10
0.746606
 20
-4.079189
  0
VERTEX
  8
PLAN_1
  6
CONTINUOUS
 10
0.745579
 20
-4.075075
  0
VERTEX
  8
PLAN_1
  6
CONTINUOUS
 10
0.744039
 20
-4.070965
  0
VERTEX
  8
PLAN_1
  6
CONTINUOUS
 10
0.743524
 20
-4.066850
  0
VERTEX
  8
PLAN_1
  6
CONTINUOUS
 10
0.743012
 20
-4.062740
  0
VERTEX
  8
PLAN_1
  6
CONTINUOUS
 10
0.743012
 20
-4.059142
  0
VERTEX
  8
PLAN_1
  6
CONTINUOUS
 10
0.743012
 20
-4.039610
  0
VERTEX
  8
PLAN_1
  6
CONTINUOUS
 10
0.768197
 20
-4.039610
  0
SEQEND
  8
0
  0
POLYLINE
  8
PLAN_1
  6
CONTINUOUS
 66
     1
 40
0.003000
 41
0.003000
  0
VERTEX
  8
PLAN_1
  6
CONTINUOUS
 10
1.061177
 20
-3.949146
  0
VERTEX
  8
PLAN_1
  6
CONTINUOUS
 10
1.079681
 20
-3.949146
  0
VERTEX
  8
PLAN_1
  6
CONTINUOUS
 10
1.075567
 20
-3.964051
  0
VERTEX
  8
PLAN_1
  6
CONTINUOUS
 10
1.071457
 20
-3.978957
  0
VERTEX
  8
PLAN_1
  6
CONTINUOUS
 10
1.067343
 20
-3.993350
  0
VERTEX
  8
PLAN_1
  6
CONTINUOUS
 10
1.063232
 20
-4.006201
  0
VERTEX
  8
PLAN_1
  6
CONTINUOUS
 10
1.060150
 20
-4.018024
  0
VERTEX
  8
PLAN_1
  6
CONTINUOUS
 10
1.057063
 20
-4.028303
  0
VERTEX
  8
PLAN_1
  6
CONTINUOUS
 10
1.055524
 20
-4.035496
  0
VERTEX
  8
PLAN_1
  6
CONTINUOUS
 10
1.055008
 20
-4.040122
  0
VERTEX
  8
PLAN_1
  6
CONTINUOUS
 10
1.055008
 20
-4.041665
  0
VERTEX
  8
PLAN_1
  6
CONTINUOUS
 10
1.055008
 20
-4.043209
  0
VERTEX
  8
PLAN_1
  6
CONTINUOUS
 10
1.055524
 20
-4.044748
  0
VERTEX
  8
PLAN_1
  6
CONTINUOUS
 10
1.056035
 20
-4.045780
  0
VERTEX
  8
PLAN_1
  6
CONTINUOUS
 10
1.057063
 20
-4.046807
  0
VERTEX
  8
PLAN_1
  6
CONTINUOUS
 10
1.058091
 20
-4.047319
  0
VERTEX
  8
PLAN_1
  6
CONTINUOUS
 10
1.059118
 20
-4.047835
  0
VERTEX
  8
PLAN_1
  6
CONTINUOUS
 10
1.060661
 20
-4.047835
  0
VERTEX
  8
PLAN_1
  6
CONTINUOUS
 10
1.064260
 20
-4.047835
  0
VERTEX
  8
PLAN_1
  6
CONTINUOUS
 10
1.067858
 20
-4.046807
  0
VERTEX
  8
PLAN_1
  6
CONTINUOUS
 10
1.071457
 20
-4.044748
  0
VERTEX
  8
PLAN_1
  6
CONTINUOUS
 10
1.074539
 20
-4.042693
  0
VERTEX
  8
PLAN_1
  6
CONTINUOUS
 10
1.078138
 20
-4.040122
  0
VERTEX
  8
PLAN_1
  6
CONTINUOUS
 10
1.081220
 20
-4.037039
  0
VERTEX
  8
PLAN_1
  6
CONTINUOUS
 10
1.084307
 20
-4.032929
  0
VERTEX
  8
PLAN_1
  6
CONTINUOUS
 10
1.087390
 20
-4.029331
  0
VERTEX
  8
PLAN_1
  6
CONTINUOUS
 10
1.089961
 20
-4.024705
  0
VERTEX
  8
PLAN_1
  6
CONTINUOUS
 10
1.092531
 20
-4.020079
  0
VERTEX
  8
PLAN_1
  6
CONTINUOUS
 10
1.094587
 20
-4.014937
  0
VERTEX
  8
PLAN_1
  6
CONTINUOUS
 10
1.096642
 20
-4.009799
  0
VERTEX
  8
PLAN_1
  6
CONTINUOUS
 10
1.098185
 20
-4.004657
  0
VERTEX
  8
PLAN_1
  6
CONTINUOUS
 10
1.099213
 20
-3.999004
  0
VERTEX
  8
PLAN_1
  6
CONTINUOUS
 10
1.099724
 20
-3.993350
  0
VERTEX
  8
PLAN_1
  6
CONTINUOUS
 10
1.100240
 20
-3.988209
  0
VERTEX
  8
PLAN_1
  6
CONTINUOUS
 10
1.099724
 20
-3.979984
  0
VERTEX
  8
PLAN_1
  6
CONTINUOUS
 10
1.098697
 20
-3.972276
  0
VERTEX
  8
PLAN_1
  6
CONTINUOUS
 10
1.096642
 20
-3.965079
  0
VERTEX
  8
PLAN_1
  6
CONTINUOUS
 10
1.094071
 20
-3.957886
  0
VERTEX
  8
PLAN_1
  6
CONTINUOUS
 10
1.090472
 20
-3.951717
  0
VERTEX
  8
PLAN_1
  6
CONTINUOUS
 10
1.086362
 20
-3.945547
  0
VERTEX
  8
PLAN_1
  6
CONTINUOUS
 10
1.082248
 20
-3.940409
  0
VERTEX
  8
PLAN_1
  6
CONTINUOUS
 10
1.077110
 20
-3.935268
  0
VERTEX
  8
PLAN_1
  6
CONTINUOUS
 10
1.071457
 20
-3.931157
  0
VERTEX
  8
PLAN_1
  6
CONTINUOUS
 10
1.065287
 20
-3.927559
  0
VERTEX
  8
PLAN_1
  6
CONTINUOUS
 10
1.059118
 20
-3.923961
  0
VERTEX
  8
PLAN_1
  6
CONTINUOUS
 10
1.052437
 20
-3.921390
  0
VERTEX
  8
PLAN_1
  6
CONTINUOUS
 10
1.045240
 20
-3.919335
  0
VERTEX
  8
PLAN_1
  6
CONTINUOUS
 10
1.038047
 20
-3.917791
  0
VERTEX
  8
PLAN_1
  6
CONTINUOUS
 10
1.030335
 20
-3.916764
  0
VERTEX
  8
PLAN_1
  6
CONTINUOUS
 10
1.022626
 20
-3.916248
  0
VERTEX
  8
PLAN_1
  6
CONTINUOUS
 10
1.013374
 20
-3.916764
  0
VERTEX
  8
PLAN_1
  6
CONTINUOUS
 10
1.004638
 20
-3.918307
  0
VERTEX
  8
PLAN_1
  6
CONTINUOUS
 10
0.996413
 20
-3.920362
  0
VERTEX
  8
PLAN_1
  6
CONTINUOUS
 10
0.988701
 20
-3.923445
  0
VERTEX
  8
PLAN_1
  6
CONTINUOUS
 10
0.980992
 20
-3.927043
  0
VERTEX
  8
PLAN_1
  6
CONTINUOUS
 10
0.974311
 20
-3.931669
  0
VERTEX
  8
PLAN_1
  6
CONTINUOUS
 10
0.967630
 20
-3.936811
  0
VERTEX
  8
PLAN_1
  6
CONTINUOUS
 10
0.961972
 20
-3.942465
  0
VERTEX
  8
PLAN_1
  6
CONTINUOUS
 10
0.956835
 20
-3.948634
  0
VERTEX
  8
PLAN_1
  6
CONTINUOUS
 10
0.951693
 20
-3.955315
  0
VERTEX
  8
PLAN_1
  6
CONTINUOUS
 10
0.948094
 20
-3.963024
  0
VERTEX
  8
PLAN_1
  6
CONTINUOUS
 10
0.944496
 20
-3.970732
  0
VERTEX
  8
PLAN_1
  6
CONTINUOUS
 10
0.941929
 20
-3.978957
  0
VERTEX
  8
PLAN_1
  6
CONTINUOUS
 10
0.939870
 20
-3.987181
  0
VERTEX
  8
PLAN_1
  6
CONTINUOUS
 10
0.938843
 20
-3.995921
  0
VERTEX
  8
PLAN_1
  6
CONTINUOUS
 10
0.938331
 20
-4.005173
  0
VERTEX
  8
PLAN_1
  6
CONTINUOUS
 10
0.938843
 20
-4.014425
  0
VERTEX
  8
PLAN_1
  6
CONTINUOUS
 10
0.939870
 20
-4.023161
  0
VERTEX
  8
PLAN_1
  6
CONTINUOUS
 10
0.941929
 20
-4.031386
  0
VERTEX
  8
PLAN_1
  6
CONTINUOUS
 10
0.945012
 20
-4.039610
  0
VERTEX
  8
PLAN_1
  6
CONTINUOUS
 10
0.948610
 20
-4.046807
  0
VERTEX
  8
PLAN_1
  6
CONTINUOUS
 10
0.952720
 20
-4.054004
  0
VERTEX
  8
PLAN_1
  6
CONTINUOUS
 10
0.957862
 20
-4.060685
  0
VERTEX
  8
PLAN_1
  6
CONTINUOUS
 10
0.963004
 20
-4.066850
  0
VERTEX
  8
PLAN_1
  6
CONTINUOUS
 10
0.969169
 20
-4.072508
  0
VERTEX
  8
PLAN_1
  6
CONTINUOUS
 10
0.975850
 20
-4.077134
  0
VERTEX
  8
PLAN_1
  6
CONTINUOUS
 10
0.983047
 20
-4.081760
  0
VERTEX
  8
PLAN_1
  6
CONTINUOUS
 10
0.990760
 20
-4.085354
  0
VERTEX
  8
PLAN_1
  6
CONTINUOUS
 10
0.998469
 20
-4.087925
  0
VERTEX
  8
PLAN_1
  6
CONTINUOUS
 10
1.006693
 20
-4.089980
  0
VERTEX
  8
PLAN_1
  6
CONTINUOUS
 10
1.015429
 20
-4.091524
  0
VERTEX
  8
PLAN_1
  6
CONTINUOUS
 10
1.024681
 20
-4.092039
  0
VERTEX
  8
PLAN_1
  6
CONTINUOUS
 10
1.029307
 20
-4.091524
  0
VERTEX
  8
PLAN_1
  6
CONTINUOUS
 10
1.034449
 20
-4.091012
  0
VERTEX
  8
PLAN_1
  6
CONTINUOUS
 10
1.039075
 20
-4.090496
  0
VERTEX
  8
PLAN_1
  6
CONTINUOUS
 10
1.043701
 20
-4.089469
  0
VERTEX
  8
PLAN_1
  6
CONTINUOUS
 10
1.048327
 20
-4.088441
  0
VERTEX
  8
PLAN_1
  6
CONTINUOUS
 10
1.052953
 20
-4.086898
  0
VERTEX
  8
PLAN_1
  6
CONTINUOUS
 10
1.057579
 20
-4.085354
  0
VERTEX
  8
PLAN_1
  6
CONTINUOUS
 10
1.062205
 20
-4.083299
  0
VERTEX
  8
PLAN_1
  6
CONTINUOUS
 10
1.066315
 20
-4.081244
  0
VERTEX
  8
PLAN_1
  6
CONTINUOUS
 10
1.070429
 20
-4.078673
  0
VERTEX
  8
PLAN_1
  6
CONTINUOUS
 10
1.074539
 20
-4.076102
  0
VERTEX
  8
PLAN_1
  6
CONTINUOUS
 10
1.078654
 20
-4.073535
  0
VERTEX
  8
PLAN_1
  6
CONTINUOUS
 10
1.082248
 20
-4.070449
  0
VERTEX
  8
PLAN_1
  6
CONTINUOUS
 10
1.085846
 20
-4.066850
  0
VERTEX
  8
PLAN_1
  6
CONTINUOUS
 10
1.088933
 20
-4.063768
  0
VERTEX
  8
PLAN_1
  6
CONTINUOUS
 10
1.092016
 20
-4.060169
  0
VERTEX
  8
PLAN_1
  6
CONTINUOUS
 10
1.110520
 20
-4.060169
  0
VERTEX
  8
PLAN_1
  6
CONTINUOUS
 10
1.106921
 20
-4.065823
  0
VERTEX
  8
PLAN_1
  6
CONTINUOUS
 10
1.103323
 20
-4.070965
  0
VERTEX
  8
PLAN_1
  6
CONTINUOUS
 10
1.099213
 20
-4.076102
  0
VERTEX
  8
PLAN_1
  6
CONTINUOUS
 10
1.094587
 20
-4.080728
  0
VERTEX
  8
PLAN_1
  6
CONTINUOUS
 10
1.089445
 20
-4.084843
  0
VERTEX
  8
PLAN_1
  6
CONTINUOUS
 10
1.084819
 20
-4.088953
  0
VERTEX
  8
PLAN_1
  6
CONTINUOUS
 10
1.079165
 20
-4.092551
  0
VERTEX
  8
PLAN_1
  6
CONTINUOUS
 10
1.074028
 20
-4.096150
  0
VERTEX
  8
PLAN_1
  6
CONTINUOUS
 10
1.068370
 20
-4.098720
  0
VERTEX
  8
PLAN_1
  6
CONTINUOUS
 10
1.062205
 20
-4.101291
  0
VERTEX
  8
PLAN_1
  6
CONTINUOUS
 10
1.056035
 20
-4.103858
  0
VERTEX
  8
PLAN_1
  6
CONTINUOUS
 10
1.049866
 20
-4.105402
  0
VERTEX
  8
PLAN_1
  6
CONTINUOUS
 10
1.043701
 20
-4.106945
  0
VERTEX
  8
PLAN_1
  6
CONTINUOUS
 10
1.037020
 20
-4.107972
  0
VERTEX
  8
PLAN_1
  6
CONTINUOUS
 10
1.030850
 20
-4.109000
  0
VERTEX
  8
PLAN_1
  6
CONTINUOUS
 10
1.024169
 20
-4.109000
  0
VERTEX
  8
PLAN_1
  6
CONTINUOUS
 10
1.018516
 20
-4.109000
  0
VERTEX
  8
PLAN_1
  6
CONTINUOUS
 10
1.012858
 20
-4.108484
  0
VERTEX
  8
PLAN_1
  6
CONTINUOUS
 10
1.007720
 20
-4.107972
  0
VERTEX
  8
PLAN_1
  6
CONTINUOUS
 10
1.002579
 20
-4.106945
  0
VERTEX
  8
PLAN_1
  6
CONTINUOUS
 10
0.997441
 20
-4.105917
  0
VERTEX
  8
PLAN_1
  6
CONTINUOUS
 10
0.992299
 20
-4.104374
  0
VERTEX
  8
PLAN_1
  6
CONTINUOUS
 10
0.987161
 20
-4.102831
  0
VERTEX
  8
PLAN_1
  6
CONTINUOUS
 10
0.982535
 20
-4.100776
  0
VERTEX
  8
PLAN_1
  6
CONTINUOUS
 10
0.973283
 20
-4.096665
  0
VERTEX
  8
PLAN_1
  6
CONTINUOUS
 10
0.964543
 20
-4.091012
  0
VERTEX
  8
PLAN_1
  6
CONTINUOUS
 10
0.956319
 20
-4.085354
  0
VERTEX
  8
PLAN_1
  6
CONTINUOUS
 10
0.948610
 20
-4.078673
  0
VERTEX
  8
PLAN_1
  6
CONTINUOUS
 10
0.941929
 20
-4.070965
  0
VERTEX
  8
PLAN_1
  6
CONTINUOUS
 10
0.935760
 20
-4.062740
  0
VERTEX
  8
PLAN_1
  6
CONTINUOUS
 10
0.930618
 20
-4.054004
  0
VERTEX
  8
PLAN_1
  6
CONTINUOUS
 10
0.925992
 20
-4.044748
  0
VERTEX
  8
PLAN_1
  6
CONTINUOUS
 10
0.924453
 20
-4.040122
  0
VERTEX
  8
PLAN_1
  6
CONTINUOUS
 10
0.922909
 20
-4.034984
  0
VERTEX
  8
PLAN_1
  6
CONTINUOUS
 10
0.921366
 20
-4.030358
  0
VERTEX
  8
PLAN_1
  6
CONTINUOUS
 10
0.920339
 20
-4.025217
  0
VERTEX
  8
PLAN_1
  6
CONTINUOUS
 10
0.919311
 20
-4.019563
  0
VERTEX
  8
PLAN_1
  6
CONTINUOUS
 10
0.918283
 20
-4.014425
  0
VERTEX
  8
PLAN_1
  6
CONTINUOUS
 10
0.918283
 20
-4.009283
  0
VERTEX
  8
PLAN_1
  6
CONTINUOUS
 10
0.917772
 20
-4.003630
  0
VERTEX
  8
PLAN_1
  6
CONTINUOUS
 10
0.918283
 20
-3.997976
  0
VERTEX
  8
PLAN_1
  6
CONTINUOUS
 10
0.918283
 20
-3.992835
  0
VERTEX
  8
PLAN_1
  6
CONTINUOUS
 10
0.919311
 20
-3.987697
  0
VERTEX
  8
PLAN_1
  6
CONTINUOUS
 10
0.920339
 20
-3.982555
  0
VERTEX
  8
PLAN_1
  6
CONTINUOUS
 10
0.921366
 20
-3.977417
  0
VERTEX
  8
PLAN_1
  6
CONTINUOUS
 10
0.922909
 20
-3.972276
  0
VERTEX
  8
PLAN_1
  6
CONTINUOUS
 10
0.924453
 20
-3.967650
  0
VERTEX
  8
PLAN_1
  6
CONTINUOUS
 10
0.926508
 20
-3.962512
  0
VERTEX
  8
PLAN_1
  6
CONTINUOUS
 10
0.930618
 20
-3.953772
  0
VERTEX
  8
PLAN_1
  6
CONTINUOUS
 10
0.935760
 20
-3.945035
  0
VERTEX
  8
PLAN_1
  6
CONTINUOUS
 10
0.941929
 20
-3.936811
  0
VERTEX
  8
PLAN_1
  6
CONTINUOUS
 10
0.948610
 20
-3.929614
  0
VERTEX
  8
PLAN_1
  6
CONTINUOUS
 10
0.956319
 20
-3.922933
  0
VERTEX
  8
PLAN_1
  6
CONTINUOUS
 10
0.964543
 20
-3.916764
  0
VERTEX
  8
PLAN_1
  6
CONTINUOUS
 10
0.972768
 20
-3.911622
  0
VERTEX
  8
PLAN_1
  6
CONTINUOUS
 10
0.982020
 20
-3.907512
  0
VERTEX
  8
PLAN_1
  6
CONTINUOUS
 10
0.991787
 20
-3.903913
  0
VERTEX
  8
PLAN_1
  6
CONTINUOUS
 10
1.001551
 20
-3.901343
  0
VERTEX
  8
PLAN_1
  6
CONTINUOUS
 10
1.006693
 20
-3.900315
  0
VERTEX
  8
PLAN_1
  6
CONTINUOUS
 10
1.011831
 20
-3.899803
  0
VERTEX
  8
PLAN_1
  6
CONTINUOUS
 10
1.017484
 20
-3.899287
  0
VERTEX
  8
PLAN_1
  6
CONTINUOUS
 10
1.022626
 20
-3.899287
  0
VERTEX
  8
PLAN_1
  6
CONTINUOUS
 10
1.032394
 20
-3.899803
  0
VERTEX
  8
PLAN_1
  6
CONTINUOUS
 10
1.041646
 20
-3.900831
  0
VERTEX
  8
PLAN_1
  6
CONTINUOUS
 10
1.050382
 20
-3.902886
  0
VERTEX
  8
PLAN_1
  6
CONTINUOUS
 10
1.059118
 20
-3.905457
  0
VERTEX
  8
PLAN_1
  6
CONTINUOUS
 10
1.067343
 20
-3.909055
  0
VERTEX
  8
PLAN_1
  6
CONTINUOUS
 10
1.075567
 20
-3.913165
  0
VERTEX
  8
PLAN_1
  6
CONTINUOUS
 10
1.082764
 20
-3.918307
  0
VERTEX
  8
PLAN_1
  6
CONTINUOUS
 10
1.089445
 20
-3.923445
  0
VERTEX
  8
PLAN_1
  6
CONTINUOUS
 10
1.095614
 20
-3.929614
  0
VERTEX
  8
PLAN_1
  6
CONTINUOUS
 10
1.101268
 20
-3.936295
  0
VERTEX
  8
PLAN_1
  6
CONTINUOUS
 10
1.106409
 20
-3.943492
  0
VERTEX
  8
PLAN_1
  6
CONTINUOUS
 10
1.110520
 20
-3.950689
  0
VERTEX
  8
PLAN_1
  6
CONTINUOUS
 10
1.113602
 20
-3.958913
  0
VERTEX
  8
PLAN_1
  6
CONTINUOUS
 10
1.116173
 20
-3.967650
  0
VERTEX
  8
PLAN_1
  6
CONTINUOUS
 10
1.117717
 20
-3.976390
  0
VERTEX
  8
PLAN_1
  6
CONTINUOUS
 10
1.118228
 20
-3.985642
  0
VERTEX
  8
PLAN_1
  6
CONTINUOUS
 10
1.117717
 20
-3.994894
  0
VERTEX
  8
PLAN_1
  6
CONTINUOUS
 10
1.116173
 20
-4.003630
  0
VERTEX
  8
PLAN_1
  6
CONTINUOUS
 10
1.114118
 20
-4.011854
  0
VERTEX
  8
PLAN_1
  6
CONTINUOUS
 10
1.111035
 20
-4.019563
  0
VERTEX
  8
PLAN_1
  6
CONTINUOUS
 10
1.107437
 20
-4.026760
  0
VERTEX
  8
PLAN_1
  6
CONTINUOUS
 10
1.103839
 20
-4.033441
  0
VERTEX
  8
PLAN_1
  6
CONTINUOUS
 10
1.099213
 20
-4.039094
  0
VERTEX
  8
PLAN_1
  6
CONTINUOUS
 10
1.094071
 20
-4.044748
  0
VERTEX
  8
PLAN_1
  6
CONTINUOUS
 10
1.088933
 20
-4.049378
  0
VERTEX
  8
PLAN_1
  6
CONTINUOUS
 10
1.083791
 20
-4.054004
  0
VERTEX
  8
PLAN_1
  6
CONTINUOUS
 10
1.078138
 20
-4.057598
  0
VERTEX
  8
PLAN_1
  6
CONTINUOUS
 10
1.072484
 20
-4.060685
  0
VERTEX
  8
PLAN_1
  6
CONTINUOUS
 10
1.066831
 20
-4.062740
  0
VERTEX
  8
PLAN_1
  6
CONTINUOUS
 10
1.061689
 20
-4.064795
  0
VERTEX
  8
PLAN_1
  6
CONTINUOUS
 10
1.056551
 20
-4.065823
  0
VERTEX
  8
PLAN_1
  6
CONTINUOUS
 10
1.051925
 20
-4.065823
  0
VERTEX
  8
PLAN_1
  6
CONTINUOUS
 10
1.048327
 20
-4.065823
  0
VERTEX
  8
PLAN_1
  6
CONTINUOUS
 10
1.045240
 20
-4.064795
  0
VERTEX
  8
PLAN_1
  6
CONTINUOUS
 10
1.042157
 20
-4.063768
  0
VERTEX
  8
PLAN_1
  6
CONTINUOUS
 10
1.039587
 20
-4.061713
  0
VERTEX
  8
PLAN_1
  6
CONTINUOUS
 10
1.037531
 20
-4.059142
  0
VERTEX
  8
PLAN_1
  6
CONTINUOUS
 10
1.035476
 20
-4.056059
  0
VERTEX
  8
PLAN_1
  6
CONTINUOUS
 10
1.034449
 20
-4.052461
  0
VERTEX
  8
PLAN_1
  6
CONTINUOUS
 10
1.033933
 20
-4.048346
  0
VERTEX
  8
PLAN_1
  6
CONTINUOUS
 10
1.033421
 20
-4.048862
  0
VERTEX
  8
PLAN_1
  6
CONTINUOUS
 10
1.030335
 20
-4.051945
  0
VERTEX
  8
PLAN_1
  6
CONTINUOUS
 10
1.026736
 20
-4.055031
  0
VERTEX
  8
PLAN_1
  6
CONTINUOUS
 10
1.022626
 20
-4.058114
  0
VERTEX
  8
PLAN_1
  6
CONTINUOUS
 10
1.018516
 20
-4.060685
  0
VERTEX
  8
PLAN_1
  6
CONTINUOUS
 10
1.014402
 20
-4.062740
  0
VERTEX
  8
PLAN_1
  6
CONTINUOUS
 10
1.009776
 20
-4.064283
  0
VERTEX
  8
PLAN_1
  6
CONTINUOUS
 10
1.005150
 20
-4.065823
  0
VERTEX
  8
PLAN_1
  6
CONTINUOUS
 10
1.000012
 20
-4.065823
  0
VERTEX
  8
PLAN_1
  6
CONTINUOUS
 10
0.995898
 20
-4.065823
  0
VERTEX
  8
PLAN_1
  6
CONTINUOUS
 10
0.991272
 20
-4.065311
  0
VERTEX
  8
PLAN_1
  6
CONTINUOUS
 10
0.987673
 20
-4.063768
  0
VERTEX
  8
PLAN_1
  6
CONTINUOUS
 10
0.983563
 20
-4.062224
  0
VERTEX
  8
PLAN_1
  6
CONTINUOUS
 10
0.979965
 20
-4.060685
  0
VERTEX
  8
PLAN_1
  6
CONTINUOUS
 10
0.976882
 20
-4.058114
  0
VERTEX
  8
PLAN_1
  6
CONTINUOUS
 10
0.973795
 20
-4.055543
  0
VERTEX
  8
PLAN_1
  6
CONTINUOUS
 10
0.970713
 20
-4.052972
  0
VERTEX
  8
PLAN_1
  6
CONTINUOUS
 10
0.968142
 20
-4.049890
  0
VERTEX
  8
PLAN_1
  6
CONTINUOUS
 10
0.966087
 20
-4.046291
  0
VERTEX
  8
PLAN_1
  6
CONTINUOUS
 10
0.964031
 20
-4.042693
  0
VERTEX
  8
PLAN_1
  6
CONTINUOUS
 10
0.962488
 20
-4.038583
  0
VERTEX
  8
PLAN_1
  6
CONTINUOUS
 10
0.960945
 20
-4.034469
  0
VERTEX
  8
PLAN_1
  6
CONTINUOUS
 10
0.959917
 20
-4.030358
  0
VERTEX
  8
PLAN_1
  6
CONTINUOUS
 10
0.959406
 20
-4.026244
  0
VERTEX
  8
PLAN_1
  6
CONTINUOUS
 10
0.959406
 20
-4.021618
  0
VERTEX
  8
PLAN_1
  6
CONTINUOUS
 10
0.959406
 20
-4.014425
  0
VERTEX
  8
PLAN_1
  6
CONTINUOUS
 10
0.960433
 20
-4.007740
  0
VERTEX
  8
PLAN_1
  6
CONTINUOUS
 10
0.961972
 20
-4.000547
  0
VERTEX
  8
PLAN_1
  6
CONTINUOUS
 10
0.964031
 20
-3.993862
  0
VERTEX
  8
PLAN_1
  6
CONTINUOUS
 10
0.966598
 20
-3.987181
  0
VERTEX
  8
PLAN_1
  6
CONTINUOUS
 10
0.969685
 20
-3.981016
  0
VERTEX
  8
PLAN_1
  6
CONTINUOUS
 10
0.972768
 20
-3.974846
  0
VERTEX
  8
PLAN_1
  6
CONTINUOUS
 10
0.976882
 20
-3.969193
  0
VERTEX
  8
PLAN_1
  6
CONTINUOUS
 10
0.981508
 20
-3.964051
  0
VERTEX
  8
PLAN_1
  6
CONTINUOUS
 10
0.986134
 20
-3.959425
  0
VERTEX
  8
PLAN_1
  6
CONTINUOUS
 10
0.991272
 20
-3.955315
  0
VERTEX
  8
PLAN_1
  6
CONTINUOUS
 10
0.996925
 20
-3.951717
  0
VERTEX
  8
PLAN_1
  6
CONTINUOUS
 10
1.003094
 20
-3.948634
  0
VERTEX
  8
PLAN_1
  6
CONTINUOUS
 10
1.009776
 20
-3.946575
  0
VERTEX
  8
PLAN_1
  6
CONTINUOUS
 10
1.016457
 20
-3.945547
  0
VERTEX
  8
PLAN_1
  6
CONTINUOUS
 10
1.023654
 20
-3.945035
  0
VERTEX
  8
PLAN_1
  6
CONTINUOUS
 10
1.028280
 20
-3.945035
  0
VERTEX
  8
PLAN_1
  6
CONTINUOUS
 10
1.032906
 20
-3.946063
  0
VERTEX
  8
PLAN_1
  6
CONTINUOUS
 10
1.037531
 20
-3.947602
  0
VERTEX
  8
PLAN_1
  6
CONTINUOUS
 10
1.041646
 20
-3.950173
  0
VERTEX
  8
PLAN_1
  6
CONTINUOUS
 10
1.045756
 20
-3.952744
  0
VERTEX
  8
PLAN_1
  6
CONTINUOUS
 10
1.049354
 20
-3.956854
  0
VERTEX
  8
PLAN_1
  6
CONTINUOUS
 10
1.052437
 20
-3.960969
  0
VERTEX
  8
PLAN_1
  6
CONTINUOUS
 10
1.055524
 20
-3.966622
  0
VERTEX
  8
PLAN_1
  6
CONTINUOUS
 10
1.061177
 20
-3.949146
  0
SEQEND
  8
0
  0
POLYLINE
  8
PLAN_1
  6
CONTINUOUS
 66
     1
 40
0.003000
 41
0.003000
  0
VERTEX
  8
PLAN_1
  6
CONTINUOUS
 10
1.024169
 20
-3.965079
  0
VERTEX
  8
PLAN_1
  6
CONTINUOUS
 10
1.019543
 20
-3.965079
  0
VERTEX
  8
PLAN_1
  6
CONTINUOUS
 10
1.014917
 20
-3.966106
  0
VERTEX
  8
PLAN_1
  6
CONTINUOUS
 10
1.010803
 20
-3.968165
  0
VERTEX
  8
PLAN_1
  6
CONTINUOUS
 10
1.007205
 20
-3.970220
  0
VERTEX
  8
PLAN_1
  6
CONTINUOUS
 10
1.003094
 20
-3.972791
  0
VERTEX
  8
PLAN_1
  6
CONTINUOUS
 10
1.000012
 20
-3.975874
  0
VERTEX
  8
PLAN_1
  6
CONTINUOUS
 10
0.996925
 20
-3.979472
  0
VERTEX
  8
PLAN_1
  6
CONTINUOUS
 10
0.993843
 20
-3.983583
  0
VERTEX
  8
PLAN_1
  6
CONTINUOUS
 10
0.991272
 20
-3.987697
  0
VERTEX
  8
PLAN_1
  6
CONTINUOUS
 10
0.988701
 20
-3.991807
  0
VERTEX
  8
PLAN_1
  6
CONTINUOUS
 10
0.986646
 20
-3.996433
  0
VERTEX
  8
PLAN_1
  6
CONTINUOUS
 10
0.985102
 20
-4.001059
  0
VERTEX
  8
PLAN_1
  6
CONTINUOUS
 10
0.984075
 20
-4.005685
  0
VERTEX
  8
PLAN_1
  6
CONTINUOUS
 10
0.983047
 20
-4.010311
  0
VERTEX
  8
PLAN_1
  6
CONTINUOUS
 10
0.982535
 20
-4.014425
  0
VERTEX
  8
PLAN_1
  6
CONTINUOUS
 10
0.982020
 20
-4.019051
  0
VERTEX
  8
PLAN_1
  6
CONTINUOUS
 10
0.982535
 20
-4.024705
  0
VERTEX
  8
PLAN_1
  6
CONTINUOUS
 10
0.983563
 20
-4.029843
  0
VERTEX
  8
PLAN_1
  6
CONTINUOUS
 10
0.985618
 20
-4.034469
  0
VERTEX
  8
PLAN_1
  6
CONTINUOUS
 10
0.988701
 20
-4.038583
  0
VERTEX
  8
PLAN_1
  6
CONTINUOUS
 10
0.991787
 20
-4.041665
  0
VERTEX
  8
PLAN_1
  6
CONTINUOUS
 10
0.995898
 20
-4.044236
  0
VERTEX
  8
PLAN_1
  6
CONTINUOUS
 10
0.997953
 20
-4.044748
  0
VERTEX
  8
PLAN_1
  6
CONTINUOUS
 10
1.000524
 20
-4.045264
  0
VERTEX
  8
PLAN_1
  6
CONTINUOUS
 10
1.003094
 20
-4.045780
  0
VERTEX
  8
PLAN_1
  6
CONTINUOUS
 10
1.005665
 20
-4.045780
  0
VERTEX
  8
PLAN_1
  6
CONTINUOUS
 10
1.009776
 20
-4.045780
  0
VERTEX
  8
PLAN_1
  6
CONTINUOUS
 10
1.013890
 20
-4.044748
  0
VERTEX
  8
PLAN_1
  6
CONTINUOUS
 10
1.018000
 20
-4.042693
  0
VERTEX
  8
PLAN_1
  6
CONTINUOUS
 10
1.021598
 20
-4.040638
  0
VERTEX
  8
PLAN_1
  6
CONTINUOUS
 10
1.025709
 20
-4.037555
  0
VERTEX
  8
PLAN_1
  6
CONTINUOUS
 10
1.028795
 20
-4.034469
  0
VERTEX
  8
PLAN_1
  6
CONTINUOUS
 10
1.031878
 20
-4.030358
  0
VERTEX
  8
PLAN_1
  6
CONTINUOUS
 10
1.034961
 20
-4.026760
  0
VERTEX
  8
PLAN_1
  6
CONTINUOUS
 10
1.037531
 20
-4.022134
  0
VERTEX
  8
PLAN_1
  6
CONTINUOUS
 10
1.040102
 20
-4.018024
  0
VERTEX
  8
PLAN_1
  6
CONTINUOUS
 10
1.042157
 20
-4.013398
  0
VERTEX
  8
PLAN_1
  6
CONTINUOUS
 10
1.043701
 20
-4.008772
  0
VERTEX
  8
PLAN_1
  6
CONTINUOUS
 10
1.044728
 20
-4.003630
  0
VERTEX
  8
PLAN_1
  6
CONTINUOUS
 10
1.045756
 20
-3.999004
  0
VERTEX
  8
PLAN_1
  6
CONTINUOUS
 10
1.046783
 20
-3.994894
  0
VERTEX
  8
PLAN_1
  6
CONTINUOUS
 10
1.046783
 20
-3.990268
  0
VERTEX
  8
PLAN_1
  6
CONTINUOUS
 10
1.046272
 20
-3.985642
  0
VERTEX
  8
PLAN_1
  6
CONTINUOUS
 10
1.044728
 20
-3.980500
  0
VERTEX
  8
PLAN_1
  6
CONTINUOUS
 10
1.042673
 20
-3.976390
  0
VERTEX
  8
PLAN_1
  6
CONTINUOUS
 10
1.040102
 20
-3.972791
  0
VERTEX
  8
PLAN_1
  6
CONTINUOUS
 10
1.036504
 20
-3.969193
  0
VERTEX
  8
PLAN_1
  6
CONTINUOUS
 10
1.032906
 20
-3.967138
  0
VERTEX
  8
PLAN_1
  6
CONTINUOUS
 10
1.028280
 20
-3.965594
  0
VERTEX
  8
PLAN_1
  6
CONTINUOUS
 10
1.024169
 20
-3.965079
  0
SEQEND
  8
0
  0
POLYLINE
  8
PLAN_1
  6
CONTINUOUS
 66
     1
 40
0.003000
 41
0.003000
  0
VERTEX
  8
PLAN_1
  6
CONTINUOUS
 10
1.211264
 20
-4.045780
  0
VERTEX
  8
PLAN_1
  6
CONTINUOUS
 10
1.190705
 20
-4.103858
  0
VERTEX
  8
PLAN_1
  6
CONTINUOUS
 10
1.162949
 20
-4.103858
  0
VERTEX
  8
PLAN_1
  6
CONTINUOUS
 10
1.237992
 20
-3.904429
  0
VERTEX
  8
PLAN_1
  6
CONTINUOUS
 10
1.268319
 20
-3.904429
  0
VERTEX
  8
PLAN_1
  6
CONTINUOUS
 10
1.340791
 20
-4.103858
  0
VERTEX
  8
PLAN_1
  6
CONTINUOUS
 10
1.310980
 20
-4.103858
  0
VERTEX
  8
PLAN_1
  6
CONTINUOUS
 10
1.291449
 20
-4.045780
  0
VERTEX
  8
PLAN_1
  6
CONTINUOUS
 10
1.211264
 20
-4.045780
  0
SEQEND
  8
0
  0
SOLID
  8
PLAN_1
 10
1.281681
 20
-4.021618
 11
1.252386
 21
-3.934240
 12
1.220004
 22
-4.021618
 13
1.251870
 23
-3.934240
  0
POLYLINE
  8
PLAN_1
  6
CONTINUOUS
 66
     1
 40
0.003000
 41
0.003000
  0
VERTEX
  8
PLAN_1
  6
CONTINUOUS
 10
1.281681
 20
-4.021618
  0
VERTEX
  8
PLAN_1
  6
CONTINUOUS
 10
1.252386
 20
-3.934240
  0
VERTEX
  8
PLAN_1
  6
CONTINUOUS
 10
1.251870
 20
-3.934240
  0
VERTEX
  8
PLAN_1
  6
CONTINUOUS
 10
1.220004
 20
-4.021618
  0
VERTEX
  8
PLAN_1
  6
CONTINUOUS
 10
1.281681
 20
-4.021618
  0
SEQEND
  8
0
  0
POLYLINE
  8
PLAN_1
  6
CONTINUOUS
 66
     1
 40
0.003000
 41
0.003000
  0
VERTEX
  8
PLAN_1
  6
CONTINUOUS
 10
1.355697
 20
-3.975358
  0
VERTEX
  8
PLAN_1
  6
CONTINUOUS
 10
1.356213
 20
-3.968677
  0
VERTEX
  8
PLAN_1
  6
CONTINUOUS
 10
1.356724
 20
-3.962512
  0
VERTEX
  8
PLAN_1
  6
CONTINUOUS
 10
1.358268
 20
-3.956343
  0
VERTEX
  8
PLAN_1
  6
CONTINUOUS
 10
1.359811
 20
-3.950173
  0
VERTEX
  8
PLAN_1
  6
CONTINUOUS
 10
1.362382
 20
-3.944008
  0
VERTEX
  8
PLAN_1
  6
CONTINUOUS
 10
1.364949
 20
-3.938866
  0
VERTEX
  8
PLAN_1
  6
CONTINUOUS
 10
1.368035
 20
-3.933724
  0
VERTEX
  8
PLAN_1
  6
CONTINUOUS
 10
1.372146
 20
-3.928587
  0
VERTEX
  8
PLAN_1
  6
CONTINUOUS
 10
1.376260
 20
-3.924472
  0
VERTEX
  8
PLAN_1
  6
CONTINUOUS
 10
1.380886
 20
-3.920362
  0
VERTEX
  8
PLAN_1
  6
CONTINUOUS
 10
1.386024
 20
-3.916764
  0
VERTEX
  8
PLAN_1
  6
CONTINUOUS
 10
1.391677
 20
-3.914193
  0
VERTEX
  8
PLAN_1
  6
CONTINUOUS
 10
1.397846
 20
-3.911622
  0
VERTEX
  8
PLAN_1
  6
CONTINUOUS
 10
1.404016
 20
-3.910083
  0
VERTEX
  8
PLAN_1
  6
CONTINUOUS
 10
1.411209
 20
-3.909055
  0
VERTEX
  8
PLAN_1
  6
CONTINUOUS
 10
1.418921
 20
-3.908539
  0
VERTEX
  8
PLAN_1
  6
CONTINUOUS
 10
1.424575
 20
-3.908539
  0
VERTEX
  8
PLAN_1
  6
CONTINUOUS
 10
1.429713
 20
-3.909055
  0
VERTEX
  8
PLAN_1
  6
CONTINUOUS
 10
1.434854
 20
-3.910083
  0
VERTEX
  8
PLAN_1
  6
CONTINUOUS
 10
1.439480
 20
-3.911110
  0
VERTEX
  8
PLAN_1
  6
CONTINUOUS
 10
1.444106
 20
-3.912654
  0
VERTEX
  8
PLAN_1
  6
CONTINUOUS
 10
1.448217
 20
-3.914193
  0
VERTEX
  8
PLAN_1
  6
CONTINUOUS
 10
1.451815
 20
-3.916248
  0
VERTEX
  8
PLAN_1
  6
CONTINUOUS
 10
1.455413
 20
-3.918307
  0
VERTEX
  8
PLAN_1
  6
CONTINUOUS
 10
1.459012
 20
-3.920878
  0
VERTEX
  8
PLAN_1
  6
CONTINUOUS
 10
1.462094
 20
-3.923445
  0
VERTEX
  8
PLAN_1
  6
CONTINUOUS
 10
1.465181
 20
-3.926016
  0
VERTEX
  8
PLAN_1
  6
CONTINUOUS
 10
1.467748
 20
-3.929098
  0
VERTEX
  8
PLAN_1
  6
CONTINUOUS
 10
1.472378
 20
-3.935268
  0
VERTEX
  8
PLAN_1
  6
CONTINUOUS
 10
1.475972
 20
-3.941949
  0
VERTEX
  8
PLAN_1
  6
CONTINUOUS
 10
1.479059
 20
-3.949146
  0
VERTEX
  8
PLAN_1
  6
CONTINUOUS
 10
1.481630
 20
-3.956343
  0
VERTEX
  8
PLAN_1
  6
CONTINUOUS
 10
1.483685
 20
-3.964051
  0
VERTEX
  8
PLAN_1
  6
CONTINUOUS
 10
1.485224
 20
-3.971764
  0
VERTEX
  8
PLAN_1
  6
CONTINUOUS
 10
1.485740
 20
-3.978957
  0
VERTEX
  8
PLAN_1
  6
CONTINUOUS
 10
1.486768
 20
-3.986154
  0
VERTEX
  8
PLAN_1
  6
CONTINUOUS
 10
1.486768
 20
-3.992835
  0
VERTEX
  8
PLAN_1
  6
CONTINUOUS
 10
1.486768
 20
-3.999004
  0
VERTEX
  8
PLAN_1
  6
CONTINUOUS
 10
1.486768
 20
-4.009799
  0
VERTEX
  8
PLAN_1
  6
CONTINUOUS
 10
1.485224
 20
-4.025217
  0
VERTEX
  8
PLAN_1
  6
CONTINUOUS
 10
1.484197
 20
-4.033957
  0
VERTEX
  8
PLAN_1
  6
CONTINUOUS
 10
1.482142
 20
-4.043209
  0
VERTEX
  8
PLAN_1
  6
CONTINUOUS
 10
1.480087
 20
-4.052461
  0
VERTEX
  8
PLAN_1
  6
CONTINUOUS
 10
1.477004
 20
-4.061713
  0
VERTEX
  8
PLAN_1
  6
CONTINUOUS
 10
1.472890
 20
-4.070965
  0
VERTEX
  8
PLAN_1
  6
CONTINUOUS
 10
1.468264
 20
-4.079701
  0
VERTEX
  8
PLAN_1
  6
CONTINUOUS
 10
1.465181
 20
-4.083815
  0
VERTEX
  8
PLAN_1
  6
CONTINUOUS
 10
1.462610
 20
-4.087925
  0
VERTEX
  8
PLAN_1
  6
CONTINUOUS
 10
1.459012
 20
-4.091524
  0
VERTEX
  8
PLAN_1
  6
CONTINUOUS
 10
1.455413
 20
-4.094606
  0
VERTEX
  8
PLAN_1
  6
CONTINUOUS
 10
1.451815
 20
-4.097693
  0
VERTEX
  8
PLAN_1
  6
CONTINUOUS
 10
1.447705
 20
-4.100776
  0
VERTEX
  8
PLAN_1
  6
CONTINUOUS
 10
1.443079
 20
-4.102831
  0
VERTEX
  8
PLAN_1
  6
CONTINUOUS
 10
1.438453
 20
-4.104890
  0
VERTEX
  8
PLAN_1
  6
CONTINUOUS
 10
1.433311
 20
-4.106945
  0
VERTEX
  8
PLAN_1
  6
CONTINUOUS
 10
1.428173
 20
-4.107972
  0
VERTEX
  8
PLAN_1
  6
CONTINUOUS
 10
1.422520
 20
-4.109000
  0
VERTEX
  8
PLAN_1
  6
CONTINUOUS
 10
1.416350
 20
-4.109000
  0
VERTEX
  8
PLAN_1
  6
CONTINUOUS
 10
1.408126
 20
-4.108484
  0
VERTEX
  8
PLAN_1
  6
CONTINUOUS
 10
1.400417
 20
-4.107457
  0
VERTEX
  8
PLAN_1
  6
CONTINUOUS
 10
1.393732
 20
-4.105917
  0
VERTEX
  8
PLAN_1
  6
CONTINUOUS
 10
1.387567
 20
-4.103346
  0
VERTEX
  8
PLAN_1
  6
CONTINUOUS
 10
1.382425
 20
-4.100776
  0
VERTEX
  8
PLAN_1
  6
CONTINUOUS
 10
1.377799
 20
-4.097693
  0
VERTEX
  8
PLAN_1
  6
CONTINUOUS
 10
1.373689
 20
-4.094094
  0
VERTEX
  8
PLAN_1
  6
CONTINUOUS
 10
1.370091
 20
-4.089980
  0
VERTEX
  8
PLAN_1
  6
CONTINUOUS
 10
1.367008
 20
-4.085870
  0
VERTEX
  8
PLAN_1
  6
CONTINUOUS
 10
1.364437
 20
-4.081760
  0
VERTEX
  8
PLAN_1
  6
CONTINUOUS
 10
1.362382
 20
-4.077134
  0
VERTEX
  8
PLAN_1
  6
CONTINUOUS
 10
1.360839
 20
-4.073020
  0
VERTEX
  8
PLAN_1
  6
CONTINUOUS
 10
1.359811
 20
-4.068394
  0
VERTEX
  8
PLAN_1
  6
CONTINUOUS
 10
1.358783
 20
-4.064283
  0
VERTEX
  8
PLAN_1
  6
CONTINUOUS
 10
1.358268
 20
-4.060685
  0
VERTEX
  8
PLAN_1
  6
CONTINUOUS
 10
1.358268
 20
-4.056571
  0
VERTEX
  8
PLAN_1
  6
CONTINUOUS
 10
1.382425
 20
-4.056571
  0
VERTEX
  8
PLAN_1
  6
CONTINUOUS
 10
1.382941
 20
-4.060169
  0
VERTEX
  8
PLAN_1
  6
CONTINUOUS
 10
1.383453
 20
-4.063768
  0
VERTEX
  8
PLAN_1
  6
CONTINUOUS
 10
1.384480
 20
-4.066850
  0
VERTEX
  8
PLAN_1
  6
CONTINUOUS
 10
1.385512
 20
-4.069937
  0
VERTEX
  8
PLAN_1
  6
CONTINUOUS
 10
1.387051
 20
-4.073020
  0
VERTEX
  8
PLAN_1
  6
CONTINUOUS
 10
1.388594
 20
-4.075591
  0
VERTEX
  8
PLAN_1
  6
CONTINUOUS
 10
1.390138
 20
-4.078161
  0
VERTEX
  8
PLAN_1
  6
CONTINUOUS
 10
1.392193
 20
-4.080217
  0
VERTEX
  8
PLAN_1
  6
CONTINUOUS
 10
1.394248
 20
-4.082272
  0
VERTEX
  8
PLAN_1
  6
CONTINUOUS
 10
1.396819
 20
-4.083815
  0
VERTEX
  8
PLAN_1
  6
CONTINUOUS
 10
1.399390
 20
-4.085354
  0
VERTEX
  8
PLAN_1
  6
CONTINUOUS
 10
1.402472
 20
-4.086386
  0
VERTEX
  8
PLAN_1
  6
CONTINUOUS
 10
1.405043
 20
-4.087413
  0
VERTEX
  8
PLAN_1
  6
CONTINUOUS
 10
1.408642
 20
-4.087925
  0
VERTEX
  8
PLAN_1
  6
CONTINUOUS
 10
1.411724
 20
-4.088441
  0
VERTEX
  8
PLAN_1
  6
CONTINUOUS
 10
1.415835
 20
-4.088953
  0
VERTEX
  8
PLAN_1
  6
CONTINUOUS
 10
1.420461
 20
-4.088441
  0
VERTEX
  8
PLAN_1
  6
CONTINUOUS
 10
1.425087
 20
-4.087413
  0
VERTEX
  8
PLAN_1
  6
CONTINUOUS
 10
1.429201
 20
-4.086386
  0
VERTEX
  8
PLAN_1
  6
CONTINUOUS
 10
1.433311
 20
-4.084327
  0
VERTEX
  8
PLAN_1
  6
CONTINUOUS
 10
1.436909
 20
-4.081760
  0
VERTEX
  8
PLAN_1
  6
CONTINUOUS
 10
1.440508
 20
-4.079189
  0
VERTEX
  8
PLAN_1
  6
CONTINUOUS
 10
1.443591
 20
-4.075591
  0
VERTEX
  8
PLAN_1
  6
CONTINUOUS
 10
1.446677
 20
-4.070965
  0
VERTEX
  8
PLAN_1
  6
CONTINUOUS
 10
1.449760
 20
-4.066339
  0
VERTEX
  8
PLAN_1
  6
CONTINUOUS
 10
1.451815
 20
-4.061197
  0
VERTEX
  8
PLAN_1
  6
CONTINUOUS
 10
1.454386
 20
-4.055031
  0
VERTEX
  8
PLAN_1
  6
CONTINUOUS
 10
1.456441
 20
-4.048346
  0
VERTEX
  8
PLAN_1
  6
CONTINUOUS
 10
1.457984
 20
-4.041154
  0
VERTEX
  8
PLAN_1
  6
CONTINUOUS
 10
1.460039
 20
-4.033441
  0
VERTEX
  8
PLAN_1
  6
CONTINUOUS
 10
1.461067
 20
-4.024705
  0
VERTEX
  8
PLAN_1
  6
CONTINUOUS
 10
1.462610
 20
-4.015965
  0
VERTEX
  8
PLAN_1
  6
CONTINUOUS
 10
1.462094
 20
-4.014937
  0
VERTEX
  8
PLAN_1
  6
CONTINUOUS
 10
1.460555
 20
-4.018024
  0
VERTEX
  8
PLAN_1
  6
CONTINUOUS
 10
1.458496
 20
-4.020591
  0
VERTEX
  8
PLAN_1
  6
CONTINUOUS
 10
1.456957
 20
-4.023161
  0
VERTEX
  8
PLAN_1
  6
CONTINUOUS
 10
1.454386
 20
-4.025217
  0
VERTEX
  8
PLAN_1
  6
CONTINUOUS
 10
1.449244
 20
-4.029331
  0
VERTEX
  8
PLAN_1
  6
CONTINUOUS
 10
1.443591
 20
-4.032413
  0
VERTEX
  8
PLAN_1
  6
CONTINUOUS
 10
1.437425
 20
-4.034984
  0
VERTEX
  8
PLAN_1
  6
CONTINUOUS
 10
1.430740
 20
-4.037039
  0
VERTEX
  8
PLAN_1
  6
CONTINUOUS
 10
1.424059
 20
-4.038067
  0
VERTEX
  8
PLAN_1
  6
CONTINUOUS
 10
1.417378
 20
-4.038583
  0
VERTEX
  8
PLAN_1
  6
CONTINUOUS
 10
1.410697
 20
-4.038067
  0
VERTEX
  8
PLAN_1
  6
CONTINUOUS
 10
1.404528
 20
-4.037555
  0
VERTEX
  8
PLAN_1
  6
CONTINUOUS
 10
1.398358
 20
-4.036012
  0
VERTEX
  8
PLAN_1
  6
CONTINUOUS
 10
1.392705
 20
-4.033957
  0
VERTEX
  8
PLAN_1
  6
CONTINUOUS
 10
1.387051
 20
-4.031902
  0
VERTEX
  8
PLAN_1
  6
CONTINUOUS
 10
1.381913
 20
-4.028815
  0
VERTEX
  8
PLAN_1
  6
CONTINUOUS
 10
1.377287
 20
-4.025217
  0
VERTEX
  8
PLAN_1
  6
CONTINUOUS
 10
1.373173
 20
-4.021618
  0
VERTEX
  8
PLAN_1
  6
CONTINUOUS
 10
1.369063
 20
-4.017508
  0
VERTEX
  8
PLAN_1
  6
CONTINUOUS
 10
1.365976
 20
-4.012366
  0
VERTEX
  8
PLAN_1
  6
CONTINUOUS
 10
1.362894
 20
-4.007228
  0
VERTEX
  8
PLAN_1
  6
CONTINUOUS
 10
1.360323
 20
-4.001575
  0
VERTEX
  8
PLAN_1
  6
CONTINUOUS
 10
1.358268
 20
-3.995921
  0
VERTEX
  8
PLAN_1
  6
CONTINUOUS
 10
1.357240
 20
-3.989236
  0
VERTEX
  8
PLAN_1
  6
CONTINUOUS
 10
1.356213
 20
-3.982555
  0
VERTEX
  8
PLAN_1
  6
CONTINUOUS
 10
1.355697
 20
-3.975358
  0
SEQEND
  8
0
  0
POLYLINE
  8
PLAN_1
  6
CONTINUOUS
 66
     1
 40
0.003000
 41
0.003000
  0
VERTEX
  8
PLAN_1
  6
CONTINUOUS
 10
1.458496
 20
-3.972276
  0
VERTEX
  8
PLAN_1
  6
CONTINUOUS
 10
1.457984
 20
-3.968165
  0
VERTEX
  8
PLAN_1
  6
CONTINUOUS
 10
1.457984
 20
-3.964051
  0
VERTEX
  8
PLAN_1
  6
CONTINUOUS
 10
1.456957
 20
-3.959941
  0
VERTEX
  8
PLAN_1
  6
CONTINUOUS
 10
1.455929
 20
-3.956343
  0
VERTEX
  8
PLAN_1
  6
CONTINUOUS
 10
1.454902
 20
-3.952744
  0
VERTEX
  8
PLAN_1
  6
CONTINUOUS
 10
1.453358
 20
-3.949146
  0
VERTEX
  8
PLAN_1
  6
CONTINUOUS
 10
1.451303
 20
-3.946063
  0
VERTEX
  8
PLAN_1
  6
CONTINUOUS
 10
1.449244
 20
-3.942976
  0
VERTEX
  8
PLAN_1
  6
CONTINUOUS
 10
1.446677
 20
-3.940409
  0
VERTEX
  8
PLAN_1
  6
CONTINUOUS
 10
1.443591
 20
-3.937839
  0
VERTEX
  8
PLAN_1
  6
CONTINUOUS
 10
1.440508
 20
-3.935783
  0
VERTEX
  8
PLAN_1
  6
CONTINUOUS
 10
1.436909
 20
-3.933724
  0
VERTEX
  8
PLAN_1
  6
CONTINUOUS
 10
1.432799
 20
-3.932697
  0
VERTEX
  8
PLAN_1
  6
CONTINUOUS
 10
1.428685
 20
-3.931157
  0
VERTEX
  8
PLAN_1
  6
CONTINUOUS
 10
1.424059
 20
-3.930642
  0
VERTEX
  8
PLAN_1
  6
CONTINUOUS
 10
1.418921
 20
-3.930642
  0
VERTEX
  8
PLAN_1
  6
CONTINUOUS
 10
1.414807
 20
-3.930642
  0
VERTEX
  8
PLAN_1
  6
CONTINUOUS
 10
1.410697
 20
-3.931157
  0
VERTEX
  8
PLAN_1
  6
CONTINUOUS
 10
1.407098
 20
-3.932185
  0
VERTEX
  8
PLAN_1
  6
CONTINUOUS
 10
1.403500
 20
-3.933724
  0
VERTEX
  8
PLAN_1
  6
CONTINUOUS
 10
1.399902
 20
-3.935268
  0
VERTEX
  8
PLAN_1
  6
CONTINUOUS
 10
1.396819
 20
-3.937323
  0
VERTEX
  8
PLAN_1
  6
CONTINUOUS
 10
1.394248
 20
-3.939894
  0
VERTEX
  8
PLAN_1
  6
CONTINUOUS
 10
1.391677
 20
-3.942465
  0
VERTEX
  8
PLAN_1
  6
CONTINUOUS
 10
1.389106
 20
-3.945547
  0
VERTEX
  8
PLAN_1
  6
CONTINUOUS
 10
1.387051
 20
-3.949146
  0
VERTEX
  8
PLAN_1
  6
CONTINUOUS
 10
1.385512
 20
-3.952744
  0
VERTEX
  8
PLAN_1
  6
CONTINUOUS
 10
1.383969
 20
-3.956343
  0
VERTEX
  8
PLAN_1
  6
CONTINUOUS
 10
1.382941
 20
-3.960453
  0
VERTEX
  8
PLAN_1
  6
CONTINUOUS
 10
1.381913
 20
-3.965079
  0
VERTEX
  8
PLAN_1
  6
CONTINUOUS
 10
1.381398
 20
-3.969705
  0
VERTEX
  8
PLAN_1
  6
CONTINUOUS
 10
1.381398
 20
-3.974331
  0
VERTEX
  8
PLAN_1
  6
CONTINUOUS
 10
1.381398
 20
-3.981016
  0
VERTEX
  8
PLAN_1
  6
CONTINUOUS
 10
1.382425
 20
-3.987181
  0
VERTEX
  8
PLAN_1
  6
CONTINUOUS
 10
1.383453
 20
-3.992323
  0
VERTEX
  8
PLAN_1
  6
CONTINUOUS
 10
1.384996
 20
-3.996949
  0
VERTEX
  8
PLAN_1
  6
CONTINUOUS
 10
1.387051
 20
-4.000547
  0
VERTEX
  8
PLAN_1
  6
CONTINUOUS
 10
1.389622
 20
-4.004146
  0
VERTEX
  8
PLAN_1
  6
CONTINUOUS
 10
1.392193
 20
-4.007228
  0
VERTEX
  8
PLAN_1
  6
CONTINUOUS
 10
1.394764
 20
-4.009283
  0
VERTEX
  8
PLAN_1
  6
CONTINUOUS
 10
1.397846
 20
-4.011339
  0
VERTEX
  8
PLAN_1
  6
CONTINUOUS
 10
1.400929
 20
-4.012882
  0
VERTEX
  8
PLAN_1
  6
CONTINUOUS
 10
1.404528
 20
-4.014425
  0
VERTEX
  8
PLAN_1
  6
CONTINUOUS
 10
1.407610
 20
-4.015453
  0
VERTEX
  8
PLAN_1
  6
CONTINUOUS
 10
1.414295
 20
-4.016480
  0
VERTEX
  8
PLAN_1
  6
CONTINUOUS
 10
1.420976
 20
-4.016480
  0
VERTEX
  8
PLAN_1
  6
CONTINUOUS
 10
1.426114
 20
-4.016480
  0
VERTEX
  8
PLAN_1
  6
CONTINUOUS
 10
1.432283
 20
-4.014937
  0
VERTEX
  8
PLAN_1
  6
CONTINUOUS
 10
1.435366
 20
-4.013909
  0
VERTEX
  8
PLAN_1
  6
CONTINUOUS
 10
1.438453
 20
-4.012882
  0
VERTEX
  8
PLAN_1
  6
CONTINUOUS
 10
1.441535
 20
-4.010827
  0
VERTEX
  8
PLAN_1
  6
CONTINUOUS
 10
1.444618
 20
-4.008772
  0
VERTEX
  8
PLAN_1
  6
CONTINUOUS
 10
1.447189
 20
-4.006201
  0
VERTEX
  8
PLAN_1
  6
CONTINUOUS
 10
1.449760
 20
-4.003114
  0
VERTEX
  8
PLAN_1
  6
CONTINUOUS
 10
1.452331
 20
-3.999520
  0
VERTEX
  8
PLAN_1
  6
CONTINUOUS
 10
1.454386
 20
-3.995406
  0
VERTEX
  8
PLAN_1
  6
CONTINUOUS
 10
1.455929
 20
-3.990780
  0
VERTEX
  8
PLAN_1
  6
CONTINUOUS
 10
1.457469
 20
-3.985126
  0
VERTEX
  8
PLAN_1
  6
CONTINUOUS
 10
1.457984
 20
-3.978957
  0
VERTEX
  8
PLAN_1
  6
CONTINUOUS
 10
1.458496
 20
-3.972276
  0
SEQEND
  8
0
  0
POLYLINE
  8
PLAN_1
  6
CONTINUOUS
 66
     1
 40
0.003000
 41
0.003000
  0
VERTEX
  8
PLAN_1
  6
CONTINUOUS
 10
1.549988
 20
-4.103858
  0
VERTEX
  8
PLAN_1
  6
CONTINUOUS
 10
1.523264
 20
-4.103858
  0
VERTEX
  8
PLAN_1
  6
CONTINUOUS
 10
1.523264
 20
-3.904429
  0
VERTEX
  8
PLAN_1
  6
CONTINUOUS
 10
1.615268
 20
-3.904429
  0
VERTEX
  8
PLAN_1
  6
CONTINUOUS
 10
1.621437
 20
-3.904429
  0
VERTEX
  8
PLAN_1
  6
CONTINUOUS
 10
1.627602
 20
-3.904941
  0
VERTEX
  8
PLAN_1
  6
CONTINUOUS
 10
1.633260
 20
-3.905969
  0
VERTEX
  8
PLAN_1
  6
CONTINUOUS
 10
1.639425
 20
-3.906996
  0
VERTEX
  8
PLAN_1
  6
CONTINUOUS
 10
1.645079
 20
-3.908539
  0
VERTEX
  8
PLAN_1
  6
CONTINUOUS
 10
1.650220
 20
-3.910083
  0
VERTEX
  8
PLAN_1
  6
CONTINUOUS
 10
1.655358
 20
-3.912654
  0
VERTEX
  8
PLAN_1
  6
CONTINUOUS
 10
1.660500
 20
-3.915220
  0
VERTEX
  8
PLAN_1
  6
CONTINUOUS
 10
1.664610
 20
-3.918819
  0
VERTEX
  8
PLAN_1
  6
CONTINUOUS
 10
1.668724
 20
-3.922417
  0
VERTEX
  8
PLAN_1
  6
CONTINUOUS
 10
1.672323
 20
-3.927043
  0
VERTEX
  8
PLAN_1
  6
CONTINUOUS
 10
1.674894
 20
-3.931669
  0
VERTEX
  8
PLAN_1
  6
CONTINUOUS
 10
1.677461
 20
-3.937323
  0
VERTEX
  8
PLAN_1
  6
CONTINUOUS
 10
1.679520
 20
-3.943492
  0
VERTEX
  8
PLAN_1
  6
CONTINUOUS
 10
1.680547
 20
-3.950689
  0
VERTEX
  8
PLAN_1
  6
CONTINUOUS
 10
1.680547
 20
-3.957886
  0
VERTEX
  8
PLAN_1
  6
CONTINUOUS
 10
1.680547
 20
-3.963539
  0
VERTEX
  8
PLAN_1
  6
CONTINUOUS
 10
1.680031
 20
-3.968165
  0
VERTEX
  8
PLAN_1
  6
CONTINUOUS
 10
1.679520
 20
-3.972791
  0
VERTEX
  8
PLAN_1
  6
CONTINUOUS
 10
1.677976
 20
-3.976902
  0
VERTEX
  8
PLAN_1
  6
CONTINUOUS
 10
1.676949
 20
-3.980500
  0
VERTEX
  8
PLAN_1
  6
CONTINUOUS
 10
1.675406
 20
-3.984098
  0
VERTEX
  8
PLAN_1
  6
CONTINUOUS
 10
1.673350
 20
-3.987181
  0
VERTEX
  8
PLAN_1
  6
CONTINUOUS
 10
1.671807
 20
-3.990268
  0
VERTEX
  8
PLAN_1
  6
CONTINUOUS
 10
1.667181
 20
-3.994894
  0
VERTEX
  8
PLAN_1
  6
CONTINUOUS
 10
1.662555
 20
-3.999004
  0
VERTEX
  8
PLAN_1
  6
CONTINUOUS
 10
1.657929
 20
-4.002602
  0
VERTEX
  8
PLAN_1
  6
CONTINUOUS
 10
1.652791
 20
-4.005685
  0
VERTEX
  8
PLAN_1
  6
CONTINUOUS
 10
1.657417
 20
-4.007740
  0
VERTEX
  8
PLAN_1
  6
CONTINUOUS
 10
1.661528
 20
-4.009799
  0
VERTEX
  8
PLAN_1
  6
CONTINUOUS
 10
1.665126
 20
-4.012366
  0
VERTEX
  8
PLAN_1
  6
CONTINUOUS
 10
1.668724
 20
-4.015965
  0
VERTEX
  8
PLAN_1
  6
CONTINUOUS
 10
1.670268
 20
-4.018024
  0
VERTEX
  8
PLAN_1
  6
CONTINUOUS
 10
1.671807
 20
-4.020591
  0
VERTEX
  8
PLAN_1
  6
CONTINUOUS
 10
1.673350
 20
-4.023161
  0
VERTEX
  8
PLAN_1
  6
CONTINUOUS
 10
1.674378
 20
-4.026244
  0
VERTEX
  8
PLAN_1
  6
CONTINUOUS
 10
1.675406
 20
-4.029843
  0
VERTEX
  8
PLAN_1
  6
CONTINUOUS
 10
1.675921
 20
-4.033957
  0
VERTEX
  8
PLAN_1
  6
CONTINUOUS
 10
1.676433
 20
-4.038067
  0
VERTEX
  8
PLAN_1
  6
CONTINUOUS
 10
1.676949
 20
-4.043209
  0
VERTEX
  8
PLAN_1
  6
CONTINUOUS
 10
1.678488
 20
-4.079189
  0
VERTEX
  8
PLAN_1
  6
CONTINUOUS
 10
1.678488
 20
-4.083299
  0
VERTEX
  8
PLAN_1
  6
CONTINUOUS
 10
1.679004
 20
-4.086386
  0
VERTEX
  8
PLAN_1
  6
CONTINUOUS
 10
1.679520
 20
-4.089469
  0
VERTEX
  8
PLAN_1
  6
CONTINUOUS
 10
1.680547
 20
-4.091524
  0
VERTEX
  8
PLAN_1
  6
CONTINUOUS
 10
1.681575
 20
-4.093579
  0
VERTEX
  8
PLAN_1
  6
CONTINUOUS
 10
1.683630
 20
-4.095638
  0
VERTEX
  8
PLAN_1
  6
CONTINUOUS
 10
1.685685
 20
-4.097693
  0
VERTEX
  8
PLAN_1
  6
CONTINUOUS
 10
1.688772
 20
-4.099232
  0
VERTEX
  8
PLAN_1
  6
CONTINUOUS
 10
1.688772
 20
-4.103858
  0
VERTEX
  8
PLAN_1
  6
CONTINUOUS
 10
1.655358
 20
-4.103858
  0
VERTEX
  8
PLAN_1
  6
CONTINUOUS
 10
1.654331
 20
-4.098205
  0
VERTEX
  8
PLAN_1
  6
CONTINUOUS
 10
1.653303
 20
-4.092039
  0
VERTEX
  8
PLAN_1
  6
CONTINUOUS
 10
1.652276
 20
-4.084327
  0
VERTEX
  8
PLAN_1
  6
CONTINUOUS
 10
1.651764
 20
-4.077134
  0
VERTEX
  8
PLAN_1
  6
CONTINUOUS
 10
1.651248
 20
-4.069421
  0
VERTEX
  8
PLAN_1
  6
CONTINUOUS
 10
1.650732
 20
-4.063256
  0
VERTEX
  8
PLAN_1
  6
CONTINUOUS
 10
1.650732
 20
-4.057598
  0
VERTEX
  8
PLAN_1
  6
CONTINUOUS
 10
1.650732
 20
-4.054004
  0
VERTEX
  8
PLAN_1
  6
CONTINUOUS
 10
1.650732
 20
-4.047319
  0
VERTEX
  8
PLAN_1
  6
CONTINUOUS
 10
1.649705
 20
-4.041154
  0
VERTEX
  8
PLAN_1
  6
CONTINUOUS
 10
1.649193
 20
-4.038067
  0
VERTEX
  8
PLAN_1
  6
CONTINUOUS
 10
1.648165
 20
-4.035496
  0
VERTEX
  8
PLAN_1
  6
CONTINUOUS
 10
1.646622
 20
-4.032413
  0
VERTEX
  8
PLAN_1
  6
CONTINUOUS
 10
1.645079
 20
-4.029843
  0
VERTEX
  8
PLAN_1
  6
CONTINUOUS
 10
1.643024
 20
-4.027276
  0
VERTEX
  8
PLAN_1
  6
CONTINUOUS
 10
1.640453
 20
-4.025217
  0
VERTEX
  8
PLAN_1
  6
CONTINUOUS
 10
1.637886
 20
-4.023161
  0
VERTEX
  8
PLAN_1
  6
CONTINUOUS
 10
1.634287
 20
-4.021618
  0
VERTEX
  8
PLAN_1
  6
CONTINUOUS
 10
1.630689
 20
-4.020079
  0
VERTEX
  8
PLAN_1
  6
CONTINUOUS
 10
1.626063
 20
-4.019051
  0
VERTEX
  8
PLAN_1
  6
CONTINUOUS
 10
1.620921
 20
-4.018535
  0
VERTEX
  8
PLAN_1
  6
CONTINUOUS
 10
1.615268
 20
-4.018024
  0
VERTEX
  8
PLAN_1
  6
CONTINUOUS
 10
1.549988
 20
-4.018024
  0
VERTEX
  8
PLAN_1
  6
CONTINUOUS
 10
1.549988
 20
-4.103858
  0
SEQEND
  8
0
  0
POLYLINE
  8
PLAN_1
  6
CONTINUOUS
 66
     1
 40
0.003000
 41
0.003000
  0
VERTEX
  8
PLAN_1
  6
CONTINUOUS
 10
1.549988
 20
-3.995406
  0
VERTEX
  8
PLAN_1
  6
CONTINUOUS
 10
1.612697
 20
-3.995406
  0
VERTEX
  8
PLAN_1
  6
CONTINUOUS
 10
1.619894
 20
-3.994894
  0
VERTEX
  8
PLAN_1
  6
CONTINUOUS
 10
1.627091
 20
-3.993862
  0
VERTEX
  8
PLAN_1
  6
CONTINUOUS
 10
1.630689
 20
-3.993350
  0
VERTEX
  8
PLAN_1
  6
CONTINUOUS
 10
1.633772
 20
-3.991807
  0
VERTEX
  8
PLAN_1
  6
CONTINUOUS
 10
1.637370
 20
-3.990780
  0
VERTEX
  8
PLAN_1
  6
CONTINUOUS
 10
1.639941
 20
-3.989236
  0
VERTEX
  8
PLAN_1
  6
CONTINUOUS
 10
1.643024
 20
-3.987181
  0
VERTEX
  8
PLAN_1
  6
CONTINUOUS
 10
1.645594
 20
-3.984610
  0
VERTEX
  8
PLAN_1
  6
CONTINUOUS
 10
1.647650
 20
-3.982043
  0
VERTEX
  8
PLAN_1
  6
CONTINUOUS
 10
1.649193
 20
-3.978445
  0
VERTEX
  8
PLAN_1
  6
CONTINUOUS
 10
1.650732
 20
-3.974846
  0
VERTEX
  8
PLAN_1
  6
CONTINUOUS
 10
1.652276
 20
-3.970732
  0
VERTEX
  8
PLAN_1
  6
CONTINUOUS
 10
1.652791
 20
-3.966106
  0
VERTEX
  8
PLAN_1
  6
CONTINUOUS
 10
1.652791
 20
-3.960969
  0
VERTEX
  8
PLAN_1
  6
CONTINUOUS
 10
1.652791
 20
-3.955315
  0
VERTEX
  8
PLAN_1
  6
CONTINUOUS
 10
1.651764
 20
-3.950689
  0
VERTEX
  8
PLAN_1
  6
CONTINUOUS
 10
1.650732
 20
-3.946063
  0
VERTEX
  8
PLAN_1
  6
CONTINUOUS
 10
1.649193
 20
-3.942465
  0
VERTEX
  8
PLAN_1
  6
CONTINUOUS
 10
1.647138
 20
-3.939382
  0
VERTEX
  8
PLAN_1
  6
CONTINUOUS
 10
1.645079
 20
-3.936811
  0
VERTEX
  8
PLAN_1
  6
CONTINUOUS
 10
1.642512
 20
-3.934240
  0
VERTEX
  8
PLAN_1
  6
CONTINUOUS
 10
1.639941
 20
-3.932697
  0
VERTEX
  8
PLAN_1
  6
CONTINUOUS
 10
1.637370
 20
-3.931157
  0
VERTEX
  8
PLAN_1
  6
CONTINUOUS
 10
1.634287
 20
-3.930130
  0
VERTEX
  8
PLAN_1
  6
CONTINUOUS
 10
1.631201
 20
-3.929098
  0
VERTEX
  8
PLAN_1
  6
CONTINUOUS
 10
1.628634
 20
-3.928587
  0
VERTEX
  8
PLAN_1
  6
CONTINUOUS
 10
1.622465
 20
-3.927559
  0
VERTEX
  8
PLAN_1
  6
CONTINUOUS
 10
1.617323
 20
-3.927559
  0
VERTEX
  8
PLAN_1
  6
CONTINUOUS
 10
1.549988
 20
-3.927559
  0
VERTEX
  8
PLAN_1
  6
CONTINUOUS
 10
1.549988
 20
-3.995406
  0
SEQEND
  8
0
  0
SOLID
  8
PLAN_1
 10
1.751992
 20
-4.103858
 11
1.723209
 21
-4.103858
 12
1.751992
 22
-4.074047
 13
1.723209
 23
-4.074047
  0
POLYLINE
  8
PLAN_1
  6
CONTINUOUS
 66
     1
 40
0.003000
 41
0.003000
  0
VERTEX
  8
PLAN_1
  6
CONTINUOUS
 10
1.751992
 20
-4.103858
  0
VERTEX
  8
PLAN_1
  6
CONTINUOUS
 10
1.723209
 20
-4.103858
  0
VERTEX
  8
PLAN_1
  6
CONTINUOUS
 10
1.723209
 20
-4.074047
  0
VERTEX
  8
PLAN_1
  6
CONTINUOUS
 10
1.751992
 20
-4.074047
  0
VERTEX
  8
PLAN_1
  6
CONTINUOUS
 10
1.751992
 20
-4.103858
  0
SEQEND
  8
0
  0
POLYLINE
  8
PLAN_1
  6
CONTINUOUS
 66
     1
 40
0.003000
 41
0.003000
  0
VERTEX
  8
PLAN_1
  6
CONTINUOUS
 10
1.947311
 20
-4.103858
  0
VERTEX
  8
PLAN_1
  6
CONTINUOUS
 10
1.800307
 20
-4.103858
  0
VERTEX
  8
PLAN_1
  6
CONTINUOUS
 10
1.800307
 20
-3.904429
  0
VERTEX
  8
PLAN_1
  6
CONTINUOUS
 10
1.945256
 20
-3.904429
  0
VERTEX
  8
PLAN_1
  6
CONTINUOUS
 10
1.945256
 20
-3.928071
  0
VERTEX
  8
PLAN_1
  6
CONTINUOUS
 10
1.827035
 20
-3.928071
  0
VERTEX
  8
PLAN_1
  6
CONTINUOUS
 10
1.827035
 20
-3.989236
  0
VERTEX
  8
PLAN_1
  6
CONTINUOUS
 10
1.936004
 20
-3.989236
  0
VERTEX
  8
PLAN_1
  6
CONTINUOUS
 10
1.936004
 20
-4.013398
  0
VERTEX
  8
PLAN_1
  6
CONTINUOUS
 10
1.827035
 20
-4.013398
  0
VERTEX
  8
PLAN_1
  6
CONTINUOUS
 10
1.827035
 20
-4.079701
  0
VERTEX
  8
PLAN_1
  6
CONTINUOUS
 10
1.947311
 20
-4.079701
  0
VERTEX
  8
PLAN_1
  6
CONTINUOUS
 10
1.947311
 20
-4.103858
  0
SEQEND
  8
0
  0
POLYLINE
  8
PLAN_1
  6
CONTINUOUS
 66
     1
 40
0.003000
 41
0.003000
  0
VERTEX
  8
PLAN_1
  6
CONTINUOUS
 10
2.012591
 20
-4.103858
  0
VERTEX
  8
PLAN_1
  6
CONTINUOUS
 10
1.985346
 20
-4.103858
  0
VERTEX
  8
PLAN_1
  6
CONTINUOUS
 10
1.985346
 20
-3.904429
  0
VERTEX
  8
PLAN_1
  6
CONTINUOUS
 10
2.075299
 20
-3.904429
  0
VERTEX
  8
PLAN_1
  6
CONTINUOUS
 10
2.081980
 20
-3.904941
  0
VERTEX
  8
PLAN_1
  6
CONTINUOUS
 10
2.088150
 20
-3.905457
  0
VERTEX
  8
PLAN_1
  6
CONTINUOUS
 10
2.094315
 20
-3.906996
  0
VERTEX
  8
PLAN_1
  6
CONTINUOUS
 10
2.099969
 20
-3.908539
  0
VERTEX
  8
PLAN_1
  6
CONTINUOUS
 10
2.105110
 20
-3.911110
  0
VERTEX
  8
PLAN_1
  6
CONTINUOUS
 10
2.110248
 20
-3.913681
  0
VERTEX
  8
PLAN_1
  6
CONTINUOUS
 10
2.114362
 20
-3.916764
  0
VERTEX
  8
PLAN_1
  6
CONTINUOUS
 10
2.118472
 20
-3.920362
  0
VERTEX
  8
PLAN_1
  6
CONTINUOUS
 10
2.122071
 20
-3.924472
  0
VERTEX
  8
PLAN_1
  6
CONTINUOUS
 10
2.125157
 20
-3.928587
  0
VERTEX
  8
PLAN_1
  6
CONTINUOUS
 10
2.127724
 20
-3.933213
  0
VERTEX
  8
PLAN_1
  6
CONTINUOUS
 10
2.130295
 20
-3.938350
  0
VERTEX
  8
PLAN_1
  6
CONTINUOUS
 10
2.131839
 20
-3.943492
  0
VERTEX
  8
PLAN_1
  6
CONTINUOUS
 10
2.133382
 20
-3.948634
  0
VERTEX
  8
PLAN_1
  6
CONTINUOUS
 10
2.133894
 20
-3.954799
  0
VERTEX
  8
PLAN_1
  6
CONTINUOUS
 10
2.134409
 20
-3.960453
  0
VERTEX
  8
PLAN_1
  6
CONTINUOUS
 10
2.133894
 20
-3.965594
  0
VERTEX
  8
PLAN_1
  6
CONTINUOUS
 10
2.133382
 20
-3.971248
  0
VERTEX
  8
PLAN_1
  6
CONTINUOUS
 10
2.132350
 20
-3.976390
  0
VERTEX
  8
PLAN_1
  6
CONTINUOUS
 10
2.131323
 20
-3.981528
  0
VERTEX
  8
PLAN_1
  6
CONTINUOUS
 10
2.129268
 20
-3.986669
  0
VERTEX
  8
PLAN_1
  6
CONTINUOUS
 10
2.126697
 20
-3.991295
  0
VERTEX
  8
PLAN_1
  6
CONTINUOUS
 10
2.124130
 20
-3.995921
  0
VERTEX
  8
PLAN_1
  6
CONTINUOUS
 10
2.121043
 20
-4.000547
  0
VERTEX
  8
PLAN_1
  6
CONTINUOUS
 10
2.116933
 20
-4.004657
  0
VERTEX
  8
PLAN_1
  6
CONTINUOUS
 10
2.112819
 20
-4.008256
  0
VERTEX
  8
PLAN_1
  6
CONTINUOUS
 10
2.108193
 20
-4.011339
  0
VERTEX
  8
PLAN_1
  6
CONTINUOUS
 10
2.102539
 20
-4.014425
  0
VERTEX
  8
PLAN_1
  6
CONTINUOUS
 10
2.096886
 20
-4.016480
  0
VERTEX
  8
PLAN_1
  6
CONTINUOUS
 10
2.090205
 20
-4.018024
  0
VERTEX
  8
PLAN_1
  6
CONTINUOUS
 10
2.083008
 20
-4.019051
  0
VERTEX
  8
PLAN_1
  6
CONTINUOUS
 10
2.075299
 20
-4.019563
  0
VERTEX
  8
PLAN_1
  6
CONTINUOUS
 10
2.012591
 20
-4.019563
  0
VERTEX
  8
PLAN_1
  6
CONTINUOUS
 10
2.012591
 20
-4.103858
  0
SEQEND
  8
0
  0
POLYLINE
  8
PLAN_1
  6
CONTINUOUS
 66
     1
 40
0.003000
 41
0.003000
  0
VERTEX
  8
PLAN_1
  6
CONTINUOUS
 10
2.012591
 20
-3.996433
  0
VERTEX
  8
PLAN_1
  6
CONTINUOUS
 10
2.066047
 20
-3.996433
  0
VERTEX
  8
PLAN_1
  6
CONTINUOUS
 10
2.074783
 20
-3.995921
  0
VERTEX
  8
PLAN_1
  6
CONTINUOUS
 10
2.082492
 20
-3.994894
  0
VERTEX
  8
PLAN_1
  6
CONTINUOUS
 10
2.086091
 20
-3.993862
  0
VERTEX
  8
PLAN_1
  6
CONTINUOUS
 10
2.089177
 20
-3.992323
  0
VERTEX
  8
PLAN_1
  6
CONTINUOUS
 10
2.092260
 20
-3.990780
  0
VERTEX
  8
PLAN_1
  6
CONTINUOUS
 10
2.095343
 20
-3.988724
  0
VERTEX
  8
PLAN_1
  6
CONTINUOUS
 10
2.097913
 20
-3.986669
  0
VERTEX
  8
PLAN_1
  6
CONTINUOUS
 10
2.099969
 20
-3.984098
  0
VERTEX
  8
PLAN_1
  6
CONTINUOUS
 10
2.102028
 20
-3.981016
  0
VERTEX
  8
PLAN_1
  6
CONTINUOUS
 10
2.103567
 20
-3.977929
  0
VERTEX
  8
PLAN_1
  6
CONTINUOUS
 10
2.104594
 20
-3.973819
  0
VERTEX
  8
PLAN_1
  6
CONTINUOUS
 10
2.105622
 20
-3.970220
  0
VERTEX
  8
PLAN_1
  6
CONTINUOUS
 10
2.106138
 20
-3.965594
  0
VERTEX
  8
PLAN_1
  6
CONTINUOUS
 10
2.106654
 20
-3.960969
  0
VERTEX
  8
PLAN_1
  6
CONTINUOUS
 10
2.106138
 20
-3.956343
  0
VERTEX
  8
PLAN_1
  6
CONTINUOUS
 10
2.105622
 20
-3.952228
  0
VERTEX
  8
PLAN_1
  6
CONTINUOUS
 10
2.104594
 20
-3.948118
  0
VERTEX
  8
PLAN_1
  6
CONTINUOUS
 10
2.103567
 20
-3.945035
  0
VERTEX
  8
PLAN_1
  6
CONTINUOUS
 10
2.102028
 20
-3.941949
  0
VERTEX
  8
PLAN_1
  6
CONTINUOUS
 10
2.099969
 20
-3.939382
  0
VERTEX
  8
PLAN_1
  6
CONTINUOUS
 10
2.097402
 20
-3.936811
  0
VERTEX
  8
PLAN_1
  6
CONTINUOUS
 10
2.095343
 20
-3.934756
  0
VERTEX
  8
PLAN_1
  6
CONTINUOUS
 10
2.092260
 20
-3.932697
  0
VERTEX
  8
PLAN_1
  6
CONTINUOUS
 10
2.089177
 20
-3.931157
  0
VERTEX
  8
PLAN_1
  6
CONTINUOUS
 10
2.086091
 20
-3.930130
  0
VERTEX
  8
PLAN_1
  6
CONTINUOUS
 10
2.082492
 20
-3.929098
  0
VERTEX
  8
PLAN_1
  6
CONTINUOUS
 10
2.075299
 20
-3.928071
  0
VERTEX
  8
PLAN_1
  6
CONTINUOUS
 10
2.067075
 20
-3.927559
  0
VERTEX
  8
PLAN_1
  6
CONTINUOUS
 10
2.012591
 20
-3.927559
  0
VERTEX
  8
PLAN_1
  6
CONTINUOUS
 10
2.012591
 20
-3.996433
  0
SEQEND
  8
0
  0
POLYLINE
  8
PLAN_1
  6
CONTINUOUS
 66
     1
 40
0.003000
 41
0.003000
  0
VERTEX
  8
PLAN_1
  6
CONTINUOUS
 10
2.288094
 20
-3.962512
  0
VERTEX
  8
PLAN_1
  6
CONTINUOUS
 10
2.287579
 20
-3.957370
  0
VERTEX
  8
PLAN_1
  6
CONTINUOUS
 10
2.286551
 20
-3.952228
  0
VERTEX
  8
PLAN_1
  6
CONTINUOUS
 10
2.285012
 20
-3.947602
  0
VERTEX
  8
PLAN_1
  6
CONTINUOUS
 10
2.282953
 20
-3.943492
  0
VERTEX
  8
PLAN_1
  6
CONTINUOUS
 10
2.280386
 20
-3.939894
  0
VERTEX
  8
PLAN_1
  6
CONTINUOUS
 10
2.277815
 20
-3.936295
  0
VERTEX
  8
PLAN_1
  6
CONTINUOUS
 10
2.274728
 20
-3.933213
  0
VERTEX
  8
PLAN_1
  6
CONTINUOUS
 10
2.271134
 20
-3.931157
  0
VERTEX
  8
PLAN_1
  6
CONTINUOUS
 10
2.267535
 20
-3.928587
  0
VERTEX
  8
PLAN_1
  6
CONTINUOUS
 10
2.263937
 20
-3.927043
  0
VERTEX
  8
PLAN_1
  6
CONTINUOUS
 10
2.259823
 20
-3.925504
  0
VERTEX
  8
PLAN_1
  6
CONTINUOUS
 10
2.255713
 20
-3.923961
  0
VERTEX
  8
PLAN_1
  6
CONTINUOUS
 10
2.251598
 20
-3.923445
  0
VERTEX
  8
PLAN_1
  6
CONTINUOUS
 10
2.246972
 20
-3.922417
  0
VERTEX
  8
PLAN_1
  6
CONTINUOUS
 10
2.242862
 20
-3.922417
  0
VERTEX
  8
PLAN_1
  6
CONTINUOUS
 10
2.238748
 20
-3.922417
  0
VERTEX
  8
PLAN_1
  6
CONTINUOUS
 10
2.232067
 20
-3.922417
  0
VERTEX
  8
PLAN_1
  6
CONTINUOUS
 10
2.224358
 20
-3.923445
  0
VERTEX
  8
PLAN_1
  6
CONTINUOUS
 10
2.220760
 20
-3.923961
  0
VERTEX
  8
PLAN_1
  6
CONTINUOUS
 10
2.216650
 20
-3.925504
  0
VERTEX
  8
PLAN_1
  6
CONTINUOUS
 10
2.213051
 20
-3.926531
  0
VERTEX
  8
PLAN_1
  6
CONTINUOUS
 10
2.209453
 20
-3.928071
  0
VERTEX
  8
PLAN_1
  6
CONTINUOUS
 10
2.206366
 20
-3.930130
  0
VERTEX
  8
PLAN_1
  6
CONTINUOUS
 10
2.203283
 20
-3.932697
  0
VERTEX
  8
PLAN_1
  6
CONTINUOUS
 10
2.200201
 20
-3.935783
  0
VERTEX
  8
PLAN_1
  6
CONTINUOUS
 10
2.198146
 20
-3.938866
  0
VERTEX
  8
PLAN_1
  6
CONTINUOUS
 10
2.196087
 20
-3.942465
  0
VERTEX
  8
PLAN_1
  6
CONTINUOUS
 10
2.194547
 20
-3.947091
  0
VERTEX
  8
PLAN_1
  6
CONTINUOUS
 10
2.193520
 20
-3.951717
  0
VERTEX
  8
PLAN_1
  6
CONTINUOUS
 10
2.193004
 20
-3.957370
  0
VERTEX
  8
PLAN_1
  6
CONTINUOUS
 10
2.193520
 20
-3.960453
  0
VERTEX
  8
PLAN_1
  6
CONTINUOUS
 10
2.193520
 20
-3.963024
  0
VERTEX
  8
PLAN_1
  6
CONTINUOUS
 10
2.194547
 20
-3.965594
  0
VERTEX
  8
PLAN_1
  6
CONTINUOUS
 10
2.195059
 20
-3.967650
  0
VERTEX
  8
PLAN_1
  6
CONTINUOUS
 10
2.197630
 20
-3.971764
  0
VERTEX
  8
PLAN_1
  6
CONTINUOUS
 10
2.200713
 20
-3.974846
  0
VERTEX
  8
PLAN_1
  6
CONTINUOUS
 10
2.204311
 20
-3.977929
  0
VERTEX
  8
PLAN_1
  6
CONTINUOUS
 10
2.208425
 20
-3.979472
  0
VERTEX
  8
PLAN_1
  6
CONTINUOUS
 10
2.212535
 20
-3.981016
  0
VERTEX
  8
PLAN_1
  6
CONTINUOUS
 10
2.216650
 20
-3.982555
  0
VERTEX
  8
PLAN_1
  6
CONTINUOUS
 10
2.273701
 20
-3.995406
  0
VERTEX
  8
PLAN_1
  6
CONTINUOUS
 10
2.278327
 20
-3.996949
  0
VERTEX
  8
PLAN_1
  6
CONTINUOUS
 10
2.282953
 20
-3.997976
  0
VERTEX
  8
PLAN_1
  6
CONTINUOUS
 10
2.287579
 20
-4.000031
  0
VERTEX
  8
PLAN_1
  6
CONTINUOUS
 10
2.291693
 20
-4.002087
  0
VERTEX
  8
PLAN_1
  6
CONTINUOUS
 10
2.295803
 20
-4.004146
  0
VERTEX
  8
PLAN_1
  6
CONTINUOUS
 10
2.299402
 20
-4.006713
  0
VERTEX
  8
PLAN_1
  6
CONTINUOUS
 10
2.303000
 20
-4.009283
  0
VERTEX
  8
PLAN_1
  6
CONTINUOUS
 10
2.306083
 20
-4.012366
  0
VERTEX
  8
PLAN_1
  6
CONTINUOUS
 10
2.308654
 20
-4.015965
  0
VERTEX
  8
PLAN_1
  6
CONTINUOUS
 10
2.311224
 20
-4.019563
  0
VERTEX
  8
PLAN_1
  6
CONTINUOUS
 10
2.313795
 20
-4.023677
  0
VERTEX
  8
PLAN_1
  6
CONTINUOUS
 10
2.315335
 20
-4.027787
  0
VERTEX
  8
PLAN_1
  6
CONTINUOUS
 10
2.316878
 20
-4.032413
  0
VERTEX
  8
PLAN_1
  6
CONTINUOUS
 10
2.317906
 20
-4.037555
  0
VERTEX
  8
PLAN_1
  6
CONTINUOUS
 10
2.318933
 20
-4.043209
  0
VERTEX
  8
PLAN_1
  6
CONTINUOUS
 10
2.318933
 20
-4.048862
  0
VERTEX
  8
PLAN_1
  6
CONTINUOUS
 10
2.318933
 20
-4.052972
  0
VERTEX
  8
PLAN_1
  6
CONTINUOUS
 10
2.318421
 20
-4.057087
  0
VERTEX
  8
PLAN_1
  6
CONTINUOUS
 10
2.317906
 20
-4.061197
  0
VERTEX
  8
PLAN_1
  6
CONTINUOUS
 10
2.316878
 20
-4.064795
  0
VERTEX
  8
PLAN_1
  6
CONTINUOUS
 10
2.314823
 20
-4.071992
  0
VERTEX
  8
PLAN_1
  6
CONTINUOUS
 10
2.311736
 20
-4.078161
  0
VERTEX
  8
PLAN_1
  6
CONTINUOUS
 10
2.307626
 20
-4.083815
  0
VERTEX
  8
PLAN_1
  6
CONTINUOUS
 10
2.303000
 20
-4.088441
  0
VERTEX
  8
PLAN_1
  6
CONTINUOUS
 10
2.298374
 20
-4.093067
  0
VERTEX
  8
PLAN_1
  6
CONTINUOUS
 10
2.292720
 20
-4.096665
  0
VERTEX
  8
PLAN_1
  6
CONTINUOUS
 10
2.287067
 20
-4.099748
  0
VERTEX
  8
PLAN_1
  6
CONTINUOUS
 10
2.280386
 20
-4.102319
  0
VERTEX
  8
PLAN_1
  6
CONTINUOUS
 10
2.274217
 20
-4.104374
  0
VERTEX
  8
PLAN_1
  6
CONTINUOUS
 10
2.267535
 20
-4.106429
  0
VERTEX
  8
PLAN_1
  6
CONTINUOUS
 10
2.260850
 20
-4.107457
  0
VERTEX
  8
PLAN_1
  6
CONTINUOUS
 10
2.254169
 20
-4.108484
  0
VERTEX
  8
PLAN_1
  6
CONTINUOUS
 10
2.247488
 20
-4.109000
  0
VERTEX
  8
PLAN_1
  6
CONTINUOUS
 10
2.240807
 20
-4.109000
  0
VERTEX
  8
PLAN_1
  6
CONTINUOUS
 10
2.227957
 20
-4.108484
  0
VERTEX
  8
PLAN_1
  6
CONTINUOUS
 10
2.217161
 20
-4.106945
  0
VERTEX
  8
PLAN_1
  6
CONTINUOUS
 10
2.207909
 20
-4.104890
  0
VERTEX
  8
PLAN_1
  6
CONTINUOUS
 10
2.200201
 20
-4.102319
  0
VERTEX
  8
PLAN_1
  6
CONTINUOUS
 10
2.194031
 20
-4.099232
  0
VERTEX
  8
PLAN_1
  6
CONTINUOUS
 10
2.188894
 20
-4.096150
  0
VERTEX
  8
PLAN_1
  6
CONTINUOUS
 10
2.184268
 20
-4.093067
  0
VERTEX
  8
PLAN_1
  6
CONTINUOUS
 10
2.180669
 20
-4.089980
  0
VERTEX
  8
PLAN_1
  6
CONTINUOUS
 10
2.175016
 20
-4.083815
  0
VERTEX
  8
PLAN_1
  6
CONTINUOUS
 10
2.170390
 20
-4.078161
  0
VERTEX
  8
PLAN_1
  6
CONTINUOUS
 10
2.166791
 20
-4.071992
  0
VERTEX
  8
PLAN_1
  6
CONTINUOUS
 10
2.164220
 20
-4.065823
  0
VERTEX
  8
PLAN_1
  6
CONTINUOUS
 10
2.162165
 20
-4.059657
  0
VERTEX
  8
PLAN_1
  6
CONTINUOUS
 10
2.161138
 20
-4.052972
  0
VERTEX
  8
PLAN_1
  6
CONTINUOUS
 10
2.160622
 20
-4.046291
  0
VERTEX
  8
PLAN_1
  6
CONTINUOUS
 10
2.160622
 20
-4.039094
  0
VERTEX
  8
PLAN_1
  6
CONTINUOUS
 10
2.185807
 20
-4.039094
  0
VERTEX
  8
PLAN_1
  6
CONTINUOUS
 10
2.185807
 20
-4.045780
  0
VERTEX
  8
PLAN_1
  6
CONTINUOUS
 10
2.186835
 20
-4.051945
  0
VERTEX
  8
PLAN_1
  6
CONTINUOUS
 10
2.188378
 20
-4.057087
  0
VERTEX
  8
PLAN_1
  6
CONTINUOUS
 10
2.190433
 20
-4.061713
  0
VERTEX
  8
PLAN_1
  6
CONTINUOUS
 10
2.193520
 20
-4.066339
  0
VERTEX
  8
PLAN_1
  6
CONTINUOUS
 10
2.196602
 20
-4.069937
  0
VERTEX
  8
PLAN_1
  6
CONTINUOUS
 10
2.199685
 20
-4.073535
  0
VERTEX
  8
PLAN_1
  6
CONTINUOUS
 10
2.203799
 20
-4.076102
  0
VERTEX
  8
PLAN_1
  6
CONTINUOUS
 10
2.207909
 20
-4.078673
  0
VERTEX
  8
PLAN_1
  6
CONTINUOUS
 10
2.212024
 20
-4.080728
  0
VERTEX
  8
PLAN_1
  6
CONTINUOUS
 10
2.216650
 20
-4.082272
  0
VERTEX
  8
PLAN_1
  6
CONTINUOUS
 10
2.221276
 20
-4.083815
  0
VERTEX
  8
PLAN_1
  6
CONTINUOUS
 10
2.225902
 20
-4.084843
  0
VERTEX
  8
PLAN_1
  6
CONTINUOUS
 10
2.231039
 20
-4.085354
  0
VERTEX
  8
PLAN_1
  6
CONTINUOUS
 10
2.235665
 20
-4.085870
  0
VERTEX
  8
PLAN_1
  6
CONTINUOUS
 10
2.240807
 20
-4.085870
  0
VERTEX
  8
PLAN_1
  6
CONTINUOUS
 10
2.248516
 20
-4.085870
  0
VERTEX
  8
PLAN_1
  6
CONTINUOUS
 10
2.257256
 20
-4.084843
  0
VERTEX
  8
PLAN_1
  6
CONTINUOUS
 10
2.261366
 20
-4.083815
  0
VERTEX
  8
PLAN_1
  6
CONTINUOUS
 10
2.265476
 20
-4.082787
  0
VERTEX
  8
PLAN_1
  6
CONTINUOUS
 10
2.270102
 20
-4.081760
  0
VERTEX
  8
PLAN_1
  6
CONTINUOUS
 10
2.274217
 20
-4.079701
  0
VERTEX
  8
PLAN_1
  6
CONTINUOUS
 10
2.277815
 20
-4.078161
  0
VERTEX
  8
PLAN_1
  6
CONTINUOUS
 10
2.281413
 20
-4.075591
  0
VERTEX
  8
PLAN_1
  6
CONTINUOUS
 10
2.284496
 20
-4.073020
  0
VERTEX
  8
PLAN_1
  6
CONTINUOUS
 10
2.287579
 20
-4.069937
  0
VERTEX
  8
PLAN_1
  6
CONTINUOUS
 10
2.289638
 20
-4.066339
  0
VERTEX
  8
PLAN_1
  6
CONTINUOUS
 10
2.291177
 20
-4.062224
  0
VERTEX
  8
PLAN_1
  6
CONTINUOUS
 10
2.292720
 20
-4.057598
  0
VERTEX
  8
PLAN_1
  6
CONTINUOUS
 10
2.292720
 20
-4.052461
  0
VERTEX
  8
PLAN_1
  6
CONTINUOUS
 10
2.292720
 20
-4.048862
  0
VERTEX
  8
PLAN_1
  6
CONTINUOUS
 10
2.292205
 20
-4.045264
  0
VERTEX
  8
PLAN_1
  6
CONTINUOUS
 10
2.291693
 20
-4.042181
  0
VERTEX
  8
PLAN_1
  6
CONTINUOUS
 10
2.290665
 20
-4.039094
  0
VERTEX
  8
PLAN_1
  6
CONTINUOUS
 10
2.289638
 20
-4.036528
  0
VERTEX
  8
PLAN_1
  6
CONTINUOUS
 10
2.288094
 20
-4.033957
  0
VERTEX
  8
PLAN_1
  6
CONTINUOUS
 10
2.286039
 20
-4.031902
  0
VERTEX
  8
PLAN_1
  6
CONTINUOUS
 10
2.283980
 20
-4.029843
  0
VERTEX
  8
PLAN_1
  6
CONTINUOUS
 10
2.281413
 20
-4.027787
  0
VERTEX
  8
PLAN_1
  6
CONTINUOUS
 10
2.278327
 20
-4.026244
  0
VERTEX
  8
PLAN_1
  6
CONTINUOUS
 10
2.274728
 20
-4.024705
  0
VERTEX
  8
PLAN_1
  6
CONTINUOUS
 10
2.270618
 20
-4.023161
  0
VERTEX
  8
PLAN_1
  6
CONTINUOUS
 10
2.261366
 20
-4.020079
  0
VERTEX
  8
PLAN_1
  6
CONTINUOUS
 10
2.250571
 20
-4.016992
  0
VERTEX
  8
PLAN_1
  6
CONTINUOUS
 10
2.209453
 20
-4.007740
  0
VERTEX
  8
PLAN_1
  6
CONTINUOUS
 10
2.203799
 20
-4.006201
  0
VERTEX
  8
PLAN_1
  6
CONTINUOUS
 10
2.197630
 20
-4.004146
  0
VERTEX
  8
PLAN_1
  6
CONTINUOUS
 10
2.194031
 20
-4.002602
  0
VERTEX
  8
PLAN_1
  6
CONTINUOUS
 10
2.190433
 20
-4.000547
  0
VERTEX
  8
PLAN_1
  6
CONTINUOUS
 10
2.186835
 20
-3.998488
  0
VERTEX
  8
PLAN_1
  6
CONTINUOUS
 10
2.183236
 20
-3.995921
  0
VERTEX
  8
PLAN_1
  6
CONTINUOUS
 10
2.180154
 20
-3.993350
  0
VERTEX
  8
PLAN_1
  6
CONTINUOUS
 10
2.177071
 20
-3.990268
  0
VERTEX
  8
PLAN_1
  6
CONTINUOUS
 10
2.174500
 20
-3.986669
  0
VERTEX
  8
PLAN_1
  6
CONTINUOUS
 10
2.171929
 20
-3.982555
  0
VERTEX
  8
PLAN_1
  6
CONTINUOUS
 10
2.169874
 20
-3.977929
  0
VERTEX
  8
PLAN_1
  6
CONTINUOUS
 10
2.168331
 20
-3.972791
  0
VERTEX
  8
PLAN_1
  6
CONTINUOUS
 10
2.167303
 20
-3.967138
  0
VERTEX
  8
PLAN_1
  6
CONTINUOUS
 10
2.167303
 20
-3.960969
  0
VERTEX
  8
PLAN_1
  6
CONTINUOUS
 10
2.167303
 20
-3.954799
  0
VERTEX
  8
PLAN_1
  6
CONTINUOUS
 10
2.167819
 20
-3.949146
  0
VERTEX
  8
PLAN_1
  6
CONTINUOUS
 10
2.169358
 20
-3.943492
  0
VERTEX
  8
PLAN_1
  6
CONTINUOUS
 10
2.170902
 20
-3.937839
  0
VERTEX
  8
PLAN_1
  6
CONTINUOUS
 10
2.173472
 20
-3.932697
  0
VERTEX
  8
PLAN_1
  6
CONTINUOUS
 10
2.176043
 20
-3.927559
  0
VERTEX
  8
PLAN_1
  6
CONTINUOUS
 10
2.179126
 20
-3.922933
  0
VERTEX
  8
PLAN_1
  6
CONTINUOUS
 10
2.183236
 20
-3.918307
  0
VERTEX
  8
PLAN_1
  6
CONTINUOUS
 10
2.187862
 20
-3.914193
  0
VERTEX
  8
PLAN_1
  6
CONTINUOUS
 10
2.192488
 20
-3.910594
  0
VERTEX
  8
PLAN_1
  6
CONTINUOUS
 10
2.198146
 20
-3.906996
  0
VERTEX
  8
PLAN_1
  6
CONTINUOUS
 10
2.204311
 20
-3.904429
  0
VERTEX
  8
PLAN_1
  6
CONTINUOUS
 10
2.211508
 20
-3.902370
  0
VERTEX
  8
PLAN_1
  6
CONTINUOUS
 10
2.218705
 20
-3.900315
  0
VERTEX
  8
PLAN_1
  6
CONTINUOUS
 10
2.226929
 20
-3.899287
  0
VERTEX
  8
PLAN_1
  6
CONTINUOUS
 10
2.235665
 20
-3.899287
  0
VERTEX
  8
PLAN_1
  6
CONTINUOUS
 10
2.248004
 20
-3.899803
  0
VERTEX
  8
PLAN_1
  6
CONTINUOUS
 10
2.258795
 20
-3.900831
  0
VERTEX
  8
PLAN_1
  6
CONTINUOUS
 10
2.268563
 20
-3.902886
  0
VERTEX
  8
PLAN_1
  6
CONTINUOUS
 10
2.276787
 20
-3.905969
  0
VERTEX
  8
PLAN_1
  6
CONTINUOUS
 10
2.284496
 20
-3.909567
  0
VERTEX
  8
PLAN_1
  6
CONTINUOUS
 10
2.290665
 20
-3.913681
  0
VERTEX
  8
PLAN_1
  6
CONTINUOUS
 10
2.295803
 20
-3.917791
  0
VERTEX
  8
PLAN_1
  6
CONTINUOUS
 10
2.300429
 20
-3.922933
  0
VERTEX
  8
PLAN_1
  6
CONTINUOUS
 10
2.304028
 20
-3.927559
  0
VERTEX
  8
PLAN_1
  6
CONTINUOUS
 10
2.306598
 20
-3.933213
  0
VERTEX
  8
PLAN_1
  6
CONTINUOUS
 10
2.308654
 20
-3.938350
  0
VERTEX
  8
PLAN_1
  6
CONTINUOUS
 10
2.310709
 20
-3.943492
  0
VERTEX
  8
PLAN_1
  6
CONTINUOUS
 10
2.312768
 20
-3.953772
  0
VERTEX
  8
PLAN_1
  6
CONTINUOUS
 10
2.313280
 20
-3.962512
  0
VERTEX
  8
PLAN_1
  6
CONTINUOUS
 10
2.288094
 20
-3.962512
  0
SEQEND
  8
0
  0
POLYLINE
  8
PLAN_1
  6
CONTINUOUS
 66
     1
 40
0.008220
 41
0.008220
  0
VERTEX
  8
PLAN_1
  6
CONTINUOUS
 10
-0.603157
 20
-0.564457
  0
VERTEX
  8
PLAN_1
  6
CONTINUOUS
 10
-0.603157
 20
3.356850
  0
VERTEX
  8
PLAN_1
  6
CONTINUOUS
 10
-1.901520
 20
3.356850
  0
VERTEX
  8
PLAN_1
  6
CONTINUOUS
 10
-1.901520
 20
2.523142
  0
VERTEX
  8
PLAN_1
  6
CONTINUOUS
 10
-2.221228
 20
2.523142
  0
VERTEX
  8
PLAN_1
  6
CONTINUOUS
 10
-2.221228
 20
-0.564457
  0
VERTEX
  8
PLAN_1
  6
CONTINUOUS
 10
-0.603157
 20
-0.564457
  0
SEQEND
  8
0
  0
POLYLINE
  8
PLAN_1
  6
CONTINUOUS
 66
     1
 40
0.008220
 41
0.008220
  0
VERTEX
  8
PLAN_1
  6
CONTINUOUS
 10
-1.589008
 20
2.523142
  0
VERTEX
  8
PLAN_1
  6
CONTINUOUS
 10
-1.589008
 20
2.723087
  0
VERTEX
  8
PLAN_1
  6
CONTINUOUS
 10
-1.902547
 20
2.723087
  0
SEQEND
  8
0
  0
POLYLINE
  8
PLAN_1
  6
CONTINUOUS
 66
     1
 40
0.008220
 41
0.008220
  0
VERTEX
  8
PLAN_1
  6
CONTINUOUS
 10
-0.603157
 20
2.723087
  0
VERTEX
  8
PLAN_1
  6
CONTINUOUS
 10
-0.920807
 20
2.723087
  0
VERTEX
  8
PLAN_1
  6
CONTINUOUS
 10
-0.920807
 20
2.523142
  0
SEQEND
  8
0
  0
POLYLINE
  8
PLAN_1
  6
CONTINUOUS
 66
     1
 40
0.008220
 41
0.008220
  0
VERTEX
  8
PLAN_1
  6
CONTINUOUS
 10
-0.581055
 20
2.189043
  0
VERTEX
  8
PLAN_1
  6
CONTINUOUS
 10
-0.581055
 20
2.490244
  0
VERTEX
  8
PLAN_1
  6
CONTINUOUS
 10
-0.600071
 20
2.490244
  0
VERTEX
  8
PLAN_1
  6
CONTINUOUS
 10
-0.600071
 20
2.189043
  0
VERTEX
  8
PLAN_1
  6
CONTINUOUS
 10
-0.581055
 20
2.189043
  0
SEQEND
  8
0
  0
POLYLINE
  8
PLAN_1
  6
CONTINUOUS
 66
     1
 40
0.008220
 41
0.008220
  0
VERTEX
  8
PLAN_1
  6
CONTINUOUS
 10
-0.581055
 20
-0.535157
  0
VERTEX
  8
PLAN_1
  6
CONTINUOUS
 10
-0.581055
 20
-0.234469
  0
VERTEX
  8
PLAN_1
  6
CONTINUOUS
 10
-0.600071
 20
-0.234469
  0
VERTEX
  8
PLAN_1
  6
CONTINUOUS
 10
-0.600071
 20
-0.535157
  0
VERTEX
  8
PLAN_1
  6
CONTINUOUS
 10
-0.581055
 20
-0.535157
  0
SEQEND
  8
0
  0
POLYLINE
  8
PLAN_1
  6
CONTINUOUS
 66
     1
 40
0.008220
 41
0.008220
  0
VERTEX
  8
PLAN_1
  6
CONTINUOUS
 10
-2.145669
 20
2.523142
  0
VERTEX
  8
PLAN_1
  6
CONTINUOUS
 10
-2.145669
 20
-0.564457
  0
SEQEND
  8
0
  0
POLYLINE
  8
PLAN_1
  6
CONTINUOUS
 66
     1
 40
0.008220
 41
0.008220
  0
VERTEX
  8
PLAN_1
  6
CONTINUOUS
 10
-2.062917
 20
2.523142
  0
VERTEX
  8
PLAN_1
  6
CONTINUOUS
 10
-2.062917
 20
-0.564457
  0
SEQEND
  8
0
  0
POLYLINE
  8
PLAN_1
  6
CONTINUOUS
 66
     1
 40
0.008220
 41
0.008220
  0
VERTEX
  8
PLAN_1
  6
CONTINUOUS
 10
-2.062917
 20
1.940780
  0
VERTEX
  8
PLAN_1
  6
CONTINUOUS
 10
-1.902547
 20
1.940780
  0
VERTEX
  8
PLAN_1
  6
CONTINUOUS
 10
-1.902547
 20
2.523142
  0
SEQEND
  8
0
  0
POLYLINE
  8
PLAN_1
  6
CONTINUOUS
 66
     1
 40
0.008220
 41
0.008220
  0
VERTEX
  8
PLAN_1
  6
CONTINUOUS
 10
-2.059319
 20
-0.016531
  0
VERTEX
  8
PLAN_1
  6
CONTINUOUS
 10
-1.901520
 20
-0.016531
  0
VERTEX
  8
PLAN_1
  6
CONTINUOUS
 10
-1.901520
 20
-0.565484
  0
SEQEND
  8
0
  0
POLYLINE
  8
PLAN_1
  6
CONTINUOUS
 66
     1
 40
0.008220
 41
0.008220
  0
VERTEX
  8
PLAN_1
  6
CONTINUOUS
 10
-2.221228
 20
-0.477591
  0
VERTEX
  8
PLAN_1
  6
CONTINUOUS
 10
-2.221228
 20
-0.222134
  0
VERTEX
  8
PLAN_1
  6
CONTINUOUS
 10
-2.318890
 20
-0.222134
  0
VERTEX
  8
PLAN_1
  6
CONTINUOUS
 10
-2.318890
 20
-0.477591
  0
VERTEX
  8
PLAN_1
  6
CONTINUOUS
 10
-2.221228
 20
-0.477591
  0
SEQEND
  8
0
  0
POLYLINE
  8
PLAN_1
  6
CONTINUOUS
 66
     1
 40
0.008220
 41
0.008220
  0
VERTEX
  8
PLAN_1
  6
CONTINUOUS
 10
-2.265945
 20
-0.455488
  0
VERTEX
  8
PLAN_1
  6
CONTINUOUS
 10
-2.265945
 20
-0.432870
  0
VERTEX
  8
PLAN_1
  6
CONTINUOUS
 10
-2.318890
 20
-0.432870
  0
VERTEX
  8
PLAN_1
  6
CONTINUOUS
 10
-2.318890
 20
-0.455488
  0
VERTEX
  8
PLAN_1
  6
CONTINUOUS
 10
-2.265945
 20
-0.455488
  0
SEQEND
  8
0
  0
POLYLINE
  8
PLAN_1
  6
CONTINUOUS
 66
     1
 40
0.008220
 41
0.008220
  0
VERTEX
  8
PLAN_1
  6
CONTINUOUS
 10
-2.221228
 20
2.439358
  0
VERTEX
  8
PLAN_1
  6
CONTINUOUS
 10
-2.221228
 20
2.183390
  0
VERTEX
  8
PLAN_1
  6
CONTINUOUS
 10
-2.318890
 20
2.183390
  0
VERTEX
  8
PLAN_1
  6
CONTINUOUS
 10
-2.318890
 20
2.439358
  0
VERTEX
  8
PLAN_1
  6
CONTINUOUS
 10
-2.221228
 20
2.439358
  0
SEQEND
  8
0
  0
POLYLINE
  8
PLAN_1
  6
CONTINUOUS
 66
     1
 40
0.008220
 41
0.008220
  0
VERTEX
  8
PLAN_1
  6
CONTINUOUS
 10
-2.265945
 20
2.416744
  0
VERTEX
  8
PLAN_1
  6
CONTINUOUS
 10
-2.265945
 20
2.394130
  0
VERTEX
  8
PLAN_1
  6
CONTINUOUS
 10
-2.318890
 20
2.394130
  0
VERTEX
  8
PLAN_1
  6
CONTINUOUS
 10
-2.318890
 20
2.416744
  0
VERTEX
  8
PLAN_1
  6
CONTINUOUS
 10
-2.265945
 20
2.416744
  0
SEQEND
  8
0
  0
POLYLINE
  8
PLAN_1
  6
CONTINUOUS
 66
     1
 40
0.008220
 41
0.008220
  0
VERTEX
  8
PLAN_1
  6
CONTINUOUS
 10
-0.603157
 20
2.521598
  0
VERTEX
  8
PLAN_1
  6
CONTINUOUS
 10
-1.899465
 20
2.521598
  0
SEQEND
  8
0
  0
POLYLINE
  8
PLAN_1
  6
CONTINUOUS
 66
     1
 40
0.008220
 41
0.008220
  0
VERTEX
  8
PLAN_1
  6
CONTINUOUS
 10
-0.886370
 20
3.356850
  0
VERTEX
  8
PLAN_1
  6
CONTINUOUS
 10
-0.886370
 20
3.378437
  0
VERTEX
  8
PLAN_1
  6
CONTINUOUS
 10
-1.623445
 20
3.378437
  0
VERTEX
  8
PLAN_1
  6
CONTINUOUS
 10
-1.623445
 20
3.356850
  0
VERTEX
  8
PLAN_1
  6
CONTINUOUS
 10
-0.886370
 20
3.356850
  0
SEQEND
  8
0
  0
POLYLINE
  8
PLAN_1
  6
CONTINUOUS
 66
     1
 40
0.008220
 41
0.008220
  0
VERTEX
  8
PLAN_1
  6
CONTINUOUS
 10
-1.048795
 20
3.774217
  0
VERTEX
  8
PLAN_1
  6
CONTINUOUS
 10
-1.070898
 20
3.790665
  0
VERTEX
  8
PLAN_1
  6
CONTINUOUS
 10
-1.092484
 20
3.805059
  0
VERTEX
  8
PLAN_1
  6
CONTINUOUS
 10
-1.114071
 20
3.817394
  0
VERTEX
  8
PLAN_1
  6
CONTINUOUS
 10
-1.135146
 20
3.828189
  0
VERTEX
  8
PLAN_1
  6
CONTINUOUS
 10
-1.155193
 20
3.836925
  0
VERTEX
  8
PLAN_1
  6
CONTINUOUS
 10
-1.175236
 20
3.844122
  0
VERTEX
  8
PLAN_1
  6
CONTINUOUS
 10
-1.194772
 20
3.849264
  0
VERTEX
  8
PLAN_1
  6
CONTINUOUS
 10
-1.213787
 20
3.853374
  0
VERTEX
  8
PLAN_1
  6
CONTINUOUS
 10
-1.232291
 20
3.855945
  0
VERTEX
  8
PLAN_1
  6
CONTINUOUS
 10
-1.250283
 20
3.857484
  0
VERTEX
  8
PLAN_1
  6
CONTINUOUS
 10
-1.267760
 20
3.857484
  0
VERTEX
  8
PLAN_1
  6
CONTINUOUS
 10
-1.284720
 20
3.856457
  0
VERTEX
  8
PLAN_1
  6
CONTINUOUS
 10
-1.300654
 20
3.854917
  0
VERTEX
  8
PLAN_1
  6
CONTINUOUS
 10
-1.316587
 20
3.852346
  0
VERTEX
  8
PLAN_1
  6
CONTINUOUS
 10
-1.330980
 20
3.848748
  0
VERTEX
  8
PLAN_1
  6
CONTINUOUS
 10
-1.345370
 20
3.844638
  0
VERTEX
  8
PLAN_1
  6
CONTINUOUS
 10
-1.358736
 20
3.840012
  0
VERTEX
  8
PLAN_1
  6
CONTINUOUS
 10
-1.371587
 20
3.834870
  0
VERTEX
  8
PLAN_1
  6
CONTINUOUS
 10
-1.383921
 20
3.829217
  0
VERTEX
  8
PLAN_1
  6
CONTINUOUS
 10
-1.395228
 20
3.823563
  0
VERTEX
  8
PLAN_1
  6
CONTINUOUS
 10
-1.405512
 20
3.817909
  0
VERTEX
  8
PLAN_1
  6
CONTINUOUS
 10
-1.415276
 20
3.812256
  0
VERTEX
  8
PLAN_1
  6
CONTINUOUS
 10
-1.424016
 20
3.806087
  0
VERTEX
  8
PLAN_1
  6
CONTINUOUS
 10
-1.432236
 20
3.800945
  0
VERTEX
  8
PLAN_1
  6
CONTINUOUS
 10
-1.445602
 20
3.790665
  0
VERTEX
  8
PLAN_1
  6
CONTINUOUS
 10
-1.455366
 20
3.781929
  0
VERTEX
  8
PLAN_1
  6
CONTINUOUS
 10
-1.461535
 20
3.776276
  0
VERTEX
  8
PLAN_1
  6
CONTINUOUS
 10
-1.463591
 20
3.774217
  0
SEQEND
  8
0
  0
POLYLINE
  8
PLAN_1
  6
CONTINUOUS
 66
     1
 40
0.008220
 41
0.008220
  0
VERTEX
  8
PLAN_1
  6
CONTINUOUS
 10
-1.463591
 20
3.774217
  0
VERTEX
  8
PLAN_1
  6
CONTINUOUS
 10
-1.463079
 20
3.378437
  0
VERTEX
  8
PLAN_1
  6
CONTINUOUS
 10
-1.048795
 20
3.378437
  0
VERTEX
  8
PLAN_1
  6
CONTINUOUS
 10
-1.048795
 20
3.774217
  0
SEQEND
  8
0
  0
POLYLINE
  8
PLAN_1
  6
CONTINUOUS
 66
     1
 40
0.008220
 41
0.008220
  0
VERTEX
  8
PLAN_1
  6
CONTINUOUS
 10
-1.048795
 20
3.773189
  0
VERTEX
  8
PLAN_1
  6
CONTINUOUS
 10
-1.463079
 20
3.773189
  0
SEQEND
  8
0
  0
POLYLINE
  8
PLAN_1
 62
     2
  6
CONTINUOUS
 66
     1
 40
0.004110
 41
0.004110
  0
VERTEX
  8
PLAN_1
 62
     2
  6
CONTINUOUS
 10
-0.400642
 20
-0.564457
  0
VERTEX
  8
PLAN_1
 62
     2
  6
CONTINUOUS
 10
-0.557925
 20
-0.564457
  0
SEQEND
  8
0
  0
POLYLINE
  8
PLAN_1
 62
     2
  6
CONTINUOUS
 66
     1
 40
0.004110
 41
0.004110
  0
VERTEX
  8
PLAN_1
 62
     2
  6
CONTINUOUS
 10
-0.400642
 20
3.854402
  0
VERTEX
  8
PLAN_1
 62
     2
  6
CONTINUOUS
 10
-0.554327
 20
3.854402
  0
SEQEND
  8
0
  0
POLYLINE
  8
PLAN_1
 62
     2
  6
CONTINUOUS
 66
     1
 40
0.004110
 41
0.004110
  0
VERTEX
  8
PLAN_1
 62
     2
  6
CONTINUOUS
 10
-0.581055
 20
4.042012
  0
VERTEX
  8
PLAN_1
 62
     2
  6
CONTINUOUS
 10
-0.581055
 20
2.513890
  0
SEQEND
  8
0
  0
POLYLINE
  8
PLAN_1
 62
     2
  6
CONTINUOUS
 66
     1
 40
0.004110
 41
0.004110
  0
VERTEX
  8
PLAN_1
 62
     2
  6
CONTINUOUS
 10
-1.272386
 20
4.042012
  0
VERTEX
  8
PLAN_1
 62
     2
  6
CONTINUOUS
 10
-1.272386
 20
3.875476
  0
SEQEND
  8
0
  0
POLYLINE
  8
PLAN_1
 62
     2
  6
CONTINUOUS
 66
     1
 40
0.004110
 41
0.004110
  0
VERTEX
  8
PLAN_1
 62
     2
  6
CONTINUOUS
 10
-0.601614
 20
3.854402
  0
VERTEX
  8
PLAN_1
 62
     2
  6
CONTINUOUS
 10
-1.171642
 20
3.854402
  0
SEQEND
  8
0
  0
POLYLINE
  8
PLAN_1
 62
     2
  6
CONTINUOUS
 66
     1
 40
0.004110
 41
0.004110
  0
VERTEX
  8
PLAN_1
 62
     2
  6
CONTINUOUS
 10
-1.243087
 20
4.018366
  0
VERTEX
  8
PLAN_1
 62
     2
  6
CONTINUOUS
 10
-0.614976
 20
4.018366
  0
SEQEND
  8
0
  0
SOLID
  8
PLAN_1
 62
     2
 10
-0.585681
 20
4.018366
 11
-0.644276
 21
4.033787
 12
-0.585681
 22
4.018366
 13
-0.644276
 23
4.002433
  0
POLYLINE
  8
PLAN_1
 62
     2
  6
CONTINUOUS
 66
     1
 40
0.003000
 41
0.003000
  0
VERTEX
  8
PLAN_1
 62
     2
  6
CONTINUOUS
 10
-0.585681
 20
4.018366
  0
VERTEX
  8
PLAN_1
 62
     2
  6
CONTINUOUS
 10
-0.644276
 20
4.033787
  0
VERTEX
  8
PLAN_1
 62
     2
  6
CONTINUOUS
 10
-0.644276
 20
4.002433
  0
VERTEX
  8
PLAN_1
 62
     2
  6
CONTINUOUS
 10
-0.585681
 20
4.018366
  0
SEQEND
  8
0
  0
SOLID
  8
PLAN_1
 62
     2
 10
-1.272386
 20
4.018366
 11
-1.213276
 21
4.033787
 12
-1.272386
 22
4.018366
 13
-1.213276
 23
4.002433
  0
POLYLINE
  8
PLAN_1
 62
     2
  6
CONTINUOUS
 66
     1
 40
0.003000
 41
0.003000
  0
VERTEX
  8
PLAN_1
 62
     2
  6
CONTINUOUS
 10
-1.272386
 20
4.018366
  0
VERTEX
  8
PLAN_1
 62
     2
  6
CONTINUOUS
 10
-1.213276
 20
4.033787
  0
VERTEX
  8
PLAN_1
 62
     2
  6
CONTINUOUS
 10
-1.213276
 20
4.002433
  0
VERTEX
  8
PLAN_1
 62
     2
  6
CONTINUOUS
 10
-1.272386
 20
4.018366
  0
SEQEND
  8
0
  0
POLYLINE
  8
PLAN_1
 62
     2
  6
CONTINUOUS
 66
     1
 40
0.003000
 41
0.003000
  0
VERTEX
  8
PLAN_1
 62
     2
  6
CONTINUOUS
 10
-0.949591
 20
4.042012
  0
VERTEX
  8
PLAN_1
 62
     2
  6
CONTINUOUS
 10
-0.959358
 20
4.042012
  0
VERTEX
  8
PLAN_1
 62
     2
  6
CONTINUOUS
 10
-0.959358
 20
4.093925
  0
VERTEX
  8
PLAN_1
 62
     2
  6
CONTINUOUS
 10
-0.976319
 20
4.093925
  0
VERTEX
  8
PLAN_1
 62
     2
  6
CONTINUOUS
 10
-0.976319
 20
4.101122
  0
VERTEX
  8
PLAN_1
 62
     2
  6
CONTINUOUS
 10
-0.972209
 20
4.101638
  0
VERTEX
  8
PLAN_1
 62
     2
  6
CONTINUOUS
 10
-0.968610
 20
4.102150
  0
VERTEX
  8
PLAN_1
 62
     2
  6
CONTINUOUS
 10
-0.965528
 20
4.102665
  0
VERTEX
  8
PLAN_1
 62
     2
  6
CONTINUOUS
 10
-0.962957
 20
4.103693
  0
VERTEX
  8
PLAN_1
 62
     2
  6
CONTINUOUS
 10
-0.960902
 20
4.105748
  0
VERTEX
  8
PLAN_1
 62
     2
  6
CONTINUOUS
 10
-0.959358
 20
4.107803
  0
VERTEX
  8
PLAN_1
 62
     2
  6
CONTINUOUS
 10
-0.957815
 20
4.110890
  0
VERTEX
  8
PLAN_1
 62
     2
  6
CONTINUOUS
 10
-0.956787
 20
4.115000
  0
VERTEX
  8
PLAN_1
 62
     2
  6
CONTINUOUS
 10
-0.949591
 20
4.115000
  0
VERTEX
  8
PLAN_1
 62
     2
  6
CONTINUOUS
 10
-0.949591
 20
4.042012
  0
SEQEND
  8
0
  0
POLYLINE
  8
PLAN_1
 62
     2
  6
CONTINUOUS
 66
     1
 40
0.003000
 41
0.003000
  0
VERTEX
  8
PLAN_1
 62
     2
  6
CONTINUOUS
 10
-0.924921
 20
4.113457
  0
VERTEX
  8
PLAN_1
 62
     2
  6
CONTINUOUS
 10
-0.874547
 20
4.113457
  0
VERTEX
  8
PLAN_1
 62
     2
  6
CONTINUOUS
 10
-0.874547
 20
4.105232
  0
VERTEX
  8
PLAN_1
 62
     2
  6
CONTINUOUS
 10
-0.877634
 20
4.101638
  0
VERTEX
  8
PLAN_1
 62
     2
  6
CONTINUOUS
 10
-0.881744
 20
4.097012
  0
VERTEX
  8
PLAN_1
 62
     2
  6
CONTINUOUS
 10
-0.885854
 20
4.090843
  0
VERTEX
  8
PLAN_1
 62
     2
  6
CONTINUOUS
 10
-0.890480
 20
4.083134
  0
VERTEX
  8
PLAN_1
 62
     2
  6
CONTINUOUS
 10
-0.894594
 20
4.074394
  0
VERTEX
  8
PLAN_1
 62
     2
  6
CONTINUOUS
 10
-0.898705
 20
4.064630
  0
VERTEX
  8
PLAN_1
 62
     2
  6
CONTINUOUS
 10
-0.900764
 20
4.058972
  0
VERTEX
  8
PLAN_1
 62
     2
  6
CONTINUOUS
 10
-0.902303
 20
4.053835
  0
VERTEX
  8
PLAN_1
 62
     2
  6
CONTINUOUS
 10
-0.903331
 20
4.047665
  0
VERTEX
  8
PLAN_1
 62
     2
  6
CONTINUOUS
 10
-0.904874
 20
4.042012
  0
VERTEX
  8
PLAN_1
 62
     2
  6
CONTINUOUS
 10
-0.914642
 20
4.042012
  0
VERTEX
  8
PLAN_1
 62
     2
  6
CONTINUOUS
 10
-0.913098
 20
4.049720
  0
VERTEX
  8
PLAN_1
 62
     2
  6
CONTINUOUS
 10
-0.911043
 20
4.057945
  0
VERTEX
  8
PLAN_1
 62
     2
  6
CONTINUOUS
 10
-0.907957
 20
4.066169
  0
VERTEX
  8
PLAN_1
 62
     2
  6
CONTINUOUS
 10
-0.904358
 20
4.074394
  0
VERTEX
  8
PLAN_1
 62
     2
  6
CONTINUOUS
 10
-0.899732
 20
4.082618
  0
VERTEX
  8
PLAN_1
 62
     2
  6
CONTINUOUS
 10
-0.895106
 20
4.090843
  0
VERTEX
  8
PLAN_1
 62
     2
  6
CONTINUOUS
 10
-0.889969
 20
4.098039
  0
VERTEX
  8
PLAN_1
 62
     2
  6
CONTINUOUS
 10
-0.884827
 20
4.104720
  0
VERTEX
  8
PLAN_1
 62
     2
  6
CONTINUOUS
 10
-0.924921
 20
4.104720
  0
VERTEX
  8
PLAN_1
 62
     2
  6
CONTINUOUS
 10
-0.924921
 20
4.113457
  0
SEQEND
  8
0
  0
POLYLINE
  8
PLAN_1
 62
     2
  6
CONTINUOUS
 66
     1
 40
0.004110
 41
0.004110
  0
VERTEX
  8
PLAN_1
 62
     2
  6
CONTINUOUS
 10
-0.424283
 20
-0.534646
  0
VERTEX
  8
PLAN_1
 62
     2
  6
CONTINUOUS
 10
-0.424283
 20
3.824591
  0
SEQEND
  8
0
  0
SOLID
  8
PLAN_1
 62
     2
 10
-0.424283
 20
3.854402
 11
-0.440217
 21
3.795291
 12
-0.424283
 22
3.854402
 13
-0.408350
 23
3.795291
  0
POLYLINE
  8
PLAN_1
 62
     2
  6
CONTINUOUS
 66
     1
 40
0.003000
 41
0.003000
  0
VERTEX
  8
PLAN_1
 62
     2
  6
CONTINUOUS
 10
-0.424283
 20
3.854402
  0
VERTEX
  8
PLAN_1
 62
     2
  6
CONTINUOUS
 10
-0.440217
 20
3.795291
  0
VERTEX
  8
PLAN_1
 62
     2
  6
CONTINUOUS
 10
-0.408350
 20
3.795291
  0
VERTEX
  8
PLAN_1
 62
     2
  6
CONTINUOUS
 10
-0.424283
 20
3.854402
  0
SEQEND
  8
0
  0
SOLID
  8
PLAN_1
 62
     2
 10
-0.424283
 20
-0.564457
 11
-0.440217
 21
-0.505346
 12
-0.424283
 22
-0.564457
 13
-0.408350
 23
-0.505346
  0
POLYLINE
  8
PLAN_1
 62
     2
  6
CONTINUOUS
 66
     1
 40
0.003000
 41
0.003000
  0
VERTEX
  8
PLAN_1
 62
     2
  6
CONTINUOUS
 10
-0.424283
 20
-0.564457
  0
VERTEX
  8
PLAN_1
 62
     2
  6
CONTINUOUS
 10
-0.440217
 20
-0.505346
  0
VERTEX
  8
PLAN_1
 62
     2
  6
CONTINUOUS
 10
-0.408350
 20
-0.505346
  0
VERTEX
  8
PLAN_1
 62
     2
  6
CONTINUOUS
 10
-0.424283
 20
-0.564457
  0
SEQEND
  8
0
  0
POLYLINE
  8
PLAN_1
 62
     2
  6
CONTINUOUS
 66
     1
 40
0.003000
 41
0.003000
  0
VERTEX
  8
PLAN_1
 62
     2
  6
CONTINUOUS
 10
-0.447929
 20
1.595370
  0
VERTEX
  8
PLAN_1
 62
     2
  6
CONTINUOUS
 10
-0.447929
 20
1.585606
  0
VERTEX
  8
PLAN_1
 62
     2
  6
CONTINUOUS
 10
-0.499843
 20
1.585606
  0
VERTEX
  8
PLAN_1
 62
     2
  6
CONTINUOUS
 10
-0.499843
 20
1.568646
  0
VERTEX
  8
PLAN_1
 62
     2
  6
CONTINUOUS
 10
-0.507039
 20
1.568646
  0
VERTEX
  8
PLAN_1
 62
     2
  6
CONTINUOUS
 10
-0.507551
 20
1.572756
  0
VERTEX
  8
PLAN_1
 62
     2
  6
CONTINUOUS
 10
-0.508067
 20
1.576354
  0
VERTEX
  8
PLAN_1
 62
     2
  6
CONTINUOUS
 10
-0.508579
 20
1.579437
  0
VERTEX
  8
PLAN_1
 62
     2
  6
CONTINUOUS
 10
-0.509606
 20
1.582008
  0
VERTEX
  8
PLAN_1
 62
     2
  6
CONTINUOUS
 10
-0.511665
 20
1.584063
  0
VERTEX
  8
PLAN_1
 62
     2
  6
CONTINUOUS
 10
-0.513720
 20
1.585606
  0
VERTEX
  8
PLAN_1
 62
     2
  6
CONTINUOUS
 10
-0.516803
 20
1.587150
  0
VERTEX
  8
PLAN_1
 62
     2
  6
CONTINUOUS
 10
-0.520917
 20
1.588177
  0
VERTEX
  8
PLAN_1
 62
     2
  6
CONTINUOUS
 10
-0.520917
 20
1.595370
  0
VERTEX
  8
PLAN_1
 62
     2
  6
CONTINUOUS
 10
-0.447929
 20
1.595370
  0
SEQEND
  8
0
  0
POLYLINE
  8
PLAN_1
 62
     2
  6
CONTINUOUS
 66
     1
 40
0.003000
 41
0.003000
  0
VERTEX
  8
PLAN_1
 62
     2
  6
CONTINUOUS
 10
-0.445870
 20
1.644717
  0
VERTEX
  8
PLAN_1
 62
     2
  6
CONTINUOUS
 10
-0.445870
 20
1.641118
  0
VERTEX
  8
PLAN_1
 62
     2
  6
CONTINUOUS
 10
-0.446902
 20
1.638035
  0
VERTEX
  8
PLAN_1
 62
     2
  6
CONTINUOUS
 10
-0.447929
 20
1.634949
  0
VERTEX
  8
PLAN_1
 62
     2
  6
CONTINUOUS
 10
-0.449469
 20
1.632382
  0
VERTEX
  8
PLAN_1
 62
     2
  6
CONTINUOUS
 10
-0.451528
 20
1.629811
  0
VERTEX
  8
PLAN_1
 62
     2
  6
CONTINUOUS
 10
-0.453583
 20
1.627756
  0
VERTEX
  8
PLAN_1
 62
     2
  6
CONTINUOUS
 10
-0.456154
 20
1.626213
  0
VERTEX
  8
PLAN_1
 62
     2
  6
CONTINUOUS
 10
-0.458720
 20
1.624669
  0
VERTEX
  8
PLAN_1
 62
     2
  6
CONTINUOUS
 10
-0.464890
 20
1.622098
  0
VERTEX
  8
PLAN_1
 62
     2
  6
CONTINUOUS
 10
-0.471059
 20
1.621071
  0
VERTEX
  8
PLAN_1
 62
     2
  6
CONTINUOUS
 10
-0.477224
 20
1.620043
  0
VERTEX
  8
PLAN_1
 62
     2
  6
CONTINUOUS
 10
-0.483394
 20
1.620043
  0
VERTEX
  8
PLAN_1
 62
     2
  6
CONTINUOUS
 10
-0.489563
 20
1.620043
  0
VERTEX
  8
PLAN_1
 62
     2
  6
CONTINUOUS
 10
-0.495728
 20
1.621071
  0
VERTEX
  8
PLAN_1
 62
     2
  6
CONTINUOUS
 10
-0.501898
 20
1.622098
  0
VERTEX
  8
PLAN_1
 62
     2
  6
CONTINUOUS
 10
-0.508067
 20
1.624669
  0
VERTEX
  8
PLAN_1
 62
     2
  6
CONTINUOUS
 10
-0.510638
 20
1.626213
  0
VERTEX
  8
PLAN_1
 62
     2
  6
CONTINUOUS
 10
-0.513205
 20
1.627756
  0
VERTEX
  8
PLAN_1
 62
     2
  6
CONTINUOUS
 10
-0.515264
 20
1.629811
  0
VERTEX
  8
PLAN_1
 62
     2
  6
CONTINUOUS
 10
-0.517319
 20
1.632382
  0
VERTEX
  8
PLAN_1
 62
     2
  6
CONTINUOUS
 10
-0.518858
 20
1.634949
  0
VERTEX
  8
PLAN_1
 62
     2
  6
CONTINUOUS
 10
-0.519890
 20
1.638035
  0
VERTEX
  8
PLAN_1
 62
     2
  6
CONTINUOUS
 10
-0.520917
 20
1.641118
  0
VERTEX
  8
PLAN_1
 62
     2
  6
CONTINUOUS
 10
-0.520917
 20
1.644717
  0
VERTEX
  8
PLAN_1
 62
     2
  6
CONTINUOUS
 10
-0.520917
 20
1.648827
  0
VERTEX
  8
PLAN_1
 62
     2
  6
CONTINUOUS
 10
-0.519890
 20
1.651913
  0
VERTEX
  8
PLAN_1
 62
     2
  6
CONTINUOUS
 10
-0.518858
 20
1.654996
  0
VERTEX
  8
PLAN_1
 62
     2
  6
CONTINUOUS
 10
-0.517319
 20
1.657567
  0
VERTEX
  8
PLAN_1
 62
     2
  6
CONTINUOUS
 10
-0.515264
 20
1.660138
  0
VERTEX
  8
PLAN_1
 62
     2
  6
CONTINUOUS
 10
-0.513205
 20
1.662193
  0
VERTEX
  8
PLAN_1
 62
     2
  6
CONTINUOUS
 10
-0.510638
 20
1.663732
  0
VERTEX
  8
PLAN_1
 62
     2
  6
CONTINUOUS
 10
-0.508067
 20
1.665276
  0
VERTEX
  8
PLAN_1
 62
     2
  6
CONTINUOUS
 10
-0.501898
 20
1.667846
  0
VERTEX
  8
PLAN_1
 62
     2
  6
CONTINUOUS
 10
-0.495728
 20
1.668874
  0
VERTEX
  8
PLAN_1
 62
     2
  6
CONTINUOUS
 10
-0.489563
 20
1.669902
  0
VERTEX
  8
PLAN_1
 62
     2
  6
CONTINUOUS
 10
-0.483394
 20
1.669902
  0
VERTEX
  8
PLAN_1
 62
     2
  6
CONTINUOUS
 10
-0.477224
 20
1.669902
  0
VERTEX
  8
PLAN_1
 62
     2
  6
CONTINUOUS
 10
-0.471059
 20
1.668874
  0
VERTEX
  8
PLAN_1
 62
     2
  6
CONTINUOUS
 10
-0.464890
 20
1.667846
  0
VERTEX
  8
PLAN_1
 62
     2
  6
CONTINUOUS
 10
-0.458720
 20
1.665276
  0
VERTEX
  8
PLAN_1
 62
     2
  6
CONTINUOUS
 10
-0.456154
 20
1.663732
  0
VERTEX
  8
PLAN_1
 62
     2
  6
CONTINUOUS
 10
-0.453583
 20
1.662193
  0
VERTEX
  8
PLAN_1
 62
     2
  6
CONTINUOUS
 10
-0.451528
 20
1.660138
  0
VERTEX
  8
PLAN_1
 62
     2
  6
CONTINUOUS
 10
-0.449469
 20
1.657567
  0
VERTEX
  8
PLAN_1
 62
     2
  6
CONTINUOUS
 10
-0.447929
 20
1.654996
  0
VERTEX
  8
PLAN_1
 62
     2
  6
CONTINUOUS
 10
-0.446902
 20
1.651913
  0
VERTEX
  8
PLAN_1
 62
     2
  6
CONTINUOUS
 10
-0.445870
 20
1.648827
  0
VERTEX
  8
PLAN_1
 62
     2
  6
CONTINUOUS
 10
-0.445870
 20
1.644717
  0
SEQEND
  8
0
  0
POLYLINE
  8
PLAN_1
 62
     2
  6
CONTINUOUS
 66
     1
 40
0.003000
 41
0.003000
  0
VERTEX
  8
PLAN_1
 62
     2
  6
CONTINUOUS
 10
-0.512693
 20
1.644717
  0
VERTEX
  8
PLAN_1
 62
     2
  6
CONTINUOUS
 10
-0.512693
 20
1.643173
  0
VERTEX
  8
PLAN_1
 62
     2
  6
CONTINUOUS
 10
-0.512177
 20
1.641118
  0
VERTEX
  8
PLAN_1
 62
     2
  6
CONTINUOUS
 10
-0.511665
 20
1.639575
  0
VERTEX
  8
PLAN_1
 62
     2
  6
CONTINUOUS
 10
-0.510638
 20
1.638035
  0
VERTEX
  8
PLAN_1
 62
     2
  6
CONTINUOUS
 10
-0.508067
 20
1.635465
  0
VERTEX
  8
PLAN_1
 62
     2
  6
CONTINUOUS
 10
-0.504980
 20
1.633409
  0
VERTEX
  8
PLAN_1
 62
     2
  6
CONTINUOUS
 10
-0.500870
 20
1.631866
  0
VERTEX
  8
PLAN_1
 62
     2
  6
CONTINUOUS
 10
-0.495728
 20
1.630323
  0
VERTEX
  8
PLAN_1
 62
     2
  6
CONTINUOUS
 10
-0.490075
 20
1.629811
  0
VERTEX
  8
PLAN_1
 62
     2
  6
CONTINUOUS
 10
-0.483394
 20
1.629811
  0
VERTEX
  8
PLAN_1
 62
     2
  6
CONTINUOUS
 10
-0.476713
 20
1.629811
  0
VERTEX
  8
PLAN_1
 62
     2
  6
CONTINUOUS
 10
-0.471059
 20
1.630323
  0
VERTEX
  8
PLAN_1
 62
     2
  6
CONTINUOUS
 10
-0.465917
 20
1.631866
  0
VERTEX
  8
PLAN_1
 62
     2
  6
CONTINUOUS
 10
-0.461807
 20
1.633409
  0
VERTEX
  8
PLAN_1
 62
     2
  6
CONTINUOUS
 10
-0.458720
 20
1.635465
  0
VERTEX
  8
PLAN_1
 62
     2
  6
CONTINUOUS
 10
-0.456154
 20
1.638035
  0
VERTEX
  8
PLAN_1
 62
     2
  6
CONTINUOUS
 10
-0.455122
 20
1.639575
  0
VERTEX
  8
PLAN_1
 62
     2
  6
CONTINUOUS
 10
-0.454610
 20
1.641118
  0
VERTEX
  8
PLAN_1
 62
     2
  6
CONTINUOUS
 10
-0.454094
 20
1.643173
  0
VERTEX
  8
PLAN_1
 62
     2
  6
CONTINUOUS
 10
-0.454094
 20
1.644717
  0
VERTEX
  8
PLAN_1
 62
     2
  6
CONTINUOUS
 10
-0.454094
 20
1.646772
  0
VERTEX
  8
PLAN_1
 62
     2
  6
CONTINUOUS
 10
-0.454610
 20
1.648827
  0
VERTEX
  8
PLAN_1
 62
     2
  6
CONTINUOUS
 10
-0.455122
 20
1.650370
  0
VERTEX
  8
PLAN_1
 62
     2
  6
CONTINUOUS
 10
-0.456154
 20
1.651913
  0
VERTEX
  8
PLAN_1
 62
     2
  6
CONTINUOUS
 10
-0.458720
 20
1.654480
  0
VERTEX
  8
PLAN_1
 62
     2
  6
CONTINUOUS
 10
-0.461807
 20
1.656539
  0
VERTEX
  8
PLAN_1
 62
     2
  6
CONTINUOUS
 10
-0.465917
 20
1.658079
  0
VERTEX
  8
PLAN_1
 62
     2
  6
CONTINUOUS
 10
-0.471059
 20
1.659106
  0
VERTEX
  8
PLAN_1
 62
     2
  6
CONTINUOUS
 10
-0.476713
 20
1.660138
  0
VERTEX
  8
PLAN_1
 62
     2
  6
CONTINUOUS
 10
-0.483394
 20
1.660138
  0
VERTEX
  8
PLAN_1
 62
     2
  6
CONTINUOUS
 10
-0.490075
 20
1.660138
  0
VERTEX
  8
PLAN_1
 62
     2
  6
CONTINUOUS
 10
-0.495728
 20
1.659106
  0
VERTEX
  8
PLAN_1
 62
     2
  6
CONTINUOUS
 10
-0.500870
 20
1.658079
  0
VERTEX
  8
PLAN_1
 62
     2
  6
CONTINUOUS
 10
-0.504980
 20
1.656539
  0
VERTEX
  8
PLAN_1
 62
     2
  6
CONTINUOUS
 10
-0.508067
 20
1.654480
  0
VERTEX
  8
PLAN_1
 62
     2
  6
CONTINUOUS
 10
-0.510638
 20
1.651913
  0
VERTEX
  8
PLAN_1
 62
     2
  6
CONTINUOUS
 10
-0.511665
 20
1.650370
  0
VERTEX
  8
PLAN_1
 62
     2
  6
CONTINUOUS
 10
-0.512177
 20
1.648827
  0
VERTEX
  8
PLAN_1
 62
     2
  6
CONTINUOUS
 10
-0.512693
 20
1.646772
  0
VERTEX
  8
PLAN_1
 62
     2
  6
CONTINUOUS
 10
-0.512693
 20
1.644717
  0
SEQEND
  8
0
  0
POLYLINE
  8
PLAN_1
 62
     2
  6
CONTINUOUS
 66
     1
 40
0.003000
 41
0.003000
  0
VERTEX
  8
PLAN_1
 62
     2
  6
CONTINUOUS
 10
-0.519374
 20
1.677610
  0
VERTEX
  8
PLAN_1
 62
     2
  6
CONTINUOUS
 10
-0.519374
 20
1.728496
  0
VERTEX
  8
PLAN_1
 62
     2
  6
CONTINUOUS
 10
-0.511665
 20
1.728496
  0
VERTEX
  8
PLAN_1
 62
     2
  6
CONTINUOUS
 10
-0.508067
 20
1.725413
  0
VERTEX
  8
PLAN_1
 62
     2
  6
CONTINUOUS
 10
-0.502925
 20
1.721303
  0
VERTEX
  8
PLAN_1
 62
     2
  6
CONTINUOUS
 10
-0.496760
 20
1.717189
  0
VERTEX
  8
PLAN_1
 62
     2
  6
CONTINUOUS
 10
-0.489047
 20
1.712563
  0
VERTEX
  8
PLAN_1
 62
     2
  6
CONTINUOUS
 10
-0.480311
 20
1.707937
  0
VERTEX
  8
PLAN_1
 62
     2
  6
CONTINUOUS
 10
-0.470543
 20
1.704339
  0
VERTEX
  8
PLAN_1
 62
     2
  6
CONTINUOUS
 10
-0.465406
 20
1.702283
  0
VERTEX
  8
PLAN_1
 62
     2
  6
CONTINUOUS
 10
-0.459752
 20
1.700740
  0
VERTEX
  8
PLAN_1
 62
     2
  6
CONTINUOUS
 10
-0.454094
 20
1.699201
  0
VERTEX
  8
PLAN_1
 62
     2
  6
CONTINUOUS
 10
-0.447929
 20
1.698173
  0
VERTEX
  8
PLAN_1
 62
     2
  6
CONTINUOUS
 10
-0.447929
 20
1.688406
  0
VERTEX
  8
PLAN_1
 62
     2
  6
CONTINUOUS
 10
-0.455638
 20
1.689433
  0
VERTEX
  8
PLAN_1
 62
     2
  6
CONTINUOUS
 10
-0.463862
 20
1.692004
  0
VERTEX
  8
PLAN_1
 62
     2
  6
CONTINUOUS
 10
-0.472087
 20
1.695087
  0
VERTEX
  8
PLAN_1
 62
     2
  6
CONTINUOUS
 10
-0.480823
 20
1.698685
  0
VERTEX
  8
PLAN_1
 62
     2
  6
CONTINUOUS
 10
-0.488535
 20
1.703311
  0
VERTEX
  8
PLAN_1
 62
     2
  6
CONTINUOUS
 10
-0.496760
 20
1.707937
  0
VERTEX
  8
PLAN_1
 62
     2
  6
CONTINUOUS
 10
-0.503953
 20
1.713079
  0
VERTEX
  8
PLAN_1
 62
     2
  6
CONTINUOUS
 10
-0.510638
 20
1.718217
  0
VERTEX
  8
PLAN_1
 62
     2
  6
CONTINUOUS
 10
-0.510638
 20
1.677610
  0
VERTEX
  8
PLAN_1
 62
     2
  6
CONTINUOUS
 10
-0.519374
 20
1.677610
  0
SEQEND
  8
0
  0
POLYLINE
  8
PLAN_1
 62
     2
  6
CONTINUOUS
 66
     1
 40
0.004110
 41
0.004110
  0
VERTEX
  8
PLAN_1
 62
     2
  6
CONTINUOUS
 10
-0.581055
 20
-0.587071
  0
VERTEX
  8
PLAN_1
 62
     2
  6
CONTINUOUS
 10
-0.581055
 20
-0.672909
  0
SEQEND
  8
0
  0
POLYLINE
  8
PLAN_1
 62
     2
  6
CONTINUOUS
 66
     1
 40
0.004110
 41
0.004110
  0
VERTEX
  8
PLAN_1
 62
     2
  6
CONTINUOUS
 10
-0.581055
 20
-0.742299
  0
VERTEX
  8
PLAN_1
 62
     2
  6
CONTINUOUS
 10
-0.581055
 20
-1.015232
  0
SEQEND
  8
0
  0
POLYLINE
  8
PLAN_1
 62
     2
  6
CONTINUOUS
 66
     1
 40
0.004110
 41
0.004110
  0
VERTEX
  8
PLAN_1
 62
     2
  6
CONTINUOUS
 10
-1.901520
 20
-0.587071
  0
VERTEX
  8
PLAN_1
 62
     2
  6
CONTINUOUS
 10
-1.901520
 20
-0.857949
  0
SEQEND
  8
0
  0
POLYLINE
  8
PLAN_1
 62
     2
  6
CONTINUOUS
 66
     1
 40
0.004110
 41
0.004110
  0
VERTEX
  8
PLAN_1
 62
     2
  6
CONTINUOUS
 10
-1.871709
 20
-0.834307
  0
VERTEX
  8
PLAN_1
 62
     2
  6
CONTINUOUS
 10
-0.610866
 20
-0.834307
  0
SEQEND
  8
0
  0
SOLID
  8
PLAN_1
 62
     2
 10
-0.581055
 20
-0.834307
 11
-0.640165
 21
-0.818370
 12
-0.581055
 22
-0.834307
 13
-0.640165
 23
-0.850240
  0
POLYLINE
  8
PLAN_1
 62
     2
  6
CONTINUOUS
 66
     1
 40
0.003000
 41
0.003000
  0
VERTEX
  8
PLAN_1
 62
     2
  6
CONTINUOUS
 10
-0.581055
 20
-0.834307
  0
VERTEX
  8
PLAN_1
 62
     2
  6
CONTINUOUS
 10
-0.640165
 20
-0.818370
  0
VERTEX
  8
PLAN_1
 62
     2
  6
CONTINUOUS
 10
-0.640165
 20
-0.850240
  0
VERTEX
  8
PLAN_1
 62
     2
  6
CONTINUOUS
 10
-0.581055
 20
-0.834307
  0
SEQEND
  8
0
  0
SOLID
  8
PLAN_1
 62
     2
 10
-1.901520
 20
-0.834307
 11
-1.842409
 21
-0.818370
 12
-1.901520
 22
-0.834307
 13
-1.842409
 23
-0.850240
  0
POLYLINE
  8
PLAN_1
 62
     2
  6
CONTINUOUS
 66
     1
 40
0.003000
 41
0.003000
  0
VERTEX
  8
PLAN_1
 62
     2
  6
CONTINUOUS
 10
-1.901520
 20
-0.834307
  0
VERTEX
  8
PLAN_1
 62
     2
  6
CONTINUOUS
 10
-1.842409
 20
-0.818370
  0
VERTEX
  8
PLAN_1
 62
     2
  6
CONTINUOUS
 10
-1.842409
 20
-0.850240
  0
VERTEX
  8
PLAN_1
 62
     2
  6
CONTINUOUS
 10
-1.901520
 20
-0.834307
  0
SEQEND
  8
0
  0
POLYLINE
  8
PLAN_1
 62
     2
  6
CONTINUOUS
 66
     1
 40
0.003000
 41
0.003000
  0
VERTEX
  8
PLAN_1
 62
     2
  6
CONTINUOUS
 10
-1.320185
 20
-0.769028
  0
VERTEX
  8
PLAN_1
 62
     2
  6
CONTINUOUS
 10
-1.319673
 20
-0.769028
  0
VERTEX
  8
PLAN_1
 62
     2
  6
CONTINUOUS
 10
-1.319157
 20
-0.769028
  0
VERTEX
  8
PLAN_1
 62
     2
  6
CONTINUOUS
 10
-1.318130
 20
-0.769028
  0
VERTEX
  8
PLAN_1
 62
     2
  6
CONTINUOUS
 10
-1.317614
 20
-0.769028
  0
VERTEX
  8
PLAN_1
 62
     2
  6
CONTINUOUS
 10
-1.317102
 20
-0.769028
  0
VERTEX
  8
PLAN_1
 62
     2
  6
CONTINUOUS
 10
-1.316587
 20
-0.769543
  0
VERTEX
  8
PLAN_1
 62
     2
  6
CONTINUOUS
 10
-1.316075
 20
-0.769543
  0
VERTEX
  8
PLAN_1
 62
     2
  6
CONTINUOUS
 10
-1.315559
 20
-0.769543
  0
VERTEX
  8
PLAN_1
 62
     2
  6
CONTINUOUS
 10
-1.312476
 20
-0.769028
  0
VERTEX
  8
PLAN_1
 62
     2
  6
CONTINUOUS
 10
-1.309906
 20
-0.768516
  0
VERTEX
  8
PLAN_1
 62
     2
  6
CONTINUOUS
 10
-1.307850
 20
-0.768000
  0
VERTEX
  8
PLAN_1
 62
     2
  6
CONTINUOUS
 10
-1.305795
 20
-0.766972
  0
VERTEX
  8
PLAN_1
 62
     2
  6
CONTINUOUS
 10
-1.303736
 20
-0.764917
  0
VERTEX
  8
PLAN_1
 62
     2
  6
CONTINUOUS
 10
-1.302709
 20
-0.762858
  0
VERTEX
  8
PLAN_1
 62
     2
  6
CONTINUOUS
 10
-1.301681
 20
-0.760291
  0
VERTEX
  8
PLAN_1
 62
     2
  6
CONTINUOUS
 10
-1.301169
 20
-0.757205
  0
VERTEX
  8
PLAN_1
 62
     2
  6
CONTINUOUS
 10
-1.301681
 20
-0.755665
  0
VERTEX
  8
PLAN_1
 62
     2
  6
CONTINUOUS
 10
-1.302197
 20
-0.753606
  0
VERTEX
  8
PLAN_1
 62
     2
  6
CONTINUOUS
 10
-1.302709
 20
-0.751551
  0
VERTEX
  8
PLAN_1
 62
     2
  6
CONTINUOUS
 10
-1.304252
 20
-0.750012
  0
VERTEX
  8
PLAN_1
 62
     2
  6
CONTINUOUS
 10
-1.305795
 20
-0.748469
  0
VERTEX
  8
PLAN_1
 62
     2
  6
CONTINUOUS
 10
-1.308362
 20
-0.746925
  0
VERTEX
  8
PLAN_1
 62
     2
  6
CONTINUOUS
 10
-1.310933
 20
-0.745898
  0
VERTEX
  8
PLAN_1
 62
     2
  6
CONTINUOUS
 10
-1.315047
 20
-0.745898
  0
VERTEX
  8
PLAN_1
 62
     2
  6
CONTINUOUS
 10
-1.319157
 20
-0.746413
  0
VERTEX
  8
PLAN_1
 62
     2
  6
CONTINUOUS
 10
-1.322756
 20
-0.747441
  0
VERTEX
  8
PLAN_1
 62
     2
  6
CONTINUOUS
 10
-1.324811
 20
-0.749496
  0
VERTEX
  8
PLAN_1
 62
     2
  6
CONTINUOUS
 10
-1.326866
 20
-0.751551
  0
VERTEX
  8
PLAN_1
 62
     2
  6
CONTINUOUS
 10
-1.327898
 20
-0.754122
  0
VERTEX
  8
PLAN_1
 62
     2
  6
CONTINUOUS
 10
-1.328409
 20
-0.756693
  0
VERTEX
  8
PLAN_1
 62
     2
  6
CONTINUOUS
 10
-1.328925
 20
-0.759264
  0
VERTEX
  8
PLAN_1
 62
     2
  6
CONTINUOUS
 10
-1.328925
 20
-0.761319
  0
VERTEX
  8
PLAN_1
 62
     2
  6
CONTINUOUS
 10
-1.338177
 20
-0.761319
  0
VERTEX
  8
PLAN_1
 62
     2
  6
CONTINUOUS
 10
-1.337661
 20
-0.757205
  0
VERTEX
  8
PLAN_1
 62
     2
  6
CONTINUOUS
 10
-1.337150
 20
-0.753094
  0
VERTEX
  8
PLAN_1
 62
     2
  6
CONTINUOUS
 10
-1.335606
 20
-0.748980
  0
VERTEX
  8
PLAN_1
 62
     2
  6
CONTINUOUS
 10
-1.333551
 20
-0.745386
  0
VERTEX
  8
PLAN_1
 62
     2
  6
CONTINUOUS
 10
-1.332008
 20
-0.743843
  0
VERTEX
  8
PLAN_1
 62
     2
  6
CONTINUOUS
 10
-1.330465
 20
-0.742299
  0
VERTEX
  8
PLAN_1
 62
     2
  6
CONTINUOUS
 10
-1.328409
 20
-0.740760
  0
VERTEX
  8
PLAN_1
 62
     2
  6
CONTINUOUS
 10
-1.326354
 20
-0.739728
  0
VERTEX
  8
PLAN_1
 62
     2
  6
CONTINUOUS
 10
-1.323783
 20
-0.738701
  0
VERTEX
  8
PLAN_1
 62
     2
  6
CONTINUOUS
 10
-1.321213
 20
-0.738189
  0
VERTEX
  8
PLAN_1
 62
     2
  6
CONTINUOUS
 10
-1.318130
 20
-0.737673
  0
VERTEX
  8
PLAN_1
 62
     2
  6
CONTINUOUS
 10
-1.314531
 20
-0.737673
  0
VERTEX
  8
PLAN_1
 62
     2
  6
CONTINUOUS
 10
-1.309394
 20
-0.738189
  0
VERTEX
  8
PLAN_1
 62
     2
  6
CONTINUOUS
 10
-1.304768
 20
-0.739217
  0
VERTEX
  8
PLAN_1
 62
     2
  6
CONTINUOUS
 10
-1.301169
 20
-0.740760
  0
VERTEX
  8
PLAN_1
 62
     2
  6
CONTINUOUS
 10
-1.298083
 20
-0.742815
  0
VERTEX
  8
PLAN_1
 62
     2
  6
CONTINUOUS
 10
-1.295516
 20
-0.745898
  0
VERTEX
  8
PLAN_1
 62
     2
  6
CONTINUOUS
 10
-1.293457
 20
-0.748980
  0
VERTEX
  8
PLAN_1
 62
     2
  6
CONTINUOUS
 10
-1.292429
 20
-0.752579
  0
VERTEX
  8
PLAN_1
 62
     2
  6
CONTINUOUS
 10
-1.291917
 20
-0.756693
  0
VERTEX
  8
PLAN_1
 62
     2
  6
CONTINUOUS
 10
-1.291917
 20
-0.760291
  0
VERTEX
  8
PLAN_1
 62
     2
  6
CONTINUOUS
 10
-1.292945
 20
-0.762858
  0
VERTEX
  8
PLAN_1
 62
     2
  6
CONTINUOUS
 10
-1.293972
 20
-0.765429
  0
VERTEX
  8
PLAN_1
 62
     2
  6
CONTINUOUS
 10
-1.295000
 20
-0.767484
  0
VERTEX
  8
PLAN_1
 62
     2
  6
CONTINUOUS
 10
-1.296543
 20
-0.769028
  0
VERTEX
  8
PLAN_1
 62
     2
  6
CONTINUOUS
 10
-1.298083
 20
-0.770571
  0
VERTEX
  8
PLAN_1
 62
     2
  6
CONTINUOUS
 10
-1.299626
 20
-0.771083
  0
VERTEX
  8
PLAN_1
 62
     2
  6
CONTINUOUS
 10
-1.301169
 20
-0.772110
  0
VERTEX
  8
PLAN_1
 62
     2
  6
CONTINUOUS
 10
-1.298598
 20
-0.773142
  0
VERTEX
  8
PLAN_1
 62
     2
  6
CONTINUOUS
 10
-1.296543
 20
-0.774169
  0
VERTEX
  8
PLAN_1
 62
     2
  6
CONTINUOUS
 10
-1.294484
 20
-0.775709
  0
VERTEX
  8
PLAN_1
 62
     2
  6
CONTINUOUS
 10
-1.292429
 20
-0.777768
  0
VERTEX
  8
PLAN_1
 62
     2
  6
CONTINUOUS
 10
-1.290890
 20
-0.780335
  0
VERTEX
  8
PLAN_1
 62
     2
  6
CONTINUOUS
 10
-1.289858
 20
-0.782906
  0
VERTEX
  8
PLAN_1
 62
     2
  6
CONTINUOUS
 10
-1.289346
 20
-0.785476
  0
VERTEX
  8
PLAN_1
 62
     2
  6
CONTINUOUS
 10
-1.289346
 20
-0.789075
  0
VERTEX
  8
PLAN_1
 62
     2
  6
CONTINUOUS
 10
-1.289346
 20
-0.793701
  0
VERTEX
  8
PLAN_1
 62
     2
  6
CONTINUOUS
 10
-1.290374
 20
-0.797811
  0
VERTEX
  8
PLAN_1
 62
     2
  6
CONTINUOUS
 10
-1.292429
 20
-0.801925
  0
VERTEX
  8
PLAN_1
 62
     2
  6
CONTINUOUS
 10
-1.295516
 20
-0.805524
  0
VERTEX
  8
PLAN_1
 62
     2
  6
CONTINUOUS
 10
-1.297055
 20
-0.807063
  0
VERTEX
  8
PLAN_1
 62
     2
  6
CONTINUOUS
 10
-1.299110
 20
-0.808606
  0
VERTEX
  8
PLAN_1
 62
     2
  6
CONTINUOUS
 10
-1.301169
 20
-0.809634
  0
VERTEX
  8
PLAN_1
 62
     2
  6
CONTINUOUS
 10
-1.303224
 20
-0.810661
  0
VERTEX
  8
PLAN_1
 62
     2
  6
CONTINUOUS
 10
-1.306307
 20
-0.811689
  0
VERTEX
  8
PLAN_1
 62
     2
  6
CONTINUOUS
 10
-1.308878
 20
-0.812205
  0
VERTEX
  8
PLAN_1
 62
     2
  6
CONTINUOUS
 10
-1.311961
 20
-0.812717
  0
VERTEX
  8
PLAN_1
 62
     2
  6
CONTINUOUS
 10
-1.315559
 20
-0.812717
  0
VERTEX
  8
PLAN_1
 62
     2
  6
CONTINUOUS
 10
-1.317614
 20
-0.812717
  0
VERTEX
  8
PLAN_1
 62
     2
  6
CONTINUOUS
 10
-1.319157
 20
-0.812205
  0
VERTEX
  8
PLAN_1
 62
     2
  6
CONTINUOUS
 10
-1.321213
 20
-0.812205
  0
VERTEX
  8
PLAN_1
 62
     2
  6
CONTINUOUS
 10
-1.322756
 20
-0.811689
  0
VERTEX
  8
PLAN_1
 62
     2
  6
CONTINUOUS
 10
-1.324299
 20
-0.811177
  0
VERTEX
  8
PLAN_1
 62
     2
  6
CONTINUOUS
 10
-1.326354
 20
-0.810661
  0
VERTEX
  8
PLAN_1
 62
     2
  6
CONTINUOUS
 10
-1.327382
 20
-0.810150
  0
VERTEX
  8
PLAN_1
 62
     2
  6
CONTINUOUS
 10
-1.328925
 20
-0.809634
  0
VERTEX
  8
PLAN_1
 62
     2
  6
CONTINUOUS
 10
-1.331492
 20
-0.807579
  0
VERTEX
  8
PLAN_1
 62
     2
  6
CONTINUOUS
 10
-1.334063
 20
-0.805524
  0
VERTEX
  8
PLAN_1
 62
     2
  6
CONTINUOUS
 10
-1.335606
 20
-0.802953
  0
VERTEX
  8
PLAN_1
 62
     2
  6
CONTINUOUS
 10
-1.337150
 20
-0.800382
  0
VERTEX
  8
PLAN_1
 62
     2
  6
CONTINUOUS
 10
-1.338177
 20
-0.797811
  0
VERTEX
  8
PLAN_1
 62
     2
  6
CONTINUOUS
 10
-1.339205
 20
-0.794728
  0
VERTEX
  8
PLAN_1
 62
     2
  6
CONTINUOUS
 10
-1.339717
 20
-0.791646
  0
VERTEX
  8
PLAN_1
 62
     2
  6
CONTINUOUS
 10
-1.339717
 20
-0.788559
  0
VERTEX
  8
PLAN_1
 62
     2
  6
CONTINUOUS
 10
-1.330465
 20
-0.788559
  0
VERTEX
  8
PLAN_1
 62
     2
  6
CONTINUOUS
 10
-1.329953
 20
-0.791130
  0
VERTEX
  8
PLAN_1
 62
     2
  6
CONTINUOUS
 10
-1.329953
 20
-0.793701
  0
VERTEX
  8
PLAN_1
 62
     2
  6
CONTINUOUS
 10
-1.328925
 20
-0.796272
  0
VERTEX
  8
PLAN_1
 62
     2
  6
CONTINUOUS
 10
-1.327382
 20
-0.798839
  0
VERTEX
  8
PLAN_1
 62
     2
  6
CONTINUOUS
 10
-1.325839
 20
-0.801409
  0
VERTEX
  8
PLAN_1
 62
     2
  6
CONTINUOUS
 10
-1.322756
 20
-0.802953
  0
VERTEX
  8
PLAN_1
 62
     2
  6
CONTINUOUS
 10
-1.319157
 20
-0.803980
  0
VERTEX
  8
PLAN_1
 62
     2
  6
CONTINUOUS
 10
-1.315047
 20
-0.804492
  0
VERTEX
  8
PLAN_1
 62
     2
  6
CONTINUOUS
 10
-1.311449
 20
-0.803980
  0
VERTEX
  8
PLAN_1
 62
     2
  6
CONTINUOUS
 10
-1.308362
 20
-0.803465
  0
VERTEX
  8
PLAN_1
 62
     2
  6
CONTINUOUS
 10
-1.305795
 20
-0.802437
  0
VERTEX
  8
PLAN_1
 62
     2
  6
CONTINUOUS
 10
-1.303224
 20
-0.800382
  0
VERTEX
  8
PLAN_1
 62
     2
  6
CONTINUOUS
 10
-1.301681
 20
-0.798327
  0
VERTEX
  8
PLAN_1
 62
     2
  6
CONTINUOUS
 10
-1.300142
 20
-0.796272
  0
VERTEX
  8
PLAN_1
 62
     2
  6
CONTINUOUS
 10
-1.299110
 20
-0.793185
  0
VERTEX
  8
PLAN_1
 62
     2
  6
CONTINUOUS
 10
-1.299110
 20
-0.790102
  0
VERTEX
  8
PLAN_1
 62
     2
  6
CONTINUOUS
 10
-1.299110
 20
-0.785988
  0
VERTEX
  8
PLAN_1
 62
     2
  6
CONTINUOUS
 10
-1.300654
 20
-0.782906
  0
VERTEX
  8
PLAN_1
 62
     2
  6
CONTINUOUS
 10
-1.302709
 20
-0.780850
  0
VERTEX
  8
PLAN_1
 62
     2
  6
CONTINUOUS
 10
-1.305280
 20
-0.778795
  0
VERTEX
  8
PLAN_1
 62
     2
  6
CONTINUOUS
 10
-1.307850
 20
-0.777768
  0
VERTEX
  8
PLAN_1
 62
     2
  6
CONTINUOUS
 10
-1.310421
 20
-0.777252
  0
VERTEX
  8
PLAN_1
 62
     2
  6
CONTINUOUS
 10
-1.313504
 20
-0.776736
  0
VERTEX
  8
PLAN_1
 62
     2
  6
CONTINUOUS
 10
-1.316075
 20
-0.776736
  0
VERTEX
  8
PLAN_1
 62
     2
  6
CONTINUOUS
 10
-1.316587
 20
-0.776736
  0
VERTEX
  8
PLAN_1
 62
     2
  6
CONTINUOUS
 10
-1.317102
 20
-0.776736
  0
VERTEX
  8
PLAN_1
 62
     2
  6
CONTINUOUS
 10
-1.317614
 20
-0.776736
  0
VERTEX
  8
PLAN_1
 62
     2
  6
CONTINUOUS
 10
-1.318130
 20
-0.776736
  0
VERTEX
  8
PLAN_1
 62
     2
  6
CONTINUOUS
 10
-1.318646
 20
-0.776736
  0
VERTEX
  8
PLAN_1
 62
     2
  6
CONTINUOUS
 10
-1.319157
 20
-0.776736
  0
VERTEX
  8
PLAN_1
 62
     2
  6
CONTINUOUS
 10
-1.319673
 20
-0.777252
  0
VERTEX
  8
PLAN_1
 62
     2
  6
CONTINUOUS
 10
-1.320185
 20
-0.777252
  0
VERTEX
  8
PLAN_1
 62
     2
  6
CONTINUOUS
 10
-1.320185
 20
-0.769028
  0
SEQEND
  8
0
  0
POLYLINE
  8
PLAN_1
 62
     2
  6
CONTINUOUS
 66
     1
 40
0.003000
 41
0.003000
  0
VERTEX
  8
PLAN_1
 62
     2
  6
CONTINUOUS
 10
-1.262102
 20
-0.769028
  0
VERTEX
  8
PLAN_1
 62
     2
  6
CONTINUOUS
 10
-1.261591
 20
-0.769028
  0
VERTEX
  8
PLAN_1
 62
     2
  6
CONTINUOUS
 10
-1.261075
 20
-0.769028
  0
VERTEX
  8
PLAN_1
 62
     2
  6
CONTINUOUS
 10
-1.260563
 20
-0.769028
  0
VERTEX
  8
PLAN_1
 62
     2
  6
CONTINUOUS
 10
-1.260047
 20
-0.769028
  0
VERTEX
  8
PLAN_1
 62
     2
  6
CONTINUOUS
 10
-1.259020
 20
-0.769028
  0
VERTEX
  8
PLAN_1
 62
     2
  6
CONTINUOUS
 10
-1.258508
 20
-0.769543
  0
VERTEX
  8
PLAN_1
 62
     2
  6
CONTINUOUS
 10
-1.257992
 20
-0.769543
  0
VERTEX
  8
PLAN_1
 62
     2
  6
CONTINUOUS
 10
-1.257476
 20
-0.769543
  0
VERTEX
  8
PLAN_1
 62
     2
  6
CONTINUOUS
 10
-1.254909
 20
-0.769028
  0
VERTEX
  8
PLAN_1
 62
     2
  6
CONTINUOUS
 10
-1.252339
 20
-0.768516
  0
VERTEX
  8
PLAN_1
 62
     2
  6
CONTINUOUS
 10
-1.249768
 20
-0.768000
  0
VERTEX
  8
PLAN_1
 62
     2
  6
CONTINUOUS
 10
-1.247713
 20
-0.766972
  0
VERTEX
  8
PLAN_1
 62
     2
  6
CONTINUOUS
 10
-1.246169
 20
-0.764917
  0
VERTEX
  8
PLAN_1
 62
     2
  6
CONTINUOUS
 10
-1.244630
 20
-0.762858
  0
VERTEX
  8
PLAN_1
 62
     2
  6
CONTINUOUS
 10
-1.243598
 20
-0.760291
  0
VERTEX
  8
PLAN_1
 62
     2
  6
CONTINUOUS
 10
-1.243598
 20
-0.757205
  0
VERTEX
  8
PLAN_1
 62
     2
  6
CONTINUOUS
 10
-1.243598
 20
-0.755665
  0
VERTEX
  8
PLAN_1
 62
     2
  6
CONTINUOUS
 10
-1.244114
 20
-0.753606
  0
VERTEX
  8
PLAN_1
 62
     2
  6
CONTINUOUS
 10
-1.244630
 20
-0.751551
  0
VERTEX
  8
PLAN_1
 62
     2
  6
CONTINUOUS
 10
-1.246169
 20
-0.750012
  0
VERTEX
  8
PLAN_1
 62
     2
  6
CONTINUOUS
 10
-1.247713
 20
-0.748469
  0
VERTEX
  8
PLAN_1
 62
     2
  6
CONTINUOUS
 10
-1.250283
 20
-0.746925
  0
VERTEX
  8
PLAN_1
 62
     2
  6
CONTINUOUS
 10
-1.253366
 20
-0.745898
  0
VERTEX
  8
PLAN_1
 62
     2
  6
CONTINUOUS
 10
-1.256965
 20
-0.745898
  0
VERTEX
  8
PLAN_1
 62
     2
  6
CONTINUOUS
 10
-1.261075
 20
-0.746413
  0
VERTEX
  8
PLAN_1
 62
     2
  6
CONTINUOUS
 10
-1.264673
 20
-0.747441
  0
VERTEX
  8
PLAN_1
 62
     2
  6
CONTINUOUS
 10
-1.267244
 20
-0.749496
  0
VERTEX
  8
PLAN_1
 62
     2
  6
CONTINUOUS
 10
-1.268787
 20
-0.751551
  0
VERTEX
  8
PLAN_1
 62
     2
  6
CONTINUOUS
 10
-1.269815
 20
-0.754122
  0
VERTEX
  8
PLAN_1
 62
     2
  6
CONTINUOUS
 10
-1.270843
 20
-0.756693
  0
VERTEX
  8
PLAN_1
 62
     2
  6
CONTINUOUS
 10
-1.270843
 20
-0.759264
  0
VERTEX
  8
PLAN_1
 62
     2
  6
CONTINUOUS
 10
-1.271354
 20
-0.761319
  0
VERTEX
  8
PLAN_1
 62
     2
  6
CONTINUOUS
 10
-1.280094
 20
-0.761319
  0
VERTEX
  8
PLAN_1
 62
     2
  6
CONTINUOUS
 10
-1.280094
 20
-0.757205
  0
VERTEX
  8
PLAN_1
 62
     2
  6
CONTINUOUS
 10
-1.279067
 20
-0.753094
  0
VERTEX
  8
PLAN_1
 62
     2
  6
CONTINUOUS
 10
-1.278039
 20
-0.748980
  0
VERTEX
  8
PLAN_1
 62
     2
  6
CONTINUOUS
 10
-1.275469
 20
-0.745386
  0
VERTEX
  8
PLAN_1
 62
     2
  6
CONTINUOUS
 10
-1.274441
 20
-0.743843
  0
VERTEX
  8
PLAN_1
 62
     2
  6
CONTINUOUS
 10
-1.272386
 20
-0.742299
  0
VERTEX
  8
PLAN_1
 62
     2
  6
CONTINUOUS
 10
-1.270843
 20
-0.740760
  0
VERTEX
  8
PLAN_1
 62
     2
  6
CONTINUOUS
 10
-1.268272
 20
-0.739728
  0
VERTEX
  8
PLAN_1
 62
     2
  6
CONTINUOUS
 10
-1.265701
 20
-0.738701
  0
VERTEX
  8
PLAN_1
 62
     2
  6
CONTINUOUS
 10
-1.263134
 20
-0.738189
  0
VERTEX
  8
PLAN_1
 62
     2
  6
CONTINUOUS
 10
-1.260047
 20
-0.737673
  0
VERTEX
  8
PLAN_1
 62
     2
  6
CONTINUOUS
 10
-1.256449
 20
-0.737673
  0
VERTEX
  8
PLAN_1
 62
     2
  6
CONTINUOUS
 10
-1.251311
 20
-0.738189
  0
VERTEX
  8
PLAN_1
 62
     2
  6
CONTINUOUS
 10
-1.247197
 20
-0.739217
  0
VERTEX
  8
PLAN_1
 62
     2
  6
CONTINUOUS
 10
-1.243087
 20
-0.740760
  0
VERTEX
  8
PLAN_1
 62
     2
  6
CONTINUOUS
 10
-1.240004
 20
-0.742815
  0
VERTEX
  8
PLAN_1
 62
     2
  6
CONTINUOUS
 10
-1.237433
 20
-0.745898
  0
VERTEX
  8
PLAN_1
 62
     2
  6
CONTINUOUS
 10
-1.235378
 20
-0.748980
  0
VERTEX
  8
PLAN_1
 62
     2
  6
CONTINUOUS
 10
-1.234346
 20
-0.752579
  0
VERTEX
  8
PLAN_1
 62
     2
  6
CONTINUOUS
 10
-1.233835
 20
-0.756693
  0
VERTEX
  8
PLAN_1
 62
     2
  6
CONTINUOUS
 10
-1.234346
 20
-0.760291
  0
VERTEX
  8
PLAN_1
 62
     2
  6
CONTINUOUS
 10
-1.234862
 20
-0.762858
  0
VERTEX
  8
PLAN_1
 62
     2
  6
CONTINUOUS
 10
-1.235890
 20
-0.765429
  0
VERTEX
  8
PLAN_1
 62
     2
  6
CONTINUOUS
 10
-1.237433
 20
-0.767484
  0
VERTEX
  8
PLAN_1
 62
     2
  6
CONTINUOUS
 10
-1.238461
 20
-0.769028
  0
VERTEX
  8
PLAN_1
 62
     2
  6
CONTINUOUS
 10
-1.240004
 20
-0.770571
  0
VERTEX
  8
PLAN_1
 62
     2
  6
CONTINUOUS
 10
-1.242059
 20
-0.771083
  0
VERTEX
  8
PLAN_1
 62
     2
  6
CONTINUOUS
 10
-1.243598
 20
-0.772110
  0
VERTEX
  8
PLAN_1
 62
     2
  6
CONTINUOUS
 10
-1.241031
 20
-0.773142
  0
VERTEX
  8
PLAN_1
 62
     2
  6
CONTINUOUS
 10
-1.238461
 20
-0.774169
  0
VERTEX
  8
PLAN_1
 62
     2
  6
CONTINUOUS
 10
-1.236406
 20
-0.775709
  0
VERTEX
  8
PLAN_1
 62
     2
  6
CONTINUOUS
 10
-1.234862
 20
-0.777768
  0
VERTEX
  8
PLAN_1
 62
     2
  6
CONTINUOUS
 10
-1.233319
 20
-0.780335
  0
VERTEX
  8
PLAN_1
 62
     2
  6
CONTINUOUS
 10
-1.232291
 20
-0.782906
  0
VERTEX
  8
PLAN_1
 62
     2
  6
CONTINUOUS
 10
-1.231264
 20
-0.785476
  0
VERTEX
  8
PLAN_1
 62
     2
  6
CONTINUOUS
 10
-1.231264
 20
-0.789075
  0
VERTEX
  8
PLAN_1
 62
     2
  6
CONTINUOUS
 10
-1.231780
 20
-0.793701
  0
VERTEX
  8
PLAN_1
 62
     2
  6
CONTINUOUS
 10
-1.232807
 20
-0.797811
  0
VERTEX
  8
PLAN_1
 62
     2
  6
CONTINUOUS
 10
-1.234862
 20
-0.801925
  0
VERTEX
  8
PLAN_1
 62
     2
  6
CONTINUOUS
 10
-1.237433
 20
-0.805524
  0
VERTEX
  8
PLAN_1
 62
     2
  6
CONTINUOUS
 10
-1.238972
 20
-0.807063
  0
VERTEX
  8
PLAN_1
 62
     2
  6
CONTINUOUS
 10
-1.241031
 20
-0.808606
  0
VERTEX
  8
PLAN_1
 62
     2
  6
CONTINUOUS
 10
-1.243087
 20
-0.809634
  0
VERTEX
  8
PLAN_1
 62
     2
  6
CONTINUOUS
 10
-1.245657
 20
-0.810661
  0
VERTEX
  8
PLAN_1
 62
     2
  6
CONTINUOUS
 10
-1.248224
 20
-0.811689
  0
VERTEX
  8
PLAN_1
 62
     2
  6
CONTINUOUS
 10
-1.250795
 20
-0.812205
  0
VERTEX
  8
PLAN_1
 62
     2
  6
CONTINUOUS
 10
-1.254394
 20
-0.812717
  0
VERTEX
  8
PLAN_1
 62
     2
  6
CONTINUOUS
 10
-1.257476
 20
-0.812717
  0
VERTEX
  8
PLAN_1
 62
     2
  6
CONTINUOUS
 10
-1.259535
 20
-0.812717
  0
VERTEX
  8
PLAN_1
 62
     2
  6
CONTINUOUS
 10
-1.261591
 20
-0.812205
  0
VERTEX
  8
PLAN_1
 62
     2
  6
CONTINUOUS
 10
-1.263134
 20
-0.812205
  0
VERTEX
  8
PLAN_1
 62
     2
  6
CONTINUOUS
 10
-1.265189
 20
-0.811689
  0
VERTEX
  8
PLAN_1
 62
     2
  6
CONTINUOUS
 10
-1.266728
 20
-0.811177
  0
VERTEX
  8
PLAN_1
 62
     2
  6
CONTINUOUS
 10
-1.268272
 20
-0.810661
  0
VERTEX
  8
PLAN_1
 62
     2
  6
CONTINUOUS
 10
-1.269815
 20
-0.810150
  0
VERTEX
  8
PLAN_1
 62
     2
  6
CONTINUOUS
 10
-1.270843
 20
-0.809634
  0
VERTEX
  8
PLAN_1
 62
     2
  6
CONTINUOUS
 10
-1.273925
 20
-0.807579
  0
VERTEX
  8
PLAN_1
 62
     2
  6
CONTINUOUS
 10
-1.275980
 20
-0.805524
  0
VERTEX
  8
PLAN_1
 62
     2
  6
CONTINUOUS
 10
-1.278039
 20
-0.802953
  0
VERTEX
  8
PLAN_1
 62
     2
  6
CONTINUOUS
 10
-1.279067
 20
-0.800382
  0
VERTEX
  8
PLAN_1
 62
     2
  6
CONTINUOUS
 10
-1.280606
 20
-0.797811
  0
VERTEX
  8
PLAN_1
 62
     2
  6
CONTINUOUS
 10
-1.281122
 20
-0.794728
  0
VERTEX
  8
PLAN_1
 62
     2
  6
CONTINUOUS
 10
-1.281638
 20
-0.791646
  0
VERTEX
  8
PLAN_1
 62
     2
  6
CONTINUOUS
 10
-1.282150
 20
-0.788559
  0
VERTEX
  8
PLAN_1
 62
     2
  6
CONTINUOUS
 10
-1.272386
 20
-0.788559
  0
VERTEX
  8
PLAN_1
 62
     2
  6
CONTINUOUS
 10
-1.272386
 20
-0.791130
  0
VERTEX
  8
PLAN_1
 62
     2
  6
CONTINUOUS
 10
-1.271870
 20
-0.793701
  0
VERTEX
  8
PLAN_1
 62
     2
  6
CONTINUOUS
 10
-1.270843
 20
-0.796272
  0
VERTEX
  8
PLAN_1
 62
     2
  6
CONTINUOUS
 10
-1.269815
 20
-0.798839
  0
VERTEX
  8
PLAN_1
 62
     2
  6
CONTINUOUS
 10
-1.267760
 20
-0.801409
  0
VERTEX
  8
PLAN_1
 62
     2
  6
CONTINUOUS
 10
-1.265189
 20
-0.802953
  0
VERTEX
  8
PLAN_1
 62
     2
  6
CONTINUOUS
 10
-1.261591
 20
-0.803980
  0
VERTEX
  8
PLAN_1
 62
     2
  6
CONTINUOUS
 10
-1.256965
 20
-0.804492
  0
VERTEX
  8
PLAN_1
 62
     2
  6
CONTINUOUS
 10
-1.253366
 20
-0.803980
  0
VERTEX
  8
PLAN_1
 62
     2
  6
CONTINUOUS
 10
-1.250283
 20
-0.803465
  0
VERTEX
  8
PLAN_1
 62
     2
  6
CONTINUOUS
 10
-1.247713
 20
-0.802437
  0
VERTEX
  8
PLAN_1
 62
     2
  6
CONTINUOUS
 10
-1.245657
 20
-0.800382
  0
VERTEX
  8
PLAN_1
 62
     2
  6
CONTINUOUS
 10
-1.243598
 20
-0.798327
  0
VERTEX
  8
PLAN_1
 62
     2
  6
CONTINUOUS
 10
-1.242059
 20
-0.796272
  0
VERTEX
  8
PLAN_1
 62
     2
  6
CONTINUOUS
 10
-1.241031
 20
-0.793185
  0
VERTEX
  8
PLAN_1
 62
     2
  6
CONTINUOUS
 10
-1.241031
 20
-0.790102
  0
VERTEX
  8
PLAN_1
 62
     2
  6
CONTINUOUS
 10
-1.241543
 20
-0.785988
  0
VERTEX
  8
PLAN_1
 62
     2
  6
CONTINUOUS
 10
-1.242571
 20
-0.782906
  0
VERTEX
  8
PLAN_1
 62
     2
  6
CONTINUOUS
 10
-1.244630
 20
-0.780850
  0
VERTEX
  8
PLAN_1
 62
     2
  6
CONTINUOUS
 10
-1.247197
 20
-0.778795
  0
VERTEX
  8
PLAN_1
 62
     2
  6
CONTINUOUS
 10
-1.249768
 20
-0.777768
  0
VERTEX
  8
PLAN_1
 62
     2
  6
CONTINUOUS
 10
-1.252850
 20
-0.777252
  0
VERTEX
  8
PLAN_1
 62
     2
  6
CONTINUOUS
 10
-1.255421
 20
-0.776736
  0
VERTEX
  8
PLAN_1
 62
     2
  6
CONTINUOUS
 10
-1.257992
 20
-0.776736
  0
VERTEX
  8
PLAN_1
 62
     2
  6
CONTINUOUS
 10
-1.258508
 20
-0.776736
  0
VERTEX
  8
PLAN_1
 62
     2
  6
CONTINUOUS
 10
-1.259020
 20
-0.776736
  0
VERTEX
  8
PLAN_1
 62
     2
  6
CONTINUOUS
 10
-1.259535
 20
-0.776736
  0
VERTEX
  8
PLAN_1
 62
     2
  6
CONTINUOUS
 10
-1.260047
 20
-0.776736
  0
VERTEX
  8
PLAN_1
 62
     2
  6
CONTINUOUS
 10
-1.260563
 20
-0.776736
  0
VERTEX
  8
PLAN_1
 62
     2
  6
CONTINUOUS
 10
-1.261075
 20
-0.776736
  0
VERTEX
  8
PLAN_1
 62
     2
  6
CONTINUOUS
 10
-1.261591
 20
-0.777252
  0
VERTEX
  8
PLAN_1
 62
     2
  6
CONTINUOUS
 10
-1.262102
 20
-0.777252
  0
VERTEX
  8
PLAN_1
 62
     2
  6
CONTINUOUS
 10
-1.262102
 20
-0.769028
  0
SEQEND
  8
0
  0
POLYLINE
  8
PLAN_1
 62
     2
  6
CONTINUOUS
 66
     1
 40
0.003000
 41
0.003000
  0
VERTEX
  8
PLAN_1
 62
     2
  6
CONTINUOUS
 10
-1.218413
 20
-0.799866
  0
VERTEX
  8
PLAN_1
 62
     2
  6
CONTINUOUS
 10
-1.207618
 20
-0.799866
  0
VERTEX
  8
PLAN_1
 62
     2
  6
CONTINUOUS
 10
-1.207618
 20
-0.809634
  0
VERTEX
  8
PLAN_1
 62
     2
  6
CONTINUOUS
 10
-1.208134
 20
-0.814776
  0
VERTEX
  8
PLAN_1
 62
     2
  6
CONTINUOUS
 10
-1.209161
 20
-0.818370
  0
VERTEX
  8
PLAN_1
 62
     2
  6
CONTINUOUS
 10
-1.210705
 20
-0.820941
  0
VERTEX
  8
PLAN_1
 62
     2
  6
CONTINUOUS
 10
-1.212244
 20
-0.822996
  0
VERTEX
  8
PLAN_1
 62
     2
  6
CONTINUOUS
 10
-1.214303
 20
-0.824539
  0
VERTEX
  8
PLAN_1
 62
     2
  6
CONTINUOUS
 10
-1.215843
 20
-0.825567
  0
VERTEX
  8
PLAN_1
 62
     2
  6
CONTINUOUS
 10
-1.217386
 20
-0.825567
  0
VERTEX
  8
PLAN_1
 62
     2
  6
CONTINUOUS
 10
-1.218413
 20
-0.826083
  0
VERTEX
  8
PLAN_1
 62
     2
  6
CONTINUOUS
 10
-1.218413
 20
-0.821457
  0
VERTEX
  8
PLAN_1
 62
     2
  6
CONTINUOUS
 10
-1.216870
 20
-0.820941
  0
VERTEX
  8
PLAN_1
 62
     2
  6
CONTINUOUS
 10
-1.215843
 20
-0.819913
  0
VERTEX
  8
PLAN_1
 62
     2
  6
CONTINUOUS
 10
-1.214815
 20
-0.818886
  0
VERTEX
  8
PLAN_1
 62
     2
  6
CONTINUOUS
 10
-1.214303
 20
-0.817858
  0
VERTEX
  8
PLAN_1
 62
     2
  6
CONTINUOUS
 10
-1.213787
 20
-0.816315
  0
VERTEX
  8
PLAN_1
 62
     2
  6
CONTINUOUS
 10
-1.213276
 20
-0.814260
  0
VERTEX
  8
PLAN_1
 62
     2
  6
CONTINUOUS
 10
-1.213276
 20
-0.812717
  0
VERTEX
  8
PLAN_1
 62
     2
  6
CONTINUOUS
 10
-1.213276
 20
-0.810661
  0
VERTEX
  8
PLAN_1
 62
     2
  6
CONTINUOUS
 10
-1.218413
 20
-0.810661
  0
VERTEX
  8
PLAN_1
 62
     2
  6
CONTINUOUS
 10
-1.218413
 20
-0.799866
  0
SEQEND
  8
0
  0
POLYLINE
  8
PLAN_1
 62
     2
  6
CONTINUOUS
 66
     1
 40
0.003000
 41
0.003000
  0
VERTEX
  8
PLAN_1
 62
     2
  6
CONTINUOUS
 10
-1.183461
 20
-0.768000
  0
VERTEX
  8
PLAN_1
 62
     2
  6
CONTINUOUS
 10
-1.181921
 20
-0.767484
  0
VERTEX
  8
PLAN_1
 62
     2
  6
CONTINUOUS
 10
-1.180894
 20
-0.766457
  0
VERTEX
  8
PLAN_1
 62
     2
  6
CONTINUOUS
 10
-1.179350
 20
-0.765429
  0
VERTEX
  8
PLAN_1
 62
     2
  6
CONTINUOUS
 10
-1.177807
 20
-0.764917
  0
VERTEX
  8
PLAN_1
 62
     2
  6
CONTINUOUS
 10
-1.175752
 20
-0.764402
  0
VERTEX
  8
PLAN_1
 62
     2
  6
CONTINUOUS
 10
-1.173697
 20
-0.763890
  0
VERTEX
  8
PLAN_1
 62
     2
  6
CONTINUOUS
 10
-1.171642
 20
-0.763890
  0
VERTEX
  8
PLAN_1
 62
     2
  6
CONTINUOUS
 10
-1.169071
 20
-0.763374
  0
VERTEX
  8
PLAN_1
 62
     2
  6
CONTINUOUS
 10
-1.164957
 20
-0.763890
  0
VERTEX
  8
PLAN_1
 62
     2
  6
CONTINUOUS
 10
-1.160331
 20
-0.764917
  0
VERTEX
  8
PLAN_1
 62
     2
  6
CONTINUOUS
 10
-1.156220
 20
-0.766972
  0
VERTEX
  8
PLAN_1
 62
     2
  6
CONTINUOUS
 10
-1.152622
 20
-0.769543
  0
VERTEX
  8
PLAN_1
 62
     2
  6
CONTINUOUS
 10
-1.149539
 20
-0.773142
  0
VERTEX
  8
PLAN_1
 62
     2
  6
CONTINUOUS
 10
-1.147480
 20
-0.776736
  0
VERTEX
  8
PLAN_1
 62
     2
  6
CONTINUOUS
 10
-1.146453
 20
-0.779307
  0
VERTEX
  8
PLAN_1
 62
     2
  6
CONTINUOUS
 10
-1.145941
 20
-0.781878
  0
VERTEX
  8
PLAN_1
 62
     2
  6
CONTINUOUS
 10
-1.145425
 20
-0.784449
  0
VERTEX
  8
PLAN_1
 62
     2
  6
CONTINUOUS
 10
-1.145425
 20
-0.787020
  0
VERTEX
  8
PLAN_1
 62
     2
  6
CONTINUOUS
 10
-1.145425
 20
-0.790614
  0
VERTEX
  8
PLAN_1
 62
     2
  6
CONTINUOUS
 10
-1.145941
 20
-0.794213
  0
VERTEX
  8
PLAN_1
 62
     2
  6
CONTINUOUS
 10
-1.147480
 20
-0.798839
  0
VERTEX
  8
PLAN_1
 62
     2
  6
CONTINUOUS
 10
-1.150051
 20
-0.802953
  0
VERTEX
  8
PLAN_1
 62
     2
  6
CONTINUOUS
 10
-1.151594
 20
-0.805008
  0
VERTEX
  8
PLAN_1
 62
     2
  6
CONTINUOUS
 10
-1.153138
 20
-0.806551
  0
VERTEX
  8
PLAN_1
 62
     2
  6
CONTINUOUS
 10
-1.155193
 20
-0.808606
  0
VERTEX
  8
PLAN_1
 62
     2
  6
CONTINUOUS
 10
-1.157764
 20
-0.809634
  0
VERTEX
  8
PLAN_1
 62
     2
  6
CONTINUOUS
 10
-1.160846
 20
-0.811177
  0
VERTEX
  8
PLAN_1
 62
     2
  6
CONTINUOUS
 10
-1.163929
 20
-0.811689
  0
VERTEX
  8
PLAN_1
 62
     2
  6
CONTINUOUS
 10
-1.167528
 20
-0.812717
  0
VERTEX
  8
PLAN_1
 62
     2
  6
CONTINUOUS
 10
-1.171642
 20
-0.812717
  0
VERTEX
  8
PLAN_1
 62
     2
  6
CONTINUOUS
 10
-1.175236
 20
-0.812717
  0
VERTEX
  8
PLAN_1
 62
     2
  6
CONTINUOUS
 10
-1.179350
 20
-0.811689
  0
VERTEX
  8
PLAN_1
 62
     2
  6
CONTINUOUS
 10
-1.182949
 20
-0.810661
  0
VERTEX
  8
PLAN_1
 62
     2
  6
CONTINUOUS
 10
-1.186547
 20
-0.808606
  0
VERTEX
  8
PLAN_1
 62
     2
  6
CONTINUOUS
 10
-1.189630
 20
-0.806035
  0
VERTEX
  8
PLAN_1
 62
     2
  6
CONTINUOUS
 10
-1.192201
 20
-0.802437
  0
VERTEX
  8
PLAN_1
 62
     2
  6
CONTINUOUS
 10
-1.193228
 20
-0.800382
  0
VERTEX
  8
PLAN_1
 62
     2
  6
CONTINUOUS
 10
-1.194256
 20
-0.797811
  0
VERTEX
  8
PLAN_1
 62
     2
  6
CONTINUOUS
 10
-1.194772
 20
-0.795240
  0
VERTEX
  8
PLAN_1
 62
     2
  6
CONTINUOUS
 10
-1.195283
 20
-0.792673
  0
VERTEX
  8
PLAN_1
 62
     2
  6
CONTINUOUS
 10
-1.186031
 20
-0.792673
  0
VERTEX
  8
PLAN_1
 62
     2
  6
CONTINUOUS
 10
-1.185520
 20
-0.795240
  0
VERTEX
  8
PLAN_1
 62
     2
  6
CONTINUOUS
 10
-1.183976
 20
-0.797811
  0
VERTEX
  8
PLAN_1
 62
     2
  6
CONTINUOUS
 10
-1.182949
 20
-0.800382
  0
VERTEX
  8
PLAN_1
 62
     2
  6
CONTINUOUS
 10
-1.180894
 20
-0.801925
  0
VERTEX
  8
PLAN_1
 62
     2
  6
CONTINUOUS
 10
-1.178835
 20
-0.802953
  0
VERTEX
  8
PLAN_1
 62
     2
  6
CONTINUOUS
 10
-1.176268
 20
-0.803980
  0
VERTEX
  8
PLAN_1
 62
     2
  6
CONTINUOUS
 10
-1.173181
 20
-0.804492
  0
VERTEX
  8
PLAN_1
 62
     2
  6
CONTINUOUS
 10
-1.170610
 20
-0.805008
  0
VERTEX
  8
PLAN_1
 62
     2
  6
CONTINUOUS
 10
-1.167016
 20
-0.804492
  0
VERTEX
  8
PLAN_1
 62
     2
  6
CONTINUOUS
 10
-1.163929
 20
-0.803465
  0
VERTEX
  8
PLAN_1
 62
     2
  6
CONTINUOUS
 10
-1.161358
 20
-0.801925
  0
VERTEX
  8
PLAN_1
 62
     2
  6
CONTINUOUS
 10
-1.159303
 20
-0.799866
  0
VERTEX
  8
PLAN_1
 62
     2
  6
CONTINUOUS
 10
-1.157248
 20
-0.797299
  0
VERTEX
  8
PLAN_1
 62
     2
  6
CONTINUOUS
 10
-1.156220
 20
-0.794728
  0
VERTEX
  8
PLAN_1
 62
     2
  6
CONTINUOUS
 10
-1.155193
 20
-0.791130
  0
VERTEX
  8
PLAN_1
 62
     2
  6
CONTINUOUS
 10
-1.155193
 20
-0.788047
  0
VERTEX
  8
PLAN_1
 62
     2
  6
CONTINUOUS
 10
-1.155193
 20
-0.784449
  0
VERTEX
  8
PLAN_1
 62
     2
  6
CONTINUOUS
 10
-1.156220
 20
-0.780850
  0
VERTEX
  8
PLAN_1
 62
     2
  6
CONTINUOUS
 10
-1.157764
 20
-0.778280
  0
VERTEX
  8
PLAN_1
 62
     2
  6
CONTINUOUS
 10
-1.159819
 20
-0.776224
  0
VERTEX
  8
PLAN_1
 62
     2
  6
CONTINUOUS
 10
-1.161874
 20
-0.774169
  0
VERTEX
  8
PLAN_1
 62
     2
  6
CONTINUOUS
 10
-1.164957
 20
-0.772626
  0
VERTEX
  8
PLAN_1
 62
     2
  6
CONTINUOUS
 10
-1.168043
 20
-0.772110
  0
VERTEX
  8
PLAN_1
 62
     2
  6
CONTINUOUS
 10
-1.171126
 20
-0.771598
  0
VERTEX
  8
PLAN_1
 62
     2
  6
CONTINUOUS
 10
-1.173181
 20
-0.772110
  0
VERTEX
  8
PLAN_1
 62
     2
  6
CONTINUOUS
 10
-1.175236
 20
-0.772110
  0
VERTEX
  8
PLAN_1
 62
     2
  6
CONTINUOUS
 10
-1.176780
 20
-0.772626
  0
VERTEX
  8
PLAN_1
 62
     2
  6
CONTINUOUS
 10
-1.178835
 20
-0.773654
  0
VERTEX
  8
PLAN_1
 62
     2
  6
CONTINUOUS
 10
-1.180378
 20
-0.774681
  0
VERTEX
  8
PLAN_1
 62
     2
  6
CONTINUOUS
 10
-1.181921
 20
-0.775709
  0
VERTEX
  8
PLAN_1
 62
     2
  6
CONTINUOUS
 10
-1.183461
 20
-0.777252
  0
VERTEX
  8
PLAN_1
 62
     2
  6
CONTINUOUS
 10
-1.184488
 20
-0.778795
  0
VERTEX
  8
PLAN_1
 62
     2
  6
CONTINUOUS
 10
-1.192713
 20
-0.778280
  0
VERTEX
  8
PLAN_1
 62
     2
  6
CONTINUOUS
 10
-1.187059
 20
-0.739217
  0
VERTEX
  8
PLAN_1
 62
     2
  6
CONTINUOUS
 10
-1.149024
 20
-0.739217
  0
VERTEX
  8
PLAN_1
 62
     2
  6
CONTINUOUS
 10
-1.149024
 20
-0.747953
  0
VERTEX
  8
PLAN_1
 62
     2
  6
CONTINUOUS
 10
-1.180378
 20
-0.747953
  0
VERTEX
  8
PLAN_1
 62
     2
  6
CONTINUOUS
 10
-1.183461
 20
-0.768000
  0
SEQEND
  8
0
  0
POLYLINE
  8
PLAN_1
 62
     2
  6
CONTINUOUS
 66
     1
 40
0.004110
 41
0.004110
  0
VERTEX
  8
PLAN_1
 62
     2
  6
CONTINUOUS
 10
-2.318890
 20
-0.501232
  0
VERTEX
  8
PLAN_1
 62
     2
  6
CONTINUOUS
 10
-2.318890
 20
-1.023972
  0
SEQEND
  8
0
  0
POLYLINE
  8
PLAN_1
 62
     2
  6
CONTINUOUS
 66
     1
 40
0.004110
 41
0.004110
  0
VERTEX
  8
PLAN_1
 62
     2
  6
CONTINUOUS
 10
-2.289075
 20
-0.991591
  0
VERTEX
  8
PLAN_1
 62
     2
  6
CONTINUOUS
 10
-0.610866
 20
-0.991591
  0
SEQEND
  8
0
  0
SOLID
  8
PLAN_1
 62
     2
 10
-0.581055
 20
-0.991591
 11
-0.640165
 21
-0.976169
 12
-0.581055
 22
-0.991591
 13
-0.640165
 23
-1.007524
  0
POLYLINE
  8
PLAN_1
 62
     2
  6
CONTINUOUS
 66
     1
 40
0.003000
 41
0.003000
  0
VERTEX
  8
PLAN_1
 62
     2
  6
CONTINUOUS
 10
-0.581055
 20
-0.991591
  0
VERTEX
  8
PLAN_1
 62
     2
  6
CONTINUOUS
 10
-0.640165
 20
-0.976169
  0
VERTEX
  8
PLAN_1
 62
     2
  6
CONTINUOUS
 10
-0.640165
 20
-1.007524
  0
VERTEX
  8
PLAN_1
 62
     2
  6
CONTINUOUS
 10
-0.581055
 20
-0.991591
  0
SEQEND
  8
0
  0
SOLID
  8
PLAN_1
 62
     2
 10
-2.318890
 20
-0.991591
 11
-2.259780
 21
-0.976169
 12
-2.318890
 22
-0.991591
 13
-2.259780
 23
-1.007524
  0
POLYLINE
  8
PLAN_1
 62
     2
  6
CONTINUOUS
 66
     1
 40
0.003000
 41
0.003000
  0
VERTEX
  8
PLAN_1
 62
     2
  6
CONTINUOUS
 10
-2.318890
 20
-0.991591
  0
VERTEX
  8
PLAN_1
 62
     2
  6
CONTINUOUS
 10
-2.259780
 20
-0.976169
  0
VERTEX
  8
PLAN_1
 62
     2
  6
CONTINUOUS
 10
-2.259780
 20
-1.007524
  0
VERTEX
  8
PLAN_1
 62
     2
  6
CONTINUOUS
 10
-2.318890
 20
-0.991591
  0
SEQEND
  8
0
  0
POLYLINE
  8
PLAN_1
 62
     2
  6
CONTINUOUS
 66
     1
 40
0.003000
 41
0.003000
  0
VERTEX
  8
PLAN_1
 62
     2
  6
CONTINUOUS
 10
-1.464106
 20
-0.950469
  0
VERTEX
  8
PLAN_1
 62
     2
  6
CONTINUOUS
 10
-1.464106
 20
-0.967945
  0
VERTEX
  8
PLAN_1
 62
     2
  6
CONTINUOUS
 10
-1.473358
 20
-0.967945
  0
VERTEX
  8
PLAN_1
 62
     2
  6
CONTINUOUS
 10
-1.473358
 20
-0.950469
  0
VERTEX
  8
PLAN_1
 62
     2
  6
CONTINUOUS
 10
-1.505224
 20
-0.950469
  0
VERTEX
  8
PLAN_1
 62
     2
  6
CONTINUOUS
 10
-1.505224
 20
-0.941217
  0
VERTEX
  8
PLAN_1
 62
     2
  6
CONTINUOUS
 10
-1.471815
 20
-0.894957
  0
VERTEX
  8
PLAN_1
 62
     2
  6
CONTINUOUS
 10
-1.464106
 20
-0.894957
  0
VERTEX
  8
PLAN_1
 62
     2
  6
CONTINUOUS
 10
-1.464106
 20
-0.942244
  0
VERTEX
  8
PLAN_1
 62
     2
  6
CONTINUOUS
 10
-1.453311
 20
-0.942244
  0
VERTEX
  8
PLAN_1
 62
     2
  6
CONTINUOUS
 10
-1.453311
 20
-0.950469
  0
VERTEX
  8
PLAN_1
 62
     2
  6
CONTINUOUS
 10
-1.464106
 20
-0.950469
  0
SEQEND
  8
0
  0
SOLID
  8
PLAN_1
 62
     2
 10
-1.497004
 20
-0.942244
 11
-1.473358
 21
-0.942244
 12
-1.497004
 22
-0.942244
 13
-1.473358
 23
-0.909350
  0
POLYLINE
  8
PLAN_1
 62
     2
  6
CONTINUOUS
 66
     1
 40
0.003000
 41
0.003000
  0
VERTEX
  8
PLAN_1
 62
     2
  6
CONTINUOUS
 10
-1.497004
 20
-0.942244
  0
VERTEX
  8
PLAN_1
 62
     2
  6
CONTINUOUS
 10
-1.473358
 20
-0.942244
  0
VERTEX
  8
PLAN_1
 62
     2
  6
CONTINUOUS
 10
-1.473358
 20
-0.909350
  0
VERTEX
  8
PLAN_1
 62
     2
  6
CONTINUOUS
 10
-1.497004
 20
-0.942244
  0
SEQEND
  8
0
  0
POLYLINE
  8
PLAN_1
 62
     2
  6
CONTINUOUS
 66
     1
 40
0.003000
 41
0.003000
  0
VERTEX
  8
PLAN_1
 62
     2
  6
CONTINUOUS
 10
-1.406539
 20
-0.950469
  0
VERTEX
  8
PLAN_1
 62
     2
  6
CONTINUOUS
 10
-1.406539
 20
-0.967945
  0
VERTEX
  8
PLAN_1
 62
     2
  6
CONTINUOUS
 10
-1.415276
 20
-0.967945
  0
VERTEX
  8
PLAN_1
 62
     2
  6
CONTINUOUS
 10
-1.415276
 20
-0.950469
  0
VERTEX
  8
PLAN_1
 62
     2
  6
CONTINUOUS
 10
-1.447146
 20
-0.950469
  0
VERTEX
  8
PLAN_1
 62
     2
  6
CONTINUOUS
 10
-1.447146
 20
-0.941217
  0
VERTEX
  8
PLAN_1
 62
     2
  6
CONTINUOUS
 10
-1.413732
 20
-0.894957
  0
VERTEX
  8
PLAN_1
 62
     2
  6
CONTINUOUS
 10
-1.406539
 20
-0.894957
  0
VERTEX
  8
PLAN_1
 62
     2
  6
CONTINUOUS
 10
-1.406539
 20
-0.942244
  0
VERTEX
  8
PLAN_1
 62
     2
  6
CONTINUOUS
 10
-1.395744
 20
-0.942244
  0
VERTEX
  8
PLAN_1
 62
     2
  6
CONTINUOUS
 10
-1.395744
 20
-0.950469
  0
VERTEX
  8
PLAN_1
 62
     2
  6
CONTINUOUS
 10
-1.406539
 20
-0.950469
  0
SEQEND
  8
0
  0
SOLID
  8
PLAN_1
 62
     2
 10
-1.438921
 20
-0.942244
 11
-1.415276
 21
-0.942244
 12
-1.415791
 22
-0.909350
 13
-1.415276
 23
-0.909350
  0
POLYLINE
  8
PLAN_1
 62
     2
  6
CONTINUOUS
 66
     1
 40
0.003000
 41
0.003000
  0
VERTEX
  8
PLAN_1
 62
     2
  6
CONTINUOUS
 10
-1.438921
 20
-0.942244
  0
VERTEX
  8
PLAN_1
 62
     2
  6
CONTINUOUS
 10
-1.415276
 20
-0.942244
  0
VERTEX
  8
PLAN_1
 62
     2
  6
CONTINUOUS
 10
-1.415276
 20
-0.909350
  0
VERTEX
  8
PLAN_1
 62
     2
  6
CONTINUOUS
 10
-1.415791
 20
-0.909350
  0
VERTEX
  8
PLAN_1
 62
     2
  6
CONTINUOUS
 10
-1.438921
 20
-0.942244
  0
SEQEND
  8
0
  0
SOLID
  8
PLAN_1
 62
     2
 10
-0.811839
 20
-0.577307
 11
-0.768665
 21
-0.620480
 12
-0.811839
 22
-0.577307
 13
-0.752728
 23
-0.593240
  0
POLYLINE
  8
PLAN_1
 62
     2
  6
CONTINUOUS
 66
     1
 40
0.003000
 41
0.003000
  0
VERTEX
  8
PLAN_1
 62
     2
  6
CONTINUOUS
 10
-0.811839
 20
-0.577307
  0
VERTEX
  8
PLAN_1
 62
     2
  6
CONTINUOUS
 10
-0.768665
 20
-0.620480
  0
VERTEX
  8
PLAN_1
 62
     2
  6
CONTINUOUS
 10
-0.752728
 20
-0.593240
  0
VERTEX
  8
PLAN_1
 62
     2
  6
CONTINUOUS
 10
-0.811839
 20
-0.577307
  0
SEQEND
  8
0
  0
POLYLINE
  8
PLAN_1
 62
     2
  6
CONTINUOUS
 66
     1
 40
0.004110
 41
0.004110
  0
VERTEX
  8
PLAN_1
 62
     2
  6
CONTINUOUS
 10
-0.779457
 20
-0.595811
  0
VERTEX
  8
PLAN_1
 62
     2
  6
CONTINUOUS
 10
-0.527083
 20
-0.747953
  0
VERTEX
  8
PLAN_1
 62
     2
  6
CONTINUOUS
 10
0.691094
 20
-0.747953
  0
SEQEND
  8
0
  0
POLYLINE
  8
PLAN_1
 62
     2
  6
CONTINUOUS
 66
     1
 40
0.003000
 41
0.003000
  0
VERTEX
  8
PLAN_1
 62
     2
  6
CONTINUOUS
 10
-0.438677
 20
-0.724311
  0
VERTEX
  8
PLAN_1
 62
     2
  6
CONTINUOUS
 10
-0.448441
 20
-0.724311
  0
VERTEX
  8
PLAN_1
 62
     2
  6
CONTINUOUS
 10
-0.448441
 20
-0.672398
  0
VERTEX
  8
PLAN_1
 62
     2
  6
CONTINUOUS
 10
-0.465406
 20
-0.672398
  0
VERTEX
  8
PLAN_1
 62
     2
  6
CONTINUOUS
 10
-0.465406
 20
-0.665201
  0
VERTEX
  8
PLAN_1
 62
     2
  6
CONTINUOUS
 10
-0.461291
 20
-0.665201
  0
VERTEX
  8
PLAN_1
 62
     2
  6
CONTINUOUS
 10
-0.457693
 20
-0.664685
  0
VERTEX
  8
PLAN_1
 62
     2
  6
CONTINUOUS
 10
-0.455122
 20
-0.663657
  0
VERTEX
  8
PLAN_1
 62
     2
  6
CONTINUOUS
 10
-0.452555
 20
-0.662630
  0
VERTEX
  8
PLAN_1
 62
     2
  6
CONTINUOUS
 10
-0.450496
 20
-0.661087
  0
VERTEX
  8
PLAN_1
 62
     2
  6
CONTINUOUS
 10
-0.448441
 20
-0.658520
  0
VERTEX
  8
PLAN_1
 62
     2
  6
CONTINUOUS
 10
-0.446902
 20
-0.655433
  0
VERTEX
  8
PLAN_1
 62
     2
  6
CONTINUOUS
 10
-0.445870
 20
-0.651323
  0
VERTEX
  8
PLAN_1
 62
     2
  6
CONTINUOUS
 10
-0.438677
 20
-0.651323
  0
VERTEX
  8
PLAN_1
 62
     2
  6
CONTINUOUS
 10
-0.438677
 20
-0.724311
  0
SEQEND
  8
0
  0
POLYLINE
  8
PLAN_1
 62
     2
  6
CONTINUOUS
 66
     1
 40
0.003000
 41
0.003000
  0
VERTEX
  8
PLAN_1
 62
     2
  6
CONTINUOUS
 10
-0.371343
 20
-0.677535
  0
VERTEX
  8
PLAN_1
 62
     2
  6
CONTINUOUS
 10
-0.371343
 20
-0.713004
  0
VERTEX
  8
PLAN_1
 62
     2
  6
CONTINUOUS
 10
-0.370827
 20
-0.714543
  0
VERTEX
  8
PLAN_1
 62
     2
  6
CONTINUOUS
 10
-0.370827
 20
-0.715571
  0
VERTEX
  8
PLAN_1
 62
     2
  6
CONTINUOUS
 10
-0.369799
 20
-0.716087
  0
VERTEX
  8
PLAN_1
 62
     2
  6
CONTINUOUS
 10
-0.369287
 20
-0.716598
  0
VERTEX
  8
PLAN_1
 62
     2
  6
CONTINUOUS
 10
-0.368260
 20
-0.717114
  0
VERTEX
  8
PLAN_1
 62
     2
  6
CONTINUOUS
 10
-0.367228
 20
-0.717114
  0
VERTEX
  8
PLAN_1
 62
     2
  6
CONTINUOUS
 10
-0.366717
 20
-0.717114
  0
VERTEX
  8
PLAN_1
 62
     2
  6
CONTINUOUS
 10
-0.365689
 20
-0.717630
  0
VERTEX
  8
PLAN_1
 62
     2
  6
CONTINUOUS
 10
-0.362602
 20
-0.717630
  0
VERTEX
  8
PLAN_1
 62
     2
  6
CONTINUOUS
 10
-0.362602
 20
-0.724311
  0
VERTEX
  8
PLAN_1
 62
     2
  6
CONTINUOUS
 10
-0.363634
 20
-0.724823
  0
VERTEX
  8
PLAN_1
 62
     2
  6
CONTINUOUS
 10
-0.364661
 20
-0.724823
  0
VERTEX
  8
PLAN_1
 62
     2
  6
CONTINUOUS
 10
-0.365689
 20
-0.724823
  0
VERTEX
  8
PLAN_1
 62
     2
  6
CONTINUOUS
 10
-0.366717
 20
-0.724823
  0
VERTEX
  8
PLAN_1
 62
     2
  6
CONTINUOUS
 10
-0.367744
 20
-0.725339
  0
VERTEX
  8
PLAN_1
 62
     2
  6
CONTINUOUS
 10
-0.368260
 20
-0.725339
  0
VERTEX
  8
PLAN_1
 62
     2
  6
CONTINUOUS
 10
-0.368772
 20
-0.725339
  0
VERTEX
  8
PLAN_1
 62
     2
  6
CONTINUOUS
 10
-0.369287
 20
-0.725339
  0
VERTEX
  8
PLAN_1
 62
     2
  6
CONTINUOUS
 10
-0.372370
 20
-0.724823
  0
VERTEX
  8
PLAN_1
 62
     2
  6
CONTINUOUS
 10
-0.374941
 20
-0.724311
  0
VERTEX
  8
PLAN_1
 62
     2
  6
CONTINUOUS
 10
-0.376996
 20
-0.723283
  0
VERTEX
  8
PLAN_1
 62
     2
  6
CONTINUOUS
 10
-0.378024
 20
-0.721740
  0
VERTEX
  8
PLAN_1
 62
     2
  6
CONTINUOUS
 10
-0.379051
 20
-0.720197
  0
VERTEX
  8
PLAN_1
 62
     2
  6
CONTINUOUS
 10
-0.380079
 20
-0.718142
  0
VERTEX
  8
PLAN_1
 62
     2
  6
CONTINUOUS
 10
-0.380079
 20
-0.716087
  0
VERTEX
  8
PLAN_1
 62
     2
  6
CONTINUOUS
 10
-0.380594
 20
-0.713516
  0
VERTEX
  8
PLAN_1
 62
     2
  6
CONTINUOUS
 10
-0.380594
 20
-0.677535
  0
VERTEX
  8
PLAN_1
 62
     2
  6
CONTINUOUS
 10
-0.387791
 20
-0.677535
  0
VERTEX
  8
PLAN_1
 62
     2
  6
CONTINUOUS
 10
-0.387791
 20
-0.670339
  0
VERTEX
  8
PLAN_1
 62
     2
  6
CONTINUOUS
 10
-0.380594
 20
-0.670339
  0
VERTEX
  8
PLAN_1
 62
     2
  6
CONTINUOUS
 10
-0.380594
 20
-0.654921
  0
VERTEX
  8
PLAN_1
 62
     2
  6
CONTINUOUS
 10
-0.371343
 20
-0.654921
  0
VERTEX
  8
PLAN_1
 62
     2
  6
CONTINUOUS
 10
-0.371343
 20
-0.670339
  0
VERTEX
  8
PLAN_1
 62
     2
  6
CONTINUOUS
 10
-0.362602
 20
-0.670339
  0
VERTEX
  8
PLAN_1
 62
     2
  6
CONTINUOUS
 10
-0.362602
 20
-0.677535
  0
VERTEX
  8
PLAN_1
 62
     2
  6
CONTINUOUS
 10
-0.371343
 20
-0.677535
  0
SEQEND
  8
0
  0
POLYLINE
  8
PLAN_1
 62
     2
  6
CONTINUOUS
 66
     1
 40
0.003000
 41
0.003000
  0
VERTEX
  8
PLAN_1
 62
     2
  6
CONTINUOUS
 10
-0.343071
 20
-0.724311
  0
VERTEX
  8
PLAN_1
 62
     2
  6
CONTINUOUS
 10
-0.352323
 20
-0.724311
  0
VERTEX
  8
PLAN_1
 62
     2
  6
CONTINUOUS
 10
-0.352323
 20
-0.670339
  0
VERTEX
  8
PLAN_1
 62
     2
  6
CONTINUOUS
 10
-0.343587
 20
-0.670339
  0
VERTEX
  8
PLAN_1
 62
     2
  6
CONTINUOUS
 10
-0.343587
 20
-0.679079
  0
VERTEX
  8
PLAN_1
 62
     2
  6
CONTINUOUS
 10
-0.342043
 20
-0.677024
  0
VERTEX
  8
PLAN_1
 62
     2
  6
CONTINUOUS
 10
-0.340504
 20
-0.674965
  0
VERTEX
  8
PLAN_1
 62
     2
  6
CONTINUOUS
 10
-0.338961
 20
-0.672909
  0
VERTEX
  8
PLAN_1
 62
     2
  6
CONTINUOUS
 10
-0.336906
 20
-0.671366
  0
VERTEX
  8
PLAN_1
 62
     2
  6
CONTINUOUS
 10
-0.334846
 20
-0.670339
  0
VERTEX
  8
PLAN_1
 62
     2
  6
CONTINUOUS
 10
-0.332791
 20
-0.669311
  0
VERTEX
  8
PLAN_1
 62
     2
  6
CONTINUOUS
 10
-0.330736
 20
-0.668799
  0
VERTEX
  8
PLAN_1
 62
     2
  6
CONTINUOUS
 10
-0.328165
 20
-0.668799
  0
VERTEX
  8
PLAN_1
 62
     2
  6
CONTINUOUS
 10
-0.327654
 20
-0.668799
  0
VERTEX
  8
PLAN_1
 62
     2
  6
CONTINUOUS
 10
-0.327138
 20
-0.668799
  0
VERTEX
  8
PLAN_1
 62
     2
  6
CONTINUOUS
 10
-0.326622
 20
-0.668799
  0
VERTEX
  8
PLAN_1
 62
     2
  6
CONTINUOUS
 10
-0.326110
 20
-0.668799
  0
VERTEX
  8
PLAN_1
 62
     2
  6
CONTINUOUS
 10
-0.325594
 20
-0.668799
  0
VERTEX
  8
PLAN_1
 62
     2
  6
CONTINUOUS
 10
-0.325594
 20
-0.678563
  0
VERTEX
  8
PLAN_1
 62
     2
  6
CONTINUOUS
 10
-0.329193
 20
-0.678563
  0
VERTEX
  8
PLAN_1
 62
     2
  6
CONTINUOUS
 10
-0.332280
 20
-0.678563
  0
VERTEX
  8
PLAN_1
 62
     2
  6
CONTINUOUS
 10
-0.334846
 20
-0.679591
  0
VERTEX
  8
PLAN_1
 62
     2
  6
CONTINUOUS
 10
-0.337417
 20
-0.681134
  0
VERTEX
  8
PLAN_1
 62
     2
  6
CONTINUOUS
 10
-0.339472
 20
-0.682677
  0
VERTEX
  8
PLAN_1
 62
     2
  6
CONTINUOUS
 10
-0.341016
 20
-0.684732
  0
VERTEX
  8
PLAN_1
 62
     2
  6
CONTINUOUS
 10
-0.342043
 20
-0.687303
  0
VERTEX
  8
PLAN_1
 62
     2
  6
CONTINUOUS
 10
-0.343071
 20
-0.689870
  0
VERTEX
  8
PLAN_1
 62
     2
  6
CONTINUOUS
 10
-0.343071
 20
-0.692957
  0
VERTEX
  8
PLAN_1
 62
     2
  6
CONTINUOUS
 10
-0.343071
 20
-0.724311
  0
SEQEND
  8
0
  0
POLYLINE
  8
PLAN_1
 62
     2
  6
CONTINUOUS
 66
     1
 40
0.003000
 41
0.003000
  0
VERTEX
  8
PLAN_1
 62
     2
  6
CONTINUOUS
 10
-0.296811
 20
-0.668799
  0
VERTEX
  8
PLAN_1
 62
     2
  6
CONTINUOUS
 10
-0.293728
 20
-0.668799
  0
VERTEX
  8
PLAN_1
 62
     2
  6
CONTINUOUS
 10
-0.290646
 20
-0.669311
  0
VERTEX
  8
PLAN_1
 62
     2
  6
CONTINUOUS
 10
-0.288075
 20
-0.669827
  0
VERTEX
  8
PLAN_1
 62
     2
  6
CONTINUOUS
 10
-0.285504
 20
-0.670854
  0
VERTEX
  8
PLAN_1
 62
     2
  6
CONTINUOUS
 10
-0.282933
 20
-0.672398
  0
VERTEX
  8
PLAN_1
 62
     2
  6
CONTINUOUS
 10
-0.280878
 20
-0.673937
  0
VERTEX
  8
PLAN_1
 62
     2
  6
CONTINUOUS
 10
-0.279335
 20
-0.675480
  0
VERTEX
  8
PLAN_1
 62
     2
  6
CONTINUOUS
 10
-0.277795
 20
-0.677535
  0
VERTEX
  8
PLAN_1
 62
     2
  6
CONTINUOUS
 10
-0.274709
 20
-0.682161
  0
VERTEX
  8
PLAN_1
 62
     2
  6
CONTINUOUS
 10
-0.273169
 20
-0.686787
  0
VERTEX
  8
PLAN_1
 62
     2
  6
CONTINUOUS
 10
-0.271626
 20
-0.691929
  0
VERTEX
  8
PLAN_1
 62
     2
  6
CONTINUOUS
 10
-0.271626
 20
-0.697067
  0
VERTEX
  8
PLAN_1
 62
     2
  6
CONTINUOUS
 10
-0.271626
 20
-0.702720
  0
VERTEX
  8
PLAN_1
 62
     2
  6
CONTINUOUS
 10
-0.273169
 20
-0.707862
  0
VERTEX
  8
PLAN_1
 62
     2
  6
CONTINUOUS
 10
-0.274709
 20
-0.712488
  0
VERTEX
  8
PLAN_1
 62
     2
  6
CONTINUOUS
 10
-0.277795
 20
-0.717114
  0
VERTEX
  8
PLAN_1
 62
     2
  6
CONTINUOUS
 10
-0.279335
 20
-0.718657
  0
VERTEX
  8
PLAN_1
 62
     2
  6
CONTINUOUS
 10
-0.280878
 20
-0.720713
  0
VERTEX
  8
PLAN_1
 62
     2
  6
CONTINUOUS
 10
-0.282933
 20
-0.722256
  0
VERTEX
  8
PLAN_1
 62
     2
  6
CONTINUOUS
 10
-0.285504
 20
-0.723283
  0
VERTEX
  8
PLAN_1
 62
     2
  6
CONTINUOUS
 10
-0.288075
 20
-0.724823
  0
VERTEX
  8
PLAN_1
 62
     2
  6
CONTINUOUS
 10
-0.290646
 20
-0.725339
  0
VERTEX
  8
PLAN_1
 62
     2
  6
CONTINUOUS
 10
-0.293728
 20
-0.725850
  0
VERTEX
  8
PLAN_1
 62
     2
  6
CONTINUOUS
 10
-0.296811
 20
-0.725850
  0
VERTEX
  8
PLAN_1
 62
     2
  6
CONTINUOUS
 10
-0.299898
 20
-0.725850
  0
VERTEX
  8
PLAN_1
 62
     2
  6
CONTINUOUS
 10
-0.302980
 20
-0.725339
  0
VERTEX
  8
PLAN_1
 62
     2
  6
CONTINUOUS
 10
-0.305551
 20
-0.724823
  0
VERTEX
  8
PLAN_1
 62
     2
  6
CONTINUOUS
 10
-0.308118
 20
-0.723283
  0
VERTEX
  8
PLAN_1
 62
     2
  6
CONTINUOUS
 10
-0.310177
 20
-0.722256
  0
VERTEX
  8
PLAN_1
 62
     2
  6
CONTINUOUS
 10
-0.312232
 20
-0.720713
  0
VERTEX
  8
PLAN_1
 62
     2
  6
CONTINUOUS
 10
-0.314287
 20
-0.718657
  0
VERTEX
  8
PLAN_1
 62
     2
  6
CONTINUOUS
 10
-0.315831
 20
-0.717114
  0
VERTEX
  8
PLAN_1
 62
     2
  6
CONTINUOUS
 10
-0.318402
 20
-0.712488
  0
VERTEX
  8
PLAN_1
 62
     2
  6
CONTINUOUS
 10
-0.320457
 20
-0.707862
  0
VERTEX
  8
PLAN_1
 62
     2
  6
CONTINUOUS
 10
-0.321484
 20
-0.702720
  0
VERTEX
  8
PLAN_1
 62
     2
  6
CONTINUOUS
 10
-0.321996
 20
-0.697067
  0
VERTEX
  8
PLAN_1
 62
     2
  6
CONTINUOUS
 10
-0.321484
 20
-0.691929
  0
VERTEX
  8
PLAN_1
 62
     2
  6
CONTINUOUS
 10
-0.320457
 20
-0.686787
  0
VERTEX
  8
PLAN_1
 62
     2
  6
CONTINUOUS
 10
-0.318402
 20
-0.682161
  0
VERTEX
  8
PLAN_1
 62
     2
  6
CONTINUOUS
 10
-0.315831
 20
-0.677535
  0
VERTEX
  8
PLAN_1
 62
     2
  6
CONTINUOUS
 10
-0.314287
 20
-0.675480
  0
VERTEX
  8
PLAN_1
 62
     2
  6
CONTINUOUS
 10
-0.312232
 20
-0.673937
  0
VERTEX
  8
PLAN_1
 62
     2
  6
CONTINUOUS
 10
-0.310177
 20
-0.672398
  0
VERTEX
  8
PLAN_1
 62
     2
  6
CONTINUOUS
 10
-0.308118
 20
-0.670854
  0
VERTEX
  8
PLAN_1
 62
     2
  6
CONTINUOUS
 10
-0.305551
 20
-0.669827
  0
VERTEX
  8
PLAN_1
 62
     2
  6
CONTINUOUS
 10
-0.302980
 20
-0.669311
  0
VERTEX
  8
PLAN_1
 62
     2
  6
CONTINUOUS
 10
-0.299898
 20
-0.668799
  0
VERTEX
  8
PLAN_1
 62
     2
  6
CONTINUOUS
 10
-0.296811
 20
-0.668799
  0
SEQEND
  8
0
  0
POLYLINE
  8
PLAN_1
 62
     2
  6
CONTINUOUS
 66
     1
 40
0.003000
 41
0.003000
  0
VERTEX
  8
PLAN_1
 62
     2
  6
CONTINUOUS
 10
-0.296811
 20
-0.718142
  0
VERTEX
  8
PLAN_1
 62
     2
  6
CONTINUOUS
 10
-0.294240
 20
-0.718142
  0
VERTEX
  8
PLAN_1
 62
     2
  6
CONTINUOUS
 10
-0.292185
 20
-0.717630
  0
VERTEX
  8
PLAN_1
 62
     2
  6
CONTINUOUS
 10
-0.290646
 20
-0.716598
  0
VERTEX
  8
PLAN_1
 62
     2
  6
CONTINUOUS
 10
-0.288587
 20
-0.716087
  0
VERTEX
  8
PLAN_1
 62
     2
  6
CONTINUOUS
 10
-0.286020
 20
-0.713516
  0
VERTEX
  8
PLAN_1
 62
     2
  6
CONTINUOUS
 10
-0.283961
 20
-0.710433
  0
VERTEX
  8
PLAN_1
 62
     2
  6
CONTINUOUS
 10
-0.282421
 20
-0.706835
  0
VERTEX
  8
PLAN_1
 62
     2
  6
CONTINUOUS
 10
-0.281394
 20
-0.703748
  0
VERTEX
  8
PLAN_1
 62
     2
  6
CONTINUOUS
 10
-0.280878
 20
-0.700154
  0
VERTEX
  8
PLAN_1
 62
     2
  6
CONTINUOUS
 10
-0.280878
 20
-0.697067
  0
VERTEX
  8
PLAN_1
 62
     2
  6
CONTINUOUS
 10
-0.280878
 20
-0.694496
  0
VERTEX
  8
PLAN_1
 62
     2
  6
CONTINUOUS
 10
-0.281394
 20
-0.690902
  0
VERTEX
  8
PLAN_1
 62
     2
  6
CONTINUOUS
 10
-0.282421
 20
-0.687303
  0
VERTEX
  8
PLAN_1
 62
     2
  6
CONTINUOUS
 10
-0.283961
 20
-0.684217
  0
VERTEX
  8
PLAN_1
 62
     2
  6
CONTINUOUS
 10
-0.286020
 20
-0.681134
  0
VERTEX
  8
PLAN_1
 62
     2
  6
CONTINUOUS
 10
-0.288587
 20
-0.678563
  0
VERTEX
  8
PLAN_1
 62
     2
  6
CONTINUOUS
 10
-0.290646
 20
-0.677535
  0
VERTEX
  8
PLAN_1
 62
     2
  6
CONTINUOUS
 10
-0.292185
 20
-0.677024
  0
VERTEX
  8
PLAN_1
 62
     2
  6
CONTINUOUS
 10
-0.294240
 20
-0.676508
  0
VERTEX
  8
PLAN_1
 62
     2
  6
CONTINUOUS
 10
-0.296811
 20
-0.676508
  0
VERTEX
  8
PLAN_1
 62
     2
  6
CONTINUOUS
 10
-0.298866
 20
-0.676508
  0
VERTEX
  8
PLAN_1
 62
     2
  6
CONTINUOUS
 10
-0.300925
 20
-0.677024
  0
VERTEX
  8
PLAN_1
 62
     2
  6
CONTINUOUS
 10
-0.302980
 20
-0.677535
  0
VERTEX
  8
PLAN_1
 62
     2
  6
CONTINUOUS
 10
-0.304524
 20
-0.678563
  0
VERTEX
  8
PLAN_1
 62
     2
  6
CONTINUOUS
 10
-0.307606
 20
-0.681134
  0
VERTEX
  8
PLAN_1
 62
     2
  6
CONTINUOUS
 10
-0.309661
 20
-0.684217
  0
VERTEX
  8
PLAN_1
 62
     2
  6
CONTINUOUS
 10
-0.311205
 20
-0.687303
  0
VERTEX
  8
PLAN_1
 62
     2
  6
CONTINUOUS
 10
-0.311717
 20
-0.690902
  0
VERTEX
  8
PLAN_1
 62
     2
  6
CONTINUOUS
 10
-0.312232
 20
-0.694496
  0
VERTEX
  8
PLAN_1
 62
     2
  6
CONTINUOUS
 10
-0.312744
 20
-0.697067
  0
VERTEX
  8
PLAN_1
 62
     2
  6
CONTINUOUS
 10
-0.312232
 20
-0.700154
  0
VERTEX
  8
PLAN_1
 62
     2
  6
CONTINUOUS
 10
-0.311717
 20
-0.703748
  0
VERTEX
  8
PLAN_1
 62
     2
  6
CONTINUOUS
 10
-0.311205
 20
-0.706835
  0
VERTEX
  8
PLAN_1
 62
     2
  6
CONTINUOUS
 10
-0.309661
 20
-0.710433
  0
VERTEX
  8
PLAN_1
 62
     2
  6
CONTINUOUS
 10
-0.307606
 20
-0.713516
  0
VERTEX
  8
PLAN_1
 62
     2
  6
CONTINUOUS
 10
-0.304524
 20
-0.716087
  0
VERTEX
  8
PLAN_1
 62
     2
  6
CONTINUOUS
 10
-0.302980
 20
-0.716598
  0
VERTEX
  8
PLAN_1
 62
     2
  6
CONTINUOUS
 10
-0.300925
 20
-0.717630
  0
VERTEX
  8
PLAN_1
 62
     2
  6
CONTINUOUS
 10
-0.298866
 20
-0.718142
  0
VERTEX
  8
PLAN_1
 62
     2
  6
CONTINUOUS
 10
-0.296811
 20
-0.718142
  0
SEQEND
  8
0
  0
POLYLINE
  8
PLAN_1
 62
     2
  6
CONTINUOUS
 66
     1
 40
0.003000
 41
0.003000
  0
VERTEX
  8
PLAN_1
 62
     2
  6
CONTINUOUS
 10
-0.225366
 20
-0.724311
  0
VERTEX
  8
PLAN_1
 62
     2
  6
CONTINUOUS
 10
-0.225366
 20
-0.716598
  0
VERTEX
  8
PLAN_1
 62
     2
  6
CONTINUOUS
 10
-0.225882
 20
-0.716598
  0
VERTEX
  8
PLAN_1
 62
     2
  6
CONTINUOUS
 10
-0.227421
 20
-0.718657
  0
VERTEX
  8
PLAN_1
 62
     2
  6
CONTINUOUS
 10
-0.228965
 20
-0.720713
  0
VERTEX
  8
PLAN_1
 62
     2
  6
CONTINUOUS
 10
-0.230508
 20
-0.722256
  0
VERTEX
  8
PLAN_1
 62
     2
  6
CONTINUOUS
 10
-0.232563
 20
-0.723795
  0
VERTEX
  8
PLAN_1
 62
     2
  6
CONTINUOUS
 10
-0.234618
 20
-0.724823
  0
VERTEX
  8
PLAN_1
 62
     2
  6
CONTINUOUS
 10
-0.237189
 20
-0.725339
  0
VERTEX
  8
PLAN_1
 62
     2
  6
CONTINUOUS
 10
-0.239760
 20
-0.725850
  0
VERTEX
  8
PLAN_1
 62
     2
  6
CONTINUOUS
 10
-0.242843
 20
-0.726366
  0
VERTEX
  8
PLAN_1
 62
     2
  6
CONTINUOUS
 10
-0.245925
 20
-0.725850
  0
VERTEX
  8
PLAN_1
 62
     2
  6
CONTINUOUS
 10
-0.249012
 20
-0.725339
  0
VERTEX
  8
PLAN_1
 62
     2
  6
CONTINUOUS
 10
-0.252094
 20
-0.724311
  0
VERTEX
  8
PLAN_1
 62
     2
  6
CONTINUOUS
 10
-0.254665
 20
-0.722768
  0
VERTEX
  8
PLAN_1
 62
     2
  6
CONTINUOUS
 10
-0.257232
 20
-0.720197
  0
VERTEX
  8
PLAN_1
 62
     2
  6
CONTINUOUS
 10
-0.259291
 20
-0.717630
  0
VERTEX
  8
PLAN_1
 62
     2
  6
CONTINUOUS
 10
-0.260319
 20
-0.713516
  0
VERTEX
  8
PLAN_1
 62
     2
  6
CONTINUOUS
 10
-0.260831
 20
-0.709406
  0
VERTEX
  8
PLAN_1
 62
     2
  6
CONTINUOUS
 10
-0.260831
 20
-0.670339
  0
VERTEX
  8
PLAN_1
 62
     2
  6
CONTINUOUS
 10
-0.251579
 20
-0.670339
  0
VERTEX
  8
PLAN_1
 62
     2
  6
CONTINUOUS
 10
-0.251579
 20
-0.706319
  0
VERTEX
  8
PLAN_1
 62
     2
  6
CONTINUOUS
 10
-0.251067
 20
-0.709406
  0
VERTEX
  8
PLAN_1
 62
     2
  6
CONTINUOUS
 10
-0.250551
 20
-0.711972
  0
VERTEX
  8
PLAN_1
 62
     2
  6
CONTINUOUS
 10
-0.249524
 20
-0.714031
  0
VERTEX
  8
PLAN_1
 62
     2
  6
CONTINUOUS
 10
-0.248496
 20
-0.715571
  0
VERTEX
  8
PLAN_1
 62
     2
  6
CONTINUOUS
 10
-0.246953
 20
-0.716598
  0
VERTEX
  8
PLAN_1
 62
     2
  6
CONTINUOUS
 10
-0.244898
 20
-0.717630
  0
VERTEX
  8
PLAN_1
 62
     2
  6
CONTINUOUS
 10
-0.243354
 20
-0.718142
  0
VERTEX
  8
PLAN_1
 62
     2
  6
CONTINUOUS
 10
-0.240787
 20
-0.718142
  0
VERTEX
  8
PLAN_1
 62
     2
  6
CONTINUOUS
 10
-0.237189
 20
-0.717630
  0
VERTEX
  8
PLAN_1
 62
     2
  6
CONTINUOUS
 10
-0.233591
 20
-0.716598
  0
VERTEX
  8
PLAN_1
 62
     2
  6
CONTINUOUS
 10
-0.231020
 20
-0.714543
  0
VERTEX
  8
PLAN_1
 62
     2
  6
CONTINUOUS
 10
-0.228965
 20
-0.711972
  0
VERTEX
  8
PLAN_1
 62
     2
  6
CONTINUOUS
 10
-0.227937
 20
-0.709406
  0
VERTEX
  8
PLAN_1
 62
     2
  6
CONTINUOUS
 10
-0.226909
 20
-0.706319
  0
VERTEX
  8
PLAN_1
 62
     2
  6
CONTINUOUS
 10
-0.226394
 20
-0.703236
  0
VERTEX
  8
PLAN_1
 62
     2
  6
CONTINUOUS
 10
-0.225882
 20
-0.700154
  0
VERTEX
  8
PLAN_1
 62
     2
  6
CONTINUOUS
 10
-0.225882
 20
-0.670339
  0
VERTEX
  8
PLAN_1
 62
     2
  6
CONTINUOUS
 10
-0.216630
 20
-0.670339
  0
VERTEX
  8
PLAN_1
 62
     2
  6
CONTINUOUS
 10
-0.216630
 20
-0.724311
  0
VERTEX
  8
PLAN_1
 62
     2
  6
CONTINUOUS
 10
-0.225366
 20
-0.724311
  0
SEQEND
  8
0
  0
POLYLINE
  8
PLAN_1
 62
     2
  6
CONTINUOUS
 66
     1
 40
0.003000
 41
0.003000
  0
VERTEX
  8
PLAN_1
 62
     2
  6
CONTINUOUS
 10
-0.162657
 20
-0.677535
  0
VERTEX
  8
PLAN_1
 62
     2
  6
CONTINUOUS
 10
-0.162657
 20
-0.713004
  0
VERTEX
  8
PLAN_1
 62
     2
  6
CONTINUOUS
 10
-0.162657
 20
-0.714543
  0
VERTEX
  8
PLAN_1
 62
     2
  6
CONTINUOUS
 10
-0.162146
 20
-0.715571
  0
VERTEX
  8
PLAN_1
 62
     2
  6
CONTINUOUS
 10
-0.161630
 20
-0.716087
  0
VERTEX
  8
PLAN_1
 62
     2
  6
CONTINUOUS
 10
-0.160602
 20
-0.716598
  0
VERTEX
  8
PLAN_1
 62
     2
  6
CONTINUOUS
 10
-0.160087
 20
-0.717114
  0
VERTEX
  8
PLAN_1
 62
     2
  6
CONTINUOUS
 10
-0.159059
 20
-0.717114
  0
VERTEX
  8
PLAN_1
 62
     2
  6
CONTINUOUS
 10
-0.158031
 20
-0.717114
  0
VERTEX
  8
PLAN_1
 62
     2
  6
CONTINUOUS
 10
-0.157520
 20
-0.717630
  0
VERTEX
  8
PLAN_1
 62
     2
  6
CONTINUOUS
 10
-0.153921
 20
-0.717630
  0
VERTEX
  8
PLAN_1
 62
     2
  6
CONTINUOUS
 10
-0.153921
 20
-0.724311
  0
VERTEX
  8
PLAN_1
 62
     2
  6
CONTINUOUS
 10
-0.155461
 20
-0.724823
  0
VERTEX
  8
PLAN_1
 62
     2
  6
CONTINUOUS
 10
-0.156488
 20
-0.724823
  0
VERTEX
  8
PLAN_1
 62
     2
  6
CONTINUOUS
 10
-0.157520
 20
-0.724823
  0
VERTEX
  8
PLAN_1
 62
     2
  6
CONTINUOUS
 10
-0.158547
 20
-0.724823
  0
VERTEX
  8
PLAN_1
 62
     2
  6
CONTINUOUS
 10
-0.159575
 20
-0.725339
  0
VERTEX
  8
PLAN_1
 62
     2
  6
CONTINUOUS
 10
-0.160087
 20
-0.725339
  0
VERTEX
  8
PLAN_1
 62
     2
  6
CONTINUOUS
 10
-0.160602
 20
-0.725339
  0
VERTEX
  8
PLAN_1
 62
     2
  6
CONTINUOUS
 10
-0.161114
 20
-0.725339
  0
VERTEX
  8
PLAN_1
 62
     2
  6
CONTINUOUS
 10
-0.164201
 20
-0.724823
  0
VERTEX
  8
PLAN_1
 62
     2
  6
CONTINUOUS
 10
-0.166772
 20
-0.724311
  0
VERTEX
  8
PLAN_1
 62
     2
  6
CONTINUOUS
 10
-0.168311
 20
-0.723283
  0
VERTEX
  8
PLAN_1
 62
     2
  6
CONTINUOUS
 10
-0.169854
 20
-0.721740
  0
VERTEX
  8
PLAN_1
 62
     2
  6
CONTINUOUS
 10
-0.170882
 20
-0.720197
  0
VERTEX
  8
PLAN_1
 62
     2
  6
CONTINUOUS
 10
-0.171398
 20
-0.718142
  0
VERTEX
  8
PLAN_1
 62
     2
  6
CONTINUOUS
 10
-0.171909
 20
-0.716087
  0
VERTEX
  8
PLAN_1
 62
     2
  6
CONTINUOUS
 10
-0.171909
 20
-0.713516
  0
VERTEX
  8
PLAN_1
 62
     2
  6
CONTINUOUS
 10
-0.171909
 20
-0.677535
  0
VERTEX
  8
PLAN_1
 62
     2
  6
CONTINUOUS
 10
-0.179618
 20
-0.677535
  0
VERTEX
  8
PLAN_1
 62
     2
  6
CONTINUOUS
 10
-0.179618
 20
-0.670339
  0
VERTEX
  8
PLAN_1
 62
     2
  6
CONTINUOUS
 10
-0.171909
 20
-0.670339
  0
VERTEX
  8
PLAN_1
 62
     2
  6
CONTINUOUS
 10
-0.171909
 20
-0.654921
  0
VERTEX
  8
PLAN_1
 62
     2
  6
CONTINUOUS
 10
-0.162657
 20
-0.654921
  0
VERTEX
  8
PLAN_1
 62
     2
  6
CONTINUOUS
 10
-0.162657
 20
-0.670339
  0
VERTEX
  8
PLAN_1
 62
     2
  6
CONTINUOUS
 10
-0.153921
 20
-0.670339
  0
VERTEX
  8
PLAN_1
 62
     2
  6
CONTINUOUS
 10
-0.153921
 20
-0.677535
  0
VERTEX
  8
PLAN_1
 62
     2
  6
CONTINUOUS
 10
-0.162657
 20
-0.677535
  0
SEQEND
  8
0
  0
POLYLINE
  8
PLAN_1
 62
     2
  6
CONTINUOUS
 66
     1
 40
0.003000
 41
0.003000
  0
VERTEX
  8
PLAN_1
 62
     2
  6
CONTINUOUS
 10
-0.145697
 20
-0.686787
  0
VERTEX
  8
PLAN_1
 62
     2
  6
CONTINUOUS
 10
-0.145181
 20
-0.682161
  0
VERTEX
  8
PLAN_1
 62
     2
  6
CONTINUOUS
 10
-0.143642
 20
-0.678563
  0
VERTEX
  8
PLAN_1
 62
     2
  6
CONTINUOUS
 10
-0.141583
 20
-0.675480
  0
VERTEX
  8
PLAN_1
 62
     2
  6
CONTINUOUS
 10
-0.139016
 20
-0.672909
  0
VERTEX
  8
PLAN_1
 62
     2
  6
CONTINUOUS
 10
-0.135929
 20
-0.670854
  0
VERTEX
  8
PLAN_1
 62
     2
  6
CONTINUOUS
 10
-0.132331
 20
-0.669827
  0
VERTEX
  8
PLAN_1
 62
     2
  6
CONTINUOUS
 10
-0.127705
 20
-0.668799
  0
VERTEX
  8
PLAN_1
 62
     2
  6
CONTINUOUS
 10
-0.123079
 20
-0.668799
  0
VERTEX
  8
PLAN_1
 62
     2
  6
CONTINUOUS
 10
-0.121024
 20
-0.668799
  0
VERTEX
  8
PLAN_1
 62
     2
  6
CONTINUOUS
 10
-0.117941
 20
-0.668799
  0
VERTEX
  8
PLAN_1
 62
     2
  6
CONTINUOUS
 10
-0.114854
 20
-0.669827
  0
VERTEX
  8
PLAN_1
 62
     2
  6
CONTINUOUS
 10
-0.111260
 20
-0.670854
  0
VERTEX
  8
PLAN_1
 62
     2
  6
CONTINUOUS
 10
-0.108173
 20
-0.672909
  0
VERTEX
  8
PLAN_1
 62
     2
  6
CONTINUOUS
 10
-0.105602
 20
-0.675480
  0
VERTEX
  8
PLAN_1
 62
     2
  6
CONTINUOUS
 10
-0.104575
 20
-0.677024
  0
VERTEX
  8
PLAN_1
 62
     2
  6
CONTINUOUS
 10
-0.103547
 20
-0.679079
  0
VERTEX
  8
PLAN_1
 62
     2
  6
CONTINUOUS
 10
-0.103035
 20
-0.681134
  0
VERTEX
  8
PLAN_1
 62
     2
  6
CONTINUOUS
 10
-0.103035
 20
-0.683705
  0
VERTEX
  8
PLAN_1
 62
     2
  6
CONTINUOUS
 10
-0.103035
 20
-0.715059
  0
VERTEX
  8
PLAN_1
 62
     2
  6
CONTINUOUS
 10
-0.103035
 20
-0.716087
  0
VERTEX
  8
PLAN_1
 62
     2
  6
CONTINUOUS
 10
-0.102520
 20
-0.716598
  0
VERTEX
  8
PLAN_1
 62
     2
  6
CONTINUOUS
 10
-0.102520
 20
-0.717114
  0
VERTEX
  8
PLAN_1
 62
     2
  6
CONTINUOUS
 10
-0.102008
 20
-0.717630
  0
VERTEX
  8
PLAN_1
 62
     2
  6
CONTINUOUS
 10
-0.101492
 20
-0.718142
  0
VERTEX
  8
PLAN_1
 62
     2
  6
CONTINUOUS
 10
-0.100976
 20
-0.718142
  0
VERTEX
  8
PLAN_1
 62
     2
  6
CONTINUOUS
 10
-0.100465
 20
-0.718142
  0
VERTEX
  8
PLAN_1
 62
     2
  6
CONTINUOUS
 10
-0.099949
 20
-0.718142
  0
VERTEX
  8
PLAN_1
 62
     2
  6
CONTINUOUS
 10
-0.099437
 20
-0.718142
  0
VERTEX
  8
PLAN_1
 62
     2
  6
CONTINUOUS
 10
-0.098921
 20
-0.718142
  0
VERTEX
  8
PLAN_1
 62
     2
  6
CONTINUOUS
 10
-0.098409
 20
-0.718142
  0
VERTEX
  8
PLAN_1
 62
     2
  6
CONTINUOUS
 10
-0.097894
 20
-0.718142
  0
VERTEX
  8
PLAN_1
 62
     2
  6
CONTINUOUS
 10
-0.097382
 20
-0.718142
  0
VERTEX
  8
PLAN_1
 62
     2
  6
CONTINUOUS
 10
-0.096866
 20
-0.718142
  0
VERTEX
  8
PLAN_1
 62
     2
  6
CONTINUOUS
 10
-0.096866
 20
-0.724311
  0
VERTEX
  8
PLAN_1
 62
     2
  6
CONTINUOUS
 10
-0.097382
 20
-0.724823
  0
VERTEX
  8
PLAN_1
 62
     2
  6
CONTINUOUS
 10
-0.097894
 20
-0.724823
  0
VERTEX
  8
PLAN_1
 62
     2
  6
CONTINUOUS
 10
-0.098409
 20
-0.724823
  0
VERTEX
  8
PLAN_1
 62
     2
  6
CONTINUOUS
 10
-0.098921
 20
-0.725339
  0
VERTEX
  8
PLAN_1
 62
     2
  6
CONTINUOUS
 10
-0.099949
 20
-0.725339
  0
VERTEX
  8
PLAN_1
 62
     2
  6
CONTINUOUS
 10
-0.100465
 20
-0.725339
  0
VERTEX
  8
PLAN_1
 62
     2
  6
CONTINUOUS
 10
-0.100976
 20
-0.725339
  0
VERTEX
  8
PLAN_1
 62
     2
  6
CONTINUOUS
 10
-0.102008
 20
-0.725339
  0
VERTEX
  8
PLAN_1
 62
     2
  6
CONTINUOUS
 10
-0.104575
 20
-0.725339
  0
VERTEX
  8
PLAN_1
 62
     2
  6
CONTINUOUS
 10
-0.106634
 20
-0.724823
  0
VERTEX
  8
PLAN_1
 62
     2
  6
CONTINUOUS
 10
-0.108173
 20
-0.724311
  0
VERTEX
  8
PLAN_1
 62
     2
  6
CONTINUOUS
 10
-0.109717
 20
-0.722768
  0
VERTEX
  8
PLAN_1
 62
     2
  6
CONTINUOUS
 10
-0.110228
 20
-0.721740
  0
VERTEX
  8
PLAN_1
 62
     2
  6
CONTINUOUS
 10
-0.110744
 20
-0.720197
  0
VERTEX
  8
PLAN_1
 62
     2
  6
CONTINUOUS
 10
-0.111260
 20
-0.718657
  0
VERTEX
  8
PLAN_1
 62
     2
  6
CONTINUOUS
 10
-0.111260
 20
-0.717114
  0
VERTEX
  8
PLAN_1
 62
     2
  6
CONTINUOUS
 10
-0.112799
 20
-0.718657
  0
VERTEX
  8
PLAN_1
 62
     2
  6
CONTINUOUS
 10
-0.114343
 20
-0.720197
  0
VERTEX
  8
PLAN_1
 62
     2
  6
CONTINUOUS
 10
-0.116398
 20
-0.721740
  0
VERTEX
  8
PLAN_1
 62
     2
  6
CONTINUOUS
 10
-0.118453
 20
-0.723283
  0
VERTEX
  8
PLAN_1
 62
     2
  6
CONTINUOUS
 10
-0.121024
 20
-0.724311
  0
VERTEX
  8
PLAN_1
 62
     2
  6
CONTINUOUS
 10
-0.124106
 20
-0.725339
  0
VERTEX
  8
PLAN_1
 62
     2
  6
CONTINUOUS
 10
-0.127193
 20
-0.725850
  0
VERTEX
  8
PLAN_1
 62
     2
  6
CONTINUOUS
 10
-0.131303
 20
-0.726366
  0
VERTEX
  8
PLAN_1
 62
     2
  6
CONTINUOUS
 10
-0.134902
 20
-0.725850
  0
VERTEX
  8
PLAN_1
 62
     2
  6
CONTINUOUS
 10
-0.137984
 20
-0.724823
  0
VERTEX
  8
PLAN_1
 62
     2
  6
CONTINUOUS
 10
-0.141071
 20
-0.723795
  0
VERTEX
  8
PLAN_1
 62
     2
  6
CONTINUOUS
 10
-0.143642
 20
-0.721740
  0
VERTEX
  8
PLAN_1
 62
     2
  6
CONTINUOUS
 10
-0.145697
 20
-0.719685
  0
VERTEX
  8
PLAN_1
 62
     2
  6
CONTINUOUS
 10
-0.146724
 20
-0.716598
  0
VERTEX
  8
PLAN_1
 62
     2
  6
CONTINUOUS
 10
-0.147752
 20
-0.714031
  0
VERTEX
  8
PLAN_1
 62
     2
  6
CONTINUOUS
 10
-0.148268
 20
-0.710433
  0
VERTEX
  8
PLAN_1
 62
     2
  6
CONTINUOUS
 10
-0.148268
 20
-0.708378
  0
VERTEX
  8
PLAN_1
 62
     2
  6
CONTINUOUS
 10
-0.147752
 20
-0.706319
  0
VERTEX
  8
PLAN_1
 62
     2
  6
CONTINUOUS
 10
-0.147236
 20
-0.703236
  0
VERTEX
  8
PLAN_1
 62
     2
  6
CONTINUOUS
 10
-0.145697
 20
-0.700665
  0
VERTEX
  8
PLAN_1
 62
     2
  6
CONTINUOUS
 10
-0.143642
 20
-0.698610
  0
VERTEX
  8
PLAN_1
 62
     2
  6
CONTINUOUS
 10
-0.140555
 20
-0.696039
  0
VERTEX
  8
PLAN_1
 62
     2
  6
CONTINUOUS
 10
-0.136957
 20
-0.694496
  0
VERTEX
  8
PLAN_1
 62
     2
  6
CONTINUOUS
 10
-0.131819
 20
-0.693469
  0
VERTEX
  8
PLAN_1
 62
     2
  6
CONTINUOUS
 10
-0.116398
 20
-0.691413
  0
VERTEX
  8
PLAN_1
 62
     2
  6
CONTINUOUS
 10
-0.115886
 20
-0.691413
  0
VERTEX
  8
PLAN_1
 62
     2
  6
CONTINUOUS
 10
-0.114854
 20
-0.690902
  0
VERTEX
  8
PLAN_1
 62
     2
  6
CONTINUOUS
 10
-0.114343
 20
-0.690902
  0
VERTEX
  8
PLAN_1
 62
     2
  6
CONTINUOUS
 10
-0.113315
 20
-0.690386
  0
VERTEX
  8
PLAN_1
 62
     2
  6
CONTINUOUS
 10
-0.112799
 20
-0.689358
  0
VERTEX
  8
PLAN_1
 62
     2
  6
CONTINUOUS
 10
-0.112287
 20
-0.688331
  0
VERTEX
  8
PLAN_1
 62
     2
  6
CONTINUOUS
 10
-0.111772
 20
-0.686787
  0
VERTEX
  8
PLAN_1
 62
     2
  6
CONTINUOUS
 10
-0.111772
 20
-0.685244
  0
VERTEX
  8
PLAN_1
 62
     2
  6
CONTINUOUS
 10
-0.111772
 20
-0.683189
  0
VERTEX
  8
PLAN_1
 62
     2
  6
CONTINUOUS
 10
-0.112799
 20
-0.681134
  0
VERTEX
  8
PLAN_1
 62
     2
  6
CONTINUOUS
 10
-0.113827
 20
-0.679591
  0
VERTEX
  8
PLAN_1
 62
     2
  6
CONTINUOUS
 10
-0.114854
 20
-0.678563
  0
VERTEX
  8
PLAN_1
 62
     2
  6
CONTINUOUS
 10
-0.116913
 20
-0.677535
  0
VERTEX
  8
PLAN_1
 62
     2
  6
CONTINUOUS
 10
-0.118969
 20
-0.676508
  0
VERTEX
  8
PLAN_1
 62
     2
  6
CONTINUOUS
 10
-0.121539
 20
-0.676508
  0
VERTEX
  8
PLAN_1
 62
     2
  6
CONTINUOUS
 10
-0.124622
 20
-0.675992
  0
VERTEX
  8
PLAN_1
 62
     2
  6
CONTINUOUS
 10
-0.128220
 20
-0.676508
  0
VERTEX
  8
PLAN_1
 62
     2
  6
CONTINUOUS
 10
-0.130791
 20
-0.677024
  0
VERTEX
  8
PLAN_1
 62
     2
  6
CONTINUOUS
 10
-0.132846
 20
-0.678563
  0
VERTEX
  8
PLAN_1
 62
     2
  6
CONTINUOUS
 10
-0.134390
 20
-0.680106
  0
VERTEX
  8
PLAN_1
 62
     2
  6
CONTINUOUS
 10
-0.135417
 20
-0.681650
  0
VERTEX
  8
PLAN_1
 62
     2
  6
CONTINUOUS
 10
-0.136445
 20
-0.683189
  0
VERTEX
  8
PLAN_1
 62
     2
  6
CONTINUOUS
 10
-0.136957
 20
-0.685244
  0
VERTEX
  8
PLAN_1
 62
     2
  6
CONTINUOUS
 10
-0.136957
 20
-0.686787
  0
VERTEX
  8
PLAN_1
 62
     2
  6
CONTINUOUS
 10
-0.145697
 20
-0.686787
  0
SEQEND
  8
0
  0
POLYLINE
  8
PLAN_1
 62
     2
  6
CONTINUOUS
 66
     1
 40
0.003000
 41
0.003000
  0
VERTEX
  8
PLAN_1
 62
     2
  6
CONTINUOUS
 10
-0.111772
 20
-0.696555
  0
VERTEX
  8
PLAN_1
 62
     2
  6
CONTINUOUS
 10
-0.112799
 20
-0.697067
  0
VERTEX
  8
PLAN_1
 62
     2
  6
CONTINUOUS
 10
-0.113315
 20
-0.697583
  0
VERTEX
  8
PLAN_1
 62
     2
  6
CONTINUOUS
 10
-0.114343
 20
-0.698094
  0
VERTEX
  8
PLAN_1
 62
     2
  6
CONTINUOUS
 10
-0.115886
 20
-0.698610
  0
VERTEX
  8
PLAN_1
 62
     2
  6
CONTINUOUS
 10
-0.117941
 20
-0.698610
  0
VERTEX
  8
PLAN_1
 62
     2
  6
CONTINUOUS
 10
-0.119996
 20
-0.699122
  0
VERTEX
  8
PLAN_1
 62
     2
  6
CONTINUOUS
 10
-0.123079
 20
-0.699638
  0
VERTEX
  8
PLAN_1
 62
     2
  6
CONTINUOUS
 10
-0.127193
 20
-0.700154
  0
VERTEX
  8
PLAN_1
 62
     2
  6
CONTINUOUS
 10
-0.128732
 20
-0.700665
  0
VERTEX
  8
PLAN_1
 62
     2
  6
CONTINUOUS
 10
-0.130791
 20
-0.700665
  0
VERTEX
  8
PLAN_1
 62
     2
  6
CONTINUOUS
 10
-0.132846
 20
-0.701693
  0
VERTEX
  8
PLAN_1
 62
     2
  6
CONTINUOUS
 10
-0.134390
 20
-0.702209
  0
VERTEX
  8
PLAN_1
 62
     2
  6
CONTINUOUS
 10
-0.136445
 20
-0.703236
  0
VERTEX
  8
PLAN_1
 62
     2
  6
CONTINUOUS
 10
-0.137472
 20
-0.704780
  0
VERTEX
  8
PLAN_1
 62
     2
  6
CONTINUOUS
 10
-0.138500
 20
-0.706835
  0
VERTEX
  8
PLAN_1
 62
     2
  6
CONTINUOUS
 10
-0.138500
 20
-0.708890
  0
VERTEX
  8
PLAN_1
 62
     2
  6
CONTINUOUS
 10
-0.138500
 20
-0.710945
  0
VERTEX
  8
PLAN_1
 62
     2
  6
CONTINUOUS
 10
-0.137984
 20
-0.713004
  0
VERTEX
  8
PLAN_1
 62
     2
  6
CONTINUOUS
 10
-0.137472
 20
-0.714543
  0
VERTEX
  8
PLAN_1
 62
     2
  6
CONTINUOUS
 10
-0.136445
 20
-0.716087
  0
VERTEX
  8
PLAN_1
 62
     2
  6
CONTINUOUS
 10
-0.134902
 20
-0.717114
  0
VERTEX
  8
PLAN_1
 62
     2
  6
CONTINUOUS
 10
-0.133358
 20
-0.717630
  0
VERTEX
  8
PLAN_1
 62
     2
  6
CONTINUOUS
 10
-0.131303
 20
-0.718142
  0
VERTEX
  8
PLAN_1
 62
     2
  6
CONTINUOUS
 10
-0.128732
 20
-0.718657
  0
VERTEX
  8
PLAN_1
 62
     2
  6
CONTINUOUS
 10
-0.125650
 20
-0.718142
  0
VERTEX
  8
PLAN_1
 62
     2
  6
CONTINUOUS
 10
-0.122567
 20
-0.717630
  0
VERTEX
  8
PLAN_1
 62
     2
  6
CONTINUOUS
 10
-0.119996
 20
-0.716598
  0
VERTEX
  8
PLAN_1
 62
     2
  6
CONTINUOUS
 10
-0.117425
 20
-0.715059
  0
VERTEX
  8
PLAN_1
 62
     2
  6
CONTINUOUS
 10
-0.114854
 20
-0.713004
  0
VERTEX
  8
PLAN_1
 62
     2
  6
CONTINUOUS
 10
-0.113315
 20
-0.710945
  0
VERTEX
  8
PLAN_1
 62
     2
  6
CONTINUOUS
 10
-0.112287
 20
-0.708378
  0
VERTEX
  8
PLAN_1
 62
     2
  6
CONTINUOUS
 10
-0.111772
 20
-0.705807
  0
VERTEX
  8
PLAN_1
 62
     2
  6
CONTINUOUS
 10
-0.111772
 20
-0.696555
  0
SEQEND
  8
0
  0
POLYLINE
  8
PLAN_1
 62
     2
  6
CONTINUOUS
 66
     1
 40
0.003000
 41
0.003000
  0
VERTEX
  8
PLAN_1
 62
     2
  6
CONTINUOUS
 10
-0.076819
 20
-0.724311
  0
VERTEX
  8
PLAN_1
 62
     2
  6
CONTINUOUS
 10
-0.086071
 20
-0.724311
  0
VERTEX
  8
PLAN_1
 62
     2
  6
CONTINUOUS
 10
-0.086071
 20
-0.670339
  0
VERTEX
  8
PLAN_1
 62
     2
  6
CONTINUOUS
 10
-0.077335
 20
-0.670339
  0
VERTEX
  8
PLAN_1
 62
     2
  6
CONTINUOUS
 10
-0.077335
 20
-0.679079
  0
VERTEX
  8
PLAN_1
 62
     2
  6
CONTINUOUS
 10
-0.075791
 20
-0.677024
  0
VERTEX
  8
PLAN_1
 62
     2
  6
CONTINUOUS
 10
-0.074252
 20
-0.674965
  0
VERTEX
  8
PLAN_1
 62
     2
  6
CONTINUOUS
 10
-0.072709
 20
-0.672909
  0
VERTEX
  8
PLAN_1
 62
     2
  6
CONTINUOUS
 10
-0.070654
 20
-0.671366
  0
VERTEX
  8
PLAN_1
 62
     2
  6
CONTINUOUS
 10
-0.068594
 20
-0.670339
  0
VERTEX
  8
PLAN_1
 62
     2
  6
CONTINUOUS
 10
-0.066539
 20
-0.669311
  0
VERTEX
  8
PLAN_1
 62
     2
  6
CONTINUOUS
 10
-0.064484
 20
-0.668799
  0
VERTEX
  8
PLAN_1
 62
     2
  6
CONTINUOUS
 10
-0.061913
 20
-0.668799
  0
VERTEX
  8
PLAN_1
 62
     2
  6
CONTINUOUS
 10
-0.061402
 20
-0.668799
  0
VERTEX
  8
PLAN_1
 62
     2
  6
CONTINUOUS
 10
-0.060886
 20
-0.668799
  0
VERTEX
  8
PLAN_1
 62
     2
  6
CONTINUOUS
 10
-0.060370
 20
-0.668799
  0
VERTEX
  8
PLAN_1
 62
     2
  6
CONTINUOUS
 10
-0.059858
 20
-0.668799
  0
VERTEX
  8
PLAN_1
 62
     2
  6
CONTINUOUS
 10
-0.059343
 20
-0.668799
  0
VERTEX
  8
PLAN_1
 62
     2
  6
CONTINUOUS
 10
-0.059343
 20
-0.678563
  0
VERTEX
  8
PLAN_1
 62
     2
  6
CONTINUOUS
 10
-0.062941
 20
-0.678563
  0
VERTEX
  8
PLAN_1
 62
     2
  6
CONTINUOUS
 10
-0.066028
 20
-0.678563
  0
VERTEX
  8
PLAN_1
 62
     2
  6
CONTINUOUS
 10
-0.068594
 20
-0.679591
  0
VERTEX
  8
PLAN_1
 62
     2
  6
CONTINUOUS
 10
-0.071165
 20
-0.681134
  0
VERTEX
  8
PLAN_1
 62
     2
  6
CONTINUOUS
 10
-0.073220
 20
-0.682677
  0
VERTEX
  8
PLAN_1
 62
     2
  6
CONTINUOUS
 10
-0.074764
 20
-0.684732
  0
VERTEX
  8
PLAN_1
 62
     2
  6
CONTINUOUS
 10
-0.075791
 20
-0.687303
  0
VERTEX
  8
PLAN_1
 62
     2
  6
CONTINUOUS
 10
-0.076819
 20
-0.689870
  0
VERTEX
  8
PLAN_1
 62
     2
  6
CONTINUOUS
 10
-0.076819
 20
-0.692957
  0
VERTEX
  8
PLAN_1
 62
     2
  6
CONTINUOUS
 10
-0.076819
 20
-0.724311
  0
SEQEND
  8
0
  0
POLYLINE
  8
PLAN_1
 62
     2
  6
CONTINUOUS
 66
     1
 40
0.003000
 41
0.003000
  0
VERTEX
  8
PLAN_1
 62
     2
  6
CONTINUOUS
 10
-0.054205
 20
-0.686787
  0
VERTEX
  8
PLAN_1
 62
     2
  6
CONTINUOUS
 10
-0.053689
 20
-0.682161
  0
VERTEX
  8
PLAN_1
 62
     2
  6
CONTINUOUS
 10
-0.052150
 20
-0.678563
  0
VERTEX
  8
PLAN_1
 62
     2
  6
CONTINUOUS
 10
-0.050091
 20
-0.675480
  0
VERTEX
  8
PLAN_1
 62
     2
  6
CONTINUOUS
 10
-0.047524
 20
-0.672909
  0
VERTEX
  8
PLAN_1
 62
     2
  6
CONTINUOUS
 10
-0.044437
 20
-0.670854
  0
VERTEX
  8
PLAN_1
 62
     2
  6
CONTINUOUS
 10
-0.040839
 20
-0.669827
  0
VERTEX
  8
PLAN_1
 62
     2
  6
CONTINUOUS
 10
-0.036213
 20
-0.668799
  0
VERTEX
  8
PLAN_1
 62
     2
  6
CONTINUOUS
 10
-0.031587
 20
-0.668799
  0
VERTEX
  8
PLAN_1
 62
     2
  6
CONTINUOUS
 10
-0.029531
 20
-0.668799
  0
VERTEX
  8
PLAN_1
 62
     2
  6
CONTINUOUS
 10
-0.026449
 20
-0.668799
  0
VERTEX
  8
PLAN_1
 62
     2
  6
CONTINUOUS
 10
-0.023362
 20
-0.669827
  0
VERTEX
  8
PLAN_1
 62
     2
  6
CONTINUOUS
 10
-0.019768
 20
-0.670854
  0
VERTEX
  8
PLAN_1
 62
     2
  6
CONTINUOUS
 10
-0.016681
 20
-0.672909
  0
VERTEX
  8
PLAN_1
 62
     2
  6
CONTINUOUS
 10
-0.014110
 20
-0.675480
  0
VERTEX
  8
PLAN_1
 62
     2
  6
CONTINUOUS
 10
-0.012571
 20
-0.677024
  0
VERTEX
  8
PLAN_1
 62
     2
  6
CONTINUOUS
 10
-0.012055
 20
-0.679079
  0
VERTEX
  8
PLAN_1
 62
     2
  6
CONTINUOUS
 10
-0.011543
 20
-0.681134
  0
VERTEX
  8
PLAN_1
 62
     2
  6
CONTINUOUS
 10
-0.011543
 20
-0.683705
  0
VERTEX
  8
PLAN_1
 62
     2
  6
CONTINUOUS
 10
-0.011543
 20
-0.715059
  0
VERTEX
  8
PLAN_1
 62
     2
  6
CONTINUOUS
 10
-0.011028
 20
-0.716087
  0
VERTEX
  8
PLAN_1
 62
     2
  6
CONTINUOUS
 10
-0.011028
 20
-0.716598
  0
VERTEX
  8
PLAN_1
 62
     2
  6
CONTINUOUS
 10
-0.011028
 20
-0.717114
  0
VERTEX
  8
PLAN_1
 62
     2
  6
CONTINUOUS
 10
-0.010516
 20
-0.717630
  0
VERTEX
  8
PLAN_1
 62
     2
  6
CONTINUOUS
 10
-0.010000
 20
-0.718142
  0
VERTEX
  8
PLAN_1
 62
     2
  6
CONTINUOUS
 10
-0.009484
 20
-0.718142
  0
VERTEX
  8
PLAN_1
 62
     2
  6
CONTINUOUS
 10
-0.008972
 20
-0.718142
  0
VERTEX
  8
PLAN_1
 62
     2
  6
CONTINUOUS
 10
-0.008457
 20
-0.718142
  0
VERTEX
  8
PLAN_1
 62
     2
  6
CONTINUOUS
 10
-0.007945
 20
-0.718142
  0
VERTEX
  8
PLAN_1
 62
     2
  6
CONTINUOUS
 10
-0.007429
 20
-0.718142
  0
VERTEX
  8
PLAN_1
 62
     2
  6
CONTINUOUS
 10
-0.006917
 20
-0.718142
  0
VERTEX
  8
PLAN_1
 62
     2
  6
CONTINUOUS
 10
-0.006402
 20
-0.718142
  0
VERTEX
  8
PLAN_1
 62
     2
  6
CONTINUOUS
 10
-0.005890
 20
-0.718142
  0
VERTEX
  8
PLAN_1
 62
     2
  6
CONTINUOUS
 10
-0.005374
 20
-0.718142
  0
VERTEX
  8
PLAN_1
 62
     2
  6
CONTINUOUS
 10
-0.005374
 20
-0.724311
  0
VERTEX
  8
PLAN_1
 62
     2
  6
CONTINUOUS
 10
-0.005890
 20
-0.724823
  0
VERTEX
  8
PLAN_1
 62
     2
  6
CONTINUOUS
 10
-0.006402
 20
-0.724823
  0
VERTEX
  8
PLAN_1
 62
     2
  6
CONTINUOUS
 10
-0.006917
 20
-0.724823
  0
VERTEX
  8
PLAN_1
 62
     2
  6
CONTINUOUS
 10
-0.007429
 20
-0.725339
  0
VERTEX
  8
PLAN_1
 62
     2
  6
CONTINUOUS
 10
-0.008457
 20
-0.725339
  0
VERTEX
  8
PLAN_1
 62
     2
  6
CONTINUOUS
 10
-0.008972
 20
-0.725339
  0
VERTEX
  8
PLAN_1
 62
     2
  6
CONTINUOUS
 10
-0.009484
 20
-0.725339
  0
VERTEX
  8
PLAN_1
 62
     2
  6
CONTINUOUS
 10
-0.010516
 20
-0.725339
  0
VERTEX
  8
PLAN_1
 62
     2
  6
CONTINUOUS
 10
-0.013083
 20
-0.725339
  0
VERTEX
  8
PLAN_1
 62
     2
  6
CONTINUOUS
 10
-0.015142
 20
-0.724823
  0
VERTEX
  8
PLAN_1
 62
     2
  6
CONTINUOUS
 10
-0.016681
 20
-0.724311
  0
VERTEX
  8
PLAN_1
 62
     2
  6
CONTINUOUS
 10
-0.018224
 20
-0.722768
  0
VERTEX
  8
PLAN_1
 62
     2
  6
CONTINUOUS
 10
-0.018736
 20
-0.721740
  0
VERTEX
  8
PLAN_1
 62
     2
  6
CONTINUOUS
 10
-0.019252
 20
-0.720197
  0
VERTEX
  8
PLAN_1
 62
     2
  6
CONTINUOUS
 10
-0.019768
 20
-0.718657
  0
VERTEX
  8
PLAN_1
 62
     2
  6
CONTINUOUS
 10
-0.019768
 20
-0.717114
  0
VERTEX
  8
PLAN_1
 62
     2
  6
CONTINUOUS
 10
-0.021307
 20
-0.718657
  0
VERTEX
  8
PLAN_1
 62
     2
  6
CONTINUOUS
 10
-0.022850
 20
-0.720197
  0
VERTEX
  8
PLAN_1
 62
     2
  6
CONTINUOUS
 10
-0.024906
 20
-0.721740
  0
VERTEX
  8
PLAN_1
 62
     2
  6
CONTINUOUS
 10
-0.026961
 20
-0.723283
  0
VERTEX
  8
PLAN_1
 62
     2
  6
CONTINUOUS
 10
-0.029531
 20
-0.724311
  0
VERTEX
  8
PLAN_1
 62
     2
  6
CONTINUOUS
 10
-0.032614
 20
-0.725339
  0
VERTEX
  8
PLAN_1
 62
     2
  6
CONTINUOUS
 10
-0.035701
 20
-0.725850
  0
VERTEX
  8
PLAN_1
 62
     2
  6
CONTINUOUS
 10
-0.039811
 20
-0.726366
  0
VERTEX
  8
PLAN_1
 62
     2
  6
CONTINUOUS
 10
-0.043409
 20
-0.725850
  0
VERTEX
  8
PLAN_1
 62
     2
  6
CONTINUOUS
 10
-0.046492
 20
-0.724823
  0
VERTEX
  8
PLAN_1
 62
     2
  6
CONTINUOUS
 10
-0.049579
 20
-0.723795
  0
VERTEX
  8
PLAN_1
 62
     2
  6
CONTINUOUS
 10
-0.052150
 20
-0.721740
  0
VERTEX
  8
PLAN_1
 62
     2
  6
CONTINUOUS
 10
-0.053689
 20
-0.719685
  0
VERTEX
  8
PLAN_1
 62
     2
  6
CONTINUOUS
 10
-0.055232
 20
-0.716598
  0
VERTEX
  8
PLAN_1
 62
     2
  6
CONTINUOUS
 10
-0.056260
 20
-0.714031
  0
VERTEX
  8
PLAN_1
 62
     2
  6
CONTINUOUS
 10
-0.056776
 20
-0.710433
  0
VERTEX
  8
PLAN_1
 62
     2
  6
CONTINUOUS
 10
-0.056776
 20
-0.708378
  0
VERTEX
  8
PLAN_1
 62
     2
  6
CONTINUOUS
 10
-0.056260
 20
-0.706319
  0
VERTEX
  8
PLAN_1
 62
     2
  6
CONTINUOUS
 10
-0.055232
 20
-0.703236
  0
VERTEX
  8
PLAN_1
 62
     2
  6
CONTINUOUS
 10
-0.054205
 20
-0.700665
  0
VERTEX
  8
PLAN_1
 62
     2
  6
CONTINUOUS
 10
-0.052150
 20
-0.698610
  0
VERTEX
  8
PLAN_1
 62
     2
  6
CONTINUOUS
 10
-0.049063
 20
-0.696039
  0
VERTEX
  8
PLAN_1
 62
     2
  6
CONTINUOUS
 10
-0.045465
 20
-0.694496
  0
VERTEX
  8
PLAN_1
 62
     2
  6
CONTINUOUS
 10
-0.040327
 20
-0.693469
  0
VERTEX
  8
PLAN_1
 62
     2
  6
CONTINUOUS
 10
-0.024906
 20
-0.691413
  0
VERTEX
  8
PLAN_1
 62
     2
  6
CONTINUOUS
 10
-0.024394
 20
-0.691413
  0
VERTEX
  8
PLAN_1
 62
     2
  6
CONTINUOUS
 10
-0.023362
 20
-0.690902
  0
VERTEX
  8
PLAN_1
 62
     2
  6
CONTINUOUS
 10
-0.022335
 20
-0.690902
  0
VERTEX
  8
PLAN_1
 62
     2
  6
CONTINUOUS
 10
-0.021823
 20
-0.690386
  0
VERTEX
  8
PLAN_1
 62
     2
  6
CONTINUOUS
 10
-0.021307
 20
-0.689358
  0
VERTEX
  8
PLAN_1
 62
     2
  6
CONTINUOUS
 10
-0.020795
 20
-0.688331
  0
VERTEX
  8
PLAN_1
 62
     2
  6
CONTINUOUS
 10
-0.020280
 20
-0.686787
  0
VERTEX
  8
PLAN_1
 62
     2
  6
CONTINUOUS
 10
-0.020280
 20
-0.685244
  0
VERTEX
  8
PLAN_1
 62
     2
  6
CONTINUOUS
 10
-0.020280
 20
-0.683189
  0
VERTEX
  8
PLAN_1
 62
     2
  6
CONTINUOUS
 10
-0.021307
 20
-0.681134
  0
VERTEX
  8
PLAN_1
 62
     2
  6
CONTINUOUS
 10
-0.021823
 20
-0.679591
  0
VERTEX
  8
PLAN_1
 62
     2
  6
CONTINUOUS
 10
-0.023362
 20
-0.678563
  0
VERTEX
  8
PLAN_1
 62
     2
  6
CONTINUOUS
 10
-0.025421
 20
-0.677535
  0
VERTEX
  8
PLAN_1
 62
     2
  6
CONTINUOUS
 10
-0.027476
 20
-0.676508
  0
VERTEX
  8
PLAN_1
 62
     2
  6
CONTINUOUS
 10
-0.030047
 20
-0.676508
  0
VERTEX
  8
PLAN_1
 62
     2
  6
CONTINUOUS
 10
-0.033130
 20
-0.675992
  0
VERTEX
  8
PLAN_1
 62
     2
  6
CONTINUOUS
 10
-0.036728
 20
-0.676508
  0
VERTEX
  8
PLAN_1
 62
     2
  6
CONTINUOUS
 10
-0.039299
 20
-0.677024
  0
VERTEX
  8
PLAN_1
 62
     2
  6
CONTINUOUS
 10
-0.041354
 20
-0.678563
  0
VERTEX
  8
PLAN_1
 62
     2
  6
CONTINUOUS
 10
-0.042898
 20
-0.680106
  0
VERTEX
  8
PLAN_1
 62
     2
  6
CONTINUOUS
 10
-0.043925
 20
-0.681650
  0
VERTEX
  8
PLAN_1
 62
     2
  6
CONTINUOUS
 10
-0.044953
 20
-0.683189
  0
VERTEX
  8
PLAN_1
 62
     2
  6
CONTINUOUS
 10
-0.045465
 20
-0.685244
  0
VERTEX
  8
PLAN_1
 62
     2
  6
CONTINUOUS
 10
-0.045465
 20
-0.686787
  0
VERTEX
  8
PLAN_1
 62
     2
  6
CONTINUOUS
 10
-0.054205
 20
-0.686787
  0
SEQEND
  8
0
  0
POLYLINE
  8
PLAN_1
 62
     2
  6
CONTINUOUS
 66
     1
 40
0.003000
 41
0.003000
  0
VERTEX
  8
PLAN_1
 62
     2
  6
CONTINUOUS
 10
-0.020280
 20
-0.696555
  0
VERTEX
  8
PLAN_1
 62
     2
  6
CONTINUOUS
 10
-0.021307
 20
-0.697067
  0
VERTEX
  8
PLAN_1
 62
     2
  6
CONTINUOUS
 10
-0.021823
 20
-0.697583
  0
VERTEX
  8
PLAN_1
 62
     2
  6
CONTINUOUS
 10
-0.022850
 20
-0.698094
  0
VERTEX
  8
PLAN_1
 62
     2
  6
CONTINUOUS
 10
-0.024394
 20
-0.698610
  0
VERTEX
  8
PLAN_1
 62
     2
  6
CONTINUOUS
 10
-0.026449
 20
-0.698610
  0
VERTEX
  8
PLAN_1
 62
     2
  6
CONTINUOUS
 10
-0.028504
 20
-0.699122
  0
VERTEX
  8
PLAN_1
 62
     2
  6
CONTINUOUS
 10
-0.031587
 20
-0.699638
  0
VERTEX
  8
PLAN_1
 62
     2
  6
CONTINUOUS
 10
-0.035701
 20
-0.700154
  0
VERTEX
  8
PLAN_1
 62
     2
  6
CONTINUOUS
 10
-0.037240
 20
-0.700665
  0
VERTEX
  8
PLAN_1
 62
     2
  6
CONTINUOUS
 10
-0.039299
 20
-0.700665
  0
VERTEX
  8
PLAN_1
 62
     2
  6
CONTINUOUS
 10
-0.041354
 20
-0.701693
  0
VERTEX
  8
PLAN_1
 62
     2
  6
CONTINUOUS
 10
-0.042898
 20
-0.702209
  0
VERTEX
  8
PLAN_1
 62
     2
  6
CONTINUOUS
 10
-0.044953
 20
-0.703236
  0
VERTEX
  8
PLAN_1
 62
     2
  6
CONTINUOUS
 10
-0.045980
 20
-0.704780
  0
VERTEX
  8
PLAN_1
 62
     2
  6
CONTINUOUS
 10
-0.047008
 20
-0.706835
  0
VERTEX
  8
PLAN_1
 62
     2
  6
CONTINUOUS
 10
-0.047008
 20
-0.708890
  0
VERTEX
  8
PLAN_1
 62
     2
  6
CONTINUOUS
 10
-0.047008
 20
-0.710945
  0
VERTEX
  8
PLAN_1
 62
     2
  6
CONTINUOUS
 10
-0.046492
 20
-0.713004
  0
VERTEX
  8
PLAN_1
 62
     2
  6
CONTINUOUS
 10
-0.045980
 20
-0.714543
  0
VERTEX
  8
PLAN_1
 62
     2
  6
CONTINUOUS
 10
-0.044953
 20
-0.716087
  0
VERTEX
  8
PLAN_1
 62
     2
  6
CONTINUOUS
 10
-0.043409
 20
-0.717114
  0
VERTEX
  8
PLAN_1
 62
     2
  6
CONTINUOUS
 10
-0.041866
 20
-0.717630
  0
VERTEX
  8
PLAN_1
 62
     2
  6
CONTINUOUS
 10
-0.039811
 20
-0.718142
  0
VERTEX
  8
PLAN_1
 62
     2
  6
CONTINUOUS
 10
-0.037240
 20
-0.718657
  0
VERTEX
  8
PLAN_1
 62
     2
  6
CONTINUOUS
 10
-0.034157
 20
-0.718142
  0
VERTEX
  8
PLAN_1
 62
     2
  6
CONTINUOUS
 10
-0.031075
 20
-0.717630
  0
VERTEX
  8
PLAN_1
 62
     2
  6
CONTINUOUS
 10
-0.028504
 20
-0.716598
  0
VERTEX
  8
PLAN_1
 62
     2
  6
CONTINUOUS
 10
-0.025933
 20
-0.715059
  0
VERTEX
  8
PLAN_1
 62
     2
  6
CONTINUOUS
 10
-0.023362
 20
-0.713004
  0
VERTEX
  8
PLAN_1
 62
     2
  6
CONTINUOUS
 10
-0.021823
 20
-0.710945
  0
VERTEX
  8
PLAN_1
 62
     2
  6
CONTINUOUS
 10
-0.020795
 20
-0.708378
  0
VERTEX
  8
PLAN_1
 62
     2
  6
CONTINUOUS
 10
-0.020280
 20
-0.705807
  0
VERTEX
  8
PLAN_1
 62
     2
  6
CONTINUOUS
 10
-0.020280
 20
-0.696555
  0
SEQEND
  8
0
  0
POLYLINE
  8
PLAN_1
 62
     2
  6
CONTINUOUS
 66
     1
 40
0.003000
 41
0.003000
  0
VERTEX
  8
PLAN_1
 62
     2
  6
CONTINUOUS
 10
0.039858
 20
-0.724311
  0
VERTEX
  8
PLAN_1
 62
     2
  6
CONTINUOUS
 10
0.039858
 20
-0.716598
  0
VERTEX
  8
PLAN_1
 62
     2
  6
CONTINUOUS
 10
0.039343
 20
-0.716598
  0
VERTEX
  8
PLAN_1
 62
     2
  6
CONTINUOUS
 10
0.037803
 20
-0.718657
  0
VERTEX
  8
PLAN_1
 62
     2
  6
CONTINUOUS
 10
0.036260
 20
-0.720713
  0
VERTEX
  8
PLAN_1
 62
     2
  6
CONTINUOUS
 10
0.034717
 20
-0.722256
  0
VERTEX
  8
PLAN_1
 62
     2
  6
CONTINUOUS
 10
0.032661
 20
-0.723795
  0
VERTEX
  8
PLAN_1
 62
     2
  6
CONTINUOUS
 10
0.030606
 20
-0.724823
  0
VERTEX
  8
PLAN_1
 62
     2
  6
CONTINUOUS
 10
0.028035
 20
-0.725339
  0
VERTEX
  8
PLAN_1
 62
     2
  6
CONTINUOUS
 10
0.025465
 20
-0.725850
  0
VERTEX
  8
PLAN_1
 62
     2
  6
CONTINUOUS
 10
0.022382
 20
-0.726366
  0
VERTEX
  8
PLAN_1
 62
     2
  6
CONTINUOUS
 10
0.019299
 20
-0.725850
  0
VERTEX
  8
PLAN_1
 62
     2
  6
CONTINUOUS
 10
0.016213
 20
-0.725339
  0
VERTEX
  8
PLAN_1
 62
     2
  6
CONTINUOUS
 10
0.013130
 20
-0.724311
  0
VERTEX
  8
PLAN_1
 62
     2
  6
CONTINUOUS
 10
0.010559
 20
-0.722768
  0
VERTEX
  8
PLAN_1
 62
     2
  6
CONTINUOUS
 10
0.007988
 20
-0.720197
  0
VERTEX
  8
PLAN_1
 62
     2
  6
CONTINUOUS
 10
0.005933
 20
-0.717630
  0
VERTEX
  8
PLAN_1
 62
     2
  6
CONTINUOUS
 10
0.004906
 20
-0.713516
  0
VERTEX
  8
PLAN_1
 62
     2
  6
CONTINUOUS
 10
0.004394
 20
-0.709406
  0
VERTEX
  8
PLAN_1
 62
     2
  6
CONTINUOUS
 10
0.004394
 20
-0.670339
  0
VERTEX
  8
PLAN_1
 62
     2
  6
CONTINUOUS
 10
0.013646
 20
-0.670339
  0
VERTEX
  8
PLAN_1
 62
     2
  6
CONTINUOUS
 10
0.013646
 20
-0.706319
  0
VERTEX
  8
PLAN_1
 62
     2
  6
CONTINUOUS
 10
0.013646
 20
-0.709406
  0
VERTEX
  8
PLAN_1
 62
     2
  6
CONTINUOUS
 10
0.014673
 20
-0.711972
  0
VERTEX
  8
PLAN_1
 62
     2
  6
CONTINUOUS
 10
0.015701
 20
-0.714031
  0
VERTEX
  8
PLAN_1
 62
     2
  6
CONTINUOUS
 10
0.016728
 20
-0.715571
  0
VERTEX
  8
PLAN_1
 62
     2
  6
CONTINUOUS
 10
0.018272
 20
-0.716598
  0
VERTEX
  8
PLAN_1
 62
     2
  6
CONTINUOUS
 10
0.019811
 20
-0.717630
  0
VERTEX
  8
PLAN_1
 62
     2
  6
CONTINUOUS
 10
0.021866
 20
-0.718142
  0
VERTEX
  8
PLAN_1
 62
     2
  6
CONTINUOUS
 10
0.024437
 20
-0.718142
  0
VERTEX
  8
PLAN_1
 62
     2
  6
CONTINUOUS
 10
0.028035
 20
-0.717630
  0
VERTEX
  8
PLAN_1
 62
     2
  6
CONTINUOUS
 10
0.031634
 20
-0.716598
  0
VERTEX
  8
PLAN_1
 62
     2
  6
CONTINUOUS
 10
0.034205
 20
-0.714543
  0
VERTEX
  8
PLAN_1
 62
     2
  6
CONTINUOUS
 10
0.036260
 20
-0.711972
  0
VERTEX
  8
PLAN_1
 62
     2
  6
CONTINUOUS
 10
0.037287
 20
-0.709406
  0
VERTEX
  8
PLAN_1
 62
     2
  6
CONTINUOUS
 10
0.038315
 20
-0.706319
  0
VERTEX
  8
PLAN_1
 62
     2
  6
CONTINUOUS
 10
0.038831
 20
-0.703236
  0
VERTEX
  8
PLAN_1
 62
     2
  6
CONTINUOUS
 10
0.039343
 20
-0.700154
  0
VERTEX
  8
PLAN_1
 62
     2
  6
CONTINUOUS
 10
0.039343
 20
-0.670339
  0
VERTEX
  8
PLAN_1
 62
     2
  6
CONTINUOUS
 10
0.048083
 20
-0.670339
  0
VERTEX
  8
PLAN_1
 62
     2
  6
CONTINUOUS
 10
0.048083
 20
-0.724311
  0
VERTEX
  8
PLAN_1
 62
     2
  6
CONTINUOUS
 10
0.039858
 20
-0.724311
  0
SEQEND
  8
0
  0
POLYLINE
  8
PLAN_1
 62
     2
  6
CONTINUOUS
 66
     1
 40
0.003000
 41
0.003000
  0
VERTEX
  8
PLAN_1
 62
     2
  6
CONTINUOUS
 10
0.107193
 20
-0.724311
  0
VERTEX
  8
PLAN_1
 62
     2
  6
CONTINUOUS
 10
0.098453
 20
-0.724311
  0
VERTEX
  8
PLAN_1
 62
     2
  6
CONTINUOUS
 10
0.098453
 20
-0.717114
  0
VERTEX
  8
PLAN_1
 62
     2
  6
CONTINUOUS
 10
0.096913
 20
-0.719685
  0
VERTEX
  8
PLAN_1
 62
     2
  6
CONTINUOUS
 10
0.094854
 20
-0.721740
  0
VERTEX
  8
PLAN_1
 62
     2
  6
CONTINUOUS
 10
0.093315
 20
-0.723283
  0
VERTEX
  8
PLAN_1
 62
     2
  6
CONTINUOUS
 10
0.091260
 20
-0.724311
  0
VERTEX
  8
PLAN_1
 62
     2
  6
CONTINUOUS
 10
0.089201
 20
-0.725339
  0
VERTEX
  8
PLAN_1
 62
     2
  6
CONTINUOUS
 10
0.087146
 20
-0.725850
  0
VERTEX
  8
PLAN_1
 62
     2
  6
CONTINUOUS
 10
0.085091
 20
-0.725850
  0
VERTEX
  8
PLAN_1
 62
     2
  6
CONTINUOUS
 10
0.083035
 20
-0.726366
  0
VERTEX
  8
PLAN_1
 62
     2
  6
CONTINUOUS
 10
0.079437
 20
-0.725850
  0
VERTEX
  8
PLAN_1
 62
     2
  6
CONTINUOUS
 10
0.076350
 20
-0.725339
  0
VERTEX
  8
PLAN_1
 62
     2
  6
CONTINUOUS
 10
0.073783
 20
-0.724311
  0
VERTEX
  8
PLAN_1
 62
     2
  6
CONTINUOUS
 10
0.071213
 20
-0.723283
  0
VERTEX
  8
PLAN_1
 62
     2
  6
CONTINUOUS
 10
0.069157
 20
-0.721740
  0
VERTEX
  8
PLAN_1
 62
     2
  6
CONTINUOUS
 10
0.067098
 20
-0.719685
  0
VERTEX
  8
PLAN_1
 62
     2
  6
CONTINUOUS
 10
0.065559
 20
-0.718142
  0
VERTEX
  8
PLAN_1
 62
     2
  6
CONTINUOUS
 10
0.064016
 20
-0.715571
  0
VERTEX
  8
PLAN_1
 62
     2
  6
CONTINUOUS
 10
0.061445
 20
-0.710945
  0
VERTEX
  8
PLAN_1
 62
     2
  6
CONTINUOUS
 10
0.059906
 20
-0.705807
  0
VERTEX
  8
PLAN_1
 62
     2
  6
CONTINUOUS
 10
0.059390
 20
-0.700665
  0
VERTEX
  8
PLAN_1
 62
     2
  6
CONTINUOUS
 10
0.058878
 20
-0.695528
  0
VERTEX
  8
PLAN_1
 62
     2
  6
CONTINUOUS
 10
0.059390
 20
-0.690386
  0
VERTEX
  8
PLAN_1
 62
     2
  6
CONTINUOUS
 10
0.060417
 20
-0.685244
  0
VERTEX
  8
PLAN_1
 62
     2
  6
CONTINUOUS
 10
0.062472
 20
-0.680618
  0
VERTEX
  8
PLAN_1
 62
     2
  6
CONTINUOUS
 10
0.065043
 20
-0.676508
  0
VERTEX
  8
PLAN_1
 62
     2
  6
CONTINUOUS
 10
0.066587
 20
-0.674453
  0
VERTEX
  8
PLAN_1
 62
     2
  6
CONTINUOUS
 10
0.068130
 20
-0.672909
  0
VERTEX
  8
PLAN_1
 62
     2
  6
CONTINUOUS
 10
0.070185
 20
-0.671882
  0
VERTEX
  8
PLAN_1
 62
     2
  6
CONTINUOUS
 10
0.072240
 20
-0.670854
  0
VERTEX
  8
PLAN_1
 62
     2
  6
CONTINUOUS
 10
0.074295
 20
-0.669827
  0
VERTEX
  8
PLAN_1
 62
     2
  6
CONTINUOUS
 10
0.076350
 20
-0.669311
  0
VERTEX
  8
PLAN_1
 62
     2
  6
CONTINUOUS
 10
0.078921
 20
-0.668799
  0
VERTEX
  8
PLAN_1
 62
     2
  6
CONTINUOUS
 10
0.081492
 20
-0.668799
  0
VERTEX
  8
PLAN_1
 62
     2
  6
CONTINUOUS
 10
0.085091
 20
-0.668799
  0
VERTEX
  8
PLAN_1
 62
     2
  6
CONTINUOUS
 10
0.088173
 20
-0.669827
  0
VERTEX
  8
PLAN_1
 62
     2
  6
CONTINUOUS
 10
0.090744
 20
-0.670854
  0
VERTEX
  8
PLAN_1
 62
     2
  6
CONTINUOUS
 10
0.092799
 20
-0.671882
  0
VERTEX
  8
PLAN_1
 62
     2
  6
CONTINUOUS
 10
0.094343
 20
-0.673425
  0
VERTEX
  8
PLAN_1
 62
     2
  6
CONTINUOUS
 10
0.095886
 20
-0.674965
  0
VERTEX
  8
PLAN_1
 62
     2
  6
CONTINUOUS
 10
0.096913
 20
-0.676508
  0
VERTEX
  8
PLAN_1
 62
     2
  6
CONTINUOUS
 10
0.097941
 20
-0.678051
  0
VERTEX
  8
PLAN_1
 62
     2
  6
CONTINUOUS
 10
0.097941
 20
-0.677024
  0
VERTEX
  8
PLAN_1
 62
     2
  6
CONTINUOUS
 10
0.097941
 20
-0.649780
  0
VERTEX
  8
PLAN_1
 62
     2
  6
CONTINUOUS
 10
0.107193
 20
-0.649780
  0
VERTEX
  8
PLAN_1
 62
     2
  6
CONTINUOUS
 10
0.107193
 20
-0.724311
  0
SEQEND
  8
0
  0
POLYLINE
  8
PLAN_1
 62
     2
  6
CONTINUOUS
 66
     1
 40
0.003000
 41
0.003000
  0
VERTEX
  8
PLAN_1
 62
     2
  6
CONTINUOUS
 10
0.083035
 20
-0.718142
  0
VERTEX
  8
PLAN_1
 62
     2
  6
CONTINUOUS
 10
0.085602
 20
-0.718142
  0
VERTEX
  8
PLAN_1
 62
     2
  6
CONTINUOUS
 10
0.087661
 20
-0.717630
  0
VERTEX
  8
PLAN_1
 62
     2
  6
CONTINUOUS
 10
0.090228
 20
-0.716087
  0
VERTEX
  8
PLAN_1
 62
     2
  6
CONTINUOUS
 10
0.092799
 20
-0.714543
  0
VERTEX
  8
PLAN_1
 62
     2
  6
CONTINUOUS
 10
0.094854
 20
-0.711972
  0
VERTEX
  8
PLAN_1
 62
     2
  6
CONTINUOUS
 10
0.096398
 20
-0.708890
  0
VERTEX
  8
PLAN_1
 62
     2
  6
CONTINUOUS
 10
0.097425
 20
-0.704780
  0
VERTEX
  8
PLAN_1
 62
     2
  6
CONTINUOUS
 10
0.097941
 20
-0.699638
  0
VERTEX
  8
PLAN_1
 62
     2
  6
CONTINUOUS
 10
0.097941
 20
-0.696555
  0
VERTEX
  8
PLAN_1
 62
     2
  6
CONTINUOUS
 10
0.097425
 20
-0.692441
  0
VERTEX
  8
PLAN_1
 62
     2
  6
CONTINUOUS
 10
0.096913
 20
-0.688843
  0
VERTEX
  8
PLAN_1
 62
     2
  6
CONTINUOUS
 10
0.095886
 20
-0.685244
  0
VERTEX
  8
PLAN_1
 62
     2
  6
CONTINUOUS
 10
0.093827
 20
-0.681650
  0
VERTEX
  8
PLAN_1
 62
     2
  6
CONTINUOUS
 10
0.091260
 20
-0.679079
  0
VERTEX
  8
PLAN_1
 62
     2
  6
CONTINUOUS
 10
0.089717
 20
-0.678051
  0
VERTEX
  8
PLAN_1
 62
     2
  6
CONTINUOUS
 10
0.087661
 20
-0.677535
  0
VERTEX
  8
PLAN_1
 62
     2
  6
CONTINUOUS
 10
0.085602
 20
-0.677024
  0
VERTEX
  8
PLAN_1
 62
     2
  6
CONTINUOUS
 10
0.083547
 20
-0.677024
  0
VERTEX
  8
PLAN_1
 62
     2
  6
CONTINUOUS
 10
0.080976
 20
-0.677024
  0
VERTEX
  8
PLAN_1
 62
     2
  6
CONTINUOUS
 10
0.078409
 20
-0.677535
  0
VERTEX
  8
PLAN_1
 62
     2
  6
CONTINUOUS
 10
0.076866
 20
-0.678051
  0
VERTEX
  8
PLAN_1
 62
     2
  6
CONTINUOUS
 10
0.074811
 20
-0.679079
  0
VERTEX
  8
PLAN_1
 62
     2
  6
CONTINUOUS
 10
0.072240
 20
-0.681650
  0
VERTEX
  8
PLAN_1
 62
     2
  6
CONTINUOUS
 10
0.070697
 20
-0.684217
  0
VERTEX
  8
PLAN_1
 62
     2
  6
CONTINUOUS
 10
0.069669
 20
-0.687815
  0
VERTEX
  8
PLAN_1
 62
     2
  6
CONTINUOUS
 10
0.068642
 20
-0.690902
  0
VERTEX
  8
PLAN_1
 62
     2
  6
CONTINUOUS
 10
0.068642
 20
-0.694496
  0
VERTEX
  8
PLAN_1
 62
     2
  6
CONTINUOUS
 10
0.068642
 20
-0.697067
  0
VERTEX
  8
PLAN_1
 62
     2
  6
CONTINUOUS
 10
0.068642
 20
-0.701693
  0
VERTEX
  8
PLAN_1
 62
     2
  6
CONTINUOUS
 10
0.069157
 20
-0.705291
  0
VERTEX
  8
PLAN_1
 62
     2
  6
CONTINUOUS
 10
0.070697
 20
-0.708890
  0
VERTEX
  8
PLAN_1
 62
     2
  6
CONTINUOUS
 10
0.072240
 20
-0.711972
  0
VERTEX
  8
PLAN_1
 62
     2
  6
CONTINUOUS
 10
0.074295
 20
-0.714543
  0
VERTEX
  8
PLAN_1
 62
     2
  6
CONTINUOUS
 10
0.076866
 20
-0.716598
  0
VERTEX
  8
PLAN_1
 62
     2
  6
CONTINUOUS
 10
0.079437
 20
-0.717630
  0
VERTEX
  8
PLAN_1
 62
     2
  6
CONTINUOUS
 10
0.083035
 20
-0.718142
  0
SEQEND
  8
0
  0
POLYLINE
  8
PLAN_1
 62
     2
  6
CONTINUOUS
 66
     1
 40
0.003000
 41
0.003000
  0
VERTEX
  8
PLAN_1
 62
     2
  6
CONTINUOUS
 10
0.166303
 20
-0.707346
  0
VERTEX
  8
PLAN_1
 62
     2
  6
CONTINUOUS
 10
0.165787
 20
-0.708890
  0
VERTEX
  8
PLAN_1
 62
     2
  6
CONTINUOUS
 10
0.165276
 20
-0.710433
  0
VERTEX
  8
PLAN_1
 62
     2
  6
CONTINUOUS
 10
0.164760
 20
-0.711972
  0
VERTEX
  8
PLAN_1
 62
     2
  6
CONTINUOUS
 10
0.163732
 20
-0.714031
  0
VERTEX
  8
PLAN_1
 62
     2
  6
CONTINUOUS
 10
0.162705
 20
-0.716087
  0
VERTEX
  8
PLAN_1
 62
     2
  6
CONTINUOUS
 10
0.160650
 20
-0.718657
  0
VERTEX
  8
PLAN_1
 62
     2
  6
CONTINUOUS
 10
0.159106
 20
-0.720713
  0
VERTEX
  8
PLAN_1
 62
     2
  6
CONTINUOUS
 10
0.156535
 20
-0.722256
  0
VERTEX
  8
PLAN_1
 62
     2
  6
CONTINUOUS
 10
0.155508
 20
-0.722768
  0
VERTEX
  8
PLAN_1
 62
     2
  6
CONTINUOUS
 10
0.154480
 20
-0.723795
  0
VERTEX
  8
PLAN_1
 62
     2
  6
CONTINUOUS
 10
0.152937
 20
-0.724311
  0
VERTEX
  8
PLAN_1
 62
     2
  6
CONTINUOUS
 10
0.151398
 20
-0.724823
  0
VERTEX
  8
PLAN_1
 62
     2
  6
CONTINUOUS
 10
0.149854
 20
-0.725339
  0
VERTEX
  8
PLAN_1
 62
     2
  6
CONTINUOUS
 10
0.147283
 20
-0.725850
  0
VERTEX
  8
PLAN_1
 62
     2
  6
CONTINUOUS
 10
0.144713
 20
-0.725850
  0
VERTEX
  8
PLAN_1
 62
     2
  6
CONTINUOUS
 10
0.141630
 20
-0.726366
  0
VERTEX
  8
PLAN_1
 62
     2
  6
CONTINUOUS
 10
0.139059
 20
-0.725850
  0
VERTEX
  8
PLAN_1
 62
     2
  6
CONTINUOUS
 10
0.136488
 20
-0.725339
  0
VERTEX
  8
PLAN_1
 62
     2
  6
CONTINUOUS
 10
0.133921
 20
-0.724823
  0
VERTEX
  8
PLAN_1
 62
     2
  6
CONTINUOUS
 10
0.131350
 20
-0.724311
  0
VERTEX
  8
PLAN_1
 62
     2
  6
CONTINUOUS
 10
0.129295
 20
-0.722768
  0
VERTEX
  8
PLAN_1
 62
     2
  6
CONTINUOUS
 10
0.127236
 20
-0.721740
  0
VERTEX
  8
PLAN_1
 62
     2
  6
CONTINUOUS
 10
0.125697
 20
-0.720197
  0
VERTEX
  8
PLAN_1
 62
     2
  6
CONTINUOUS
 10
0.123642
 20
-0.718142
  0
VERTEX
  8
PLAN_1
 62
     2
  6
CONTINUOUS
 10
0.121071
 20
-0.714543
  0
VERTEX
  8
PLAN_1
 62
     2
  6
CONTINUOUS
 10
0.119016
 20
-0.709917
  0
VERTEX
  8
PLAN_1
 62
     2
  6
CONTINUOUS
 10
0.117984
 20
-0.704780
  0
VERTEX
  8
PLAN_1
 62
     2
  6
CONTINUOUS
 10
0.117472
 20
-0.698610
  0
VERTEX
  8
PLAN_1
 62
     2
  6
CONTINUOUS
 10
0.117984
 20
-0.692957
  0
VERTEX
  8
PLAN_1
 62
     2
  6
CONTINUOUS
 10
0.119016
 20
-0.686787
  0
VERTEX
  8
PLAN_1
 62
     2
  6
CONTINUOUS
 10
0.120043
 20
-0.684217
  0
VERTEX
  8
PLAN_1
 62
     2
  6
CONTINUOUS
 10
0.121071
 20
-0.681650
  0
VERTEX
  8
PLAN_1
 62
     2
  6
CONTINUOUS
 10
0.122098
 20
-0.679591
  0
VERTEX
  8
PLAN_1
 62
     2
  6
CONTINUOUS
 10
0.123642
 20
-0.677535
  0
VERTEX
  8
PLAN_1
 62
     2
  6
CONTINUOUS
 10
0.125181
 20
-0.675480
  0
VERTEX
  8
PLAN_1
 62
     2
  6
CONTINUOUS
 10
0.127236
 20
-0.673937
  0
VERTEX
  8
PLAN_1
 62
     2
  6
CONTINUOUS
 10
0.129295
 20
-0.672398
  0
VERTEX
  8
PLAN_1
 62
     2
  6
CONTINUOUS
 10
0.131862
 20
-0.670854
  0
VERTEX
  8
PLAN_1
 62
     2
  6
CONTINUOUS
 10
0.134433
 20
-0.669827
  0
VERTEX
  8
PLAN_1
 62
     2
  6
CONTINUOUS
 10
0.137004
 20
-0.669311
  0
VERTEX
  8
PLAN_1
 62
     2
  6
CONTINUOUS
 10
0.140087
 20
-0.668799
  0
VERTEX
  8
PLAN_1
 62
     2
  6
CONTINUOUS
 10
0.143685
 20
-0.668799
  0
VERTEX
  8
PLAN_1
 62
     2
  6
CONTINUOUS
 10
0.146256
 20
-0.668799
  0
VERTEX
  8
PLAN_1
 62
     2
  6
CONTINUOUS
 10
0.148827
 20
-0.669311
  0
VERTEX
  8
PLAN_1
 62
     2
  6
CONTINUOUS
 10
0.151398
 20
-0.669827
  0
VERTEX
  8
PLAN_1
 62
     2
  6
CONTINUOUS
 10
0.153965
 20
-0.670854
  0
VERTEX
  8
PLAN_1
 62
     2
  6
CONTINUOUS
 10
0.156024
 20
-0.671882
  0
VERTEX
  8
PLAN_1
 62
     2
  6
CONTINUOUS
 10
0.158079
 20
-0.673425
  0
VERTEX
  8
PLAN_1
 62
     2
  6
CONTINUOUS
 10
0.159618
 20
-0.675480
  0
VERTEX
  8
PLAN_1
 62
     2
  6
CONTINUOUS
 10
0.161161
 20
-0.677024
  0
VERTEX
  8
PLAN_1
 62
     2
  6
CONTINUOUS
 10
0.163732
 20
-0.681650
  0
VERTEX
  8
PLAN_1
 62
     2
  6
CONTINUOUS
 10
0.165276
 20
-0.687303
  0
VERTEX
  8
PLAN_1
 62
     2
  6
CONTINUOUS
 10
0.166815
 20
-0.693469
  0
VERTEX
  8
PLAN_1
 62
     2
  6
CONTINUOUS
 10
0.166815
 20
-0.700154
  0
VERTEX
  8
PLAN_1
 62
     2
  6
CONTINUOUS
 10
0.127236
 20
-0.700154
  0
VERTEX
  8
PLAN_1
 62
     2
  6
CONTINUOUS
 10
0.127236
 20
-0.704264
  0
VERTEX
  8
PLAN_1
 62
     2
  6
CONTINUOUS
 10
0.128268
 20
-0.707862
  0
VERTEX
  8
PLAN_1
 62
     2
  6
CONTINUOUS
 10
0.129295
 20
-0.710945
  0
VERTEX
  8
PLAN_1
 62
     2
  6
CONTINUOUS
 10
0.131350
 20
-0.713516
  0
VERTEX
  8
PLAN_1
 62
     2
  6
CONTINUOUS
 10
0.133406
 20
-0.715571
  0
VERTEX
  8
PLAN_1
 62
     2
  6
CONTINUOUS
 10
0.135976
 20
-0.717114
  0
VERTEX
  8
PLAN_1
 62
     2
  6
CONTINUOUS
 10
0.139059
 20
-0.718142
  0
VERTEX
  8
PLAN_1
 62
     2
  6
CONTINUOUS
 10
0.143173
 20
-0.718142
  0
VERTEX
  8
PLAN_1
 62
     2
  6
CONTINUOUS
 10
0.146256
 20
-0.718142
  0
VERTEX
  8
PLAN_1
 62
     2
  6
CONTINUOUS
 10
0.148827
 20
-0.717114
  0
VERTEX
  8
PLAN_1
 62
     2
  6
CONTINUOUS
 10
0.151398
 20
-0.716087
  0
VERTEX
  8
PLAN_1
 62
     2
  6
CONTINUOUS
 10
0.152937
 20
-0.714543
  0
VERTEX
  8
PLAN_1
 62
     2
  6
CONTINUOUS
 10
0.154992
 20
-0.712488
  0
VERTEX
  8
PLAN_1
 62
     2
  6
CONTINUOUS
 10
0.156024
 20
-0.710945
  0
VERTEX
  8
PLAN_1
 62
     2
  6
CONTINUOUS
 10
0.156535
 20
-0.708890
  0
VERTEX
  8
PLAN_1
 62
     2
  6
CONTINUOUS
 10
0.157051
 20
-0.707346
  0
VERTEX
  8
PLAN_1
 62
     2
  6
CONTINUOUS
 10
0.166303
 20
-0.707346
  0
SEQEND
  8
0
  0
SOLID
  8
PLAN_1
 62
     2
 10
0.144713
 20
-0.662630
 11
0.137520
 21
-0.662630
 12
0.158079
 22
-0.648236
 13
0.146772
 23
-0.648236
  0
POLYLINE
  8
PLAN_1
 62
     2
  6
CONTINUOUS
 66
     1
 40
0.003000
 41
0.003000
  0
VERTEX
  8
PLAN_1
 62
     2
  6
CONTINUOUS
 10
0.144713
 20
-0.662630
  0
VERTEX
  8
PLAN_1
 62
     2
  6
CONTINUOUS
 10
0.137520
 20
-0.662630
  0
VERTEX
  8
PLAN_1
 62
     2
  6
CONTINUOUS
 10
0.146772
 20
-0.648236
  0
VERTEX
  8
PLAN_1
 62
     2
  6
CONTINUOUS
 10
0.158079
 20
-0.648236
  0
VERTEX
  8
PLAN_1
 62
     2
  6
CONTINUOUS
 10
0.144713
 20
-0.662630
  0
SEQEND
  8
0
  0
POLYLINE
  8
PLAN_1
 62
     2
  6
CONTINUOUS
 66
     1
 40
0.003000
 41
0.003000
  0
VERTEX
  8
PLAN_1
 62
     2
  6
CONTINUOUS
 10
0.157563
 20
-0.692957
  0
VERTEX
  8
PLAN_1
 62
     2
  6
CONTINUOUS
 10
0.157051
 20
-0.689870
  0
VERTEX
  8
PLAN_1
 62
     2
  6
CONTINUOUS
 10
0.156535
 20
-0.686787
  0
VERTEX
  8
PLAN_1
 62
     2
  6
CONTINUOUS
 10
0.155508
 20
-0.684217
  0
VERTEX
  8
PLAN_1
 62
     2
  6
CONTINUOUS
 10
0.153965
 20
-0.681650
  0
VERTEX
  8
PLAN_1
 62
     2
  6
CONTINUOUS
 10
0.151909
 20
-0.679591
  0
VERTEX
  8
PLAN_1
 62
     2
  6
CONTINUOUS
 10
0.149339
 20
-0.678051
  0
VERTEX
  8
PLAN_1
 62
     2
  6
CONTINUOUS
 10
0.146256
 20
-0.677024
  0
VERTEX
  8
PLAN_1
 62
     2
  6
CONTINUOUS
 10
0.142146
 20
-0.677024
  0
VERTEX
  8
PLAN_1
 62
     2
  6
CONTINUOUS
 10
0.139059
 20
-0.677024
  0
VERTEX
  8
PLAN_1
 62
     2
  6
CONTINUOUS
 10
0.136488
 20
-0.678051
  0
VERTEX
  8
PLAN_1
 62
     2
  6
CONTINUOUS
 10
0.133921
 20
-0.679591
  0
VERTEX
  8
PLAN_1
 62
     2
  6
CONTINUOUS
 10
0.131350
 20
-0.681650
  0
VERTEX
  8
PLAN_1
 62
     2
  6
CONTINUOUS
 10
0.129807
 20
-0.684217
  0
VERTEX
  8
PLAN_1
 62
     2
  6
CONTINUOUS
 10
0.128268
 20
-0.686787
  0
VERTEX
  8
PLAN_1
 62
     2
  6
CONTINUOUS
 10
0.127752
 20
-0.689870
  0
VERTEX
  8
PLAN_1
 62
     2
  6
CONTINUOUS
 10
0.127236
 20
-0.692957
  0
VERTEX
  8
PLAN_1
 62
     2
  6
CONTINUOUS
 10
0.157563
 20
-0.692957
  0
SEQEND
  8
0
  0
POLYLINE
  8
PLAN_1
 62
     2
  6
CONTINUOUS
 66
     1
 40
0.003000
 41
0.003000
  0
VERTEX
  8
PLAN_1
 62
     2
  6
CONTINUOUS
 10
0.269614
 20
-0.724311
  0
VERTEX
  8
PLAN_1
 62
     2
  6
CONTINUOUS
 10
0.269614
 20
-0.680618
  0
VERTEX
  8
PLAN_1
 62
     2
  6
CONTINUOUS
 10
0.269614
 20
-0.679079
  0
VERTEX
  8
PLAN_1
 62
     2
  6
CONTINUOUS
 10
0.269614
 20
-0.677535
  0
VERTEX
  8
PLAN_1
 62
     2
  6
CONTINUOUS
 10
0.269614
 20
-0.675480
  0
VERTEX
  8
PLAN_1
 62
     2
  6
CONTINUOUS
 10
0.269614
 20
-0.672909
  0
VERTEX
  8
PLAN_1
 62
     2
  6
CONTINUOUS
 10
0.269614
 20
-0.670339
  0
VERTEX
  8
PLAN_1
 62
     2
  6
CONTINUOUS
 10
0.269614
 20
-0.667256
  0
VERTEX
  8
PLAN_1
 62
     2
  6
CONTINUOUS
 10
0.269614
 20
-0.664685
  0
VERTEX
  8
PLAN_1
 62
     2
  6
CONTINUOUS
 10
0.269614
 20
-0.661602
  0
VERTEX
  8
PLAN_1
 62
     2
  6
CONTINUOUS
 10
0.248543
 20
-0.724311
  0
VERTEX
  8
PLAN_1
 62
     2
  6
CONTINUOUS
 10
0.238264
 20
-0.724311
  0
VERTEX
  8
PLAN_1
 62
     2
  6
CONTINUOUS
 10
0.217701
 20
-0.662114
  0
VERTEX
  8
PLAN_1
 62
     2
  6
CONTINUOUS
 10
0.217189
 20
-0.662114
  0
VERTEX
  8
PLAN_1
 62
     2
  6
CONTINUOUS
 10
0.217189
 20
-0.664685
  0
VERTEX
  8
PLAN_1
 62
     2
  6
CONTINUOUS
 10
0.217189
 20
-0.667256
  0
VERTEX
  8
PLAN_1
 62
     2
  6
CONTINUOUS
 10
0.217189
 20
-0.670339
  0
VERTEX
  8
PLAN_1
 62
     2
  6
CONTINUOUS
 10
0.217189
 20
-0.672909
  0
VERTEX
  8
PLAN_1
 62
     2
  6
CONTINUOUS
 10
0.217189
 20
-0.675480
  0
VERTEX
  8
PLAN_1
 62
     2
  6
CONTINUOUS
 10
0.217189
 20
-0.677535
  0
VERTEX
  8
PLAN_1
 62
     2
  6
CONTINUOUS
 10
0.217701
 20
-0.679079
  0
VERTEX
  8
PLAN_1
 62
     2
  6
CONTINUOUS
 10
0.217701
 20
-0.680618
  0
VERTEX
  8
PLAN_1
 62
     2
  6
CONTINUOUS
 10
0.217701
 20
-0.724311
  0
VERTEX
  8
PLAN_1
 62
     2
  6
CONTINUOUS
 10
0.207937
 20
-0.724311
  0
VERTEX
  8
PLAN_1
 62
     2
  6
CONTINUOUS
 10
0.207937
 20
-0.649780
  0
VERTEX
  8
PLAN_1
 62
     2
  6
CONTINUOUS
 10
0.222327
 20
-0.649780
  0
VERTEX
  8
PLAN_1
 62
     2
  6
CONTINUOUS
 10
0.243402
 20
-0.713004
  0
VERTEX
  8
PLAN_1
 62
     2
  6
CONTINUOUS
 10
0.243917
 20
-0.713004
  0
VERTEX
  8
PLAN_1
 62
     2
  6
CONTINUOUS
 10
0.264988
 20
-0.649780
  0
VERTEX
  8
PLAN_1
 62
     2
  6
CONTINUOUS
 10
0.279382
 20
-0.649780
  0
VERTEX
  8
PLAN_1
 62
     2
  6
CONTINUOUS
 10
0.279382
 20
-0.724311
  0
VERTEX
  8
PLAN_1
 62
     2
  6
CONTINUOUS
 10
0.269614
 20
-0.724311
  0
SEQEND
  8
0
  0
POLYLINE
  8
PLAN_1
 62
     2
  6
CONTINUOUS
 66
     1
 40
0.003000
 41
0.003000
  0
VERTEX
  8
PLAN_1
 62
     2
  6
CONTINUOUS
 10
0.291205
 20
-0.677535
  0
VERTEX
  8
PLAN_1
 62
     2
  6
CONTINUOUS
 10
0.291717
 20
-0.673425
  0
VERTEX
  8
PLAN_1
 62
     2
  6
CONTINUOUS
 10
0.292232
 20
-0.669827
  0
VERTEX
  8
PLAN_1
 62
     2
  6
CONTINUOUS
 10
0.293260
 20
-0.666228
  0
VERTEX
  8
PLAN_1
 62
     2
  6
CONTINUOUS
 10
0.294287
 20
-0.663657
  0
VERTEX
  8
PLAN_1
 62
     2
  6
CONTINUOUS
 10
0.295831
 20
-0.661087
  0
VERTEX
  8
PLAN_1
 62
     2
  6
CONTINUOUS
 10
0.297370
 20
-0.659031
  0
VERTEX
  8
PLAN_1
 62
     2
  6
CONTINUOUS
 10
0.298913
 20
-0.656976
  0
VERTEX
  8
PLAN_1
 62
     2
  6
CONTINUOUS
 10
0.300969
 20
-0.655433
  0
VERTEX
  8
PLAN_1
 62
     2
  6
CONTINUOUS
 10
0.305083
 20
-0.653378
  0
VERTEX
  8
PLAN_1
 62
     2
  6
CONTINUOUS
 10
0.309193
 20
-0.652350
  0
VERTEX
  8
PLAN_1
 62
     2
  6
CONTINUOUS
 10
0.313307
 20
-0.651323
  0
VERTEX
  8
PLAN_1
 62
     2
  6
CONTINUOUS
 10
0.316906
 20
-0.651323
  0
VERTEX
  8
PLAN_1
 62
     2
  6
CONTINUOUS
 10
0.321531
 20
-0.651835
  0
VERTEX
  8
PLAN_1
 62
     2
  6
CONTINUOUS
 10
0.325642
 20
-0.652862
  0
VERTEX
  8
PLAN_1
 62
     2
  6
CONTINUOUS
 10
0.329240
 20
-0.654921
  0
VERTEX
  8
PLAN_1
 62
     2
  6
CONTINUOUS
 10
0.332839
 20
-0.656976
  0
VERTEX
  8
PLAN_1
 62
     2
  6
CONTINUOUS
 10
0.335921
 20
-0.660575
  0
VERTEX
  8
PLAN_1
 62
     2
  6
CONTINUOUS
 10
0.337976
 20
-0.664173
  0
VERTEX
  8
PLAN_1
 62
     2
  6
CONTINUOUS
 10
0.339008
 20
-0.668283
  0
VERTEX
  8
PLAN_1
 62
     2
  6
CONTINUOUS
 10
0.339520
 20
-0.673425
  0
VERTEX
  8
PLAN_1
 62
     2
  6
CONTINUOUS
 10
0.339008
 20
-0.678051
  0
VERTEX
  8
PLAN_1
 62
     2
  6
CONTINUOUS
 10
0.337976
 20
-0.681650
  0
VERTEX
  8
PLAN_1
 62
     2
  6
CONTINUOUS
 10
0.336437
 20
-0.685244
  0
VERTEX
  8
PLAN_1
 62
     2
  6
CONTINUOUS
 10
0.333866
 20
-0.688331
  0
VERTEX
  8
PLAN_1
 62
     2
  6
CONTINUOUS
 10
0.330783
 20
-0.690902
  0
VERTEX
  8
PLAN_1
 62
     2
  6
CONTINUOUS
 10
0.327697
 20
-0.693469
  0
VERTEX
  8
PLAN_1
 62
     2
  6
CONTINUOUS
 10
0.324098
 20
-0.695528
  0
VERTEX
  8
PLAN_1
 62
     2
  6
CONTINUOUS
 10
0.319988
 20
-0.697583
  0
VERTEX
  8
PLAN_1
 62
     2
  6
CONTINUOUS
 10
0.312280
 20
-0.701693
  0
VERTEX
  8
PLAN_1
 62
     2
  6
CONTINUOUS
 10
0.309193
 20
-0.703748
  0
VERTEX
  8
PLAN_1
 62
     2
  6
CONTINUOUS
 10
0.306110
 20
-0.705807
  0
VERTEX
  8
PLAN_1
 62
     2
  6
CONTINUOUS
 10
0.304055
 20
-0.707862
  0
VERTEX
  8
PLAN_1
 62
     2
  6
CONTINUOUS
 10
0.302512
 20
-0.709917
  0
VERTEX
  8
PLAN_1
 62
     2
  6
CONTINUOUS
 10
0.301484
 20
-0.711461
  0
VERTEX
  8
PLAN_1
 62
     2
  6
CONTINUOUS
 10
0.300457
 20
-0.713516
  0
VERTEX
  8
PLAN_1
 62
     2
  6
CONTINUOUS
 10
0.299941
 20
-0.714543
  0
VERTEX
  8
PLAN_1
 62
     2
  6
CONTINUOUS
 10
0.299941
 20
-0.716087
  0
VERTEX
  8
PLAN_1
 62
     2
  6
CONTINUOUS
 10
0.339520
 20
-0.716087
  0
VERTEX
  8
PLAN_1
 62
     2
  6
CONTINUOUS
 10
0.339520
 20
-0.724311
  0
VERTEX
  8
PLAN_1
 62
     2
  6
CONTINUOUS
 10
0.289661
 20
-0.724311
  0
VERTEX
  8
PLAN_1
 62
     2
  6
CONTINUOUS
 10
0.290177
 20
-0.719169
  0
VERTEX
  8
PLAN_1
 62
     2
  6
CONTINUOUS
 10
0.291205
 20
-0.714543
  0
VERTEX
  8
PLAN_1
 62
     2
  6
CONTINUOUS
 10
0.292744
 20
-0.710433
  0
VERTEX
  8
PLAN_1
 62
     2
  6
CONTINUOUS
 10
0.294803
 20
-0.706319
  0
VERTEX
  8
PLAN_1
 62
     2
  6
CONTINUOUS
 10
0.296858
 20
-0.703236
  0
VERTEX
  8
PLAN_1
 62
     2
  6
CONTINUOUS
 10
0.299941
 20
-0.700154
  0
VERTEX
  8
PLAN_1
 62
     2
  6
CONTINUOUS
 10
0.303028
 20
-0.697583
  0
VERTEX
  8
PLAN_1
 62
     2
  6
CONTINUOUS
 10
0.306622
 20
-0.695528
  0
VERTEX
  8
PLAN_1
 62
     2
  6
CONTINUOUS
 10
0.316390
 20
-0.689870
  0
VERTEX
  8
PLAN_1
 62
     2
  6
CONTINUOUS
 10
0.318961
 20
-0.688331
  0
VERTEX
  8
PLAN_1
 62
     2
  6
CONTINUOUS
 10
0.321531
 20
-0.686787
  0
VERTEX
  8
PLAN_1
 62
     2
  6
CONTINUOUS
 10
0.324098
 20
-0.685244
  0
VERTEX
  8
PLAN_1
 62
     2
  6
CONTINUOUS
 10
0.326157
 20
-0.683189
  0
VERTEX
  8
PLAN_1
 62
     2
  6
CONTINUOUS
 10
0.327697
 20
-0.681134
  0
VERTEX
  8
PLAN_1
 62
     2
  6
CONTINUOUS
 10
0.328724
 20
-0.679079
  0
VERTEX
  8
PLAN_1
 62
     2
  6
CONTINUOUS
 10
0.329756
 20
-0.675992
  0
VERTEX
  8
PLAN_1
 62
     2
  6
CONTINUOUS
 10
0.329756
 20
-0.672909
  0
VERTEX
  8
PLAN_1
 62
     2
  6
CONTINUOUS
 10
0.329756
 20
-0.670854
  0
VERTEX
  8
PLAN_1
 62
     2
  6
CONTINUOUS
 10
0.329240
 20
-0.668283
  0
VERTEX
  8
PLAN_1
 62
     2
  6
CONTINUOUS
 10
0.328213
 20
-0.666228
  0
VERTEX
  8
PLAN_1
 62
     2
  6
CONTINUOUS
 10
0.326669
 20
-0.664173
  0
VERTEX
  8
PLAN_1
 62
     2
  6
CONTINUOUS
 10
0.324614
 20
-0.662114
  0
VERTEX
  8
PLAN_1
 62
     2
  6
CONTINUOUS
 10
0.322043
 20
-0.661087
  0
VERTEX
  8
PLAN_1
 62
     2
  6
CONTINUOUS
 10
0.318961
 20
-0.660059
  0
VERTEX
  8
PLAN_1
 62
     2
  6
CONTINUOUS
 10
0.315362
 20
-0.659547
  0
VERTEX
  8
PLAN_1
 62
     2
  6
CONTINUOUS
 10
0.312791
 20
-0.659547
  0
VERTEX
  8
PLAN_1
 62
     2
  6
CONTINUOUS
 10
0.310736
 20
-0.660059
  0
VERTEX
  8
PLAN_1
 62
     2
  6
CONTINUOUS
 10
0.308681
 20
-0.661087
  0
VERTEX
  8
PLAN_1
 62
     2
  6
CONTINUOUS
 10
0.307138
 20
-0.661602
  0
VERTEX
  8
PLAN_1
 62
     2
  6
CONTINUOUS
 10
0.304567
 20
-0.664173
  0
VERTEX
  8
PLAN_1
 62
     2
  6
CONTINUOUS
 10
0.303028
 20
-0.666740
  0
VERTEX
  8
PLAN_1
 62
     2
  6
CONTINUOUS
 10
0.301484
 20
-0.669827
  0
VERTEX
  8
PLAN_1
 62
     2
  6
CONTINUOUS
 10
0.300969
 20
-0.672909
  0
VERTEX
  8
PLAN_1
 62
     2
  6
CONTINUOUS
 10
0.300457
 20
-0.675480
  0
VERTEX
  8
PLAN_1
 62
     2
  6
CONTINUOUS
 10
0.300457
 20
-0.677535
  0
VERTEX
  8
PLAN_1
 62
     2
  6
CONTINUOUS
 10
0.291205
 20
-0.677535
  0
SEQEND
  8
0
  0
POLYLINE
  8
PLAN_1
 62
     2
  6
CONTINUOUS
 66
     1
 40
0.003000
 41
0.003000
  0
VERTEX
  8
PLAN_1
 62
     2
  6
CONTINUOUS
 10
0.373445
 20
-0.726366
  0
VERTEX
  8
PLAN_1
 62
     2
  6
CONTINUOUS
 10
0.369846
 20
-0.726366
  0
VERTEX
  8
PLAN_1
 62
     2
  6
CONTINUOUS
 10
0.366764
 20
-0.725339
  0
VERTEX
  8
PLAN_1
 62
     2
  6
CONTINUOUS
 10
0.363677
 20
-0.724311
  0
VERTEX
  8
PLAN_1
 62
     2
  6
CONTINUOUS
 10
0.361106
 20
-0.722768
  0
VERTEX
  8
PLAN_1
 62
     2
  6
CONTINUOUS
 10
0.358539
 20
-0.720713
  0
VERTEX
  8
PLAN_1
 62
     2
  6
CONTINUOUS
 10
0.356480
 20
-0.718657
  0
VERTEX
  8
PLAN_1
 62
     2
  6
CONTINUOUS
 10
0.354941
 20
-0.716087
  0
VERTEX
  8
PLAN_1
 62
     2
  6
CONTINUOUS
 10
0.353398
 20
-0.713516
  0
VERTEX
  8
PLAN_1
 62
     2
  6
CONTINUOUS
 10
0.350827
 20
-0.707346
  0
VERTEX
  8
PLAN_1
 62
     2
  6
CONTINUOUS
 10
0.349287
 20
-0.701181
  0
VERTEX
  8
PLAN_1
 62
     2
  6
CONTINUOUS
 10
0.348772
 20
-0.695012
  0
VERTEX
  8
PLAN_1
 62
     2
  6
CONTINUOUS
 10
0.348772
 20
-0.688843
  0
VERTEX
  8
PLAN_1
 62
     2
  6
CONTINUOUS
 10
0.348772
 20
-0.683189
  0
VERTEX
  8
PLAN_1
 62
     2
  6
CONTINUOUS
 10
0.349287
 20
-0.676508
  0
VERTEX
  8
PLAN_1
 62
     2
  6
CONTINUOUS
 10
0.350827
 20
-0.670339
  0
VERTEX
  8
PLAN_1
 62
     2
  6
CONTINUOUS
 10
0.353398
 20
-0.664685
  0
VERTEX
  8
PLAN_1
 62
     2
  6
CONTINUOUS
 10
0.354941
 20
-0.661602
  0
VERTEX
  8
PLAN_1
 62
     2
  6
CONTINUOUS
 10
0.356480
 20
-0.659547
  0
VERTEX
  8
PLAN_1
 62
     2
  6
CONTINUOUS
 10
0.358539
 20
-0.656976
  0
VERTEX
  8
PLAN_1
 62
     2
  6
CONTINUOUS
 10
0.361106
 20
-0.654921
  0
VERTEX
  8
PLAN_1
 62
     2
  6
CONTINUOUS
 10
0.363677
 20
-0.653378
  0
VERTEX
  8
PLAN_1
 62
     2
  6
CONTINUOUS
 10
0.366764
 20
-0.652350
  0
VERTEX
  8
PLAN_1
 62
     2
  6
CONTINUOUS
 10
0.369846
 20
-0.651835
  0
VERTEX
  8
PLAN_1
 62
     2
  6
CONTINUOUS
 10
0.373445
 20
-0.651323
  0
VERTEX
  8
PLAN_1
 62
     2
  6
CONTINUOUS
 10
0.377555
 20
-0.651835
  0
VERTEX
  8
PLAN_1
 62
     2
  6
CONTINUOUS
 10
0.380642
 20
-0.652350
  0
VERTEX
  8
PLAN_1
 62
     2
  6
CONTINUOUS
 10
0.383724
 20
-0.653378
  0
VERTEX
  8
PLAN_1
 62
     2
  6
CONTINUOUS
 10
0.386295
 20
-0.654921
  0
VERTEX
  8
PLAN_1
 62
     2
  6
CONTINUOUS
 10
0.388862
 20
-0.656976
  0
VERTEX
  8
PLAN_1
 62
     2
  6
CONTINUOUS
 10
0.390921
 20
-0.659547
  0
VERTEX
  8
PLAN_1
 62
     2
  6
CONTINUOUS
 10
0.392461
 20
-0.661602
  0
VERTEX
  8
PLAN_1
 62
     2
  6
CONTINUOUS
 10
0.394004
 20
-0.664685
  0
VERTEX
  8
PLAN_1
 62
     2
  6
CONTINUOUS
 10
0.396575
 20
-0.670339
  0
VERTEX
  8
PLAN_1
 62
     2
  6
CONTINUOUS
 10
0.397602
 20
-0.676508
  0
VERTEX
  8
PLAN_1
 62
     2
  6
CONTINUOUS
 10
0.398630
 20
-0.683189
  0
VERTEX
  8
PLAN_1
 62
     2
  6
CONTINUOUS
 10
0.398630
 20
-0.688843
  0
VERTEX
  8
PLAN_1
 62
     2
  6
CONTINUOUS
 10
0.398630
 20
-0.695012
  0
VERTEX
  8
PLAN_1
 62
     2
  6
CONTINUOUS
 10
0.397602
 20
-0.701181
  0
VERTEX
  8
PLAN_1
 62
     2
  6
CONTINUOUS
 10
0.396575
 20
-0.707346
  0
VERTEX
  8
PLAN_1
 62
     2
  6
CONTINUOUS
 10
0.394004
 20
-0.713516
  0
VERTEX
  8
PLAN_1
 62
     2
  6
CONTINUOUS
 10
0.392461
 20
-0.716087
  0
VERTEX
  8
PLAN_1
 62
     2
  6
CONTINUOUS
 10
0.390921
 20
-0.718657
  0
VERTEX
  8
PLAN_1
 62
     2
  6
CONTINUOUS
 10
0.388862
 20
-0.720713
  0
VERTEX
  8
PLAN_1
 62
     2
  6
CONTINUOUS
 10
0.386295
 20
-0.722768
  0
VERTEX
  8
PLAN_1
 62
     2
  6
CONTINUOUS
 10
0.383724
 20
-0.724311
  0
VERTEX
  8
PLAN_1
 62
     2
  6
CONTINUOUS
 10
0.380642
 20
-0.725339
  0
VERTEX
  8
PLAN_1
 62
     2
  6
CONTINUOUS
 10
0.377555
 20
-0.726366
  0
VERTEX
  8
PLAN_1
 62
     2
  6
CONTINUOUS
 10
0.373445
 20
-0.726366
  0
SEQEND
  8
0
  0
POLYLINE
  8
PLAN_1
 62
     2
  6
CONTINUOUS
 66
     1
 40
0.003000
 41
0.003000
  0
VERTEX
  8
PLAN_1
 62
     2
  6
CONTINUOUS
 10
0.373445
 20
-0.659547
  0
VERTEX
  8
PLAN_1
 62
     2
  6
CONTINUOUS
 10
0.371902
 20
-0.659547
  0
VERTEX
  8
PLAN_1
 62
     2
  6
CONTINUOUS
 10
0.369846
 20
-0.660059
  0
VERTEX
  8
PLAN_1
 62
     2
  6
CONTINUOUS
 10
0.368303
 20
-0.660575
  0
VERTEX
  8
PLAN_1
 62
     2
  6
CONTINUOUS
 10
0.366764
 20
-0.661602
  0
VERTEX
  8
PLAN_1
 62
     2
  6
CONTINUOUS
 10
0.364193
 20
-0.664173
  0
VERTEX
  8
PLAN_1
 62
     2
  6
CONTINUOUS
 10
0.362138
 20
-0.667256
  0
VERTEX
  8
PLAN_1
 62
     2
  6
CONTINUOUS
 10
0.360594
 20
-0.671882
  0
VERTEX
  8
PLAN_1
 62
     2
  6
CONTINUOUS
 10
0.359051
 20
-0.676508
  0
VERTEX
  8
PLAN_1
 62
     2
  6
CONTINUOUS
 10
0.358539
 20
-0.682677
  0
VERTEX
  8
PLAN_1
 62
     2
  6
CONTINUOUS
 10
0.358539
 20
-0.688843
  0
VERTEX
  8
PLAN_1
 62
     2
  6
CONTINUOUS
 10
0.358539
 20
-0.695528
  0
VERTEX
  8
PLAN_1
 62
     2
  6
CONTINUOUS
 10
0.359051
 20
-0.701181
  0
VERTEX
  8
PLAN_1
 62
     2
  6
CONTINUOUS
 10
0.360594
 20
-0.706319
  0
VERTEX
  8
PLAN_1
 62
     2
  6
CONTINUOUS
 10
0.362138
 20
-0.710433
  0
VERTEX
  8
PLAN_1
 62
     2
  6
CONTINUOUS
 10
0.364193
 20
-0.714031
  0
VERTEX
  8
PLAN_1
 62
     2
  6
CONTINUOUS
 10
0.366764
 20
-0.716087
  0
VERTEX
  8
PLAN_1
 62
     2
  6
CONTINUOUS
 10
0.368303
 20
-0.717114
  0
VERTEX
  8
PLAN_1
 62
     2
  6
CONTINUOUS
 10
0.369846
 20
-0.717630
  0
VERTEX
  8
PLAN_1
 62
     2
  6
CONTINUOUS
 10
0.371902
 20
-0.718142
  0
VERTEX
  8
PLAN_1
 62
     2
  6
CONTINUOUS
 10
0.373445
 20
-0.718142
  0
VERTEX
  8
PLAN_1
 62
     2
  6
CONTINUOUS
 10
0.375500
 20
-0.718142
  0
VERTEX
  8
PLAN_1
 62
     2
  6
CONTINUOUS
 10
0.377555
 20
-0.717630
  0
VERTEX
  8
PLAN_1
 62
     2
  6
CONTINUOUS
 10
0.379098
 20
-0.717114
  0
VERTEX
  8
PLAN_1
 62
     2
  6
CONTINUOUS
 10
0.380642
 20
-0.716087
  0
VERTEX
  8
PLAN_1
 62
     2
  6
CONTINUOUS
 10
0.383209
 20
-0.714031
  0
VERTEX
  8
PLAN_1
 62
     2
  6
CONTINUOUS
 10
0.385268
 20
-0.710433
  0
VERTEX
  8
PLAN_1
 62
     2
  6
CONTINUOUS
 10
0.386807
 20
-0.706319
  0
VERTEX
  8
PLAN_1
 62
     2
  6
CONTINUOUS
 10
0.387835
 20
-0.701181
  0
VERTEX
  8
PLAN_1
 62
     2
  6
CONTINUOUS
 10
0.388862
 20
-0.695528
  0
VERTEX
  8
PLAN_1
 62
     2
  6
CONTINUOUS
 10
0.388862
 20
-0.688843
  0
VERTEX
  8
PLAN_1
 62
     2
  6
CONTINUOUS
 10
0.388862
 20
-0.682677
  0
VERTEX
  8
PLAN_1
 62
     2
  6
CONTINUOUS
 10
0.387835
 20
-0.676508
  0
VERTEX
  8
PLAN_1
 62
     2
  6
CONTINUOUS
 10
0.386807
 20
-0.671882
  0
VERTEX
  8
PLAN_1
 62
     2
  6
CONTINUOUS
 10
0.385268
 20
-0.667256
  0
VERTEX
  8
PLAN_1
 62
     2
  6
CONTINUOUS
 10
0.383209
 20
-0.664173
  0
VERTEX
  8
PLAN_1
 62
     2
  6
CONTINUOUS
 10
0.380642
 20
-0.661602
  0
VERTEX
  8
PLAN_1
 62
     2
  6
CONTINUOUS
 10
0.379098
 20
-0.660575
  0
VERTEX
  8
PLAN_1
 62
     2
  6
CONTINUOUS
 10
0.377555
 20
-0.660059
  0
VERTEX
  8
PLAN_1
 62
     2
  6
CONTINUOUS
 10
0.375500
 20
-0.659547
  0
VERTEX
  8
PLAN_1
 62
     2
  6
CONTINUOUS
 10
0.373445
 20
-0.659547
  0
SEQEND
  8
0
  0
POLYLINE
  8
PLAN_1
 62
     2
  6
CONTINUOUS
 66
     1
 40
0.003000
 41
0.003000
  0
VERTEX
  8
PLAN_1
 62
     2
  6
CONTINUOUS
 10
0.482413
 20
-0.724311
  0
VERTEX
  8
PLAN_1
 62
     2
  6
CONTINUOUS
 10
0.471102
 20
-0.724311
  0
VERTEX
  8
PLAN_1
 62
     2
  6
CONTINUOUS
 10
0.457224
 20
-0.704264
  0
VERTEX
  8
PLAN_1
 62
     2
  6
CONTINUOUS
 10
0.444378
 20
-0.724311
  0
VERTEX
  8
PLAN_1
 62
     2
  6
CONTINUOUS
 10
0.432555
 20
-0.724311
  0
VERTEX
  8
PLAN_1
 62
     2
  6
CONTINUOUS
 10
0.452087
 20
-0.696555
  0
VERTEX
  8
PLAN_1
 62
     2
  6
CONTINUOUS
 10
0.433583
 20
-0.670339
  0
VERTEX
  8
PLAN_1
 62
     2
  6
CONTINUOUS
 10
0.445406
 20
-0.670339
  0
VERTEX
  8
PLAN_1
 62
     2
  6
CONTINUOUS
 10
0.457740
 20
-0.689358
  0
VERTEX
  8
PLAN_1
 62
     2
  6
CONTINUOUS
 10
0.470591
 20
-0.670339
  0
VERTEX
  8
PLAN_1
 62
     2
  6
CONTINUOUS
 10
0.481898
 20
-0.670339
  0
VERTEX
  8
PLAN_1
 62
     2
  6
CONTINUOUS
 10
0.463394
 20
-0.696555
  0
VERTEX
  8
PLAN_1
 62
     2
  6
CONTINUOUS
 10
0.482413
 20
-0.724311
  0
SEQEND
  8
0
  0
POLYLINE
  8
PLAN_1
 62
     2
  6
CONTINUOUS
 66
     1
 40
0.003000
 41
0.003000
  0
VERTEX
  8
PLAN_1
 62
     2
  6
CONTINUOUS
 10
0.549744
 20
-0.724311
  0
VERTEX
  8
PLAN_1
 62
     2
  6
CONTINUOUS
 10
0.539980
 20
-0.724311
  0
VERTEX
  8
PLAN_1
 62
     2
  6
CONTINUOUS
 10
0.539980
 20
-0.672398
  0
VERTEX
  8
PLAN_1
 62
     2
  6
CONTINUOUS
 10
0.523020
 20
-0.672398
  0
VERTEX
  8
PLAN_1
 62
     2
  6
CONTINUOUS
 10
0.523020
 20
-0.665201
  0
VERTEX
  8
PLAN_1
 62
     2
  6
CONTINUOUS
 10
0.527130
 20
-0.665201
  0
VERTEX
  8
PLAN_1
 62
     2
  6
CONTINUOUS
 10
0.530728
 20
-0.664685
  0
VERTEX
  8
PLAN_1
 62
     2
  6
CONTINUOUS
 10
0.533811
 20
-0.663657
  0
VERTEX
  8
PLAN_1
 62
     2
  6
CONTINUOUS
 10
0.536382
 20
-0.662630
  0
VERTEX
  8
PLAN_1
 62
     2
  6
CONTINUOUS
 10
0.538437
 20
-0.661087
  0
VERTEX
  8
PLAN_1
 62
     2
  6
CONTINUOUS
 10
0.539980
 20
-0.658520
  0
VERTEX
  8
PLAN_1
 62
     2
  6
CONTINUOUS
 10
0.541524
 20
-0.655433
  0
VERTEX
  8
PLAN_1
 62
     2
  6
CONTINUOUS
 10
0.542551
 20
-0.651323
  0
VERTEX
  8
PLAN_1
 62
     2
  6
CONTINUOUS
 10
0.549744
 20
-0.651323
  0
VERTEX
  8
PLAN_1
 62
     2
  6
CONTINUOUS
 10
0.549744
 20
-0.724311
  0
SEQEND
  8
0
  0
POLYLINE
  8
PLAN_1
 62
     2
  6
CONTINUOUS
 66
     1
 40
0.003000
 41
0.003000
  0
VERTEX
  8
PLAN_1
 62
     2
  6
CONTINUOUS
 10
0.579559
 20
-0.713516
  0
VERTEX
  8
PLAN_1
 62
     2
  6
CONTINUOUS
 10
0.590350
 20
-0.713516
  0
VERTEX
  8
PLAN_1
 62
     2
  6
CONTINUOUS
 10
0.590350
 20
-0.723795
  0
VERTEX
  8
PLAN_1
 62
     2
  6
CONTINUOUS
 10
0.589839
 20
-0.728421
  0
VERTEX
  8
PLAN_1
 62
     2
  6
CONTINUOUS
 10
0.588811
 20
-0.732020
  0
VERTEX
  8
PLAN_1
 62
     2
  6
CONTINUOUS
 10
0.587268
 20
-0.735102
  0
VERTEX
  8
PLAN_1
 62
     2
  6
CONTINUOUS
 10
0.585724
 20
-0.737161
  0
VERTEX
  8
PLAN_1
 62
     2
  6
CONTINUOUS
 10
0.583669
 20
-0.738189
  0
VERTEX
  8
PLAN_1
 62
     2
  6
CONTINUOUS
 10
0.582130
 20
-0.739217
  0
VERTEX
  8
PLAN_1
 62
     2
  6
CONTINUOUS
 10
0.580587
 20
-0.739728
  0
VERTEX
  8
PLAN_1
 62
     2
  6
CONTINUOUS
 10
0.579559
 20
-0.739728
  0
VERTEX
  8
PLAN_1
 62
     2
  6
CONTINUOUS
 10
0.579559
 20
-0.735102
  0
VERTEX
  8
PLAN_1
 62
     2
  6
CONTINUOUS
 10
0.581098
 20
-0.734591
  0
VERTEX
  8
PLAN_1
 62
     2
  6
CONTINUOUS
 10
0.582130
 20
-0.734075
  0
VERTEX
  8
PLAN_1
 62
     2
  6
CONTINUOUS
 10
0.583157
 20
-0.733047
  0
VERTEX
  8
PLAN_1
 62
     2
  6
CONTINUOUS
 10
0.583669
 20
-0.731508
  0
VERTEX
  8
PLAN_1
 62
     2
  6
CONTINUOUS
 10
0.584185
 20
-0.729965
  0
VERTEX
  8
PLAN_1
 62
     2
  6
CONTINUOUS
 10
0.584697
 20
-0.728421
  0
VERTEX
  8
PLAN_1
 62
     2
  6
CONTINUOUS
 10
0.585213
 20
-0.726366
  0
VERTEX
  8
PLAN_1
 62
     2
  6
CONTINUOUS
 10
0.585213
 20
-0.724311
  0
VERTEX
  8
PLAN_1
 62
     2
  6
CONTINUOUS
 10
0.579559
 20
-0.724311
  0
VERTEX
  8
PLAN_1
 62
     2
  6
CONTINUOUS
 10
0.579559
 20
-0.713516
  0
SEQEND
  8
0
  0
POLYLINE
  8
PLAN_1
 62
     2
  6
CONTINUOUS
 66
     1
 40
0.003000
 41
0.003000
  0
VERTEX
  8
PLAN_1
 62
     2
  6
CONTINUOUS
 10
0.614512
 20
-0.682161
  0
VERTEX
  8
PLAN_1
 62
     2
  6
CONTINUOUS
 10
0.616051
 20
-0.681134
  0
VERTEX
  8
PLAN_1
 62
     2
  6
CONTINUOUS
 10
0.617079
 20
-0.680106
  0
VERTEX
  8
PLAN_1
 62
     2
  6
CONTINUOUS
 10
0.618622
 20
-0.679591
  0
VERTEX
  8
PLAN_1
 62
     2
  6
CONTINUOUS
 10
0.620677
 20
-0.678563
  0
VERTEX
  8
PLAN_1
 62
     2
  6
CONTINUOUS
 10
0.622220
 20
-0.678051
  0
VERTEX
  8
PLAN_1
 62
     2
  6
CONTINUOUS
 10
0.624276
 20
-0.678051
  0
VERTEX
  8
PLAN_1
 62
     2
  6
CONTINUOUS
 10
0.626331
 20
-0.677535
  0
VERTEX
  8
PLAN_1
 62
     2
  6
CONTINUOUS
 10
0.628902
 20
-0.677535
  0
VERTEX
  8
PLAN_1
 62
     2
  6
CONTINUOUS
 10
0.633528
 20
-0.678051
  0
VERTEX
  8
PLAN_1
 62
     2
  6
CONTINUOUS
 10
0.637642
 20
-0.679079
  0
VERTEX
  8
PLAN_1
 62
     2
  6
CONTINUOUS
 10
0.641752
 20
-0.680618
  0
VERTEX
  8
PLAN_1
 62
     2
  6
CONTINUOUS
 10
0.645350
 20
-0.683705
  0
VERTEX
  8
PLAN_1
 62
     2
  6
CONTINUOUS
 10
0.648433
 20
-0.686787
  0
VERTEX
  8
PLAN_1
 62
     2
  6
CONTINUOUS
 10
0.651004
 20
-0.690902
  0
VERTEX
  8
PLAN_1
 62
     2
  6
CONTINUOUS
 10
0.651520
 20
-0.692957
  0
VERTEX
  8
PLAN_1
 62
     2
  6
CONTINUOUS
 10
0.652547
 20
-0.695528
  0
VERTEX
  8
PLAN_1
 62
     2
  6
CONTINUOUS
 10
0.652547
 20
-0.698094
  0
VERTEX
  8
PLAN_1
 62
     2
  6
CONTINUOUS
 10
0.653059
 20
-0.700665
  0
VERTEX
  8
PLAN_1
 62
     2
  6
CONTINUOUS
 10
0.652547
 20
-0.704264
  0
VERTEX
  8
PLAN_1
 62
     2
  6
CONTINUOUS
 10
0.652031
 20
-0.708378
  0
VERTEX
  8
PLAN_1
 62
     2
  6
CONTINUOUS
 10
0.650488
 20
-0.712488
  0
VERTEX
  8
PLAN_1
 62
     2
  6
CONTINUOUS
 10
0.648433
 20
-0.716598
  0
VERTEX
  8
PLAN_1
 62
     2
  6
CONTINUOUS
 10
0.646378
 20
-0.718657
  0
VERTEX
  8
PLAN_1
 62
     2
  6
CONTINUOUS
 10
0.644835
 20
-0.720713
  0
VERTEX
  8
PLAN_1
 62
     2
  6
CONTINUOUS
 10
0.642780
 20
-0.722256
  0
VERTEX
  8
PLAN_1
 62
     2
  6
CONTINUOUS
 10
0.640209
 20
-0.723795
  0
VERTEX
  8
PLAN_1
 62
     2
  6
CONTINUOUS
 10
0.637126
 20
-0.724823
  0
VERTEX
  8
PLAN_1
 62
     2
  6
CONTINUOUS
 10
0.634043
 20
-0.725850
  0
VERTEX
  8
PLAN_1
 62
     2
  6
CONTINUOUS
 10
0.630445
 20
-0.726366
  0
VERTEX
  8
PLAN_1
 62
     2
  6
CONTINUOUS
 10
0.626331
 20
-0.726366
  0
VERTEX
  8
PLAN_1
 62
     2
  6
CONTINUOUS
 10
0.622732
 20
-0.726366
  0
VERTEX
  8
PLAN_1
 62
     2
  6
CONTINUOUS
 10
0.618622
 20
-0.725850
  0
VERTEX
  8
PLAN_1
 62
     2
  6
CONTINUOUS
 10
0.615024
 20
-0.724311
  0
VERTEX
  8
PLAN_1
 62
     2
  6
CONTINUOUS
 10
0.611425
 20
-0.722768
  0
VERTEX
  8
PLAN_1
 62
     2
  6
CONTINUOUS
 10
0.608343
 20
-0.719685
  0
VERTEX
  8
PLAN_1
 62
     2
  6
CONTINUOUS
 10
0.605772
 20
-0.716598
  0
VERTEX
  8
PLAN_1
 62
     2
  6
CONTINUOUS
 10
0.604744
 20
-0.714031
  0
VERTEX
  8
PLAN_1
 62
     2
  6
CONTINUOUS
 10
0.603717
 20
-0.711972
  0
VERTEX
  8
PLAN_1
 62
     2
  6
CONTINUOUS
 10
0.603201
 20
-0.709406
  0
VERTEX
  8
PLAN_1
 62
     2
  6
CONTINUOUS
 10
0.602689
 20
-0.706319
  0
VERTEX
  8
PLAN_1
 62
     2
  6
CONTINUOUS
 10
0.612453
 20
-0.706319
  0
VERTEX
  8
PLAN_1
 62
     2
  6
CONTINUOUS
 10
0.612969
 20
-0.709406
  0
VERTEX
  8
PLAN_1
 62
     2
  6
CONTINUOUS
 10
0.613996
 20
-0.711972
  0
VERTEX
  8
PLAN_1
 62
     2
  6
CONTINUOUS
 10
0.615539
 20
-0.714031
  0
VERTEX
  8
PLAN_1
 62
     2
  6
CONTINUOUS
 10
0.617079
 20
-0.715571
  0
VERTEX
  8
PLAN_1
 62
     2
  6
CONTINUOUS
 10
0.619650
 20
-0.717114
  0
VERTEX
  8
PLAN_1
 62
     2
  6
CONTINUOUS
 10
0.621705
 20
-0.718142
  0
VERTEX
  8
PLAN_1
 62
     2
  6
CONTINUOUS
 10
0.624791
 20
-0.718657
  0
VERTEX
  8
PLAN_1
 62
     2
  6
CONTINUOUS
 10
0.627874
 20
-0.718657
  0
VERTEX
  8
PLAN_1
 62
     2
  6
CONTINUOUS
 10
0.630957
 20
-0.718142
  0
VERTEX
  8
PLAN_1
 62
     2
  6
CONTINUOUS
 10
0.634043
 20
-0.717114
  0
VERTEX
  8
PLAN_1
 62
     2
  6
CONTINUOUS
 10
0.636610
 20
-0.715571
  0
VERTEX
  8
PLAN_1
 62
     2
  6
CONTINUOUS
 10
0.639181
 20
-0.713516
  0
VERTEX
  8
PLAN_1
 62
     2
  6
CONTINUOUS
 10
0.640724
 20
-0.711461
  0
VERTEX
  8
PLAN_1
 62
     2
  6
CONTINUOUS
 10
0.642268
 20
-0.708378
  0
VERTEX
  8
PLAN_1
 62
     2
  6
CONTINUOUS
 10
0.642780
 20
-0.705291
  0
VERTEX
  8
PLAN_1
 62
     2
  6
CONTINUOUS
 10
0.643295
 20
-0.701693
  0
VERTEX
  8
PLAN_1
 62
     2
  6
CONTINUOUS
 10
0.642780
 20
-0.698094
  0
VERTEX
  8
PLAN_1
 62
     2
  6
CONTINUOUS
 10
0.641752
 20
-0.695012
  0
VERTEX
  8
PLAN_1
 62
     2
  6
CONTINUOUS
 10
0.640209
 20
-0.691929
  0
VERTEX
  8
PLAN_1
 62
     2
  6
CONTINUOUS
 10
0.638154
 20
-0.689870
  0
VERTEX
  8
PLAN_1
 62
     2
  6
CONTINUOUS
 10
0.636098
 20
-0.687815
  0
VERTEX
  8
PLAN_1
 62
     2
  6
CONTINUOUS
 10
0.633016
 20
-0.686787
  0
VERTEX
  8
PLAN_1
 62
     2
  6
CONTINUOUS
 10
0.629929
 20
-0.685760
  0
VERTEX
  8
PLAN_1
 62
     2
  6
CONTINUOUS
 10
0.626846
 20
-0.685760
  0
VERTEX
  8
PLAN_1
 62
     2
  6
CONTINUOUS
 10
0.624791
 20
-0.685760
  0
VERTEX
  8
PLAN_1
 62
     2
  6
CONTINUOUS
 10
0.623248
 20
-0.686276
  0
VERTEX
  8
PLAN_1
 62
     2
  6
CONTINUOUS
 10
0.621193
 20
-0.686787
  0
VERTEX
  8
PLAN_1
 62
     2
  6
CONTINUOUS
 10
0.619650
 20
-0.687303
  0
VERTEX
  8
PLAN_1
 62
     2
  6
CONTINUOUS
 10
0.617594
 20
-0.688331
  0
VERTEX
  8
PLAN_1
 62
     2
  6
CONTINUOUS
 10
0.616051
 20
-0.689870
  0
VERTEX
  8
PLAN_1
 62
     2
  6
CONTINUOUS
 10
0.614512
 20
-0.690902
  0
VERTEX
  8
PLAN_1
 62
     2
  6
CONTINUOUS
 10
0.613480
 20
-0.692441
  0
VERTEX
  8
PLAN_1
 62
     2
  6
CONTINUOUS
 10
0.605260
 20
-0.692441
  0
VERTEX
  8
PLAN_1
 62
     2
  6
CONTINUOUS
 10
0.610913
 20
-0.652862
  0
VERTEX
  8
PLAN_1
 62
     2
  6
CONTINUOUS
 10
0.648949
 20
-0.652862
  0
VERTEX
  8
PLAN_1
 62
     2
  6
CONTINUOUS
 10
0.648949
 20
-0.662114
  0
VERTEX
  8
PLAN_1
 62
     2
  6
CONTINUOUS
 10
0.617594
 20
-0.662114
  0
VERTEX
  8
PLAN_1
 62
     2
  6
CONTINUOUS
 10
0.614512
 20
-0.682161
  0
SEQEND
  8
0
  0
POLYLINE
  8
PLAN_1
 62
     2
  6
CONTINUOUS
 66
     1
 40
0.003000
 41
0.003000
  0
VERTEX
  8
PLAN_1
 62
     2
  6
CONTINUOUS
 10
-0.470031
 20
-0.795240
  0
VERTEX
  8
PLAN_1
 62
     2
  6
CONTINUOUS
 10
-0.461291
 20
-0.795240
  0
VERTEX
  8
PLAN_1
 62
     2
  6
CONTINUOUS
 10
-0.461291
 20
-0.802953
  0
VERTEX
  8
PLAN_1
 62
     2
  6
CONTINUOUS
 10
-0.460264
 20
-0.801409
  0
VERTEX
  8
PLAN_1
 62
     2
  6
CONTINUOUS
 10
-0.459236
 20
-0.799866
  0
VERTEX
  8
PLAN_1
 62
     2
  6
CONTINUOUS
 10
-0.457693
 20
-0.798327
  0
VERTEX
  8
PLAN_1
 62
     2
  6
CONTINUOUS
 10
-0.456154
 20
-0.796783
  0
VERTEX
  8
PLAN_1
 62
     2
  6
CONTINUOUS
 10
-0.454094
 20
-0.795756
  0
VERTEX
  8
PLAN_1
 62
     2
  6
CONTINUOUS
 10
-0.451528
 20
-0.794728
  0
VERTEX
  8
PLAN_1
 62
     2
  6
CONTINUOUS
 10
-0.448441
 20
-0.793701
  0
VERTEX
  8
PLAN_1
 62
     2
  6
CONTINUOUS
 10
-0.444843
 20
-0.793701
  0
VERTEX
  8
PLAN_1
 62
     2
  6
CONTINUOUS
 10
-0.442276
 20
-0.793701
  0
VERTEX
  8
PLAN_1
 62
     2
  6
CONTINUOUS
 10
-0.439705
 20
-0.794213
  0
VERTEX
  8
PLAN_1
 62
     2
  6
CONTINUOUS
 10
-0.437650
 20
-0.794728
  0
VERTEX
  8
PLAN_1
 62
     2
  6
CONTINUOUS
 10
-0.435079
 20
-0.795756
  0
VERTEX
  8
PLAN_1
 62
     2
  6
CONTINUOUS
 10
-0.433535
 20
-0.796783
  0
VERTEX
  8
PLAN_1
 62
     2
  6
CONTINUOUS
 10
-0.431480
 20
-0.798327
  0
VERTEX
  8
PLAN_1
 62
     2
  6
CONTINUOUS
 10
-0.429937
 20
-0.799866
  0
VERTEX
  8
PLAN_1
 62
     2
  6
CONTINUOUS
 10
-0.428398
 20
-0.801409
  0
VERTEX
  8
PLAN_1
 62
     2
  6
CONTINUOUS
 10
-0.425827
 20
-0.805524
  0
VERTEX
  8
PLAN_1
 62
     2
  6
CONTINUOUS
 10
-0.423772
 20
-0.810150
  0
VERTEX
  8
PLAN_1
 62
     2
  6
CONTINUOUS
 10
-0.422740
 20
-0.815287
  0
VERTEX
  8
PLAN_1
 62
     2
  6
CONTINUOUS
 10
-0.422228
 20
-0.820941
  0
VERTEX
  8
PLAN_1
 62
     2
  6
CONTINUOUS
 10
-0.422740
 20
-0.825567
  0
VERTEX
  8
PLAN_1
 62
     2
  6
CONTINUOUS
 10
-0.423256
 20
-0.830709
  0
VERTEX
  8
PLAN_1
 62
     2
  6
CONTINUOUS
 10
-0.424799
 20
-0.835846
  0
VERTEX
  8
PLAN_1
 62
     2
  6
CONTINUOUS
 10
-0.427366
 20
-0.840988
  0
VERTEX
  8
PLAN_1
 62
     2
  6
CONTINUOUS
 10
-0.428909
 20
-0.843043
  0
VERTEX
  8
PLAN_1
 62
     2
  6
CONTINUOUS
 10
-0.430453
 20
-0.845098
  0
VERTEX
  8
PLAN_1
 62
     2
  6
CONTINUOUS
 10
-0.432508
 20
-0.846642
  0
VERTEX
  8
PLAN_1
 62
     2
  6
CONTINUOUS
 10
-0.434563
 20
-0.848185
  0
VERTEX
  8
PLAN_1
 62
     2
  6
CONTINUOUS
 10
-0.437134
 20
-0.849213
  0
VERTEX
  8
PLAN_1
 62
     2
  6
CONTINUOUS
 10
-0.439705
 20
-0.850240
  0
VERTEX
  8
PLAN_1
 62
     2
  6
CONTINUOUS
 10
-0.442787
 20
-0.850756
  0
VERTEX
  8
PLAN_1
 62
     2
  6
CONTINUOUS
 10
-0.446386
 20
-0.851268
  0
VERTEX
  8
PLAN_1
 62
     2
  6
CONTINUOUS
 10
-0.448957
 20
-0.850756
  0
VERTEX
  8
PLAN_1
 62
     2
  6
CONTINUOUS
 10
-0.451012
 20
-0.850756
  0
VERTEX
  8
PLAN_1
 62
     2
  6
CONTINUOUS
 10
-0.453583
 20
-0.849724
  0
VERTEX
  8
PLAN_1
 62
     2
  6
CONTINUOUS
 10
-0.455122
 20
-0.848697
  0
VERTEX
  8
PLAN_1
 62
     2
  6
CONTINUOUS
 10
-0.457181
 20
-0.847669
  0
VERTEX
  8
PLAN_1
 62
     2
  6
CONTINUOUS
 10
-0.458209
 20
-0.846642
  0
VERTEX
  8
PLAN_1
 62
     2
  6
CONTINUOUS
 10
-0.459752
 20
-0.845098
  0
VERTEX
  8
PLAN_1
 62
     2
  6
CONTINUOUS
 10
-0.460780
 20
-0.844071
  0
VERTEX
  8
PLAN_1
 62
     2
  6
CONTINUOUS
 10
-0.460780
 20
-0.871315
  0
VERTEX
  8
PLAN_1
 62
     2
  6
CONTINUOUS
 10
-0.470031
 20
-0.871315
  0
VERTEX
  8
PLAN_1
 62
     2
  6
CONTINUOUS
 10
-0.470031
 20
-0.795240
  0
SEQEND
  8
0
  0
POLYLINE
  8
PLAN_1
 62
     2
  6
CONTINUOUS
 66
     1
 40
0.003000
 41
0.003000
  0
VERTEX
  8
PLAN_1
 62
     2
  6
CONTINUOUS
 10
-0.446386
 20
-0.843043
  0
VERTEX
  8
PLAN_1
 62
     2
  6
CONTINUOUS
 10
-0.442787
 20
-0.843043
  0
VERTEX
  8
PLAN_1
 62
     2
  6
CONTINUOUS
 10
-0.439705
 20
-0.841504
  0
VERTEX
  8
PLAN_1
 62
     2
  6
CONTINUOUS
 10
-0.437650
 20
-0.839961
  0
VERTEX
  8
PLAN_1
 62
     2
  6
CONTINUOUS
 10
-0.435591
 20
-0.837390
  0
VERTEX
  8
PLAN_1
 62
     2
  6
CONTINUOUS
 10
-0.433535
 20
-0.834307
  0
VERTEX
  8
PLAN_1
 62
     2
  6
CONTINUOUS
 10
-0.432508
 20
-0.830709
  0
VERTEX
  8
PLAN_1
 62
     2
  6
CONTINUOUS
 10
-0.431992
 20
-0.826594
  0
VERTEX
  8
PLAN_1
 62
     2
  6
CONTINUOUS
 10
-0.431992
 20
-0.821969
  0
VERTEX
  8
PLAN_1
 62
     2
  6
CONTINUOUS
 10
-0.431992
 20
-0.819402
  0
VERTEX
  8
PLAN_1
 62
     2
  6
CONTINUOUS
 10
-0.431992
 20
-0.815803
  0
VERTEX
  8
PLAN_1
 62
     2
  6
CONTINUOUS
 10
-0.432508
 20
-0.812717
  0
VERTEX
  8
PLAN_1
 62
     2
  6
CONTINUOUS
 10
-0.434051
 20
-0.809118
  0
VERTEX
  8
PLAN_1
 62
     2
  6
CONTINUOUS
 10
-0.435591
 20
-0.806551
  0
VERTEX
  8
PLAN_1
 62
     2
  6
CONTINUOUS
 10
-0.438161
 20
-0.803980
  0
VERTEX
  8
PLAN_1
 62
     2
  6
CONTINUOUS
 10
-0.440217
 20
-0.802953
  0
VERTEX
  8
PLAN_1
 62
     2
  6
CONTINUOUS
 10
-0.441760
 20
-0.802437
  0
VERTEX
  8
PLAN_1
 62
     2
  6
CONTINUOUS
 10
-0.444331
 20
-0.801925
  0
VERTEX
  8
PLAN_1
 62
     2
  6
CONTINUOUS
 10
-0.446386
 20
-0.801925
  0
VERTEX
  8
PLAN_1
 62
     2
  6
CONTINUOUS
 10
-0.448957
 20
-0.801925
  0
VERTEX
  8
PLAN_1
 62
     2
  6
CONTINUOUS
 10
-0.451012
 20
-0.802437
  0
VERTEX
  8
PLAN_1
 62
     2
  6
CONTINUOUS
 10
-0.453067
 20
-0.802953
  0
VERTEX
  8
PLAN_1
 62
     2
  6
CONTINUOUS
 10
-0.454610
 20
-0.803980
  0
VERTEX
  8
PLAN_1
 62
     2
  6
CONTINUOUS
 10
-0.457181
 20
-0.806551
  0
VERTEX
  8
PLAN_1
 62
     2
  6
CONTINUOUS
 10
-0.458720
 20
-0.810150
  0
VERTEX
  8
PLAN_1
 62
     2
  6
CONTINUOUS
 10
-0.460264
 20
-0.813744
  0
VERTEX
  8
PLAN_1
 62
     2
  6
CONTINUOUS
 10
-0.460780
 20
-0.817343
  0
VERTEX
  8
PLAN_1
 62
     2
  6
CONTINUOUS
 10
-0.461291
 20
-0.821457
  0
VERTEX
  8
PLAN_1
 62
     2
  6
CONTINUOUS
 10
-0.461291
 20
-0.825055
  0
VERTEX
  8
PLAN_1
 62
     2
  6
CONTINUOUS
 10
-0.460780
 20
-0.829681
  0
VERTEX
  8
PLAN_1
 62
     2
  6
CONTINUOUS
 10
-0.459752
 20
-0.833791
  0
VERTEX
  8
PLAN_1
 62
     2
  6
CONTINUOUS
 10
-0.458209
 20
-0.836878
  0
VERTEX
  8
PLAN_1
 62
     2
  6
CONTINUOUS
 10
-0.456154
 20
-0.839445
  0
VERTEX
  8
PLAN_1
 62
     2
  6
CONTINUOUS
 10
-0.453583
 20
-0.840988
  0
VERTEX
  8
PLAN_1
 62
     2
  6
CONTINUOUS
 10
-0.451012
 20
-0.842531
  0
VERTEX
  8
PLAN_1
 62
     2
  6
CONTINUOUS
 10
-0.448957
 20
-0.843043
  0
VERTEX
  8
PLAN_1
 62
     2
  6
CONTINUOUS
 10
-0.446386
 20
-0.843043
  0
SEQEND
  8
0
  0
POLYLINE
  8
PLAN_1
 62
     2
  6
CONTINUOUS
 66
     1
 40
0.003000
 41
0.003000
  0
VERTEX
  8
PLAN_1
 62
     2
  6
CONTINUOUS
 10
-0.389331
 20
-0.793701
  0
VERTEX
  8
PLAN_1
 62
     2
  6
CONTINUOUS
 10
-0.386248
 20
-0.793701
  0
VERTEX
  8
PLAN_1
 62
     2
  6
CONTINUOUS
 10
-0.383165
 20
-0.794213
  0
VERTEX
  8
PLAN_1
 62
     2
  6
CONTINUOUS
 10
-0.380594
 20
-0.795240
  0
VERTEX
  8
PLAN_1
 62
     2
  6
CONTINUOUS
 10
-0.378024
 20
-0.796272
  0
VERTEX
  8
PLAN_1
 62
     2
  6
CONTINUOUS
 10
-0.375453
 20
-0.797299
  0
VERTEX
  8
PLAN_1
 62
     2
  6
CONTINUOUS
 10
-0.373398
 20
-0.798839
  0
VERTEX
  8
PLAN_1
 62
     2
  6
CONTINUOUS
 10
-0.371854
 20
-0.800898
  0
VERTEX
  8
PLAN_1
 62
     2
  6
CONTINUOUS
 10
-0.370315
 20
-0.802437
  0
VERTEX
  8
PLAN_1
 62
     2
  6
CONTINUOUS
 10
-0.367228
 20
-0.807063
  0
VERTEX
  8
PLAN_1
 62
     2
  6
CONTINUOUS
 10
-0.365689
 20
-0.811689
  0
VERTEX
  8
PLAN_1
 62
     2
  6
CONTINUOUS
 10
-0.364146
 20
-0.816831
  0
VERTEX
  8
PLAN_1
 62
     2
  6
CONTINUOUS
 10
-0.364146
 20
-0.822484
  0
VERTEX
  8
PLAN_1
 62
     2
  6
CONTINUOUS
 10
-0.364146
 20
-0.827622
  0
VERTEX
  8
PLAN_1
 62
     2
  6
CONTINUOUS
 10
-0.365689
 20
-0.832764
  0
VERTEX
  8
PLAN_1
 62
     2
  6
CONTINUOUS
 10
-0.367228
 20
-0.837390
  0
VERTEX
  8
PLAN_1
 62
     2
  6
CONTINUOUS
 10
-0.370315
 20
-0.842016
  0
VERTEX
  8
PLAN_1
 62
     2
  6
CONTINUOUS
 10
-0.371854
 20
-0.844071
  0
VERTEX
  8
PLAN_1
 62
     2
  6
CONTINUOUS
 10
-0.373398
 20
-0.845614
  0
VERTEX
  8
PLAN_1
 62
     2
  6
CONTINUOUS
 10
-0.375453
 20
-0.847157
  0
VERTEX
  8
PLAN_1
 62
     2
  6
CONTINUOUS
 10
-0.378024
 20
-0.848697
  0
VERTEX
  8
PLAN_1
 62
     2
  6
CONTINUOUS
 10
-0.380594
 20
-0.849724
  0
VERTEX
  8
PLAN_1
 62
     2
  6
CONTINUOUS
 10
-0.383165
 20
-0.850240
  0
VERTEX
  8
PLAN_1
 62
     2
  6
CONTINUOUS
 10
-0.386248
 20
-0.850756
  0
VERTEX
  8
PLAN_1
 62
     2
  6
CONTINUOUS
 10
-0.389331
 20
-0.850756
  0
VERTEX
  8
PLAN_1
 62
     2
  6
CONTINUOUS
 10
-0.392417
 20
-0.850756
  0
VERTEX
  8
PLAN_1
 62
     2
  6
CONTINUOUS
 10
-0.395500
 20
-0.850240
  0
VERTEX
  8
PLAN_1
 62
     2
  6
CONTINUOUS
 10
-0.398071
 20
-0.849724
  0
VERTEX
  8
PLAN_1
 62
     2
  6
CONTINUOUS
 10
-0.400642
 20
-0.848697
  0
VERTEX
  8
PLAN_1
 62
     2
  6
CONTINUOUS
 10
-0.402697
 20
-0.847157
  0
VERTEX
  8
PLAN_1
 62
     2
  6
CONTINUOUS
 10
-0.404752
 20
-0.845614
  0
VERTEX
  8
PLAN_1
 62
     2
  6
CONTINUOUS
 10
-0.406807
 20
-0.844071
  0
VERTEX
  8
PLAN_1
 62
     2
  6
CONTINUOUS
 10
-0.408350
 20
-0.842016
  0
VERTEX
  8
PLAN_1
 62
     2
  6
CONTINUOUS
 10
-0.410921
 20
-0.837390
  0
VERTEX
  8
PLAN_1
 62
     2
  6
CONTINUOUS
 10
-0.412976
 20
-0.832764
  0
VERTEX
  8
PLAN_1
 62
     2
  6
CONTINUOUS
 10
-0.414004
 20
-0.827622
  0
VERTEX
  8
PLAN_1
 62
     2
  6
CONTINUOUS
 10
-0.414520
 20
-0.822484
  0
VERTEX
  8
PLAN_1
 62
     2
  6
CONTINUOUS
 10
-0.414004
 20
-0.816831
  0
VERTEX
  8
PLAN_1
 62
     2
  6
CONTINUOUS
 10
-0.412976
 20
-0.811689
  0
VERTEX
  8
PLAN_1
 62
     2
  6
CONTINUOUS
 10
-0.410921
 20
-0.807063
  0
VERTEX
  8
PLAN_1
 62
     2
  6
CONTINUOUS
 10
-0.408350
 20
-0.802437
  0
VERTEX
  8
PLAN_1
 62
     2
  6
CONTINUOUS
 10
-0.406807
 20
-0.800898
  0
VERTEX
  8
PLAN_1
 62
     2
  6
CONTINUOUS
 10
-0.404752
 20
-0.798839
  0
VERTEX
  8
PLAN_1
 62
     2
  6
CONTINUOUS
 10
-0.402697
 20
-0.797299
  0
VERTEX
  8
PLAN_1
 62
     2
  6
CONTINUOUS
 10
-0.400642
 20
-0.796272
  0
VERTEX
  8
PLAN_1
 62
     2
  6
CONTINUOUS
 10
-0.398071
 20
-0.795240
  0
VERTEX
  8
PLAN_1
 62
     2
  6
CONTINUOUS
 10
-0.395500
 20
-0.794213
  0
VERTEX
  8
PLAN_1
 62
     2
  6
CONTINUOUS
 10
-0.392417
 20
-0.793701
  0
VERTEX
  8
PLAN_1
 62
     2
  6
CONTINUOUS
 10
-0.389331
 20
-0.793701
  0
SEQEND
  8
0
  0
POLYLINE
  8
PLAN_1
 62
     2
  6
CONTINUOUS
 66
     1
 40
0.003000
 41
0.003000
  0
VERTEX
  8
PLAN_1
 62
     2
  6
CONTINUOUS
 10
-0.389331
 20
-0.843043
  0
VERTEX
  8
PLAN_1
 62
     2
  6
CONTINUOUS
 10
-0.386764
 20
-0.843043
  0
VERTEX
  8
PLAN_1
 62
     2
  6
CONTINUOUS
 10
-0.384705
 20
-0.842531
  0
VERTEX
  8
PLAN_1
 62
     2
  6
CONTINUOUS
 10
-0.383165
 20
-0.842016
  0
VERTEX
  8
PLAN_1
 62
     2
  6
CONTINUOUS
 10
-0.381106
 20
-0.840988
  0
VERTEX
  8
PLAN_1
 62
     2
  6
CONTINUOUS
 10
-0.378539
 20
-0.838417
  0
VERTEX
  8
PLAN_1
 62
     2
  6
CONTINUOUS
 10
-0.376480
 20
-0.835335
  0
VERTEX
  8
PLAN_1
 62
     2
  6
CONTINUOUS
 10
-0.374941
 20
-0.832248
  0
VERTEX
  8
PLAN_1
 62
     2
  6
CONTINUOUS
 10
-0.373913
 20
-0.828654
  0
VERTEX
  8
PLAN_1
 62
     2
  6
CONTINUOUS
 10
-0.373398
 20
-0.825055
  0
VERTEX
  8
PLAN_1
 62
     2
  6
CONTINUOUS
 10
-0.373398
 20
-0.822484
  0
VERTEX
  8
PLAN_1
 62
     2
  6
CONTINUOUS
 10
-0.373398
 20
-0.819402
  0
VERTEX
  8
PLAN_1
 62
     2
  6
CONTINUOUS
 10
-0.373913
 20
-0.815803
  0
VERTEX
  8
PLAN_1
 62
     2
  6
CONTINUOUS
 10
-0.374941
 20
-0.812717
  0
VERTEX
  8
PLAN_1
 62
     2
  6
CONTINUOUS
 10
-0.376480
 20
-0.809118
  0
VERTEX
  8
PLAN_1
 62
     2
  6
CONTINUOUS
 10
-0.378539
 20
-0.806035
  0
VERTEX
  8
PLAN_1
 62
     2
  6
CONTINUOUS
 10
-0.381106
 20
-0.803465
  0
VERTEX
  8
PLAN_1
 62
     2
  6
CONTINUOUS
 10
-0.383165
 20
-0.802953
  0
VERTEX
  8
PLAN_1
 62
     2
  6
CONTINUOUS
 10
-0.384705
 20
-0.801925
  0
VERTEX
  8
PLAN_1
 62
     2
  6
CONTINUOUS
 10
-0.386764
 20
-0.801409
  0
VERTEX
  8
PLAN_1
 62
     2
  6
CONTINUOUS
 10
-0.389331
 20
-0.801409
  0
VERTEX
  8
PLAN_1
 62
     2
  6
CONTINUOUS
 10
-0.391390
 20
-0.801409
  0
VERTEX
  8
PLAN_1
 62
     2
  6
CONTINUOUS
 10
-0.393445
 20
-0.801925
  0
VERTEX
  8
PLAN_1
 62
     2
  6
CONTINUOUS
 10
-0.395500
 20
-0.802953
  0
VERTEX
  8
PLAN_1
 62
     2
  6
CONTINUOUS
 10
-0.397043
 20
-0.803465
  0
VERTEX
  8
PLAN_1
 62
     2
  6
CONTINUOUS
 10
-0.400126
 20
-0.806035
  0
VERTEX
  8
PLAN_1
 62
     2
  6
CONTINUOUS
 10
-0.402181
 20
-0.809118
  0
VERTEX
  8
PLAN_1
 62
     2
  6
CONTINUOUS
 10
-0.403724
 20
-0.812717
  0
VERTEX
  8
PLAN_1
 62
     2
  6
CONTINUOUS
 10
-0.404236
 20
-0.815803
  0
VERTEX
  8
PLAN_1
 62
     2
  6
CONTINUOUS
 10
-0.404752
 20
-0.819402
  0
VERTEX
  8
PLAN_1
 62
     2
  6
CONTINUOUS
 10
-0.405268
 20
-0.822484
  0
VERTEX
  8
PLAN_1
 62
     2
  6
CONTINUOUS
 10
-0.404752
 20
-0.825055
  0
VERTEX
  8
PLAN_1
 62
     2
  6
CONTINUOUS
 10
-0.404236
 20
-0.828654
  0
VERTEX
  8
PLAN_1
 62
     2
  6
CONTINUOUS
 10
-0.403724
 20
-0.832248
  0
VERTEX
  8
PLAN_1
 62
     2
  6
CONTINUOUS
 10
-0.402181
 20
-0.835335
  0
VERTEX
  8
PLAN_1
 62
     2
  6
CONTINUOUS
 10
-0.400126
 20
-0.838417
  0
VERTEX
  8
PLAN_1
 62
     2
  6
CONTINUOUS
 10
-0.397043
 20
-0.840988
  0
VERTEX
  8
PLAN_1
 62
     2
  6
CONTINUOUS
 10
-0.395500
 20
-0.842016
  0
VERTEX
  8
PLAN_1
 62
     2
  6
CONTINUOUS
 10
-0.393445
 20
-0.842531
  0
VERTEX
  8
PLAN_1
 62
     2
  6
CONTINUOUS
 10
-0.391390
 20
-0.843043
  0
VERTEX
  8
PLAN_1
 62
     2
  6
CONTINUOUS
 10
-0.389331
 20
-0.843043
  0
SEQEND
  8
0
  0
POLYLINE
  8
PLAN_1
 62
     2
  6
CONTINUOUS
 66
     1
 40
0.003000
 41
0.003000
  0
VERTEX
  8
PLAN_1
 62
     2
  6
CONTINUOUS
 10
-0.317886
 20
-0.849724
  0
VERTEX
  8
PLAN_1
 62
     2
  6
CONTINUOUS
 10
-0.317886
 20
-0.841504
  0
VERTEX
  8
PLAN_1
 62
     2
  6
CONTINUOUS
 10
-0.318402
 20
-0.841504
  0
VERTEX
  8
PLAN_1
 62
     2
  6
CONTINUOUS
 10
-0.319941
 20
-0.843559
  0
VERTEX
  8
PLAN_1
 62
     2
  6
CONTINUOUS
 10
-0.321484
 20
-0.845614
  0
VERTEX
  8
PLAN_1
 62
     2
  6
CONTINUOUS
 10
-0.323028
 20
-0.847157
  0
VERTEX
  8
PLAN_1
 62
     2
  6
CONTINUOUS
 10
-0.325083
 20
-0.848697
  0
VERTEX
  8
PLAN_1
 62
     2
  6
CONTINUOUS
 10
-0.327138
 20
-0.849724
  0
VERTEX
  8
PLAN_1
 62
     2
  6
CONTINUOUS
 10
-0.329709
 20
-0.850240
  0
VERTEX
  8
PLAN_1
 62
     2
  6
CONTINUOUS
 10
-0.332280
 20
-0.850756
  0
VERTEX
  8
PLAN_1
 62
     2
  6
CONTINUOUS
 10
-0.335362
 20
-0.851268
  0
VERTEX
  8
PLAN_1
 62
     2
  6
CONTINUOUS
 10
-0.338445
 20
-0.850756
  0
VERTEX
  8
PLAN_1
 62
     2
  6
CONTINUOUS
 10
-0.341531
 20
-0.850240
  0
VERTEX
  8
PLAN_1
 62
     2
  6
CONTINUOUS
 10
-0.344614
 20
-0.849213
  0
VERTEX
  8
PLAN_1
 62
     2
  6
CONTINUOUS
 10
-0.347185
 20
-0.847669
  0
VERTEX
  8
PLAN_1
 62
     2
  6
CONTINUOUS
 10
-0.349756
 20
-0.845098
  0
VERTEX
  8
PLAN_1
 62
     2
  6
CONTINUOUS
 10
-0.351811
 20
-0.842531
  0
VERTEX
  8
PLAN_1
 62
     2
  6
CONTINUOUS
 10
-0.352839
 20
-0.838933
  0
VERTEX
  8
PLAN_1
 62
     2
  6
CONTINUOUS
 10
-0.353350
 20
-0.834307
  0
VERTEX
  8
PLAN_1
 62
     2
  6
CONTINUOUS
 10
-0.353350
 20
-0.795240
  0
VERTEX
  8
PLAN_1
 62
     2
  6
CONTINUOUS
 10
-0.344098
 20
-0.795240
  0
VERTEX
  8
PLAN_1
 62
     2
  6
CONTINUOUS
 10
-0.344098
 20
-0.831220
  0
VERTEX
  8
PLAN_1
 62
     2
  6
CONTINUOUS
 10
-0.343587
 20
-0.834307
  0
VERTEX
  8
PLAN_1
 62
     2
  6
CONTINUOUS
 10
-0.343071
 20
-0.836878
  0
VERTEX
  8
PLAN_1
 62
     2
  6
CONTINUOUS
 10
-0.342043
 20
-0.838933
  0
VERTEX
  8
PLAN_1
 62
     2
  6
CONTINUOUS
 10
-0.341016
 20
-0.840472
  0
VERTEX
  8
PLAN_1
 62
     2
  6
CONTINUOUS
 10
-0.339472
 20
-0.842016
  0
VERTEX
  8
PLAN_1
 62
     2
  6
CONTINUOUS
 10
-0.337933
 20
-0.842531
  0
VERTEX
  8
PLAN_1
 62
     2
  6
CONTINUOUS
 10
-0.335878
 20
-0.843043
  0
VERTEX
  8
PLAN_1
 62
     2
  6
CONTINUOUS
 10
-0.333307
 20
-0.843043
  0
VERTEX
  8
PLAN_1
 62
     2
  6
CONTINUOUS
 10
-0.329709
 20
-0.842531
  0
VERTEX
  8
PLAN_1
 62
     2
  6
CONTINUOUS
 10
-0.326110
 20
-0.841504
  0
VERTEX
  8
PLAN_1
 62
     2
  6
CONTINUOUS
 10
-0.323539
 20
-0.839445
  0
VERTEX
  8
PLAN_1
 62
     2
  6
CONTINUOUS
 10
-0.321484
 20
-0.836878
  0
VERTEX
  8
PLAN_1
 62
     2
  6
CONTINUOUS
 10
-0.320457
 20
-0.834307
  0
VERTEX
  8
PLAN_1
 62
     2
  6
CONTINUOUS
 10
-0.319429
 20
-0.831220
  0
VERTEX
  8
PLAN_1
 62
     2
  6
CONTINUOUS
 10
-0.318913
 20
-0.828138
  0
VERTEX
  8
PLAN_1
 62
     2
  6
CONTINUOUS
 10
-0.318402
 20
-0.825055
  0
VERTEX
  8
PLAN_1
 62
     2
  6
CONTINUOUS
 10
-0.318402
 20
-0.795240
  0
VERTEX
  8
PLAN_1
 62
     2
  6
CONTINUOUS
 10
-0.309150
 20
-0.795240
  0
VERTEX
  8
PLAN_1
 62
     2
  6
CONTINUOUS
 10
-0.309150
 20
-0.849724
  0
VERTEX
  8
PLAN_1
 62
     2
  6
CONTINUOUS
 10
-0.317886
 20
-0.849724
  0
SEQEND
  8
0
  0
POLYLINE
  8
PLAN_1
 62
     2
  6
CONTINUOUS
 66
     1
 40
0.003000
 41
0.003000
  0
VERTEX
  8
PLAN_1
 62
     2
  6
CONTINUOUS
 10
-0.284988
 20
-0.849724
  0
VERTEX
  8
PLAN_1
 62
     2
  6
CONTINUOUS
 10
-0.294240
 20
-0.849724
  0
VERTEX
  8
PLAN_1
 62
     2
  6
CONTINUOUS
 10
-0.294240
 20
-0.795240
  0
VERTEX
  8
PLAN_1
 62
     2
  6
CONTINUOUS
 10
-0.285504
 20
-0.795240
  0
VERTEX
  8
PLAN_1
 62
     2
  6
CONTINUOUS
 10
-0.285504
 20
-0.803980
  0
VERTEX
  8
PLAN_1
 62
     2
  6
CONTINUOUS
 10
-0.283961
 20
-0.801925
  0
VERTEX
  8
PLAN_1
 62
     2
  6
CONTINUOUS
 10
-0.282421
 20
-0.799866
  0
VERTEX
  8
PLAN_1
 62
     2
  6
CONTINUOUS
 10
-0.280878
 20
-0.797811
  0
VERTEX
  8
PLAN_1
 62
     2
  6
CONTINUOUS
 10
-0.279335
 20
-0.796272
  0
VERTEX
  8
PLAN_1
 62
     2
  6
CONTINUOUS
 10
-0.277280
 20
-0.795240
  0
VERTEX
  8
PLAN_1
 62
     2
  6
CONTINUOUS
 10
-0.275224
 20
-0.794213
  0
VERTEX
  8
PLAN_1
 62
     2
  6
CONTINUOUS
 10
-0.272654
 20
-0.793701
  0
VERTEX
  8
PLAN_1
 62
     2
  6
CONTINUOUS
 10
-0.270083
 20
-0.793701
  0
VERTEX
  8
PLAN_1
 62
     2
  6
CONTINUOUS
 10
-0.269571
 20
-0.793701
  0
VERTEX
  8
PLAN_1
 62
     2
  6
CONTINUOUS
 10
-0.269055
 20
-0.793701
  0
VERTEX
  8
PLAN_1
 62
     2
  6
CONTINUOUS
 10
-0.268543
 20
-0.793701
  0
VERTEX
  8
PLAN_1
 62
     2
  6
CONTINUOUS
 10
-0.268028
 20
-0.793701
  0
VERTEX
  8
PLAN_1
 62
     2
  6
CONTINUOUS
 10
-0.268028
 20
-0.803465
  0
VERTEX
  8
PLAN_1
 62
     2
  6
CONTINUOUS
 10
-0.271110
 20
-0.803465
  0
VERTEX
  8
PLAN_1
 62
     2
  6
CONTINUOUS
 10
-0.274197
 20
-0.803465
  0
VERTEX
  8
PLAN_1
 62
     2
  6
CONTINUOUS
 10
-0.277280
 20
-0.804492
  0
VERTEX
  8
PLAN_1
 62
     2
  6
CONTINUOUS
 10
-0.279335
 20
-0.806035
  0
VERTEX
  8
PLAN_1
 62
     2
  6
CONTINUOUS
 10
-0.281394
 20
-0.807579
  0
VERTEX
  8
PLAN_1
 62
     2
  6
CONTINUOUS
 10
-0.282933
 20
-0.809634
  0
VERTEX
  8
PLAN_1
 62
     2
  6
CONTINUOUS
 10
-0.284476
 20
-0.812205
  0
VERTEX
  8
PLAN_1
 62
     2
  6
CONTINUOUS
 10
-0.284988
 20
-0.814776
  0
VERTEX
  8
PLAN_1
 62
     2
  6
CONTINUOUS
 10
-0.284988
 20
-0.817858
  0
VERTEX
  8
PLAN_1
 62
     2
  6
CONTINUOUS
 10
-0.284988
 20
-0.849724
  0
SEQEND
  8
0
  0
POLYLINE
  8
PLAN_1
 62
     2
  6
CONTINUOUS
 66
     1
 40
0.003000
 41
0.003000
  0
VERTEX
  8
PLAN_1
 62
     2
  6
CONTINUOUS
 10
-0.232563
 20
-0.795240
  0
VERTEX
  8
PLAN_1
 62
     2
  6
CONTINUOUS
 10
-0.224339
 20
-0.795240
  0
VERTEX
  8
PLAN_1
 62
     2
  6
CONTINUOUS
 10
-0.224339
 20
-0.802953
  0
VERTEX
  8
PLAN_1
 62
     2
  6
CONTINUOUS
 10
-0.223823
 20
-0.802953
  0
VERTEX
  8
PLAN_1
 62
     2
  6
CONTINUOUS
 10
-0.222795
 20
-0.801409
  0
VERTEX
  8
PLAN_1
 62
     2
  6
CONTINUOUS
 10
-0.221768
 20
-0.799866
  0
VERTEX
  8
PLAN_1
 62
     2
  6
CONTINUOUS
 10
-0.220224
 20
-0.798327
  0
VERTEX
  8
PLAN_1
 62
     2
  6
CONTINUOUS
 10
-0.218685
 20
-0.796783
  0
VERTEX
  8
PLAN_1
 62
     2
  6
CONTINUOUS
 10
-0.216630
 20
-0.795756
  0
VERTEX
  8
PLAN_1
 62
     2
  6
CONTINUOUS
 10
-0.214059
 20
-0.794728
  0
VERTEX
  8
PLAN_1
 62
     2
  6
CONTINUOUS
 10
-0.210972
 20
-0.793701
  0
VERTEX
  8
PLAN_1
 62
     2
  6
CONTINUOUS
 10
-0.207890
 20
-0.793701
  0
VERTEX
  8
PLAN_1
 62
     2
  6
CONTINUOUS
 10
-0.204807
 20
-0.793701
  0
VERTEX
  8
PLAN_1
 62
     2
  6
CONTINUOUS
 10
-0.202752
 20
-0.794213
  0
VERTEX
  8
PLAN_1
 62
     2
  6
CONTINUOUS
 10
-0.200181
 20
-0.794728
  0
VERTEX
  8
PLAN_1
 62
     2
  6
CONTINUOUS
 10
-0.198122
 20
-0.795756
  0
VERTEX
  8
PLAN_1
 62
     2
  6
CONTINUOUS
 10
-0.196067
 20
-0.796783
  0
VERTEX
  8
PLAN_1
 62
     2
  6
CONTINUOUS
 10
-0.194012
 20
-0.798327
  0
VERTEX
  8
PLAN_1
 62
     2
  6
CONTINUOUS
 10
-0.192469
 20
-0.799866
  0
VERTEX
  8
PLAN_1
 62
     2
  6
CONTINUOUS
 10
-0.190929
 20
-0.801409
  0
VERTEX
  8
PLAN_1
 62
     2
  6
CONTINUOUS
 10
-0.188358
 20
-0.805524
  0
VERTEX
  8
PLAN_1
 62
     2
  6
CONTINUOUS
 10
-0.186303
 20
-0.810150
  0
VERTEX
  8
PLAN_1
 62
     2
  6
CONTINUOUS
 10
-0.185276
 20
-0.815287
  0
VERTEX
  8
PLAN_1
 62
     2
  6
CONTINUOUS
 10
-0.184760
 20
-0.820941
  0
VERTEX
  8
PLAN_1
 62
     2
  6
CONTINUOUS
 10
-0.185276
 20
-0.825567
  0
VERTEX
  8
PLAN_1
 62
     2
  6
CONTINUOUS
 10
-0.186303
 20
-0.830709
  0
VERTEX
  8
PLAN_1
 62
     2
  6
CONTINUOUS
 10
-0.187843
 20
-0.835846
  0
VERTEX
  8
PLAN_1
 62
     2
  6
CONTINUOUS
 10
-0.189902
 20
-0.840988
  0
VERTEX
  8
PLAN_1
 62
     2
  6
CONTINUOUS
 10
-0.191441
 20
-0.843043
  0
VERTEX
  8
PLAN_1
 62
     2
  6
CONTINUOUS
 10
-0.192984
 20
-0.845098
  0
VERTEX
  8
PLAN_1
 62
     2
  6
CONTINUOUS
 10
-0.195039
 20
-0.846642
  0
VERTEX
  8
PLAN_1
 62
     2
  6
CONTINUOUS
 10
-0.197610
 20
-0.848185
  0
VERTEX
  8
PLAN_1
 62
     2
  6
CONTINUOUS
 10
-0.199665
 20
-0.849213
  0
VERTEX
  8
PLAN_1
 62
     2
  6
CONTINUOUS
 10
-0.202752
 20
-0.850240
  0
VERTEX
  8
PLAN_1
 62
     2
  6
CONTINUOUS
 10
-0.205835
 20
-0.850756
  0
VERTEX
  8
PLAN_1
 62
     2
  6
CONTINUOUS
 10
-0.208917
 20
-0.851268
  0
VERTEX
  8
PLAN_1
 62
     2
  6
CONTINUOUS
 10
-0.211488
 20
-0.850756
  0
VERTEX
  8
PLAN_1
 62
     2
  6
CONTINUOUS
 10
-0.214059
 20
-0.850756
  0
VERTEX
  8
PLAN_1
 62
     2
  6
CONTINUOUS
 10
-0.216114
 20
-0.849724
  0
VERTEX
  8
PLAN_1
 62
     2
  6
CONTINUOUS
 10
-0.218169
 20
-0.848697
  0
VERTEX
  8
PLAN_1
 62
     2
  6
CONTINUOUS
 10
-0.219713
 20
-0.847669
  0
VERTEX
  8
PLAN_1
 62
     2
  6
CONTINUOUS
 10
-0.221256
 20
-0.846642
  0
VERTEX
  8
PLAN_1
 62
     2
  6
CONTINUOUS
 10
-0.222283
 20
-0.845098
  0
VERTEX
  8
PLAN_1
 62
     2
  6
CONTINUOUS
 10
-0.223311
 20
-0.844071
  0
VERTEX
  8
PLAN_1
 62
     2
  6
CONTINUOUS
 10
-0.223823
 20
-0.844071
  0
VERTEX
  8
PLAN_1
 62
     2
  6
CONTINUOUS
 10
-0.223823
 20
-0.871315
  0
VERTEX
  8
PLAN_1
 62
     2
  6
CONTINUOUS
 10
-0.232563
 20
-0.871315
  0
VERTEX
  8
PLAN_1
 62
     2
  6
CONTINUOUS
 10
-0.232563
 20
-0.795240
  0
SEQEND
  8
0
  0
POLYLINE
  8
PLAN_1
 62
     2
  6
CONTINUOUS
 66
     1
 40
0.003000
 41
0.003000
  0
VERTEX
  8
PLAN_1
 62
     2
  6
CONTINUOUS
 10
-0.208917
 20
-0.843043
  0
VERTEX
  8
PLAN_1
 62
     2
  6
CONTINUOUS
 10
-0.205835
 20
-0.843043
  0
VERTEX
  8
PLAN_1
 62
     2
  6
CONTINUOUS
 10
-0.202752
 20
-0.841504
  0
VERTEX
  8
PLAN_1
 62
     2
  6
CONTINUOUS
 10
-0.200181
 20
-0.839961
  0
VERTEX
  8
PLAN_1
 62
     2
  6
CONTINUOUS
 10
-0.198122
 20
-0.837390
  0
VERTEX
  8
PLAN_1
 62
     2
  6
CONTINUOUS
 10
-0.196583
 20
-0.834307
  0
VERTEX
  8
PLAN_1
 62
     2
  6
CONTINUOUS
 10
-0.195555
 20
-0.830709
  0
VERTEX
  8
PLAN_1
 62
     2
  6
CONTINUOUS
 10
-0.194528
 20
-0.826594
  0
VERTEX
  8
PLAN_1
 62
     2
  6
CONTINUOUS
 10
-0.194528
 20
-0.821969
  0
VERTEX
  8
PLAN_1
 62
     2
  6
CONTINUOUS
 10
-0.194528
 20
-0.819402
  0
VERTEX
  8
PLAN_1
 62
     2
  6
CONTINUOUS
 10
-0.195039
 20
-0.815803
  0
VERTEX
  8
PLAN_1
 62
     2
  6
CONTINUOUS
 10
-0.195555
 20
-0.812717
  0
VERTEX
  8
PLAN_1
 62
     2
  6
CONTINUOUS
 10
-0.196583
 20
-0.809118
  0
VERTEX
  8
PLAN_1
 62
     2
  6
CONTINUOUS
 10
-0.198638
 20
-0.806551
  0
VERTEX
  8
PLAN_1
 62
     2
  6
CONTINUOUS
 10
-0.201209
 20
-0.803980
  0
VERTEX
  8
PLAN_1
 62
     2
  6
CONTINUOUS
 10
-0.202752
 20
-0.802953
  0
VERTEX
  8
PLAN_1
 62
     2
  6
CONTINUOUS
 10
-0.204807
 20
-0.802437
  0
VERTEX
  8
PLAN_1
 62
     2
  6
CONTINUOUS
 10
-0.206862
 20
-0.801925
  0
VERTEX
  8
PLAN_1
 62
     2
  6
CONTINUOUS
 10
-0.209433
 20
-0.801925
  0
VERTEX
  8
PLAN_1
 62
     2
  6
CONTINUOUS
 10
-0.211488
 20
-0.801925
  0
VERTEX
  8
PLAN_1
 62
     2
  6
CONTINUOUS
 10
-0.213543
 20
-0.802437
  0
VERTEX
  8
PLAN_1
 62
     2
  6
CONTINUOUS
 10
-0.215598
 20
-0.802953
  0
VERTEX
  8
PLAN_1
 62
     2
  6
CONTINUOUS
 10
-0.217142
 20
-0.803980
  0
VERTEX
  8
PLAN_1
 62
     2
  6
CONTINUOUS
 10
-0.219713
 20
-0.806551
  0
VERTEX
  8
PLAN_1
 62
     2
  6
CONTINUOUS
 10
-0.221768
 20
-0.810150
  0
VERTEX
  8
PLAN_1
 62
     2
  6
CONTINUOUS
 10
-0.222795
 20
-0.813744
  0
VERTEX
  8
PLAN_1
 62
     2
  6
CONTINUOUS
 10
-0.223823
 20
-0.817343
  0
VERTEX
  8
PLAN_1
 62
     2
  6
CONTINUOUS
 10
-0.223823
 20
-0.821457
  0
VERTEX
  8
PLAN_1
 62
     2
  6
CONTINUOUS
 10
-0.223823
 20
-0.825055
  0
VERTEX
  8
PLAN_1
 62
     2
  6
CONTINUOUS
 10
-0.223823
 20
-0.829681
  0
VERTEX
  8
PLAN_1
 62
     2
  6
CONTINUOUS
 10
-0.222283
 20
-0.833791
  0
VERTEX
  8
PLAN_1
 62
     2
  6
CONTINUOUS
 10
-0.220740
 20
-0.836878
  0
VERTEX
  8
PLAN_1
 62
     2
  6
CONTINUOUS
 10
-0.218685
 20
-0.839445
  0
VERTEX
  8
PLAN_1
 62
     2
  6
CONTINUOUS
 10
-0.216630
 20
-0.840988
  0
VERTEX
  8
PLAN_1
 62
     2
  6
CONTINUOUS
 10
-0.214059
 20
-0.842531
  0
VERTEX
  8
PLAN_1
 62
     2
  6
CONTINUOUS
 10
-0.211488
 20
-0.843043
  0
VERTEX
  8
PLAN_1
 62
     2
  6
CONTINUOUS
 10
-0.208917
 20
-0.843043
  0
SEQEND
  8
0
  0
POLYLINE
  8
PLAN_1
 62
     2
  6
CONTINUOUS
 66
     1
 40
0.003000
 41
0.003000
  0
VERTEX
  8
PLAN_1
 62
     2
  6
CONTINUOUS
 10
-0.163685
 20
-0.849724
  0
VERTEX
  8
PLAN_1
 62
     2
  6
CONTINUOUS
 10
-0.172937
 20
-0.849724
  0
VERTEX
  8
PLAN_1
 62
     2
  6
CONTINUOUS
 10
-0.172937
 20
-0.795240
  0
VERTEX
  8
PLAN_1
 62
     2
  6
CONTINUOUS
 10
-0.164201
 20
-0.795240
  0
VERTEX
  8
PLAN_1
 62
     2
  6
CONTINUOUS
 10
-0.164201
 20
-0.803980
  0
VERTEX
  8
PLAN_1
 62
     2
  6
CONTINUOUS
 10
-0.162657
 20
-0.801925
  0
VERTEX
  8
PLAN_1
 62
     2
  6
CONTINUOUS
 10
-0.161114
 20
-0.799866
  0
VERTEX
  8
PLAN_1
 62
     2
  6
CONTINUOUS
 10
-0.159575
 20
-0.797811
  0
VERTEX
  8
PLAN_1
 62
     2
  6
CONTINUOUS
 10
-0.157520
 20
-0.796272
  0
VERTEX
  8
PLAN_1
 62
     2
  6
CONTINUOUS
 10
-0.155461
 20
-0.795240
  0
VERTEX
  8
PLAN_1
 62
     2
  6
CONTINUOUS
 10
-0.153406
 20
-0.794213
  0
VERTEX
  8
PLAN_1
 62
     2
  6
CONTINUOUS
 10
-0.151350
 20
-0.793701
  0
VERTEX
  8
PLAN_1
 62
     2
  6
CONTINUOUS
 10
-0.148780
 20
-0.793701
  0
VERTEX
  8
PLAN_1
 62
     2
  6
CONTINUOUS
 10
-0.148268
 20
-0.793701
  0
VERTEX
  8
PLAN_1
 62
     2
  6
CONTINUOUS
 10
-0.147752
 20
-0.793701
  0
VERTEX
  8
PLAN_1
 62
     2
  6
CONTINUOUS
 10
-0.147236
 20
-0.793701
  0
VERTEX
  8
PLAN_1
 62
     2
  6
CONTINUOUS
 10
-0.146724
 20
-0.793701
  0
VERTEX
  8
PLAN_1
 62
     2
  6
CONTINUOUS
 10
-0.146209
 20
-0.793701
  0
VERTEX
  8
PLAN_1
 62
     2
  6
CONTINUOUS
 10
-0.146209
 20
-0.803465
  0
VERTEX
  8
PLAN_1
 62
     2
  6
CONTINUOUS
 10
-0.149807
 20
-0.803465
  0
VERTEX
  8
PLAN_1
 62
     2
  6
CONTINUOUS
 10
-0.152894
 20
-0.803465
  0
VERTEX
  8
PLAN_1
 62
     2
  6
CONTINUOUS
 10
-0.155461
 20
-0.804492
  0
VERTEX
  8
PLAN_1
 62
     2
  6
CONTINUOUS
 10
-0.158031
 20
-0.806035
  0
VERTEX
  8
PLAN_1
 62
     2
  6
CONTINUOUS
 10
-0.160087
 20
-0.807579
  0
VERTEX
  8
PLAN_1
 62
     2
  6
CONTINUOUS
 10
-0.161630
 20
-0.809634
  0
VERTEX
  8
PLAN_1
 62
     2
  6
CONTINUOUS
 10
-0.162657
 20
-0.812205
  0
VERTEX
  8
PLAN_1
 62
     2
  6
CONTINUOUS
 10
-0.163685
 20
-0.814776
  0
VERTEX
  8
PLAN_1
 62
     2
  6
CONTINUOUS
 10
-0.163685
 20
-0.817858
  0
VERTEX
  8
PLAN_1
 62
     2
  6
CONTINUOUS
 10
-0.163685
 20
-0.849724
  0
SEQEND
  8
0
  0
POLYLINE
  8
PLAN_1
 62
     2
  6
CONTINUOUS
 66
     1
 40
0.003000
 41
0.003000
  0
VERTEX
  8
PLAN_1
 62
     2
  6
CONTINUOUS
 10
-0.093268
 20
-0.832248
  0
VERTEX
  8
PLAN_1
 62
     2
  6
CONTINUOUS
 10
-0.093268
 20
-0.833791
  0
VERTEX
  8
PLAN_1
 62
     2
  6
CONTINUOUS
 10
-0.093783
 20
-0.835335
  0
VERTEX
  8
PLAN_1
 62
     2
  6
CONTINUOUS
 10
-0.094811
 20
-0.836878
  0
VERTEX
  8
PLAN_1
 62
     2
  6
CONTINUOUS
 10
-0.095839
 20
-0.838933
  0
VERTEX
  8
PLAN_1
 62
     2
  6
CONTINUOUS
 10
-0.096866
 20
-0.841504
  0
VERTEX
  8
PLAN_1
 62
     2
  6
CONTINUOUS
 10
-0.098409
 20
-0.843559
  0
VERTEX
  8
PLAN_1
 62
     2
  6
CONTINUOUS
 10
-0.100465
 20
-0.845614
  0
VERTEX
  8
PLAN_1
 62
     2
  6
CONTINUOUS
 10
-0.103035
 20
-0.847157
  0
VERTEX
  8
PLAN_1
 62
     2
  6
CONTINUOUS
 10
-0.104063
 20
-0.848185
  0
VERTEX
  8
PLAN_1
 62
     2
  6
CONTINUOUS
 10
-0.105091
 20
-0.848697
  0
VERTEX
  8
PLAN_1
 62
     2
  6
CONTINUOUS
 10
-0.106634
 20
-0.849213
  0
VERTEX
  8
PLAN_1
 62
     2
  6
CONTINUOUS
 10
-0.108173
 20
-0.849724
  0
VERTEX
  8
PLAN_1
 62
     2
  6
CONTINUOUS
 10
-0.109717
 20
-0.850240
  0
VERTEX
  8
PLAN_1
 62
     2
  6
CONTINUOUS
 10
-0.112287
 20
-0.850756
  0
VERTEX
  8
PLAN_1
 62
     2
  6
CONTINUOUS
 10
-0.114854
 20
-0.850756
  0
VERTEX
  8
PLAN_1
 62
     2
  6
CONTINUOUS
 10
-0.117941
 20
-0.851268
  0
VERTEX
  8
PLAN_1
 62
     2
  6
CONTINUOUS
 10
-0.120512
 20
-0.850756
  0
VERTEX
  8
PLAN_1
 62
     2
  6
CONTINUOUS
 10
-0.123079
 20
-0.850756
  0
VERTEX
  8
PLAN_1
 62
     2
  6
CONTINUOUS
 10
-0.125650
 20
-0.849724
  0
VERTEX
  8
PLAN_1
 62
     2
  6
CONTINUOUS
 10
-0.128220
 20
-0.849213
  0
VERTEX
  8
PLAN_1
 62
     2
  6
CONTINUOUS
 10
-0.130276
 20
-0.848185
  0
VERTEX
  8
PLAN_1
 62
     2
  6
CONTINUOUS
 10
-0.132331
 20
-0.846642
  0
VERTEX
  8
PLAN_1
 62
     2
  6
CONTINUOUS
 10
-0.133874
 20
-0.845098
  0
VERTEX
  8
PLAN_1
 62
     2
  6
CONTINUOUS
 10
-0.135417
 20
-0.843559
  0
VERTEX
  8
PLAN_1
 62
     2
  6
CONTINUOUS
 10
-0.138500
 20
-0.839445
  0
VERTEX
  8
PLAN_1
 62
     2
  6
CONTINUOUS
 10
-0.140555
 20
-0.834819
  0
VERTEX
  8
PLAN_1
 62
     2
  6
CONTINUOUS
 10
-0.141583
 20
-0.829681
  0
VERTEX
  8
PLAN_1
 62
     2
  6
CONTINUOUS
 10
-0.142098
 20
-0.824028
  0
VERTEX
  8
PLAN_1
 62
     2
  6
CONTINUOUS
 10
-0.141583
 20
-0.817858
  0
VERTEX
  8
PLAN_1
 62
     2
  6
CONTINUOUS
 10
-0.140555
 20
-0.812205
  0
VERTEX
  8
PLAN_1
 62
     2
  6
CONTINUOUS
 10
-0.139528
 20
-0.809118
  0
VERTEX
  8
PLAN_1
 62
     2
  6
CONTINUOUS
 10
-0.138500
 20
-0.807063
  0
VERTEX
  8
PLAN_1
 62
     2
  6
CONTINUOUS
 10
-0.137472
 20
-0.804492
  0
VERTEX
  8
PLAN_1
 62
     2
  6
CONTINUOUS
 10
-0.135929
 20
-0.802437
  0
VERTEX
  8
PLAN_1
 62
     2
  6
CONTINUOUS
 10
-0.133874
 20
-0.800382
  0
VERTEX
  8
PLAN_1
 62
     2
  6
CONTINUOUS
 10
-0.132331
 20
-0.798839
  0
VERTEX
  8
PLAN_1
 62
     2
  6
CONTINUOUS
 10
-0.129764
 20
-0.797299
  0
VERTEX
  8
PLAN_1
 62
     2
  6
CONTINUOUS
 10
-0.127705
 20
-0.795756
  0
VERTEX
  8
PLAN_1
 62
     2
  6
CONTINUOUS
 10
-0.125138
 20
-0.794728
  0
VERTEX
  8
PLAN_1
 62
     2
  6
CONTINUOUS
 10
-0.122051
 20
-0.794213
  0
VERTEX
  8
PLAN_1
 62
     2
  6
CONTINUOUS
 10
-0.118969
 20
-0.793701
  0
VERTEX
  8
PLAN_1
 62
     2
  6
CONTINUOUS
 10
-0.115886
 20
-0.793701
  0
VERTEX
  8
PLAN_1
 62
     2
  6
CONTINUOUS
 10
-0.113315
 20
-0.793701
  0
VERTEX
  8
PLAN_1
 62
     2
  6
CONTINUOUS
 10
-0.110228
 20
-0.794213
  0
VERTEX
  8
PLAN_1
 62
     2
  6
CONTINUOUS
 10
-0.108173
 20
-0.794728
  0
VERTEX
  8
PLAN_1
 62
     2
  6
CONTINUOUS
 10
-0.105602
 20
-0.795756
  0
VERTEX
  8
PLAN_1
 62
     2
  6
CONTINUOUS
 10
-0.103547
 20
-0.797299
  0
VERTEX
  8
PLAN_1
 62
     2
  6
CONTINUOUS
 10
-0.101492
 20
-0.798327
  0
VERTEX
  8
PLAN_1
 62
     2
  6
CONTINUOUS
 10
-0.099949
 20
-0.800382
  0
VERTEX
  8
PLAN_1
 62
     2
  6
CONTINUOUS
 10
-0.098409
 20
-0.802437
  0
VERTEX
  8
PLAN_1
 62
     2
  6
CONTINUOUS
 10
-0.095839
 20
-0.806551
  0
VERTEX
  8
PLAN_1
 62
     2
  6
CONTINUOUS
 10
-0.093783
 20
-0.812205
  0
VERTEX
  8
PLAN_1
 62
     2
  6
CONTINUOUS
 10
-0.092756
 20
-0.818370
  0
VERTEX
  8
PLAN_1
 62
     2
  6
CONTINUOUS
 10
-0.092756
 20
-0.825055
  0
VERTEX
  8
PLAN_1
 62
     2
  6
CONTINUOUS
 10
-0.132331
 20
-0.825055
  0
VERTEX
  8
PLAN_1
 62
     2
  6
CONTINUOUS
 10
-0.131819
 20
-0.829165
  0
VERTEX
  8
PLAN_1
 62
     2
  6
CONTINUOUS
 10
-0.131303
 20
-0.832764
  0
VERTEX
  8
PLAN_1
 62
     2
  6
CONTINUOUS
 10
-0.130276
 20
-0.835846
  0
VERTEX
  8
PLAN_1
 62
     2
  6
CONTINUOUS
 10
-0.128220
 20
-0.838417
  0
VERTEX
  8
PLAN_1
 62
     2
  6
CONTINUOUS
 10
-0.126165
 20
-0.840472
  0
VERTEX
  8
PLAN_1
 62
     2
  6
CONTINUOUS
 10
-0.123594
 20
-0.842016
  0
VERTEX
  8
PLAN_1
 62
     2
  6
CONTINUOUS
 10
-0.119996
 20
-0.843043
  0
VERTEX
  8
PLAN_1
 62
     2
  6
CONTINUOUS
 10
-0.116398
 20
-0.843043
  0
VERTEX
  8
PLAN_1
 62
     2
  6
CONTINUOUS
 10
-0.113315
 20
-0.843043
  0
VERTEX
  8
PLAN_1
 62
     2
  6
CONTINUOUS
 10
-0.110744
 20
-0.842016
  0
VERTEX
  8
PLAN_1
 62
     2
  6
CONTINUOUS
 10
-0.108173
 20
-0.840988
  0
VERTEX
  8
PLAN_1
 62
     2
  6
CONTINUOUS
 10
-0.106118
 20
-0.839445
  0
VERTEX
  8
PLAN_1
 62
     2
  6
CONTINUOUS
 10
-0.104575
 20
-0.837906
  0
VERTEX
  8
PLAN_1
 62
     2
  6
CONTINUOUS
 10
-0.103547
 20
-0.835846
  0
VERTEX
  8
PLAN_1
 62
     2
  6
CONTINUOUS
 10
-0.102520
 20
-0.834307
  0
VERTEX
  8
PLAN_1
 62
     2
  6
CONTINUOUS
 10
-0.102520
 20
-0.832248
  0
VERTEX
  8
PLAN_1
 62
     2
  6
CONTINUOUS
 10
-0.093268
 20
-0.832248
  0
SEQEND
  8
0
  0
POLYLINE
  8
PLAN_1
 62
     2
  6
CONTINUOUS
 66
     1
 40
0.003000
 41
0.003000
  0
VERTEX
  8
PLAN_1
 62
     2
  6
CONTINUOUS
 10
-0.102008
 20
-0.817858
  0
VERTEX
  8
PLAN_1
 62
     2
  6
CONTINUOUS
 10
-0.102520
 20
-0.814776
  0
VERTEX
  8
PLAN_1
 62
     2
  6
CONTINUOUS
 10
-0.103035
 20
-0.811689
  0
VERTEX
  8
PLAN_1
 62
     2
  6
CONTINUOUS
 10
-0.104063
 20
-0.809118
  0
VERTEX
  8
PLAN_1
 62
     2
  6
CONTINUOUS
 10
-0.105602
 20
-0.806551
  0
VERTEX
  8
PLAN_1
 62
     2
  6
CONTINUOUS
 10
-0.107661
 20
-0.804492
  0
VERTEX
  8
PLAN_1
 62
     2
  6
CONTINUOUS
 10
-0.110228
 20
-0.802953
  0
VERTEX
  8
PLAN_1
 62
     2
  6
CONTINUOUS
 10
-0.113315
 20
-0.801925
  0
VERTEX
  8
PLAN_1
 62
     2
  6
CONTINUOUS
 10
-0.117425
 20
-0.801925
  0
VERTEX
  8
PLAN_1
 62
     2
  6
CONTINUOUS
 10
-0.120512
 20
-0.801925
  0
VERTEX
  8
PLAN_1
 62
     2
  6
CONTINUOUS
 10
-0.123079
 20
-0.802953
  0
VERTEX
  8
PLAN_1
 62
     2
  6
CONTINUOUS
 10
-0.125650
 20
-0.804492
  0
VERTEX
  8
PLAN_1
 62
     2
  6
CONTINUOUS
 10
-0.127705
 20
-0.806551
  0
VERTEX
  8
PLAN_1
 62
     2
  6
CONTINUOUS
 10
-0.129764
 20
-0.809118
  0
VERTEX
  8
PLAN_1
 62
     2
  6
CONTINUOUS
 10
-0.131303
 20
-0.811689
  0
VERTEX
  8
PLAN_1
 62
     2
  6
CONTINUOUS
 10
-0.131819
 20
-0.814776
  0
VERTEX
  8
PLAN_1
 62
     2
  6
CONTINUOUS
 10
-0.132331
 20
-0.817858
  0
VERTEX
  8
PLAN_1
 62
     2
  6
CONTINUOUS
 10
-0.102008
 20
-0.817858
  0
SEQEND
  8
0
  0
POLYLINE
  8
PLAN_1
 62
     2
  6
CONTINUOUS
 66
     1
 40
0.003000
 41
0.003000
  0
VERTEX
  8
PLAN_1
 62
     2
  6
CONTINUOUS
 10
-0.050606
 20
-0.810661
  0
VERTEX
  8
PLAN_1
 62
     2
  6
CONTINUOUS
 10
-0.050606
 20
-0.809118
  0
VERTEX
  8
PLAN_1
 62
     2
  6
CONTINUOUS
 10
-0.051118
 20
-0.807579
  0
VERTEX
  8
PLAN_1
 62
     2
  6
CONTINUOUS
 10
-0.051634
 20
-0.806035
  0
VERTEX
  8
PLAN_1
 62
     2
  6
CONTINUOUS
 10
-0.052661
 20
-0.805008
  0
VERTEX
  8
PLAN_1
 62
     2
  6
CONTINUOUS
 10
-0.054205
 20
-0.803465
  0
VERTEX
  8
PLAN_1
 62
     2
  6
CONTINUOUS
 10
-0.056776
 20
-0.802437
  0
VERTEX
  8
PLAN_1
 62
     2
  6
CONTINUOUS
 10
-0.059858
 20
-0.801925
  0
VERTEX
  8
PLAN_1
 62
     2
  6
CONTINUOUS
 10
-0.063457
 20
-0.801409
  0
VERTEX
  8
PLAN_1
 62
     2
  6
CONTINUOUS
 10
-0.064996
 20
-0.801409
  0
VERTEX
  8
PLAN_1
 62
     2
  6
CONTINUOUS
 10
-0.066539
 20
-0.801925
  0
VERTEX
  8
PLAN_1
 62
     2
  6
CONTINUOUS
 10
-0.068083
 20
-0.801925
  0
VERTEX
  8
PLAN_1
 62
     2
  6
CONTINUOUS
 10
-0.070138
 20
-0.802953
  0
VERTEX
  8
PLAN_1
 62
     2
  6
CONTINUOUS
 10
-0.071681
 20
-0.803980
  0
VERTEX
  8
PLAN_1
 62
     2
  6
CONTINUOUS
 10
-0.073220
 20
-0.805008
  0
VERTEX
  8
PLAN_1
 62
     2
  6
CONTINUOUS
 10
-0.074252
 20
-0.807063
  0
VERTEX
  8
PLAN_1
 62
     2
  6
CONTINUOUS
 10
-0.074252
 20
-0.809118
  0
VERTEX
  8
PLAN_1
 62
     2
  6
CONTINUOUS
 10
-0.074252
 20
-0.810661
  0
VERTEX
  8
PLAN_1
 62
     2
  6
CONTINUOUS
 10
-0.073736
 20
-0.812205
  0
VERTEX
  8
PLAN_1
 62
     2
  6
CONTINUOUS
 10
-0.073220
 20
-0.813232
  0
VERTEX
  8
PLAN_1
 62
     2
  6
CONTINUOUS
 10
-0.072193
 20
-0.813744
  0
VERTEX
  8
PLAN_1
 62
     2
  6
CONTINUOUS
 10
-0.070654
 20
-0.814776
  0
VERTEX
  8
PLAN_1
 62
     2
  6
CONTINUOUS
 10
-0.069110
 20
-0.815287
  0
VERTEX
  8
PLAN_1
 62
     2
  6
CONTINUOUS
 10
-0.067055
 20
-0.815803
  0
VERTEX
  8
PLAN_1
 62
     2
  6
CONTINUOUS
 10
-0.064484
 20
-0.816315
  0
VERTEX
  8
PLAN_1
 62
     2
  6
CONTINUOUS
 10
-0.055232
 20
-0.818886
  0
VERTEX
  8
PLAN_1
 62
     2
  6
CONTINUOUS
 10
-0.051634
 20
-0.819913
  0
VERTEX
  8
PLAN_1
 62
     2
  6
CONTINUOUS
 10
-0.048035
 20
-0.820941
  0
VERTEX
  8
PLAN_1
 62
     2
  6
CONTINUOUS
 10
-0.045465
 20
-0.822484
  0
VERTEX
  8
PLAN_1
 62
     2
  6
CONTINUOUS
 10
-0.043409
 20
-0.824028
  0
VERTEX
  8
PLAN_1
 62
     2
  6
CONTINUOUS
 10
-0.041866
 20
-0.826083
  0
VERTEX
  8
PLAN_1
 62
     2
  6
CONTINUOUS
 10
-0.040839
 20
-0.828138
  0
VERTEX
  8
PLAN_1
 62
     2
  6
CONTINUOUS
 10
-0.040327
 20
-0.830709
  0
VERTEX
  8
PLAN_1
 62
     2
  6
CONTINUOUS
 10
-0.039811
 20
-0.833280
  0
VERTEX
  8
PLAN_1
 62
     2
  6
CONTINUOUS
 10
-0.040327
 20
-0.836878
  0
VERTEX
  8
PLAN_1
 62
     2
  6
CONTINUOUS
 10
-0.041866
 20
-0.840472
  0
VERTEX
  8
PLAN_1
 62
     2
  6
CONTINUOUS
 10
-0.043409
 20
-0.843559
  0
VERTEX
  8
PLAN_1
 62
     2
  6
CONTINUOUS
 10
-0.045980
 20
-0.846130
  0
VERTEX
  8
PLAN_1
 62
     2
  6
CONTINUOUS
 10
-0.049579
 20
-0.848185
  0
VERTEX
  8
PLAN_1
 62
     2
  6
CONTINUOUS
 10
-0.053177
 20
-0.849724
  0
VERTEX
  8
PLAN_1
 62
     2
  6
CONTINUOUS
 10
-0.057287
 20
-0.850756
  0
VERTEX
  8
PLAN_1
 62
     2
  6
CONTINUOUS
 10
-0.061402
 20
-0.851268
  0
VERTEX
  8
PLAN_1
 62
     2
  6
CONTINUOUS
 10
-0.065512
 20
-0.850756
  0
VERTEX
  8
PLAN_1
 62
     2
  6
CONTINUOUS
 10
-0.068594
 20
-0.850756
  0
VERTEX
  8
PLAN_1
 62
     2
  6
CONTINUOUS
 10
-0.071681
 20
-0.849724
  0
VERTEX
  8
PLAN_1
 62
     2
  6
CONTINUOUS
 10
-0.074252
 20
-0.849213
  0
VERTEX
  8
PLAN_1
 62
     2
  6
CONTINUOUS
 10
-0.076307
 20
-0.848185
  0
VERTEX
  8
PLAN_1
 62
     2
  6
CONTINUOUS
 10
-0.078362
 20
-0.846642
  0
VERTEX
  8
PLAN_1
 62
     2
  6
CONTINUOUS
 10
-0.079906
 20
-0.845614
  0
VERTEX
  8
PLAN_1
 62
     2
  6
CONTINUOUS
 10
-0.081445
 20
-0.844071
  0
VERTEX
  8
PLAN_1
 62
     2
  6
CONTINUOUS
 10
-0.082988
 20
-0.840988
  0
VERTEX
  8
PLAN_1
 62
     2
  6
CONTINUOUS
 10
-0.084016
 20
-0.837906
  0
VERTEX
  8
PLAN_1
 62
     2
  6
CONTINUOUS
 10
-0.085043
 20
-0.834819
  0
VERTEX
  8
PLAN_1
 62
     2
  6
CONTINUOUS
 10
-0.085043
 20
-0.832248
  0
VERTEX
  8
PLAN_1
 62
     2
  6
CONTINUOUS
 10
-0.076307
 20
-0.832248
  0
VERTEX
  8
PLAN_1
 62
     2
  6
CONTINUOUS
 10
-0.075791
 20
-0.833791
  0
VERTEX
  8
PLAN_1
 62
     2
  6
CONTINUOUS
 10
-0.075791
 20
-0.835846
  0
VERTEX
  8
PLAN_1
 62
     2
  6
CONTINUOUS
 10
-0.074764
 20
-0.837390
  0
VERTEX
  8
PLAN_1
 62
     2
  6
CONTINUOUS
 10
-0.073736
 20
-0.839445
  0
VERTEX
  8
PLAN_1
 62
     2
  6
CONTINUOUS
 10
-0.071681
 20
-0.840988
  0
VERTEX
  8
PLAN_1
 62
     2
  6
CONTINUOUS
 10
-0.069110
 20
-0.842016
  0
VERTEX
  8
PLAN_1
 62
     2
  6
CONTINUOUS
 10
-0.066028
 20
-0.843043
  0
VERTEX
  8
PLAN_1
 62
     2
  6
CONTINUOUS
 10
-0.061913
 20
-0.843043
  0
VERTEX
  8
PLAN_1
 62
     2
  6
CONTINUOUS
 10
-0.059343
 20
-0.843043
  0
VERTEX
  8
PLAN_1
 62
     2
  6
CONTINUOUS
 10
-0.056776
 20
-0.842531
  0
VERTEX
  8
PLAN_1
 62
     2
  6
CONTINUOUS
 10
-0.054717
 20
-0.842016
  0
VERTEX
  8
PLAN_1
 62
     2
  6
CONTINUOUS
 10
-0.053177
 20
-0.840988
  0
VERTEX
  8
PLAN_1
 62
     2
  6
CONTINUOUS
 10
-0.051634
 20
-0.839961
  0
VERTEX
  8
PLAN_1
 62
     2
  6
CONTINUOUS
 10
-0.050091
 20
-0.838417
  0
VERTEX
  8
PLAN_1
 62
     2
  6
CONTINUOUS
 10
-0.049579
 20
-0.836878
  0
VERTEX
  8
PLAN_1
 62
     2
  6
CONTINUOUS
 10
-0.049063
 20
-0.834307
  0
VERTEX
  8
PLAN_1
 62
     2
  6
CONTINUOUS
 10
-0.049579
 20
-0.833280
  0
VERTEX
  8
PLAN_1
 62
     2
  6
CONTINUOUS
 10
-0.049579
 20
-0.831736
  0
VERTEX
  8
PLAN_1
 62
     2
  6
CONTINUOUS
 10
-0.050606
 20
-0.830709
  0
VERTEX
  8
PLAN_1
 62
     2
  6
CONTINUOUS
 10
-0.051634
 20
-0.829681
  0
VERTEX
  8
PLAN_1
 62
     2
  6
CONTINUOUS
 10
-0.053177
 20
-0.829165
  0
VERTEX
  8
PLAN_1
 62
     2
  6
CONTINUOUS
 10
-0.055232
 20
-0.828138
  0
VERTEX
  8
PLAN_1
 62
     2
  6
CONTINUOUS
 10
-0.057287
 20
-0.827622
  0
VERTEX
  8
PLAN_1
 62
     2
  6
CONTINUOUS
 10
-0.059858
 20
-0.826594
  0
VERTEX
  8
PLAN_1
 62
     2
  6
CONTINUOUS
 10
-0.070654
 20
-0.824028
  0
VERTEX
  8
PLAN_1
 62
     2
  6
CONTINUOUS
 10
-0.073220
 20
-0.823512
  0
VERTEX
  8
PLAN_1
 62
     2
  6
CONTINUOUS
 10
-0.075791
 20
-0.822484
  0
VERTEX
  8
PLAN_1
 62
     2
  6
CONTINUOUS
 10
-0.077846
 20
-0.820941
  0
VERTEX
  8
PLAN_1
 62
     2
  6
CONTINUOUS
 10
-0.079906
 20
-0.819402
  0
VERTEX
  8
PLAN_1
 62
     2
  6
CONTINUOUS
 10
-0.081445
 20
-0.817858
  0
VERTEX
  8
PLAN_1
 62
     2
  6
CONTINUOUS
 10
-0.082472
 20
-0.815803
  0
VERTEX
  8
PLAN_1
 62
     2
  6
CONTINUOUS
 10
-0.082988
 20
-0.813744
  0
VERTEX
  8
PLAN_1
 62
     2
  6
CONTINUOUS
 10
-0.082988
 20
-0.811177
  0
VERTEX
  8
PLAN_1
 62
     2
  6
CONTINUOUS
 10
-0.082988
 20
-0.806551
  0
VERTEX
  8
PLAN_1
 62
     2
  6
CONTINUOUS
 10
-0.081445
 20
-0.802953
  0
VERTEX
  8
PLAN_1
 62
     2
  6
CONTINUOUS
 10
-0.079390
 20
-0.800382
  0
VERTEX
  8
PLAN_1
 62
     2
  6
CONTINUOUS
 10
-0.076819
 20
-0.797811
  0
VERTEX
  8
PLAN_1
 62
     2
  6
CONTINUOUS
 10
-0.073736
 20
-0.795756
  0
VERTEX
  8
PLAN_1
 62
     2
  6
CONTINUOUS
 10
-0.070138
 20
-0.794728
  0
VERTEX
  8
PLAN_1
 62
     2
  6
CONTINUOUS
 10
-0.066539
 20
-0.793701
  0
VERTEX
  8
PLAN_1
 62
     2
  6
CONTINUOUS
 10
-0.062429
 20
-0.793701
  0
VERTEX
  8
PLAN_1
 62
     2
  6
CONTINUOUS
 10
-0.059343
 20
-0.793701
  0
VERTEX
  8
PLAN_1
 62
     2
  6
CONTINUOUS
 10
-0.056260
 20
-0.794213
  0
VERTEX
  8
PLAN_1
 62
     2
  6
CONTINUOUS
 10
-0.053689
 20
-0.794728
  0
VERTEX
  8
PLAN_1
 62
     2
  6
CONTINUOUS
 10
-0.051118
 20
-0.795756
  0
VERTEX
  8
PLAN_1
 62
     2
  6
CONTINUOUS
 10
-0.047524
 20
-0.798327
  0
VERTEX
  8
PLAN_1
 62
     2
  6
CONTINUOUS
 10
-0.044953
 20
-0.800898
  0
VERTEX
  8
PLAN_1
 62
     2
  6
CONTINUOUS
 10
-0.043409
 20
-0.803980
  0
VERTEX
  8
PLAN_1
 62
     2
  6
CONTINUOUS
 10
-0.042382
 20
-0.807063
  0
VERTEX
  8
PLAN_1
 62
     2
  6
CONTINUOUS
 10
-0.041866
 20
-0.809118
  0
VERTEX
  8
PLAN_1
 62
     2
  6
CONTINUOUS
 10
-0.041866
 20
-0.810661
  0
VERTEX
  8
PLAN_1
 62
     2
  6
CONTINUOUS
 10
-0.050606
 20
-0.810661
  0
SEQEND
  8
0
  0
POLYLINE
  8
PLAN_1
 62
     2
  6
CONTINUOUS
 66
     1
 40
0.003000
 41
0.003000
  0
VERTEX
  8
PLAN_1
 62
     2
  6
CONTINUOUS
 10
0.001307
 20
-0.810661
  0
VERTEX
  8
PLAN_1
 62
     2
  6
CONTINUOUS
 10
0.001307
 20
-0.809118
  0
VERTEX
  8
PLAN_1
 62
     2
  6
CONTINUOUS
 10
0.000795
 20
-0.807579
  0
VERTEX
  8
PLAN_1
 62
     2
  6
CONTINUOUS
 10
0.000280
 20
-0.806035
  0
VERTEX
  8
PLAN_1
 62
     2
  6
CONTINUOUS
 10
-0.000748
 20
-0.805008
  0
VERTEX
  8
PLAN_1
 62
     2
  6
CONTINUOUS
 10
-0.002291
 20
-0.803465
  0
VERTEX
  8
PLAN_1
 62
     2
  6
CONTINUOUS
 10
-0.004858
 20
-0.802437
  0
VERTEX
  8
PLAN_1
 62
     2
  6
CONTINUOUS
 10
-0.007429
 20
-0.801925
  0
VERTEX
  8
PLAN_1
 62
     2
  6
CONTINUOUS
 10
-0.011543
 20
-0.801409
  0
VERTEX
  8
PLAN_1
 62
     2
  6
CONTINUOUS
 10
-0.012571
 20
-0.801409
  0
VERTEX
  8
PLAN_1
 62
     2
  6
CONTINUOUS
 10
-0.014626
 20
-0.801925
  0
VERTEX
  8
PLAN_1
 62
     2
  6
CONTINUOUS
 10
-0.016169
 20
-0.801925
  0
VERTEX
  8
PLAN_1
 62
     2
  6
CONTINUOUS
 10
-0.017709
 20
-0.802953
  0
VERTEX
  8
PLAN_1
 62
     2
  6
CONTINUOUS
 10
-0.019768
 20
-0.803980
  0
VERTEX
  8
PLAN_1
 62
     2
  6
CONTINUOUS
 10
-0.020795
 20
-0.805008
  0
VERTEX
  8
PLAN_1
 62
     2
  6
CONTINUOUS
 10
-0.021823
 20
-0.807063
  0
VERTEX
  8
PLAN_1
 62
     2
  6
CONTINUOUS
 10
-0.022335
 20
-0.809118
  0
VERTEX
  8
PLAN_1
 62
     2
  6
CONTINUOUS
 10
-0.022335
 20
-0.810661
  0
VERTEX
  8
PLAN_1
 62
     2
  6
CONTINUOUS
 10
-0.021823
 20
-0.812205
  0
VERTEX
  8
PLAN_1
 62
     2
  6
CONTINUOUS
 10
-0.021307
 20
-0.813232
  0
VERTEX
  8
PLAN_1
 62
     2
  6
CONTINUOUS
 10
-0.020280
 20
-0.813744
  0
VERTEX
  8
PLAN_1
 62
     2
  6
CONTINUOUS
 10
-0.018736
 20
-0.814776
  0
VERTEX
  8
PLAN_1
 62
     2
  6
CONTINUOUS
 10
-0.017197
 20
-0.815287
  0
VERTEX
  8
PLAN_1
 62
     2
  6
CONTINUOUS
 10
-0.015142
 20
-0.815803
  0
VERTEX
  8
PLAN_1
 62
     2
  6
CONTINUOUS
 10
-0.012571
 20
-0.816315
  0
VERTEX
  8
PLAN_1
 62
     2
  6
CONTINUOUS
 10
-0.003319
 20
-0.818886
  0
VERTEX
  8
PLAN_1
 62
     2
  6
CONTINUOUS
 10
0.000795
 20
-0.819913
  0
VERTEX
  8
PLAN_1
 62
     2
  6
CONTINUOUS
 10
0.003878
 20
-0.820941
  0
VERTEX
  8
PLAN_1
 62
     2
  6
CONTINUOUS
 10
0.006449
 20
-0.822484
  0
VERTEX
  8
PLAN_1
 62
     2
  6
CONTINUOUS
 10
0.008504
 20
-0.824028
  0
VERTEX
  8
PLAN_1
 62
     2
  6
CONTINUOUS
 10
0.010047
 20
-0.826083
  0
VERTEX
  8
PLAN_1
 62
     2
  6
CONTINUOUS
 10
0.011075
 20
-0.828138
  0
VERTEX
  8
PLAN_1
 62
     2
  6
CONTINUOUS
 10
0.011587
 20
-0.830709
  0
VERTEX
  8
PLAN_1
 62
     2
  6
CONTINUOUS
 10
0.012102
 20
-0.833280
  0
VERTEX
  8
PLAN_1
 62
     2
  6
CONTINUOUS
 10
0.011587
 20
-0.836878
  0
VERTEX
  8
PLAN_1
 62
     2
  6
CONTINUOUS
 10
0.010559
 20
-0.840472
  0
VERTEX
  8
PLAN_1
 62
     2
  6
CONTINUOUS
 10
0.008504
 20
-0.843559
  0
VERTEX
  8
PLAN_1
 62
     2
  6
CONTINUOUS
 10
0.005933
 20
-0.846130
  0
VERTEX
  8
PLAN_1
 62
     2
  6
CONTINUOUS
 10
0.002850
 20
-0.848185
  0
VERTEX
  8
PLAN_1
 62
     2
  6
CONTINUOUS
 10
-0.000748
 20
-0.849724
  0
VERTEX
  8
PLAN_1
 62
     2
  6
CONTINUOUS
 10
-0.004858
 20
-0.850756
  0
VERTEX
  8
PLAN_1
 62
     2
  6
CONTINUOUS
 10
-0.009484
 20
-0.851268
  0
VERTEX
  8
PLAN_1
 62
     2
  6
CONTINUOUS
 10
-0.013083
 20
-0.850756
  0
VERTEX
  8
PLAN_1
 62
     2
  6
CONTINUOUS
 10
-0.016681
 20
-0.850756
  0
VERTEX
  8
PLAN_1
 62
     2
  6
CONTINUOUS
 10
-0.019768
 20
-0.849724
  0
VERTEX
  8
PLAN_1
 62
     2
  6
CONTINUOUS
 10
-0.022335
 20
-0.849213
  0
VERTEX
  8
PLAN_1
 62
     2
  6
CONTINUOUS
 10
-0.024394
 20
-0.848185
  0
VERTEX
  8
PLAN_1
 62
     2
  6
CONTINUOUS
 10
-0.026449
 20
-0.846642
  0
VERTEX
  8
PLAN_1
 62
     2
  6
CONTINUOUS
 10
-0.027988
 20
-0.845614
  0
VERTEX
  8
PLAN_1
 62
     2
  6
CONTINUOUS
 10
-0.029020
 20
-0.844071
  0
VERTEX
  8
PLAN_1
 62
     2
  6
CONTINUOUS
 10
-0.031075
 20
-0.840988
  0
VERTEX
  8
PLAN_1
 62
     2
  6
CONTINUOUS
 10
-0.032102
 20
-0.837906
  0
VERTEX
  8
PLAN_1
 62
     2
  6
CONTINUOUS
 10
-0.032614
 20
-0.834819
  0
VERTEX
  8
PLAN_1
 62
     2
  6
CONTINUOUS
 10
-0.033130
 20
-0.832248
  0
VERTEX
  8
PLAN_1
 62
     2
  6
CONTINUOUS
 10
-0.023878
 20
-0.832248
  0
VERTEX
  8
PLAN_1
 62
     2
  6
CONTINUOUS
 10
-0.023878
 20
-0.833791
  0
VERTEX
  8
PLAN_1
 62
     2
  6
CONTINUOUS
 10
-0.023362
 20
-0.835846
  0
VERTEX
  8
PLAN_1
 62
     2
  6
CONTINUOUS
 10
-0.022850
 20
-0.837390
  0
VERTEX
  8
PLAN_1
 62
     2
  6
CONTINUOUS
 10
-0.021823
 20
-0.839445
  0
VERTEX
  8
PLAN_1
 62
     2
  6
CONTINUOUS
 10
-0.019768
 20
-0.840988
  0
VERTEX
  8
PLAN_1
 62
     2
  6
CONTINUOUS
 10
-0.017197
 20
-0.842016
  0
VERTEX
  8
PLAN_1
 62
     2
  6
CONTINUOUS
 10
-0.014110
 20
-0.843043
  0
VERTEX
  8
PLAN_1
 62
     2
  6
CONTINUOUS
 10
-0.009484
 20
-0.843043
  0
VERTEX
  8
PLAN_1
 62
     2
  6
CONTINUOUS
 10
-0.007429
 20
-0.843043
  0
VERTEX
  8
PLAN_1
 62
     2
  6
CONTINUOUS
 10
-0.004858
 20
-0.842531
  0
VERTEX
  8
PLAN_1
 62
     2
  6
CONTINUOUS
 10
-0.002803
 20
-0.842016
  0
VERTEX
  8
PLAN_1
 62
     2
  6
CONTINUOUS
 10
-0.000748
 20
-0.840988
  0
VERTEX
  8
PLAN_1
 62
     2
  6
CONTINUOUS
 10
0.000795
 20
-0.839961
  0
VERTEX
  8
PLAN_1
 62
     2
  6
CONTINUOUS
 10
0.001823
 20
-0.838417
  0
VERTEX
  8
PLAN_1
 62
     2
  6
CONTINUOUS
 10
0.002335
 20
-0.836878
  0
VERTEX
  8
PLAN_1
 62
     2
  6
CONTINUOUS
 10
0.002850
 20
-0.834307
  0
VERTEX
  8
PLAN_1
 62
     2
  6
CONTINUOUS
 10
0.002850
 20
-0.833280
  0
VERTEX
  8
PLAN_1
 62
     2
  6
CONTINUOUS
 10
0.002335
 20
-0.831736
  0
VERTEX
  8
PLAN_1
 62
     2
  6
CONTINUOUS
 10
0.001307
 20
-0.830709
  0
VERTEX
  8
PLAN_1
 62
     2
  6
CONTINUOUS
 10
0.000280
 20
-0.829681
  0
VERTEX
  8
PLAN_1
 62
     2
  6
CONTINUOUS
 10
-0.001264
 20
-0.829165
  0
VERTEX
  8
PLAN_1
 62
     2
  6
CONTINUOUS
 10
-0.002803
 20
-0.828138
  0
VERTEX
  8
PLAN_1
 62
     2
  6
CONTINUOUS
 10
-0.005374
 20
-0.827622
  0
VERTEX
  8
PLAN_1
 62
     2
  6
CONTINUOUS
 10
-0.007945
 20
-0.826594
  0
VERTEX
  8
PLAN_1
 62
     2
  6
CONTINUOUS
 10
-0.018736
 20
-0.824028
  0
VERTEX
  8
PLAN_1
 62
     2
  6
CONTINUOUS
 10
-0.021307
 20
-0.823512
  0
VERTEX
  8
PLAN_1
 62
     2
  6
CONTINUOUS
 10
-0.023878
 20
-0.822484
  0
VERTEX
  8
PLAN_1
 62
     2
  6
CONTINUOUS
 10
-0.025933
 20
-0.820941
  0
VERTEX
  8
PLAN_1
 62
     2
  6
CONTINUOUS
 10
-0.027476
 20
-0.819402
  0
VERTEX
  8
PLAN_1
 62
     2
  6
CONTINUOUS
 10
-0.029020
 20
-0.817858
  0
VERTEX
  8
PLAN_1
 62
     2
  6
CONTINUOUS
 10
-0.030047
 20
-0.815803
  0
VERTEX
  8
PLAN_1
 62
     2
  6
CONTINUOUS
 10
-0.031075
 20
-0.813744
  0
VERTEX
  8
PLAN_1
 62
     2
  6
CONTINUOUS
 10
-0.031075
 20
-0.811177
  0
VERTEX
  8
PLAN_1
 62
     2
  6
CONTINUOUS
 10
-0.030559
 20
-0.806551
  0
VERTEX
  8
PLAN_1
 62
     2
  6
CONTINUOUS
 10
-0.029531
 20
-0.802953
  0
VERTEX
  8
PLAN_1
 62
     2
  6
CONTINUOUS
 10
-0.027476
 20
-0.800382
  0
VERTEX
  8
PLAN_1
 62
     2
  6
CONTINUOUS
 10
-0.024906
 20
-0.797811
  0
VERTEX
  8
PLAN_1
 62
     2
  6
CONTINUOUS
 10
-0.021823
 20
-0.795756
  0
VERTEX
  8
PLAN_1
 62
     2
  6
CONTINUOUS
 10
-0.018224
 20
-0.794728
  0
VERTEX
  8
PLAN_1
 62
     2
  6
CONTINUOUS
 10
-0.014626
 20
-0.793701
  0
VERTEX
  8
PLAN_1
 62
     2
  6
CONTINUOUS
 10
-0.010516
 20
-0.793701
  0
VERTEX
  8
PLAN_1
 62
     2
  6
CONTINUOUS
 10
-0.006917
 20
-0.793701
  0
VERTEX
  8
PLAN_1
 62
     2
  6
CONTINUOUS
 10
-0.003831
 20
-0.794213
  0
VERTEX
  8
PLAN_1
 62
     2
  6
CONTINUOUS
 10
-0.001264
 20
-0.794728
  0
VERTEX
  8
PLAN_1
 62
     2
  6
CONTINUOUS
 10
0.000795
 20
-0.795756
  0
VERTEX
  8
PLAN_1
 62
     2
  6
CONTINUOUS
 10
0.004394
 20
-0.798327
  0
VERTEX
  8
PLAN_1
 62
     2
  6
CONTINUOUS
 10
0.006961
 20
-0.800898
  0
VERTEX
  8
PLAN_1
 62
     2
  6
CONTINUOUS
 10
0.009020
 20
-0.803980
  0
VERTEX
  8
PLAN_1
 62
     2
  6
CONTINUOUS
 10
0.009531
 20
-0.807063
  0
VERTEX
  8
PLAN_1
 62
     2
  6
CONTINUOUS
 10
0.010047
 20
-0.809118
  0
VERTEX
  8
PLAN_1
 62
     2
  6
CONTINUOUS
 10
0.010047
 20
-0.810661
  0
VERTEX
  8
PLAN_1
 62
     2
  6
CONTINUOUS
 10
0.001307
 20
-0.810661
  0
SEQEND
  8
0
  0
POLYLINE
  8
PLAN_1
 62
     2
  6
CONTINUOUS
 66
     1
 40
0.003000
 41
0.003000
  0
VERTEX
  8
PLAN_1
 62
     2
  6
CONTINUOUS
 10
0.068642
 20
-0.832248
  0
VERTEX
  8
PLAN_1
 62
     2
  6
CONTINUOUS
 10
0.068642
 20
-0.833791
  0
VERTEX
  8
PLAN_1
 62
     2
  6
CONTINUOUS
 10
0.068130
 20
-0.835335
  0
VERTEX
  8
PLAN_1
 62
     2
  6
CONTINUOUS
 10
0.067614
 20
-0.836878
  0
VERTEX
  8
PLAN_1
 62
     2
  6
CONTINUOUS
 10
0.066587
 20
-0.838933
  0
VERTEX
  8
PLAN_1
 62
     2
  6
CONTINUOUS
 10
0.065043
 20
-0.841504
  0
VERTEX
  8
PLAN_1
 62
     2
  6
CONTINUOUS
 10
0.063504
 20
-0.843559
  0
VERTEX
  8
PLAN_1
 62
     2
  6
CONTINUOUS
 10
0.061445
 20
-0.845614
  0
VERTEX
  8
PLAN_1
 62
     2
  6
CONTINUOUS
 10
0.058878
 20
-0.847157
  0
VERTEX
  8
PLAN_1
 62
     2
  6
CONTINUOUS
 10
0.057846
 20
-0.848185
  0
VERTEX
  8
PLAN_1
 62
     2
  6
CONTINUOUS
 10
0.056819
 20
-0.848697
  0
VERTEX
  8
PLAN_1
 62
     2
  6
CONTINUOUS
 10
0.055791
 20
-0.849213
  0
VERTEX
  8
PLAN_1
 62
     2
  6
CONTINUOUS
 10
0.054248
 20
-0.849724
  0
VERTEX
  8
PLAN_1
 62
     2
  6
CONTINUOUS
 10
0.052193
 20
-0.850240
  0
VERTEX
  8
PLAN_1
 62
     2
  6
CONTINUOUS
 10
0.050138
 20
-0.850756
  0
VERTEX
  8
PLAN_1
 62
     2
  6
CONTINUOUS
 10
0.047567
 20
-0.850756
  0
VERTEX
  8
PLAN_1
 62
     2
  6
CONTINUOUS
 10
0.044484
 20
-0.851268
  0
VERTEX
  8
PLAN_1
 62
     2
  6
CONTINUOUS
 10
0.041402
 20
-0.850756
  0
VERTEX
  8
PLAN_1
 62
     2
  6
CONTINUOUS
 10
0.038831
 20
-0.850756
  0
VERTEX
  8
PLAN_1
 62
     2
  6
CONTINUOUS
 10
0.036260
 20
-0.849724
  0
VERTEX
  8
PLAN_1
 62
     2
  6
CONTINUOUS
 10
0.034205
 20
-0.849213
  0
VERTEX
  8
PLAN_1
 62
     2
  6
CONTINUOUS
 10
0.032150
 20
-0.848185
  0
VERTEX
  8
PLAN_1
 62
     2
  6
CONTINUOUS
 10
0.030091
 20
-0.846642
  0
VERTEX
  8
PLAN_1
 62
     2
  6
CONTINUOUS
 10
0.028035
 20
-0.845098
  0
VERTEX
  8
PLAN_1
 62
     2
  6
CONTINUOUS
 10
0.026492
 20
-0.843559
  0
VERTEX
  8
PLAN_1
 62
     2
  6
CONTINUOUS
 10
0.023409
 20
-0.839445
  0
VERTEX
  8
PLAN_1
 62
     2
  6
CONTINUOUS
 10
0.021866
 20
-0.834819
  0
VERTEX
  8
PLAN_1
 62
     2
  6
CONTINUOUS
 10
0.020327
 20
-0.829681
  0
VERTEX
  8
PLAN_1
 62
     2
  6
CONTINUOUS
 10
0.019811
 20
-0.824028
  0
VERTEX
  8
PLAN_1
 62
     2
  6
CONTINUOUS
 10
0.020327
 20
-0.817858
  0
VERTEX
  8
PLAN_1
 62
     2
  6
CONTINUOUS
 10
0.021354
 20
-0.812205
  0
VERTEX
  8
PLAN_1
 62
     2
  6
CONTINUOUS
 10
0.022382
 20
-0.809118
  0
VERTEX
  8
PLAN_1
 62
     2
  6
CONTINUOUS
 10
0.023409
 20
-0.807063
  0
VERTEX
  8
PLAN_1
 62
     2
  6
CONTINUOUS
 10
0.024953
 20
-0.804492
  0
VERTEX
  8
PLAN_1
 62
     2
  6
CONTINUOUS
 10
0.026492
 20
-0.802437
  0
VERTEX
  8
PLAN_1
 62
     2
  6
CONTINUOUS
 10
0.028035
 20
-0.800382
  0
VERTEX
  8
PLAN_1
 62
     2
  6
CONTINUOUS
 10
0.030091
 20
-0.798839
  0
VERTEX
  8
PLAN_1
 62
     2
  6
CONTINUOUS
 10
0.032150
 20
-0.797299
  0
VERTEX
  8
PLAN_1
 62
     2
  6
CONTINUOUS
 10
0.034205
 20
-0.795756
  0
VERTEX
  8
PLAN_1
 62
     2
  6
CONTINUOUS
 10
0.036776
 20
-0.794728
  0
VERTEX
  8
PLAN_1
 62
     2
  6
CONTINUOUS
 10
0.039858
 20
-0.794213
  0
VERTEX
  8
PLAN_1
 62
     2
  6
CONTINUOUS
 10
0.042941
 20
-0.793701
  0
VERTEX
  8
PLAN_1
 62
     2
  6
CONTINUOUS
 10
0.046028
 20
-0.793701
  0
VERTEX
  8
PLAN_1
 62
     2
  6
CONTINUOUS
 10
0.049110
 20
-0.793701
  0
VERTEX
  8
PLAN_1
 62
     2
  6
CONTINUOUS
 10
0.051681
 20
-0.794213
  0
VERTEX
  8
PLAN_1
 62
     2
  6
CONTINUOUS
 10
0.054248
 20
-0.794728
  0
VERTEX
  8
PLAN_1
 62
     2
  6
CONTINUOUS
 10
0.056307
 20
-0.795756
  0
VERTEX
  8
PLAN_1
 62
     2
  6
CONTINUOUS
 10
0.058362
 20
-0.797299
  0
VERTEX
  8
PLAN_1
 62
     2
  6
CONTINUOUS
 10
0.060417
 20
-0.798327
  0
VERTEX
  8
PLAN_1
 62
     2
  6
CONTINUOUS
 10
0.061961
 20
-0.800382
  0
VERTEX
  8
PLAN_1
 62
     2
  6
CONTINUOUS
 10
0.063504
 20
-0.802437
  0
VERTEX
  8
PLAN_1
 62
     2
  6
CONTINUOUS
 10
0.066071
 20
-0.806551
  0
VERTEX
  8
PLAN_1
 62
     2
  6
CONTINUOUS
 10
0.068130
 20
-0.812205
  0
VERTEX
  8
PLAN_1
 62
     2
  6
CONTINUOUS
 10
0.069157
 20
-0.818370
  0
VERTEX
  8
PLAN_1
 62
     2
  6
CONTINUOUS
 10
0.069669
 20
-0.825055
  0
VERTEX
  8
PLAN_1
 62
     2
  6
CONTINUOUS
 10
0.029579
 20
-0.825055
  0
VERTEX
  8
PLAN_1
 62
     2
  6
CONTINUOUS
 10
0.030091
 20
-0.829165
  0
VERTEX
  8
PLAN_1
 62
     2
  6
CONTINUOUS
 10
0.030606
 20
-0.832764
  0
VERTEX
  8
PLAN_1
 62
     2
  6
CONTINUOUS
 10
0.032150
 20
-0.835846
  0
VERTEX
  8
PLAN_1
 62
     2
  6
CONTINUOUS
 10
0.033689
 20
-0.838417
  0
VERTEX
  8
PLAN_1
 62
     2
  6
CONTINUOUS
 10
0.035744
 20
-0.840472
  0
VERTEX
  8
PLAN_1
 62
     2
  6
CONTINUOUS
 10
0.038831
 20
-0.842016
  0
VERTEX
  8
PLAN_1
 62
     2
  6
CONTINUOUS
 10
0.041913
 20
-0.843043
  0
VERTEX
  8
PLAN_1
 62
     2
  6
CONTINUOUS
 10
0.045512
 20
-0.843043
  0
VERTEX
  8
PLAN_1
 62
     2
  6
CONTINUOUS
 10
0.048594
 20
-0.843043
  0
VERTEX
  8
PLAN_1
 62
     2
  6
CONTINUOUS
 10
0.051165
 20
-0.842016
  0
VERTEX
  8
PLAN_1
 62
     2
  6
CONTINUOUS
 10
0.053736
 20
-0.840988
  0
VERTEX
  8
PLAN_1
 62
     2
  6
CONTINUOUS
 10
0.055791
 20
-0.839445
  0
VERTEX
  8
PLAN_1
 62
     2
  6
CONTINUOUS
 10
0.057335
 20
-0.837906
  0
VERTEX
  8
PLAN_1
 62
     2
  6
CONTINUOUS
 10
0.058362
 20
-0.835846
  0
VERTEX
  8
PLAN_1
 62
     2
  6
CONTINUOUS
 10
0.059390
 20
-0.834307
  0
VERTEX
  8
PLAN_1
 62
     2
  6
CONTINUOUS
 10
0.059390
 20
-0.832248
  0
VERTEX
  8
PLAN_1
 62
     2
  6
CONTINUOUS
 10
0.068642
 20
-0.832248
  0
SEQEND
  8
0
  0
POLYLINE
  8
PLAN_1
 62
     2
  6
CONTINUOUS
 66
     1
 40
0.003000
 41
0.003000
  0
VERTEX
  8
PLAN_1
 62
     2
  6
CONTINUOUS
 10
0.059906
 20
-0.817858
  0
VERTEX
  8
PLAN_1
 62
     2
  6
CONTINUOUS
 10
0.059906
 20
-0.814776
  0
VERTEX
  8
PLAN_1
 62
     2
  6
CONTINUOUS
 10
0.058878
 20
-0.811689
  0
VERTEX
  8
PLAN_1
 62
     2
  6
CONTINUOUS
 10
0.057846
 20
-0.809118
  0
VERTEX
  8
PLAN_1
 62
     2
  6
CONTINUOUS
 10
0.056307
 20
-0.806551
  0
VERTEX
  8
PLAN_1
 62
     2
  6
CONTINUOUS
 10
0.054248
 20
-0.804492
  0
VERTEX
  8
PLAN_1
 62
     2
  6
CONTINUOUS
 10
0.051681
 20
-0.802953
  0
VERTEX
  8
PLAN_1
 62
     2
  6
CONTINUOUS
 10
0.048594
 20
-0.801925
  0
VERTEX
  8
PLAN_1
 62
     2
  6
CONTINUOUS
 10
0.044996
 20
-0.801925
  0
VERTEX
  8
PLAN_1
 62
     2
  6
CONTINUOUS
 10
0.041913
 20
-0.801925
  0
VERTEX
  8
PLAN_1
 62
     2
  6
CONTINUOUS
 10
0.038831
 20
-0.802953
  0
VERTEX
  8
PLAN_1
 62
     2
  6
CONTINUOUS
 10
0.036260
 20
-0.804492
  0
VERTEX
  8
PLAN_1
 62
     2
  6
CONTINUOUS
 10
0.034205
 20
-0.806551
  0
VERTEX
  8
PLAN_1
 62
     2
  6
CONTINUOUS
 10
0.032150
 20
-0.809118
  0
VERTEX
  8
PLAN_1
 62
     2
  6
CONTINUOUS
 10
0.031118
 20
-0.811689
  0
VERTEX
  8
PLAN_1
 62
     2
  6
CONTINUOUS
 10
0.030091
 20
-0.814776
  0
VERTEX
  8
PLAN_1
 62
     2
  6
CONTINUOUS
 10
0.029579
 20
-0.817858
  0
VERTEX
  8
PLAN_1
 62
     2
  6
CONTINUOUS
 10
0.059906
 20
-0.817858
  0
SEQEND
  8
0
  0
SOLID
  8
PLAN_1
 62
     2
 10
0.103594
 20
-0.825567
 11
0.078409
 21
-0.825567
 12
0.103594
 22
-0.815803
 13
0.078409
 23
-0.815803
  0
POLYLINE
  8
PLAN_1
 62
     2
  6
CONTINUOUS
 66
     1
 40
0.003000
 41
0.003000
  0
VERTEX
  8
PLAN_1
 62
     2
  6
CONTINUOUS
 10
0.103594
 20
-0.825567
  0
VERTEX
  8
PLAN_1
 62
     2
  6
CONTINUOUS
 10
0.078409
 20
-0.825567
  0
VERTEX
  8
PLAN_1
 62
     2
  6
CONTINUOUS
 10
0.078409
 20
-0.815803
  0
VERTEX
  8
PLAN_1
 62
     2
  6
CONTINUOUS
 10
0.103594
 20
-0.815803
  0
VERTEX
  8
PLAN_1
 62
     2
  6
CONTINUOUS
 10
0.103594
 20
-0.825567
  0
SEQEND
  8
0
  0
SOLID
  8
PLAN_1
 62
     2
 10
0.139575
 20
-0.788047
 11
0.132894
 21
-0.788047
 12
0.153453
 22
-0.773142
 13
0.142146
 23
-0.773142
  0
POLYLINE
  8
PLAN_1
 62
     2
  6
CONTINUOUS
 66
     1
 40
0.003000
 41
0.003000
  0
VERTEX
  8
PLAN_1
 62
     2
  6
CONTINUOUS
 10
0.139575
 20
-0.788047
  0
VERTEX
  8
PLAN_1
 62
     2
  6
CONTINUOUS
 10
0.132894
 20
-0.788047
  0
VERTEX
  8
PLAN_1
 62
     2
  6
CONTINUOUS
 10
0.142146
 20
-0.773142
  0
VERTEX
  8
PLAN_1
 62
     2
  6
CONTINUOUS
 10
0.153453
 20
-0.773142
  0
VERTEX
  8
PLAN_1
 62
     2
  6
CONTINUOUS
 10
0.139575
 20
-0.788047
  0
SEQEND
  8
0
  0
POLYLINE
  8
PLAN_1
 62
     2
  6
CONTINUOUS
 66
     1
 40
0.003000
 41
0.003000
  0
VERTEX
  8
PLAN_1
 62
     2
  6
CONTINUOUS
 10
0.161161
 20
-0.832248
  0
VERTEX
  8
PLAN_1
 62
     2
  6
CONTINUOUS
 10
0.161161
 20
-0.833791
  0
VERTEX
  8
PLAN_1
 62
     2
  6
CONTINUOUS
 10
0.160650
 20
-0.835335
  0
VERTEX
  8
PLAN_1
 62
     2
  6
CONTINUOUS
 10
0.160134
 20
-0.836878
  0
VERTEX
  8
PLAN_1
 62
     2
  6
CONTINUOUS
 10
0.159106
 20
-0.838933
  0
VERTEX
  8
PLAN_1
 62
     2
  6
CONTINUOUS
 10
0.157563
 20
-0.841504
  0
VERTEX
  8
PLAN_1
 62
     2
  6
CONTINUOUS
 10
0.156024
 20
-0.843559
  0
VERTEX
  8
PLAN_1
 62
     2
  6
CONTINUOUS
 10
0.153965
 20
-0.845614
  0
VERTEX
  8
PLAN_1
 62
     2
  6
CONTINUOUS
 10
0.151909
 20
-0.847157
  0
VERTEX
  8
PLAN_1
 62
     2
  6
CONTINUOUS
 10
0.150882
 20
-0.848185
  0
VERTEX
  8
PLAN_1
 62
     2
  6
CONTINUOUS
 10
0.149339
 20
-0.848697
  0
VERTEX
  8
PLAN_1
 62
     2
  6
CONTINUOUS
 10
0.148311
 20
-0.849213
  0
VERTEX
  8
PLAN_1
 62
     2
  6
CONTINUOUS
 10
0.146772
 20
-0.849724
  0
VERTEX
  8
PLAN_1
 62
     2
  6
CONTINUOUS
 10
0.144713
 20
-0.850240
  0
VERTEX
  8
PLAN_1
 62
     2
  6
CONTINUOUS
 10
0.142657
 20
-0.850756
  0
VERTEX
  8
PLAN_1
 62
     2
  6
CONTINUOUS
 10
0.140087
 20
-0.850756
  0
VERTEX
  8
PLAN_1
 62
     2
  6
CONTINUOUS
 10
0.137004
 20
-0.851268
  0
VERTEX
  8
PLAN_1
 62
     2
  6
CONTINUOUS
 10
0.133921
 20
-0.850756
  0
VERTEX
  8
PLAN_1
 62
     2
  6
CONTINUOUS
 10
0.131350
 20
-0.850756
  0
VERTEX
  8
PLAN_1
 62
     2
  6
CONTINUOUS
 10
0.128780
 20
-0.849724
  0
VERTEX
  8
PLAN_1
 62
     2
  6
CONTINUOUS
 10
0.126724
 20
-0.849213
  0
VERTEX
  8
PLAN_1
 62
     2
  6
CONTINUOUS
 10
0.124669
 20
-0.848185
  0
VERTEX
  8
PLAN_1
 62
     2
  6
CONTINUOUS
 10
0.122610
 20
-0.846642
  0
VERTEX
  8
PLAN_1
 62
     2
  6
CONTINUOUS
 10
0.120555
 20
-0.845098
  0
VERTEX
  8
PLAN_1
 62
     2
  6
CONTINUOUS
 10
0.119016
 20
-0.843559
  0
VERTEX
  8
PLAN_1
 62
     2
  6
CONTINUOUS
 10
0.116445
 20
-0.839445
  0
VERTEX
  8
PLAN_1
 62
     2
  6
CONTINUOUS
 10
0.114390
 20
-0.834819
  0
VERTEX
  8
PLAN_1
 62
     2
  6
CONTINUOUS
 10
0.112846
 20
-0.829681
  0
VERTEX
  8
PLAN_1
 62
     2
  6
CONTINUOUS
 10
0.112331
 20
-0.824028
  0
VERTEX
  8
PLAN_1
 62
     2
  6
CONTINUOUS
 10
0.112846
 20
-0.817858
  0
VERTEX
  8
PLAN_1
 62
     2
  6
CONTINUOUS
 10
0.113874
 20
-0.812205
  0
VERTEX
  8
PLAN_1
 62
     2
  6
CONTINUOUS
 10
0.114902
 20
-0.809118
  0
VERTEX
  8
PLAN_1
 62
     2
  6
CONTINUOUS
 10
0.115929
 20
-0.807063
  0
VERTEX
  8
PLAN_1
 62
     2
  6
CONTINUOUS
 10
0.117472
 20
-0.804492
  0
VERTEX
  8
PLAN_1
 62
     2
  6
CONTINUOUS
 10
0.119016
 20
-0.802437
  0
VERTEX
  8
PLAN_1
 62
     2
  6
CONTINUOUS
 10
0.120555
 20
-0.800382
  0
VERTEX
  8
PLAN_1
 62
     2
  6
CONTINUOUS
 10
0.122610
 20
-0.798839
  0
VERTEX
  8
PLAN_1
 62
     2
  6
CONTINUOUS
 10
0.124669
 20
-0.797299
  0
VERTEX
  8
PLAN_1
 62
     2
  6
CONTINUOUS
 10
0.126724
 20
-0.795756
  0
VERTEX
  8
PLAN_1
 62
     2
  6
CONTINUOUS
 10
0.129295
 20
-0.794728
  0
VERTEX
  8
PLAN_1
 62
     2
  6
CONTINUOUS
 10
0.132378
 20
-0.794213
  0
VERTEX
  8
PLAN_1
 62
     2
  6
CONTINUOUS
 10
0.135461
 20
-0.793701
  0
VERTEX
  8
PLAN_1
 62
     2
  6
CONTINUOUS
 10
0.138547
 20
-0.793701
  0
VERTEX
  8
PLAN_1
 62
     2
  6
CONTINUOUS
 10
0.141630
 20
-0.793701
  0
VERTEX
  8
PLAN_1
 62
     2
  6
CONTINUOUS
 10
0.144201
 20
-0.794213
  0
VERTEX
  8
PLAN_1
 62
     2
  6
CONTINUOUS
 10
0.146772
 20
-0.794728
  0
VERTEX
  8
PLAN_1
 62
     2
  6
CONTINUOUS
 10
0.148827
 20
-0.795756
  0
VERTEX
  8
PLAN_1
 62
     2
  6
CONTINUOUS
 10
0.150882
 20
-0.797299
  0
VERTEX
  8
PLAN_1
 62
     2
  6
CONTINUOUS
 10
0.152937
 20
-0.798327
  0
VERTEX
  8
PLAN_1
 62
     2
  6
CONTINUOUS
 10
0.154480
 20
-0.800382
  0
VERTEX
  8
PLAN_1
 62
     2
  6
CONTINUOUS
 10
0.156024
 20
-0.802437
  0
VERTEX
  8
PLAN_1
 62
     2
  6
CONTINUOUS
 10
0.158591
 20
-0.806551
  0
VERTEX
  8
PLAN_1
 62
     2
  6
CONTINUOUS
 10
0.160650
 20
-0.812205
  0
VERTEX
  8
PLAN_1
 62
     2
  6
CONTINUOUS
 10
0.161677
 20
-0.818370
  0
VERTEX
  8
PLAN_1
 62
     2
  6
CONTINUOUS
 10
0.162189
 20
-0.825055
  0
VERTEX
  8
PLAN_1
 62
     2
  6
CONTINUOUS
 10
0.122098
 20
-0.825055
  0
VERTEX
  8
PLAN_1
 62
     2
  6
CONTINUOUS
 10
0.122610
 20
-0.829165
  0
VERTEX
  8
PLAN_1
 62
     2
  6
CONTINUOUS
 10
0.123126
 20
-0.832764
  0
VERTEX
  8
PLAN_1
 62
     2
  6
CONTINUOUS
 10
0.124669
 20
-0.835846
  0
VERTEX
  8
PLAN_1
 62
     2
  6
CONTINUOUS
 10
0.126209
 20
-0.838417
  0
VERTEX
  8
PLAN_1
 62
     2
  6
CONTINUOUS
 10
0.128268
 20
-0.840472
  0
VERTEX
  8
PLAN_1
 62
     2
  6
CONTINUOUS
 10
0.131350
 20
-0.842016
  0
VERTEX
  8
PLAN_1
 62
     2
  6
CONTINUOUS
 10
0.134433
 20
-0.843043
  0
VERTEX
  8
PLAN_1
 62
     2
  6
CONTINUOUS
 10
0.138031
 20
-0.843043
  0
VERTEX
  8
PLAN_1
 62
     2
  6
CONTINUOUS
 10
0.141114
 20
-0.843043
  0
VERTEX
  8
PLAN_1
 62
     2
  6
CONTINUOUS
 10
0.143685
 20
-0.842016
  0
VERTEX
  8
PLAN_1
 62
     2
  6
CONTINUOUS
 10
0.146256
 20
-0.840988
  0
VERTEX
  8
PLAN_1
 62
     2
  6
CONTINUOUS
 10
0.148311
 20
-0.839445
  0
VERTEX
  8
PLAN_1
 62
     2
  6
CONTINUOUS
 10
0.149854
 20
-0.837906
  0
VERTEX
  8
PLAN_1
 62
     2
  6
CONTINUOUS
 10
0.150882
 20
-0.835846
  0
VERTEX
  8
PLAN_1
 62
     2
  6
CONTINUOUS
 10
0.151909
 20
-0.834307
  0
VERTEX
  8
PLAN_1
 62
     2
  6
CONTINUOUS
 10
0.152425
 20
-0.832248
  0
VERTEX
  8
PLAN_1
 62
     2
  6
CONTINUOUS
 10
0.161161
 20
-0.832248
  0
SEQEND
  8
0
  0
POLYLINE
  8
PLAN_1
 62
     2
  6
CONTINUOUS
 66
     1
 40
0.003000
 41
0.003000
  0
VERTEX
  8
PLAN_1
 62
     2
  6
CONTINUOUS
 10
0.152425
 20
-0.817858
  0
VERTEX
  8
PLAN_1
 62
     2
  6
CONTINUOUS
 10
0.152425
 20
-0.814776
  0
VERTEX
  8
PLAN_1
 62
     2
  6
CONTINUOUS
 10
0.151398
 20
-0.811689
  0
VERTEX
  8
PLAN_1
 62
     2
  6
CONTINUOUS
 10
0.150366
 20
-0.809118
  0
VERTEX
  8
PLAN_1
 62
     2
  6
CONTINUOUS
 10
0.148827
 20
-0.806551
  0
VERTEX
  8
PLAN_1
 62
     2
  6
CONTINUOUS
 10
0.146772
 20
-0.804492
  0
VERTEX
  8
PLAN_1
 62
     2
  6
CONTINUOUS
 10
0.144201
 20
-0.802953
  0
VERTEX
  8
PLAN_1
 62
     2
  6
CONTINUOUS
 10
0.141114
 20
-0.801925
  0
VERTEX
  8
PLAN_1
 62
     2
  6
CONTINUOUS
 10
0.137520
 20
-0.801925
  0
VERTEX
  8
PLAN_1
 62
     2
  6
CONTINUOUS
 10
0.134433
 20
-0.801925
  0
VERTEX
  8
PLAN_1
 62
     2
  6
CONTINUOUS
 10
0.131350
 20
-0.802953
  0
VERTEX
  8
PLAN_1
 62
     2
  6
CONTINUOUS
 10
0.128780
 20
-0.804492
  0
VERTEX
  8
PLAN_1
 62
     2
  6
CONTINUOUS
 10
0.126724
 20
-0.806551
  0
VERTEX
  8
PLAN_1
 62
     2
  6
CONTINUOUS
 10
0.124669
 20
-0.809118
  0
VERTEX
  8
PLAN_1
 62
     2
  6
CONTINUOUS
 10
0.123642
 20
-0.811689
  0
VERTEX
  8
PLAN_1
 62
     2
  6
CONTINUOUS
 10
0.122610
 20
-0.814776
  0
VERTEX
  8
PLAN_1
 62
     2
  6
CONTINUOUS
 10
0.122098
 20
-0.817858
  0
VERTEX
  8
PLAN_1
 62
     2
  6
CONTINUOUS
 10
0.152425
 20
-0.817858
  0
SEQEND
  8
0
  0
POLYLINE
  8
PLAN_1
 62
     2
  6
CONTINUOUS
 66
     1
 40
0.003000
 41
0.003000
  0
VERTEX
  8
PLAN_1
 62
     2
  6
CONTINUOUS
 10
0.184291
 20
-0.802953
  0
VERTEX
  8
PLAN_1
 62
     2
  6
CONTINUOUS
 10
0.184291
 20
-0.837906
  0
VERTEX
  8
PLAN_1
 62
     2
  6
CONTINUOUS
 10
0.184291
 20
-0.839445
  0
VERTEX
  8
PLAN_1
 62
     2
  6
CONTINUOUS
 10
0.184807
 20
-0.840472
  0
VERTEX
  8
PLAN_1
 62
     2
  6
CONTINUOUS
 10
0.185319
 20
-0.841504
  0
VERTEX
  8
PLAN_1
 62
     2
  6
CONTINUOUS
 10
0.186346
 20
-0.842016
  0
VERTEX
  8
PLAN_1
 62
     2
  6
CONTINUOUS
 10
0.187378
 20
-0.842016
  0
VERTEX
  8
PLAN_1
 62
     2
  6
CONTINUOUS
 10
0.187890
 20
-0.842531
  0
VERTEX
  8
PLAN_1
 62
     2
  6
CONTINUOUS
 10
0.188917
 20
-0.842531
  0
VERTEX
  8
PLAN_1
 62
     2
  6
CONTINUOUS
 10
0.189945
 20
-0.842531
  0
VERTEX
  8
PLAN_1
 62
     2
  6
CONTINUOUS
 10
0.193031
 20
-0.842531
  0
VERTEX
  8
PLAN_1
 62
     2
  6
CONTINUOUS
 10
0.193031
 20
-0.849724
  0
VERTEX
  8
PLAN_1
 62
     2
  6
CONTINUOUS
 10
0.192004
 20
-0.849724
  0
VERTEX
  8
PLAN_1
 62
     2
  6
CONTINUOUS
 10
0.190461
 20
-0.849724
  0
VERTEX
  8
PLAN_1
 62
     2
  6
CONTINUOUS
 10
0.189433
 20
-0.849724
  0
VERTEX
  8
PLAN_1
 62
     2
  6
CONTINUOUS
 10
0.188917
 20
-0.850240
  0
VERTEX
  8
PLAN_1
 62
     2
  6
CONTINUOUS
 10
0.187890
 20
-0.850240
  0
VERTEX
  8
PLAN_1
 62
     2
  6
CONTINUOUS
 10
0.187378
 20
-0.850240
  0
VERTEX
  8
PLAN_1
 62
     2
  6
CONTINUOUS
 10
0.186346
 20
-0.850240
  0
VERTEX
  8
PLAN_1
 62
     2
  6
CONTINUOUS
 10
0.183264
 20
-0.850240
  0
VERTEX
  8
PLAN_1
 62
     2
  6
CONTINUOUS
 10
0.180693
 20
-0.849213
  0
VERTEX
  8
PLAN_1
 62
     2
  6
CONTINUOUS
 10
0.178638
 20
-0.848185
  0
VERTEX
  8
PLAN_1
 62
     2
  6
CONTINUOUS
 10
0.177094
 20
-0.846642
  0
VERTEX
  8
PLAN_1
 62
     2
  6
CONTINUOUS
 10
0.176067
 20
-0.845098
  0
VERTEX
  8
PLAN_1
 62
     2
  6
CONTINUOUS
 10
0.175555
 20
-0.843043
  0
VERTEX
  8
PLAN_1
 62
     2
  6
CONTINUOUS
 10
0.175039
 20
-0.840988
  0
VERTEX
  8
PLAN_1
 62
     2
  6
CONTINUOUS
 10
0.175039
 20
-0.838417
  0
VERTEX
  8
PLAN_1
 62
     2
  6
CONTINUOUS
 10
0.175039
 20
-0.802953
  0
VERTEX
  8
PLAN_1
 62
     2
  6
CONTINUOUS
 10
0.167843
 20
-0.802953
  0
VERTEX
  8
PLAN_1
 62
     2
  6
CONTINUOUS
 10
0.167843
 20
-0.795240
  0
VERTEX
  8
PLAN_1
 62
     2
  6
CONTINUOUS
 10
0.175039
 20
-0.795240
  0
VERTEX
  8
PLAN_1
 62
     2
  6
CONTINUOUS
 10
0.175039
 20
-0.779823
  0
VERTEX
  8
PLAN_1
 62
     2
  6
CONTINUOUS
 10
0.184291
 20
-0.779823
  0
VERTEX
  8
PLAN_1
 62
     2
  6
CONTINUOUS
 10
0.184291
 20
-0.795240
  0
VERTEX
  8
PLAN_1
 62
     2
  6
CONTINUOUS
 10
0.193031
 20
-0.795240
  0
VERTEX
  8
PLAN_1
 62
     2
  6
CONTINUOUS
 10
0.193031
 20
-0.802953
  0
VERTEX
  8
PLAN_1
 62
     2
  6
CONTINUOUS
 10
0.184291
 20
-0.802953
  0
SEQEND
  8
0
  0
POLYLINE
  8
PLAN_1
 62
     2
  6
CONTINUOUS
 66
     1
 40
0.003000
 41
0.003000
  0
VERTEX
  8
PLAN_1
 62
     2
  6
CONTINUOUS
 10
0.224386
 20
-0.793701
  0
VERTEX
  8
PLAN_1
 62
     2
  6
CONTINUOUS
 10
0.227469
 20
-0.793701
  0
VERTEX
  8
PLAN_1
 62
     2
  6
CONTINUOUS
 10
0.230039
 20
-0.794213
  0
VERTEX
  8
PLAN_1
 62
     2
  6
CONTINUOUS
 10
0.233122
 20
-0.795240
  0
VERTEX
  8
PLAN_1
 62
     2
  6
CONTINUOUS
 10
0.235177
 20
-0.796272
  0
VERTEX
  8
PLAN_1
 62
     2
  6
CONTINUOUS
 10
0.237748
 20
-0.797299
  0
VERTEX
  8
PLAN_1
 62
     2
  6
CONTINUOUS
 10
0.239803
 20
-0.798839
  0
VERTEX
  8
PLAN_1
 62
     2
  6
CONTINUOUS
 10
0.241858
 20
-0.800898
  0
VERTEX
  8
PLAN_1
 62
     2
  6
CONTINUOUS
 10
0.243402
 20
-0.802437
  0
VERTEX
  8
PLAN_1
 62
     2
  6
CONTINUOUS
 10
0.245972
 20
-0.807063
  0
VERTEX
  8
PLAN_1
 62
     2
  6
CONTINUOUS
 10
0.248028
 20
-0.811689
  0
VERTEX
  8
PLAN_1
 62
     2
  6
CONTINUOUS
 10
0.249055
 20
-0.816831
  0
VERTEX
  8
PLAN_1
 62
     2
  6
CONTINUOUS
 10
0.249571
 20
-0.822484
  0
VERTEX
  8
PLAN_1
 62
     2
  6
CONTINUOUS
 10
0.249055
 20
-0.827622
  0
VERTEX
  8
PLAN_1
 62
     2
  6
CONTINUOUS
 10
0.248028
 20
-0.832764
  0
VERTEX
  8
PLAN_1
 62
     2
  6
CONTINUOUS
 10
0.245972
 20
-0.837390
  0
VERTEX
  8
PLAN_1
 62
     2
  6
CONTINUOUS
 10
0.243402
 20
-0.842016
  0
VERTEX
  8
PLAN_1
 62
     2
  6
CONTINUOUS
 10
0.241858
 20
-0.844071
  0
VERTEX
  8
PLAN_1
 62
     2
  6
CONTINUOUS
 10
0.239803
 20
-0.845614
  0
VERTEX
  8
PLAN_1
 62
     2
  6
CONTINUOUS
 10
0.237748
 20
-0.847157
  0
VERTEX
  8
PLAN_1
 62
     2
  6
CONTINUOUS
 10
0.235177
 20
-0.848697
  0
VERTEX
  8
PLAN_1
 62
     2
  6
CONTINUOUS
 10
0.233122
 20
-0.849724
  0
VERTEX
  8
PLAN_1
 62
     2
  6
CONTINUOUS
 10
0.230039
 20
-0.850240
  0
VERTEX
  8
PLAN_1
 62
     2
  6
CONTINUOUS
 10
0.227469
 20
-0.850756
  0
VERTEX
  8
PLAN_1
 62
     2
  6
CONTINUOUS
 10
0.224386
 20
-0.850756
  0
VERTEX
  8
PLAN_1
 62
     2
  6
CONTINUOUS
 10
0.220787
 20
-0.850756
  0
VERTEX
  8
PLAN_1
 62
     2
  6
CONTINUOUS
 10
0.218217
 20
-0.850240
  0
VERTEX
  8
PLAN_1
 62
     2
  6
CONTINUOUS
 10
0.215134
 20
-0.849724
  0
VERTEX
  8
PLAN_1
 62
     2
  6
CONTINUOUS
 10
0.213075
 20
-0.848697
  0
VERTEX
  8
PLAN_1
 62
     2
  6
CONTINUOUS
 10
0.210508
 20
-0.847157
  0
VERTEX
  8
PLAN_1
 62
     2
  6
CONTINUOUS
 10
0.208449
 20
-0.845614
  0
VERTEX
  8
PLAN_1
 62
     2
  6
CONTINUOUS
 10
0.206394
 20
-0.844071
  0
VERTEX
  8
PLAN_1
 62
     2
  6
CONTINUOUS
 10
0.204850
 20
-0.842016
  0
VERTEX
  8
PLAN_1
 62
     2
  6
CONTINUOUS
 10
0.202283
 20
-0.837390
  0
VERTEX
  8
PLAN_1
 62
     2
  6
CONTINUOUS
 10
0.200224
 20
-0.832764
  0
VERTEX
  8
PLAN_1
 62
     2
  6
CONTINUOUS
 10
0.199197
 20
-0.827622
  0
VERTEX
  8
PLAN_1
 62
     2
  6
CONTINUOUS
 10
0.198685
 20
-0.822484
  0
VERTEX
  8
PLAN_1
 62
     2
  6
CONTINUOUS
 10
0.199197
 20
-0.816831
  0
VERTEX
  8
PLAN_1
 62
     2
  6
CONTINUOUS
 10
0.200224
 20
-0.811689
  0
VERTEX
  8
PLAN_1
 62
     2
  6
CONTINUOUS
 10
0.202283
 20
-0.807063
  0
VERTEX
  8
PLAN_1
 62
     2
  6
CONTINUOUS
 10
0.204850
 20
-0.802437
  0
VERTEX
  8
PLAN_1
 62
     2
  6
CONTINUOUS
 10
0.206394
 20
-0.800898
  0
VERTEX
  8
PLAN_1
 62
     2
  6
CONTINUOUS
 10
0.208449
 20
-0.798839
  0
VERTEX
  8
PLAN_1
 62
     2
  6
CONTINUOUS
 10
0.210508
 20
-0.797299
  0
VERTEX
  8
PLAN_1
 62
     2
  6
CONTINUOUS
 10
0.213075
 20
-0.796272
  0
VERTEX
  8
PLAN_1
 62
     2
  6
CONTINUOUS
 10
0.215134
 20
-0.795240
  0
VERTEX
  8
PLAN_1
 62
     2
  6
CONTINUOUS
 10
0.218217
 20
-0.794213
  0
VERTEX
  8
PLAN_1
 62
     2
  6
CONTINUOUS
 10
0.220787
 20
-0.793701
  0
VERTEX
  8
PLAN_1
 62
     2
  6
CONTINUOUS
 10
0.224386
 20
-0.793701
  0
SEQEND
  8
0
  0
POLYLINE
  8
PLAN_1
 62
     2
  6
CONTINUOUS
 66
     1
 40
0.003000
 41
0.003000
  0
VERTEX
  8
PLAN_1
 62
     2
  6
CONTINUOUS
 10
0.224386
 20
-0.843043
  0
VERTEX
  8
PLAN_1
 62
     2
  6
CONTINUOUS
 10
0.226441
 20
-0.843043
  0
VERTEX
  8
PLAN_1
 62
     2
  6
CONTINUOUS
 10
0.228496
 20
-0.842531
  0
VERTEX
  8
PLAN_1
 62
     2
  6
CONTINUOUS
 10
0.230551
 20
-0.842016
  0
VERTEX
  8
PLAN_1
 62
     2
  6
CONTINUOUS
 10
0.232094
 20
-0.840988
  0
VERTEX
  8
PLAN_1
 62
     2
  6
CONTINUOUS
 10
0.234665
 20
-0.838417
  0
VERTEX
  8
PLAN_1
 62
     2
  6
CONTINUOUS
 10
0.236720
 20
-0.835335
  0
VERTEX
  8
PLAN_1
 62
     2
  6
CONTINUOUS
 10
0.238264
 20
-0.832248
  0
VERTEX
  8
PLAN_1
 62
     2
  6
CONTINUOUS
 10
0.239291
 20
-0.828654
  0
VERTEX
  8
PLAN_1
 62
     2
  6
CONTINUOUS
 10
0.239803
 20
-0.825055
  0
VERTEX
  8
PLAN_1
 62
     2
  6
CONTINUOUS
 10
0.239803
 20
-0.822484
  0
VERTEX
  8
PLAN_1
 62
     2
  6
CONTINUOUS
 10
0.239803
 20
-0.819402
  0
VERTEX
  8
PLAN_1
 62
     2
  6
CONTINUOUS
 10
0.239291
 20
-0.815803
  0
VERTEX
  8
PLAN_1
 62
     2
  6
CONTINUOUS
 10
0.238264
 20
-0.812717
  0
VERTEX
  8
PLAN_1
 62
     2
  6
CONTINUOUS
 10
0.236720
 20
-0.809118
  0
VERTEX
  8
PLAN_1
 62
     2
  6
CONTINUOUS
 10
0.234665
 20
-0.806035
  0
VERTEX
  8
PLAN_1
 62
     2
  6
CONTINUOUS
 10
0.232094
 20
-0.803465
  0
VERTEX
  8
PLAN_1
 62
     2
  6
CONTINUOUS
 10
0.230551
 20
-0.802953
  0
VERTEX
  8
PLAN_1
 62
     2
  6
CONTINUOUS
 10
0.228496
 20
-0.801925
  0
VERTEX
  8
PLAN_1
 62
     2
  6
CONTINUOUS
 10
0.226441
 20
-0.801409
  0
VERTEX
  8
PLAN_1
 62
     2
  6
CONTINUOUS
 10
0.224386
 20
-0.801409
  0
VERTEX
  8
PLAN_1
 62
     2
  6
CONTINUOUS
 10
0.221815
 20
-0.801409
  0
VERTEX
  8
PLAN_1
 62
     2
  6
CONTINUOUS
 10
0.219760
 20
-0.801925
  0
VERTEX
  8
PLAN_1
 62
     2
  6
CONTINUOUS
 10
0.217701
 20
-0.802953
  0
VERTEX
  8
PLAN_1
 62
     2
  6
CONTINUOUS
 10
0.216161
 20
-0.803465
  0
VERTEX
  8
PLAN_1
 62
     2
  6
CONTINUOUS
 10
0.213591
 20
-0.806035
  0
VERTEX
  8
PLAN_1
 62
     2
  6
CONTINUOUS
 10
0.211535
 20
-0.809118
  0
VERTEX
  8
PLAN_1
 62
     2
  6
CONTINUOUS
 10
0.209992
 20
-0.812717
  0
VERTEX
  8
PLAN_1
 62
     2
  6
CONTINUOUS
 10
0.208965
 20
-0.815803
  0
VERTEX
  8
PLAN_1
 62
     2
  6
CONTINUOUS
 10
0.208449
 20
-0.819402
  0
VERTEX
  8
PLAN_1
 62
     2
  6
CONTINUOUS
 10
0.208449
 20
-0.822484
  0
VERTEX
  8
PLAN_1
 62
     2
  6
CONTINUOUS
 10
0.208449
 20
-0.825055
  0
VERTEX
  8
PLAN_1
 62
     2
  6
CONTINUOUS
 10
0.208965
 20
-0.828654
  0
VERTEX
  8
PLAN_1
 62
     2
  6
CONTINUOUS
 10
0.209992
 20
-0.832248
  0
VERTEX
  8
PLAN_1
 62
     2
  6
CONTINUOUS
 10
0.211535
 20
-0.835335
  0
VERTEX
  8
PLAN_1
 62
     2
  6
CONTINUOUS
 10
0.213591
 20
-0.838417
  0
VERTEX
  8
PLAN_1
 62
     2
  6
CONTINUOUS
 10
0.216161
 20
-0.840988
  0
VERTEX
  8
PLAN_1
 62
     2
  6
CONTINUOUS
 10
0.217701
 20
-0.842016
  0
VERTEX
  8
PLAN_1
 62
     2
  6
CONTINUOUS
 10
0.219760
 20
-0.842531
  0
VERTEX
  8
PLAN_1
 62
     2
  6
CONTINUOUS
 10
0.221815
 20
-0.843043
  0
VERTEX
  8
PLAN_1
 62
     2
  6
CONTINUOUS
 10
0.224386
 20
-0.843043
  0
SEQEND
  8
0
  0
POLYLINE
  8
PLAN_1
 62
     2
  6
CONTINUOUS
 66
     1
 40
0.003000
 41
0.003000
  0
VERTEX
  8
PLAN_1
 62
     2
  6
CONTINUOUS
 10
0.295315
 20
-0.849724
  0
VERTEX
  8
PLAN_1
 62
     2
  6
CONTINUOUS
 10
0.295315
 20
-0.841504
  0
VERTEX
  8
PLAN_1
 62
     2
  6
CONTINUOUS
 10
0.293776
 20
-0.843559
  0
VERTEX
  8
PLAN_1
 62
     2
  6
CONTINUOUS
 10
0.292232
 20
-0.845614
  0
VERTEX
  8
PLAN_1
 62
     2
  6
CONTINUOUS
 10
0.290177
 20
-0.847157
  0
VERTEX
  8
PLAN_1
 62
     2
  6
CONTINUOUS
 10
0.288118
 20
-0.848697
  0
VERTEX
  8
PLAN_1
 62
     2
  6
CONTINUOUS
 10
0.286063
 20
-0.849724
  0
VERTEX
  8
PLAN_1
 62
     2
  6
CONTINUOUS
 10
0.283492
 20
-0.850240
  0
VERTEX
  8
PLAN_1
 62
     2
  6
CONTINUOUS
 10
0.280925
 20
-0.850756
  0
VERTEX
  8
PLAN_1
 62
     2
  6
CONTINUOUS
 10
0.277839
 20
-0.851268
  0
VERTEX
  8
PLAN_1
 62
     2
  6
CONTINUOUS
 10
0.274756
 20
-0.850756
  0
VERTEX
  8
PLAN_1
 62
     2
  6
CONTINUOUS
 10
0.271673
 20
-0.850240
  0
VERTEX
  8
PLAN_1
 62
     2
  6
CONTINUOUS
 10
0.268587
 20
-0.849213
  0
VERTEX
  8
PLAN_1
 62
     2
  6
CONTINUOUS
 10
0.266020
 20
-0.847669
  0
VERTEX
  8
PLAN_1
 62
     2
  6
CONTINUOUS
 10
0.263449
 20
-0.845098
  0
VERTEX
  8
PLAN_1
 62
     2
  6
CONTINUOUS
 10
0.261906
 20
-0.842531
  0
VERTEX
  8
PLAN_1
 62
     2
  6
CONTINUOUS
 10
0.260362
 20
-0.838933
  0
VERTEX
  8
PLAN_1
 62
     2
  6
CONTINUOUS
 10
0.260362
 20
-0.834307
  0
VERTEX
  8
PLAN_1
 62
     2
  6
CONTINUOUS
 10
0.260362
 20
-0.795240
  0
VERTEX
  8
PLAN_1
 62
     2
  6
CONTINUOUS
 10
0.269102
 20
-0.795240
  0
VERTEX
  8
PLAN_1
 62
     2
  6
CONTINUOUS
 10
0.269102
 20
-0.831220
  0
VERTEX
  8
PLAN_1
 62
     2
  6
CONTINUOUS
 10
0.269614
 20
-0.834307
  0
VERTEX
  8
PLAN_1
 62
     2
  6
CONTINUOUS
 10
0.270130
 20
-0.836878
  0
VERTEX
  8
PLAN_1
 62
     2
  6
CONTINUOUS
 10
0.271157
 20
-0.838933
  0
VERTEX
  8
PLAN_1
 62
     2
  6
CONTINUOUS
 10
0.272185
 20
-0.840472
  0
VERTEX
  8
PLAN_1
 62
     2
  6
CONTINUOUS
 10
0.273728
 20
-0.842016
  0
VERTEX
  8
PLAN_1
 62
     2
  6
CONTINUOUS
 10
0.275783
 20
-0.842531
  0
VERTEX
  8
PLAN_1
 62
     2
  6
CONTINUOUS
 10
0.277839
 20
-0.843043
  0
VERTEX
  8
PLAN_1
 62
     2
  6
CONTINUOUS
 10
0.279898
 20
-0.843043
  0
VERTEX
  8
PLAN_1
 62
     2
  6
CONTINUOUS
 10
0.284008
 20
-0.842531
  0
VERTEX
  8
PLAN_1
 62
     2
  6
CONTINUOUS
 10
0.287091
 20
-0.841504
  0
VERTEX
  8
PLAN_1
 62
     2
  6
CONTINUOUS
 10
0.289661
 20
-0.839445
  0
VERTEX
  8
PLAN_1
 62
     2
  6
CONTINUOUS
 10
0.291717
 20
-0.836878
  0
VERTEX
  8
PLAN_1
 62
     2
  6
CONTINUOUS
 10
0.293260
 20
-0.834307
  0
VERTEX
  8
PLAN_1
 62
     2
  6
CONTINUOUS
 10
0.294287
 20
-0.831220
  0
VERTEX
  8
PLAN_1
 62
     2
  6
CONTINUOUS
 10
0.294803
 20
-0.828138
  0
VERTEX
  8
PLAN_1
 62
     2
  6
CONTINUOUS
 10
0.294803
 20
-0.825055
  0
VERTEX
  8
PLAN_1
 62
     2
  6
CONTINUOUS
 10
0.294803
 20
-0.795240
  0
VERTEX
  8
PLAN_1
 62
     2
  6
CONTINUOUS
 10
0.304055
 20
-0.795240
  0
VERTEX
  8
PLAN_1
 62
     2
  6
CONTINUOUS
 10
0.304055
 20
-0.849724
  0
VERTEX
  8
PLAN_1
 62
     2
  6
CONTINUOUS
 10
0.295315
 20
-0.849724
  0
SEQEND
  8
0
  0
POLYLINE
  8
PLAN_1
 62
     2
  6
CONTINUOUS
 66
     1
 40
0.003000
 41
0.003000
  0
VERTEX
  8
PLAN_1
 62
     2
  6
CONTINUOUS
 10
0.316906
 20
-0.795240
  0
VERTEX
  8
PLAN_1
 62
     2
  6
CONTINUOUS
 10
0.325642
 20
-0.795240
  0
VERTEX
  8
PLAN_1
 62
     2
  6
CONTINUOUS
 10
0.325642
 20
-0.802953
  0
VERTEX
  8
PLAN_1
 62
     2
  6
CONTINUOUS
 10
0.326669
 20
-0.801409
  0
VERTEX
  8
PLAN_1
 62
     2
  6
CONTINUOUS
 10
0.327697
 20
-0.799866
  0
VERTEX
  8
PLAN_1
 62
     2
  6
CONTINUOUS
 10
0.329240
 20
-0.798327
  0
VERTEX
  8
PLAN_1
 62
     2
  6
CONTINUOUS
 10
0.331295
 20
-0.796783
  0
VERTEX
  8
PLAN_1
 62
     2
  6
CONTINUOUS
 10
0.333350
 20
-0.795756
  0
VERTEX
  8
PLAN_1
 62
     2
  6
CONTINUOUS
 10
0.335921
 20
-0.794728
  0
VERTEX
  8
PLAN_1
 62
     2
  6
CONTINUOUS
 10
0.338492
 20
-0.793701
  0
VERTEX
  8
PLAN_1
 62
     2
  6
CONTINUOUS
 10
0.342091
 20
-0.793701
  0
VERTEX
  8
PLAN_1
 62
     2
  6
CONTINUOUS
 10
0.344661
 20
-0.793701
  0
VERTEX
  8
PLAN_1
 62
     2
  6
CONTINUOUS
 10
0.347228
 20
-0.794213
  0
VERTEX
  8
PLAN_1
 62
     2
  6
CONTINUOUS
 10
0.349799
 20
-0.794728
  0
VERTEX
  8
PLAN_1
 62
     2
  6
CONTINUOUS
 10
0.351854
 20
-0.795756
  0
VERTEX
  8
PLAN_1
 62
     2
  6
CONTINUOUS
 10
0.353913
 20
-0.796783
  0
VERTEX
  8
PLAN_1
 62
     2
  6
CONTINUOUS
 10
0.355453
 20
-0.798327
  0
VERTEX
  8
PLAN_1
 62
     2
  6
CONTINUOUS
 10
0.357512
 20
-0.799866
  0
VERTEX
  8
PLAN_1
 62
     2
  6
CONTINUOUS
 10
0.359051
 20
-0.801409
  0
VERTEX
  8
PLAN_1
 62
     2
  6
CONTINUOUS
 10
0.361622
 20
-0.805524
  0
VERTEX
  8
PLAN_1
 62
     2
  6
CONTINUOUS
 10
0.363165
 20
-0.810150
  0
VERTEX
  8
PLAN_1
 62
     2
  6
CONTINUOUS
 10
0.364193
 20
-0.815287
  0
VERTEX
  8
PLAN_1
 62
     2
  6
CONTINUOUS
 10
0.364705
 20
-0.820941
  0
VERTEX
  8
PLAN_1
 62
     2
  6
CONTINUOUS
 10
0.364705
 20
-0.825567
  0
VERTEX
  8
PLAN_1
 62
     2
  6
CONTINUOUS
 10
0.363677
 20
-0.830709
  0
VERTEX
  8
PLAN_1
 62
     2
  6
CONTINUOUS
 10
0.362138
 20
-0.835846
  0
VERTEX
  8
PLAN_1
 62
     2
  6
CONTINUOUS
 10
0.359567
 20
-0.840988
  0
VERTEX
  8
PLAN_1
 62
     2
  6
CONTINUOUS
 10
0.358539
 20
-0.843043
  0
VERTEX
  8
PLAN_1
 62
     2
  6
CONTINUOUS
 10
0.356480
 20
-0.845098
  0
VERTEX
  8
PLAN_1
 62
     2
  6
CONTINUOUS
 10
0.354425
 20
-0.846642
  0
VERTEX
  8
PLAN_1
 62
     2
  6
CONTINUOUS
 10
0.352370
 20
-0.848185
  0
VERTEX
  8
PLAN_1
 62
     2
  6
CONTINUOUS
 10
0.349799
 20
-0.849213
  0
VERTEX
  8
PLAN_1
 62
     2
  6
CONTINUOUS
 10
0.347228
 20
-0.850240
  0
VERTEX
  8
PLAN_1
 62
     2
  6
CONTINUOUS
 10
0.344146
 20
-0.850756
  0
VERTEX
  8
PLAN_1
 62
     2
  6
CONTINUOUS
 10
0.341063
 20
-0.851268
  0
VERTEX
  8
PLAN_1
 62
     2
  6
CONTINUOUS
 10
0.338492
 20
-0.850756
  0
VERTEX
  8
PLAN_1
 62
     2
  6
CONTINUOUS
 10
0.335921
 20
-0.850756
  0
VERTEX
  8
PLAN_1
 62
     2
  6
CONTINUOUS
 10
0.333866
 20
-0.849724
  0
VERTEX
  8
PLAN_1
 62
     2
  6
CONTINUOUS
 10
0.331811
 20
-0.848697
  0
VERTEX
  8
PLAN_1
 62
     2
  6
CONTINUOUS
 10
0.330268
 20
-0.847669
  0
VERTEX
  8
PLAN_1
 62
     2
  6
CONTINUOUS
 10
0.328724
 20
-0.846642
  0
VERTEX
  8
PLAN_1
 62
     2
  6
CONTINUOUS
 10
0.327185
 20
-0.845098
  0
VERTEX
  8
PLAN_1
 62
     2
  6
CONTINUOUS
 10
0.326157
 20
-0.844071
  0
VERTEX
  8
PLAN_1
 62
     2
  6
CONTINUOUS
 10
0.326157
 20
-0.871315
  0
VERTEX
  8
PLAN_1
 62
     2
  6
CONTINUOUS
 10
0.316906
 20
-0.871315
  0
VERTEX
  8
PLAN_1
 62
     2
  6
CONTINUOUS
 10
0.316906
 20
-0.795240
  0
SEQEND
  8
0
  0
POLYLINE
  8
PLAN_1
 62
     2
  6
CONTINUOUS
 66
     1
 40
0.003000
 41
0.003000
  0
VERTEX
  8
PLAN_1
 62
     2
  6
CONTINUOUS
 10
0.340547
 20
-0.843043
  0
VERTEX
  8
PLAN_1
 62
     2
  6
CONTINUOUS
 10
0.344146
 20
-0.843043
  0
VERTEX
  8
PLAN_1
 62
     2
  6
CONTINUOUS
 10
0.347228
 20
-0.841504
  0
VERTEX
  8
PLAN_1
 62
     2
  6
CONTINUOUS
 10
0.349799
 20
-0.839961
  0
VERTEX
  8
PLAN_1
 62
     2
  6
CONTINUOUS
 10
0.351854
 20
-0.837390
  0
VERTEX
  8
PLAN_1
 62
     2
  6
CONTINUOUS
 10
0.353398
 20
-0.834307
  0
VERTEX
  8
PLAN_1
 62
     2
  6
CONTINUOUS
 10
0.354425
 20
-0.830709
  0
VERTEX
  8
PLAN_1
 62
     2
  6
CONTINUOUS
 10
0.354941
 20
-0.826594
  0
VERTEX
  8
PLAN_1
 62
     2
  6
CONTINUOUS
 10
0.355453
 20
-0.821969
  0
VERTEX
  8
PLAN_1
 62
     2
  6
CONTINUOUS
 10
0.355453
 20
-0.819402
  0
VERTEX
  8
PLAN_1
 62
     2
  6
CONTINUOUS
 10
0.354941
 20
-0.815803
  0
VERTEX
  8
PLAN_1
 62
     2
  6
CONTINUOUS
 10
0.354425
 20
-0.812717
  0
VERTEX
  8
PLAN_1
 62
     2
  6
CONTINUOUS
 10
0.353398
 20
-0.809118
  0
VERTEX
  8
PLAN_1
 62
     2
  6
CONTINUOUS
 10
0.351343
 20
-0.806551
  0
VERTEX
  8
PLAN_1
 62
     2
  6
CONTINUOUS
 10
0.348772
 20
-0.803980
  0
VERTEX
  8
PLAN_1
 62
     2
  6
CONTINUOUS
 10
0.347228
 20
-0.802953
  0
VERTEX
  8
PLAN_1
 62
     2
  6
CONTINUOUS
 10
0.345173
 20
-0.802437
  0
VERTEX
  8
PLAN_1
 62
     2
  6
CONTINUOUS
 10
0.343118
 20
-0.801925
  0
VERTEX
  8
PLAN_1
 62
     2
  6
CONTINUOUS
 10
0.340547
 20
-0.801925
  0
VERTEX
  8
PLAN_1
 62
     2
  6
CONTINUOUS
 10
0.337976
 20
-0.801925
  0
VERTEX
  8
PLAN_1
 62
     2
  6
CONTINUOUS
 10
0.335921
 20
-0.802437
  0
VERTEX
  8
PLAN_1
 62
     2
  6
CONTINUOUS
 10
0.334382
 20
-0.802953
  0
VERTEX
  8
PLAN_1
 62
     2
  6
CONTINUOUS
 10
0.332323
 20
-0.803980
  0
VERTEX
  8
PLAN_1
 62
     2
  6
CONTINUOUS
 10
0.329756
 20
-0.806551
  0
VERTEX
  8
PLAN_1
 62
     2
  6
CONTINUOUS
 10
0.328213
 20
-0.810150
  0
VERTEX
  8
PLAN_1
 62
     2
  6
CONTINUOUS
 10
0.327185
 20
-0.813744
  0
VERTEX
  8
PLAN_1
 62
     2
  6
CONTINUOUS
 10
0.326157
 20
-0.817343
  0
VERTEX
  8
PLAN_1
 62
     2
  6
CONTINUOUS
 10
0.325642
 20
-0.821457
  0
VERTEX
  8
PLAN_1
 62
     2
  6
CONTINUOUS
 10
0.325642
 20
-0.825055
  0
VERTEX
  8
PLAN_1
 62
     2
  6
CONTINUOUS
 10
0.326157
 20
-0.829681
  0
VERTEX
  8
PLAN_1
 62
     2
  6
CONTINUOUS
 10
0.327185
 20
-0.833791
  0
VERTEX
  8
PLAN_1
 62
     2
  6
CONTINUOUS
 10
0.328724
 20
-0.836878
  0
VERTEX
  8
PLAN_1
 62
     2
  6
CONTINUOUS
 10
0.330783
 20
-0.839445
  0
VERTEX
  8
PLAN_1
 62
     2
  6
CONTINUOUS
 10
0.333350
 20
-0.840988
  0
VERTEX
  8
PLAN_1
 62
     2
  6
CONTINUOUS
 10
0.335921
 20
-0.842531
  0
VERTEX
  8
PLAN_1
 62
     2
  6
CONTINUOUS
 10
0.338492
 20
-0.843043
  0
VERTEX
  8
PLAN_1
 62
     2
  6
CONTINUOUS
 10
0.340547
 20
-0.843043
  0
SEQEND
  8
0
  0
POLYLINE
  8
PLAN_1
 62
     2
  6
CONTINUOUS
 66
     1
 40
0.003000
 41
0.003000
  0
VERTEX
  8
PLAN_1
 62
     2
  6
CONTINUOUS
 10
0.421760
 20
-0.832248
  0
VERTEX
  8
PLAN_1
 62
     2
  6
CONTINUOUS
 10
0.421760
 20
-0.833791
  0
VERTEX
  8
PLAN_1
 62
     2
  6
CONTINUOUS
 10
0.421244
 20
-0.835335
  0
VERTEX
  8
PLAN_1
 62
     2
  6
CONTINUOUS
 10
0.420217
 20
-0.836878
  0
VERTEX
  8
PLAN_1
 62
     2
  6
CONTINUOUS
 10
0.419705
 20
-0.838933
  0
VERTEX
  8
PLAN_1
 62
     2
  6
CONTINUOUS
 10
0.418161
 20
-0.841504
  0
VERTEX
  8
PLAN_1
 62
     2
  6
CONTINUOUS
 10
0.416618
 20
-0.843559
  0
VERTEX
  8
PLAN_1
 62
     2
  6
CONTINUOUS
 10
0.414563
 20
-0.845614
  0
VERTEX
  8
PLAN_1
 62
     2
  6
CONTINUOUS
 10
0.411992
 20
-0.847157
  0
VERTEX
  8
PLAN_1
 62
     2
  6
CONTINUOUS
 10
0.410965
 20
-0.848185
  0
VERTEX
  8
PLAN_1
 62
     2
  6
CONTINUOUS
 10
0.409937
 20
-0.848697
  0
VERTEX
  8
PLAN_1
 62
     2
  6
CONTINUOUS
 10
0.408909
 20
-0.849213
  0
VERTEX
  8
PLAN_1
 62
     2
  6
CONTINUOUS
 10
0.407366
 20
-0.849724
  0
VERTEX
  8
PLAN_1
 62
     2
  6
CONTINUOUS
 10
0.405311
 20
-0.850240
  0
VERTEX
  8
PLAN_1
 62
     2
  6
CONTINUOUS
 10
0.403256
 20
-0.850756
  0
VERTEX
  8
PLAN_1
 62
     2
  6
CONTINUOUS
 10
0.400685
 20
-0.850756
  0
VERTEX
  8
PLAN_1
 62
     2
  6
CONTINUOUS
 10
0.397602
 20
-0.851268
  0
VERTEX
  8
PLAN_1
 62
     2
  6
CONTINUOUS
 10
0.394520
 20
-0.850756
  0
VERTEX
  8
PLAN_1
 62
     2
  6
CONTINUOUS
 10
0.391949
 20
-0.850756
  0
VERTEX
  8
PLAN_1
 62
     2
  6
CONTINUOUS
 10
0.389378
 20
-0.849724
  0
VERTEX
  8
PLAN_1
 62
     2
  6
CONTINUOUS
 10
0.387323
 20
-0.849213
  0
VERTEX
  8
PLAN_1
 62
     2
  6
CONTINUOUS
 10
0.384752
 20
-0.848185
  0
VERTEX
  8
PLAN_1
 62
     2
  6
CONTINUOUS
 10
0.383209
 20
-0.846642
  0
VERTEX
  8
PLAN_1
 62
     2
  6
CONTINUOUS
 10
0.381154
 20
-0.845098
  0
VERTEX
  8
PLAN_1
 62
     2
  6
CONTINUOUS
 10
0.379610
 20
-0.843559
  0
VERTEX
  8
PLAN_1
 62
     2
  6
CONTINUOUS
 10
0.376528
 20
-0.839445
  0
VERTEX
  8
PLAN_1
 62
     2
  6
CONTINUOUS
 10
0.374472
 20
-0.834819
  0
VERTEX
  8
PLAN_1
 62
     2
  6
CONTINUOUS
 10
0.373445
 20
-0.829681
  0
VERTEX
  8
PLAN_1
 62
     2
  6
CONTINUOUS
 10
0.372929
 20
-0.824028
  0
VERTEX
  8
PLAN_1
 62
     2
  6
CONTINUOUS
 10
0.373445
 20
-0.817858
  0
VERTEX
  8
PLAN_1
 62
     2
  6
CONTINUOUS
 10
0.374472
 20
-0.812205
  0
VERTEX
  8
PLAN_1
 62
     2
  6
CONTINUOUS
 10
0.375500
 20
-0.809118
  0
VERTEX
  8
PLAN_1
 62
     2
  6
CONTINUOUS
 10
0.376528
 20
-0.807063
  0
VERTEX
  8
PLAN_1
 62
     2
  6
CONTINUOUS
 10
0.378071
 20
-0.804492
  0
VERTEX
  8
PLAN_1
 62
     2
  6
CONTINUOUS
 10
0.379610
 20
-0.802437
  0
VERTEX
  8
PLAN_1
 62
     2
  6
CONTINUOUS
 10
0.381154
 20
-0.800382
  0
VERTEX
  8
PLAN_1
 62
     2
  6
CONTINUOUS
 10
0.383209
 20
-0.798839
  0
VERTEX
  8
PLAN_1
 62
     2
  6
CONTINUOUS
 10
0.385268
 20
-0.797299
  0
VERTEX
  8
PLAN_1
 62
     2
  6
CONTINUOUS
 10
0.387323
 20
-0.795756
  0
VERTEX
  8
PLAN_1
 62
     2
  6
CONTINUOUS
 10
0.389894
 20
-0.794728
  0
VERTEX
  8
PLAN_1
 62
     2
  6
CONTINUOUS
 10
0.392976
 20
-0.794213
  0
VERTEX
  8
PLAN_1
 62
     2
  6
CONTINUOUS
 10
0.396059
 20
-0.793701
  0
VERTEX
  8
PLAN_1
 62
     2
  6
CONTINUOUS
 10
0.399146
 20
-0.793701
  0
VERTEX
  8
PLAN_1
 62
     2
  6
CONTINUOUS
 10
0.402228
 20
-0.793701
  0
VERTEX
  8
PLAN_1
 62
     2
  6
CONTINUOUS
 10
0.404799
 20
-0.794213
  0
VERTEX
  8
PLAN_1
 62
     2
  6
CONTINUOUS
 10
0.407366
 20
-0.794728
  0
VERTEX
  8
PLAN_1
 62
     2
  6
CONTINUOUS
 10
0.409425
 20
-0.795756
  0
VERTEX
  8
PLAN_1
 62
     2
  6
CONTINUOUS
 10
0.411480
 20
-0.797299
  0
VERTEX
  8
PLAN_1
 62
     2
  6
CONTINUOUS
 10
0.413535
 20
-0.798327
  0
VERTEX
  8
PLAN_1
 62
     2
  6
CONTINUOUS
 10
0.415079
 20
-0.800382
  0
VERTEX
  8
PLAN_1
 62
     2
  6
CONTINUOUS
 10
0.416618
 20
-0.802437
  0
VERTEX
  8
PLAN_1
 62
     2
  6
CONTINUOUS
 10
0.419189
 20
-0.806551
  0
VERTEX
  8
PLAN_1
 62
     2
  6
CONTINUOUS
 10
0.421244
 20
-0.812205
  0
VERTEX
  8
PLAN_1
 62
     2
  6
CONTINUOUS
 10
0.422276
 20
-0.818370
  0
VERTEX
  8
PLAN_1
 62
     2
  6
CONTINUOUS
 10
0.422787
 20
-0.825055
  0
VERTEX
  8
PLAN_1
 62
     2
  6
CONTINUOUS
 10
0.382697
 20
-0.825055
  0
VERTEX
  8
PLAN_1
 62
     2
  6
CONTINUOUS
 10
0.383209
 20
-0.829165
  0
VERTEX
  8
PLAN_1
 62
     2
  6
CONTINUOUS
 10
0.383724
 20
-0.832764
  0
VERTEX
  8
PLAN_1
 62
     2
  6
CONTINUOUS
 10
0.385268
 20
-0.835846
  0
VERTEX
  8
PLAN_1
 62
     2
  6
CONTINUOUS
 10
0.386807
 20
-0.838417
  0
VERTEX
  8
PLAN_1
 62
     2
  6
CONTINUOUS
 10
0.388862
 20
-0.840472
  0
VERTEX
  8
PLAN_1
 62
     2
  6
CONTINUOUS
 10
0.391949
 20
-0.842016
  0
VERTEX
  8
PLAN_1
 62
     2
  6
CONTINUOUS
 10
0.395031
 20
-0.843043
  0
VERTEX
  8
PLAN_1
 62
     2
  6
CONTINUOUS
 10
0.398630
 20
-0.843043
  0
VERTEX
  8
PLAN_1
 62
     2
  6
CONTINUOUS
 10
0.401713
 20
-0.843043
  0
VERTEX
  8
PLAN_1
 62
     2
  6
CONTINUOUS
 10
0.404283
 20
-0.842016
  0
VERTEX
  8
PLAN_1
 62
     2
  6
CONTINUOUS
 10
0.406854
 20
-0.840988
  0
VERTEX
  8
PLAN_1
 62
     2
  6
CONTINUOUS
 10
0.408909
 20
-0.839445
  0
VERTEX
  8
PLAN_1
 62
     2
  6
CONTINUOUS
 10
0.410453
 20
-0.837906
  0
VERTEX
  8
PLAN_1
 62
     2
  6
CONTINUOUS
 10
0.411480
 20
-0.835846
  0
VERTEX
  8
PLAN_1
 62
     2
  6
CONTINUOUS
 10
0.412508
 20
-0.834307
  0
VERTEX
  8
PLAN_1
 62
     2
  6
CONTINUOUS
 10
0.412508
 20
-0.832248
  0
VERTEX
  8
PLAN_1
 62
     2
  6
CONTINUOUS
 10
0.421760
 20
-0.832248
  0
SEQEND
  8
0
  0
POLYLINE
  8
PLAN_1
 62
     2
  6
CONTINUOUS
 66
     1
 40
0.003000
 41
0.003000
  0
VERTEX
  8
PLAN_1
 62
     2
  6
CONTINUOUS
 10
0.413024
 20
-0.817858
  0
VERTEX
  8
PLAN_1
 62
     2
  6
CONTINUOUS
 10
0.413024
 20
-0.814776
  0
VERTEX
  8
PLAN_1
 62
     2
  6
CONTINUOUS
 10
0.411992
 20
-0.811689
  0
VERTEX
  8
PLAN_1
 62
     2
  6
CONTINUOUS
 10
0.410965
 20
-0.809118
  0
VERTEX
  8
PLAN_1
 62
     2
  6
CONTINUOUS
 10
0.409425
 20
-0.806551
  0
VERTEX
  8
PLAN_1
 62
     2
  6
CONTINUOUS
 10
0.407366
 20
-0.804492
  0
VERTEX
  8
PLAN_1
 62
     2
  6
CONTINUOUS
 10
0.404799
 20
-0.802953
  0
VERTEX
  8
PLAN_1
 62
     2
  6
CONTINUOUS
 10
0.401713
 20
-0.801925
  0
VERTEX
  8
PLAN_1
 62
     2
  6
CONTINUOUS
 10
0.398114
 20
-0.801925
  0
VERTEX
  8
PLAN_1
 62
     2
  6
CONTINUOUS
 10
0.395031
 20
-0.801925
  0
VERTEX
  8
PLAN_1
 62
     2
  6
CONTINUOUS
 10
0.391949
 20
-0.802953
  0
VERTEX
  8
PLAN_1
 62
     2
  6
CONTINUOUS
 10
0.389378
 20
-0.804492
  0
VERTEX
  8
PLAN_1
 62
     2
  6
CONTINUOUS
 10
0.387323
 20
-0.806551
  0
VERTEX
  8
PLAN_1
 62
     2
  6
CONTINUOUS
 10
0.385268
 20
-0.809118
  0
VERTEX
  8
PLAN_1
 62
     2
  6
CONTINUOUS
 10
0.384236
 20
-0.811689
  0
VERTEX
  8
PLAN_1
 62
     2
  6
CONTINUOUS
 10
0.383209
 20
-0.814776
  0
VERTEX
  8
PLAN_1
 62
     2
  6
CONTINUOUS
 10
0.382697
 20
-0.817858
  0
VERTEX
  8
PLAN_1
 62
     2
  6
CONTINUOUS
 10
0.413024
 20
-0.817858
  0
SEQEND
  8
0
  0
SOLID
  8
PLAN_1
 62
     2
 10
0.475217
 20
-0.849724
 11
0.465449
 21
-0.849724
 12
0.475217
 22
-0.774681
 13
0.465449
 23
-0.774681
  0
POLYLINE
  8
PLAN_1
 62
     2
  6
CONTINUOUS
 66
     1
 40
0.003000
 41
0.003000
  0
VERTEX
  8
PLAN_1
 62
     2
  6
CONTINUOUS
 10
0.475217
 20
-0.849724
  0
VERTEX
  8
PLAN_1
 62
     2
  6
CONTINUOUS
 10
0.465449
 20
-0.849724
  0
VERTEX
  8
PLAN_1
 62
     2
  6
CONTINUOUS
 10
0.465449
 20
-0.774681
  0
VERTEX
  8
PLAN_1
 62
     2
  6
CONTINUOUS
 10
0.475217
 20
-0.774681
  0
VERTEX
  8
PLAN_1
 62
     2
  6
CONTINUOUS
 10
0.475217
 20
-0.849724
  0
SEQEND
  8
0
  0
POLYLINE
  8
PLAN_1
 62
     2
  6
CONTINUOUS
 66
     1
 40
0.003000
 41
0.003000
  0
VERTEX
  8
PLAN_1
 62
     2
  6
CONTINUOUS
 10
0.537409
 20
-0.796783
  0
VERTEX
  8
PLAN_1
 62
     2
  6
CONTINUOUS
 10
0.536898
 20
-0.792673
  0
VERTEX
  8
PLAN_1
 62
     2
  6
CONTINUOUS
 10
0.535866
 20
-0.789587
  0
VERTEX
  8
PLAN_1
 62
     2
  6
CONTINUOUS
 10
0.533811
 20
-0.787020
  0
VERTEX
  8
PLAN_1
 62
     2
  6
CONTINUOUS
 10
0.531240
 20
-0.784961
  0
VERTEX
  8
PLAN_1
 62
     2
  6
CONTINUOUS
 10
0.528673
 20
-0.783421
  0
VERTEX
  8
PLAN_1
 62
     2
  6
CONTINUOUS
 10
0.525587
 20
-0.782394
  0
VERTEX
  8
PLAN_1
 62
     2
  6
CONTINUOUS
 10
0.522504
 20
-0.781878
  0
VERTEX
  8
PLAN_1
 62
     2
  6
CONTINUOUS
 10
0.518906
 20
-0.781362
  0
VERTEX
  8
PLAN_1
 62
     2
  6
CONTINUOUS
 10
0.516335
 20
-0.781362
  0
VERTEX
  8
PLAN_1
 62
     2
  6
CONTINUOUS
 10
0.513768
 20
-0.781878
  0
VERTEX
  8
PLAN_1
 62
     2
  6
CONTINUOUS
 10
0.510681
 20
-0.782906
  0
VERTEX
  8
PLAN_1
 62
     2
  6
CONTINUOUS
 10
0.508110
 20
-0.783933
  0
VERTEX
  8
PLAN_1
 62
     2
  6
CONTINUOUS
 10
0.505543
 20
-0.785476
  0
VERTEX
  8
PLAN_1
 62
     2
  6
CONTINUOUS
 10
0.504000
 20
-0.787531
  0
VERTEX
  8
PLAN_1
 62
     2
  6
CONTINUOUS
 10
0.502457
 20
-0.790614
  0
VERTEX
  8
PLAN_1
 62
     2
  6
CONTINUOUS
 10
0.501945
 20
-0.794728
  0
VERTEX
  8
PLAN_1
 62
     2
  6
CONTINUOUS
 10
0.502457
 20
-0.796783
  0
VERTEX
  8
PLAN_1
 62
     2
  6
CONTINUOUS
 10
0.502972
 20
-0.798839
  0
VERTEX
  8
PLAN_1
 62
     2
  6
CONTINUOUS
 10
0.503484
 20
-0.799866
  0
VERTEX
  8
PLAN_1
 62
     2
  6
CONTINUOUS
 10
0.505028
 20
-0.801409
  0
VERTEX
  8
PLAN_1
 62
     2
  6
CONTINUOUS
 10
0.506055
 20
-0.802437
  0
VERTEX
  8
PLAN_1
 62
     2
  6
CONTINUOUS
 10
0.507598
 20
-0.802953
  0
VERTEX
  8
PLAN_1
 62
     2
  6
CONTINUOUS
 10
0.509142
 20
-0.803465
  0
VERTEX
  8
PLAN_1
 62
     2
  6
CONTINUOUS
 10
0.510681
 20
-0.803980
  0
VERTEX
  8
PLAN_1
 62
     2
  6
CONTINUOUS
 10
0.532272
 20
-0.809118
  0
VERTEX
  8
PLAN_1
 62
     2
  6
CONTINUOUS
 10
0.535866
 20
-0.810150
  0
VERTEX
  8
PLAN_1
 62
     2
  6
CONTINUOUS
 10
0.538953
 20
-0.811177
  0
VERTEX
  8
PLAN_1
 62
     2
  6
CONTINUOUS
 10
0.542035
 20
-0.813232
  0
VERTEX
  8
PLAN_1
 62
     2
  6
CONTINUOUS
 10
0.544091
 20
-0.815287
  0
VERTEX
  8
PLAN_1
 62
     2
  6
CONTINUOUS
 10
0.546150
 20
-0.817858
  0
VERTEX
  8
PLAN_1
 62
     2
  6
CONTINUOUS
 10
0.547689
 20
-0.820941
  0
VERTEX
  8
PLAN_1
 62
     2
  6
CONTINUOUS
 10
0.548717
 20
-0.824539
  0
VERTEX
  8
PLAN_1
 62
     2
  6
CONTINUOUS
 10
0.549232
 20
-0.829165
  0
VERTEX
  8
PLAN_1
 62
     2
  6
CONTINUOUS
 10
0.549232
 20
-0.832248
  0
VERTEX
  8
PLAN_1
 62
     2
  6
CONTINUOUS
 10
0.548205
 20
-0.834819
  0
VERTEX
  8
PLAN_1
 62
     2
  6
CONTINUOUS
 10
0.547689
 20
-0.837390
  0
VERTEX
  8
PLAN_1
 62
     2
  6
CONTINUOUS
 10
0.546661
 20
-0.839961
  0
VERTEX
  8
PLAN_1
 62
     2
  6
CONTINUOUS
 10
0.545118
 20
-0.842016
  0
VERTEX
  8
PLAN_1
 62
     2
  6
CONTINUOUS
 10
0.543063
 20
-0.844071
  0
VERTEX
  8
PLAN_1
 62
     2
  6
CONTINUOUS
 10
0.541524
 20
-0.845614
  0
VERTEX
  8
PLAN_1
 62
     2
  6
CONTINUOUS
 10
0.539465
 20
-0.846642
  0
VERTEX
  8
PLAN_1
 62
     2
  6
CONTINUOUS
 10
0.534839
 20
-0.849213
  0
VERTEX
  8
PLAN_1
 62
     2
  6
CONTINUOUS
 10
0.529701
 20
-0.850240
  0
VERTEX
  8
PLAN_1
 62
     2
  6
CONTINUOUS
 10
0.525075
 20
-0.851268
  0
VERTEX
  8
PLAN_1
 62
     2
  6
CONTINUOUS
 10
0.519933
 20
-0.851268
  0
VERTEX
  8
PLAN_1
 62
     2
  6
CONTINUOUS
 10
0.515307
 20
-0.851268
  0
VERTEX
  8
PLAN_1
 62
     2
  6
CONTINUOUS
 10
0.511197
 20
-0.850756
  0
VERTEX
  8
PLAN_1
 62
     2
  6
CONTINUOUS
 10
0.507598
 20
-0.850240
  0
VERTEX
  8
PLAN_1
 62
     2
  6
CONTINUOUS
 10
0.504516
 20
-0.849213
  0
VERTEX
  8
PLAN_1
 62
     2
  6
CONTINUOUS
 10
0.502457
 20
-0.848185
  0
VERTEX
  8
PLAN_1
 62
     2
  6
CONTINUOUS
 10
0.500402
 20
-0.846642
  0
VERTEX
  8
PLAN_1
 62
     2
  6
CONTINUOUS
 10
0.498858
 20
-0.845614
  0
VERTEX
  8
PLAN_1
 62
     2
  6
CONTINUOUS
 10
0.497319
 20
-0.844587
  0
VERTEX
  8
PLAN_1
 62
     2
  6
CONTINUOUS
 10
0.495264
 20
-0.842016
  0
VERTEX
  8
PLAN_1
 62
     2
  6
CONTINUOUS
 10
0.493720
 20
-0.839961
  0
VERTEX
  8
PLAN_1
 62
     2
  6
CONTINUOUS
 10
0.492177
 20
-0.837906
  0
VERTEX
  8
PLAN_1
 62
     2
  6
CONTINUOUS
 10
0.491150
 20
-0.835335
  0
VERTEX
  8
PLAN_1
 62
     2
  6
CONTINUOUS
 10
0.490638
 20
-0.832764
  0
VERTEX
  8
PLAN_1
 62
     2
  6
CONTINUOUS
 10
0.490122
 20
-0.830709
  0
VERTEX
  8
PLAN_1
 62
     2
  6
CONTINUOUS
 10
0.489606
 20
-0.828138
  0
VERTEX
  8
PLAN_1
 62
     2
  6
CONTINUOUS
 10
0.489606
 20
-0.825567
  0
VERTEX
  8
PLAN_1
 62
     2
  6
CONTINUOUS
 10
0.499374
 20
-0.825567
  0
VERTEX
  8
PLAN_1
 62
     2
  6
CONTINUOUS
 10
0.499374
 20
-0.827622
  0
VERTEX
  8
PLAN_1
 62
     2
  6
CONTINUOUS
 10
0.499890
 20
-0.830193
  0
VERTEX
  8
PLAN_1
 62
     2
  6
CONTINUOUS
 10
0.500402
 20
-0.832248
  0
VERTEX
  8
PLAN_1
 62
     2
  6
CONTINUOUS
 10
0.500917
 20
-0.833791
  0
VERTEX
  8
PLAN_1
 62
     2
  6
CONTINUOUS
 10
0.502972
 20
-0.836878
  0
VERTEX
  8
PLAN_1
 62
     2
  6
CONTINUOUS
 10
0.506055
 20
-0.839445
  0
VERTEX
  8
PLAN_1
 62
     2
  6
CONTINUOUS
 10
0.509142
 20
-0.840988
  0
VERTEX
  8
PLAN_1
 62
     2
  6
CONTINUOUS
 10
0.512736
 20
-0.842016
  0
VERTEX
  8
PLAN_1
 62
     2
  6
CONTINUOUS
 10
0.516335
 20
-0.842531
  0
VERTEX
  8
PLAN_1
 62
     2
  6
CONTINUOUS
 10
0.519933
 20
-0.843043
  0
VERTEX
  8
PLAN_1
 62
     2
  6
CONTINUOUS
 10
0.522504
 20
-0.842531
  0
VERTEX
  8
PLAN_1
 62
     2
  6
CONTINUOUS
 10
0.526102
 20
-0.842531
  0
VERTEX
  8
PLAN_1
 62
     2
  6
CONTINUOUS
 10
0.529185
 20
-0.841504
  0
VERTEX
  8
PLAN_1
 62
     2
  6
CONTINUOUS
 10
0.532272
 20
-0.840472
  0
VERTEX
  8
PLAN_1
 62
     2
  6
CONTINUOUS
 10
0.535354
 20
-0.838933
  0
VERTEX
  8
PLAN_1
 62
     2
  6
CONTINUOUS
 10
0.537409
 20
-0.836878
  0
VERTEX
  8
PLAN_1
 62
     2
  6
CONTINUOUS
 10
0.538437
 20
-0.835335
  0
VERTEX
  8
PLAN_1
 62
     2
  6
CONTINUOUS
 10
0.538953
 20
-0.833791
  0
VERTEX
  8
PLAN_1
 62
     2
  6
CONTINUOUS
 10
0.539465
 20
-0.832248
  0
VERTEX
  8
PLAN_1
 62
     2
  6
CONTINUOUS
 10
0.539465
 20
-0.830193
  0
VERTEX
  8
PLAN_1
 62
     2
  6
CONTINUOUS
 10
0.539465
 20
-0.827622
  0
VERTEX
  8
PLAN_1
 62
     2
  6
CONTINUOUS
 10
0.538437
 20
-0.825567
  0
VERTEX
  8
PLAN_1
 62
     2
  6
CONTINUOUS
 10
0.537409
 20
-0.823512
  0
VERTEX
  8
PLAN_1
 62
     2
  6
CONTINUOUS
 10
0.535866
 20
-0.821969
  0
VERTEX
  8
PLAN_1
 62
     2
  6
CONTINUOUS
 10
0.533811
 20
-0.820429
  0
VERTEX
  8
PLAN_1
 62
     2
  6
CONTINUOUS
 10
0.531240
 20
-0.819402
  0
VERTEX
  8
PLAN_1
 62
     2
  6
CONTINUOUS
 10
0.527646
 20
-0.818370
  0
VERTEX
  8
PLAN_1
 62
     2
  6
CONTINUOUS
 10
0.523531
 20
-0.816831
  0
VERTEX
  8
PLAN_1
 62
     2
  6
CONTINUOUS
 10
0.508110
 20
-0.813744
  0
VERTEX
  8
PLAN_1
 62
     2
  6
CONTINUOUS
 10
0.506055
 20
-0.813232
  0
VERTEX
  8
PLAN_1
 62
     2
  6
CONTINUOUS
 10
0.503484
 20
-0.812205
  0
VERTEX
  8
PLAN_1
 62
     2
  6
CONTINUOUS
 10
0.500917
 20
-0.810661
  0
VERTEX
  8
PLAN_1
 62
     2
  6
CONTINUOUS
 10
0.498346
 20
-0.809118
  0
VERTEX
  8
PLAN_1
 62
     2
  6
CONTINUOUS
 10
0.495776
 20
-0.807063
  0
VERTEX
  8
PLAN_1
 62
     2
  6
CONTINUOUS
 10
0.494232
 20
-0.803980
  0
VERTEX
  8
PLAN_1
 62
     2
  6
CONTINUOUS
 10
0.492693
 20
-0.800382
  0
VERTEX
  8
PLAN_1
 62
     2
  6
CONTINUOUS
 10
0.492177
 20
-0.795756
  0
VERTEX
  8
PLAN_1
 62
     2
  6
CONTINUOUS
 10
0.492693
 20
-0.791646
  0
VERTEX
  8
PLAN_1
 62
     2
  6
CONTINUOUS
 10
0.493720
 20
-0.787531
  0
VERTEX
  8
PLAN_1
 62
     2
  6
CONTINUOUS
 10
0.495776
 20
-0.783421
  0
VERTEX
  8
PLAN_1
 62
     2
  6
CONTINUOUS
 10
0.498346
 20
-0.779823
  0
VERTEX
  8
PLAN_1
 62
     2
  6
CONTINUOUS
 10
0.499890
 20
-0.778280
  0
VERTEX
  8
PLAN_1
 62
     2
  6
CONTINUOUS
 10
0.501945
 20
-0.777252
  0
VERTEX
  8
PLAN_1
 62
     2
  6
CONTINUOUS
 10
0.504000
 20
-0.775709
  0
VERTEX
  8
PLAN_1
 62
     2
  6
CONTINUOUS
 10
0.506055
 20
-0.774681
  0
VERTEX
  8
PLAN_1
 62
     2
  6
CONTINUOUS
 10
0.508626
 20
-0.774169
  0
VERTEX
  8
PLAN_1
 62
     2
  6
CONTINUOUS
 10
0.511709
 20
-0.773142
  0
VERTEX
  8
PLAN_1
 62
     2
  6
CONTINUOUS
 10
0.514795
 20
-0.773142
  0
VERTEX
  8
PLAN_1
 62
     2
  6
CONTINUOUS
 10
0.517878
 20
-0.772626
  0
VERTEX
  8
PLAN_1
 62
     2
  6
CONTINUOUS
 10
0.522504
 20
-0.773142
  0
VERTEX
  8
PLAN_1
 62
     2
  6
CONTINUOUS
 10
0.526614
 20
-0.773654
  0
VERTEX
  8
PLAN_1
 62
     2
  6
CONTINUOUS
 10
0.530213
 20
-0.774169
  0
VERTEX
  8
PLAN_1
 62
     2
  6
CONTINUOUS
 10
0.533299
 20
-0.775197
  0
VERTEX
  8
PLAN_1
 62
     2
  6
CONTINUOUS
 10
0.536382
 20
-0.776736
  0
VERTEX
  8
PLAN_1
 62
     2
  6
CONTINUOUS
 10
0.538437
 20
-0.778280
  0
VERTEX
  8
PLAN_1
 62
     2
  6
CONTINUOUS
 10
0.540492
 20
-0.779823
  0
VERTEX
  8
PLAN_1
 62
     2
  6
CONTINUOUS
 10
0.542035
 20
-0.781878
  0
VERTEX
  8
PLAN_1
 62
     2
  6
CONTINUOUS
 10
0.544606
 20
-0.785476
  0
VERTEX
  8
PLAN_1
 62
     2
  6
CONTINUOUS
 10
0.546150
 20
-0.789587
  0
VERTEX
  8
PLAN_1
 62
     2
  6
CONTINUOUS
 10
0.546661
 20
-0.793185
  0
VERTEX
  8
PLAN_1
 62
     2
  6
CONTINUOUS
 10
0.547177
 20
-0.796783
  0
VERTEX
  8
PLAN_1
 62
     2
  6
CONTINUOUS
 10
0.537409
 20
-0.796783
  0
SEQEND
  8
0
  0
POLYLINE
  8
PLAN_1
 62
     2
  6
CONTINUOUS
 66
     1
 40
0.003000
 41
0.003000
  0
VERTEX
  8
PLAN_1
 62
     2
  6
CONTINUOUS
 10
0.594465
 20
-0.851268
  0
VERTEX
  8
PLAN_1
 62
     2
  6
CONTINUOUS
 10
0.589839
 20
-0.851268
  0
VERTEX
  8
PLAN_1
 62
     2
  6
CONTINUOUS
 10
0.585213
 20
-0.850240
  0
VERTEX
  8
PLAN_1
 62
     2
  6
CONTINUOUS
 10
0.581098
 20
-0.849213
  0
VERTEX
  8
PLAN_1
 62
     2
  6
CONTINUOUS
 10
0.576988
 20
-0.847669
  0
VERTEX
  8
PLAN_1
 62
     2
  6
CONTINUOUS
 10
0.573906
 20
-0.845614
  0
VERTEX
  8
PLAN_1
 62
     2
  6
CONTINUOUS
 10
0.570819
 20
-0.843559
  0
VERTEX
  8
PLAN_1
 62
     2
  6
CONTINUOUS
 10
0.568248
 20
-0.840988
  0
VERTEX
  8
PLAN_1
 62
     2
  6
CONTINUOUS
 10
0.566193
 20
-0.837906
  0
VERTEX
  8
PLAN_1
 62
     2
  6
CONTINUOUS
 10
0.564138
 20
-0.834819
  0
VERTEX
  8
PLAN_1
 62
     2
  6
CONTINUOUS
 10
0.562594
 20
-0.831736
  0
VERTEX
  8
PLAN_1
 62
     2
  6
CONTINUOUS
 10
0.561055
 20
-0.828654
  0
VERTEX
  8
PLAN_1
 62
     2
  6
CONTINUOUS
 10
0.560028
 20
-0.825055
  0
VERTEX
  8
PLAN_1
 62
     2
  6
CONTINUOUS
 10
0.558484
 20
-0.818370
  0
VERTEX
  8
PLAN_1
 62
     2
  6
CONTINUOUS
 10
0.557969
 20
-0.812205
  0
VERTEX
  8
PLAN_1
 62
     2
  6
CONTINUOUS
 10
0.558484
 20
-0.806035
  0
VERTEX
  8
PLAN_1
 62
     2
  6
CONTINUOUS
 10
0.560028
 20
-0.799354
  0
VERTEX
  8
PLAN_1
 62
     2
  6
CONTINUOUS
 10
0.561055
 20
-0.795756
  0
VERTEX
  8
PLAN_1
 62
     2
  6
CONTINUOUS
 10
0.562594
 20
-0.792673
  0
VERTEX
  8
PLAN_1
 62
     2
  6
CONTINUOUS
 10
0.564138
 20
-0.789587
  0
VERTEX
  8
PLAN_1
 62
     2
  6
CONTINUOUS
 10
0.566193
 20
-0.786504
  0
VERTEX
  8
PLAN_1
 62
     2
  6
CONTINUOUS
 10
0.568248
 20
-0.783421
  0
VERTEX
  8
PLAN_1
 62
     2
  6
CONTINUOUS
 10
0.570819
 20
-0.780850
  0
VERTEX
  8
PLAN_1
 62
     2
  6
CONTINUOUS
 10
0.573906
 20
-0.778795
  0
VERTEX
  8
PLAN_1
 62
     2
  6
CONTINUOUS
 10
0.576988
 20
-0.776736
  0
VERTEX
  8
PLAN_1
 62
     2
  6
CONTINUOUS
 10
0.581098
 20
-0.775197
  0
VERTEX
  8
PLAN_1
 62
     2
  6
CONTINUOUS
 10
0.585213
 20
-0.773654
  0
VERTEX
  8
PLAN_1
 62
     2
  6
CONTINUOUS
 10
0.589839
 20
-0.773142
  0
VERTEX
  8
PLAN_1
 62
     2
  6
CONTINUOUS
 10
0.594465
 20
-0.772626
  0
VERTEX
  8
PLAN_1
 62
     2
  6
CONTINUOUS
 10
0.599602
 20
-0.773142
  0
VERTEX
  8
PLAN_1
 62
     2
  6
CONTINUOUS
 10
0.604228
 20
-0.773654
  0
VERTEX
  8
PLAN_1
 62
     2
  6
CONTINUOUS
 10
0.608343
 20
-0.775197
  0
VERTEX
  8
PLAN_1
 62
     2
  6
CONTINUOUS
 10
0.611941
 20
-0.776736
  0
VERTEX
  8
PLAN_1
 62
     2
  6
CONTINUOUS
 10
0.615539
 20
-0.778795
  0
VERTEX
  8
PLAN_1
 62
     2
  6
CONTINUOUS
 10
0.618622
 20
-0.780850
  0
VERTEX
  8
PLAN_1
 62
     2
  6
CONTINUOUS
 10
0.621193
 20
-0.783421
  0
VERTEX
  8
PLAN_1
 62
     2
  6
CONTINUOUS
 10
0.623248
 20
-0.786504
  0
VERTEX
  8
PLAN_1
 62
     2
  6
CONTINUOUS
 10
0.625303
 20
-0.789587
  0
VERTEX
  8
PLAN_1
 62
     2
  6
CONTINUOUS
 10
0.626846
 20
-0.792673
  0
VERTEX
  8
PLAN_1
 62
     2
  6
CONTINUOUS
 10
0.628390
 20
-0.795756
  0
VERTEX
  8
PLAN_1
 62
     2
  6
CONTINUOUS
 10
0.629417
 20
-0.799354
  0
VERTEX
  8
PLAN_1
 62
     2
  6
CONTINUOUS
 10
0.630445
 20
-0.806035
  0
VERTEX
  8
PLAN_1
 62
     2
  6
CONTINUOUS
 10
0.630957
 20
-0.812205
  0
VERTEX
  8
PLAN_1
 62
     2
  6
CONTINUOUS
 10
0.630445
 20
-0.818370
  0
VERTEX
  8
PLAN_1
 62
     2
  6
CONTINUOUS
 10
0.629417
 20
-0.825055
  0
VERTEX
  8
PLAN_1
 62
     2
  6
CONTINUOUS
 10
0.628390
 20
-0.828654
  0
VERTEX
  8
PLAN_1
 62
     2
  6
CONTINUOUS
 10
0.626846
 20
-0.831736
  0
VERTEX
  8
PLAN_1
 62
     2
  6
CONTINUOUS
 10
0.625303
 20
-0.834819
  0
VERTEX
  8
PLAN_1
 62
     2
  6
CONTINUOUS
 10
0.623248
 20
-0.837906
  0
VERTEX
  8
PLAN_1
 62
     2
  6
CONTINUOUS
 10
0.621193
 20
-0.840988
  0
VERTEX
  8
PLAN_1
 62
     2
  6
CONTINUOUS
 10
0.618622
 20
-0.843559
  0
VERTEX
  8
PLAN_1
 62
     2
  6
CONTINUOUS
 10
0.615539
 20
-0.845614
  0
VERTEX
  8
PLAN_1
 62
     2
  6
CONTINUOUS
 10
0.611941
 20
-0.847669
  0
VERTEX
  8
PLAN_1
 62
     2
  6
CONTINUOUS
 10
0.608343
 20
-0.849213
  0
VERTEX
  8
PLAN_1
 62
     2
  6
CONTINUOUS
 10
0.604228
 20
-0.850240
  0
VERTEX
  8
PLAN_1
 62
     2
  6
CONTINUOUS
 10
0.599602
 20
-0.851268
  0
VERTEX
  8
PLAN_1
 62
     2
  6
CONTINUOUS
 10
0.594465
 20
-0.851268
  0
SEQEND
  8
0
  0
POLYLINE
  8
PLAN_1
 62
     2
  6
CONTINUOUS
 66
     1
 40
0.003000
 41
0.003000
  0
VERTEX
  8
PLAN_1
 62
     2
  6
CONTINUOUS
 10
0.594465
 20
-0.781878
  0
VERTEX
  8
PLAN_1
 62
     2
  6
CONTINUOUS
 10
0.591894
 20
-0.781878
  0
VERTEX
  8
PLAN_1
 62
     2
  6
CONTINUOUS
 10
0.588811
 20
-0.782394
  0
VERTEX
  8
PLAN_1
 62
     2
  6
CONTINUOUS
 10
0.586240
 20
-0.782906
  0
VERTEX
  8
PLAN_1
 62
     2
  6
CONTINUOUS
 10
0.583669
 20
-0.783933
  0
VERTEX
  8
PLAN_1
 62
     2
  6
CONTINUOUS
 10
0.581614
 20
-0.785476
  0
VERTEX
  8
PLAN_1
 62
     2
  6
CONTINUOUS
 10
0.579043
 20
-0.787020
  0
VERTEX
  8
PLAN_1
 62
     2
  6
CONTINUOUS
 10
0.577504
 20
-0.788559
  0
VERTEX
  8
PLAN_1
 62
     2
  6
CONTINUOUS
 10
0.575445
 20
-0.790614
  0
VERTEX
  8
PLAN_1
 62
     2
  6
CONTINUOUS
 10
0.573906
 20
-0.792673
  0
VERTEX
  8
PLAN_1
 62
     2
  6
CONTINUOUS
 10
0.572362
 20
-0.794728
  0
VERTEX
  8
PLAN_1
 62
     2
  6
CONTINUOUS
 10
0.571335
 20
-0.797299
  0
VERTEX
  8
PLAN_1
 62
     2
  6
CONTINUOUS
 10
0.570307
 20
-0.799866
  0
VERTEX
  8
PLAN_1
 62
     2
  6
CONTINUOUS
 10
0.569280
 20
-0.806035
  0
VERTEX
  8
PLAN_1
 62
     2
  6
CONTINUOUS
 10
0.568764
 20
-0.812205
  0
VERTEX
  8
PLAN_1
 62
     2
  6
CONTINUOUS
 10
0.569280
 20
-0.818370
  0
VERTEX
  8
PLAN_1
 62
     2
  6
CONTINUOUS
 10
0.570307
 20
-0.824539
  0
VERTEX
  8
PLAN_1
 62
     2
  6
CONTINUOUS
 10
0.571335
 20
-0.827110
  0
VERTEX
  8
PLAN_1
 62
     2
  6
CONTINUOUS
 10
0.572362
 20
-0.829681
  0
VERTEX
  8
PLAN_1
 62
     2
  6
CONTINUOUS
 10
0.573906
 20
-0.831736
  0
VERTEX
  8
PLAN_1
 62
     2
  6
CONTINUOUS
 10
0.575445
 20
-0.833791
  0
VERTEX
  8
PLAN_1
 62
     2
  6
CONTINUOUS
 10
0.577504
 20
-0.835846
  0
VERTEX
  8
PLAN_1
 62
     2
  6
CONTINUOUS
 10
0.579043
 20
-0.837390
  0
VERTEX
  8
PLAN_1
 62
     2
  6
CONTINUOUS
 10
0.581614
 20
-0.838933
  0
VERTEX
  8
PLAN_1
 62
     2
  6
CONTINUOUS
 10
0.583669
 20
-0.840472
  0
VERTEX
  8
PLAN_1
 62
     2
  6
CONTINUOUS
 10
0.586240
 20
-0.841504
  0
VERTEX
  8
PLAN_1
 62
     2
  6
CONTINUOUS
 10
0.588811
 20
-0.842016
  0
VERTEX
  8
PLAN_1
 62
     2
  6
CONTINUOUS
 10
0.591894
 20
-0.842531
  0
VERTEX
  8
PLAN_1
 62
     2
  6
CONTINUOUS
 10
0.594465
 20
-0.842531
  0
VERTEX
  8
PLAN_1
 62
     2
  6
CONTINUOUS
 10
0.597547
 20
-0.842531
  0
VERTEX
  8
PLAN_1
 62
     2
  6
CONTINUOUS
 10
0.600634
 20
-0.842016
  0
VERTEX
  8
PLAN_1
 62
     2
  6
CONTINUOUS
 10
0.603201
 20
-0.841504
  0
VERTEX
  8
PLAN_1
 62
     2
  6
CONTINUOUS
 10
0.605772
 20
-0.840472
  0
VERTEX
  8
PLAN_1
 62
     2
  6
CONTINUOUS
 10
0.607827
 20
-0.838933
  0
VERTEX
  8
PLAN_1
 62
     2
  6
CONTINUOUS
 10
0.609886
 20
-0.837390
  0
VERTEX
  8
PLAN_1
 62
     2
  6
CONTINUOUS
 10
0.611941
 20
-0.835846
  0
VERTEX
  8
PLAN_1
 62
     2
  6
CONTINUOUS
 10
0.613480
 20
-0.833791
  0
VERTEX
  8
PLAN_1
 62
     2
  6
CONTINUOUS
 10
0.615024
 20
-0.831736
  0
VERTEX
  8
PLAN_1
 62
     2
  6
CONTINUOUS
 10
0.616567
 20
-0.829681
  0
VERTEX
  8
PLAN_1
 62
     2
  6
CONTINUOUS
 10
0.617594
 20
-0.827110
  0
VERTEX
  8
PLAN_1
 62
     2
  6
CONTINUOUS
 10
0.618622
 20
-0.824539
  0
VERTEX
  8
PLAN_1
 62
     2
  6
CONTINUOUS
 10
0.620165
 20
-0.818370
  0
VERTEX
  8
PLAN_1
 62
     2
  6
CONTINUOUS
 10
0.620677
 20
-0.812205
  0
VERTEX
  8
PLAN_1
 62
     2
  6
CONTINUOUS
 10
0.620165
 20
-0.806035
  0
VERTEX
  8
PLAN_1
 62
     2
  6
CONTINUOUS
 10
0.618622
 20
-0.799866
  0
VERTEX
  8
PLAN_1
 62
     2
  6
CONTINUOUS
 10
0.617594
 20
-0.797299
  0
VERTEX
  8
PLAN_1
 62
     2
  6
CONTINUOUS
 10
0.616567
 20
-0.794728
  0
VERTEX
  8
PLAN_1
 62
     2
  6
CONTINUOUS
 10
0.615024
 20
-0.792673
  0
VERTEX
  8
PLAN_1
 62
     2
  6
CONTINUOUS
 10
0.613480
 20
-0.790614
  0
VERTEX
  8
PLAN_1
 62
     2
  6
CONTINUOUS
 10
0.611941
 20
-0.788559
  0
VERTEX
  8
PLAN_1
 62
     2
  6
CONTINUOUS
 10
0.609886
 20
-0.787020
  0
VERTEX
  8
PLAN_1
 62
     2
  6
CONTINUOUS
 10
0.607827
 20
-0.785476
  0
VERTEX
  8
PLAN_1
 62
     2
  6
CONTINUOUS
 10
0.605772
 20
-0.783933
  0
VERTEX
  8
PLAN_1
 62
     2
  6
CONTINUOUS
 10
0.603201
 20
-0.782906
  0
VERTEX
  8
PLAN_1
 62
     2
  6
CONTINUOUS
 10
0.600634
 20
-0.782394
  0
VERTEX
  8
PLAN_1
 62
     2
  6
CONTINUOUS
 10
0.597547
 20
-0.781878
  0
VERTEX
  8
PLAN_1
 62
     2
  6
CONTINUOUS
 10
0.594465
 20
-0.781878
  0
SEQEND
  8
0
  0
ENDSEC
  0
EOF
